  0
SECTION
  2
HEADER
  9
$ACADVER
  1
AC1015
  9
$ACADMAINTVER
 70
     6
  9
$DWGCODEPAGE
  3
DOS932
  9
$INSBASE
 10
0.0
 20
0.0
 30
0.0
  9
$EXTMIN
 10
0.0
 20
0.0
 30
0.0
  9
$EXTMAX
 10
594.0
 20
420.0
 30
0.0
  9
$LIMMIN
 10
0.0
 20
0.0
  9
$LIMMAX
 10
594.0
 20
420.0
  9
$ORTHOMODE
 70
     0
  9
$REGENMODE
 70
     1
  9
$FILLMODE
 70
     1
  9
$QTEXTMODE
 70
     0
  9
$MIRRTEXT
 70
     1
  9
$LTSCALE
 40
2.0
  9
$ATTMODE
 70
     1
  9
$TEXTSIZE
 40
7.0555555556
  9
$TRACEWID
 40
1.0
  9
$TEXTSTYLE
  7
Standard
  9
$CLAYER
  8
0
  9
$CELTYPE
  6
ByLayer
  9
$CECOLOR
 62
   256
  9
$CELTSCALE
 40
1.0
  9
$DISPSILH
 70
     0
  9
$DIMSCALE
 40
1.0
  9
$DIMASZ
 40
5.45703125
  9
$DIMEXO
 40
2.0
  9
$DIMDLI
 40
3.75
  9
$DIMRND
 40
0.0
  9
$DIMDLE
 40
0.0
  9
$DIMEXE
 40
2.0
  9
$DIMTP
 40
0.0
  9
$DIMTM
 40
0.0
  9
$DIMTXT
 40
7.0555555556
  9
$DIMCEN
 40
2.5
  9
$DIMTSZ
 40
0.0
  9
$DIMTOL
 70
     0
  9
$DIMLIM
 70
     0
  9
$DIMTIH
 70
     1
  9
$DIMTOH
 70
     1
  9
$DIMSE1
 70
     0
  9
$DIMSE2
 70
     0
  9
$DIMTAD
 70
     1
  9
$DIMZIN
 70
     0
  9
$DIMBLK
  1

  9
$DIMASO
 70
     1
  9
$DIMSHO
 70
     1
  9
$DIMPOST
  1

  9
$DIMAPOST
  1

  9
$DIMALT
 70
     0
  9
$DIMALTD
 70
     3
  9
$DIMALTF
 40
0.0393700787
  9
$DIMLFAC
 40
1.0
  9
$DIMTOFL
 70
     1
  9
$DIMTVP
 40
0.0
  9
$DIMTIX
 70
     0
  9
$DIMSOXD
 70
     0
  9
$DIMSAH
 70
     0
  9
$DIMBLK1
  1

  9
$DIMBLK2
  1

  9
$DIMSTYLE
  2
ISO-25
  9
$DIMCLRD
 70
     0
  9
$DIMCLRE
 70
     0
  9
$DIMCLRT
 70
     0
  9
$DIMTFAC
 40
1.0
  9
$DIMGAP
 40
3.048
  9
$DIMJUST
 70
     0
  9
$DIMSD1
 70
     0
  9
$DIMSD2
 70
     0
  9
$DIMTOLJ
 70
     0
  9
$DIMTZIN
 70
     0
  9
$DIMALTZ
 70
     0
  9
$DIMALTTZ
 70
     0
  9
$DIMUPT
 70
     0
  9
$DIMDEC
 70
     2
  9
$DIMTDEC
 70
     2
  9
$DIMALTU
 70
     2
  9
$DIMALTTD
 70
     3
  9
$DIMTXSTY
  7
Standard
  9
$DIMAUNIT
 70
     0
  9
$DIMADEC
 70
     2
  9
$DIMALTRND
 40
0.0
  9
$DIMAZIN
 70
     0
  9
$DIMDSEP
 70
    44
  9
$DIMATFIT
 70
     3
  9
$DIMFRAC
 70
     0
  9
$DIMLDRBLK
  1

  9
$DIMLUNIT
 70
     2
  9
$DIMLWD
 70
    -2
  9
$DIMLWE
 70
    -2
  9
$DIMTMOVE
 70
     0
  9
$LUNITS
 70
     2
  9
$LUPREC
 70
     2
  9
$SKETCHINC
 40
1.0
  9
$FILLETRAD
 40
0.0
  9
$AUNITS
 70
     0
  9
$AUPREC
 70
     2
  9
$MENU
  1
.
  9
$ELEVATION
 40
0.0
  9
$PELEVATION
 40
0.0
  9
$THICKNESS
 40
0.0
  9
$LIMCHECK
 70
     0
  9
$CHAMFERA
 40
0.0
  9
$CHAMFERB
 40
0.0
  9
$CHAMFERC
 40
0.0
  9
$CHAMFERD
 40
0.0
  9
$SKPOLY
 70
     0
  9
$TDCREATE
 40
2460305.563803264
  9
$TDUCREATE
 40
2460305.188803264
  9
$TDUPDATE
 40
2460305.563804155
  9
$TDUUPDATE
 40
2460305.188804155
  9
$TDINDWG
 40
0.0000000116
  9
$TDUSRTIMER
 40
0.0000000116
  9
$USRTIMER
 70
     1
  9
$ANGBASE
 50
0.0
  9
$ANGDIR
 70
     0
  9
$PDMODE
 70
     0
  9
$PDSIZE
 40
-1.0
  9
$PLINEWID
 40
0.0
  9
$SPLFRAME
 70
     0
  9
$SPLINETYPE
 70
     6
  9
$SPLINESEGS
 70
     8
  9
$HANDSEED
  5
278
  9
$SURFTAB1
 70
     6
  9
$SURFTAB2
 70
     6
  9
$SURFTYPE
 70
     6
  9
$SURFU
 70
     6
  9
$SURFV
 70
     6
  9
$UCSBASE
  2

  9
$UCSNAME
  2

  9
$UCSORG
 10
0.0
 20
0.0
 30
0.0
  9
$UCSXDIR
 10
1.0
 20
0.0
 30
0.0
  9
$UCSYDIR
 10
0.0
 20
1.0
 30
0.0
  9
$UCSORTHOREF
  2

  9
$UCSORTHOVIEW
 70
     0
  9
$UCSORGTOP
 10
0.0
 20
0.0
 30
0.0
  9
$UCSORGBOTTOM
 10
0.0
 20
0.0
 30
0.0
  9
$UCSORGLEFT
 10
0.0
 20
0.0
 30
0.0
  9
$UCSORGRIGHT
 10
0.0
 20
0.0
 30
0.0
  9
$UCSORGFRONT
 10
0.0
 20
0.0
 30
0.0
  9
$UCSORGBACK
 10
0.0
 20
0.0
 30
0.0
  9
$PUCSBASE
  2

  9
$PUCSNAME
  2

  9
$PUCSORG
 10
0.0
 20
0.0
 30
0.0
  9
$PUCSXDIR
 10
1.0
 20
0.0
 30
0.0
  9
$PUCSYDIR
 10
0.0
 20
1.0
 30
0.0
  9
$PUCSORTHOREF
  2

  9
$PUCSORTHOVIEW
 70
     0
  9
$PUCSORGTOP
 10
0.0
 20
0.0
 30
0.0
  9
$PUCSORGBOTTOM
 10
0.0
 20
0.0
 30
0.0
  9
$PUCSORGLEFT
 10
0.0
 20
0.0
 30
0.0
  9
$PUCSORGRIGHT
 10
0.0
 20
0.0
 30
0.0
  9
$PUCSORGFRONT
 10
0.0
 20
0.0
 30
0.0
  9
$PUCSORGBACK
 10
0.0
 20
0.0
 30
0.0
  9
$USERI1
 70
     0
  9
$USERI2
 70
     0
  9
$USERI3
 70
     0
  9
$USERI4
 70
     0
  9
$USERI5
 70
     0
  9
$USERR1
 40
0.0
  9
$USERR2
 40
0.0
  9
$USERR3
 40
0.0
  9
$USERR4
 40
0.0
  9
$USERR5
 40
0.0
  9
$WORLDVIEW
 70
     1
  9
$SHADEDGE
 70
     3
  9
$SHADEDIF
 70
    70
  9
$TILEMODE
 70
     1
  9
$MAXACTVP
 70
    64
  9
$PINSBASE
 10
0.0
 20
0.0
 30
0.0
  9
$PLIMCHECK
 70
     0
  9
$PEXTMIN
 10
1.0000000000E+20
 20
1.0000000000E+20
 30
1.0000000000E+20
  9
$PEXTMAX
 10
-1.0000000000E+20
 20
-1.0000000000E+20
 30
-1.0000000000E+20
  9
$PLIMMIN
 10
0.0
 20
0.0
  9
$PLIMMAX
 10
420.0
 20
297.0
  9
$UNITMODE
 70
     0
  9
$VISRETAIN
 70
     1
  9
$PLINEGEN
 70
     0
  9
$PSLTSCALE
 70
     1
  9
$TREEDEPTH
 70
  3020
  9
$CMLSTYLE
  2
Standard
  9
$CMLJUST
 70
     0
  9
$CMLSCALE
 40
20.0
  9
$PROXYGRAPHICS
 70
     1
  9
$MEASUREMENT
 70
     1
  9
$CELWEIGHT
370
    -1
  9
$ENDCAPS
280
     0
  9
$JOINSTYLE
280
     0
  9
$LWDISPLAY
290
     1
  9
$INSUNITS
 70
     4
  9
$HYPERLINKBASE
  1

  9
$STYLESHEET
  1

  9
$XEDIT
290
     1
  9
$CEPSNTYPE
380
     0
  9
$PSTYLEMODE
290
     1
  9
$FINGERPRINTGUID
  2
{1a34008c-e099-49e9-be2b-a6f01740ede1}
  9
$VERSIONGUID
  2
{FAEB1C32-E019-11D5-929B-00C0DF256EC4}
  9
$EXTNAMES
290
     1
  9
$PSVPSCALE
 40
0.0
  9
$OLESTARTUP
290
     0
  0
ENDSEC
  0
SECTION
  2
CLASSES
  0
CLASS
  1
ACDBDICTIONARYWDFLT
  2
AcDbDictionaryWithDefault
  3
ObjectDBX Classes
 90
        0
280
     0
281
     0
  0
CLASS
  1
VISUALSTYLE
  2
AcDbVisualStyle
  3
ObjectDBX Classes
 90
     4095
280
     0
281
     0
  0
CLASS
  1
MATERIAL
  2
AcDbMaterial
  3
ObjectDBX Classes
 90
     1153
280
     0
281
     0
  0
CLASS
  1
SCALE
  2
AcDbScale
  3
ObjectDBX Classes
 90
     1153
280
     0
281
     0
  0
CLASS
  1
TABLESTYLE
  2
AcDbTableStyle
  3
ObjectDBX Classes
 90
     4095
280
     0
281
     0
  0
CLASS
  1
MLEADERSTYLE
  2
AcDbMLeaderStyle
  3
ACDB_MLEADERSTYLE_CLASS
 90
     4095
280
     0
281
     0
  0
CLASS
  1
SUN
  2
AcDbSun
  3
SCENEOE
 90
     1153
280
     0
281
     0
  0
CLASS
  1
ACDBPLACEHOLDER
  2
AcDbPlaceHolder
  3
ObjectDBX Classes
 90
        0
280
     0
281
     0
  0
CLASS
  1
LAYOUT
  2
AcDbLayout
  3
ObjectDBX Classes
 90
        0
280
     0
281
     0
  0
ENDSEC
  0
SECTION
  2
TABLES
  0
TABLE
  2
VPORT
  5
8
330
0
100
AcDbSymbolTable
 70
     1
  0
VPORT
  5
29
330
8
100
AcDbSymbolTableRecord
100
AcDbViewportTableRecord
  2
*Active
 70
     0
 10
0.0
 20
0.0
 11
1.0
 21
1.0
 12
297.0
 22
210.0
 13
0.0
 23
0.0
 14
10.0
 24
10.0
 15
10.0
 25
10.0
 16
0.0
 26
0.0
 36
1.0
 17
0.0
 27
0.0
 37
0.0
 40
420.0
 41
1.4142857143
 42
50.0
 43
0.0
 44
0.0
 50
0.0
 51
0.0
 71
     0
 72
  2000
 73
     1
 74
     3
 75
     0
 76
     0
 77
     0
 78
     0
281
     0
 65
     1
110
0.0
120
0.0
130
0.0
111
1.0
121
0.0
131
0.0
112
0.0
122
1.0
132
0.0
 79
     0
146
0.0
  0
ENDTAB
  0
TABLE
  2
LTYPE
  5
5
330
0
100
AcDbSymbolTable
 70
     6
  0
LTYPE
  5
14
330
5
100
AcDbSymbolTableRecord
100
AcDbLinetypeTableRecord
  2
ByBlock
 70
     0
  3

 72
    65
 73
     0
 40
0.0
  0
LTYPE
  5
15
330
5
100
AcDbSymbolTableRecord
100
AcDbLinetypeTableRecord
  2
ByLayer
 70
     0
  3

 72
    65
 73
     0
 40
0.0
  0
LTYPE
  5
16
330
5
100
AcDbSymbolTableRecord
100
AcDbLinetypeTableRecord
  2
Continuous
 70
     0
  3
Solid line
 72
    65
 73
     0
 40
0.0
  0
LTYPE
  5
5E
330
5
100
AcDbSymbolTableRecord
100
AcDbLinetypeTableRecord
  2
HIDDEN
 70
     0
  3
Hidden __ __ __ __ __ __ __ __ __ __ __ __ __ __
 72
    65
 73
     2
 40
1.905
 49
1.27
 74
     0
 49
-0.635
 74
     0
  0
LTYPE
  5
5F
330
5
100
AcDbSymbolTableRecord
100
AcDbLinetypeTableRecord
  2
PHANTOM
 70
     0
  3
Phantom ______  __  __  ______  __  __  ______
 72
    65
 73
     6
 40
12.7
 49
6.35
 74
     0
 49
-1.27
 74
     0
 49
1.27
 74
     0
 49
-1.27
 74
     0
 49
1.27
 74
     0
 49
-1.27
 74
     0
  0
LTYPE
  5
60
330
5
100
AcDbSymbolTableRecord
100
AcDbLinetypeTableRecord
  2
CENTER
 70
     0
  3
Center ____ _ ____ _ ____ _ ____ _ ____ _ ____
 72
    65
 73
     4
 40
10.16
 49
6.35
 74
     0
 49
-1.27
 74
     0
 49
1.27
 74
     0
 49
-1.27
 74
     0
  0
LTYPE
  5
61
330
5
100
AcDbSymbolTableRecord
100
AcDbLinetypeTableRecord
  2
CENTERX2
 70
     0
  3
Center (2x) ________  __  ________  __  _____
 72
    65
 73
     4
 40
20.32
 49
12.7
 74
     0
 49
-2.54
 74
     0
 49
2.54
 74
     0
 49
-2.54
 74
     0
  0
LTYPE
  5
62
330
5
100
AcDbSymbolTableRecord
100
AcDbLinetypeTableRecord
  2
DOT2
 70
     0
  3
Dot (.5x) ........................................
 72
    65
 73
     2
 40
0.635
 49
0.0
 74
     0
 49
-0.635
 74
     0
  0
ENDTAB
  0
TABLE
  2
LAYER
  5
2
330
0
100
AcDbSymbolTable
 70
     2
  0
LAYER
  5
10
330
2
100
AcDbSymbolTableRecord
100
AcDbLayerTableRecord
  2
0
 70
     0
 62
     7
  6
Continuous
370
    -3
390
F
  0
LAYER
  5
63
330
2
100
AcDbSymbolTableRecord
100
AcDbLayerTableRecord
  2
FORMAT
 70
     0
 62
     7
  6
Continuous
370
    -3
390
F
  0
ENDTAB
  0
TABLE
  2
STYLE
  5
3
330
0
100
AcDbSymbolTable
 70
     2
  0
STYLE
  5
11
330
3
100
AcDbSymbolTableRecord
100
AcDbTextStyleTableRecord
  2
Standard
 70
     0
 40
0.0
 41
1.0
 50
0.0
 71
     0
 42
7.0555555556
  3
txt
  4
bigfont
  0
STYLE
  5
64
330
3
100
AcDbSymbolTableRecord
100
AcDbTextStyleTableRecord
  2
SLDTEXTSTYLE0
 70
     0
 40
0.0
 41
0.7
 50
0.0
 71
     0
 42
7.0555555556
  3
TXT
  4
bigfont
  0
ENDTAB
  0
TABLE
  2
VIEW
  5
6
330
0
100
AcDbSymbolTable
 70
     0
  0
ENDTAB
  0
TABLE
  2
UCS
  5
7
330
0
100
AcDbSymbolTable
 70
     0
  0
ENDTAB
  0
TABLE
  2
APPID
  5
9
330
0
100
AcDbSymbolTable
 70
     1
  0
APPID
  5
12
330
9
100
AcDbSymbolTableRecord
100
AcDbRegAppTableRecord
  2
ACAD
 70
     0
  0
ENDTAB
  0
TABLE
  2
DIMSTYLE
  5
A
330
0
100
AcDbSymbolTable
 70
     1
100
AcDbDimStyleTable
  0
DIMSTYLE
105
27
330
A
100
AcDbSymbolTableRecord
100
AcDbDimStyleTableRecord
  2
ISO-25
 70
     0
 41
2.5
 42
0.625
 43
3.75
 44
1.25
 73
     0
 74
     0
 77
     1
 78
     8
140
2.5
141
2.5
143
0.0393700787
147
0.625
171
     3
172
     1
178
     0
271
     2
272
     2
274
     3
278
    44
283
     0
284
     8
340
11
  0
ENDTAB
  0
TABLE
  2
BLOCK_RECORD
  5
1
330
0
100
AcDbSymbolTable
 70
     3
  0
BLOCK_RECORD
  5
1F
330
1
100
AcDbSymbolTableRecord
100
AcDbBlockTableRecord
  2
*Model_Space
340
22
  0
BLOCK_RECORD
  5
1B
330
1
100
AcDbSymbolTableRecord
100
AcDbBlockTableRecord
  2
*Paper_Space
340
1E
  0
BLOCK_RECORD
  5
23
330
1
100
AcDbSymbolTableRecord
100
AcDbBlockTableRecord
  2
*Paper_Space0
340
26
  0
BLOCK_RECORD
  5
1D0
330
1
100
AcDbSymbolTableRecord
100
AcDbBlockTableRecord
  2
SW_CENTERMARKSYMBOL_0
340
0
102
{BLKREFS
331
1DB
102
}
  0
BLOCK_RECORD
  5
268
330
1
100
AcDbSymbolTableRecord
100
AcDbBlockTableRecord
  2
SW_CENTERMARKSYMBOL_1
340
0
102
{BLKREFS
331
273
102
}
  0
ENDTAB
  0
ENDSEC
  0
SECTION
  2
BLOCKS
  0
BLOCK
  5
20
330
1F
100
AcDbEntity
  8
0
100
AcDbBlockBegin
  2
*Model_Space
 70
     0
 10
0.0
 20
0.0
 30
0.0
  3
*Model_Space
  1

  0
ENDBLK
  5
21
330
1F
100
AcDbEntity
  8
0
100
AcDbBlockEnd
  0
BLOCK
  5
1C
330
1B
100
AcDbEntity
 67
     1
  8
0
100
AcDbBlockBegin
  2
*Paper_Space
 70
     0
 10
0.0
 20
0.0
 30
0.0
  3
*Paper_Space
  1

  0
ENDBLK
  5
1D
330
1B
100
AcDbEntity
 67
     1
  8
0
100
AcDbBlockEnd
  0
BLOCK
  5
24
330
23
100
AcDbEntity
  8
0
100
AcDbBlockBegin
  2
*Paper_Space0
 70
     0
 10
0.0
 20
0.0
 30
0.0
  3
*Paper_Space0
  1

  0
ENDBLK
  5
25
330
23
100
AcDbEntity
  8
0
100
AcDbBlockEnd
  0
BLOCK
  5
1D1
330
1D0
100
AcDbEntity
  8
0
100
AcDbBlockBegin
  2
SW_CENTERMARKSYMBOL_0
 70
     0
 10
0.0
 20
0.0
 30
0.0
  3
SW_CENTERMARKSYMBOL_0
  1

  0
LINE
  5
1D3
330
1D0
100
AcDbEntity
  8
FORMAT
 62
     0
100
AcDbLine
 10
0.0
 20
0.0
 30
0.0
 11
0.0
 21
2.5
 31
0.0
  0
LINE
  5
1D4
330
1D0
100
AcDbEntity
  8
FORMAT
 62
     0
100
AcDbLine
 10
0.0
 20
0.0
 30
0.0
 11
-2.5
 21
0.0
 31
0.0
  0
LINE
  5
1D5
330
1D0
100
AcDbEntity
  8
FORMAT
 62
     0
100
AcDbLine
 10
0.0
 20
0.0
 30
0.0
 11
0.0
 21
-2.5
 31
0.0
  0
LINE
  5
1D6
330
1D0
100
AcDbEntity
  8
FORMAT
 62
     0
100
AcDbLine
 10
0.0
 20
0.0
 30
0.0
 11
2.5
 21
0.0
 31
0.0
  0
LINE
  5
1D7
330
1D0
100
AcDbEntity
  8
FORMAT
 62
     0
100
AcDbLine
 10
0.0
 20
5.0
 30
0.0
 11
0.0
 21
30.0749946787
 31
0.0
  0
LINE
  5
1D8
330
1D0
100
AcDbEntity
  8
FORMAT
 62
     0
100
AcDbLine
 10
-5.0
 20
0.0
 30
0.0
 11
-10.75
 21
0.0
 31
0.0
  0
LINE
  5
1D9
330
1D0
100
AcDbEntity
  8
FORMAT
 62
     0
100
AcDbLine
 10
0.0
 20
-5.0
 30
0.0
 11
0.0
 21
-25.4540787223
 31
0.0
  0
LINE
  5
1DA
330
1D0
100
AcDbEntity
  8
FORMAT
 62
     0
100
AcDbLine
 10
5.0
 20
0.0
 30
0.0
 11
10.75
 21
0.0
 31
0.0
  0
ENDBLK
  5
1D2
330
1D0
100
AcDbEntity
  8
0
100
AcDbBlockEnd
  0
BLOCK
  5
269
330
268
100
AcDbEntity
  8
0
100
AcDbBlockBegin
  2
SW_CENTERMARKSYMBOL_1
 70
     0
 10
0.0
 20
0.0
 30
0.0
  3
SW_CENTERMARKSYMBOL_1
  1

  0
LINE
  5
26B
330
268
100
AcDbEntity
  8
FORMAT
 62
     0
100
AcDbLine
 10
0.0
 20
0.0
 30
0.0
 11
0.0
 21
2.5
 31
0.0
  0
LINE
  5
26C
330
268
100
AcDbEntity
  8
FORMAT
 62
     0
100
AcDbLine
 10
0.0
 20
0.0
 30
0.0
 11
-2.5
 21
0.0
 31
0.0
  0
LINE
  5
26D
330
268
100
AcDbEntity
  8
FORMAT
 62
     0
100
AcDbLine
 10
0.0
 20
0.0
 30
0.0
 11
0.0
 21
-2.5
 31
0.0
  0
LINE
  5
26E
330
268
100
AcDbEntity
  8
FORMAT
 62
     0
100
AcDbLine
 10
0.0
 20
0.0
 30
0.0
 11
2.5
 21
0.0
 31
0.0
  0
LINE
  5
26F
330
268
100
AcDbEntity
  8
FORMAT
 62
     0
100
AcDbLine
 10
0.0
 20
5.0
 30
0.0
 11
0.0
 21
9.95
 31
0.0
  0
LINE
  5
270
330
268
100
AcDbEntity
  8
FORMAT
 62
     0
100
AcDbLine
 10
-5.0
 20
0.0
 30
0.0
 11
-25.8662525755
 21
0.0
 31
0.0
  0
LINE
  5
271
330
268
100
AcDbEntity
  8
FORMAT
 62
     0
100
AcDbLine
 10
0.0
 20
-5.0
 30
0.0
 11
0.0
 21
-9.95
 31
0.0
  0
LINE
  5
272
330
268
100
AcDbEntity
  8
FORMAT
 62
     0
100
AcDbLine
 10
5.0
 20
0.0
 30
0.0
 11
41.2084697505
 21
0.0
 31
0.0
  0
ENDBLK
  5
26A
330
268
100
AcDbEntity
  8
0
100
AcDbBlockEnd
  0
ENDSEC
  0
SECTION
  2
ENTITIES
  0
MTEXT
  5
65
330
1F
100
AcDbEntity
  8
FORMAT
100
AcDbMText
 10
249.299273825
 20
145.4587774003
 30
0.0
 40
5.2916666667
 41
0.0
 71
     1
 72
     1
  1
エースボール　アングル型
  7
SLDTEXTSTYLE0
 73
     1
 44
1.0
  0
MTEXT
  5
66
330
1F
100
AcDbEntity
  8
FORMAT
100
AcDbMText
 10
249.299273825
 20
136.4032216022
 30
0.0
 40
5.2916666667
 41
0.0
 71
     1
 72
     1
  1
BS-3022R
  7
SLDTEXTSTYLE0
 73
     1
 44
1.0
  0
LINE
  5
67
330
1F
100
AcDbEntity
  8
0
  6
Continuous
 62
     7
370
    25
100
AcDbLine
 10
200.6239435735
 20
99.7736847577
 30
0.0
 11
200.4239435735
 21
99.5736847577
 31
0.0
  0
LINE
  5
68
330
1F
100
AcDbEntity
  8
0
  6
Continuous
 62
     7
370
    25
100
AcDbLine
 10
200.4239435735
 20
82.9736847577
 30
0.0
 11
200.6239435735
 21
82.7736847577
 31
0.0
  0
LINE
  5
69
330
1F
100
AcDbEntity
  8
0
  6
Continuous
 62
     7
370
    25
100
AcDbLine
 10
203.4239435735
 20
99.7736847577
 30
0.0
 11
200.6239435735
 21
99.7736847577
 31
0.0
  0
LINE
  5
6A
330
1F
100
AcDbEntity
  8
0
  6
Continuous
 62
     7
370
    25
100
AcDbLine
 10
200.6239435735
 20
82.7736847577
 30
0.0
 11
203.4239435735
 21
82.7736847577
 31
0.0
  0
LINE
  5
6B
330
1F
100
AcDbEntity
  8
0
  6
Continuous
 62
     7
370
    25
100
AcDbLine
 10
200.4239435735
 20
97.8521847577
 30
0.0
 11
191.4239435735
 21
97.8521847577
 31
0.0
  0
LINE
  5
6C
330
1F
100
AcDbEntity
  8
0
  6
Continuous
 62
     7
370
    25
100
AcDbLine
 10
191.4239435735
 20
84.6951847577
 30
0.0
 11
200.4239435735
 21
84.6951847577
 31
0.0
  0
LINE
  5
6D
330
1F
100
AcDbEntity
  8
0
  6
Continuous
 62
     7
370
    25
100
AcDbLine
 10
191.4239435735
 20
97.8521847577
 30
0.0
 11
190.4239435735
 21
96.8521847577
 31
0.0
  0
LINE
  5
6E
330
1F
100
AcDbEntity
  8
0
  6
Continuous
 62
     7
370
    25
100
AcDbLine
 10
190.4239435735
 20
85.6951847577
 30
0.0
 11
191.4239435735
 21
84.6951847577
 31
0.0
  0
LINE
  5
6F
330
1F
100
AcDbEntity
  8
0
  6
Continuous
 62
     7
370
    25
100
AcDbLine
 10
226.0650748263
 20
81.5360804506
 30
0.0
 11
226.9239435735
 21
83.0236847577
 31
0.0
  0
LINE
  5
70
330
1F
100
AcDbEntity
  8
0
  6
Continuous
 62
     7
370
    25
100
AcDbLine
 10
226.9239435735
 20
99.5236847577
 30
0.0
 11
226.0650748263
 21
101.0112890647
 31
0.0
  0
LINE
  5
71
330
1F
100
AcDbEntity
  8
0
  6
Continuous
 62
     7
370
    25
100
AcDbLine
 10
208.1657560735
 20
79.2736847577
 30
0.0
 11
208.4593915149
 21
69.8773506315
 31
0.0
  0
LINE
  5
72
330
1F
100
AcDbEntity
  8
0
  6
Continuous
 62
     7
370
    25
100
AcDbLine
 10
221.388495632
 20
69.8773506315
 30
0.0
 11
221.6821310735
 21
79.2736847577
 31
0.0
  0
SPLINE
  5
73
330
1F
100
AcDbEntity
  8
0
  6
Continuous
 62
     7
370
    25
100
AcDbSpline
210
0.0
220
0.0
230
1.0
 70
     8
 71
     3
 72
    12
 73
     8
 74
     0
 42
0.00000001
 43
0.00000001
 40
0.0
 40
0.0
 40
0.0
 40
0.0
 40
0.1006618681722386
 40
0.366695946184476
 40
0.6398512116709161
 40
0.915694513128362
 40
1.0
 40
1.0
 40
1.0
 40
1.0
 10
209.0331561307162
 20
100.7734367354622
 30
0.0
 10
209.0347289934552
 20
100.7470923029048
 30
0.0
 10
209.0404586942921
 20
100.651123523478
 30
0.0
 10
209.0067855796137
 20
100.4840731181377
 30
0.0
 10
208.9274276730388
 20
100.2862802842066
 30
0.0
 10
208.838765651565
 20
100.1422211763879
 30
0.0
 10
208.7687036369129
 20
100.0788873226157
 30
0.0
 10
208.7523031589775
 20
100.0640618072988
 30
0.0
  0
SPLINE
  5
74
330
1F
100
AcDbEntity
  8
0
  6
Continuous
 62
     7
370
    25
100
AcDbSpline
210
0.0
220
0.0
230
1.0
 70
     8
 71
     3
 72
    12
 73
     8
 74
     0
 42
0.00000001
 43
0.00000001
 40
0.0
 40
0.0
 40
0.0
 40
0.0
 40
0.0822009477548243
 40
0.3909607345332664
 40
0.6698937649015235
 40
0.9248927873850343
 40
1.0
 40
1.0
 40
1.0
 40
1.0
 10
221.1093294897976
 20
100.0795882204845
 30
0.0
 10
221.0937524236406
 20
100.0936533110352
 30
0.0
 10
221.0196654283811
 20
100.1605491106969
 30
0.0
 10
220.9290768748537
 20
100.3099696207361
 30
0.0
 10
220.8523805782427
 20
100.5102865296701
 30
0.0
 10
220.8219872707045
 20
100.665079288065
 30
0.0
 10
220.8258922993501
 20
100.7492391183247
 30
0.0
 10
220.8267807885259
 20
100.7683875305413
 30
0.0
  0
LINE
  5
75
330
1F
100
AcDbEntity
  8
0
  6
Continuous
 62
     7
370
    25
100
AcDbLine
 10
208.4593915149
 20
69.8773506315
 30
0.0
 11
209.6739435735
 21
67.7736847577
 31
0.0
  0
LINE
  5
76
330
1F
100
AcDbEntity
  8
0
  6
Continuous
 62
     7
370
    25
100
AcDbLine
 10
220.1739435735
 20
67.7736847577
 30
0.0
 11
221.388495632
 21
69.8773506315
 31
0.0
  0
LINE
  5
77
330
1F
100
AcDbEntity
  8
0
  6
Continuous
 62
     7
370
    25
100
AcDbLine
 10
220.8239435735
 20
100.7691539376
 30
0.0
 11
220.8239435735
 21
101.7736847577
 31
0.0
  0
LINE
  5
78
330
1F
100
AcDbEntity
  8
0
  6
Continuous
 62
     7
370
    25
100
AcDbLine
 10
209.0239435735
 20
101.7736847577
 30
0.0
 11
209.0239435735
 21
100.7736847577
 31
0.0
  0
LINE
  5
79
330
1F
100
AcDbEntity
  8
0
  6
Continuous
 62
     7
370
    25
100
AcDbLine
 10
208.7537766661
 20
100.0684224869
 30
0.0
 11
208.2094123936
 21
101.0112890647
 31
0.0
  0
LINE
  5
7A
330
1F
100
AcDbEntity
  8
0
  6
Continuous
 62
     7
370
    25
100
AcDbLine
 10
204.1384747533
 20
101.0112890647
 30
0.0
 11
203.4239435735
 21
99.7736847577
 31
0.0
  0
LINE
  5
7B
330
1F
100
AcDbEntity
  8
0
  6
Continuous
 62
     7
370
    25
100
AcDbLine
 10
221.6384747533
 20
101.0112890647
 30
0.0
 11
221.0941104808
 21
100.0684224869
 31
0.0
  0
LINE
  5
7C
330
1F
100
AcDbEntity
  8
0
  6
Continuous
 62
     7
370
    25
100
AcDbLine
 10
223.4239435735
 20
79.2736847577
 30
0.0
 11
224.6615478805
 21
79.9882159375
 31
0.0
  0
LINE
  5
7D
330
1F
100
AcDbEntity
  8
0
  6
Continuous
 62
     7
370
    25
100
AcDbLine
 10
203.4239435735
 20
82.7736847577
 30
0.0
 11
204.1384747533
 21
81.5360804506
 31
0.0
  0
LINE
  5
7E
330
1F
100
AcDbEntity
  8
0
  6
Continuous
 62
     7
370
    25
100
AcDbLine
 10
205.1863392664
 20
79.9882159375
 30
0.0
 11
206.4239435735
 21
79.2736847577
 31
0.0
  0
LINE
  5
7F
330
1F
100
AcDbEntity
  8
0
  6
Continuous
 62
     7
370
    25
100
AcDbLine
 10
224.6615478805
 20
79.9856555562
 30
0.0
 11
224.6615478805
 21
81.5360804506
 31
0.0
  0
LINE
  5
80
330
1F
100
AcDbEntity
  8
0
  6
Continuous
 62
     7
370
    25
100
AcDbLine
 10
224.6615478805
 20
81.5360804506
 30
0.0
 11
226.0676428818
 21
81.5360804506
 31
0.0
  0
LINE
  5
81
330
1F
100
AcDbEntity
  8
0
  6
Continuous
 62
     7
370
    25
100
AcDbLine
 10
208.2119804491
 20
101.0112890647
 30
0.0
 11
204.135914372
 21
101.0112890647
 31
0.0
  0
LINE
  5
82
330
1F
100
AcDbEntity
  8
0
  6
Continuous
 62
     7
370
    25
100
AcDbLine
 10
226.0676428818
 20
101.0112890647
 30
0.0
 11
221.6359066978
 21
101.0112890647
 31
0.0
  0
LINE
  5
83
330
1F
100
AcDbEntity
  8
0
  6
Continuous
 62
     7
370
    25
100
AcDbLine
 10
205.1863392664
 20
81.5360804506
 30
0.0
 11
205.1863392664
 21
79.9856555562
 31
0.0
  0
LINE
  5
84
330
1F
100
AcDbEntity
  8
0
  6
Continuous
 62
     7
370
    25
100
AcDbLine
 10
204.135914372
 20
81.5360804506
 30
0.0
 11
205.1863392664
 21
81.5360804506
 31
0.0
  0
LINE
  5
85
330
1F
100
AcDbEntity
  8
0
  6
Continuous
 62
     7
370
    25
100
AcDbLine
 10
209.4239435735
 20
117.7736847576
 30
0.0
 11
207.4739435735
 21
109.7736847577
 31
0.0
  0
LINE
  5
86
330
1F
100
AcDbEntity
  8
0
  6
Continuous
 62
     7
370
    25
100
AcDbLine
 10
207.4739435735
 20
109.7736847577
 30
0.0
 11
207.9239435735
 21
101.7736847577
 31
0.0
  0
LINE
  5
87
330
1F
100
AcDbEntity
  8
0
  6
Continuous
 62
     7
370
    25
100
AcDbLine
 10
221.9239435735
 20
101.7736847577
 30
0.0
 11
221.9946001992
 21
103.029802549
 31
0.0
  0
LINE
  5
88
330
1F
100
AcDbEntity
  8
0
  6
Continuous
 62
     7
370
    25
100
AcDbLine
 10
220.677175108
 20
116.7347861545
 30
0.0
 11
220.4239435734
 21
117.7736847576
 31
0.0
  0
LINE
  5
89
330
1F
100
AcDbEntity
  8
0
  6
Continuous
 62
     7
370
    25
100
AcDbLine
 10
200.4239435735
 20
82.9736847577
 30
0.0
 11
200.4239435735
 21
99.5736847577
 31
0.0
  0
LINE
  5
8A
330
1F
100
AcDbEntity
  8
0
  6
Continuous
 62
     7
370
    25
100
AcDbLine
 10
200.6239435735
 20
99.7736847577
 30
0.0
 11
200.6239435735
 21
82.7736847577
 31
0.0
  0
LINE
  5
8B
330
1F
100
AcDbEntity
  8
0
  6
Continuous
 62
     7
370
    25
100
AcDbLine
 10
203.4239435735
 20
82.7736847577
 30
0.0
 11
203.4239435735
 21
99.7736847577
 31
0.0
  0
LINE
  5
8C
330
1F
100
AcDbEntity
  8
0
  6
Continuous
 62
     7
370
    25
100
AcDbLine
 10
191.4239435735
 20
97.8521847577
 30
0.0
 11
191.4239435735
 21
84.6951847577
 31
0.0
  0
LINE
  5
8D
330
1F
100
AcDbEntity
  8
0
  6
Continuous
 62
     7
370
    25
100
AcDbLine
 10
190.4239435735
 20
85.6951847577
 30
0.0
 11
190.4239435735
 21
96.8521847577
 31
0.0
  0
LINE
  5
8E
330
1F
100
AcDbEntity
  8
0
  6
Continuous
 62
     7
370
    25
100
AcDbLine
 10
208.9239435735
 20
98.6349006898
 30
0.0
 11
208.9239435735
 21
95.2736847577
 31
0.0
  0
SPLINE
  5
8F
330
1F
100
AcDbEntity
  8
0
  6
Continuous
 62
     7
370
    25
100
AcDbSpline
210
0.0
220
0.0
230
1.0
 70
     8
 71
     3
 72
     8
 73
     4
 74
     0
 42
0.00000001
 43
0.00000001
 40
0.0
 40
0.0
 40
0.0
 40
0.0
 40
1.0
 40
1.0
 40
1.0
 40
1.0
 10
208.4077074964756
 20
95.27368475766349
 30
0.0
 10
208.356808779553
 20
95.48072979609248
 30
0.0
 10
208.3028746433023
 20
95.68696912576911
 30
0.0
 10
208.2462221681945
 20
95.8924869111805
 30
0.0
  0
SPLINE
  5
90
330
1F
100
AcDbEntity
  8
0
  6
Continuous
 62
     7
370
    25
100
AcDbSpline
210
0.0
220
0.0
230
1.0
 70
     8
 71
     3
 72
    10
 73
     6
 74
     0
 42
0.00000001
 43
0.00000001
 40
0.0
 40
0.0
 40
0.0
 40
0.0
 40
0.5
 40
0.5
 40
1.0
 40
1.0
 40
1.0
 40
1.0
 10
208.2462221681945
 20
96.32549961307271
 30
0.0
 10
208.2225467737702
 20
96.28255608217148
 30
0.0
 10
208.2094556638855
 20
96.21911363754735
 30
0.0
 10
208.2093693425972
 20
96.06663480042839
 30
0.0
 10
208.2225382765411
 20
95.97840479832112
 30
0.0
 10
208.2462221681945
 20
95.8924869111805
 30
0.0
  0
SPLINE
  5
91
330
1F
100
AcDbEntity
  8
0
  6
Continuous
 62
     7
370
    25
100
AcDbSpline
210
0.0
220
0.0
230
1.0
 70
     8
 71
     3
 72
    12
 73
     8
 74
     0
 42
0.00000001
 43
0.00000001
 40
0.0
 40
0.0
 40
0.0
 40
0.0
 40
0.2500000000000001
 40
0.2500000000000001
 40
0.5000000000000002
 40
0.5000000000000002
 40
1.0
 40
1.0
 40
1.0
 40
1.0
 10
208.9239435734547
 20
98.63490068983121
 30
0.0
 10
208.9239435734547
 20
98.43915842695169
 30
0.0
 10
208.9081006373658
 20
98.24249181776113
 30
0.0
 10
208.8465977771281
 20
97.85322359043286
 30
0.0
 10
208.8009941360844
 20
97.65981955747993
 30
0.0
 10
208.6245431185952
 20
97.08289050622318
 30
0.0
 10
208.4541457513434
 20
96.70264107302016
 30
0.0
 10
208.2462221681945
 20
96.32549961307271
 30
0.0
  0
SPLINE
  5
92
330
1F
100
AcDbEntity
  8
0
  6
Continuous
 62
     7
370
    25
100
AcDbSpline
210
0.0
220
0.0
230
1.0
 70
     8
 71
     3
 72
    10
 73
     6
 74
     0
 42
0.00000001
 43
0.00000001
 40
0.0
 40
0.0
 40
0.0
 40
0.0
 40
0.5000000000000001
 40
0.5000000000000001
 40
1.0
 40
1.0
 40
1.0
 40
1.0
 10
210.3051414199377
 20
79.95140616292365
 30
0.0
 10
211.0558201194335
 20
79.74447610939094
 30
0.0
 10
211.8201010636562
 20
79.57267049901725
 30
0.0
 10
213.3746757977437
 20
79.33571999248586
 30
0.0
 10
214.1502507652599
 20
79.27368475766349
 30
0.0
 10
214.9239435734547
 20
79.27368475766349
 30
0.0
  0
LINE
  5
93
330
1F
100
AcDbEntity
  8
0
  6
Continuous
 62
     7
370
    25
100
AcDbLine
 10
210.3051414199
 20
83.3072882178
 30
0.0
 11
210.3051414199
 21
79.9514061629
 31
0.0
  0
SPLINE
  5
94
330
1F
100
AcDbEntity
  8
0
  6
Continuous
 62
     7
370
    25
100
AcDbSpline
210
0.0
220
0.0
230
1.0
 70
     8
 71
     3
 72
     8
 73
     4
 74
     0
 42
0.00000001
 43
0.00000001
 40
0.0
 40
0.0
 40
0.0
 40
0.0
 40
1.0
 40
1.0
 40
1.0
 40
1.0
 10
210.3051414199377
 20
83.30728821780849
 30
0.0
 10
210.510327242481
 20
83.3638491849327
 30
0.0
 10
210.7165504431883
 20
83.41778925634654
 30
0.0
 10
210.9239435734547
 20
83.46877354608951
 30
0.0
  0
SPLINE
  5
95
330
1F
100
AcDbEntity
  8
0
  6
Continuous
 62
     7
370
    25
100
AcDbSpline
210
0.0
220
0.0
230
1.0
 70
     8
 71
     3
 72
     8
 73
     4
 74
     0
 42
0.00000001
 43
0.00000001
 40
0.0
 40
0.0
 40
0.0
 40
0.0
 40
1.0
 40
1.0
 40
1.0
 40
1.0
 10
208.2462221681945
 20
86.65488260414645
 30
0.0
 10
208.3027855376628
 20
86.8600771416562
 30
0.0
 10
208.356725460484
 20
87.06630079517338
 30
0.0
 10
208.4077074964756
 20
87.27368475766347
 30
0.0
  0
LINE
  5
96
330
1F
100
AcDbEntity
  8
0
  6
Continuous
 62
     7
370
    25
100
AcDbLine
 10
204.1016649787
 20
86.6548826041
 30
0.0
 11
208.2462221682
 21
86.6548826041
 31
0.0
  0
SPLINE
  5
97
330
1F
100
AcDbEntity
  8
0
  6
Continuous
 62
     7
370
    25
100
AcDbSpline
210
0.0
220
0.0
230
1.0
 70
     8
 71
     3
 72
    10
 73
     6
 74
     0
 42
0.00000001
 43
0.00000001
 40
0.0
 40
0.0
 40
0.0
 40
0.0
 40
0.5
 40
0.5
 40
1.0
 40
1.0
 40
1.0
 40
1.0
 10
204.1016649787149
 20
86.65488260414647
 30
0.0
 10
203.8935963024837
 20
87.40969187719575
 30
0.0
 10
203.7231972964592
 20
88.17043826442766
 30
0.0
 10
203.4880373167603
 20
89.70858064205092
 30
0.0
 10
203.4239435734547
 20
90.48608179457574
 30
0.0
 10
203.4239435734547
 20
91.27368475766347
 30
0.0
  0
SPLINE
  5
98
330
1F
100
AcDbEntity
  8
0
  6
Continuous
 62
     7
370
    25
100
AcDbSpline
210
0.0
220
0.0
230
1.0
 70
     8
 71
     3
 72
    12
 73
     8
 74
     0
 42
0.00000001
 43
0.00000001
 40
0.0
 40
0.0
 40
0.0
 40
0.0
 40
0.2500000000000001
 40
0.2500000000000001
 40
0.5000000000000001
 40
0.5000000000000001
 40
1.0
 40
1.0
 40
1.0
 40
1.0
 10
203.4239435734547
 20
91.27368475766347
 30
0.0
 10
203.4239435734547
 20
91.66800283833531
 30
0.0
 10
203.4399423784358
 20
92.06166188228576
 30
0.0
 10
203.5017125167502
 20
92.84119788183109
 30
0.0
 10
203.5474546410518
 20
93.22815106995652
 30
0.0
 10
203.7241247883986
 20
94.38153763281053
 30
0.0
 10
203.8943798538789
 20
95.14052012201556
 30
0.0
 10
204.1016649787149
 20
95.8924869111805
 30
0.0
  0
LINE
  5
99
330
1F
100
AcDbEntity
  8
0
  6
Continuous
 62
     7
370
    25
100
AcDbLine
 10
208.2462221682
 20
95.8924869112
 30
0.0
 11
204.1016649787
 21
95.8924869112
 31
0.0
  0
SPLINE
  5
9A
330
1F
100
AcDbEntity
  8
0
  6
Continuous
 62
     7
370
    25
100
AcDbSpline
210
0.0
220
0.0
230
1.0
 70
     8
 71
     3
 72
     8
 73
     4
 74
     0
 42
0.00000001
 43
0.00000001
 40
0.0
 40
0.0
 40
0.0
 40
0.0
 40
1.0
 40
1.0
 40
1.0
 40
1.0
 10
221.4401796504339
 20
95.27368475766356
 30
0.0
 10
221.491075883689
 20
95.4807196930673
 30
0.0
 10
221.5450098386527
 20
95.68695945813229
 30
0.0
 10
221.601664978715
 20
95.8924869111805
 30
0.0
  0
LINE
  5
9B
330
1F
100
AcDbEntity
  8
0
  6
Continuous
 62
     7
370
    25
100
AcDbLine
 10
226.1018846009
 20
95.8924869112
 30
0.0
 11
221.6016649787
 21
95.8924869112
 31
0.0
  0
SPLINE
  5
9C
330
1F
100
AcDbEntity
  8
0
  6
Continuous
 62
     7
370
    25
100
AcDbSpline
210
0.0
220
0.0
230
1.0
 70
     8
 71
     3
 72
    14
 73
    10
 74
     0
 42
0.00000001
 43
0.00000001
 40
0.0
 40
0.0
 40
0.0
 40
0.0
 40
0.25
 40
0.25
 40
0.5
 40
0.5
 40
0.75
 40
0.75
 40
1.0
 40
1.0
 40
1.0
 40
1.0
 10
226.1018846008971
 20
86.65488260414644
 30
0.0
 10
226.3098349616029
 20
87.40926266479642
 30
0.0
 10
226.4820567702918
 20
88.1787038322619
 30
0.0
 10
226.7166918930427
 20
89.71921519320307
 30
0.0
 10
226.7796359516704
 20
90.49406957321008
 30
0.0
 10
226.7795760389389
 20
92.05443052809564
 30
0.0
 10
226.7149613726468
 20
92.84488672088068
 30
0.0
 10
226.4784020332456
 20
94.38716638368915
 30
0.0
 10
226.3080568931661
 20
95.14455713689034
 30
0.0
 10
226.1018846008971
 20
95.8924869111805
 30
0.0
  0
LINE
  5
9D
330
1F
100
AcDbEntity
  8
0
  6
Continuous
 62
     7
370
    25
100
AcDbLine
 10
221.6016649787
 20
86.6548826041
 30
0.0
 11
226.1018846009
 21
86.6548826041
 31
0.0
  0
SPLINE
  5
9E
330
1F
100
AcDbEntity
  8
0
  6
Continuous
 62
     7
370
    25
100
AcDbSpline
210
0.0
220
0.0
230
1.0
 70
     8
 71
     3
 72
     8
 73
     4
 74
     0
 42
0.00000001
 43
0.00000001
 40
0.0
 40
0.0
 40
0.0
 40
0.0
 40
1.0
 40
1.0
 40
1.0
 40
1.0
 10
221.6016649787149
 20
86.65488260414645
 30
0.0
 10
221.545103135278
 20
86.86007160568326
 30
0.0
 10
221.4911631180216
 20
87.06629497174796
 30
0.0
 10
221.4401796504339
 20
87.27368475766342
 30
0.0
  0
SPLINE
  5
9F
330
1F
100
AcDbEntity
  8
0
  6
Continuous
 62
     7
370
    25
100
AcDbSpline
210
0.0
220
0.0
230
1.0
 70
     8
 71
     3
 72
     8
 73
     4
 74
     0
 42
0.00000001
 43
0.00000001
 40
0.0
 40
0.0
 40
0.0
 40
0.0
 40
1.0
 40
1.0
 40
1.0
 40
1.0
 10
218.9239435734547
 20
83.46877354608951
 30
0.0
 10
219.1309726367901
 20
83.41787875638867
 30
0.0
 10
219.3372126540595
 20
83.36394490702725
 30
0.0
 10
219.5427457269717
 20
83.30728821780848
 30
0.0
  0
LINE
  5
A0
330
1F
100
AcDbEntity
  8
0
  6
Continuous
 62
     7
370
    25
100
AcDbLine
 10
219.542745727
 20
79.9514061629
 30
0.0
 11
219.542745727
 21
83.3072882178
 31
0.0
  0
SPLINE
  5
A1
330
1F
100
AcDbEntity
  8
0
  6
Continuous
 62
     7
370
    25
100
AcDbSpline
210
0.0
220
0.0
230
1.0
 70
     8
 71
     3
 72
    10
 73
     6
 74
     0
 42
0.00000001
 43
0.00000001
 40
0.0
 40
0.0
 40
0.0
 40
0.0
 40
0.5
 40
0.5
 40
1.0
 40
1.0
 40
1.0
 40
1.0
 10
214.9239435734547
 20
79.27368475766349
 30
0.0
 10
215.6995235100617
 20
79.27368475766349
 30
0.0
 10
216.4732137287881
 20
79.335969119642
 30
0.0
 10
218.017248271121
 20
79.57081723764902
 30
0.0
 10
218.7905569472758
 20
79.74405984478022
 30
0.0
 10
219.5427457269717
 20
79.95140616292367
 30
0.0
  0
ARC
  5
A2
330
1F
100
AcDbEntity
  8
0
  6
Continuous
 62
     7
370
    25
100
AcDbCircle
 10
216.4746749292
 20
90.6967657644
 30
0.0
 40
0.889000000000007
100
AcDbArc
 50
45.0
 51
315.0
  0
LINE
  5
A3
330
1F
100
AcDbEntity
  8
0
  6
Continuous
 62
     7
370
    25
100
AcDbLine
 10
217.1032928577
 20
91.3253836928
 30
0.0
 11
217.5699032433
 21
91.7919940785
 31
0.0
  0
ARC
  5
A4
330
1F
100
AcDbEntity
  8
0
  6
Continuous
 62
     7
370
    25
100
AcDbCircle
 10
216.4746749292
 20
90.6967657644
 30
0.0
 40
1.548886735692394
100
AcDbArc
 50
45.0
 51
315.0
  0
LINE
  5
A5
330
1F
100
AcDbEntity
  8
0
  6
Continuous
 62
     7
370
    25
100
AcDbLine
 10
217.5699032433
 20
89.6015374503
 30
0.0
 11
217.1032928577
 21
90.0681478359
 31
0.0
  0
ARC
  5
A6
330
1F
100
AcDbEntity
  8
0
  6
Continuous
 62
     7
370
    25
100
AcDbCircle
 10
219.8168195255
 20
90.6967657644
 30
0.0
 40
0.8889999999999768
100
AcDbArc
 50
45.0
 51
159.0751675724
  0
LINE
  5
A7
330
1F
100
AcDbEntity
  8
0
  6
Continuous
 62
     7
370
    25
100
AcDbLine
 10
220.445437454
 20
91.3253836928
 30
0.0
 11
220.9120478396
 21
91.7919940785
 31
0.0
  0
ARC
  5
A8
330
1F
100
AcDbEntity
  8
0
  6
Continuous
 62
     7
370
    25
100
AcDbCircle
 10
219.8168195255
 20
90.6967657644
 30
0.0
 40
1.548886735692384
100
AcDbArc
 50
45.0
 51
315.0
  0
LINE
  5
A9
330
1F
100
AcDbEntity
  8
0
  6
Continuous
 62
     7
370
    25
100
AcDbLine
 10
220.9120478396
 20
89.6015374503
 30
0.0
 11
220.445437454
 21
90.0681478359
 31
0.0
  0
ARC
  5
AA
330
1F
100
AcDbEntity
  8
0
  6
Continuous
 62
     7
370
    25
100
AcDbCircle
 10
219.8168195255
 20
90.6967657644
 30
0.0
 40
0.8890000000000191
100
AcDbArc
 50
200.9248324276
 51
315.0
  0
LINE
  5
AB
330
1F
100
AcDbEntity
  8
0
  6
Continuous
 62
     7
370
    25
100
AcDbLine
 10
218.9864492768
 20
90.3792657644
 30
0.0
 11
220.9120478396
 21
90.3792657644
 31
0.0
  0
LINE
  5
AC
330
1F
100
AcDbEntity
  8
0
  6
Continuous
 62
     7
370
    25
100
AcDbLine
 10
220.9120478396
 20
90.3792657644
 30
0.0
 11
220.9120478396
 21
91.0142657644
 31
0.0
  0
LINE
  5
AD
330
1F
100
AcDbEntity
  8
0
  6
Continuous
 62
     7
370
    25
100
AcDbLine
 10
220.9120478396
 20
91.0142657644
 30
0.0
 11
218.9864492768
 21
91.0142657644
 31
0.0
  0
LINE
  5
AE
330
1F
100
AcDbEntity
  8
0
  6
Continuous
 62
     7
370
    25
100
AcDbLine
 10
214.0221846595
 20
89.8513117401
 30
0.0
 11
213.9805343402
 21
89.8275068102
 31
0.0
  0
ELLIPSE
  5
AF
330
1F
100
AcDbEntity
  8
0
  6
Continuous
 62
     7
370
    25
100
AcDbEllipse
 10
213.6316911607
 20
90.3821892814
 30
0.0
 11
0.678412947925267
 21
6.110667527536863E-13
 31
0.0
210
0.0
220
0.0
230
1.0
 40
0.9533039403
 41
3.470145824140271
 42
5.252469180536336
  0
LINE
  5
B0
330
1F
100
AcDbEntity
  8
0
  6
Continuous
 62
     7
370
    25
100
AcDbLine
 10
212.9895663937
 20
90.1735051665
 30
0.0
 11
211.7299121887
 21
93.6959495631
 31
0.0
  0
ELLIPSE
  5
B1
330
1F
100
AcDbEntity
  8
0
  6
Continuous
 62
     7
370
    25
100
AcDbEllipse
 10
211.1389296308
 20
93.4336103271
 30
0.0
 11
0.6519124952381503
 21
5.968558980384842E-13
 31
0.0
210
0.0
220
0.0
230
1.0
 40
0.9533023292
 41
0.4357905044355181
 42
2.705800116361537
  0
LINE
  5
B2
330
1F
100
AcDbEntity
  8
0
  6
Continuous
 62
     7
370
    25
100
AcDbLine
 10
210.5479476323
 20
93.6959507084
 30
0.0
 11
209.2885828306
 21
90.1743273067
 31
0.0
  0
ELLIPSE
  5
B3
330
1F
100
AcDbEntity
  8
0
  6
Continuous
 62
     7
370
    25
100
AcDbEllipse
 10
208.6464616466
 20
90.3830101403
 30
0.0
 11
-0.6784085062757583
 21
3.268496584496461E-13
 31
0.0
210
0.0
220
0.0
230
1.0
 40
0.9533122623
 41
1.047193771187968
 42
2.813042320199944
  0
LINE
  5
B4
330
1F
100
AcDbEntity
  8
0
  6
Continuous
 62
     7
370
    25
100
AcDbLine
 10
208.3072551727
 20
89.8229222951
 30
0.0
 11
208.2556746021
 21
89.8513117401
 31
0.0
  0
LINE
  5
B5
330
1F
100
AcDbEntity
  8
0
  6
Continuous
 62
     7
370
    25
100
AcDbLine
 10
208.2556746021
 20
89.8513117401
 30
0.0
 11
209.0519432617
 21
88.3331396386
 31
0.0
  0
ELLIPSE
  5
B6
330
1F
100
AcDbEntity
  8
0
  6
Continuous
 62
     7
370
    25
100
AcDbEllipse
 10
209.1277921351
 20
88.3692931536
 30
0.0
 11
0.08480161849064416
 21
-2.842170943040401E-14
 31
0.0
210
0.0
220
0.0
230
1.0
 40
0.9533039403
 41
3.605240262590848
 42
5.462183310215358
  0
ELLIPSE
  5
B7
330
1F
100
AcDbEntity
  8
0
  6
Continuous
 62
     7
370
    25
100
AcDbEllipse
 10
211.1389296308
 20
86.3104445331
 30
0.0
 11
2.866293551216188
 21
-1.492139745096211E-12
 31
0.0
210
0.0
220
0.0
230
1.0
 40
0.9533046568
 41
0.8210016221243813
 42
2.320591031466448
  0
ELLIPSE
  5
B8
330
1F
100
AcDbEntity
  8
0
  6
Continuous
 62
     7
370
    25
100
AcDbEllipse
 10
213.1500671265
 20
88.3692931536
 30
0.0
 11
0.08480161849061574
 21
0.0
 31
0.0
210
0.0
220
0.0
230
1.0
 40
0.9533039403
 41
3.962594650556611
 42
5.819537698177178
  0
LINE
  5
B9
330
1F
100
AcDbEntity
  8
0
  6
Continuous
 62
     7
370
    25
100
AcDbLine
 10
213.2259159999
 20
88.3331396386
 30
0.0
 11
214.0221846595
 21
89.8513117401
 31
0.0
  0
LINE
  5
BA
330
1F
100
AcDbEntity
  8
0
  6
Continuous
 62
     7
370
    25
100
AcDbLine
 10
210.9239435735
 20
83.4687735461
 30
0.0
 11
210.9239435735
 21
87.2736847577
 31
0.0
  0
LINE
  5
BB
330
1F
100
AcDbEntity
  8
0
  6
Continuous
 62
     7
370
    25
100
AcDbLine
 10
221.4401796504
 20
87.2736847577
 30
0.0
 11
218.9239435735
 21
87.2736847577
 31
0.0
  0
LINE
  5
BC
330
1F
100
AcDbEntity
  8
0
  6
Continuous
 62
     7
370
    25
100
AcDbLine
 10
221.4401796504
 20
95.2736847577
 30
0.0
 11
208.4077074965
 21
95.2736847577
 31
0.0
  0
LINE
  5
BD
330
1F
100
AcDbEntity
  8
0
  6
Continuous
 62
     7
370
    25
100
AcDbLine
 10
218.9239435735
 20
83.4687735461
 30
0.0
 11
218.9239435735
 21
87.2736847577
 31
0.0
  0
LINE
  5
BE
330
1F
100
AcDbEntity
  8
0
  6
Continuous
 62
     7
370
    25
100
AcDbLine
 10
210.9239435735
 20
87.2736847577
 30
0.0
 11
208.4077074965
 21
87.2736847577
 31
0.0
  0
SPLINE
  5
BF
330
1F
100
AcDbEntity
  8
0
  6
Continuous
 62
     7
370
    25
100
AcDbSpline
210
0.0
220
0.0
230
1.0
 70
     8
 71
     3
 72
    10
 73
     6
 74
     0
 42
0.00000001
 43
0.00000001
 40
0.0
 40
0.0
 40
0.0
 40
0.0
 40
0.5
 40
0.5
 40
1.0
 40
1.0
 40
1.0
 40
1.0
 10
204.1016649787149
 20
96.32549961307271
 30
0.0
 10
204.1253372186265
 20
96.28256180397348
 30
0.0
 10
204.1384312085618
 20
96.21912121408127
 30
0.0
 10
204.1385180760232
 20
96.06663206857243
 30
0.0
 10
204.1253482862638
 20
95.97840267936913
 30
0.0
 10
204.1016649787149
 20
95.8924869111805
 30
0.0
  0
LINE
  5
C0
330
1F
100
AcDbEntity
  8
0
  6
Continuous
 62
     7
370
    25
100
AcDbLine
 10
204.1016649787
 20
96.3254996131
 30
0.0
 11
208.2462221682
 21
96.3254996131
 31
0.0
  0
SPLINE
  5
C1
330
1F
100
AcDbEntity
  8
0
  6
Continuous
 62
     7
370
    25
100
AcDbSpline
210
0.0
220
0.0
230
1.0
 70
     8
 71
     3
 72
    10
 73
     6
 74
     0
 42
0.00000001
 43
0.00000001
 40
0.0
 40
0.0
 40
0.0
 40
0.0
 40
0.5
 40
0.5
 40
1.0
 40
1.0
 40
1.0
 40
1.0
 10
226.101884600897
 20
86.65488260414647
 30
0.0
 10
226.0782092064726
 20
86.56899554234401
 30
0.0
 10
226.0651180965881
 20
86.48158833336387
 30
0.0
 10
226.0650317752998
 20
86.32895189077016
 30
0.0
 10
226.0782007092437
 20
86.26482884582457
 30
0.0
 10
226.1018846008971
 20
86.22186990225426
 30
0.0
  0
SPLINE
  5
C2
330
1F
100
AcDbEntity
  8
0
  6
Continuous
 62
     7
370
    25
100
AcDbSpline
210
0.0
220
0.0
230
1.0
 70
     8
 71
     3
 72
    10
 73
     6
 74
     0
 42
0.00000001
 43
0.00000001
 40
0.0
 40
0.0
 40
0.0
 40
0.0
 40
0.5
 40
0.5
 40
1.0
 40
1.0
 40
1.0
 40
1.0
 10
226.1018846008971
 20
96.32549961307271
 30
0.0
 10
226.0782092064728
 20
96.28255608217148
 30
0.0
 10
226.0651180965881
 20
96.21911363754735
 30
0.0
 10
226.0650317752998
 20
96.06663480042839
 30
0.0
 10
226.0782007092437
 20
95.97840479832112
 30
0.0
 10
226.1018846008971
 20
95.8924869111805
 30
0.0
  0
SPLINE
  5
C3
330
1F
100
AcDbEntity
  8
0
  6
Continuous
 62
     7
370
    25
100
AcDbSpline
210
0.0
220
0.0
230
1.0
 70
     8
 71
     3
 72
    16
 73
    12
 74
     0
 42
0.00000001
 43
0.00000001
 40
0.0
 40
0.0
 40
0.0
 40
0.0
 40
0.2500000000000001
 40
0.2500000000000001
 40
0.5000000000000001
 40
0.5000000000000001
 40
0.6250000000000001
 40
0.6250000000000001
 40
0.7500000000000002
 40
0.7500000000000002
 40
1.0
 40
1.0
 40
1.0
 40
1.0
 10
226.1018846008971
 20
100.9443017665897
 30
0.0
 10
226.3099000490029
 20
100.5669936777132
 30
0.0
 10
226.4801063539759
 20
100.186969947339
 30
0.0
 10
226.7150423855435
 20
99.41934663192832
 30
0.0
 10
226.7791145172071
 20
99.03169981513953
 30
0.0
 10
226.7798474661281
 20
98.44337926325169
 30
0.0
 10
226.7641879860451
 20
98.24630607069604
 30
0.0
 10
226.7029128594082
 20
97.85624909314193
 30
0.0
 10
226.6573565869091
 20
97.6624561925539
 30
0.0
 10
226.4808705541528
 20
97.08437520779047
 30
0.0
 10
226.3102141006671
 20
96.70337734345564
 30
0.0
 10
226.1018846008971
 20
96.32549961307271
 30
0.0
  0
SPLINE
  5
C4
330
1F
100
AcDbEntity
  8
0
  6
Continuous
 62
     7
370
    25
100
AcDbSpline
210
0.0
220
0.0
230
1.0
 70
     8
 71
     3
 72
    10
 73
     6
 74
     0
 42
0.00000001
 43
0.00000001
 40
0.0
 40
0.0
 40
0.0
 40
0.0
 40
0.1601790552921226
 40
0.7197651707803578
 40
1.0
 40
1.0
 40
1.0
 40
1.0
 10
226.0676551677802
 20
101.0065800453395
 30
0.0
 10
226.066892377687
 20
101.0079722733658
 30
0.0
 10
226.0634647776132
 20
101.0142282550942
 30
0.0
 10
226.0779722424116
 20
100.9877209903663
 30
0.0
 10
226.0959017955294
 20
100.9551651352211
 30
0.0
 10
226.1018846008971
 20
100.9443017665897
 30
0.0
  0
SPLINE
  5
C5
330
1F
100
AcDbEntity
  8
0
  6
Continuous
 62
     7
370
    25
100
AcDbSpline
210
0.0
220
0.0
230
1.0
 70
     8
 71
     3
 72
     9
 73
     5
 74
     0
 42
0.00000001
 43
0.00000001
 40
0.0
 40
0.0
 40
0.0
 40
0.0
 40
0.5797912171256352
 40
1.0
 40
1.0
 40
1.0
 40
1.0
 10
226.1018846008971
 20
81.60306774873726
 30
0.0
 10
226.0895259975507
 20
81.58059410049611
 30
0.0
 10
226.0682103877563
 20
81.54183247807529
 30
0.0
 10
226.0678194452535
 20
81.54109807331709
 30
0.0
 10
226.0676551677802
 20
81.54078946998752
 30
0.0
  0
SPLINE
  5
C6
330
1F
100
AcDbEntity
  8
0
  6
Continuous
 62
     7
370
    25
100
AcDbSpline
210
0.0
220
0.0
230
1.0
 70
     8
 71
     3
 72
    16
 73
    12
 74
     0
 42
0.00000001
 43
0.00000001
 40
0.0
 40
0.0
 40
0.0
 40
0.0
 40
0.2500000000000001
 40
0.2500000000000001
 40
0.5000000000000002
 40
0.5000000000000002
 40
0.6250000000000001
 40
0.6250000000000001
 40
0.7500000000000001
 40
0.7500000000000001
 40
1.0
 40
1.0
 40
1.0
 40
1.0
 10
226.1018846008971
 20
86.22186990225426
 30
0.0
 10
226.3099000490029
 20
85.84456181337775
 30
0.0
 10
226.4801063539759
 20
85.46453808300356
 30
0.0
 10
226.7150423855435
 20
84.69691476759286
 30
0.0
 10
226.7791145172071
 20
84.30926795080407
 30
0.0
 10
226.7798474661281
 20
83.72094739891622
 30
0.0
 10
226.7641879860451
 20
83.52387420636056
 30
0.0
 10
226.7029128594082
 20
83.13381722880648
 30
0.0
 10
226.6573565869091
 20
82.94002432821843
 30
0.0
 10
226.4808705541528
 20
82.36194334345501
 30
0.0
 10
226.3102141006671
 20
81.9809454791202
 30
0.0
 10
226.1018846008971
 20
81.60306774873726
 30
0.0
  0
LINE
  5
C7
330
1F
100
AcDbEntity
  8
0
  6
Continuous
 62
     7
370
    25
100
AcDbLine
 10
226.9239435735
 20
99.5236847577
 30
0.0
 11
226.9239435735
 21
83.0236847577
 31
0.0
  0
LINE
  5
C8
330
1F
100
AcDbEntity
  8
0
  6
Continuous
 62
     7
370
    25
100
AcDbLine
 10
220.9239435735
 20
98.6349006898
 30
0.0
 11
220.9239435735
 21
95.2736847577
 31
0.0
  0
SPLINE
  5
C9
330
1F
100
AcDbEntity
  8
0
  6
Continuous
 62
     7
370
    25
100
AcDbSpline
210
0.0
220
0.0
230
1.0
 70
     8
 71
     3
 72
    10
 73
     6
 74
     0
 42
0.00000001
 43
0.00000001
 40
0.0
 40
0.0
 40
0.0
 40
0.0
 40
0.5
 40
0.5
 40
1.0
 40
1.0
 40
1.0
 40
1.0
 10
221.601664978715
 20
96.32549961307268
 30
0.0
 10
221.3932442258975
 20
96.70354286247485
 30
0.0
 10
221.2227803906201
 20
97.0843123672707
 30
0.0
 10
220.9877979556817
 20
97.85346089282824
 30
0.0
 10
220.9239435734547
 20
98.24188762100349
 30
0.0
 10
220.9239435734547
 20
98.63490068983121
 30
0.0
  0
SPLINE
  5
CA
330
1F
100
AcDbEntity
  8
0
  6
Continuous
 62
     7
370
    25
100
AcDbSpline
210
0.0
220
0.0
230
1.0
 70
     8
 71
     3
 72
    10
 73
     6
 74
     0
 42
0.00000001
 43
0.00000001
 40
0.0
 40
0.0
 40
0.0
 40
0.0
 40
0.5
 40
0.5
 40
1.0
 40
1.0
 40
1.0
 40
1.0
 10
221.601664978715
 20
95.8924869111805
 30
0.0
 10
221.6253403731393
 20
95.97837397298294
 30
0.0
 10
221.638431483024
 20
96.06578118196305
 30
0.0
 10
221.6385178043122
 20
96.21841762455678
 30
0.0
 10
221.6253488703684
 20
96.28254066950235
 30
0.0
 10
221.601664978715
 20
96.32549961307268
 30
0.0
  0
LINE
  5
CB
330
1F
100
AcDbEntity
  8
0
  6
Continuous
 62
     7
370
    25
100
AcDbLine
 10
207.5627276413
 20
79.2736847577
 30
0.0
 11
214.9239435735
 21
79.2736847577
 31
0.0
  0
SPLINE
  5
CC
330
1F
100
AcDbEntity
  8
0
  6
Continuous
 62
     7
370
    25
100
AcDbSpline
210
0.0
220
0.0
230
1.0
 70
     8
 71
     3
 72
    10
 73
     6
 74
     0
 42
0.00000001
 43
0.00000001
 40
0.0
 40
0.0
 40
0.0
 40
0.0
 40
0.5
 40
0.5
 40
1.0
 40
1.0
 40
1.0
 40
1.0
 10
209.8721287180456
 20
79.9514061629232
 30
0.0
 10
209.4933795706542
 20
79.74259623825694
 30
0.0
 10
209.1121742942429
 20
79.5720620985097
 30
0.0
 10
208.3429436730552
 20
79.33727629349077
 30
0.0
 10
207.9548759682569
 20
79.27368475766349
 30
0.0
 10
207.562727641287
 20
79.27368475766349
 30
0.0
  0
SPLINE
  5
CD
330
1F
100
AcDbEntity
  8
0
  6
Continuous
 62
     7
370
    25
100
AcDbSpline
210
0.0
220
0.0
230
1.0
 70
     8
 71
     3
 72
    10
 73
     6
 74
     0
 42
0.00000001
 43
0.00000001
 40
0.0
 40
0.0
 40
0.0
 40
0.0
 40
0.5
 40
0.5
 40
1.0
 40
1.0
 40
1.0
 40
1.0
 10
209.8721287180455
 20
79.95140616292367
 30
0.0
 10
209.9150665271447
 20
79.97507840283522
 30
0.0
 10
209.9785071170369
 20
79.9881723927705
 30
0.0
 10
210.1309962625458
 20
79.98825926023194
 30
0.0
 10
210.2192256517491
 20
79.97508947047258
 30
0.0
 10
210.3051414199377
 20
79.95140616292367
 30
0.0
  0
LINE
  5
CE
330
1F
100
AcDbEntity
  8
0
  6
Continuous
 62
     7
370
    25
100
AcDbLine
 10
226.1018846009
 20
86.2218699023
 30
0.0
 11
221.6016649787
 21
86.2218699023
 31
0.0
  0
SPLINE
  5
CF
330
1F
100
AcDbEntity
  8
0
  6
Continuous
 62
     7
370
    25
100
AcDbSpline
210
0.0
220
0.0
230
1.0
 70
     8
 71
     3
 72
    10
 73
     6
 74
     0
 42
0.00000001
 43
0.00000001
 40
0.0
 40
0.0
 40
0.0
 40
0.0
 40
0.5
 40
0.5
 40
1.0
 40
1.0
 40
1.0
 40
1.0
 10
221.6016649787117
 20
86.22186990225426
 30
0.0
 10
221.625340373136
 20
86.26481343315541
 30
0.0
 10
221.6384314830239
 20
86.3282558777792
 30
0.0
 10
221.6385178043123
 20
86.48073471489829
 30
0.0
 10
221.6253488703684
 20
86.56896471700571
 30
0.0
 10
221.601664978715
 20
86.65488260414645
 30
0.0
  0
SPLINE
  5
D0
330
1F
100
AcDbEntity
  8
0
  6
Continuous
 62
     7
370
    25
100
AcDbSpline
210
0.0
220
0.0
230
1.0
 70
     8
 71
     3
 72
    10
 73
     6
 74
     0
 42
0.00000001
 43
0.00000001
 40
0.0
 40
0.0
 40
0.0
 40
0.0
 40
0.5
 40
0.5
 40
1.0
 40
1.0
 40
1.0
 40
1.0
 10
209.8721287180455
 20
83.30728821780848
 30
0.0
 10
209.9150722489467
 20
83.28361282338409
 30
0.0
 10
209.9785146935709
 20
83.27052171349945
 30
0.0
 10
210.1309935306898
 20
83.27043539221117
 30
0.0
 10
210.2192235327971
 20
83.283604326155
 30
0.0
 10
210.3051414199377
 20
83.30728821780848
 30
0.0
  0
LINE
  5
D1
330
1F
100
AcDbEntity
  8
0
  6
Continuous
 62
     7
370
    25
100
AcDbLine
 10
209.872128718
 20
79.9514061629
 30
0.0
 11
209.872128718
 21
83.3072882178
 31
0.0
  0
SPLINE
  5
D2
330
1F
100
AcDbEntity
  8
0
  6
Continuous
 62
     7
370
    25
100
AcDbSpline
210
0.0
220
0.0
230
1.0
 70
     8
 71
     3
 72
    10
 73
     6
 74
     0
 42
0.00000001
 43
0.00000001
 40
0.0
 40
0.0
 40
0.0
 40
0.0
 40
0.5
 40
0.5
 40
1.0
 40
1.0
 40
1.0
 40
1.0
 10
219.5427457269717
 20
83.30728821780846
 30
0.0
 10
219.6286327887743
 20
83.28361282338405
 30
0.0
 10
219.7160399977545
 20
83.27052171349942
 30
0.0
 10
219.8686764403484
 20
83.2704353922112
 30
0.0
 10
219.9327994852941
 20
83.28360432615514
 30
0.0
 10
219.9757584288644
 20
83.30728821780869
 30
0.0
  0
LINE
  5
D3
330
1F
100
AcDbEntity
  8
0
  6
Continuous
 62
     7
370
    25
100
AcDbLine
 10
219.9757584289
 20
83.3072882178
 30
0.0
 11
219.9757584289
 21
79.9514061629
 31
0.0
  0
SPLINE
  5
D4
330
1F
100
AcDbEntity
  8
0
  6
Continuous
 62
     7
370
    25
100
AcDbSpline
210
0.0
220
0.0
230
1.0
 70
     8
 71
     3
 72
    10
 73
     6
 74
     0
 42
0.00000001
 43
0.00000001
 40
0.0
 40
0.0
 40
0.0
 40
0.0
 40
0.5
 40
0.5
 40
1.0
 40
1.0
 40
1.0
 40
1.0
 10
219.5427457269717
 20
79.95140616292367
 30
0.0
 10
219.6286273694782
 20
79.97508006347962
 30
0.0
 10
219.7160365754436
 20
79.98817262065876
 30
0.0
 10
219.8686790605186
 20
79.98825903464105
 30
0.0
 10
219.9328020456009
 20
79.97508864304243
 30
0.0
 10
219.975758428864
 20
79.95140616292367
 30
0.0
  0
SPLINE
  5
D5
330
1F
100
AcDbEntity
  8
0
  6
Continuous
 62
     7
370
    25
100
AcDbSpline
210
0.0
220
0.0
230
1.0
 70
     8
 71
     3
 72
    12
 73
     8
 74
     0
 42
0.00000001
 43
0.00000001
 40
0.0
 40
0.0
 40
0.0
 40
0.0
 40
0.2499999999999998
 40
0.2499999999999998
 40
0.4999999999999996
 40
0.4999999999999996
 40
1.0
 40
1.0
 40
1.0
 40
1.0
 10
222.2851595056225
 20
79.27368475766349
 30
0.0
 10
222.0901560256167
 20
79.27368475766347
 30
0.0
 10
221.8936213665923
 20
79.28943108768543
 30
0.0
 10
221.5042016789867
 20
79.35087611227087
 30
0.0
 10
221.3107169859264
 20
79.39646487152459
 30
0.0
 10
220.7335333871709
 20
79.5729158737812
 30
0.0
 10
220.3530976053879
 20
79.74337357574468
 30
0.0
 10
219.975758428864
 20
79.95140616292352
 30
0.0
  0
LINE
  5
D6
330
1F
100
AcDbEntity
  8
0
  6
Continuous
 62
     7
370
    25
100
AcDbLine
 10
214.9239435735
 20
79.2736847577
 30
0.0
 11
222.2851595056
 21
79.2736847577
 31
0.0
  0
SPLINE
  5
D7
330
1F
100
AcDbEntity
  8
0
  6
Continuous
 62
     7
370
    25
100
AcDbSpline
210
0.0
220
0.0
230
1.0
 70
     8
 71
     3
 72
     8
 73
     4
 74
     0
 42
0.00000001
 43
0.00000001
 40
0.0
 40
0.0
 40
0.0
 40
0.0
 40
1.0
 40
1.0
 40
1.0
 40
1.0
 10
207.6345673888381
 20
83.98430857303474
 30
0.0
 10
207.9435845314799
 20
84.08531368086487
 30
0.0
 10
208.2589022877979
 20
84.18197046993082
 30
0.0
 10
208.5813816146409
 20
84.27368475766347
 30
0.0
  0
SPLINE
  5
D8
330
1F
100
AcDbEntity
  8
0
  6
Continuous
 62
     7
370
    25
100
AcDbSpline
210
0.0
220
0.0
230
1.0
 70
     8
 71
     3
 72
    12
 73
     8
 74
     0
 42
0.00000001
 43
0.00000001
 40
0.0
 40
0.0
 40
0.0
 40
0.0
 40
0.2500000000000002
 40
0.2500000000000002
 40
0.5000000000000004
 40
0.5000000000000004
 40
1.0
 40
1.0
 40
1.0
 40
1.0
 10
207.6345673888329
 20
83.98430857302861
 30
0.0
 10
207.8245935641361
 20
83.98060008717219
 30
0.0
 10
208.0148086268219
 20
83.96201758433452
 30
0.0
 10
208.3917453859543
 20
83.89715054736837
 30
0.0
 10
208.5790681772138
 20
83.85088499411809
 30
0.0
 10
209.1379781335279
 20
83.67516046381112
 30
0.0
 10
209.5065137916382
 20
83.50885705503438
 30
0.0
 10
209.8721287180455
 20
83.30728821780848
 30
0.0
  0
SPLINE
  5
D9
330
1F
100
AcDbEntity
  8
0
  6
Continuous
 62
     7
370
    25
100
AcDbSpline
210
0.0
220
0.0
230
1.0
 70
     8
 71
     3
 72
    10
 73
     6
 74
     0
 42
0.00000001
 43
0.00000001
 40
0.0
 40
0.0
 40
0.0
 40
0.0
 40
0.5
 40
0.5
 40
1.0
 40
1.0
 40
1.0
 40
1.0
 10
208.2462221681945
 20
86.65488260414647
 30
0.0
 10
208.2225467737701
 20
86.56899554234401
 30
0.0
 10
208.2094556638855
 20
86.48158833336389
 30
0.0
 10
208.2093693425972
 20
86.32895189077016
 30
0.0
 10
208.2225382765411
 20
86.26482884582457
 30
0.0
 10
208.2462221681945
 20
86.22186990225426
 30
0.0
  0
LINE
  5
DA
330
1F
100
AcDbEntity
  8
0
  6
Continuous
 62
     7
370
    25
100
AcDbLine
 10
208.2462221682
 20
86.2218699023
 30
0.0
 11
204.1016649787
 21
86.2218699023
 31
0.0
  0
SPLINE
  5
DB
330
1F
100
AcDbEntity
  8
0
  6
Continuous
 62
     7
370
    25
100
AcDbSpline
210
0.0
220
0.0
230
1.0
 70
     8
 71
     3
 72
    10
 73
     6
 74
     0
 42
0.00000001
 43
0.00000001
 40
0.0
 40
0.0
 40
0.0
 40
0.0
 40
0.5
 40
0.5
 40
1.0
 40
1.0
 40
1.0
 40
1.0
 10
204.1016649787149
 20
86.65488260414647
 30
0.0
 10
204.1253388792709
 20
86.56900096164001
 30
0.0
 10
204.13843143645
 20
86.48159175567457
 30
0.0
 10
204.1385178504323
 20
86.32894927059965
 30
0.0
 10
204.1253474588337
 20
86.26482628551727
 30
0.0
 10
204.1016649787149
 20
86.22186990225426
 30
0.0
  0
SPLINE
  5
DC
330
1F
100
AcDbEntity
  8
0
  6
Continuous
 62
     7
370
    25
100
AcDbSpline
210
0.0
220
0.0
230
1.0
 70
     8
 71
     3
 72
    12
 73
     8
 74
     0
 42
0.00000001
 43
0.00000001
 40
0.0
 40
0.0
 40
0.0
 40
0.0
 40
0.2499999999999999
 40
0.2499999999999999
 40
0.4999999999999998
 40
0.4999999999999998
 40
1.0
 40
1.0
 40
1.0
 40
1.0
 10
203.4239435734547
 20
83.91246882549575
 30
0.0
 10
203.4239435734547
 20
84.10747230550155
 30
0.0
 10
203.4396899034767
 20
84.30400696452595
 30
0.0
 10
203.5011349280621
 20
84.6934266521315
 30
0.0
 10
203.5467236873158
 20
84.88691134519178
 30
0.0
 10
203.7231746895725
 20
85.46409494394737
 30
0.0
 10
203.8936323915359
 20
85.84453072573032
 30
0.0
 10
204.1016649787148
 20
86.22186990225427
 30
0.0
  0
LINE
  5
DD
330
1F
100
AcDbEntity
  8
0
  6
Continuous
 62
     7
370
    25
100
AcDbLine
 10
203.4239435735
 20
91.2736847577
 30
0.0
 11
203.4239435735
 21
83.9124688255
 31
0.0
  0
LINE
  5
DE
330
1F
100
AcDbEntity
  8
0
  6
Continuous
 62
     7
370
    25
100
AcDbLine
 10
208.9239435735
 20
87.2736847577
 30
0.0
 11
208.9239435735
 21
85.2736847577
 31
0.0
  0
SPLINE
  5
DF
330
1F
100
AcDbEntity
  8
0
  6
Continuous
 62
     7
370
    25
100
AcDbSpline
210
0.0
220
0.0
230
1.0
 70
     8
 71
     3
 72
     8
 73
     4
 74
     0
 42
0.00000001
 43
0.00000001
 40
0.0
 40
0.0
 40
0.0
 40
0.0
 40
1.0
 40
1.0
 40
1.0
 40
1.0
 10
208.9239435734547
 20
85.27368475766347
 30
0.0
 10
208.8841649152646
 20
85.13629966866337
 30
0.0
 10
208.8436759524363
 20
84.99959558685161
 30
0.0
 10
208.8025600819586
 20
84.86356322433824
 30
0.0
  0
SPLINE
  5
E0
330
1F
100
AcDbEntity
  8
0
  6
Continuous
 62
     7
370
    25
100
AcDbSpline
210
0.0
220
0.0
230
1.0
 70
     8
 71
     3
 72
     8
 73
     4
 74
     0
 42
0.00000001
 43
0.00000001
 40
0.0
 40
0.0
 40
0.0
 40
0.0
 40
1.0
 40
1.0
 40
1.0
 40
1.0
 10
208.2462221681945
 20
86.22186990225426
 30
0.0
 10
208.4933959490785
 20
85.77353460920293
 30
0.0
 10
208.6871176173825
 20
85.32136011845934
 30
0.0
 10
208.8025600819586
 20
84.86356322433824
 30
0.0
  0
SPLINE
  5
E1
330
1F
100
AcDbEntity
  8
0
  6
Continuous
 62
     7
370
    25
100
AcDbSpline
210
0.0
220
0.0
230
1.0
 70
     8
 71
     3
 72
     8
 73
     4
 74
     0
 42
0.00000001
 43
0.00000001
 40
0.0
 40
0.0
 40
0.0
 40
0.0
 40
1.0
 40
1.0
 40
1.0
 40
1.0
 10
221.0453270649509
 20
84.86356322433825
 30
0.0
 10
221.0042117893096
 20
84.99959361882777
 30
0.0
 10
220.9637228064418
 20
85.13629768346523
 30
0.0
 10
220.9239435734547
 20
85.27368475766347
 30
0.0
  0
LINE
  5
E2
330
1F
100
AcDbEntity
  8
0
  6
Continuous
 62
     7
370
    25
100
AcDbLine
 10
220.9239435735
 20
87.2736847577
 30
0.0
 11
220.9239435735
 21
85.2736847577
 31
0.0
  0
SPLINE
  5
E3
330
1F
100
AcDbEntity
  8
0
  6
Continuous
 62
     7
370
    25
100
AcDbSpline
210
0.0
220
0.0
230
1.0
 70
     8
 71
     3
 72
     8
 73
     4
 74
     0
 42
0.00000001
 43
0.00000001
 40
0.0
 40
0.0
 40
0.0
 40
0.0
 40
1.0
 40
1.0
 40
1.0
 40
1.0
 10
221.0453270649509
 20
84.86356322433825
 30
0.0
 10
221.1609596749799
 20
85.322114156396
 30
0.0
 10
221.3548490798004
 20
85.77418375215424
 30
0.0
 10
221.6016649787148
 20
86.221869902254
 30
0.0
  0
ELLIPSE
  5
E4
330
1F
100
AcDbEntity
  8
0
  6
Continuous
 62
     7
370
    25
100
AcDbEllipse
 10
211.1738567481
 20
91.5906772353
 30
0.0
 11
0.08480161849067258
 21
1.421085471520200E-14
 31
0.0
210
0.0
220
0.0
230
1.0
 40
0.9533039403
 41
0.3430239404206273
 42
2.798568713168818
  0
LINE
  5
E5
330
1F
100
AcDbEntity
  8
0
  6
Continuous
 62
     7
370
    25
100
AcDbLine
 10
210.8701825669
 20
90.6992529012
 30
0.0
 11
211.4775309257
 21
90.6992529012
 31
0.0
  0
LINE
  5
E6
330
1F
100
AcDbEntity
  8
0
  6
Continuous
 62
     7
370
    25
100
AcDbLine
 10
211.5573921641
 20
90.8072846299
 30
0.0
 11
211.2537179864
 21
91.6178672471
 31
0.0
  0
ELLIPSE
  5
E7
330
1F
100
AcDbEntity
  8
0
  6
Continuous
 62
     7
370
    25
100
AcDbEllipse
 10
211.4775309257
 20
90.7800946182
 30
0.0
 11
-0.08480161849064416
 21
-4.263256414560601E-14
 31
0.0
210
0.0
220
0.0
230
1.0
 40
0.9533039403
 41
1.570796326794417
 42
3.48461659214898
  0
LINE
  5
E8
330
1F
100
AcDbEntity
  8
0
  6
Continuous
 62
     7
370
    25
100
AcDbLine
 10
211.0939955098
 20
91.6178672471
 30
0.0
 11
210.7903213287
 21
90.8072846302
 31
0.0
  0
ELLIPSE
  5
E9
330
1F
100
AcDbEntity
  8
0
  6
Continuous
 62
     7
370
    25
100
AcDbEllipse
 10
210.8701825669
 20
90.7800946182
 30
0.0
 11
0.08480161849067258
 21
-1.421085471520200E-14
 31
0.0
210
0.0
220
0.0
230
1.0
 40
0.9533039403
 41
2.798568711308387
 42
4.712388980384862
  0
SPLINE
  5
EA
330
1F
100
AcDbEntity
  8
0
  6
Continuous
 62
     7
370
    25
100
AcDbSpline
210
0.0
220
0.0
230
1.0
 70
     8
 71
     3
 72
     8
 73
     4
 74
     0
 42
0.00000001
 43
0.00000001
 40
0.0
 40
0.0
 40
0.0
 40
0.0
 40
1.0
 40
1.0
 40
1.0
 40
1.0
 10
221.2665055322686
 20
84.27368475766347
 30
0.0
 10
221.5889848591179
 20
84.18197046992903
 30
0.0
 10
221.9043026154418
 20
84.0853136808611
 30
0.0
 10
222.2133197580894
 20
83.98430857302887
 30
0.0
  0
SPLINE
  5
EB
330
1F
100
AcDbEntity
  8
0
  6
Continuous
 62
     7
370
    25
100
AcDbSpline
210
0.0
220
0.0
230
1.0
 70
     8
 71
     3
 72
    10
 73
     6
 74
     0
 42
0.00000001
 43
0.00000001
 40
0.0
 40
0.0
 40
0.0
 40
0.0
 40
0.5
 40
0.5
 40
1.0
 40
1.0
 40
1.0
 40
1.0
 10
219.9757584288643
 20
83.30728821780862
 30
0.0
 10
220.3422763757048
 20
83.50935490335957
 30
0.0
 10
220.7113566011706
 20
83.6757476756302
 30
0.0
 10
221.456608949398
 20
83.90979464950026
 30
0.0
 10
221.8328217213458
 20
83.97688290345909
 30
0.0
 10
222.2133197580894
 20
83.98430857302887
 30
0.0
  0
LINE
  5
EC
330
1F
100
AcDbEntity
  8
0
  6
Continuous
 62
     7
370
    25
100
AcDbLine
 10
221.6016649787
 20
96.3254996131
 30
0.0
 11
226.1018846009
 21
96.3254996131
 31
0.0
  0
SPLINE
  5
ED
330
1F
100
AcDbEntity
  8
0
  6
Continuous
 62
     7
370
    25
100
AcDbSpline
210
0.0
220
0.0
230
1.0
 70
     8
 71
     3
 72
    10
 73
     6
 74
     0
 42
0.00000001
 43
0.00000001
 40
0.0
 40
0.0
 40
0.0
 40
0.0
 40
0.5
 40
0.5
 40
1.0
 40
1.0
 40
1.0
 40
1.0
 10
204.1016649787145
 20
96.32549961307268
 30
0.0
 10
203.8928550540482
 20
96.70424876046397
 30
0.0
 10
203.722320914301
 20
97.08545403687526
 30
0.0
 10
203.487535109282
 20
97.85468465806305
 30
0.0
 10
203.4239435734547
 20
98.24275236286137
 30
0.0
 10
203.4239435734547
 20
98.63490068983121
 30
0.0
  0
LINE
  5
EE
330
1F
100
AcDbEntity
  8
0
  6
Continuous
 62
     7
370
    25
100
AcDbLine
 10
203.4239435735
 20
91.2736847577
 30
0.0
 11
203.4239435735
 21
98.6349006898
 31
0.0
  0
SPLINE
  5
EF
330
1F
100
AcDbEntity
  8
0
  6
Continuous
 62
     7
370
    25
100
AcDbSpline
210
0.0
220
0.0
230
1.0
 70
     8
 71
     3
 72
    12
 73
     8
 74
     0
 42
0.00000001
 43
0.00000001
 40
0.0
 40
0.0
 40
0.0
 40
0.0
 40
0.2499999999999999
 40
0.2499999999999999
 40
0.4999999999999998
 40
0.4999999999999998
 40
1.0
 40
1.0
 40
1.0
 40
1.0
 10
220.9239435734547
 20
98.63490068983121
 30
0.0
 10
220.9239435734547
 20
98.83064295271073
 30
0.0
 10
220.9397865095437
 20
99.02730956190128
 30
0.0
 10
221.0012893697814
 20
99.41657778922956
 30
0.0
 10
221.046893010825
 20
99.60998182218249
 30
0.0
 10
221.2233440283143
 20
100.1869108734393
 30
0.0
 10
221.3937413955661
 20
100.5671603066423
 30
0.0
 10
221.601664978715
 20
100.9443017665897
 30
0.0
  0
LINE
  5
F0
330
1F
100
AcDbEntity
  8
0
  6
Continuous
 62
     7
370
    25
100
AcDbLine
 10
226.1018846009
 20
100.9443017666
 30
0.0
 11
221.6016649787
 21
100.9443017666
 31
0.0
  0
ELLIPSE
  5
F1
330
1F
100
AcDbEntity
  8
0
  6
Continuous
 62
     7
370
    25
100
AcDbEllipse
 10
214.9239435735
 20
81.4587301814
 30
0.0
 11
8.500000000000028
 21
0.0
 31
0.0
210
0.0
220
0.0
230
1.0
 40
0.5773502692
 41
2.374833212873083
 42
2.530692279913059
  0
LINE
  5
F2
330
1F
100
AcDbEntity
  8
0
  6
Continuous
 62
     7
370
    25
100
AcDbLine
 10
207.6345673888
 20
83.984308573
 30
0.0
 11
205.2533265645
 21
81.6030677487
 31
0.0
  0
LINE
  5
F3
330
1F
100
AcDbEntity
  8
0
  6
Continuous
 62
     7
370
    25
100
AcDbLine
 10
204.1016649787
 20
81.6030677487
 30
0.0
 11
205.2533265645
 21
81.6030677487
 31
0.0
  0
SPLINE
  5
F4
330
1F
100
AcDbEntity
  8
0
  6
Continuous
 62
     7
370
    25
100
AcDbSpline
210
0.0
220
0.0
230
1.0
 70
     8
 71
     3
 72
    10
 73
     6
 74
     0
 42
0.00000001
 43
0.00000001
 40
0.0
 40
0.0
 40
0.0
 40
0.0
 40
0.5
 40
0.5
 40
1.0
 40
1.0
 40
1.0
 40
1.0
 10
204.1016649787145
 20
81.60306774873722
 30
0.0
 10
203.8928550540482
 20
81.9818168961285
 30
0.0
 10
203.722320914301
 20
82.36302217253981
 30
0.0
 10
203.487535109282
 20
83.13225279372759
 30
0.0
 10
203.4239435734547
 20
83.5203204985259
 30
0.0
 10
203.4239435734547
 20
83.91246882549575
 30
0.0
  0
ELLIPSE
  5
F5
330
1F
100
AcDbEntity
  8
0
  6
Continuous
 62
     7
370
    25
100
AcDbEllipse
 10
214.9239435735
 20
81.4587301814
 30
0.0
 11
8.500000000000028
 21
0.0
 31
0.0
210
0.0
220
0.0
230
1.0
 40
0.5773502692
 41
0.6109003736767294
 42
0.7667594407167084
  0
LINE
  5
F6
330
1F
100
AcDbEntity
  8
0
  6
Continuous
 62
     7
370
    25
100
AcDbLine
 10
224.5945605824
 20
81.6030677487
 30
0.0
 11
226.1018846009
 21
81.6030677487
 31
0.0
  0
LINE
  5
F7
330
1F
100
AcDbEntity
  8
0
  6
Continuous
 62
     7
370
    25
100
AcDbLine
 10
224.5945605824
 20
81.6030677487
 30
0.0
 11
222.2133197581
 21
83.984308573
 31
0.0
  0
LINE
  5
F8
330
1F
100
AcDbEntity
  8
0
  6
Continuous
 62
     7
370
    25
100
AcDbLine
 10
224.5945605824
 20
79.9514061629
 30
0.0
 11
224.5945605824
 21
81.6030677487
 31
0.0
  0
SPLINE
  5
F9
330
1F
100
AcDbEntity
  8
0
  6
Continuous
 62
     7
370
    25
100
AcDbSpline
210
0.0
220
0.0
230
1.0
 70
     8
 71
     3
 72
    10
 73
     6
 74
     0
 42
0.00000001
 43
0.00000001
 40
0.0
 40
0.0
 40
0.0
 40
0.0
 40
0.5
 40
0.5
 40
1.0
 40
1.0
 40
1.0
 40
1.0
 10
224.594560582381
 20
79.9514061629232
 30
0.0
 10
224.2158114349897
 20
79.74259623825695
 30
0.0
 10
223.8346061585784
 20
79.5720620985097
 30
0.0
 10
223.0653755373907
 20
79.33727629349077
 30
0.0
 10
222.6773078325923
 20
79.27368475766349
 30
0.0
 10
222.2851595056225
 20
79.27368475766349
 30
0.0
  0
SPLINE
  5
FA
330
1F
100
AcDbEntity
  8
0
  6
Continuous
 62
     7
370
    25
100
AcDbSpline
210
0.0
220
0.0
230
1.0
 70
     8
 71
     3
 72
    12
 73
     8
 74
     0
 42
0.00000001
 43
0.00000001
 40
0.0
 40
0.0
 40
0.0
 40
0.0
 40
0.2499999999999999
 40
0.2499999999999999
 40
0.5
 40
0.5
 40
1.0
 40
1.0
 40
1.0
 40
1.0
 10
203.4239435734547
 20
98.63490068983121
 30
0.0
 10
203.4239435734547
 20
98.82990416983701
 30
0.0
 10
203.4396899034767
 20
99.02643882886142
 30
0.0
 10
203.5011349280621
 20
99.41585851646697
 30
0.0
 10
203.5467236873158
 20
99.60934320952722
 30
0.0
 10
203.7231746895725
 20
100.1865268082828
 30
0.0
 10
203.893632391536
 20
100.5669625900658
 30
0.0
 10
204.1016649787148
 20
100.9443017665897
 30
0.0
  0
LINE
  5
FB
330
1F
100
AcDbEntity
  8
0
  6
Continuous
 62
     7
370
    25
100
AcDbLine
 10
208.2462221682
 20
100.9443017666
 30
0.0
 11
204.1016649787
 21
100.9443017666
 31
0.0
  0
SPLINE
  5
FC
330
1F
100
AcDbEntity
  8
0
  6
Continuous
 62
     7
370
    25
100
AcDbSpline
210
0.0
220
0.0
230
1.0
 70
     8
 71
     3
 72
    10
 73
     6
 74
     0
 42
0.00000001
 43
0.00000001
 40
0.0
 40
0.0
 40
0.0
 40
0.0
 40
0.5
 40
0.5
 40
1.0
 40
1.0
 40
1.0
 40
1.0
 10
208.2462221681945
 20
100.9443017665897
 30
0.0
 10
208.454642921012
 20
100.5662585171876
 30
0.0
 10
208.6251067562894
 20
100.1854890123917
 30
0.0
 10
208.8600891912278
 20
99.41634048683419
 30
0.0
 10
208.9239435734547
 20
99.02791375865895
 30
0.0
 10
208.9239435734547
 20
98.63490068983121
 30
0.0
  0
SPLINE
  5
FD
330
1F
100
AcDbEntity
  8
0
  6
Continuous
 62
     7
370
    25
100
AcDbSpline
210
0.0
220
0.0
230
1.0
 70
     8
 71
     3
 72
    12
 73
     8
 74
     0
 42
0.00000001
 43
0.00000001
 40
0.0
 40
0.0
 40
0.0
 40
0.0
 40
0.2500000000000002
 40
0.2500000000000002
 40
0.5000000000000001
 40
0.5000000000000001
 40
1.0
 40
1.0
 40
1.0
 40
1.0
 10
207.562727641287
 20
79.27368475766349
 30
0.0
 10
207.3677241612812
 20
79.27368475766349
 30
0.0
 10
207.1711895022568
 20
79.28943108768543
 30
0.0
 10
206.7817698146513
 20
79.35087611227087
 30
0.0
 10
206.588285121591
 20
79.3964648715246
 30
0.0
 10
206.0111015228354
 20
79.5729158737812
 30
0.0
 10
205.6306657410524
 20
79.74337357574468
 30
0.0
 10
205.2533265645285
 20
79.95140616292352
 30
0.0
  0
LINE
  5
FE
330
1F
100
AcDbEntity
  8
0
  6
Continuous
 62
     7
370
    25
100
AcDbLine
 10
205.2533265645
 20
81.6030677487
 30
0.0
 11
205.2533265645
 21
79.9514061629
 31
0.0
  0
LINE
  5
FF
330
1F
100
AcDbEntity
  8
0
  6
Continuous
 62
     7
370
    25
100
AcDbLine
 10
220.9239435735
 20
85.2736847577
 30
0.0
 11
218.9239435735
 21
87.2736847577
 31
0.0
  0
LINE
  5
100
330
1F
100
AcDbEntity
  8
0
  6
Continuous
 62
     7
370
    25
100
AcDbLine
 10
218.9239435735
 20
84.2736847577
 30
0.0
 11
221.8865646461
 21
84.2736847577
 31
0.0
  0
LINE
  5
101
330
1F
100
AcDbEntity
  8
0
  6
Continuous
 62
     7
370
    25
100
AcDbLine
 10
210.9239435735
 20
87.2736847577
 30
0.0
 11
208.9239435735
 21
85.2736847577
 31
0.0
  0
LINE
  5
102
330
1F
100
AcDbEntity
  8
0
  6
Continuous
 62
     7
370
    25
100
AcDbLine
 10
207.9613225008
 20
84.2736847577
 30
0.0
 11
210.9239435735
 21
84.2736847577
 31
0.0
  0
LINE
  5
103
330
1F
100
AcDbEntity
  8
0
  6
Continuous
 62
     7
370
    25
100
AcDbLine
 10
208.9239435735
 20
99.2081392359
 30
0.0
 11
208.9239435735
 21
98.6349006898
 31
0.0
  0
SPLINE
  5
104
330
1F
100
AcDbEntity
  8
0
  6
Continuous
 62
     7
370
    25
100
AcDbSpline
210
0.0
220
0.0
230
1.0
 70
     8
 71
     3
 72
    32
 73
    28
 74
     0
 42
0.00000001
 43
0.00000001
 40
0.0
 40
0.0
 40
0.0
 40
0.0
 40
0.0625000000000001
 40
0.0625000000000001
 40
0.1250000000000001
 40
0.1250000000000001
 40
0.1875000000000002
 40
0.1875000000000002
 40
0.2500000000000003
 40
0.2500000000000003
 40
0.3750000000000003
 40
0.3750000000000003
 40
0.4375000000000003
 40
0.4375000000000003
 40
0.5000000000000002
 40
0.5000000000000002
 40
0.5625000000000002
 40
0.5625000000000002
 40
0.6250000000000001
 40
0.6250000000000001
 40
0.7500000000000001
 40
0.7500000000000001
 40
0.8750000000000002
 40
0.8750000000000002
 40
0.9375000000000001
 40
0.9375000000000001
 40
1.0
 40
1.0
 40
1.0
 40
1.0
 10
220.9239435734463
 20
99.20813923588413
 30
0.0
 10
220.7670872375294
 20
99.11318225798843
 30
0.0
 10
220.5940888033738
 20
99.01042908336326
 30
0.0
 10
220.2173842167479
 20
98.79371788171498
 30
0.0
 10
220.0145314362912
 20
98.68029917122497
 30
0.0
 10
219.5885501734887
 20
98.45220903452682
 30
0.0
 10
219.3643722132006
 20
98.33690215207496
 30
0.0
 10
218.8930211196243
 20
98.10857904970018
 30
0.0
 10
218.6443356042591
 20
97.99492903356642
 30
0.0
 10
217.8737631195675
 20
97.67186500233238
 30
0.0
 10
217.3281257094853
 20
97.47896647816889
 30
0.0
 10
216.445345960989
 20
97.26737255289518
 30
0.0
 10
216.1467068611161
 20
97.21173016677743
 30
0.0
 10
215.5402052604004
 20
97.1360620974136
 30
0.0
 10
215.2300580217344
 20
97.11608885163727
 30
0.0
 10
214.6099725330507
 20
97.11642261789052
 30
0.0
 10
214.3034014955826
 20
97.1364215832133
 30
0.0
 10
213.6967467482744
 20
97.21246036940978
 30
0.0
 10
213.3943736836491
 20
97.26911346954132
 30
0.0
 10
212.5177373808962
 20
97.47989201958718
 30
0.0
 10
211.9696832489193
 20
97.67343785015893
 30
0.0
 10
210.939185981676
 20
98.10605714343473
 30
0.0
 10
210.4716259463965
 20
98.33853378812515
 30
0.0
 10
209.8334123427686
 20
98.68027178904418
 30
0.0
 10
209.6302026045788
 20
98.79388930447259
 30
0.0
 10
209.2538656781844
 20
99.01039169682882
 30
0.0
 10
209.0808870696929
 20
99.1131294932732
 30
0.0
 10
208.9239435734547
 20
99.20813923588928
 30
0.0
  0
LINE
  5
105
330
1F
100
AcDbEntity
  8
0
  6
Continuous
 62
     7
370
    25
100
AcDbLine
 10
220.9239435735
 20
99.2081392359
 30
0.0
 11
220.9239435735
 21
98.6349006898
 31
0.0
  0
LINE
  5
106
330
1F
100
AcDbEntity
  8
0
  6
Continuous
 62
     7
370
    25
100
AcDbLine
 10
208.4593915149
 20
69.8773506315
 30
0.0
 11
221.388495632
 21
69.8773506315
 31
0.0
  0
SPLINE
  5
107
330
1F
100
AcDbEntity
  8
0
  6
Continuous
 62
     7
370
    25
100
AcDbSpline
210
0.0
220
0.0
230
1.0
 70
     8
 71
     3
 72
    12
 73
     8
 74
     0
 42
0.00000001
 43
0.00000001
 40
0.0
 40
0.0
 40
0.0
 40
0.0
 40
0.082169059896093
 40
0.3096901147823729
 40
0.5425029315783425
 40
0.7710672063754214
 40
0.9999999999999999
 40
0.9999999999999999
 40
0.9999999999999999
 40
0.9999999999999999
 10
221.0973827983137
 20
100.0668943431201
 30
0.0
 10
221.0985147902785
 20
100.0706640247323
 30
0.0
 10
221.1027811981208
 20
100.0848717220415
 30
0.0
 10
221.0703258759205
 20
99.97751538014649
 30
0.0
 10
221.0143613077215
 20
99.771577233669
 30
0.0
 10
220.9461519046741
 20
99.48828185909862
 30
0.0
 10
220.9313503248053
 20
99.30157024302844
 30
0.0
 10
220.9239435734547
 20
99.20813923588214
 30
0.0
  0
SPLINE
  5
108
330
1F
100
AcDbEntity
  8
0
  6
Continuous
 62
     7
370
    25
100
AcDbSpline
210
0.0
220
0.0
230
1.0
 70
     8
 71
     3
 72
    11
 73
     7
 74
     0
 42
0.00000001
 43
0.00000001
 40
0.0
 40
0.0
 40
0.0
 40
0.0
 40
0.3176373200408206
 40
0.6359617757446459
 40
0.8656919996426548
 40
0.9999999999999999
 40
0.9999999999999999
 40
0.9999999999999999
 40
0.9999999999999999
 10
208.9239435734547
 20
99.20813923588919
 30
0.0
 10
208.91030481379
 20
99.33940387630757
 30
0.0
 10
208.8829977901246
 20
99.60221711815912
 30
0.0
 10
208.7949931751378
 20
99.91386151024962
 30
0.0
 10
208.7504329328065
 20
100.0676075547118
 30
0.0
 10
208.7507816182365
 20
100.0660943023603
 30
0.0
 10
208.7509102619879
 20
100.0655360041273
 30
0.0
  0
LINE
  5
109
330
1F
100
AcDbEntity
  8
0
  6
Continuous
 62
     7
370
    25
100
AcDbLine
 10
209.0239435735
 20
100.7736847577
 30
0.0
 11
209.0245936563
 21
100.7731326525
 31
0.0
  0
LINE
  5
10A
330
1F
100
AcDbEntity
  8
0
  6
Continuous
 62
     7
370
    25
100
AcDbLine
 10
220.1739435735
 20
67.7736847577
 30
0.0
 11
209.6739435735
 21
67.7736847577
 31
0.0
  0
SPLINE
  5
10B
330
1F
100
AcDbEntity
  8
0
  6
Continuous
 62
     7
370
    25
100
AcDbSpline
210
0.0
220
0.0
230
1.0
 70
     8
 71
     3
 72
    10
 73
     6
 74
     0
 42
0.00000001
 43
0.00000001
 40
0.0
 40
0.0
 40
0.0
 40
0.0
 40
0.1601790552921523
 40
0.7197651707804853
 40
1.0
 40
1.0
 40
1.0
 40
1.0
 10
208.2119927350776
 20
101.0065800453395
 30
0.0
 10
208.2112299449844
 20
101.0079722733658
 30
0.0
 10
208.2078023449106
 20
101.0142282550942
 30
0.0
 10
208.2223098097089
 20
100.9877209903663
 30
0.0
 10
208.2402393628268
 20
100.9551651352211
 30
0.0
 10
208.2462221681945
 20
100.9443017665897
 30
0.0
  0
SPLINE
  5
10C
330
1F
100
AcDbEntity
  8
0
  6
Continuous
 62
     7
370
    25
100
AcDbSpline
210
0.0
220
0.0
230
1.0
 70
     8
 71
     3
 72
    10
 73
     6
 74
     0
 42
0.00000001
 43
0.00000001
 40
0.0
 40
0.0
 40
0.0
 40
0.0
 40
0.1593935212994522
 40
0.7189934545690309
 40
1.0
 40
1.0
 40
1.0
 40
1.0
 10
204.1359019682924
 20
101.0065938460562
 30
0.0
 10
204.1366634952898
 20
101.0079837648828
 30
0.0
 10
204.1400985968058
 20
101.0142534208297
 30
0.0
 10
204.1256039743393
 20
100.9877694790059
 30
0.0
 10
204.1076626038466
 20
100.9551920749591
 30
0.0
 10
204.1016649787149
 20
100.9443017665897
 30
0.0
  0
LINE
  5
10D
330
1F
100
AcDbEntity
  8
0
  6
Continuous
 62
     7
370
    25
100
AcDbLine
 10
203.4239435735
 20
99.7736847577
 30
0.0
 11
203.4239435735
 21
98.6349006898
 31
0.0
  0
SPLINE
  5
10E
330
1F
100
AcDbEntity
  8
0
  6
Continuous
 62
     7
370
    25
100
AcDbSpline
210
0.0
220
0.0
230
1.0
 70
     8
 71
     3
 72
     9
 73
     5
 74
     0
 42
0.00000001
 43
0.00000001
 40
0.0
 40
0.0
 40
0.0
 40
0.0
 40
0.5797912171256431
 40
1.0
 40
1.0
 40
1.0
 40
1.0
 10
221.601664978715
 20
100.9443017665897
 30
0.0
 10
221.6140235820614
 20
100.9667754148308
 30
0.0
 10
221.6353391918558
 20
101.0055370372517
 30
0.0
 10
221.6357301343586
 20
101.0062714420099
 30
0.0
 10
221.6358944118319
 20
101.0065800453395
 30
0.0
  0
SPLINE
  5
10F
330
1F
100
AcDbEntity
  8
0
  6
Continuous
 62
     7
370
    25
100
AcDbSpline
210
0.0
220
0.0
230
1.0
 70
     8
 71
     3
 72
     9
 73
     5
 74
     0
 42
0.00000001
 43
0.00000001
 40
0.0
 40
0.0
 40
0.0
 40
0.0
 40
0.5789479223911498
 40
1.0
 40
1.0
 40
1.0
 40
1.0
 10
224.594560582381
 20
79.95140616292367
 30
0.0
 10
224.6170019495736
 20
79.96374705323808
 30
0.0
 10
224.6557642739982
 20
79.98506311611199
 30
0.0
 10
224.6565301768572
 20
79.98547129002638
 30
0.0
 10
224.6568526618473
 20
79.98564315250107
 30
0.0
  0
LINE
  5
110
330
1F
100
AcDbEntity
  8
0
  6
Continuous
 62
     7
370
    25
100
AcDbLine
 10
222.2851595056
 20
79.2736847577
 30
0.0
 11
223.4239435735
 21
79.2736847577
 31
0.0
  0
SPLINE
  5
111
330
1F
100
AcDbEntity
  8
0
  6
Continuous
 62
     7
370
    25
100
AcDbSpline
210
0.0
220
0.0
230
1.0
 70
     8
 71
     3
 72
     9
 73
     5
 74
     0
 42
0.00000001
 43
0.00000001
 40
0.0
 40
0.0
 40
0.0
 40
0.0
 40
0.5789479223839474
 40
0.9999999999999999
 40
0.9999999999999999
 40
0.9999999999999999
 40
0.9999999999999999
 10
204.1016649787149
 20
81.60306774873725
 30
0.0
 10
204.1140058690292
 20
81.58062638154487
 30
0.0
 10
204.1353219319031
 20
81.54186405712032
 30
0.0
 10
204.1357301058177
 20
81.54109815426095
 30
0.0
 10
204.1359019682924
 20
81.54077566927077
 30
0.0
  0
LINE
  5
112
330
1F
100
AcDbEntity
  8
0
  6
Continuous
 62
     7
370
    25
100
AcDbLine
 10
203.4239435735
 20
83.9124688255
 30
0.0
 11
203.4239435735
 21
82.7736847577
 31
0.0
  0
SPLINE
  5
113
330
1F
100
AcDbEntity
  8
0
  6
Continuous
 62
     7
370
    25
100
AcDbSpline
210
0.0
220
0.0
230
1.0
 70
     8
 71
     3
 72
    10
 73
     6
 74
     0
 42
0.00000001
 43
0.00000001
 40
0.0
 40
0.0
 40
0.0
 40
0.0
 40
0.1593935213061655
 40
0.7189934545756295
 40
1.0
 40
1.0
 40
1.0
 40
1.0
 10
205.1910344850621
 20
79.98564315250107
 30
0.0
 10
205.1896445662355
 20
79.9864046794985
 30
0.0
 10
205.1833749102887
 20
79.98983978101437
 30
0.0
 10
205.2098588521127
 20
79.97534515854778
 30
0.0
 10
205.2424362561594
 20
79.95740378805516
 30
0.0
 10
205.2533265645285
 20
79.95140616292367
 30
0.0
  0
LINE
  5
114
330
1F
100
AcDbEntity
  8
0
  6
Continuous
 62
     7
370
    25
100
AcDbLine
 10
206.4239435735
 20
79.2736847577
 30
0.0
 11
207.5627276413
 21
79.2736847577
 31
0.0
  0
LINE
  5
115
330
1F
100
AcDbEntity
  8
0
  6
Continuous
 62
     7
370
    25
100
AcDbLine
 10
224.6615478805
 20
81.5360804506
 30
0.0
 11
224.5945605824
 21
81.6030677487
 31
0.0
  0
LINE
  5
116
330
1F
100
AcDbEntity
  8
0
  6
Continuous
 62
     7
370
    25
100
AcDbLine
 10
205.2533265645
 20
81.6030677487
 30
0.0
 11
205.1863392664
 21
81.5360804506
 31
0.0
  0
LINE
  5
117
330
1F
100
AcDbEntity
  8
0
  6
Continuous
 62
     7
370
    25
100
AcDbLine
 10
220.1630289061
 20
117.7736847577
 30
0.0
 11
220.1630289061
 21
118.3736847577
 31
0.0
  0
LINE
  5
118
330
1F
100
AcDbEntity
  8
0
  6
Continuous
 62
     7
370
    25
100
AcDbLine
 10
209.6848582408
 20
117.7736847577
 30
0.0
 11
220.1630289061
 21
117.7736847577
 31
0.0
  0
LINE
  5
119
330
1F
100
AcDbEntity
  8
0
  6
Continuous
 62
     7
370
    25
100
AcDbLine
 10
209.6848582408
 20
118.3736847577
 30
0.0
 11
209.6848582408
 21
117.7736847577
 31
0.0
  0
LINE
  5
11A
330
1F
100
AcDbEntity
  8
0
  6
Continuous
 62
     7
370
    25
100
AcDbLine
 10
220.1630289061
 20
118.3736847577
 30
0.0
 11
209.6848582408
 21
118.3736847577
 31
0.0
  0
SPLINE
  5
11B
330
1F
100
AcDbEntity
  8
0
  6
Continuous
 62
     7
370
    25
100
AcDbSpline
210
0.0
220
0.0
230
1.0
 70
     8
 71
     3
 72
    15
 73
    11
 74
     0
 42
0.00000001
 43
0.00000001
 40
0.0
 40
0.0
 40
0.0
 40
0.0
 40
0.0090459071881971
 40
0.1032433785236816
 40
0.1542564497735189
 40
0.31331690267151
 40
0.5243720399414428
 40
0.6678060008509183
 40
0.9918332554187028
 40
1.0
 40
1.0
 40
1.0
 40
1.0
 10
220.1630289061129
 20
118.3736847576635
 30
0.0
 10
220.1630232141462
 20
118.3753658562479
 30
0.0
 10
220.1629582501954
 20
118.3945526878034
 30
0.0
 10
220.1609625637595
 20
118.4232469673234
 30
0.0
 10
220.153145567543
 20
118.4739230072953
 30
0.0
 10
220.1359757437881
 20
118.5317993068722
 30
0.0
 10
220.1093918472206
 20
118.5766648216069
 30
0.0
 10
220.0715625487319
 20
118.6140272048615
 30
0.0
 10
220.0432817687217
 20
118.6235732171309
 30
0.0
 10
220.0234506211904
 20
118.6236820813177
 30
0.0
 10
220.0229630870475
 20
118.6236847576635
 30
0.0
  0
SPLINE
  5
11C
330
1F
100
AcDbEntity
  8
0
  6
Continuous
 62
     7
370
    25
100
AcDbSpline
210
0.0
220
0.0
230
1.0
 70
     8
 71
     3
 72
    15
 73
    11
 74
     0
 42
0.00000001
 43
0.00000001
 40
0.0
 40
0.0
 40
0.0
 40
0.0
 40
0.0081667445812973
 40
0.3321939991490804
 40
0.475627960058556
 40
0.6866830973284891
 40
0.8457435502264751
 40
0.8967566214763124
 40
0.9909540928118028
 40
1.0
 40
1.0
 40
1.0
 40
1.0
 10
209.824924059862
 20
118.6236847576635
 30
0.0
 10
209.8244365257191
 20
118.6236820813177
 30
0.0
 10
209.8046053781878
 20
118.6235732171309
 30
0.0
 10
209.7763245981776
 20
118.6140272048615
 30
0.0
 10
209.7384952996889
 20
118.5766648216069
 30
0.0
 10
209.7119114031214
 20
118.5317993068722
 30
0.0
 10
209.6947415793664
 20
118.4739230072953
 30
0.0
 10
209.68692458315
 20
118.4232469673234
 30
0.0
 10
209.6849288967141
 20
118.3945526878034
 30
0.0
 10
209.6848639327633
 20
118.3753658562479
 30
0.0
 10
209.6848582407966
 20
118.3736847576635
 30
0.0
  0
LINE
  5
11D
330
1F
100
AcDbEntity
  8
0
  6
Continuous
 62
     7
370
    25
100
AcDbLine
 10
209.8249240599
 20
118.6236847577
 30
0.0
 11
220.022963087
 21
118.6236847577
 31
0.0
  0
SPLINE
  5
11E
330
1F
100
AcDbEntity
  8
0
  6
Continuous
 62
     7
370
    25
100
AcDbSpline
210
0.0
220
0.0
230
1.0
 70
     8
 71
     3
 72
    15
 73
    11
 74
     0
 42
0.00000001
 43
0.00000001
 40
0.0
 40
0.0
 40
0.0
 40
0.0
 40
0.0089557228015919
 40
0.0999003359608209
 40
0.1531632460581751
 40
0.3125636920784904
 40
0.5249666935695061
 40
0.6689893599351777
 40
0.991915253381045
 40
1.0
 40
1.0
 40
1.0
 40
1.0
 10
209.4467179984031
 20
118.3736847576635
 30
0.0
 10
209.4467337539817
 20
118.3753658832364
 30
0.0
 10
209.4469095061383
 20
118.3941186978608
 30
0.0
 10
209.4523385221578
 20
118.4228809269683
 30
0.0
 10
209.4738740058651
 20
118.4737680004366
 30
0.0
 10
209.5215794341299
 20
118.5319036505693
 30
0.0
 10
209.5939703791218
 20
118.5766115237527
 30
0.0
 10
209.6958894911395
 20
118.6138933472144
 30
0.0
 10
209.7712445825945
 20
118.6235725020521
 30
0.0
 10
209.8236442283178
 20
118.6236820812538
 30
0.0
 10
209.824924059862
 20
118.6236847576635
 30
0.0
  0
LINE
  5
11F
330
1F
100
AcDbEntity
  8
0
  6
Continuous
 62
     7
370
    25
100
AcDbLine
 10
209.4467179984
 20
118.3736847577
 30
0.0
 11
209.6848582408
 21
118.3736847577
 31
0.0
  0
SPLINE
  5
120
330
1F
100
AcDbEntity
  8
0
  6
Continuous
 62
     7
370
    25
100
AcDbSpline
210
0.0
220
0.0
230
1.0
 70
     8
 71
     3
 72
    15
 73
    11
 74
     0
 42
0.00000001
 43
0.00000001
 40
0.0
 40
0.0
 40
0.0
 40
0.0
 40
0.0080847466189582
 40
0.3310106400648243
 40
0.4750333064304948
 40
0.6874363079215142
 40
0.8468367539418303
 40
0.9000996640391847
 40
0.9910442771984082
 40
1.0
 40
1.0
 40
1.0
 40
1.0
 10
220.0229630870475
 20
118.6236847576635
 30
0.0
 10
220.0242429185917
 20
118.6236820812538
 30
0.0
 10
220.0766425643149
 20
118.6235725020521
 30
0.0
 10
220.15199765577
 20
118.6138933472144
 30
0.0
 10
220.2539167677877
 20
118.5766115237527
 30
0.0
 10
220.3263077127796
 20
118.5319036505693
 30
0.0
 10
220.3740131410444
 20
118.4737680004366
 30
0.0
 10
220.3955486247517
 20
118.4228809269683
 30
0.0
 10
220.4009776407712
 20
118.3941186978608
 30
0.0
 10
220.4011533929278
 20
118.3753658832364
 30
0.0
 10
220.4011691485064
 20
118.3736847576635
 30
0.0
  0
LINE
  5
121
330
1F
100
AcDbEntity
  8
0
  6
Continuous
 62
     7
370
    25
100
AcDbLine
 10
220.1630289061
 20
118.3736847577
 30
0.0
 11
220.4011691485
 21
118.3736847577
 31
0.0
  0
LINE
  5
122
330
1F
100
AcDbEntity
  8
0
  6
Continuous
 62
     7
370
    25
100
AcDbLine
 10
209.4467179984
 20
117.7736847577
 30
0.0
 11
209.4467179984
 21
118.3736847577
 31
0.0
  0
LINE
  5
123
330
1F
100
AcDbEntity
  8
0
  6
Continuous
 62
     7
370
    25
100
AcDbLine
 10
209.6848582408
 20
117.7736847577
 30
0.0
 11
209.4467179984
 21
117.7736847577
 31
0.0
  0
LINE
  5
124
330
1F
100
AcDbEntity
  8
0
  6
Continuous
 62
     7
370
    25
100
AcDbLine
 10
220.4011691485
 20
118.3736847577
 30
0.0
 11
220.4011691485
 21
117.7736847577
 31
0.0
  0
LINE
  5
125
330
1F
100
AcDbEntity
  8
0
  6
Continuous
 62
     7
370
    25
100
AcDbLine
 10
220.4011691485
 20
117.7736847577
 30
0.0
 11
220.1630289061
 21
117.7736847577
 31
0.0
  0
LINE
  5
126
330
1F
100
AcDbEntity
  8
0
  6
Continuous
 62
     7
370
    25
100
AcDbLine
 10
209.4467179984
 20
118.3736847577
 30
0.0
 11
209.1739435735
 21
118.3736847577
 31
0.0
  0
LINE
  5
127
330
1F
100
AcDbEntity
  8
0
  6
Continuous
 62
     7
370
    25
100
AcDbLine
 10
209.1739435735
 20
118.6236847577
 30
0.0
 11
209.1739435735
 21
118.3736847577
 31
0.0
  0
LINE
  5
128
330
1F
100
AcDbEntity
  8
0
  6
Continuous
 62
     7
370
    25
100
AcDbLine
 10
209.1739435735
 20
118.6236847577
 30
0.0
 11
209.8249240599
 21
118.6236847577
 31
0.0
  0
LINE
  5
129
330
1F
100
AcDbEntity
  8
0
  6
Continuous
 62
     7
370
    25
100
AcDbLine
 10
209.1739435735
 20
118.3736847577
 30
0.0
 11
209.1739435735
 21
117.7736847577
 31
0.0
  0
LINE
  5
12A
330
1F
100
AcDbEntity
  8
0
  6
Continuous
 62
     7
370
    25
100
AcDbLine
 10
209.1739435735
 20
117.7736847577
 30
0.0
 11
209.4467179984
 21
117.7736847577
 31
0.0
  0
LINE
  5
12B
330
1F
100
AcDbEntity
  8
0
  6
Continuous
 62
     7
370
    25
100
AcDbLine
 10
208.9239435735
 20
117.7736847577
 30
0.0
 11
208.9239435735
 21
118.3736847577
 31
0.0
  0
LINE
  5
12C
330
1F
100
AcDbEntity
  8
0
  6
Continuous
 62
     7
370
    25
100
AcDbLine
 10
208.9239435735
 20
118.3736847577
 30
0.0
 11
209.1739435735
 21
118.3736847577
 31
0.0
  0
LINE
  5
12D
330
1F
100
AcDbEntity
  8
0
  6
Continuous
 62
     7
370
    25
100
AcDbLine
 10
209.1739435735
 20
117.7736847577
 30
0.0
 11
208.9239435735
 21
117.7736847577
 31
0.0
  0
ARC
  5
12E
330
1F
100
AcDbEntity
  8
0
  6
Continuous
 62
     7
370
    25
100
AcDbCircle
 10
209.1739435735
 20
118.3736847577
 30
0.0
 40
0.25
100
AcDbArc
 50
90.0
 51
180.0
  0
LINE
  5
12F
330
1F
100
AcDbEntity
  8
0
  6
Continuous
 62
     7
370
    25
100
AcDbLine
 10
220.6739435735
 20
118.3736847577
 30
0.0
 11
220.9239435735
 21
118.3736847577
 31
0.0
  0
LINE
  5
130
330
1F
100
AcDbEntity
  8
0
  6
Continuous
 62
     7
370
    25
100
AcDbLine
 10
220.6739435735
 20
118.3736847577
 30
0.0
 11
220.6739435735
 21
118.6236847577
 31
0.0
  0
ARC
  5
131
330
1F
100
AcDbEntity
  8
0
  6
Continuous
 62
     7
370
    25
100
AcDbCircle
 10
220.6739435735
 20
118.3736847577
 30
0.0
 40
0.25
100
AcDbArc
 50
0.0
 51
90.0
  0
LINE
  5
132
330
1F
100
AcDbEntity
  8
0
  6
Continuous
 62
     7
370
    25
100
AcDbLine
 10
220.6739435735
 20
117.7736847577
 30
0.0
 11
220.6739435735
 21
118.3736847577
 31
0.0
  0
LINE
  5
133
330
1F
100
AcDbEntity
  8
0
  6
Continuous
 62
     7
370
    25
100
AcDbLine
 10
220.6739435735
 20
118.3736847577
 30
0.0
 11
220.4011691485
 21
118.3736847577
 31
0.0
  0
LINE
  5
134
330
1F
100
AcDbEntity
  8
0
  6
Continuous
 62
     7
370
    25
100
AcDbLine
 10
220.4011691485
 20
117.7736847577
 30
0.0
 11
220.6739435735
 21
117.7736847577
 31
0.0
  0
LINE
  5
135
330
1F
100
AcDbEntity
  8
0
  6
Continuous
 62
     7
370
    25
100
AcDbLine
 10
220.022963087
 20
118.6236847577
 30
0.0
 11
220.6739435735
 21
118.6236847577
 31
0.0
  0
LINE
  5
136
330
1F
100
AcDbEntity
  8
0
  6
Continuous
 62
     7
370
    25
100
AcDbLine
 10
220.9239435735
 20
118.3736847577
 30
0.0
 11
220.9239435735
 21
117.7736847577
 31
0.0
  0
LINE
  5
137
330
1F
100
AcDbEntity
  8
0
  6
Continuous
 62
     7
370
    25
100
AcDbLine
 10
220.9239435735
 20
117.7736847577
 30
0.0
 11
220.6739435735
 21
117.7736847577
 31
0.0
  0
LINE
  5
138
330
1F
100
AcDbEntity
  8
0
  6
Continuous
 62
     7
370
    25
100
AcDbLine
 10
219.9239435735
 20
118.6236847577
 30
0.0
 11
219.9239435735
 21
118.6336847577
 31
0.0
  0
LINE
  5
139
330
1F
100
AcDbEntity
  8
0
  6
Continuous
 62
     7
370
    25
100
AcDbLine
 10
209.9239435735
 20
118.6336847577
 30
0.0
 11
219.9239435735
 21
118.6336847577
 31
0.0
  0
LINE
  5
13A
330
1F
100
AcDbEntity
  8
0
  6
Continuous
 62
     7
370
    25
100
AcDbLine
 10
209.9239435735
 20
118.6236847577
 30
0.0
 11
209.9239435735
 21
118.6336847577
 31
0.0
  0
LINE
  5
13B
330
1F
100
AcDbEntity
  8
0
  6
Continuous
 62
     7
370
    25
100
AcDbLine
 10
207.4739435735
 20
109.7736847576
 30
0.0
 11
219.3984904575
 21
109.7736847577
 31
0.0
  0
LINE
  5
13C
330
1F
100
AcDbEntity
  8
0
  6
Continuous
 62
     7
370
    25
100
AcDbLine
 10
220.1477457478
 20
117.7736847576
 30
0.0
 11
209.6848582408
 21
117.7736847576
 31
0.0
  0
LINE
  5
13D
330
1F
100
AcDbEntity
  8
0
  6
Continuous
 62
     7
370
    25
100
AcDbLine
 10
221.8758844118
 20
110.7684283356
 30
0.0
 11
220.1477457478
 21
117.7736847576
 31
0.0
  0
SPLINE
  5
13E
330
1F
100
AcDbEntity
  8
0
  6
Continuous
 62
     7
370
    25
100
AcDbSpline
210
0.0
220
0.0
230
1.0
 70
     8
 71
     3
 72
     9
 73
     5
 74
     0
 42
0.00000001
 43
0.00000001
 40
0.0
 40
0.0
 40
0.0
 40
0.0
 40
0.4983247250277991
 40
1.0
 40
1.0
 40
1.0
 40
1.0
 10
219.3984904575369
 20
109.7736847576611
 30
0.0
 10
219.2823801610577
 20
109.9474768715202
 30
0.0
 10
219.0493788856892
 20
110.296229612716
 30
0.0
 10
218.7756185123475
 20
110.6106775701302
 30
0.0
 10
218.6382797017748
 20
110.7684283356304
 30
0.0
  0
LINE
  5
13F
330
1F
100
AcDbEntity
  8
0
  6
Continuous
 62
     7
370
    25
100
AcDbLine
 10
216.9239435735
 20
101.7736847577
 30
0.0
 11
216.923943668
 21
101.8115016356
 31
0.0
  0
LINE
  5
140
330
1F
100
AcDbEntity
  8
0
  6
Continuous
 62
     7
370
    25
100
AcDbLine
 10
207.9239435735
 20
101.7736847577
 30
0.0
 11
216.9239435735
 21
101.7736847577
 31
0.0
  0
SPLINE
  5
141
330
1F
100
AcDbEntity
  8
0
  6
Continuous
 62
     7
370
    25
100
AcDbSpline
210
0.0
220
0.0
230
1.0
 70
     8
 71
     3
 72
    16
 73
    12
 74
     0
 42
0.00000001
 43
0.00000001
 40
0.0
 40
0.0
 40
0.0
 40
0.0
 40
0.0155634360124117
 40
0.0359329243097674
 40
0.0739120889290614
 40
0.1570057548437684
 40
0.2406581385754913
 40
0.4592958294318596
 40
0.6783839187935417
 40
0.8974954344294845
 40
1.0
 40
1.0
 40
1.0
 40
1.0
 10
217.0798888238819
 20
101.7736847576636
 30
0.0
 10
217.1222808131505
 20
101.7788781294427
 30
0.0
 10
217.2201556102401
 20
101.7908686073105
 30
0.0
 10
217.3936342812529
 20
101.9091945313075
 30
0.0
 10
217.6419679602556
 20
102.2204458387564
 30
0.0
 10
217.8964325023015
 20
102.7460933401215
 30
0.0
 10
218.2401119139926
 20
103.7846395043916
 30
0.0
 10
218.6213319332593
 20
105.2197135467378
 30
0.0
 10
218.9714335892589
 20
107.0579656481772
 30
0.0
 10
219.2152254383472
 20
108.5791484969966
 30
0.0
 10
219.3541976335042
 20
109.4849805377931
 30
0.0
 10
219.3984904575369
 20
109.7736847576611
 30
0.0
  0
SPLINE
  5
142
330
1F
100
AcDbEntity
  8
0
  6
Continuous
 62
     7
370
    25
100
AcDbSpline
210
0.0
220
0.0
230
1.0
 70
     8
 71
     3
 72
     9
 73
     5
 74
     0
 42
0.00000001
 43
0.00000001
 40
0.0
 40
0.0
 40
0.0
 40
0.0
 40
0.5124861829376838
 40
0.9999999999999999
 40
0.9999999999999999
 40
0.9999999999999999
 40
0.9999999999999999
 10
216.9239436679861
 20
101.8115016356037
 30
0.0
 10
216.949586172158
 20
101.8004737226525
 30
0.0
 10
216.9996216756028
 20
101.7789552635831
 30
0.0
 10
217.0535822824613
 20
101.775412099238
 30
0.0
 10
217.0798888238819
 20
101.7736847576636
 30
0.0
  0
LINE
  5
143
330
1F
100
AcDbEntity
  8
0
  6
Continuous
 62
     7
370
    25
100
AcDbLine
 10
218.6382797018
 20
110.7684283356
 30
0.0
 11
237.099380435
 21
110.7684283357
 31
0.0
  0
LINE
  5
144
330
1F
100
AcDbEntity
  8
0
  6
Continuous
 62
     7
370
    25
100
AcDbLine
 10
237.099380435
 20
110.7684283357
 30
0.0
 11
237.099380435
 21
107.5258604506
 31
0.0
  0
SPLINE
  5
145
330
1F
100
AcDbEntity
  8
0
  6
Continuous
 62
     7
370
    25
100
AcDbSpline
210
0.0
220
0.0
230
1.0
 70
     8
 71
     3
 72
    11
 73
     7
 74
     0
 42
0.00000001
 43
0.00000001
 40
0.0
 40
0.0
 40
0.0
 40
0.0
 40
0.2488607147078904
 40
0.4977191536447657
 40
0.7488602698858827
 40
0.9999999999999999
 40
0.9999999999999999
 40
0.9999999999999999
 40
0.9999999999999999
 10
230.0289868127477
 20
106.2026599496535
 30
0.0
 10
230.6055797716304
 20
106.3521388865416
 30
0.0
 10
231.7587604165927
 20
106.6510953933692
 30
0.0
 10
233.5196747385233
 20
107.0128993668279
 30
0.0
 10
235.2996534521023
 20
107.3151740100674
 30
0.0
 10
236.4994725443947
 20
107.4556317663206
 30
0.0
 10
237.0993804349914
 20
107.525860450639
 30
0.0
  0
LINE
  5
146
330
1F
100
AcDbEntity
  8
0
  6
Continuous
 62
     7
370
    25
100
AcDbLine
 10
230.0289868127
 20
106.2026599497
 30
0.0
 11
224.2492299629
 21
104.6340385092
 31
0.0
  0
SPLINE
  5
147
330
1F
100
AcDbEntity
  8
0
  6
Continuous
 62
     7
370
    25
100
AcDbSpline
210
0.0
220
0.0
230
1.0
 70
     8
 71
     3
 72
    13
 73
     9
 74
     0
 42
0.00000001
 43
0.00000001
 40
0.0
 40
0.0
 40
0.0
 40
0.0
 40
0.1610294006389558
 40
0.3266880383557516
 40
0.4877296220820636
 40
0.6535536198224136
 40
0.8237602734841889
 40
1.0
 40
1.0
 40
1.0
 40
1.0
 10
224.2492299628924
 20
104.6340385091706
 30
0.0
 10
224.0353599088613
 20
104.5646416145934
 30
0.0
 10
223.6014715124739
 20
104.4238528190849
 30
0.0
 10
223.0101507638082
 20
104.0777280013772
 30
0.0
 10
222.4762194149575
 20
103.6385213583252
 30
0.0
 10
222.0225354431545
 20
103.1049195213856
 30
0.0
 10
221.648081730169
 20
102.4810932146859
 30
0.0
 10
221.4995186594102
 20
102.0122093164839
 30
0.0
 10
221.4239435734547
 20
101.7736847576635
 30
0.0
  0
LINE
  5
148
330
1F
100
AcDbEntity
  8
0
  6
Continuous
 62
     7
370
    25
100
AcDbLine
 10
221.4239435735
 20
101.7736847577
 30
0.0
 11
217.0798888239
 21
101.7736847577
 31
0.0
  0
LINE
  5
149
330
1F
100
AcDbEntity
  8
0
  6
Continuous
 62
     7
370
    25
100
AcDbLine
 10
216.9307429314
 20
101.7736847577
 30
0.0
 11
216.923943668
 21
101.8115016356
 31
0.0
  0
LINE
  5
14A
330
1F
100
AcDbEntity
  8
0
  6
Continuous
 62
     7
370
    25
100
AcDbLine
 10
216.9239435735
 20
101.7736847577
 30
0.0
 11
216.9307429314
 21
101.7736847577
 31
0.0
  0
LINE
  5
14B
330
1F
100
AcDbEntity
  8
0
  6
Continuous
 62
     7
370
    25
100
AcDbLine
 10
217.0798888239
 20
101.7736847577
 30
0.0
 11
216.9307429314
 21
101.7736847577
 31
0.0
  0
LINE
  5
14C
330
1F
100
AcDbEntity
  8
0
  6
Continuous
 62
     7
370
    25
100
AcDbLine
 10
237.099380435
 20
110.7684283357
 30
0.0
 11
237.099380435
 21
119.7736847577
 31
0.0
  0
LINE
  5
14D
330
1F
100
AcDbEntity
  8
0
  6
Continuous
 62
     7
370
    25
100
AcDbLine
 10
237.099380435
 20
119.7736847577
 30
0.0
 11
254.9239435735
 21
119.7736847577
 31
0.0
  0
LINE
  5
14E
330
1F
100
AcDbEntity
  8
0
  6
Continuous
 62
     7
370
    25
100
AcDbLine
 10
254.9239435735
 20
119.7736847577
 30
0.0
 11
254.9239435735
 21
112.7736847577
 31
0.0
  0
ARC
  5
14F
330
1F
100
AcDbEntity
  8
0
  6
Continuous
 62
     7
370
    25
100
AcDbCircle
 10
249.9239435735
 20
112.7736847577
 30
0.0
 40
4.999999999999986
100
AcDbArc
 50
270.0
 51
0.0
  0
LINE
  5
150
330
1F
100
AcDbEntity
  8
0
  6
Continuous
 62
     7
370
    25
100
AcDbLine
 10
249.9239435735
 20
107.7736847577
 30
0.0
 11
241.8156114312
 21
107.7736847577
 31
0.0
  0
ARC
  5
151
330
1F
100
AcDbEntity
  8
0
  6
Continuous
 62
     7
370
    25
100
AcDbCircle
 10
241.8156114312
 20
62.7735555035
 30
0.0
 40
45.00012925418375
100
AcDbArc
 50
90.0
 51
96.0159222295
  0
ARC
  5
152
330
1F
100
AcDbEntity
  8
0
  6
Continuous
 62
     7
370
    25
100
AcDbCircle
 10
229.3128971377
 20
121.7736847577
 30
0.0
 40
10.00000000000847
100
AcDbArc
 50
203.5781784783
 51
264.4198332155
  0
ARC
  5
153
330
1F
100
AcDbEntity
  8
0
  6
Continuous
 62
     7
370
    25
100
AcDbCircle
 10
228.9239435735
 20
117.792640281
 30
0.0
 40
6.000000000000005
100
AcDbArc
 50
264.4198332155
 51
0.0
  0
LINE
  5
154
330
1F
100
AcDbEntity
  8
0
  6
Continuous
 62
     7
370
    25
100
AcDbLine
 10
234.9239435735
 20
119.7736847577
 30
0.0
 11
234.9239435735
 21
117.792640281
 31
0.0
  0
LINE
  5
155
330
1F
100
AcDbEntity
  8
0
  6
Continuous
 62
     7
370
    25
100
AcDbLine
 10
234.9239435735
 20
119.7736847577
 30
0.0
 11
237.099380435
 21
119.7736847577
 31
0.0
  0
LINE
  5
156
330
1F
100
AcDbEntity
  8
0
  6
Continuous
 62
     7
370
    25
100
AcDbLine
 10
221.9239435735
 20
101.7736847577
 30
0.0
 11
221.4239435735
 21
101.7736847577
 31
0.0
  0
LINE
  5
157
330
1F
100
AcDbEntity
  8
0
  6
Continuous
 62
     7
370
    25
100
AcDbLine
 10
220.1477457478
 20
117.7736847576
 30
0.0
 11
220.1630289061
 21
117.7736847576
 31
0.0
  0
SPLINE
  5
158
330
1F
100
AcDbEntity
  8
0
  6
Continuous
 62
     7
370
    25
100
AcDbSpline
210
0.0
220
0.0
230
1.0
 70
     8
 71
     3
 72
    31
 73
    27
 74
     0
 42
0.00000001
 43
0.00000001
 40
0.0
 40
0.0
 40
0.0
 40
0.0
 40
0.0092779960424052
 40
0.051718567652762
 40
0.094186402641134
 40
0.1321082243962762
 40
0.1702201949861369
 40
0.2082112783122171
 40
0.2154740146503732
 40
0.2764892866683929
 40
0.3375037813709814
 40
0.3848237974241505
 40
0.4320486217129797
 40
0.4692174591467225
 40
0.5063473788562822
 40
0.5434350265658765
 40
0.5805719771879206
 40
0.6303347770582004
 40
0.6801897503811642
 40
0.7334691674892946
 40
0.78673986128093
 40
0.8315839736939052
 40
0.8763931260322578
 40
0.9190687520478804
 40
0.9617092086668942
 40
1.0
 40
1.0
 40
1.0
 40
1.0
 10
209.0245936563304
 20
100.7731326524885
 30
0.0
 10
209.0253386745221
 20
100.7725014030399
 30
0.0
 10
209.0294916482433
 20
100.7689826132965
 30
0.0
 10
209.0997743238271
 20
100.7090559666022
 30
0.0
 10
209.2910943584396
 20
100.5486650763014
 30
0.0
 10
209.5660155999432
 20
100.3223704816701
 30
0.0
 10
209.8984327450072
 20
100.0570006822068
 30
0.0
 10
210.185495887596
 20
99.83692191372519
 30
0.0
 10
210.5814432948322
 20
99.543122943317
 30
0.0
 10
211.1170625415298
 20
99.16270056487743
 30
0.0
 10
211.9328160284223
 20
98.6646760847392
 30
0.0
 10
212.7743751860856
 20
98.25255840545587
 30
0.0
 10
213.5577822560709
 20
97.97555924417273
 30
0.0
 10
214.3307671007352
 20
97.82414210080265
 30
0.0
 10
215.0613574147225
 20
97.78599262951661
 30
0.0
 10
215.7860798680592
 20
97.86532452063355
 30
0.0
 10
216.5594494876193
 20
98.05782772845262
 30
0.0
 10
217.3498443098195
 20
98.37498719762512
 30
0.0
 10
218.1466488566208
 20
98.80026573545726
 30
0.0
 10
218.8740159633229
 20
99.26272644589383
 30
0.0
 10
219.4882217980735
 20
99.7031398202845
 30
0.0
 10
219.9816800316286
 20
100.0815990076489
 30
0.0
 10
220.3567483174399
 20
100.3833698857542
 30
0.0
 10
220.6269374007301
 20
100.6069595359612
 30
0.0
 10
220.7953963438391
 20
100.7494505758349
 30
0.0
 10
220.81081071964
 20
100.7624693828734
 30
0.0
 10
220.8181036832636
 20
100.7686289372647
 30
0.0
  0
LINE
  5
159
330
1F
100
AcDbEntity
  8
FORMAT
100
AcDbLine
 10
209.1744052696
 20
68.6389104802
 30
0.0
 11
208.8576935735
 21
78.7736847577
 31
0.0
  0
LINE
  5
15A
330
1F
100
AcDbEntity
  8
FORMAT
100
AcDbLine
 10
220.6734818773
 20
68.6389104802
 30
0.0
 11
220.9901935735
 21
78.7736847577
 31
0.0
  0
LINE
  5
15B
330
1F
100
AcDbEntity
  8
FORMAT
100
AcDbLine
 10
221.6665060735
 20
78.7736847577
 30
0.0
 11
208.1813810735
 21
78.7736847577
 31
0.0
  0
LINE
  5
15C
330
1F
100
AcDbEntity
  8
FORMAT
100
AcDbLine
 10
190.9239435735
 20
97.3521847577
 30
0.0
 11
199.4239435735
 21
97.3521847577
 31
0.0
  0
LINE
  5
15D
330
1F
100
AcDbEntity
  8
FORMAT
100
AcDbLine
 10
190.9239435735
 20
85.1951847577
 30
0.0
 11
199.4239435735
 21
85.1951847577
 31
0.0
  0
LINE
  5
15E
330
1F
100
AcDbEntity
  8
FORMAT
100
AcDbLine
 10
199.4239435735
 20
84.6951847577
 30
0.0
 11
199.4239435735
 21
97.8521847577
 31
0.0
  0
LINE
  5
15F
330
1F
100
AcDbEntity
  8
FORMAT
  6
CENTERX2
370
    18
100
AcDbLine
 10
187.4239435735
 20
91.2736847577
 30
0.0
 11
230.0713461496
 21
91.2736847577
 31
0.0
  0
LINE
  5
160
330
1F
100
AcDbEntity
  8
FORMAT
  6
CENTERX2
370
    18
100
AcDbLine
 10
214.9239435735
 20
65.8773506315
 30
0.0
 11
214.9239435735
 21
122.4505960084
 31
0.0
  0
LINE
  5
161
330
1F
100
AcDbEntity
  8
0
  6
Continuous
 62
     7
370
    25
100
AcDbLine
 10
297.9697994797
 20
79.2736847577
 30
0.0
 11
298.2634349212
 21
69.8773506315
 31
0.0
  0
LINE
  5
162
330
1F
100
AcDbEntity
  8
0
  6
Continuous
 62
     7
370
    25
100
AcDbLine
 10
311.1925390383
 20
69.8773506315
 30
0.0
 11
311.4861744797
 21
79.2736847577
 31
0.0
  0
LINE
  5
163
330
1F
100
AcDbEntity
  8
0
  6
Continuous
 62
     7
370
    25
100
AcDbLine
 10
298.2634349212
 20
69.8773506315
 30
0.0
 11
299.4779869797
 21
67.7736847577
 31
0.0
  0
LINE
  5
164
330
1F
100
AcDbEntity
  8
0
  6
Continuous
 62
     7
370
    25
100
AcDbLine
 10
309.9779869797
 20
67.7736847577
 30
0.0
 11
311.1925390383
 21
69.8773506315
 31
0.0
  0
SPLINE
  5
165
330
1F
100
AcDbEntity
  8
0
  6
Continuous
 62
     7
370
    25
100
AcDbSpline
210
0.0
220
0.0
230
1.0
 70
     8
 71
     3
 72
     9
 73
     5
 74
     0
 42
0.00000001
 43
0.00000001
 40
0.0
 40
0.0
 40
0.0
 40
0.0
 40
0.5055426112440264
 40
1.0
 40
1.0
 40
1.0
 40
1.0
 10
310.6402589059275
 20
97.67518754577335
 30
0.0
 10
310.6355531971877
 20
97.69702940858045
 30
0.0
 10
310.6262449635491
 20
97.74023419947503
 30
0.0
 10
310.6295320872715
 20
97.78431846881108
 30
0.0
 10
310.6311574298838
 20
97.8061162615122
 30
0.0
  0
LINE
  5
166
330
1F
100
AcDbEntity
  8
0
  6
Continuous
 62
     7
370
    25
100
AcDbLine
 10
298.8280363799
 20
97.8135352165
 30
0.0
 11
298.8200298469
 21
97.6776786929
 31
0.0
  0
LINE
  5
167
330
1F
100
AcDbEntity
  8
0
  6
Continuous
 62
     7
370
    25
100
AcDbLine
 10
310.6279869797
 20
97.8069110109
 30
0.0
 11
310.6279869797
 21
101.7736847577
 31
0.0
  0
LINE
  5
168
330
1F
100
AcDbEntity
  8
0
  6
Continuous
 62
     7
370
    25
100
AcDbLine
 10
298.8279869797
 20
101.7736847577
 30
0.0
 11
298.8279869797
 21
97.8122134216
 31
0.0
  0
ARC
  5
169
330
1F
100
AcDbEntity
  8
0
  6
Continuous
 62
     7
370
    25
100
AcDbCircle
 10
299.4779869797
 20
118.3736847577
 30
0.0
 40
0.2500000000000568
100
AcDbArc
 50
90.0
 51
180.0
  0
ARC
  5
16A
330
1F
100
AcDbEntity
  8
0
  6
Continuous
 62
     7
370
    25
100
AcDbCircle
 10
309.9779869797
 20
118.3736847577
 30
0.0
 40
0.25
100
AcDbArc
 50
0.0
 51
90.0
  0
LINE
  5
16B
330
1F
100
AcDbEntity
  8
0
  6
Continuous
 62
     7
370
    25
100
AcDbLine
 10
299.2279869797
 20
118.3736847577
 30
0.0
 11
299.2279869797
 21
117.7736847577
 31
0.0
  0
LINE
  5
16C
330
1F
100
AcDbEntity
  8
0
  6
Continuous
 62
     7
370
    25
100
AcDbLine
 10
310.2279869797
 20
117.7736847577
 30
0.0
 11
310.2279869797
 21
118.3736847577
 31
0.0
  0
LINE
  5
16D
330
1F
100
AcDbEntity
  8
0
  6
Continuous
 62
     7
370
    25
100
AcDbLine
 10
312.1779869797
 20
109.7736847577
 30
0.0
 11
310.2279869797
 21
117.7736847576
 31
0.0
  0
LINE
  5
16E
330
1F
100
AcDbEntity
  8
0
  6
Continuous
 62
     7
370
    25
100
AcDbLine
 10
299.2279869797
 20
117.7736847576
 30
0.0
 11
297.2779869797
 21
109.7736847577
 31
0.0
  0
LINE
  5
16F
330
1F
100
AcDbEntity
  8
0
  6
Continuous
 62
     7
370
    25
100
AcDbLine
 10
297.2779869797
 20
109.7736847577
 30
0.0
 11
297.7279869797
 21
101.7736847577
 31
0.0
  0
LINE
  5
170
330
1F
100
AcDbEntity
  8
0
  6
Continuous
 62
     7
370
    25
100
AcDbLine
 10
311.7279869797
 20
101.7736847577
 30
0.0
 11
312.1779869797
 21
109.7736847577
 31
0.0
  0
CIRCLE
  5
171
330
1F
100
AcDbEntity
  8
0
  6
Continuous
 62
     7
370
    25
100
AcDbCircle
 10
304.7279869797
 20
91.2736847577
 30
0.0
 40
8.25
  0
SPLINE
  5
172
330
1F
100
AcDbEntity
  8
0
  6
Continuous
 62
     7
370
    25
100
AcDbSpline
210
0.0
220
0.0
230
1.0
 70
     8
 71
     3
 72
    10
 73
     6
 74
     0
 42
0.00000001
 43
0.00000001
 40
0.0
 40
0.0
 40
0.0
 40
0.0
 40
0.5
 40
0.5
 40
1.0
 40
1.0
 40
1.0
 40
1.0
 10
296.2279869797276
 20
86.65488260414647
 30
0.0
 10
296.2279869797276
 20
86.56899554234401
 30
0.0
 10
296.2507794290574
 20
86.48158833336387
 30
0.0
 10
296.3387221331504
 20
86.32895189077016
 30
0.0
 10
296.4035799068243
 20
86.26482884582457
 30
0.0
 10
296.4779869797276
 20
86.22186990225426
 30
0.0
  0
SPLINE
  5
173
330
1F
100
AcDbEntity
  8
0
  6
Continuous
 62
     7
370
    25
100
AcDbSpline
210
0.0
220
0.0
230
1.0
 70
    24
 71
     3
 72
    14
 73
    10
 74
     0
 42
0.00000001
 43
0.00000001
 40
0.0
 40
0.0
 40
0.0
 40
0.0
 40
0.25
 40
0.25
 40
0.5
 40
0.5
 40
0.75
 40
0.75
 40
1.0
 40
1.0
 40
1.0
 40
1.0
 10
296.2279869797276
 20
86.65488260414644
 30
0.0
 10
296.2279869797276
 20
87.40926266479642
 30
0.0
 10
296.2279869797276
 20
88.1787038322619
 30
0.0
 10
296.2279869797276
 20
89.71921519320307
 30
0.0
 10
296.2279869797276
 20
90.49406957321008
 30
0.0
 10
296.2279869797276
 20
92.05443052809564
 30
0.0
 10
296.2279869797276
 20
92.84488672088068
 30
0.0
 10
296.2279869797276
 20
94.38716638368915
 30
0.0
 10
296.2279869797276
 20
95.14455713689034
 30
0.0
 10
296.2279869797276
 20
95.8924869111805
 30
0.0
  0
SPLINE
  5
174
330
1F
100
AcDbEntity
  8
0
  6
Continuous
 62
     7
370
    25
100
AcDbSpline
210
0.0
220
0.0
230
1.0
 70
     8
 71
     3
 72
    10
 73
     6
 74
     0
 42
0.00000001
 43
0.00000001
 40
0.0
 40
0.0
 40
0.0
 40
0.0
 40
0.5
 40
0.5
 40
1.0
 40
1.0
 40
1.0
 40
1.0
 10
296.4779869797276
 20
96.32549961307271
 30
0.0
 10
296.4036066023503
 20
96.28255608217148
 30
0.0
 10
296.3393059635645
 20
96.21911363754735
 30
0.0
 10
296.2510902787815
 20
96.06663480042839
 30
0.0
 10
296.2279869797276
 20
95.97840479832112
 30
0.0
 10
296.2279869797276
 20
95.8924869111805
 30
0.0
  0
SPLINE
  5
175
330
1F
100
AcDbEntity
  8
0
  6
Continuous
 62
     7
370
    25
100
AcDbSpline
210
0.0
220
0.0
230
1.0
 70
    24
 71
     3
 72
    16
 73
    12
 74
     0
 42
0.00000001
 43
0.00000001
 40
0.0
 40
0.0
 40
0.0
 40
0.0
 40
0.2500000000000001
 40
0.2500000000000001
 40
0.5000000000000001
 40
0.5000000000000001
 40
0.6250000000000001
 40
0.6250000000000001
 40
0.7500000000000002
 40
0.7500000000000002
 40
1.0
 40
1.0
 40
1.0
 40
1.0
 10
304.4779869797276
 20
100.9443017665897
 30
0.0
 10
303.8244701996868
 20
100.5669936777132
 30
0.0
 10
303.1662497905968
 20
100.186969947339
 30
0.0
 10
301.836687207231
 20
99.41934663192832
 30
0.0
 10
301.1652632251605
 20
99.03169981513953
 30
0.0
 10
300.1462621381538
 20
98.44337926325169
 30
0.0
 10
299.8049213558376
 20
98.24630607069604
 30
0.0
 10
299.1293228528671
 20
97.85624909314193
 30
0.0
 10
298.7936637029025
 20
97.6624561925539
 30
0.0
 10
297.7923980664028
 20
97.08437520779047
 30
0.0
 10
297.1324904077997
 20
96.70337734345564
 30
0.0
 10
296.4779869797276
 20
96.32549961307271
 30
0.0
  0
SPLINE
  5
176
330
1F
100
AcDbEntity
  8
0
  6
Continuous
 62
     7
370
    25
100
AcDbSpline
210
0.0
220
0.0
230
1.0
 70
     8
 71
     3
 72
    10
 73
     6
 74
     0
 42
0.00000001
 43
0.00000001
 40
0.0
 40
0.0
 40
0.0
 40
0.0
 40
0.5
 40
0.5
 40
1.0
 40
1.0
 40
1.0
 40
1.0
 10
304.9779869797276
 20
100.9443017665897
 30
0.0
 10
304.9036066023503
 20
100.987245297491
 30
0.0
 10
304.8165135142347
 20
101.0112100618469
 30
0.0
 10
304.6403551253587
 20
101.0113676673217
 30
0.0
 10
304.5523940526309
 20
100.98726071016
 30
0.0
 10
304.4779869797276
 20
100.9443017665897
 30
0.0
  0
SPLINE
  5
177
330
1F
100
AcDbEntity
  8
0
  6
Continuous
 62
     7
370
    25
100
AcDbSpline
210
0.0
220
0.0
230
1.0
 70
    24
 71
     3
 72
    16
 73
    12
 74
     0
 42
0.00000001
 43
0.00000001
 40
0.0
 40
0.0
 40
0.0
 40
0.0
 40
0.2499999999999997
 40
0.2499999999999997
 40
0.4999999999999993
 40
0.4999999999999993
 40
0.6249999999999993
 40
0.6249999999999993
 40
0.7499999999999996
 40
0.7499999999999996
 40
1.0
 40
1.0
 40
1.0
 40
1.0
 10
312.9779869797276
 20
96.32549961307271
 30
0.0
 10
312.3244701996868
 20
96.70280770194921
 30
0.0
 10
311.6662497905968
 20
97.0828314323234
 30
0.0
 10
310.336687207231
 20
97.8504547477341
 30
0.0
 10
309.6652632251605
 20
98.2381015645229
 30
0.0
 10
308.6462621381538
 20
98.82642211641075
 30
0.0
 10
308.3049213558376
 20
99.0234953089664
 30
0.0
 10
307.6293228528671
 20
99.4135522865205
 30
0.0
 10
307.2936637029025
 20
99.60734518710854
 30
0.0
 10
306.2923980664028
 20
100.185426171872
 30
0.0
 10
305.6324904077997
 20
100.5664240362068
 30
0.0
 10
304.9779869797276
 20
100.9443017665897
 30
0.0
  0
SPLINE
  5
178
330
1F
100
AcDbEntity
  8
0
  6
Continuous
 62
     7
370
    25
100
AcDbSpline
210
0.0
220
0.0
230
1.0
 70
     8
 71
     3
 72
    10
 73
     6
 74
     0
 42
0.00000001
 43
0.00000001
 40
0.0
 40
0.0
 40
0.0
 40
0.0
 40
0.5
 40
0.5
 40
1.0
 40
1.0
 40
1.0
 40
1.0
 10
313.2279869797276
 20
95.8924869111805
 30
0.0
 10
313.2279869797276
 20
95.97837397298295
 30
0.0
 10
313.2051945303978
 20
96.06578118196306
 30
0.0
 10
313.1172518263047
 20
96.2184176245568
 30
0.0
 10
313.0523940526309
 20
96.2825406695024
 30
0.0
 10
312.9779869797276
 20
96.32549961307271
 30
0.0
  0
SPLINE
  5
179
330
1F
100
AcDbEntity
  8
0
  6
Continuous
 62
     7
370
    25
100
AcDbSpline
210
0.0
220
0.0
230
1.0
 70
    24
 71
     3
 72
    14
 73
    10
 74
     0
 42
0.00000001
 43
0.00000001
 40
0.0
 40
0.0
 40
0.0
 40
0.0
 40
0.25
 40
0.25
 40
0.5
 40
0.5
 40
0.75
 40
0.75
 40
1.0
 40
1.0
 40
1.0
 40
1.0
 10
313.2279869797276
 20
86.65488260414642
 30
0.0
 10
313.2279869797276
 20
87.4092626647964
 30
0.0
 10
313.2279869797276
 20
88.1787038322619
 30
0.0
 10
313.2279869797276
 20
89.71921519320307
 30
0.0
 10
313.2279869797276
 20
90.49406957321008
 30
0.0
 10
313.2279869797276
 20
92.05443052809564
 30
0.0
 10
313.2279869797276
 20
92.84488672088068
 30
0.0
 10
313.2279869797276
 20
94.38716638368915
 30
0.0
 10
313.2279869797276
 20
95.14455713689033
 30
0.0
 10
313.2279869797276
 20
95.8924869111805
 30
0.0
  0
SPLINE
  5
17A
330
1F
100
AcDbEntity
  8
0
  6
Continuous
 62
     7
370
    25
100
AcDbSpline
210
0.0
220
0.0
230
1.0
 70
     8
 71
     3
 72
    10
 73
     6
 74
     0
 42
0.00000001
 43
0.00000001
 40
0.0
 40
0.0
 40
0.0
 40
0.0
 40
0.5
 40
0.5
 40
1.0
 40
1.0
 40
1.0
 40
1.0
 10
312.9779869797276
 20
86.22186990225426
 30
0.0
 10
313.0523673571047
 20
86.26481343315538
 30
0.0
 10
313.1166679958903
 20
86.32825587777907
 30
0.0
 10
313.2048836806735
 20
86.48073471489819
 30
0.0
 10
313.2279869797276
 20
86.56896471700566
 30
0.0
 10
313.2279869797276
 20
86.65488260414645
 30
0.0
  0
SPLINE
  5
17B
330
1F
100
AcDbEntity
  8
0
  6
Continuous
 62
     7
370
    25
100
AcDbSpline
210
0.0
220
0.0
230
1.0
 70
    24
 71
     3
 72
    16
 73
    12
 74
     0
 42
0.00000001
 43
0.00000001
 40
0.0
 40
0.0
 40
0.0
 40
0.0
 40
0.2500000000000002
 40
0.2500000000000002
 40
0.5000000000000004
 40
0.5000000000000004
 40
0.6250000000000003
 40
0.6250000000000003
 40
0.7500000000000002
 40
0.7500000000000002
 40
1.0
 40
1.0
 40
1.0
 40
1.0
 10
304.9779869797276
 20
81.60306774873726
 30
0.0
 10
305.6315037597683
 20
81.98037583761372
 30
0.0
 10
306.2897241688582
 20
82.3603995679879
 30
0.0
 10
307.619286752224
 20
83.12802288339853
 30
0.0
 10
308.2907107342944
 20
83.5156697001873
 30
0.0
 10
309.3097118213011
 20
84.10399025207509
 30
0.0
 10
309.6510526036172
 20
84.30106344463073
 30
0.0
 10
310.3266511065876
 20
84.6911204221848
 30
0.0
 10
310.6623102565522
 20
84.88491332277282
 30
0.0
 10
311.6635758930519
 20
85.4629943075362
 30
0.0
 10
312.3234835516549
 20
85.843992171871
 30
0.0
 10
312.977986979727
 20
86.2218699022539
 30
0.0
  0
SPLINE
  5
17C
330
1F
100
AcDbEntity
  8
0
  6
Continuous
 62
     7
370
    25
100
AcDbSpline
210
0.0
220
0.0
230
1.0
 70
     8
 71
     3
 72
    10
 73
     6
 74
     0
 42
0.00000001
 43
0.00000001
 40
0.0
 40
0.0
 40
0.0
 40
0.0
 40
0.5
 40
0.5
 40
1.0
 40
1.0
 40
1.0
 40
1.0
 10
304.4779869797276
 20
81.60306774873726
 30
0.0
 10
304.5523673571049
 20
81.56012421783602
 30
0.0
 10
304.6394604452205
 20
81.53615945348002
 30
0.0
 10
304.8156188340965
 20
81.53600184800524
 30
0.0
 10
304.9035799068243
 20
81.56010880516693
 30
0.0
 10
304.9779869797276
 20
81.60306774873725
 30
0.0
  0
SPLINE
  5
17D
330
1F
100
AcDbEntity
  8
0
  6
Continuous
 62
     7
370
    25
100
AcDbSpline
210
0.0
220
0.0
230
1.0
 70
    24
 71
     3
 72
    16
 73
    12
 74
     0
 42
0.00000001
 43
0.00000001
 40
0.0
 40
0.0
 40
0.0
 40
0.0
 40
0.2500000000000001
 40
0.2500000000000001
 40
0.5000000000000002
 40
0.5000000000000002
 40
0.6250000000000001
 40
0.6250000000000001
 40
0.7500000000000001
 40
0.7500000000000001
 40
1.0
 40
1.0
 40
1.0
 40
1.0
 10
296.4779869797276
 20
86.22186990225426
 30
0.0
 10
297.1315037597684
 20
85.84456181337775
 30
0.0
 10
297.7897241688584
 20
85.46453808300356
 30
0.0
 10
299.1192867522242
 20
84.69691476759286
 30
0.0
 10
299.7907107342947
 20
84.30926795080407
 30
0.0
 10
300.8097118213014
 20
83.72094739891622
 30
0.0
 10
301.1510526036176
 20
83.52387420636056
 30
0.0
 10
301.8266511065881
 20
83.13381722880648
 30
0.0
 10
302.1623102565526
 20
82.94002432821843
 30
0.0
 10
303.1635758930524
 20
82.36194334345501
 30
0.0
 10
303.8234835516555
 20
81.9809454791202
 30
0.0
 10
304.4779869797276
 20
81.60306774873726
 30
0.0
  0
LINE
  5
17E
330
1F
100
AcDbEntity
  8
0
  6
Continuous
 62
     7
370
    25
100
AcDbLine
 10
304.9779869797
 20
81.6030677487
 30
0.0
 11
304.9779869797
 21
79.9514061629
 31
0.0
  0
SPLINE
  5
17F
330
1F
100
AcDbEntity
  8
0
  6
Continuous
 62
     7
370
    25
100
AcDbSpline
210
0.0
220
0.0
230
1.0
 70
     8
 71
     3
 72
    10
 73
     6
 74
     0
 42
0.00000001
 43
0.00000001
 40
0.0
 40
0.0
 40
0.0
 40
0.0
 40
0.5
 40
0.5
 40
1.0
 40
1.0
 40
1.0
 40
1.0
 10
304.4779869797276
 20
79.95140616292367
 30
0.0
 10
304.5523617337176
 20
79.97507976741478
 30
0.0
 10
304.6394554652836
 20
79.98817254320802
 30
0.0
 10
304.815621293828
 20
79.98825911130896
 30
0.0
 10
304.9035823177183
 20
79.9750892871857
 30
0.0
 10
304.9779869797276
 20
79.95140616292367
 30
0.0
  0
LINE
  5
180
330
1F
100
AcDbEntity
  8
0
  6
Continuous
 62
     7
370
    25
100
AcDbLine
 10
304.4779869797
 20
79.9514061629
 30
0.0
 11
304.4779869797
 21
81.6030677487
 31
0.0
  0
SPLINE
  5
181
330
1F
100
AcDbEntity
  8
0
  6
Continuous
 62
     7
370
    25
100
AcDbSpline
210
0.0
220
0.0
230
1.0
 70
     8
 71
     3
 72
    12
 73
     8
 74
     0
 42
0.00000001
 43
0.00000001
 40
0.0
 40
0.0
 40
0.0
 40
0.0
 40
0.2500000000000003
 40
0.2500000000000003
 40
0.5000000000000002
 40
0.5000000000000002
 40
1.0
 40
1.0
 40
1.0
 40
1.0
 10
308.9779869797276
 20
79.27368475766349
 30
0.0
 10
308.6402310447048
 20
79.27368475766349
 30
0.0
 10
308.2998230298263
 20
79.28943108768543
 30
0.0
 10
307.6253283454259
 20
79.35087611227087
 30
0.0
 10
307.2902030265586
 20
79.3964648715246
 30
0.0
 10
306.2904917082185
 20
79.5729158737812
 30
0.0
 10
305.6315576051532
 20
79.74337357574468
 30
0.0
 10
304.9779869797276
 20
79.95140616292352
 30
0.0
  0
LINE
  5
182
330
1F
100
AcDbEntity
  8
0
  6
Continuous
 62
     7
370
    25
100
AcDbLine
 10
300.4779869797
 20
79.2736847577
 30
0.0
 11
308.9779869797
 21
79.2736847577
 31
0.0
  0
SPLINE
  5
183
330
1F
100
AcDbEntity
  8
0
  6
Continuous
 62
     7
370
    25
100
AcDbSpline
210
0.0
220
0.0
230
1.0
 70
     8
 71
     3
 72
    10
 73
     6
 74
     0
 42
0.00000001
 43
0.00000001
 40
0.0
 40
0.0
 40
0.0
 40
0.0
 40
0.5
 40
0.5
 40
1.0
 40
1.0
 40
1.0
 40
1.0
 10
304.4779869797276
 20
79.9514061629232
 30
0.0
 10
303.8219742131225
 20
79.74259623825695
 30
0.0
 10
303.1617073062648
 20
79.5720620985097
 30
0.0
 10
301.8293607876298
 20
79.33727629349077
 30
0.0
 10
301.1572078061425
 20
79.27368475766349
 30
0.0
 10
300.4779869797276
 20
79.27368475766349
 30
0.0
  0
SPLINE
  5
184
330
1F
100
AcDbEntity
  8
0
  6
Continuous
 62
     7
370
    25
100
AcDbSpline
210
0.0
220
0.0
230
1.0
 70
     8
 71
     3
 72
    12
 73
     8
 74
     0
 42
0.00000001
 43
0.00000001
 40
0.0
 40
0.0
 40
0.0
 40
0.0
 40
0.2499999999999999
 40
0.2499999999999999
 40
0.4999999999999998
 40
0.4999999999999998
 40
1.0
 40
1.0
 40
1.0
 40
1.0
 10
309.1024170724799
 20
83.98430857302861
 30
0.0
 10
309.4315520628731
 20
83.98060008717219
 30
0.0
 10
309.7610142158099
 20
83.96201758433452
 30
0.0
 10
310.4138878338675
 20
83.89715054736837
 30
0.0
 10
310.7383404257446
 20
83.85088499411809
 30
0.0
 10
311.7064008669367
 20
83.67516046381112
 30
0.0
 10
312.3447233511847
 20
83.50885705503438
 30
0.0
 10
312.9779869797276
 20
83.30728821780848
 30
0.0
  0
LINE
  5
185
330
1F
100
AcDbEntity
  8
0
  6
Continuous
 62
     7
370
    25
100
AcDbLine
 10
312.9779869797
 20
79.9514061629
 30
0.0
 11
312.9779869797
 21
83.3072882178
 31
0.0
  0
SPLINE
  5
186
330
1F
100
AcDbEntity
  8
0
  6
Continuous
 62
     7
370
    25
100
AcDbSpline
210
0.0
220
0.0
230
1.0
 70
     8
 71
     3
 72
    10
 73
     6
 74
     0
 42
0.00000001
 43
0.00000001
 40
0.0
 40
0.0
 40
0.0
 40
0.0
 40
0.5
 40
0.5
 40
1.0
 40
1.0
 40
1.0
 40
1.0
 10
312.9779869797276
 20
79.9514061629232
 30
0.0
 10
312.3219742131225
 20
79.74259623825695
 30
0.0
 10
311.6617073062648
 20
79.5720620985097
 30
0.0
 10
310.3293607876298
 20
79.33727629349077
 30
0.0
 10
309.6572078061425
 20
79.27368475766349
 30
0.0
 10
308.9779869797276
 20
79.27368475766349
 30
0.0
  0
SPLINE
  5
187
330
1F
100
AcDbEntity
  8
0
  6
Continuous
 62
     7
370
    25
100
AcDbSpline
210
0.0
220
0.0
230
1.0
 70
     8
 71
     3
 72
    12
 73
     8
 74
     0
 42
0.00000001
 43
0.00000001
 40
0.0
 40
0.0
 40
0.0
 40
0.0
 40
0.2499999999999998
 40
0.2499999999999998
 40
0.4999999999999996
 40
0.4999999999999996
 40
1.0
 40
1.0
 40
1.0
 40
1.0
 10
300.4779869797276
 20
79.27368475766349
 30
0.0
 10
300.1402310447048
 20
79.27368475766347
 30
0.0
 10
299.7998230298263
 20
79.28943108768543
 30
0.0
 10
299.1253283454259
 20
79.35087611227087
 30
0.0
 10
298.7902030265587
 20
79.39646487152459
 30
0.0
 10
297.7904917082186
 20
79.5729158737812
 30
0.0
 10
297.1315576051533
 20
79.74337357574468
 30
0.0
 10
296.4779869797276
 20
79.95140616292352
 30
0.0
  0
LINE
  5
188
330
1F
100
AcDbEntity
  8
0
  6
Continuous
 62
     7
370
    25
100
AcDbLine
 10
296.4779869797
 20
83.3072882178
 30
0.0
 11
296.4779869797
 21
79.9514061629
 31
0.0
  0
SPLINE
  5
189
330
1F
100
AcDbEntity
  8
0
  6
Continuous
 62
     7
370
    25
100
AcDbSpline
210
0.0
220
0.0
230
1.0
 70
     8
 71
     3
 72
    10
 73
     6
 74
     0
 42
0.00000001
 43
0.00000001
 40
0.0
 40
0.0
 40
0.0
 40
0.0
 40
0.5
 40
0.5
 40
1.0
 40
1.0
 40
1.0
 40
1.0
 10
296.477986979728
 20
83.30728821780862
 30
0.0
 10
297.1128146855417
 20
83.50935490335957
 30
0.0
 10
297.7520803881175
 20
83.6757476756302
 30
0.0
 10
299.0428953197073
 20
83.90979464950026
 30
0.0
 10
299.6945149551772
 20
83.97688290345909
 30
0.0
 10
300.3535568869974
 20
83.98430857302887
 30
0.0
  0
SPLINE
  5
18A
330
1F
100
AcDbEntity
  8
0
  6
Continuous
 62
     7
370
    25
100
AcDbSpline
210
0.0
220
0.0
230
1.0
 70
     8
 71
     3
 72
    10
 73
     6
 74
     0
 42
0.00000001
 43
0.00000001
 40
0.0
 40
0.0
 40
0.0
 40
0.0
 40
0.5
 40
0.5
 40
1.0
 40
1.0
 40
1.0
 40
1.0
 10
296.2279869797276
 20
79.95140616292367
 30
0.0
 10
296.2279869797276
 20
79.97508006347962
 30
0.0
 10
296.250777551375
 20
79.98817262065876
 30
0.0
 10
296.3387235486738
 20
79.98825903464105
 30
0.0
 10
296.4035843414066
 20
79.97508864304243
 30
0.0
 10
296.4779869797276
 20
79.95140616292367
 30
0.0
  0
LINE
  5
18B
330
1F
100
AcDbEntity
  8
0
  6
Continuous
 62
     7
370
    25
100
AcDbLine
 10
296.2279869797
 20
79.2736847577
 30
0.0
 11
300.4779869797
 21
79.2736847577
 31
0.0
  0
SPLINE
  5
18C
330
1F
100
AcDbEntity
  8
0
  6
Continuous
 62
     7
370
    25
100
AcDbSpline
210
0.0
220
0.0
230
1.0
 70
    24
 71
     3
 72
    10
 73
     6
 74
     0
 42
0.00000001
 43
0.00000001
 40
0.0
 40
0.0
 40
0.0
 40
0.0
 40
0.5
 40
0.5
 40
1.0
 40
1.0
 40
1.0
 40
1.0
 10
296.2279869797276
 20
79.27368475766349
 30
0.0
 10
296.2279869797276
 20
79.27368475766349
 30
0.0
 10
296.2279869797276
 20
79.335969119642
 30
0.0
 10
296.2279869797276
 20
79.57081723764902
 30
0.0
 10
296.2279869797276
 20
79.74405984478022
 30
0.0
 10
296.2279869797276
 20
79.95140616292367
 30
0.0
  0
SPLINE
  5
18D
330
1F
100
AcDbEntity
  8
0
  6
Continuous
 62
     7
370
    25
100
AcDbSpline
210
0.0
220
0.0
230
1.0
 70
     8
 71
     3
 72
    10
 73
     6
 74
     0
 42
0.00000001
 43
0.00000001
 40
0.0
 40
0.0
 40
0.0
 40
0.0
 40
0.5
 40
0.5
 40
1.0
 40
1.0
 40
1.0
 40
1.0
 10
312.9779869797276
 20
79.95140616292367
 30
0.0
 10
313.0523574466532
 20
79.97507840283522
 30
0.0
 10
313.116663042941
 20
79.9881723927705
 30
0.0
 10
313.2048858307468
 20
79.98825926023194
 30
0.0
 10
313.2279869797276
 20
79.97508947047258
 30
0.0
 10
313.2279869797276
 20
79.95140616292367
 30
0.0
  0
LINE
  5
18E
330
1F
100
AcDbEntity
  8
0
  6
Continuous
 62
     7
370
    25
100
AcDbLine
 10
308.9779869797
 20
79.2736847577
 30
0.0
 11
313.2279869797
 21
79.2736847577
 31
0.0
  0
SPLINE
  5
18F
330
1F
100
AcDbEntity
  8
0
  6
Continuous
 62
     7
370
    25
100
AcDbSpline
210
0.0
220
0.0
230
1.0
 70
    24
 71
     3
 72
    10
 73
     6
 74
     0
 42
0.00000001
 43
0.00000001
 40
0.0
 40
0.0
 40
0.0
 40
0.0
 40
0.4999999999999999
 40
0.4999999999999999
 40
1.0
 40
1.0
 40
1.0
 40
1.0
 10
313.2279869797276
 20
79.27368475766349
 30
0.0
 10
313.2279869797276
 20
79.27368475766349
 30
0.0
 10
313.2279869797276
 20
79.335969119642
 30
0.0
 10
313.2279869797276
 20
79.57081723764902
 30
0.0
 10
313.2279869797276
 20
79.74405984478022
 30
0.0
 10
313.2279869797276
 20
79.95140616292367
 30
0.0
  0
SPLINE
  5
190
330
1F
100
AcDbEntity
  8
0
  6
Continuous
 62
     7
370
    25
100
AcDbSpline
210
0.0
220
0.0
230
1.0
 70
     8
 71
     3
 72
     8
 73
     4
 74
     0
 42
0.00000001
 43
0.00000001
 40
0.0
 40
0.0
 40
0.0
 40
0.0
 40
1.0
 40
1.0
 40
1.0
 40
1.0
 10
296.2279869797276
 20
83.46877354608951
 30
0.0
 10
296.7497931310294
 20
83.74136368175884
 30
0.0
 10
297.2734465998856
 20
84.01051618288025
 30
0.0
 10
297.7997837494521
 20
84.27368475766347
 30
0.0
  0
SPLINE
  5
191
330
1F
100
AcDbEntity
  8
0
  6
Continuous
 62
     7
370
    25
100
AcDbSpline
210
0.0
220
0.0
230
1.0
 70
     8
 71
     3
 72
    10
 73
     6
 74
     0
 42
0.00000001
 43
0.00000001
 40
0.0
 40
0.0
 40
0.0
 40
0.0
 40
0.5
 40
0.5
 40
1.0
 40
1.0
 40
1.0
 40
1.0
 10
296.2279869797276
 20
83.30728821780846
 30
0.0
 10
296.2279869797276
 20
83.28361282338405
 30
0.0
 10
296.2507794290574
 20
83.27052171349942
 30
0.0
 10
296.3387221331507
 20
83.2704353922112
 30
0.0
 10
296.4035799068249
 20
83.28360432615514
 30
0.0
 10
296.4779869797283
 20
83.30728821780869
 30
0.0
  0
SPLINE
  5
192
330
1F
100
AcDbEntity
  8
0
  6
Continuous
 62
     7
370
    25
100
AcDbSpline
210
0.0
220
0.0
230
1.0
 70
    24
 71
     3
 72
     8
 73
     4
 74
     0
 42
0.00000001
 43
0.00000001
 40
0.0
 40
0.0
 40
0.0
 40
0.0
 40
1.0
 40
1.0
 40
1.0
 40
1.0
 10
296.2279869797276
 20
83.46877354608951
 30
0.0
 10
296.2279869797276
 20
83.41787875638867
 30
0.0
 10
296.2279869797276
 20
83.36394490702725
 30
0.0
 10
296.2279869797276
 20
83.30728821780848
 30
0.0
  0
SPLINE
  5
193
330
1F
100
AcDbEntity
  8
0
  6
Continuous
 62
     7
370
    25
100
AcDbSpline
210
0.0
220
0.0
230
1.0
 70
     8
 71
     3
 72
     8
 73
     4
 74
     0
 42
0.00000001
 43
0.00000001
 40
0.0
 40
0.0
 40
0.0
 40
0.0
 40
1.0
 40
1.0
 40
1.0
 40
1.0
 10
311.656190210003
 20
84.27368475766347
 30
0.0
 10
312.1826110712123
 20
84.01047432705887
 30
0.0
 10
312.706155527926
 20
83.74137689867217
 30
0.0
 10
313.2279869797276
 20
83.46877354608952
 30
0.0
  0
SPLINE
  5
194
330
1F
100
AcDbEntity
  8
0
  6
Continuous
 62
     7
370
    25
100
AcDbSpline
210
0.0
220
0.0
230
1.0
 70
     8
 71
     3
 72
    10
 73
     6
 74
     0
 42
0.00000001
 43
0.00000001
 40
0.0
 40
0.0
 40
0.0
 40
0.0
 40
0.5
 40
0.5
 40
1.0
 40
1.0
 40
1.0
 40
1.0
 10
312.9779869797276
 20
83.30728821780848
 30
0.0
 10
313.0523673571049
 20
83.28361282338409
 30
0.0
 10
313.1166679958907
 20
83.27052171349945
 30
0.0
 10
313.2048836806736
 20
83.27043539221117
 30
0.0
 10
313.2279869797276
 20
83.283604326155
 30
0.0
 10
313.2279869797276
 20
83.30728821780848
 30
0.0
  0
SPLINE
  5
195
330
1F
100
AcDbEntity
  8
0
  6
Continuous
 62
     7
370
    25
100
AcDbSpline
210
0.0
220
0.0
230
1.0
 70
    24
 71
     3
 72
     8
 73
     4
 74
     0
 42
0.00000001
 43
0.00000001
 40
0.0
 40
0.0
 40
0.0
 40
0.0
 40
1.0
 40
1.0
 40
1.0
 40
1.0
 10
313.2279869797276
 20
83.46877354608951
 30
0.0
 10
313.2279869797276
 20
83.41787875638867
 30
0.0
 10
313.2279869797276
 20
83.36394490702725
 30
0.0
 10
313.2279869797276
 20
83.30728821780848
 30
0.0
  0
LINE
  5
196
330
1F
100
AcDbEntity
  8
0
  6
Continuous
 62
     7
370
    25
100
AcDbLine
 10
312.2279869797
 20
85.7888572004
 30
0.0
 11
312.2279869797
 21
84.2736847577
 31
0.0
  0
LINE
  5
197
330
1F
100
AcDbEntity
  8
0
  6
Continuous
 62
     7
370
    25
100
AcDbLine
 10
309.6036313267
 20
84.2736847577
 30
0.0
 11
312.2279869797
 21
84.2736847577
 31
0.0
  0
LINE
  5
198
330
1F
100
AcDbEntity
  8
0
  6
Continuous
 62
     7
370
    25
100
AcDbLine
 10
297.2279869797
 20
84.2736847577
 30
0.0
 11
297.2279869797
 21
85.7888572004
 31
0.0
  0
LINE
  5
199
330
1F
100
AcDbEntity
  8
0
  6
Continuous
 62
     7
370
    25
100
AcDbLine
 10
297.2279869797
 20
84.2736847577
 30
0.0
 11
299.8523426327
 21
84.2736847577
 31
0.0
  0
LINE
  5
19A
330
1F
100
AcDbEntity
  8
0
  6
Continuous
 62
     7
370
    25
100
AcDbLine
 10
304.7279869797
 20
69.8773506315
 30
0.0
 11
311.1925390383
 21
69.8773506315
 31
0.0
  0
LINE
  5
19B
330
1F
100
AcDbEntity
  8
0
  6
Continuous
 62
     7
370
    25
100
AcDbLine
 10
298.2634349212
 20
69.8773506315
 30
0.0
 11
304.7279869797
 21
69.8773506315
 31
0.0
  0
LINE
  5
19C
330
1F
100
AcDbEntity
  8
0
  6
Continuous
 62
     7
370
    25
100
AcDbLine
 10
309.9779869797
 20
67.7736847577
 30
0.0
 11
299.4779869797
 21
67.7736847577
 31
0.0
  0
LINE
  5
19D
330
1F
100
AcDbEntity
  8
0
  6
Continuous
 62
     7
370
    25
100
AcDbLine
 10
296.2279869797
 20
79.9514061629
 30
0.0
 11
296.2279869797
 21
83.3072882178
 31
0.0
  0
LINE
  5
19E
330
1F
100
AcDbEntity
  8
0
  6
Continuous
 62
     7
370
    25
100
AcDbLine
 10
313.2279869797
 20
83.3072882178
 30
0.0
 11
313.2279869797
 21
79.9514061629
 31
0.0
  0
LINE
  5
19F
330
1F
100
AcDbEntity
  8
0
  6
Continuous
 62
     7
370
    25
100
AcDbLine
 10
296.2279869797
 20
83.4687735461
 30
0.0
 11
296.2279869797
 21
86.6259541122
 31
0.0
  0
LINE
  5
1A0
330
1F
100
AcDbEntity
  8
0
  6
Continuous
 62
     7
370
    25
100
AcDbLine
 10
313.2279869797
 20
83.4687735461
 30
0.0
 11
313.2279869797
 21
86.6259541122
 31
0.0
  0
LINE
  5
1A1
330
1F
100
AcDbEntity
  8
0
  6
Continuous
 62
     7
370
    25
100
AcDbLine
 10
299.4779869797
 20
118.6236847577
 30
0.0
 11
301.2279869797
 21
118.6236847577
 31
0.0
  0
LINE
  5
1A2
330
1F
100
AcDbEntity
  8
0
  6
Continuous
 62
     7
370
    25
100
AcDbLine
 10
308.2279869797
 20
118.6236847577
 30
0.0
 11
309.9779869797
 21
118.6236847577
 31
0.0
  0
LINE
  5
1A3
330
1F
100
AcDbEntity
  8
0
  6
Continuous
 62
     7
370
    25
100
AcDbLine
 10
299.2279869797
 20
117.7736847577
 30
0.0
 11
301.2279869797
 21
117.7736847577
 31
0.0
  0
LINE
  5
1A4
330
1F
100
AcDbEntity
  8
0
  6
Continuous
 62
     7
370
    25
100
AcDbLine
 10
308.2279869797
 20
117.7736847577
 30
0.0
 11
310.2279869797
 21
117.7736847577
 31
0.0
  0
LINE
  5
1A5
330
1F
100
AcDbEntity
  8
0
  6
Continuous
 62
     7
370
    25
100
AcDbLine
 10
308.2279869797
 20
107.7736847577
 30
0.0
 11
301.2279869797
 21
107.7736847577
 31
0.0
  0
LINE
  5
1A6
330
1F
100
AcDbEntity
  8
0
  6
Continuous
 62
     7
370
    25
100
AcDbLine
 10
301.2279869797
 20
107.7736847577
 30
0.0
 11
301.2279869797
 21
112.7736847577
 31
0.0
  0
LINE
  5
1A7
330
1F
100
AcDbEntity
  8
0
  6
Continuous
 62
     7
370
    25
100
AcDbLine
 10
301.2279869797
 20
112.7736847577
 30
0.0
 11
308.2279869797
 21
112.7736847577
 31
0.0
  0
LINE
  5
1A8
330
1F
100
AcDbEntity
  8
0
  6
Continuous
 62
     7
370
    25
100
AcDbLine
 10
308.2279869797
 20
112.7736847577
 30
0.0
 11
308.2279869797
 21
107.7736847577
 31
0.0
  0
LINE
  5
1A9
330
1F
100
AcDbEntity
  8
0
  6
Continuous
 62
     7
370
    25
100
AcDbLine
 10
308.2279869797
 20
112.7736847577
 30
0.0
 11
308.2279869797
 21
119.7736847577
 31
0.0
  0
LINE
  5
1AA
330
1F
100
AcDbEntity
  8
0
  6
Continuous
 62
     7
370
    25
100
AcDbLine
 10
301.2279869797
 20
119.7736847577
 30
0.0
 11
301.2279869797
 21
112.7736847577
 31
0.0
  0
LINE
  5
1AB
330
1F
100
AcDbEntity
  8
0
  6
Continuous
 62
     7
370
    25
100
AcDbLine
 10
301.2279869797
 20
119.7736847577
 30
0.0
 11
308.2279869797
 21
119.7736847577
 31
0.0
  0
SPLINE
  5
1AC
330
1F
100
AcDbEntity
  8
0
  6
Continuous
 62
     7
370
    25
100
AcDbSpline
210
0.0
220
0.0
230
1.0
 70
     8
 71
     3
 72
    11
 73
     7
 74
     0
 42
0.00000001
 43
0.00000001
 40
0.0
 40
0.0
 40
0.0
 40
0.0
 40
0.2488466353289361
 40
0.4976946020535204
 40
0.7488461225871278
 40
1.0
 40
1.0
 40
1.0
 40
1.0
 10
308.2279869797276
 20
107.525860450639
 30
0.0
 10
308.232678515667
 20
107.4563360741454
 30
0.0
 10
308.2420616126468
 20
107.3172869491842
 30
0.0
 10
308.3184834961336
 20
107.0169582110589
 30
0.0
 10
308.4362096240973
 20
106.6550485928038
 30
0.0
 10
308.5545185474304
 20
106.3534566357392
 30
0.0
 10
308.6136732866569
 20
106.2026599496535
 30
0.0
  0
LINE
  5
1AD
330
1F
100
AcDbEntity
  8
0
  6
Continuous
 62
     7
370
    25
100
AcDbLine
 10
308.6136732867
 20
106.2026599497
 30
0.0
 11
300.8423006728
 21
106.2026599497
 31
0.0
  0
SPLINE
  5
1AE
330
1F
100
AcDbEntity
  8
0
  6
Continuous
 62
     7
370
    25
100
AcDbSpline
210
0.0
220
0.0
230
1.0
 70
     8
 71
     3
 72
    11
 73
     7
 74
     0
 42
0.00000001
 43
0.00000001
 40
0.0
 40
0.0
 40
0.0
 40
0.0
 40
0.2488607147078904
 40
0.4977191536447657
 40
0.7488602698858827
 40
0.9999999999999999
 40
0.9999999999999999
 40
0.9999999999999999
 40
0.9999999999999999
 10
300.8423006727982
 20
106.2026599496535
 30
0.0
 10
300.9009541644845
 20
106.3521388865416
 30
0.0
 10
301.0182606114851
 20
106.6510953933692
 30
0.0
 10
301.136296418018
 20
107.0128993668279
 30
0.0
 10
301.2136510992983
 20
107.3151740100674
 30
0.0
 10
301.2232083617094
 20
107.4556317663206
 30
0.0
 10
301.2279869797276
 20
107.525860450639
 30
0.0
  0
LINE
  5
1AF
330
1F
100
AcDbEntity
  8
0
  6
Continuous
 62
     7
370
    25
100
AcDbLine
 10
308.2279869797
 20
107.7736847577
 30
0.0
 11
308.2279869797
 21
107.5258604506
 31
0.0
  0
LINE
  5
1B0
330
1F
100
AcDbEntity
  8
0
  6
Continuous
 62
     7
370
    25
100
AcDbLine
 10
301.2279869797
 20
107.5258604506
 30
0.0
 11
301.2279869797
 21
107.7736847577
 31
0.0
  0
SPLINE
  5
1B1
330
1F
100
AcDbEntity
  8
0
  6
Continuous
 62
     7
370
    25
100
AcDbSpline
210
0.0
220
0.0
230
1.0
 70
     8
 71
     3
 72
    16
 73
    12
 74
     0
 42
0.00000001
 43
0.00000001
 40
0.0
 40
0.0
 40
0.0
 40
0.0
 40
0.0155634360124117
 40
0.0359329243097674
 40
0.0739120889290614
 40
0.1570057548437684
 40
0.2406581385754913
 40
0.4592958294318596
 40
0.6783839187935417
 40
0.8974954344294845
 40
1.0
 40
1.0
 40
1.0
 40
1.0
 10
298.0682647575053
 20
101.7736847576636
 30
0.0
 10
298.0819584245187
 20
101.7788781294427
 30
0.0
 10
298.1135744185653
 20
101.7908686073105
 30
0.0
 10
298.1690541088754
 20
101.9091945313075
 30
0.0
 10
298.2476549193659
 20
102.2204458387564
 30
0.0
 10
298.326995105995
 20
102.7460933401215
 30
0.0
 10
298.4322228140982
 20
103.7846395043916
 30
0.0
 10
298.5472162153175
 20
105.2197135467378
 30
0.0
 10
298.6496162157324
 20
107.0579656481772
 30
0.0
 10
298.7193650956127
 20
108.5791484969966
 30
0.0
 10
298.7588237150415
 20
109.4849805377931
 30
0.0
 10
298.7713998543545
 20
109.7736847576611
 30
0.0
  0
SPLINE
  5
1B2
330
1F
100
AcDbEntity
  8
0
  6
Continuous
 62
     7
370
    25
100
AcDbSpline
210
0.0
220
0.0
230
1.0
 70
     8
 71
     3
 72
     9
 73
     5
 74
     0
 42
0.00000001
 43
0.00000001
 40
0.0
 40
0.0
 40
0.0
 40
0.0
 40
0.4983247250277991
 40
1.0
 40
1.0
 40
1.0
 40
1.0
 10
298.7713998543545
 20
109.7736847576611
 30
0.0
 10
298.7383973151959
 20
109.9474768715202
 30
0.0
 10
298.6721703400911
 20
110.296229612716
 30
0.0
 10
298.5916394803052
 20
110.6106775701302
 30
0.0
 10
298.5512391390784
 20
110.7684283356304
 30
0.0
  0
ELLIPSE
  5
1B3
330
1F
100
AcDbEntity
  8
0
  6
Continuous
 62
     7
370
    25
100
AcDbEllipse
 10
236.2279869797
 20
108.12155919
 30
0.0
 11
65.0
 21
0.0
 31
0.0
210
0.0
220
0.0
230
1.0
 40
0.2713992096
 41
6.084179739699223
 42
6.174194364446292
  0
SPLINE
  5
1B4
330
1F
100
AcDbEntity
  8
0
  6
Continuous
 62
     7
370
    25
100
AcDbSpline
210
0.0
220
0.0
230
1.0
 70
     8
 71
     3
 72
    13
 73
     9
 74
     0
 42
0.00000001
 43
0.00000001
 40
0.0
 40
0.0
 40
0.0
 40
0.0
 40
0.1610294006389558
 40
0.3266880383557516
 40
0.4877296220820636
 40
0.6535536198224136
 40
0.8237602734841889
 40
1.0
 40
1.0
 40
1.0
 40
1.0
 10
299.945124649623
 20
104.6340385091706
 30
0.0
 10
299.9013208821906
 20
104.5646416145934
 30
0.0
 10
299.8124540864484
 20
104.4238528190849
 30
0.0
 10
299.6834340677764
 20
104.0777280013772
 30
0.0
 10
299.5624239720091
 20
103.6385213583252
 30
0.0
 10
299.4557429888844
 20
103.1049195213856
 30
0.0
 10
299.3650757015286
 20
102.4810932146859
 30
0.0
 10
299.3282568926319
 20
102.0122093164839
 30
0.0
 10
299.3095269038605
 20
101.7736847576635
 30
0.0
  0
LINE
  5
1B5
330
1F
100
AcDbEntity
  8
0
  6
Continuous
 62
     7
370
    25
100
AcDbLine
 10
299.3095269039
 20
101.7736847577
 30
0.0
 11
298.0682647575
 21
101.7736847577
 31
0.0
  0
LINE
  5
1B6
330
1F
100
AcDbEntity
  8
0
  6
Continuous
 62
     7
370
    25
100
AcDbLine
 10
298.5512391391
 20
110.7684283356
 30
0.0
 11
301.2279869797
 21
110.7684283357
 31
0.0
  0
SPLINE
  5
1B7
330
1F
100
AcDbEntity
  8
0
  6
Continuous
 62
     7
370
    25
100
AcDbSpline
210
0.0
220
0.0
230
1.0
 70
     8
 71
     3
 72
    17
 73
    13
 74
     0
 42
0.00000001
 43
0.00000001
 40
0.0
 40
0.0
 40
0.0
 40
0.0
 40
0.3241697628029873
 40
0.542275846362072
 40
0.689509052693928
 40
0.7894036290694506
 40
0.8577090008137827
 40
0.9049823971474139
 40
0.9551712229700868
 40
0.9753097783197817
 40
0.9919572060138849
 40
1.0
 40
1.0
 40
1.0
 40
1.0
 10
310.6845741051006
 20
109.7736847576611
 30
0.0
 10
310.7252245438274
 20
108.8610712550554
 30
0.0
 10
310.7932251829831
 20
107.3344382487941
 30
0.0
 10
310.9046580822994
 20
105.4076653465131
 30
0.0
 10
310.997162742358
 20
104.1200298755804
 30
0.0
 10
311.0750641986754
 20
103.2608779088586
 30
0.0
 10
311.1411166980977
 20
102.6874100204812
 30
0.0
 10
311.2044733054601
 20
102.2658778664512
 30
0.0
 10
311.262599773154
 20
101.9853853236558
 30
0.0
 10
311.3219416014768
 20
101.8298366550752
 30
0.0
 10
311.3589476700996
 20
101.7792260558776
 30
0.0
 10
311.3806422369701
 20
101.775046304073
 30
0.0
 10
311.3877092019498
 20
101.7736847576635
 30
0.0
  0
LINE
  5
1B8
330
1F
100
AcDbEntity
  8
0
  6
Continuous
 62
     7
370
    25
100
AcDbLine
 10
311.3877092019
 20
101.7736847577
 30
0.0
 11
310.1464470556
 21
101.7736847577
 31
0.0
  0
SPLINE
  5
1B9
330
1F
100
AcDbEntity
  8
0
  6
Continuous
 62
     7
370
    25
100
AcDbSpline
210
0.0
220
0.0
230
1.0
 70
     8
 71
     3
 72
    14
 73
    10
 74
     0
 42
0.00000001
 43
0.00000001
 40
0.0
 40
0.0
 40
0.0
 40
0.0
 40
0.1576095309202821
 40
0.3152382602707094
 40
0.4726926441579496
 40
0.6301650083177254
 40
0.7907313191165902
 40
0.9513050385928076
 40
1.0
 40
1.0
 40
1.0
 40
1.0
 10
310.1464470555946
 20
101.7736847576635
 30
0.0
 10
310.1299417187522
 20
101.9871865461409
 30
0.0
 10
310.0969290345509
 20
102.4142161297664
 30
0.0
 10
310.0171253446389
 20
102.9994632086227
 30
0.0
 10
309.9193379371527
 20
103.5216177494451
 30
0.0
 10
309.8057480974708
 20
103.970595876865
 30
0.0
 10
309.6812059984389
 20
104.3298776086714
 30
0.0
 10
309.5808486576626
 20
104.5344437877726
 30
0.0
 10
309.5240628600474
 20
104.6152383361239
 30
0.0
 10
309.5108493098321
 20
104.6340385091706
 30
0.0
  0
ELLIPSE
  5
1BA
330
1F
100
AcDbEntity
  8
0
  6
Continuous
 62
     7
370
    25
100
AcDbEllipse
 10
373.2279869797
 20
108.12155919
 30
0.0
 11
65.00000000000006
 21
0.0
 31
0.0
210
0.0
220
0.0
230
1.0
 40
0.2713992096
 41
3.25058359632319
 42
3.340598221070255
  0
SPLINE
  5
1BB
330
1F
100
AcDbEntity
  8
0
  6
Continuous
 62
     7
370
    25
100
AcDbSpline
210
0.0
220
0.0
230
1.0
 70
     8
 71
     3
 72
     9
 73
     5
 74
     0
 42
0.00000001
 43
0.00000001
 40
0.0
 40
0.0
 40
0.0
 40
0.0
 40
0.4978401817595073
 40
1.0
 40
1.0
 40
1.0
 40
1.0
 10
310.9047348203767
 20
110.7684283356304
 30
0.0
 10
310.8646316559153
 20
110.6119171529378
 30
0.0
 10
310.7840773617247
 20
110.2975367786188
 30
0.0
 10
310.7178372350645
 20
109.9488042305925
 30
0.0
 10
310.6845741051006
 20
109.7736847576611
 30
0.0
  0
LINE
  5
1BC
330
1F
100
AcDbEntity
  8
0
  6
Continuous
 62
     7
370
    25
100
AcDbLine
 10
308.2279869797
 20
110.7684283357
 30
0.0
 11
310.9047348204
 21
110.7684283356
 31
0.0
  0
LINE
  5
1BD
330
1F
100
AcDbEntity
  8
0
  6
Continuous
 62
     7
370
    25
100
AcDbLine
 10
299.9451246496
 20
104.6340385092
 30
0.0
 11
309.5108493098
 21
104.6340385092
 31
0.0
  0
SPLINE
  5
1BE
330
1F
100
AcDbEntity
  8
0
  6
Continuous
 62
     7
370
    25
100
AcDbSpline
210
0.0
220
0.0
230
1.0
 70
     8
 71
     3
 72
    20
 73
    16
 74
     0
 42
0.00000001
 43
0.00000001
 40
0.0
 40
0.0
 40
0.0
 40
0.0
 40
0.0541983873786813
 40
0.1084549937743861
 40
0.1748676008326813
 40
0.2413639405081385
 40
0.3280943358185923
 40
0.4149092203660895
 40
0.5031829151074113
 40
0.5914553293759743
 40
0.690663243287035
 40
0.7897037236706678
 40
0.8506104062320281
 40
0.9114495521941833
 40
1.0
 40
1.0
 40
1.0
 40
1.0
 10
307.3260631910809
 20
101.7736847576635
 30
0.0
 10
307.2723458485549
 20
101.8684110614752
 30
0.0
 10
307.1648534612165
 20
102.0579654225374
 30
0.0
 10
306.9284383524121
 20
102.3156888499562
 30
0.0
 10
306.6333713538377
 20
102.5447874063076
 30
0.0
 10
306.2444535123778
 20
102.753168424142
 30
0.0
 10
305.782461596885
 20
102.912189265972
 30
0.0
 10
305.2532537266215
 20
103.0109708409689
 30
0.0
 10
304.7090338819193
 20
103.0421816771462
 30
0.0
 10
304.1396197288038
 20
103.0046778539761
 30
0.0
 10
303.5629360016244
 20
102.8857348269621
 30
0.0
 10
303.0726081034794
 20
102.6919698932226
 30
0.0
 10
302.6997382395302
 20
102.4564562021692
 30
0.0
 10
302.3795957947267
 20
102.1826798474809
 30
0.0
 10
302.2228321646541
 20
101.9258941046661
 30
0.0
 10
302.1299107683743
 20
101.7736847576635
 30
0.0
  0
LINE
  5
1BF
330
1F
100
AcDbEntity
  8
0
  6
Continuous
 62
     7
370
    25
100
AcDbLine
 10
302.1299107684
 20
101.7736847577
 30
0.0
 11
299.3095269039
 21
101.7736847577
 31
0.0
  0
LINE
  5
1C0
330
1F
100
AcDbEntity
  8
0
  6
Continuous
 62
     7
370
    25
100
AcDbLine
 10
310.1464470556
 20
101.7736847577
 30
0.0
 11
307.3260631911
 21
101.7736847577
 31
0.0
  0
LINE
  5
1C1
330
1F
100
AcDbEntity
  8
0
  6
Continuous
 62
     7
370
    25
100
AcDbLine
 10
307.3260631911
 20
101.7736847577
 30
0.0
 11
302.1299107684
 21
101.7736847577
 31
0.0
  0
LINE
  5
1C2
330
1F
100
AcDbEntity
  8
0
  6
Continuous
 62
     7
370
    25
100
AcDbLine
 10
310.6845741051
 20
109.7736847577
 30
0.0
 11
312.1779869797
 21
109.7736847576
 31
0.0
  0
LINE
  5
1C3
330
1F
100
AcDbEntity
  8
0
  6
Continuous
 62
     7
370
    25
100
AcDbLine
 10
297.2779869797
 20
109.7736847576
 30
0.0
 11
298.7713998544
 21
109.7736847577
 31
0.0
  0
SPLINE
  5
1C4
330
1F
100
AcDbEntity
  8
0
  6
Continuous
 62
     7
370
    25
100
AcDbSpline
210
0.0
220
0.0
230
1.0
 70
     8
 71
     3
 72
     9
 73
     5
 74
     0
 42
0.00000001
 43
0.00000001
 40
0.0
 40
0.0
 40
0.0
 40
0.0
 40
0.4875141023677128
 40
0.9999999999999999
 40
0.9999999999999999
 40
0.9999999999999999
 40
0.9999999999999999
 10
311.3877092019498
 20
101.7736847576635
 30
0.0
 10
311.3962353134856
 20
101.7754121036352
 30
0.0
 10
311.4137242671269
 20
101.7789552749267
 30
0.0
 10
311.4300459710133
 20
101.800473760876
 30
0.0
 10
311.4384106140804
 20
101.8115016814635
 30
0.0
  0
SPLINE
  5
1C5
330
1F
100
AcDbEntity
  8
0
  6
Continuous
 62
     7
370
    25
100
AcDbSpline
210
0.0
220
0.0
230
1.0
 70
     8
 71
     3
 72
     9
 73
     5
 74
     0
 42
0.00000001
 43
0.00000001
 40
0.0
 40
0.0
 40
0.0
 40
0.0
 40
0.5124861829376838
 40
0.9999999999999999
 40
0.9999999999999999
 40
0.9999999999999999
 40
0.9999999999999999
 10
298.017563376241
 20
101.8115016356037
 30
0.0
 10
298.0259280193646
 20
101.8004737226525
 30
0.0
 10
298.0422497142749
 20
101.7789552635831
 30
0.0
 10
298.0597386565167
 20
101.775412099238
 30
0.0
 10
298.0682647575053
 20
101.7736847576636
 30
0.0
  0
LINE
  5
1C6
330
1F
100
AcDbEntity
  8
0
  6
Continuous
 62
     7
370
    25
100
AcDbLine
 10
311.4361909122
 20
101.7736847577
 30
0.0
 11
311.7279869797
 21
101.7736847577
 31
0.0
  0
LINE
  5
1C7
330
1F
100
AcDbEntity
  8
0
  6
Continuous
 62
     7
370
    25
100
AcDbLine
 10
297.7279869797
 20
101.7736847577
 30
0.0
 11
298.0197830472
 21
101.7736847577
 31
0.0
  0
LINE
  5
1C8
330
1F
100
AcDbEntity
  8
0
  6
Continuous
 62
     7
370
    25
100
AcDbLine
 10
311.4384106141
 20
101.8115016815
 30
0.0
 11
311.4361909122
 21
101.7736847577
 31
0.0
  0
LINE
  5
1C9
330
1F
100
AcDbEntity
  8
0
  6
Continuous
 62
     7
370
    25
100
AcDbLine
 10
311.4361909122
 20
101.7736847577
 30
0.0
 11
311.3877092019
 21
101.7736847577
 31
0.0
  0
LINE
  5
1CA
330
1F
100
AcDbEntity
  8
0
  6
Continuous
 62
     7
370
    25
100
AcDbLine
 10
298.0197830472
 20
101.7736847577
 30
0.0
 11
298.0175633762
 21
101.8115016356
 31
0.0
  0
LINE
  5
1CB
330
1F
100
AcDbEntity
  8
0
  6
Continuous
 62
     7
370
    25
100
AcDbLine
 10
298.0682647575
 20
101.7736847577
 30
0.0
 11
298.0197830472
 21
101.7736847577
 31
0.0
  0
SPLINE
  5
1CC
330
1F
100
AcDbEntity
  8
0
  6
Continuous
 62
     7
370
    25
100
AcDbSpline
210
0.0
220
0.0
230
1.0
 70
     8
 71
     3
 72
    19
 73
    15
 74
     0
 42
0.00000001
 43
0.00000001
 40
0.0
 40
0.0
 40
0.0
 40
0.0
 40
0.0167782344550018
 40
0.0954946884364971
 40
0.1743157850868776
 40
0.2799345392513781
 40
0.3857489264040725
 40
0.4988315035950784
 40
0.6118955660356526
 40
0.7070746817007257
 40
0.8021795965664715
 40
0.8927562213687299
 40
0.9832582010974754
 40
1.0
 40
1.0
 40
1.0
 40
1.0
 10
298.8356346547601
 20
97.81309358677589
 30
0.0
 10
298.8331081271619
 20
97.80995768471375
 30
0.0
 10
298.8187281894836
 20
97.792109442624
 30
0.0
 10
298.8821735180481
 20
97.8711724313578
 30
0.0
 10
299.0372797916266
 20
98.05565776400366
 30
0.0
 10
299.3255772034148
 20
98.37563655568624
 30
0.0
 10
299.7580111589928
 20
98.80008486883722
 30
0.0
 10
300.3124439037744
 20
99.26274943478145
 30
0.0
 10
300.9553394610692
 20
99.70322943319759
 30
0.0
 10
301.6547763854686
 20
100.0812903660512
 30
0.0
 10
302.3767767056523
 20
100.3845138961976
 30
0.0
 10
303.1544960948715
 20
100.6029130143107
 30
0.0
 10
303.7425445676426
 20
100.724312774105
 30
0.0
 10
304.0721347461561
 20
100.7376126014533
 30
0.0
 10
304.1235869847787
 20
100.7396888341052
 30
0.0
  0
SPLINE
  5
1CD
330
1F
100
AcDbEntity
  8
0
  6
Continuous
 62
     7
370
    25
100
AcDbSpline
210
0.0
220
0.0
230
1.0
 70
     8
 71
     3
 72
    19
 73
    15
 74
     0
 42
0.00000001
 43
0.00000001
 40
0.0
 40
0.0
 40
0.0
 40
0.0
 40
0.0313544004002161
 40
0.097397526211344
 40
0.1974118218856079
 40
0.2975383837681585
 40
0.4181268933327968
 40
0.5388118463564903
 40
0.6564437944620074
 40
0.7739093469561721
 40
0.850444498866832
 40
0.9268789405314601
 40
0.9967463689346365
 40
1.0
 40
1.0
 40
1.0
 40
1.0
 10
305.3401841896686
 20
100.7351871099305
 30
0.0
 10
305.4360561112916
 20
100.7299670703976
 30
0.0
 10
305.7338671961799
 20
100.7137518364673
 30
0.0
 10
306.3167525981091
 20
100.5993793716197
 30
0.0
 10
307.0659969367444
 20
100.3901068659062
 30
0.0
 10
307.8864616616765
 20
100.0457849744303
 30
0.0
 10
308.6536083514869
 20
99.61018592881548
 30
0.0
 10
309.334898932323
 20
99.1147870511129
 30
0.0
 10
309.8856090780456
 20
98.62439095586805
 30
0.0
 10
310.2543464688757
 20
98.24143513350043
 30
0.0
 10
310.4823722165215
 20
97.98068272243101
 30
0.0
 10
310.5934768256046
 20
97.84622748218176
 30
0.0
 10
310.6374539139624
 20
97.79232855591037
 30
0.0
 10
310.6265309091081
 20
97.80565955422803
 30
0.0
 10
310.6260448736462
 20
97.80625273696599
 30
0.0
  0
LINE
  5
1CE
330
1F
100
AcDbEntity
  8
0
  6
Continuous
 62
     7
370
    25
100
AcDbLine
 10
301.2279869797
 20
118.3736847577
 30
0.0
 11
299.2279869797
 21
118.3736847577
 31
0.0
  0
LINE
  5
1CF
330
1F
100
AcDbEntity
  8
0
  6
Continuous
 62
     7
370
    25
100
AcDbLine
 10
310.2279869797
 20
118.3736847577
 30
0.0
 11
308.2279869797
 21
118.3736847577
 31
0.0
  0
INSERT
  5
1DB
330
1F
100
AcDbEntity
  8
FORMAT
100
AcDbBlockReference
  2
SW_CENTERMARKSYMBOL_0
 10
304.7279869797
 20
91.2736847577
 30
0.0
  0
ARC
  5
1DC
330
1F
100
AcDbEntity
  8
FORMAT
100
AcDbCircle
 10
304.7279869797
 20
91.2736847577
 30
0.0
 40
7.000000000000012
100
AcDbArc
 50
75.0
 51
345.0
  0
LINE
  5
1DD
330
1F
100
AcDbEntity
  8
FORMAT
100
AcDbLine
 10
298.9784486759
 20
68.6389104802
 30
0.0
 11
298.6617369797
 21
78.7736847577
 31
0.0
  0
LINE
  5
1DE
330
1F
100
AcDbEntity
  8
FORMAT
100
AcDbLine
 10
310.4775252836
 20
68.6389104802
 30
0.0
 11
310.7942369797
 21
78.7736847577
 31
0.0
  0
LINE
  5
1DF
330
1F
100
AcDbEntity
  8
FORMAT
100
AcDbLine
 10
311.4705494797
 20
78.7736847577
 30
0.0
 11
297.9854244797
 21
78.7736847577
 31
0.0
  0
LINE
  5
1E0
330
1F
100
AcDbEntity
  8
0
  6
Continuous
 62
     7
370
    25
100
AcDbLine
 10
200.6239435735
 20
172.3811624573
 30
0.0
 11
200.4239435735
 21
172.1811624573
 31
0.0
  0
LINE
  5
1E1
330
1F
100
AcDbEntity
  8
0
  6
Continuous
 62
     7
370
    25
100
AcDbLine
 10
200.4239435735
 20
155.5811624573
 30
0.0
 11
200.6239435735
 21
155.3811624573
 31
0.0
  0
LINE
  5
1E2
330
1F
100
AcDbEntity
  8
0
  6
Continuous
 62
     7
370
    25
100
AcDbLine
 10
203.4239435735
 20
172.3811624573
 30
0.0
 11
200.6239435735
 21
172.3811624573
 31
0.0
  0
LINE
  5
1E3
330
1F
100
AcDbEntity
  8
0
  6
Continuous
 62
     7
370
    25
100
AcDbLine
 10
200.6239435735
 20
155.3811624573
 30
0.0
 11
203.4239435735
 21
155.3811624573
 31
0.0
  0
LINE
  5
1E4
330
1F
100
AcDbEntity
  8
0
  6
Continuous
 62
     7
370
    25
100
AcDbLine
 10
200.4239435735
 20
170.4596624573
 30
0.0
 11
191.4239435735
 21
170.4596624573
 31
0.0
  0
LINE
  5
1E5
330
1F
100
AcDbEntity
  8
0
  6
Continuous
 62
     7
370
    25
100
AcDbLine
 10
191.4239435735
 20
157.3026624573
 30
0.0
 11
200.4239435735
 21
157.3026624573
 31
0.0
  0
LINE
  5
1E6
330
1F
100
AcDbEntity
  8
0
  6
Continuous
 62
     7
370
    25
100
AcDbLine
 10
191.4239435735
 20
170.4596624573
 30
0.0
 11
190.4239435735
 21
169.4596624573
 31
0.0
  0
LINE
  5
1E7
330
1F
100
AcDbEntity
  8
0
  6
Continuous
 62
     7
370
    25
100
AcDbLine
 10
190.4239435735
 20
158.3026624573
 30
0.0
 11
191.4239435735
 21
157.3026624573
 31
0.0
  0
LINE
  5
1E8
330
1F
100
AcDbEntity
  8
0
  6
Continuous
 62
     7
370
    25
100
AcDbLine
 10
226.7796060062
 20
155.3811624573
 30
0.0
 11
226.9239435735
 21
155.6311624573
 31
0.0
  0
LINE
  5
1E9
330
1F
100
AcDbEntity
  8
0
  6
Continuous
 62
     7
370
    25
100
AcDbLine
 10
226.9239435735
 20
172.1311624573
 30
0.0
 11
226.7796060062
 21
172.3811624573
 31
0.0
  0
LINE
  5
1EA
330
1F
100
AcDbEntity
  8
0
  6
Continuous
 62
     7
370
    25
100
AcDbLine
 10
200.4239435735
 20
164.2851224893
 30
0.0
 11
200.4239435735
 21
172.1811624573
 31
0.0
  0
LINE
  5
1EB
330
1F
100
AcDbEntity
  8
0
  6
Continuous
 62
     7
370
    25
100
AcDbLine
 10
200.4239435735
 20
155.5811624573
 30
0.0
 11
200.4239435735
 21
164.2851224893
 31
0.0
  0
LINE
  5
1EC
330
1F
100
AcDbEntity
  8
0
  6
Continuous
 62
     7
370
    25
100
AcDbLine
 10
200.6239435735
 20
164.2948564659
 30
0.0
 11
200.6239435735
 21
155.3811624573
 31
0.0
  0
LINE
  5
1ED
330
1F
100
AcDbEntity
  8
0
  6
Continuous
 62
     7
370
    25
100
AcDbLine
 10
200.6239435735
 20
172.3811624573
 30
0.0
 11
200.6239435735
 21
164.2948564659
 31
0.0
  0
LINE
  5
1EE
330
1F
100
AcDbEntity
  8
0
  6
Continuous
 62
     7
370
    25
100
AcDbLine
 10
203.4239435735
 20
164.2948564659
 30
0.0
 11
203.4239435735
 21
172.3811624573
 31
0.0
  0
LINE
  5
1EF
330
1F
100
AcDbEntity
  8
0
  6
Continuous
 62
     7
370
    25
100
AcDbLine
 10
203.4239435735
 20
155.3811624573
 30
0.0
 11
203.4239435735
 21
164.2948564659
 31
0.0
  0
LINE
  5
1F0
330
1F
100
AcDbEntity
  8
0
  6
Continuous
 62
     7
370
    25
100
AcDbLine
 10
191.4239435735
 20
164.201337285
 30
0.0
 11
191.4239435735
 21
157.3026624573
 31
0.0
  0
LINE
  5
1F1
330
1F
100
AcDbEntity
  8
0
  6
Continuous
 62
     7
370
    25
100
AcDbLine
 10
191.4239435735
 20
170.4596624573
 30
0.0
 11
191.4239435735
 21
164.201337285
 31
0.0
  0
LINE
  5
1F2
330
1F
100
AcDbEntity
  8
0
  6
Continuous
 62
     7
370
    25
100
AcDbLine
 10
190.4239435735
 20
164.1526674017
 30
0.0
 11
190.4239435735
 21
169.4596624573
 31
0.0
  0
LINE
  5
1F3
330
1F
100
AcDbEntity
  8
0
  6
Continuous
 62
     7
370
    25
100
AcDbLine
 10
190.4239435735
 20
158.3026624573
 30
0.0
 11
190.4239435735
 21
164.1526674017
 31
0.0
  0
SPLINE
  5
1F4
330
1F
100
AcDbEntity
  8
0
  6
Continuous
 62
     7
370
    25
100
AcDbSpline
210
0.0
220
0.0
230
1.0
 70
    24
 71
     3
 72
    10
 73
     6
 74
     0
 42
0.00000001
 43
0.00000001
 40
0.0
 40
0.0
 40
0.0
 40
0.0
 40
0.3696317062504248
 40
0.7423090771485369
 40
1.0
 40
1.0
 40
1.0
 40
1.0
 10
226.1018846008971
 20
155.381162457276
 30
0.0
 10
226.24308718811
 20
155.381162457276
 30
0.0
 10
226.5266558334198
 20
155.381162457276
 30
0.0
 10
226.7457900859575
 20
155.381162457276
 30
0.0
 10
226.7681810133078
 20
155.381162457276
 30
0.0
 10
226.7773342952695
 20
155.381162457276
 30
0.0
  0
SPLINE
  5
1F5
330
1F
100
AcDbEntity
  8
0
  6
Continuous
 62
     7
370
    25
100
AcDbSpline
210
0.0
220
0.0
230
1.0
 70
     8
 71
     3
 72
    10
 73
     6
 74
     0
 42
0.00000001
 43
0.00000001
 40
0.0
 40
0.0
 40
0.0
 40
0.0
 40
0.5
 40
0.5
 40
1.0
 40
1.0
 40
1.0
 40
1.0
 10
226.1018846008971
 20
155.631162457276
 30
0.0
 10
226.0782092064727
 20
155.5567820798987
 30
0.0
 10
226.0651180965881
 20
155.4924814411129
 30
0.0
 10
226.0650317752998
 20
155.4042657563299
 30
0.0
 10
226.0782007092436
 20
155.381162457276
 30
0.0
 10
226.1018846008971
 20
155.381162457276
 30
0.0
  0
SPLINE
  5
1F6
330
1F
100
AcDbEntity
  8
0
  6
Continuous
 62
     7
370
    25
100
AcDbSpline
210
0.0
220
0.0
230
1.0
 70
     8
 71
     3
 72
    12
 73
     8
 74
     0
 42
0.00000001
 43
0.00000001
 40
0.0
 40
0.0
 40
0.0
 40
0.0
 40
0.0533100052995004
 40
0.2880412854083921
 40
0.5228017190035106
 40
0.7613813279954605
 40
1.0
 40
1.0
 40
1.0
 40
1.0
 10
226.7706622974524
 20
159.5402135845911
 30
0.0
 10
226.7728118701247
 20
159.4697879434348
 30
0.0
 10
226.7844263067043
 20
159.0892685251678
 30
0.0
 10
226.7186517796778
 20
158.3990477660288
 30
0.0
 10
226.5849873369842
 20
157.4708355394015
 30
0.0
 10
226.3780504849466
 20
156.5463275725926
 30
0.0
 10
226.1939449191511
 20
155.9362341429439
 30
0.0
 10
226.1018846008971
 20
155.631162457276
 30
0.0
  0
SPLINE
  5
1F7
330
1F
100
AcDbEntity
  8
0
  6
Continuous
 62
     7
370
    25
100
AcDbSpline
210
0.0
220
0.0
230
1.0
 70
     8
 71
     3
 72
    11
 73
     7
 74
     0
 42
0.00000001
 43
0.00000001
 40
0.0
 40
0.0
 40
0.0
 40
0.0
 40
0.2728188953262864
 40
0.5455706663693087
 40
0.8239821902684196
 40
1.0
 40
1.0
 40
1.0
 40
1.0
 10
226.1018846008971
 20
172.131162457276
 30
0.0
 10
226.2064376354896
 20
171.7832083500915
 30
0.0
 10
226.4155179804758
 20
171.0873857462518
 30
0.0
 10
226.6336950270705
 20
170.0177844167285
 30
0.0
 10
226.7609106621808
 20
169.0642785792347
 30
0.0
 10
226.7647700732495
 20
168.465358737269
 30
0.0
 10
226.7662649703278
 20
168.2333742437828
 30
0.0
  0
SPLINE
  5
1F8
330
1F
100
AcDbEntity
  8
0
  6
Continuous
 62
     7
370
    25
100
AcDbSpline
210
0.0
220
0.0
230
1.0
 70
     8
 71
     3
 72
    10
 73
     6
 74
     0
 42
0.00000001
 43
0.00000001
 40
0.0
 40
0.0
 40
0.0
 40
0.0
 40
0.5
 40
0.5
 40
1.0
 40
1.0
 40
1.0
 40
1.0
 10
226.1018846008971
 20
172.381162457276
 30
0.0
 10
226.0782092064727
 20
172.381162457276
 30
0.0
 10
226.0651180965881
 20
172.3583700079462
 30
0.0
 10
226.0650317752998
 20
172.2704273038531
 30
0.0
 10
226.0782007092436
 20
172.2055695301792
 30
0.0
 10
226.1018846008971
 20
172.131162457276
 30
0.0
  0
SPLINE
  5
1F9
330
1F
100
AcDbEntity
  8
0
  6
Continuous
 62
     7
370
    25
100
AcDbSpline
210
0.0
220
0.0
230
1.0
 70
    24
 71
     3
 72
    10
 73
     6
 74
     0
 42
0.00000001
 43
0.00000001
 40
0.0
 40
0.0
 40
0.0
 40
0.0
 40
0.257687728941284
 40
0.6270660671340204
 40
0.9999999999999999
 40
0.9999999999999999
 40
0.9999999999999999
 40
0.9999999999999999
 10
226.7759928458235
 20
172.381162457276
 30
0.0
 10
226.7673899046725
 20
172.381162457276
 30
0.0
 10
226.7464552156384
 20
172.381162457276
 30
0.0
 10
226.5274901531601
 20
172.381162457276
 30
0.0
 10
226.2442054192926
 20
172.381162457276
 30
0.0
 10
226.1018846008971
 20
172.381162457276
 30
0.0
  0
LINE
  5
1FA
330
1F
100
AcDbEntity
  8
0
  6
Continuous
 62
     7
370
    25
100
AcDbLine
 10
226.9239435735
 20
172.1311624573
 30
0.0
 11
226.9239435735
 21
168.1825605669
 31
0.0
  0
LINE
  5
1FB
330
1F
100
AcDbEntity
  8
0
  6
Continuous
 62
     7
370
    25
100
AcDbLine
 10
226.9239435735
 20
159.5797643476
 30
0.0
 11
226.9239435735
 21
155.6311624573
 31
0.0
  0
SPLINE
  5
1FC
330
1F
100
AcDbEntity
  8
0
  6
Continuous
 62
     7
370
    25
100
AcDbSpline
210
0.0
220
0.0
230
1.0
 70
     8
 71
     3
 72
    10
 73
     6
 74
     0
 42
0.00000001
 43
0.00000001
 40
0.0
 40
0.0
 40
0.0
 40
0.0
 40
0.5
 40
0.5
 40
1.0
 40
1.0
 40
1.0
 40
1.0
 10
204.1016649787149
 20
164.131162457276
 30
0.0
 10
204.125338583206
 20
164.056787703286
 30
0.0
 10
204.1384313589993
 20
163.96969397172
 30
0.0
 10
204.1385179271002
 20
163.7935281431755
 30
0.0
 10
204.1253481029769
 20
163.7055671192852
 30
0.0
 10
204.1016649787149
 20
163.631162457276
 30
0.0
  0
SPLINE
  5
1FD
330
1F
100
AcDbEntity
  8
0
  6
Continuous
 62
     7
370
    25
100
AcDbSpline
210
0.0
220
0.0
230
1.0
 70
     8
 71
     3
 72
    12
 73
     8
 74
     0
 42
0.00000001
 43
0.00000001
 40
0.0
 40
0.0
 40
0.0
 40
0.0
 40
0.2499999999999999
 40
0.2499999999999999
 40
0.5
 40
0.5
 40
1.0
 40
1.0
 40
1.0
 40
1.0
 10
203.4239435734547
 20
159.631162457276
 30
0.0
 10
203.4239435734547
 20
159.9689183922987
 30
0.0
 10
203.4396899034766
 20
160.3093264071773
 30
0.0
 10
203.5011349280621
 20
160.9838210915777
 30
0.0
 10
203.5467236873158
 20
161.3189464104449
 30
0.0
 10
203.7231746895724
 20
162.3186577287851
 30
0.0
 10
203.8936323915359
 20
162.9775918318503
 30
0.0
 10
204.1016649787148
 20
163.631162457276
 30
0.0
  0
LINE
  5
1FE
330
1F
100
AcDbEntity
  8
0
  6
Continuous
 62
     7
370
    25
100
AcDbLine
 10
203.4239435735
 20
168.1311624573
 30
0.0
 11
203.4239435735
 21
159.6311624573
 31
0.0
  0
SPLINE
  5
1FF
330
1F
100
AcDbEntity
  8
0
  6
Continuous
 62
     7
370
    25
100
AcDbSpline
210
0.0
220
0.0
230
1.0
 70
     8
 71
     3
 72
    10
 73
     6
 74
     0
 42
0.00000001
 43
0.00000001
 40
0.0
 40
0.0
 40
0.0
 40
0.0
 40
0.5
 40
0.5
 40
1.0
 40
1.0
 40
1.0
 40
1.0
 10
204.1016649787144
 20
164.1311624572759
 30
0.0
 10
203.8928550540482
 20
164.787175223881
 30
0.0
 10
203.7223209143009
 20
165.4474421307388
 30
0.0
 10
203.487535109282
 20
166.7797886493737
 30
0.0
 10
203.4239435734547
 20
167.4519416308611
 30
0.0
 10
203.4239435734547
 20
168.131162457276
 30
0.0
  0
SPLINE
  5
200
330
1F
100
AcDbEntity
  8
0
  6
Continuous
 62
     7
370
    25
100
AcDbSpline
210
0.0
220
0.0
230
1.0
 70
     8
 71
     3
 72
    10
 73
     6
 74
     0
 42
0.00000001
 43
0.00000001
 40
0.0
 40
0.0
 40
0.0
 40
0.0
 40
0.3153476290397598
 40
0.6576457920130403
 40
1.0
 40
1.0
 40
1.0
 40
1.0
 10
221.0010432475457
 20
169.4209751764908
 30
0.0
 10
221.0397514740487
 20
169.7095208639456
 30
0.0
 10
221.1204760457014
 20
170.3112722001962
 30
0.0
 10
221.3261288585025
 20
171.215906875824
 30
0.0
 10
221.5098145931957
 20
171.826060614584
 30
0.0
 10
221.6016649787149
 20
172.131162457276
 30
0.0
  0
LINE
  5
201
330
1F
100
AcDbEntity
  8
0
  6
Continuous
 62
     7
370
    25
100
AcDbLine
 10
226.1018846009
 20
172.1311624573
 30
0.0
 11
221.6016649787
 21
172.1311624573
 31
0.0
  0
SPLINE
  5
202
330
1F
100
AcDbEntity
  8
0
  6
Continuous
 62
     7
370
    25
100
AcDbSpline
210
0.0
220
0.0
230
1.0
 70
     8
 71
     3
 72
    12
 73
     8
 74
     0
 42
0.00000001
 43
0.00000001
 40
0.0
 40
0.0
 40
0.0
 40
0.0
 40
0.2500000000000001
 40
0.2500000000000001
 40
0.5000000000000002
 40
0.5000000000000002
 40
1.0
 40
1.0
 40
1.0
 40
1.0
 10
203.4239435734547
 20
168.131162457276
 30
0.0
 10
203.4239435734547
 20
168.4689183922987
 30
0.0
 10
203.4396899034766
 20
168.8093264071773
 30
0.0
 10
203.5011349280621
 20
169.4838210915777
 30
0.0
 10
203.5467236873158
 20
169.8189464104449
 30
0.0
 10
203.7231746895724
 20
170.818657728785
 30
0.0
 10
203.8936323915359
 20
171.4775918318503
 30
0.0
 10
204.1016649787148
 20
172.131162457276
 30
0.0
  0
LINE
  5
203
330
1F
100
AcDbEntity
  8
0
  6
Continuous
 62
     7
370
    25
100
AcDbLine
 10
208.2462221682
 20
172.1311624573
 30
0.0
 11
204.1016649787
 21
172.1311624573
 31
0.0
  0
SPLINE
  5
204
330
1F
100
AcDbEntity
  8
0
  6
Continuous
 62
     7
370
    25
100
AcDbSpline
210
0.0
220
0.0
230
1.0
 70
     8
 71
     3
 72
    11
 73
     7
 74
     0
 42
0.00000001
 43
0.00000001
 40
0.0
 40
0.0
 40
0.0
 40
0.0
 40
0.257571294514155
 40
0.5150916331441371
 40
0.7771006571699606
 40
1.0
 40
1.0
 40
1.0
 40
1.0
 10
208.2462221681945
 20
172.131162457276
 30
0.0
 10
208.3439859739536
 20
171.8069086729221
 30
0.0
 10
208.5394942446474
 20
171.1584652520392
 30
0.0
 10
208.7517936563962
 20
170.163907886108
 30
0.0
 10
208.8904740165927
 20
169.2043164442432
 30
0.0
 10
208.9085677848242
 20
168.5734815614173
 30
0.0
 10
208.9168850037541
 20
168.2835037214226
 30
0.0
  0
SPLINE
  5
205
330
1F
100
AcDbEntity
  8
0
  6
Continuous
 62
     7
370
    25
100
AcDbSpline
210
0.0
220
0.0
230
1.0
 70
     8
 71
     3
 72
    12
 73
     8
 74
     0
 42
0.00000001
 43
0.00000001
 40
0.0
 40
0.0
 40
0.0
 40
0.0
 40
0.0417044617256696
 40
0.2793133301841741
 40
0.5169517095236766
 40
0.7584560838173445
 40
1.0
 40
1.0
 40
1.0
 40
1.0
 10
208.922043190971
 20
159.492239225415
 30
0.0
 10
208.921473988306
 20
159.437805479712
 30
0.0
 10
208.9176617848786
 20
159.0732384727882
 30
0.0
 10
208.8669252257535
 20
158.3990646995086
 30
0.0
 10
208.7282562024326
 20
157.4708309414852
 30
0.0
 10
208.522657073079
 20
156.5463287300111
 30
0.0
 10
208.3383721649537
 20
155.9362345287712
 30
0.0
 10
208.2462221681945
 20
155.631162457276
 30
0.0
  0
LINE
  5
206
330
1F
100
AcDbEntity
  8
0
  6
Continuous
 62
     7
370
    25
100
AcDbLine
 10
204.1016649787
 20
155.6311624573
 30
0.0
 11
208.2462221682
 21
155.6311624573
 31
0.0
  0
SPLINE
  5
207
330
1F
100
AcDbEntity
  8
0
  6
Continuous
 62
     7
370
    25
100
AcDbSpline
210
0.0
220
0.0
230
1.0
 70
     8
 71
     3
 72
    10
 73
     6
 74
     0
 42
0.00000001
 43
0.00000001
 40
0.0
 40
0.0
 40
0.0
 40
0.0
 40
0.5
 40
0.5
 40
1.0
 40
1.0
 40
1.0
 40
1.0
 10
204.1016649787144
 20
155.6311624572759
 30
0.0
 10
203.8928550540482
 20
156.287175223881
 30
0.0
 10
203.7223209143009
 20
156.9474421307388
 30
0.0
 10
203.487535109282
 20
158.2797886493738
 30
0.0
 10
203.4239435734547
 20
158.9519416308611
 30
0.0
 10
203.4239435734547
 20
159.631162457276
 30
0.0
  0
LINE
  5
208
330
1F
100
AcDbEntity
  8
0
  6
Continuous
 62
     7
370
    25
100
AcDbLine
 10
221.6016649787
 20
155.6311624573
 30
0.0
 11
226.1018846009
 21
155.6311624573
 31
0.0
  0
SPLINE
  5
209
330
1F
100
AcDbEntity
  8
0
  6
Continuous
 62
     7
370
    25
100
AcDbSpline
210
0.0
220
0.0
230
1.0
 70
     8
 71
     3
 72
    10
 73
     6
 74
     0
 42
0.00000001
 43
0.00000001
 40
0.0
 40
0.0
 40
0.0
 40
0.0
 40
0.3653404370278853
 40
0.7306085979699278
 40
1.0
 40
1.0
 40
1.0
 40
1.0
 10
221.6016649787149
 20
155.6311624572759
 30
0.0
 10
221.5045983591069
 20
155.9554699775708
 30
0.0
 10
221.3104843227895
 20
156.6040208597049
 30
0.0
 10
221.108337230191
 20
157.5055882694278
 30
0.0
 10
221.0385884889825
 20
158.084606254337
 30
0.0
 10
221.0089825202392
 20
158.3303796986461
 30
0.0
  0
LINE
  5
20A
330
1F
100
AcDbEntity
  8
0
  6
Continuous
 62
     7
370
    25
100
AcDbLine
 10
220.9239435735
 20
158.3363468533
 30
0.0
 11
220.9239435735
 21
156.3811624573
 31
0.0
  0
LINE
  5
20B
330
1F
100
AcDbEntity
  8
0
  6
Continuous
 62
     7
370
    25
100
AcDbLine
 10
220.9239435735
 20
156.3811624573
 30
0.0
 11
208.9239435735
 21
156.3811624573
 31
0.0
  0
LINE
  5
20C
330
1F
100
AcDbEntity
  8
0
  6
Continuous
 62
     7
370
    25
100
AcDbLine
 10
208.9239435735
 20
159.4649989639
 30
0.0
 11
208.9239435735
 21
156.3811624573
 31
0.0
  0
LINE
  5
20D
330
1F
100
AcDbEntity
  8
0
  6
Continuous
 62
     7
370
    25
100
AcDbLine
 10
208.9239435735
 20
171.3811624573
 30
0.0
 11
208.9239435735
 21
168.2973259506
 31
0.0
  0
LINE
  5
20E
330
1F
100
AcDbEntity
  8
0
  6
Continuous
 62
     7
370
    25
100
AcDbLine
 10
208.9239435735
 20
171.3811624573
 30
0.0
 11
220.9239435735
 21
171.3811624573
 31
0.0
  0
LINE
  5
20F
330
1F
100
AcDbEntity
  8
0
  6
Continuous
 62
     7
370
    25
100
AcDbLine
 10
220.9239435735
 20
171.3811624573
 30
0.0
 11
220.9239435735
 21
169.4259780612
 31
0.0
  0
SPLINE
  5
210
330
1F
100
AcDbEntity
  8
0
  6
Continuous
 62
     7
370
    25
100
AcDbSpline
210
0.0
220
0.0
230
1.0
 70
     8
 71
     3
 72
     8
 73
     4
 74
     0
 42
0.00000001
 43
0.00000001
 40
0.0
 40
0.0
 40
0.0
 40
0.0
 40
1.0
 40
1.0
 40
1.0
 40
1.0
 10
208.4077074964755
 20
172.381162457276
 30
0.0
 10
208.5814105726953
 20
172.0486510351405
 30
0.0
 10
208.753712791758
 20
171.7153239352416
 30
0.0
 10
208.9239435734547
 20
171.381162457276
 30
0.0
  0
SPLINE
  5
211
330
1F
100
AcDbEntity
  8
0
  6
Continuous
 62
     7
370
    25
100
AcDbSpline
210
0.0
220
0.0
230
1.0
 70
     8
 71
     3
 72
    10
 73
     6
 74
     0
 42
0.00000001
 43
0.00000001
 40
0.0
 40
0.0
 40
0.0
 40
0.0
 40
0.5
 40
0.5
 40
1.0
 40
1.0
 40
1.0
 40
1.0
 10
208.2462221682001
 20
172.381162457276
 30
0.0
 10
208.2225467737759
 20
172.381162457276
 30
0.0
 10
208.2094556638855
 20
172.3583700079465
 30
0.0
 10
208.2093693425971
 20
172.2704273038534
 30
0.0
 10
208.222538276541
 20
172.2055695301794
 30
0.0
 10
208.2462221681945
 20
172.131162457276
 30
0.0
  0
SPLINE
  5
212
330
1F
100
AcDbEntity
  8
0
  6
Continuous
 62
     7
370
    25
100
AcDbSpline
210
0.0
220
0.0
230
1.0
 70
    24
 71
     3
 72
     8
 73
     4
 74
     0
 42
0.00000001
 43
0.00000001
 40
0.0
 40
0.0
 40
0.0
 40
0.0
 40
1.0
 40
1.0
 40
1.0
 40
1.0
 10
208.4077074964755
 20
172.381162457276
 30
0.0
 10
208.3568087795531
 20
172.381162457276
 30
0.0
 10
208.3028746433025
 20
172.381162457276
 30
0.0
 10
208.2462221681949
 20
172.381162457276
 30
0.0
  0
SPLINE
  5
213
330
1F
100
AcDbEntity
  8
0
  6
Continuous
 62
     7
370
    25
100
AcDbSpline
210
0.0
220
0.0
230
1.0
 70
     8
 71
     3
 72
     8
 73
     4
 74
     0
 42
0.00000001
 43
0.00000001
 40
0.0
 40
0.0
 40
0.0
 40
0.0
 40
1.0
 40
1.0
 40
1.0
 40
1.0
 10
220.9239435734547
 20
171.381162457276
 30
0.0
 10
221.0942211807984
 20
171.7154158535613
 30
0.0
 10
221.2664929294241
 20
172.0486823431303
 30
0.0
 10
221.4401796504338
 20
172.3811624572758
 30
0.0
  0
SPLINE
  5
214
330
1F
100
AcDbEntity
  8
0
  6
Continuous
 62
     7
370
    25
100
AcDbSpline
210
0.0
220
0.0
230
1.0
 70
    24
 71
     3
 72
     8
 73
     4
 74
     0
 42
0.00000001
 43
0.00000001
 40
0.0
 40
0.0
 40
0.0
 40
0.0
 40
1.0
 40
1.0
 40
1.0
 40
1.0
 10
221.4401796504334
 20
172.381162457276
 30
0.0
 10
221.4910758836886
 20
172.381162457276
 30
0.0
 10
221.5450098386524
 20
172.381162457276
 30
0.0
 10
221.6016649787149
 20
172.381162457276
 30
0.0
  0
SPLINE
  5
215
330
1F
100
AcDbEntity
  8
0
  6
Continuous
 62
     7
370
    25
100
AcDbSpline
210
0.0
220
0.0
230
1.0
 70
     8
 71
     3
 72
    10
 73
     6
 74
     0
 42
0.00000001
 43
0.00000001
 40
0.0
 40
0.0
 40
0.0
 40
0.0
 40
0.5
 40
0.5
 40
1.0
 40
1.0
 40
1.0
 40
1.0
 10
221.6016649787149
 20
172.131162457276
 30
0.0
 10
221.6253403731393
 20
172.2055428346533
 30
0.0
 10
221.6384314830239
 20
172.2698434734391
 30
0.0
 10
221.6385178043122
 20
172.358059158222
 30
0.0
 10
221.6253488703684
 20
172.381162457276
 30
0.0
 10
221.6016649787149
 20
172.381162457276
 30
0.0
  0
SPLINE
  5
216
330
1F
100
AcDbEntity
  8
0
  6
Continuous
 62
     7
370
    25
100
AcDbSpline
210
0.0
220
0.0
230
1.0
 70
     8
 71
     3
 72
    10
 73
     6
 74
     0
 42
0.00000001
 43
0.00000001
 40
0.0
 40
0.0
 40
0.0
 40
0.0
 40
0.5
 40
0.5
 40
1.0
 40
1.0
 40
1.0
 40
1.0
 10
204.1016649787149
 20
172.381162457276
 30
0.0
 10
204.1253388792708
 20
172.381162457276
 30
0.0
 10
204.13843143645
 20
172.3583718856285
 30
0.0
 10
204.1385178504323
 20
172.2704258883297
 30
0.0
 10
204.1253474588337
 20
172.2055650955969
 30
0.0
 10
204.1016649787149
 20
172.131162457276
 30
0.0
  0
SPLINE
  5
217
330
1F
100
AcDbEntity
  8
0
  6
Continuous
 62
     7
370
    25
100
AcDbSpline
210
0.0
220
0.0
230
1.0
 70
    24
 71
     3
 72
    12
 73
     8
 74
     0
 42
0.00000001
 43
0.00000001
 40
0.0
 40
0.0
 40
0.0
 40
0.0
 40
0.2499999999999999
 40
0.2499999999999999
 40
0.4999999999999998
 40
0.4999999999999998
 40
1.0
 40
1.0
 40
1.0
 40
1.0
 10
203.4239435734547
 20
172.381162457276
 30
0.0
 10
203.4239435734547
 20
172.381162457276
 30
0.0
 10
203.4399423784358
 20
172.381162457276
 30
0.0
 10
203.5017125167502
 20
172.381162457276
 30
0.0
 10
203.5474546410518
 20
172.381162457276
 30
0.0
 10
203.7241247883986
 20
172.381162457276
 30
0.0
 10
203.8943798538789
 20
172.381162457276
 30
0.0
 10
204.1016649787149
 20
172.381162457276
 30
0.0
  0
LINE
  5
218
330
1F
100
AcDbEntity
  8
0
  6
Continuous
 62
     7
370
    25
100
AcDbLine
 10
203.4239435735
 20
172.3811624573
 30
0.0
 11
203.4239435735
 21
168.1311624573
 31
0.0
  0
SPLINE
  5
219
330
1F
100
AcDbEntity
  8
0
  6
Continuous
 62
     7
370
    25
100
AcDbSpline
210
0.0
220
0.0
230
1.0
 70
     8
 71
     3
 72
     8
 73
     4
 74
     0
 42
0.00000001
 43
0.00000001
 40
0.0
 40
0.0
 40
0.0
 40
0.0
 40
1.0
 40
1.0
 40
1.0
 40
1.0
 10
208.9239435734547
 20
156.381162457276
 30
0.0
 10
208.753665966111
 20
156.0469090609905
 30
0.0
 10
208.5813942174852
 20
155.7136425714216
 30
0.0
 10
208.4077074964756
 20
155.381162457276
 30
0.0
  0
SPLINE
  5
21A
330
1F
100
AcDbEntity
  8
0
  6
Continuous
 62
     7
370
    25
100
AcDbSpline
210
0.0
220
0.0
230
1.0
 70
    24
 71
     3
 72
     8
 73
     4
 74
     0
 42
0.00000001
 43
0.00000001
 40
0.0
 40
0.0
 40
0.0
 40
0.0
 40
1.0
 40
1.0
 40
1.0
 40
1.0
 10
208.4077074964756
 20
155.381162457276
 30
0.0
 10
208.356808779553
 20
155.381162457276
 30
0.0
 10
208.3028746433023
 20
155.381162457276
 30
0.0
 10
208.2462221681945
 20
155.381162457276
 30
0.0
  0
SPLINE
  5
21B
330
1F
100
AcDbEntity
  8
0
  6
Continuous
 62
     7
370
    25
100
AcDbSpline
210
0.0
220
0.0
230
1.0
 70
     8
 71
     3
 72
    10
 73
     6
 74
     0
 42
0.00000001
 43
0.00000001
 40
0.0
 40
0.0
 40
0.0
 40
0.0
 40
0.5
 40
0.5
 40
1.0
 40
1.0
 40
1.0
 40
1.0
 10
208.2462221681945
 20
155.631162457276
 30
0.0
 10
208.2225467737701
 20
155.5567820798987
 30
0.0
 10
208.2094556638855
 20
155.4924814411129
 30
0.0
 10
208.2093693425972
 20
155.4042657563299
 30
0.0
 10
208.2225382765411
 20
155.381162457276
 30
0.0
 10
208.2462221681945
 20
155.381162457276
 30
0.0
  0
SPLINE
  5
21C
330
1F
100
AcDbEntity
  8
0
  6
Continuous
 62
     7
370
    25
100
AcDbSpline
210
0.0
220
0.0
230
1.0
 70
     8
 71
     3
 72
     8
 73
     4
 74
     0
 42
0.00000001
 43
0.00000001
 40
0.0
 40
0.0
 40
0.0
 40
0.0
 40
1.0
 40
1.0
 40
1.0
 40
1.0
 10
221.4401796504339
 20
155.381162457276
 30
0.0
 10
221.2664765742141
 20
155.7136738794115
 30
0.0
 10
221.0941743551514
 20
156.0470009793104
 30
0.0
 10
220.9239435734547
 20
156.381162457276
 30
0.0
  0
SPLINE
  5
21D
330
1F
100
AcDbEntity
  8
0
  6
Continuous
 62
     7
370
    25
100
AcDbSpline
210
0.0
220
0.0
230
1.0
 70
     8
 71
     3
 72
    10
 73
     6
 74
     0
 42
0.00000001
 43
0.00000001
 40
0.0
 40
0.0
 40
0.0
 40
0.0
 40
0.5
 40
0.5
 40
1.0
 40
1.0
 40
1.0
 40
1.0
 10
221.6016649787149
 20
155.381162457276
 30
0.0
 10
221.6253403731393
 20
155.381162457276
 30
0.0
 10
221.6384314830239
 20
155.4039549066058
 30
0.0
 10
221.6385178043122
 20
155.4918976106988
 30
0.0
 10
221.6253488703684
 20
155.5567553843727
 30
0.0
 10
221.6016649787149
 20
155.6311624572759
 30
0.0
  0
SPLINE
  5
21E
330
1F
100
AcDbEntity
  8
0
  6
Continuous
 62
     7
370
    25
100
AcDbSpline
210
0.0
220
0.0
230
1.0
 70
    24
 71
     3
 72
     8
 73
     4
 74
     0
 42
0.00000001
 43
0.00000001
 40
0.0
 40
0.0
 40
0.0
 40
0.0
 40
1.0
 40
1.0
 40
1.0
 40
1.0
 10
221.4401796504339
 20
155.381162457276
 30
0.0
 10
221.491075883689
 20
155.381162457276
 30
0.0
 10
221.5450098386526
 20
155.381162457276
 30
0.0
 10
221.6016649787149
 20
155.381162457276
 30
0.0
  0
SPLINE
  5
21F
330
1F
100
AcDbEntity
  8
0
  6
Continuous
 62
     7
370
    25
100
AcDbSpline
210
0.0
220
0.0
230
1.0
 70
     8
 71
     3
 72
    10
 73
     6
 74
     0
 42
0.00000001
 43
0.00000001
 40
0.0
 40
0.0
 40
0.0
 40
0.0
 40
0.5
 40
0.5
 40
1.0
 40
1.0
 40
1.0
 40
1.0
 10
204.1016649787149
 20
155.631162457276
 30
0.0
 10
204.1253372186265
 20
155.5567919903504
 30
0.0
 10
204.1384312085617
 20
155.4924863940626
 30
0.0
 10
204.1385180760232
 20
155.4042636062567
 30
0.0
 10
204.1253482862638
 20
155.381162457276
 30
0.0
 10
204.1016649787149
 20
155.381162457276
 30
0.0
  0
SPLINE
  5
220
330
1F
100
AcDbEntity
  8
0
  6
Continuous
 62
     7
370
    25
100
AcDbSpline
210
0.0
220
0.0
230
1.0
 70
    24
 71
     3
 72
    12
 73
     8
 74
     0
 42
0.00000001
 43
0.00000001
 40
0.0
 40
0.0
 40
0.0
 40
0.0
 40
0.2500000000000001
 40
0.2500000000000001
 40
0.5000000000000001
 40
0.5000000000000001
 40
1.0
 40
1.0
 40
1.0
 40
1.0
 10
203.4239435734547
 20
155.381162457276
 30
0.0
 10
203.4239435734547
 20
155.381162457276
 30
0.0
 10
203.4399423784358
 20
155.381162457276
 30
0.0
 10
203.5017125167502
 20
155.381162457276
 30
0.0
 10
203.5474546410518
 20
155.381162457276
 30
0.0
 10
203.7241247883986
 20
155.381162457276
 30
0.0
 10
203.8943798538789
 20
155.381162457276
 30
0.0
 10
204.1016649787149
 20
155.381162457276
 30
0.0
  0
LINE
  5
221
330
1F
100
AcDbEntity
  8
0
  6
Continuous
 62
     7
370
    25
100
AcDbLine
 10
203.4239435735
 20
155.3811624573
 30
0.0
 11
203.4239435735
 21
159.6311624573
 31
0.0
  0
LINE
  5
222
330
1F
100
AcDbEntity
  8
0
  6
Continuous
 62
     7
370
    25
100
AcDbLine
 10
221.6016649787
 20
172.3811624573
 30
0.0
 11
226.1018846009
 21
172.3811624573
 31
0.0
  0
LINE
  5
223
330
1F
100
AcDbEntity
  8
0
  6
Continuous
 62
     7
370
    25
100
AcDbLine
 10
204.1016649787
 20
172.3811624573
 30
0.0
 11
208.2462221682
 21
172.3811624573
 31
0.0
  0
LINE
  5
224
330
1F
100
AcDbEntity
  8
0
  6
Continuous
 62
     7
370
    25
100
AcDbLine
 10
226.1018846009
 20
155.3811624573
 30
0.0
 11
221.6016649787
 21
155.3811624573
 31
0.0
  0
LINE
  5
225
330
1F
100
AcDbEntity
  8
0
  6
Continuous
 62
     7
370
    25
100
AcDbLine
 10
208.2462221682
 20
155.3811624573
 30
0.0
 11
204.1016649787
 21
155.3811624573
 31
0.0
  0
LINE
  5
226
330
1F
100
AcDbEntity
  8
0
  6
Continuous
 62
     7
370
    25
100
AcDbLine
 10
221.4401796504
 20
172.3811624573
 30
0.0
 11
208.4077074965
 21
172.3811624573
 31
0.0
  0
LINE
  5
227
330
1F
100
AcDbEntity
  8
0
  6
Continuous
 62
     7
370
    25
100
AcDbLine
 10
221.4401796504
 20
155.3811624573
 30
0.0
 11
208.4077074965
 21
155.3811624573
 31
0.0
  0
SPLINE
  5
228
330
1F
100
AcDbEntity
  8
0
  6
Continuous
 62
     7
370
    25
100
AcDbSpline
210
0.0
220
0.0
230
1.0
 70
     8
 71
     3
 72
    15
 73
    11
 74
     0
 42
0.00000001
 43
0.00000001
 40
0.0
 40
0.0
 40
0.0
 40
0.0
 40
0.0081667445812695
 40
0.3321939991490083
 40
0.4756279600585602
 40
0.6866830973284899
 40
0.8457435502264811
 40
0.8967566214763185
 40
0.9909540928118029
 40
1.0
 40
1.0
 40
1.0
 40
1.0
 10
220.0229630870475
 20
165.131162457276
 30
0.0
 10
220.0234506211904
 20
165.132599920215
 30
0.0
 10
220.0432817687225
 20
165.1910707781667
 30
0.0
 10
220.0715625487317
 20
165.2754959558862
 30
0.0
 10
220.1093918472206
 20
165.3900750279086
 30
0.0
 10
220.135975743788
 20
165.4714459151052
 30
0.0
 10
220.153145567543
 20
165.5244649071069
 30
0.0
 10
220.1609625637595
 20
165.548666838951
 30
0.0
 10
220.1629582501953
 20
165.5548564596172
 30
0.0
 10
220.1630232141462
 20
165.5550578550298
 30
0.0
 10
220.1630289061128
 20
165.5550755007542
 30
0.0
  0
ARC
  5
229
330
1F
100
AcDbEntity
  8
0
  6
Continuous
 62
     7
370
    25
100
AcDbCircle
 10
214.9239435735
 20
163.8811624573
 30
0.0
 40
5.250000000000009
100
AcDbArc
 50
13.774146998
 51
166.225853002
  0
SPLINE
  5
22A
330
1F
100
AcDbEntity
  8
0
  6
Continuous
 62
     7
370
    25
100
AcDbSpline
210
0.0
220
0.0
230
1.0
 70
     8
 71
     3
 72
    15
 73
    11
 74
     0
 42
0.00000001
 43
0.00000001
 40
0.0
 40
0.0
 40
0.0
 40
0.0
 40
0.0090459071881971
 40
0.1032433785236874
 40
0.1542564497735246
 40
0.313316902671511
 40
0.5243720399414428
 40
0.6678060008509903
 40
0.9918332554187292
 40
1.0
 40
1.0
 40
1.0
 40
1.0
 10
209.6848582407966
 20
165.5550755007542
 30
0.0
 10
209.6848639327633
 20
165.5550578550298
 30
0.0
 10
209.6849288967141
 20
165.5548564596172
 30
0.0
 10
209.6869245831499
 20
165.548666838951
 30
0.0
 10
209.6947415793664
 20
165.5244649071069
 30
0.0
 10
209.7119114031214
 20
165.4714459151052
 30
0.0
 10
209.7384952996889
 20
165.3900750279086
 30
0.0
 10
209.7763245981777
 20
165.2754959558862
 30
0.0
 10
209.8046053781869
 20
165.1910707781667
 30
0.0
 10
209.824436525719
 20
165.132599920215
 30
0.0
 10
209.8249240598619
 20
165.131162457276
 30
0.0
  0
ARC
  5
22B
330
1F
100
AcDbEntity
  8
0
  6
Continuous
 62
     7
370
    25
100
AcDbCircle
 10
214.9239435735
 20
163.8811624573
 30
0.0
 40
5.500000000000029
100
AcDbArc
 50
17.7189318734
 51
162.2810681266
  0
ARC
  5
22C
330
1F
100
AcDbEntity
  8
0
  6
Continuous
 62
     7
370
    25
100
AcDbCircle
 10
209.4467179984
 20
165.6311624573
 30
0.0
 40
0.2500000000000126
100
AcDbArc
 50
270.0
 51
342.2810681266
  0
SPLINE
  5
22D
330
1F
100
AcDbEntity
  8
0
  6
Continuous
 62
     7
370
    25
100
AcDbSpline
210
0.0
220
0.0
230
1.0
 70
     8
 71
     3
 72
    15
 73
    11
 74
     0
 42
0.00000001
 43
0.00000001
 40
0.0
 40
0.0
 40
0.0
 40
0.0
 40
0.0080847466189818
 40
0.3310106400647567
 40
0.4750333064304972
 40
0.6874363079215137
 40
0.8468367539418253
 40
0.9000996640391794
 40
0.9910442771984082
 40
1.0
 40
1.0
 40
1.0
 40
1.0
 10
209.8249240598619
 20
165.131162457276
 30
0.0
 10
209.8236442283178
 20
165.1319783932642
 30
0.0
 10
209.771244582594
 20
165.1653849434579
 30
0.0
 10
209.6958894911396
 20
165.2141985081927
 30
0.0
 10
209.5939703791218
 20
165.2815689804609
 30
0.0
 10
209.5215794341299
 20
165.3301530208044
 30
0.0
 10
209.4738740058651
 20
165.3626018822629
 30
0.0
 10
209.4523385221578
 20
165.3773129233292
 30
0.0
 10
209.4469095061382
 20
165.3810313742473
 30
0.0
 10
209.4467337539816
 20
165.3811516729128
 30
0.0
 10
209.446717998403
 20
165.381162457276
 30
0.0
  0
SPLINE
  5
22E
330
1F
100
AcDbEntity
  8
0
  6
Continuous
 62
     7
370
    25
100
AcDbSpline
210
0.0
220
0.0
230
1.0
 70
     8
 71
     3
 72
    15
 73
    11
 74
     0
 42
0.00000001
 43
0.00000001
 40
0.0
 40
0.0
 40
0.0
 40
0.0
 40
0.0090459071881971
 40
0.1032433785236816
 40
0.1542564497735189
 40
0.31331690267151
 40
0.5243720399414428
 40
0.6678060008509183
 40
0.9918332554187028
 40
1.0
 40
1.0
 40
1.0
 40
1.0
 10
220.1630289061128
 20
162.2072494137977
 30
0.0
 10
220.1630232141462
 20
162.2072670595222
 30
0.0
 10
220.1629582501953
 20
162.2074684549347
 30
0.0
 10
220.1609625637595
 20
162.2136580756009
 30
0.0
 10
220.153145567543
 20
162.2378600074451
 30
0.0
 10
220.135975743788
 20
162.2908789994467
 30
0.0
 10
220.1093918472205
 20
162.3722498866433
 30
0.0
 10
220.0715625487319
 20
162.4868289586658
 30
0.0
 10
220.0432817687216
 20
162.5712541363849
 30
0.0
 10
220.0234506211904
 20
162.629724994337
 30
0.0
 10
220.0229630870475
 20
162.631162457276
 30
0.0
  0
SPLINE
  5
22F
330
1F
100
AcDbEntity
  8
0
  6
Continuous
 62
     7
370
    25
100
AcDbSpline
210
0.0
220
0.0
230
1.0
 70
     8
 71
     3
 72
    15
 73
    11
 74
     0
 42
0.00000001
 43
0.00000001
 40
0.0
 40
0.0
 40
0.0
 40
0.0
 40
0.0080847466189582
 40
0.3310106400648243
 40
0.4750333064304948
 40
0.6874363079215142
 40
0.8468367539418303
 40
0.9000996640391847
 40
0.9910442771984082
 40
1.0
 40
1.0
 40
1.0
 40
1.0
 10
220.0229630870475
 20
162.631162457276
 30
0.0
 10
220.0242429185916
 20
162.6303465212877
 30
0.0
 10
220.0766425643149
 20
162.5969399710931
 30
0.0
 10
220.1519976557699
 20
162.5481264063594
 30
0.0
 10
220.2539167677876
 20
162.480755934091
 30
0.0
 10
220.3263077127796
 20
162.4321718937476
 30
0.0
 10
220.3740131410444
 20
162.399723032289
 30
0.0
 10
220.3955486247517
 20
162.3850119912227
 30
0.0
 10
220.4009776407712
 20
162.3812935403047
 30
0.0
 10
220.4011533929278
 20
162.3811732416391
 30
0.0
 10
220.4011691485064
 20
162.381162457276
 30
0.0
  0
ARC
  5
230
330
1F
100
AcDbEntity
  8
0
  6
Continuous
 62
     7
370
    25
100
AcDbCircle
 10
220.4011691485
 20
162.1311624573
 30
0.0
 40
0.25
100
AcDbArc
 50
90.0
 51
162.2810681266
  0
SPLINE
  5
231
330
1F
100
AcDbEntity
  8
0
  6
Continuous
 62
     7
370
    25
100
AcDbSpline
210
0.0
220
0.0
230
1.0
 70
     8
 71
     3
 72
    15
 73
    11
 74
     0
 42
0.00000001
 43
0.00000001
 40
0.0
 40
0.0
 40
0.0
 40
0.0
 40
0.0089557228015919
 40
0.0999003359608209
 40
0.1531632460581751
 40
0.3125636920784904
 40
0.5249666935695061
 40
0.6689893599351777
 40
0.991915253381045
 40
1.0
 40
1.0
 40
1.0
 40
1.0
 10
209.446717998403
 20
162.381162457276
 30
0.0
 10
209.4467337539816
 20
162.3811732416391
 30
0.0
 10
209.4469095061382
 20
162.3812935403047
 30
0.0
 10
209.4523385221578
 20
162.3850119912227
 30
0.0
 10
209.4738740058651
 20
162.399723032289
 30
0.0
 10
209.5215794341299
 20
162.4321718937476
 30
0.0
 10
209.5939703791218
 20
162.480755934091
 30
0.0
 10
209.6958894911395
 20
162.5481264063593
 30
0.0
 10
209.7712445825945
 20
162.5969399710933
 30
0.0
 10
209.8236442283178
 20
162.6303465212877
 30
0.0
 10
209.8249240598619
 20
162.631162457276
 30
0.0
  0
SPLINE
  5
232
330
1F
100
AcDbEntity
  8
0
  6
Continuous
 62
     7
370
    25
100
AcDbSpline
210
0.0
220
0.0
230
1.0
 70
     8
 71
     3
 72
    15
 73
    11
 74
     0
 42
0.00000001
 43
0.00000001
 40
0.0
 40
0.0
 40
0.0
 40
0.0
 40
0.0081667445812973
 40
0.3321939991490804
 40
0.475627960058556
 40
0.6866830973284891
 40
0.8457435502264751
 40
0.8967566214763124
 40
0.9909540928118028
 40
1.0
 40
1.0
 40
1.0
 40
1.0
 10
209.8249240598619
 20
162.631162457276
 30
0.0
 10
209.8244365257191
 20
162.629724994337
 30
0.0
 10
209.8046053781878
 20
162.571254136385
 30
0.0
 10
209.7763245981776
 20
162.4868289586658
 30
0.0
 10
209.7384952996889
 20
162.3722498866433
 30
0.0
 10
209.7119114031214
 20
162.2908789994467
 30
0.0
 10
209.6947415793664
 20
162.2378600074451
 30
0.0
 10
209.6869245831499
 20
162.2136580756009
 30
0.0
 10
209.6849288967141
 20
162.2074684549347
 30
0.0
 10
209.6848639327633
 20
162.2072670595222
 30
0.0
 10
209.6848582407966
 20
162.2072494137977
 30
0.0
  0
ARC
  5
233
330
1F
100
AcDbEntity
  8
0
  6
Continuous
 62
     7
370
    25
100
AcDbCircle
 10
209.4467179984
 20
162.1311624573
 30
0.0
 40
0.2500000000000213
100
AcDbArc
 50
17.7189318734
 51
90.0
  0
ARC
  5
234
330
1F
100
AcDbEntity
  8
0
  6
Continuous
 62
     7
370
    25
100
AcDbCircle
 10
220.4011691485
 20
165.6311624573
 30
0.0
 40
0.25
100
AcDbArc
 50
197.7189318734
 51
270.0
  0
SPLINE
  5
235
330
1F
100
AcDbEntity
  8
0
  6
Continuous
 62
     7
370
    25
100
AcDbSpline
210
0.0
220
0.0
230
1.0
 70
     8
 71
     3
 72
    15
 73
    11
 74
     0
 42
0.00000001
 43
0.00000001
 40
0.0
 40
0.0
 40
0.0
 40
0.0
 40
0.0089557228015919
 40
0.0999003359608148
 40
0.153163246058169
 40
0.3125636920784848
 40
0.5249666935694999
 40
0.6689893599352451
 40
0.9919152533810159
 40
1.0
 40
1.0
 40
1.0
 40
1.0
 10
220.4011691485064
 20
165.381162457276
 30
0.0
 10
220.4011533929278
 20
165.3811516729128
 30
0.0
 10
220.4009776407712
 20
165.3810313742473
 30
0.0
 10
220.3955486247517
 20
165.3773129233292
 30
0.0
 10
220.3740131410444
 20
165.3626018822629
 30
0.0
 10
220.3263077127796
 20
165.3301530208044
 30
0.0
 10
220.2539167677876
 20
165.2815689804609
 30
0.0
 10
220.1519976557699
 20
165.2141985081927
 30
0.0
 10
220.0766425643154
 20
165.165384943458
 30
0.0
 10
220.0242429185916
 20
165.1319783932642
 30
0.0
 10
220.0229630870475
 20
165.131162457276
 30
0.0
  0
ARC
  5
236
330
1F
100
AcDbEntity
  8
0
  6
Continuous
 62
     7
370
    25
100
AcDbCircle
 10
214.9239435735
 20
163.8811624573
 30
0.0
 40
5.50000000000002
100
AcDbArc
 50
197.7189318734
 51
342.2810681266
  0
ARC
  5
237
330
1F
100
AcDbEntity
  8
0
  6
Continuous
 62
     7
370
    25
100
AcDbCircle
 10
214.9239435735
 20
163.8811624573
 30
0.0
 40
5.250000000000009
100
AcDbArc
 50
193.774146998
 51
346.225853002
  0
LINE
  5
238
330
1F
100
AcDbEntity
  8
0
  6
Continuous
 62
     7
370
    25
100
AcDbLine
 10
209.9239435735
 20
163.2811624573
 30
0.0
 11
219.9239435735
 21
163.2811624573
 31
0.0
  0
LINE
  5
239
330
1F
100
AcDbEntity
  8
0
  6
Continuous
 62
     7
370
    25
100
AcDbLine
 10
219.9239435735
 20
163.2811624573
 30
0.0
 11
219.9239435735
 21
164.4811624573
 31
0.0
  0
LINE
  5
23A
330
1F
100
AcDbEntity
  8
0
  6
Continuous
 62
     7
370
    25
100
AcDbLine
 10
219.9239435735
 20
164.4811624573
 30
0.0
 11
209.9239435735
 21
164.4811624573
 31
0.0
  0
LINE
  5
23B
330
1F
100
AcDbEntity
  8
0
  6
Continuous
 62
     7
370
    25
100
AcDbLine
 10
209.9239435735
 20
164.4811624573
 30
0.0
 11
209.9239435735
 21
163.2811624573
 31
0.0
  0
LINE
  5
23C
330
1F
100
AcDbEntity
  8
0
  6
Continuous
 62
     7
370
    25
100
AcDbLine
 10
220.6739435735
 20
165.1311624573
 30
0.0
 11
220.022963087
 21
165.1311624573
 31
0.0
  0
LINE
  5
23D
330
1F
100
AcDbEntity
  8
0
  6
Continuous
 62
     7
370
    25
100
AcDbLine
 10
220.6739435735
 20
162.6311624573
 30
0.0
 11
220.6739435735
 21
165.1311624573
 31
0.0
  0
LINE
  5
23E
330
1F
100
AcDbEntity
  8
0
  6
Continuous
 62
     7
370
    25
100
AcDbLine
 10
220.022963087
 20
162.6311624573
 30
0.0
 11
220.6739435735
 21
162.6311624573
 31
0.0
  0
LINE
  5
23F
330
1F
100
AcDbEntity
  8
0
  6
Continuous
 62
     7
370
    25
100
AcDbLine
 10
209.1739435735
 20
162.6311624573
 30
0.0
 11
209.8249240599
 21
162.6311624573
 31
0.0
  0
LINE
  5
240
330
1F
100
AcDbEntity
  8
0
  6
Continuous
 62
     7
370
    25
100
AcDbLine
 10
209.1739435735
 20
165.1311624573
 30
0.0
 11
209.1739435735
 21
162.6311624573
 31
0.0
  0
LINE
  5
241
330
1F
100
AcDbEntity
  8
0
  6
Continuous
 62
     7
370
    25
100
AcDbLine
 10
209.8249240599
 20
165.1311624573
 30
0.0
 11
209.1739435735
 21
165.1311624573
 31
0.0
  0
ARC
  5
242
330
1F
100
AcDbEntity
  8
0
  6
Continuous
 62
     7
370
    25
100
AcDbCircle
 10
220.6739435735
 20
165.1311624573
 30
0.0
 40
0.25
100
AcDbArc
 50
0.0
 51
90.0
  0
LINE
  5
243
330
1F
100
AcDbEntity
  8
0
  6
Continuous
 62
     7
370
    25
100
AcDbLine
 10
220.9239435735
 20
165.1311624573
 30
0.0
 11
220.6739435735
 21
165.1311624573
 31
0.0
  0
LINE
  5
244
330
1F
100
AcDbEntity
  8
0
  6
Continuous
 62
     7
370
    25
100
AcDbLine
 10
220.6739435735
 20
165.1311624573
 30
0.0
 11
220.6739435735
 21
165.3811624573
 31
0.0
  0
LINE
  5
245
330
1F
100
AcDbEntity
  8
0
  6
Continuous
 62
     7
370
    25
100
AcDbLine
 10
209.1739435735
 20
165.3811624573
 30
0.0
 11
209.1739435735
 21
165.1311624573
 31
0.0
  0
LINE
  5
246
330
1F
100
AcDbEntity
  8
0
  6
Continuous
 62
     7
370
    25
100
AcDbLine
 10
209.1739435735
 20
165.3811624573
 30
0.0
 11
209.4467179984
 21
165.3811624573
 31
0.0
  0
LINE
  5
247
330
1F
100
AcDbEntity
  8
0
  6
Continuous
 62
     7
370
    25
100
AcDbLine
 10
209.1739435735
 20
165.1311624573
 30
0.0
 11
208.9239435735
 21
165.1311624573
 31
0.0
  0
ARC
  5
248
330
1F
100
AcDbEntity
  8
0
  6
Continuous
 62
     7
370
    25
100
AcDbCircle
 10
209.1739435735
 20
165.1311624573
 30
0.0
 40
0.25
100
AcDbArc
 50
90.0
 51
180.0
  0
LINE
  5
249
330
1F
100
AcDbEntity
  8
0
  6
Continuous
 62
     7
370
    25
100
AcDbLine
 10
220.4011691485
 20
165.3811624573
 30
0.0
 11
220.6739435735
 21
165.3811624573
 31
0.0
  0
LINE
  5
24A
330
1F
100
AcDbEntity
  8
0
  6
Continuous
 62
     7
370
    25
100
AcDbLine
 10
220.9239435735
 20
165.1311624573
 30
0.0
 11
220.9239435735
 21
162.6311624573
 31
0.0
  0
LINE
  5
24B
330
1F
100
AcDbEntity
  8
0
  6
Continuous
 62
     7
370
    25
100
AcDbLine
 10
220.6739435735
 20
162.6311624573
 30
0.0
 11
220.9239435735
 21
162.6311624573
 31
0.0
  0
LINE
  5
24C
330
1F
100
AcDbEntity
  8
0
  6
Continuous
 62
     7
370
    25
100
AcDbLine
 10
208.9239435735
 20
162.6311624573
 30
0.0
 11
209.1739435735
 21
162.6311624573
 31
0.0
  0
LINE
  5
24D
330
1F
100
AcDbEntity
  8
0
  6
Continuous
 62
     7
370
    25
100
AcDbLine
 10
208.9239435735
 20
162.6311624573
 30
0.0
 11
208.9239435735
 21
165.1311624573
 31
0.0
  0
ARC
  5
24E
330
1F
100
AcDbEntity
  8
0
  6
Continuous
 62
     7
370
    25
100
AcDbCircle
 10
220.6739435735
 20
162.6311624573
 30
0.0
 40
0.25
100
AcDbArc
 50
270.0
 51
0.0
  0
LINE
  5
24F
330
1F
100
AcDbEntity
  8
0
  6
Continuous
 62
     7
370
    25
100
AcDbLine
 10
220.6739435735
 20
162.3811624573
 30
0.0
 11
220.6739435735
 21
162.6311624573
 31
0.0
  0
LINE
  5
250
330
1F
100
AcDbEntity
  8
0
  6
Continuous
 62
     7
370
    25
100
AcDbLine
 10
209.4467179984
 20
162.3811624573
 30
0.0
 11
209.1739435735
 21
162.3811624573
 31
0.0
  0
LINE
  5
251
330
1F
100
AcDbEntity
  8
0
  6
Continuous
 62
     7
370
    25
100
AcDbLine
 10
209.1739435735
 20
162.6311624573
 30
0.0
 11
209.1739435735
 21
162.3811624573
 31
0.0
  0
LINE
  5
252
330
1F
100
AcDbEntity
  8
0
  6
Continuous
 62
     7
370
    25
100
AcDbLine
 10
220.6739435735
 20
162.3811624573
 30
0.0
 11
220.4011691485
 21
162.3811624573
 31
0.0
  0
ARC
  5
253
330
1F
100
AcDbEntity
  8
0
  6
Continuous
 62
     7
370
    25
100
AcDbCircle
 10
209.1739435735
 20
162.6311624573
 30
0.0
 40
0.25
100
AcDbArc
 50
180.0
 51
270.0
  0
LINE
  5
254
330
1F
100
AcDbEntity
  8
0
  6
Continuous
 62
     7
370
    25
100
AcDbLine
 10
234.9239435735
 20
160.6094631932
 30
0.0
 11
237.099380435
 21
160.3811624573
 31
0.0
  0
LINE
  5
255
330
1F
100
AcDbEntity
  8
0
  6
Continuous
 62
     7
370
    25
100
AcDbLine
 10
234.9239435735
 20
167.1528617213
 30
0.0
 11
234.9239435735
 21
160.6094631932
 31
0.0
  0
LINE
  5
256
330
1F
100
AcDbEntity
  8
0
  6
Continuous
 62
     7
370
    25
100
AcDbLine
 10
237.099380435
 20
167.3811624573
 30
0.0
 11
234.9239435735
 21
167.1528617213
 31
0.0
  0
LINE
  5
257
330
1F
100
AcDbEntity
  8
0
  6
Continuous
 62
     7
370
    25
100
AcDbLine
 10
254.9239435735
 20
167.3811624573
 30
0.0
 11
237.099380435
 21
167.3811624573
 31
0.0
  0
LINE
  5
258
330
1F
100
AcDbEntity
  8
0
  6
Continuous
 62
     7
370
    25
100
AcDbLine
 10
254.9239435735
 20
160.3811624573
 30
0.0
 11
254.9239435735
 21
167.3811624573
 31
0.0
  0
LINE
  5
259
330
1F
100
AcDbEntity
  8
0
  6
Continuous
 62
     7
370
    25
100
AcDbLine
 10
237.099380435
 20
160.3811624573
 30
0.0
 11
254.9239435735
 21
160.3811624573
 31
0.0
  0
LINE
  5
25A
330
1F
100
AcDbEntity
  8
0
  6
Continuous
 62
     7
370
    25
100
AcDbLine
 10
220.1477457478
 20
162.1601479765
 30
0.0
 11
220.2761547865
 21
162.3442896099
 31
0.0
  0
LINE
  5
25B
330
1F
100
AcDbEntity
  8
0
  6
Continuous
 62
     7
370
    25
100
AcDbLine
 10
220.2665874457
 20
165.4263801246
 30
0.0
 11
220.1477457478
 21
165.6021769381
 31
0.0
  0
LINE
  5
25C
330
1F
100
AcDbEntity
  8
0
  6
Continuous
 62
     7
370
    25
100
AcDbLine
 10
228.3405132271
 20
161.3003598217
 30
0.0
 11
228.3405132271
 21
166.4619650928
 31
0.0
  0
LINE
  5
25D
330
1F
100
AcDbEntity
  8
0
  6
Continuous
 62
     7
370
    25
100
AcDbLine
 10
228.3405132271
 20
161.3003598217
 30
0.0
 11
220.1477457478
 21
162.1601479764
 31
0.0
  0
LINE
  5
25E
330
1F
100
AcDbEntity
  8
0
  6
Continuous
 62
     7
370
    25
100
AcDbLine
 10
220.1477457478
 20
165.6021769381
 30
0.0
 11
228.3405132271
 21
166.4619650928
 31
0.0
  0
LINE
  5
25F
330
1F
100
AcDbEntity
  8
0
  6
Continuous
 62
     7
370
    25
100
AcDbLine
 10
234.9239435735
 20
160.6094631932
 30
0.0
 11
228.3405132271
 21
161.3003598217
 31
0.0
  0
LINE
  5
260
330
1F
100
AcDbEntity
  8
0
  6
Continuous
 62
     7
370
    25
100
AcDbLine
 10
228.3405132271
 20
166.4619650928
 30
0.0
 11
234.9239435735
 21
167.1528617213
 31
0.0
  0
ARC
  5
261
330
1F
100
AcDbEntity
  8
0
  6
Continuous
 62
     7
370
    25
100
AcDbCircle
 10
214.9239435735
 20
163.8811624573
 30
0.0
 40
7.450000000000667
100
AcDbArc
 50
53.0863788866
 51
306.9136211134
  0
ARC
  5
262
330
1F
100
AcDbEntity
  8
0
  6
Continuous
 62
     7
370
    25
100
AcDbCircle
 10
214.9239435735
 20
163.8811624573
 30
0.0
 40
7.207531252870806
100
AcDbArc
 50
15.3041237151
 51
58.9797515565
  0
ARC
  5
263
330
1F
100
AcDbEntity
  8
0
  6
Continuous
 62
     7
370
    25
100
AcDbCircle
 10
214.9239435735
 20
163.8811624573
 30
0.0
 40
7.207531252872461
100
AcDbArc
 50
301.0202484435
 51
344.6958762849
  0
ARC
  5
264
330
1F
100
AcDbEntity
  8
0
  6
Continuous
 62
     7
370
    25
100
AcDbCircle
 10
237.099380435
 20
232.3811624573
 30
0.0
 40
65.0
100
AcDbArc
 50
253.4999050078
 51
270.0
  0
ARC
  5
265
330
1F
100
AcDbEntity
  8
0
  6
Continuous
 62
     7
370
    25
100
AcDbCircle
 10
237.099380435
 20
95.3811624573
 30
0.0
 40
65.0
100
AcDbArc
 50
90.0
 51
106.5000949923
  0
LINE
  5
266
330
1F
100
AcDbEntity
  8
0
  6
Continuous
 62
     7
370
    25
100
AcDbLine
 10
207.4781393859
 20
163.6311624573
 30
0.0
 11
204.1016649787
 21
163.6311624573
 31
0.0
  0
LINE
  5
267
330
1F
100
AcDbEntity
  8
0
  6
Continuous
 62
     7
370
    25
100
AcDbLine
 10
204.1016649787
 20
164.1311624573
 30
0.0
 11
207.4781393859
 21
164.1311624573
 31
0.0
  0
INSERT
  5
273
330
1F
100
AcDbEntity
  8
FORMAT
100
AcDbBlockReference
  2
SW_CENTERMARKSYMBOL_1
 10
214.9239435735
 20
163.8811624573
 30
0.0
  0
LINE
  5
274
330
1F
100
AcDbEntity
  8
FORMAT
100
AcDbLine
 10
190.9239435735
 20
169.9596624573
 30
0.0
 11
199.4239435735
 21
169.9596624573
 31
0.0
  0
LINE
  5
275
330
1F
100
AcDbEntity
  8
FORMAT
100
AcDbLine
 10
190.9239435735
 20
157.8026624573
 30
0.0
 11
199.4239435735
 21
157.8026624573
 31
0.0
  0
LINE
  5
276
330
1F
100
AcDbEntity
  8
FORMAT
100
AcDbLine
 10
199.4239435735
 20
157.3026624573
 30
0.0
 11
199.4239435735
 21
170.4596624573
 31
0.0
  0
ENDSEC
  0
SECTION
  2
OBJECTS
  0
DICTIONARY
  5
C
330
0
100
AcDbDictionary
281
     1
  3
ACAD_GROUP
350
D
  3
ACAD_LAYOUT
350
1A
  3
ACAD_MLINESTYLE
350
17
  3
ACAD_PLOTSETTINGS
350
19
  3
ACAD_PLOTSTYLENAME
350
E
  3
ACAD_SCALELIST
350
47
  3
DWGPROPS
350
277
  0
DICTIONARY
  5
D
102
{ACAD_REACTORS
330
C
102
}
330
C
100
AcDbDictionary
281
     1
  0
DICTIONARY
  5
1A
102
{ACAD_REACTORS
330
C
102
}
330
C
100
AcDbDictionary
281
     1
  3
Layout1
350
1E
  3
Layout2
350
26
  3
Model
350
22
  0
DICTIONARY
  5
17
102
{ACAD_REACTORS
330
C
102
}
330
C
100
AcDbDictionary
281
     1
  3
Standard
350
18
  0
DICTIONARY
  5
19
102
{ACAD_REACTORS
330
C
102
}
330
C
100
AcDbDictionary
281
     1
  0
ACDBDICTIONARYWDFLT
  5
E
102
{ACAD_REACTORS
330
C
102
}
330
C
100
AcDbDictionary
281
     1
  3
Normal
350
F
100
AcDbDictionaryWithDefault
340
F
  0
DICTIONARY
  5
47
102
{ACAD_REACTORS
330
C
102
}
330
C
100
AcDbDictionary
281
     1
  3
A0
350
48
  3
A1
350
49
  3
A2
350
4A
  3
A3
350
4B
  3
A4
350
4C
  3
A5
350
4D
  3
A6
350
4E
  3
A7
350
4F
  3
A8
350
50
  3
A9
350
51
  3
B0
350
52
  3
B1
350
53
  3
B2
350
54
  3
B3
350
55
  3
B4
350
56
  3
B5
350
57
  3
B6
350
58
  0
XRECORD
  5
277
102
{ACAD_REACTORS
330
C
102
}
330
C
100
AcDbXrecord
280
     1
  1
DWGPROPS COOKIE
  2

  3

  4

  6

  7

  8
user28
  9

300
=
301
=
302
=
303
=
304
=
305
=
306
=
307
=
308
=
309
=
 40
0.0
 41
2460305.188803264
 42
2460305.188804155
  1

 90
        0
  0
LAYOUT
  5
1E
102
{ACAD_REACTORS
330
1A
102
}
330
1A
100
AcDbPlotSettings
  1

  2
none_device
  4

  6

 40
0.0
 41
0.0
 42
0.0
 43
0.0
 44
0.0
 45
0.0
 46
0.0
 47
0.0
 48
0.0
 49
0.0
140
0.0
141
0.0
142
1.0
143
1.0
 70
   688
 72
     1
 73
     0
 74
     5
  7

 75
    16
147
1.0
148
0.0
149
0.0
100
AcDbLayout
  1
Layout1
 70
     1
 71
     1
 10
0.0
 20
0.0
 11
420.0
 21
297.0
 12
0.0
 22
0.0
 32
0.0
 14
1.0000000000E+20
 24
1.0000000000E+20
 34
1.0000000000E+20
 15
-1.0000000000E+20
 25
-1.0000000000E+20
 35
-1.0000000000E+20
146
0.0
 13
0.0
 23
0.0
 33
0.0
 16
1.0
 26
0.0
 36
0.0
 17
0.0
 27
1.0
 37
0.0
 76
     0
330
1B
  0
LAYOUT
  5
26
102
{ACAD_REACTORS
330
1A
102
}
330
1A
100
AcDbPlotSettings
  1

  2
none_device
  4

  6

 40
0.0
 41
0.0
 42
0.0
 43
0.0
 44
0.0
 45
0.0
 46
0.0
 47
0.0
 48
0.0
 49
0.0
140
0.0
141
0.0
142
1.0
143
1.0
 70
   688
 72
     1
 73
     0
 74
     5
  7

 75
    16
147
1.0
148
0.0
149
0.0
100
AcDbLayout
  1
Layout2
 70
     1
 71
     2
 10
0.0
 20
0.0
 11
0.0
 21
0.0
 12
0.0
 22
0.0
 32
0.0
 14
0.0
 24
0.0
 34
0.0
 15
0.0
 25
0.0
 35
0.0
146
0.0
 13
0.0
 23
0.0
 33
0.0
 16
1.0
 26
0.0
 36
0.0
 17
0.0
 27
1.0
 37
0.0
 76
     0
330
23
  0
LAYOUT
  5
22
102
{ACAD_REACTORS
330
1A
102
}
330
1A
100
AcDbPlotSettings
  1

  2
none_device
  4
Letter_(8.50_x_11.00_Inches)
  6

 40
6.35
 41
6.35
 42
6.35000508
 43
6.35000508
 44
215.9
 45
279.4
 46
0.0
 47
0.0
 48
0.0
 49
0.0
140
0.0
141
0.0
142
1.0
143
1.0
 70
  1712
 72
     1
 73
     0
 74
     0
  7

 75
     0
147
1.0
148
0.0
149
0.0
100
AcDbLayout
  1
Model
 70
     1
 71
     0
 10
0.0
 20
0.0
 11
594.0
 21
420.0
 12
0.0
 22
0.0
 32
0.0
 14
0.0
 24
0.0
 34
0.0
 15
594.0
 25
420.0
 35
0.0
146
0.0
 13
0.0
 23
0.0
 33
0.0
 16
1.0
 26
0.0
 36
0.0
 17
0.0
 27
1.0
 37
0.0
 76
     0
330
1F
331
29
  0
MLINESTYLE
  5
18
102
{ACAD_REACTORS
330
17
102
}
330
17
100
AcDbMlineStyle
  2
Standard
 70
     0
  3

 62
   256
 51
90.0
 52
90.0
 71
     2
 49
0.5
 62
   256
  6
BYLAYER
 49
-0.5
 62
   256
  6
BYLAYER
  0
ACDBPLACEHOLDER
  5
F
102
{ACAD_REACTORS
330
E
102
}
330
E
  0
SCALE
  5
48
102
{ACAD_REACTORS
330
47
102
}
330
47
100
AcDbScale
 70
     0
300
1:1
140
1.0
141
1.0
290
     1
  0
SCALE
  5
49
102
{ACAD_REACTORS
330
47
102
}
330
47
100
AcDbScale
 70
     0
300
1:2
140
1.0
141
2.0
290
     0
  0
SCALE
  5
4A
102
{ACAD_REACTORS
330
47
102
}
330
47
100
AcDbScale
 70
     0
300
1:4
140
1.0
141
4.0
290
     0
  0
SCALE
  5
4B
102
{ACAD_REACTORS
330
47
102
}
330
47
100
AcDbScale
 70
     0
300
1:5
140
1.0
141
5.0
290
     0
  0
SCALE
  5
4C
102
{ACAD_REACTORS
330
47
102
}
330
47
100
AcDbScale
 70
     0
300
1:8
140
1.0
141
8.0
290
     0
  0
SCALE
  5
4D
102
{ACAD_REACTORS
330
47
102
}
330
47
100
AcDbScale
 70
     0
300
1:10
140
1.0
141
10.0
290
     0
  0
SCALE
  5
4E
102
{ACAD_REACTORS
330
47
102
}
330
47
100
AcDbScale
 70
     0
300
1:16
140
1.0
141
16.0
290
     0
  0
SCALE
  5
4F
102
{ACAD_REACTORS
330
47
102
}
330
47
100
AcDbScale
 70
     0
300
1:20
140
1.0
141
20.0
290
     0
  0
SCALE
  5
50
102
{ACAD_REACTORS
330
47
102
}
330
47
100
AcDbScale
 70
     0
300
1:30
140
1.0
141
30.0
290
     0
  0
SCALE
  5
51
102
{ACAD_REACTORS
330
47
102
}
330
47
100
AcDbScale
 70
     0
300
1:40
140
1.0
141
40.0
290
     0
  0
SCALE
  5
52
102
{ACAD_REACTORS
330
47
102
}
330
47
100
AcDbScale
 70
     0
300
1:50
140
1.0
141
50.0
290
     0
  0
SCALE
  5
53
102
{ACAD_REACTORS
330
47
102
}
330
47
100
AcDbScale
 70
     0
300
1:100
140
1.0
141
100.0
290
     0
  0
SCALE
  5
54
102
{ACAD_REACTORS
330
47
102
}
330
47
100
AcDbScale
 70
     0
300
2:1
140
2.0
141
1.0
290
     0
  0
SCALE
  5
55
102
{ACAD_REACTORS
330
47
102
}
330
47
100
AcDbScale
 70
     0
300
4:1
140
4.0
141
1.0
290
     0
  0
SCALE
  5
56
102
{ACAD_REACTORS
330
47
102
}
330
47
100
AcDbScale
 70
     0
300
8:1
140
8.0
141
1.0
290
     0
  0
SCALE
  5
57
102
{ACAD_REACTORS
330
47
102
}
330
47
100
AcDbScale
 70
     0
300
10:1
140
10.0
141
1.0
290
     0
  0
SCALE
  5
58
102
{ACAD_REACTORS
330
47
102
}
330
47
100
AcDbScale
 70
     0
300
100:1
140
100.0
141
1.0
290
     0
  0
ENDSEC
  0
EOF
