  0
SECTION
  2
HEADER
  9
$ACADVER
  1
AC1015
  9
$ACADMAINTVER
 70
     6
  9
$DWGCODEPAGE
  3
DOS932
  9
$INSBASE
 10
0.0
 20
0.0
 30
0.0
  9
$EXTMIN
 10
0.0
 20
0.0
 30
0.0
  9
$EXTMAX
 10
594.0
 20
420.0
 30
0.0
  9
$LIMMIN
 10
0.0
 20
0.0
  9
$LIMMAX
 10
594.0
 20
420.0
  9
$ORTHOMODE
 70
     0
  9
$REGENMODE
 70
     1
  9
$FILLMODE
 70
     1
  9
$QTEXTMODE
 70
     0
  9
$MIRRTEXT
 70
     1
  9
$LTSCALE
 40
2.0
  9
$ATTMODE
 70
     1
  9
$TEXTSIZE
 40
7.0555555556
  9
$TRACEWID
 40
1.0
  9
$TEXTSTYLE
  7
Standard
  9
$CLAYER
  8
0
  9
$CELTYPE
  6
ByLayer
  9
$CECOLOR
 62
   256
  9
$CELTSCALE
 40
1.0
  9
$DISPSILH
 70
     0
  9
$DIMSCALE
 40
1.0
  9
$DIMASZ
 40
5.45703125
  9
$DIMEXO
 40
2.0
  9
$DIMDLI
 40
3.75
  9
$DIMRND
 40
0.0
  9
$DIMDLE
 40
0.0
  9
$DIMEXE
 40
2.0
  9
$DIMTP
 40
0.0
  9
$DIMTM
 40
0.0
  9
$DIMTXT
 40
7.0555555556
  9
$DIMCEN
 40
2.5
  9
$DIMTSZ
 40
0.0
  9
$DIMTOL
 70
     0
  9
$DIMLIM
 70
     0
  9
$DIMTIH
 70
     1
  9
$DIMTOH
 70
     1
  9
$DIMSE1
 70
     0
  9
$DIMSE2
 70
     0
  9
$DIMTAD
 70
     1
  9
$DIMZIN
 70
     0
  9
$DIMBLK
  1

  9
$DIMASO
 70
     1
  9
$DIMSHO
 70
     1
  9
$DIMPOST
  1

  9
$DIMAPOST
  1

  9
$DIMALT
 70
     0
  9
$DIMALTD
 70
     3
  9
$DIMALTF
 40
0.0393700787
  9
$DIMLFAC
 40
1.0
  9
$DIMTOFL
 70
     1
  9
$DIMTVP
 40
0.0
  9
$DIMTIX
 70
     0
  9
$DIMSOXD
 70
     0
  9
$DIMSAH
 70
     0
  9
$DIMBLK1
  1

  9
$DIMBLK2
  1

  9
$DIMSTYLE
  2
ISO-25
  9
$DIMCLRD
 70
     0
  9
$DIMCLRE
 70
     0
  9
$DIMCLRT
 70
     0
  9
$DIMTFAC
 40
1.0
  9
$DIMGAP
 40
3.048
  9
$DIMJUST
 70
     0
  9
$DIMSD1
 70
     0
  9
$DIMSD2
 70
     0
  9
$DIMTOLJ
 70
     0
  9
$DIMTZIN
 70
     0
  9
$DIMALTZ
 70
     0
  9
$DIMALTTZ
 70
     0
  9
$DIMUPT
 70
     0
  9
$DIMDEC
 70
     2
  9
$DIMTDEC
 70
     2
  9
$DIMALTU
 70
     2
  9
$DIMALTTD
 70
     3
  9
$DIMTXSTY
  7
Standard
  9
$DIMAUNIT
 70
     0
  9
$DIMADEC
 70
     2
  9
$DIMALTRND
 40
0.0
  9
$DIMAZIN
 70
     0
  9
$DIMDSEP
 70
    44
  9
$DIMATFIT
 70
     3
  9
$DIMFRAC
 70
     0
  9
$DIMLDRBLK
  1

  9
$DIMLUNIT
 70
     2
  9
$DIMLWD
 70
    -2
  9
$DIMLWE
 70
    -2
  9
$DIMTMOVE
 70
     0
  9
$LUNITS
 70
     2
  9
$LUPREC
 70
     2
  9
$SKETCHINC
 40
1.0
  9
$FILLETRAD
 40
0.0
  9
$AUNITS
 70
     0
  9
$AUPREC
 70
     2
  9
$MENU
  1
.
  9
$ELEVATION
 40
0.0
  9
$PELEVATION
 40
0.0
  9
$THICKNESS
 40
0.0
  9
$LIMCHECK
 70
     0
  9
$CHAMFERA
 40
0.0
  9
$CHAMFERB
 40
0.0
  9
$CHAMFERC
 40
0.0
  9
$CHAMFERD
 40
0.0
  9
$SKPOLY
 70
     0
  9
$TDCREATE
 40
2460305.561876273
  9
$TDUCREATE
 40
2460305.186876273
  9
$TDUPDATE
 40
2460305.561876944
  9
$TDUUPDATE
 40
2460305.186876944
  9
$TDINDWG
 40
0.0000000116
  9
$TDUSRTIMER
 40
0.0000000116
  9
$USRTIMER
 70
     1
  9
$ANGBASE
 50
0.0
  9
$ANGDIR
 70
     0
  9
$PDMODE
 70
     0
  9
$PDSIZE
 40
-1.0
  9
$PLINEWID
 40
0.0
  9
$SPLFRAME
 70
     0
  9
$SPLINETYPE
 70
     6
  9
$SPLINESEGS
 70
     8
  9
$HANDSEED
  5
273
  9
$SURFTAB1
 70
     6
  9
$SURFTAB2
 70
     6
  9
$SURFTYPE
 70
     6
  9
$SURFU
 70
     6
  9
$SURFV
 70
     6
  9
$UCSBASE
  2

  9
$UCSNAME
  2

  9
$UCSORG
 10
0.0
 20
0.0
 30
0.0
  9
$UCSXDIR
 10
1.0
 20
0.0
 30
0.0
  9
$UCSYDIR
 10
0.0
 20
1.0
 30
0.0
  9
$UCSORTHOREF
  2

  9
$UCSORTHOVIEW
 70
     0
  9
$UCSORGTOP
 10
0.0
 20
0.0
 30
0.0
  9
$UCSORGBOTTOM
 10
0.0
 20
0.0
 30
0.0
  9
$UCSORGLEFT
 10
0.0
 20
0.0
 30
0.0
  9
$UCSORGRIGHT
 10
0.0
 20
0.0
 30
0.0
  9
$UCSORGFRONT
 10
0.0
 20
0.0
 30
0.0
  9
$UCSORGBACK
 10
0.0
 20
0.0
 30
0.0
  9
$PUCSBASE
  2

  9
$PUCSNAME
  2

  9
$PUCSORG
 10
0.0
 20
0.0
 30
0.0
  9
$PUCSXDIR
 10
1.0
 20
0.0
 30
0.0
  9
$PUCSYDIR
 10
0.0
 20
1.0
 30
0.0
  9
$PUCSORTHOREF
  2

  9
$PUCSORTHOVIEW
 70
     0
  9
$PUCSORGTOP
 10
0.0
 20
0.0
 30
0.0
  9
$PUCSORGBOTTOM
 10
0.0
 20
0.0
 30
0.0
  9
$PUCSORGLEFT
 10
0.0
 20
0.0
 30
0.0
  9
$PUCSORGRIGHT
 10
0.0
 20
0.0
 30
0.0
  9
$PUCSORGFRONT
 10
0.0
 20
0.0
 30
0.0
  9
$PUCSORGBACK
 10
0.0
 20
0.0
 30
0.0
  9
$USERI1
 70
     0
  9
$USERI2
 70
     0
  9
$USERI3
 70
     0
  9
$USERI4
 70
     0
  9
$USERI5
 70
     0
  9
$USERR1
 40
0.0
  9
$USERR2
 40
0.0
  9
$USERR3
 40
0.0
  9
$USERR4
 40
0.0
  9
$USERR5
 40
0.0
  9
$WORLDVIEW
 70
     1
  9
$SHADEDGE
 70
     3
  9
$SHADEDIF
 70
    70
  9
$TILEMODE
 70
     1
  9
$MAXACTVP
 70
    64
  9
$PINSBASE
 10
0.0
 20
0.0
 30
0.0
  9
$PLIMCHECK
 70
     0
  9
$PEXTMIN
 10
1.0000000000E+20
 20
1.0000000000E+20
 30
1.0000000000E+20
  9
$PEXTMAX
 10
-1.0000000000E+20
 20
-1.0000000000E+20
 30
-1.0000000000E+20
  9
$PLIMMIN
 10
0.0
 20
0.0
  9
$PLIMMAX
 10
420.0
 20
297.0
  9
$UNITMODE
 70
     0
  9
$VISRETAIN
 70
     1
  9
$PLINEGEN
 70
     0
  9
$PSLTSCALE
 70
     1
  9
$TREEDEPTH
 70
  3020
  9
$CMLSTYLE
  2
Standard
  9
$CMLJUST
 70
     0
  9
$CMLSCALE
 40
20.0
  9
$PROXYGRAPHICS
 70
     1
  9
$MEASUREMENT
 70
     1
  9
$CELWEIGHT
370
    -1
  9
$ENDCAPS
280
     0
  9
$JOINSTYLE
280
     0
  9
$LWDISPLAY
290
     1
  9
$INSUNITS
 70
     4
  9
$HYPERLINKBASE
  1

  9
$STYLESHEET
  1

  9
$XEDIT
290
     1
  9
$CEPSNTYPE
380
     0
  9
$PSTYLEMODE
290
     1
  9
$FINGERPRINTGUID
  2
{8389e847-05e9-4ee1-8709-4f548105b4ae}
  9
$VERSIONGUID
  2
{FAEB1C32-E019-11D5-929B-00C0DF256EC4}
  9
$EXTNAMES
290
     1
  9
$PSVPSCALE
 40
0.0
  9
$OLESTARTUP
290
     0
  0
ENDSEC
  0
SECTION
  2
CLASSES
  0
CLASS
  1
ACDBDICTIONARYWDFLT
  2
AcDbDictionaryWithDefault
  3
ObjectDBX Classes
 90
        0
280
     0
281
     0
  0
CLASS
  1
VISUALSTYLE
  2
AcDbVisualStyle
  3
ObjectDBX Classes
 90
     4095
280
     0
281
     0
  0
CLASS
  1
MATERIAL
  2
AcDbMaterial
  3
ObjectDBX Classes
 90
     1153
280
     0
281
     0
  0
CLASS
  1
SCALE
  2
AcDbScale
  3
ObjectDBX Classes
 90
     1153
280
     0
281
     0
  0
CLASS
  1
TABLESTYLE
  2
AcDbTableStyle
  3
ObjectDBX Classes
 90
     4095
280
     0
281
     0
  0
CLASS
  1
MLEADERSTYLE
  2
AcDbMLeaderStyle
  3
ACDB_MLEADERSTYLE_CLASS
 90
     4095
280
     0
281
     0
  0
CLASS
  1
SUN
  2
AcDbSun
  3
SCENEOE
 90
     1153
280
     0
281
     0
  0
CLASS
  1
ACDBPLACEHOLDER
  2
AcDbPlaceHolder
  3
ObjectDBX Classes
 90
        0
280
     0
281
     0
  0
CLASS
  1
LAYOUT
  2
AcDbLayout
  3
ObjectDBX Classes
 90
        0
280
     0
281
     0
  0
ENDSEC
  0
SECTION
  2
TABLES
  0
TABLE
  2
VPORT
  5
8
330
0
100
AcDbSymbolTable
 70
     1
  0
VPORT
  5
29
330
8
100
AcDbSymbolTableRecord
100
AcDbViewportTableRecord
  2
*Active
 70
     0
 10
0.0
 20
0.0
 11
1.0
 21
1.0
 12
297.0
 22
210.0
 13
0.0
 23
0.0
 14
10.0
 24
10.0
 15
10.0
 25
10.0
 16
0.0
 26
0.0
 36
1.0
 17
0.0
 27
0.0
 37
0.0
 40
420.0
 41
1.4142857143
 42
50.0
 43
0.0
 44
0.0
 50
0.0
 51
0.0
 71
     0
 72
  2000
 73
     1
 74
     3
 75
     0
 76
     0
 77
     0
 78
     0
281
     0
 65
     1
110
0.0
120
0.0
130
0.0
111
1.0
121
0.0
131
0.0
112
0.0
122
1.0
132
0.0
 79
     0
146
0.0
  0
ENDTAB
  0
TABLE
  2
LTYPE
  5
5
330
0
100
AcDbSymbolTable
 70
     6
  0
LTYPE
  5
14
330
5
100
AcDbSymbolTableRecord
100
AcDbLinetypeTableRecord
  2
ByBlock
 70
     0
  3

 72
    65
 73
     0
 40
0.0
  0
LTYPE
  5
15
330
5
100
AcDbSymbolTableRecord
100
AcDbLinetypeTableRecord
  2
ByLayer
 70
     0
  3

 72
    65
 73
     0
 40
0.0
  0
LTYPE
  5
16
330
5
100
AcDbSymbolTableRecord
100
AcDbLinetypeTableRecord
  2
Continuous
 70
     0
  3
Solid line
 72
    65
 73
     0
 40
0.0
  0
LTYPE
  5
5E
330
5
100
AcDbSymbolTableRecord
100
AcDbLinetypeTableRecord
  2
HIDDEN
 70
     0
  3
Hidden __ __ __ __ __ __ __ __ __ __ __ __ __ __
 72
    65
 73
     2
 40
1.905
 49
1.27
 74
     0
 49
-0.635
 74
     0
  0
LTYPE
  5
5F
330
5
100
AcDbSymbolTableRecord
100
AcDbLinetypeTableRecord
  2
PHANTOM
 70
     0
  3
Phantom ______  __  __  ______  __  __  ______
 72
    65
 73
     6
 40
12.7
 49
6.35
 74
     0
 49
-1.27
 74
     0
 49
1.27
 74
     0
 49
-1.27
 74
     0
 49
1.27
 74
     0
 49
-1.27
 74
     0
  0
LTYPE
  5
60
330
5
100
AcDbSymbolTableRecord
100
AcDbLinetypeTableRecord
  2
CENTER
 70
     0
  3
Center ____ _ ____ _ ____ _ ____ _ ____ _ ____
 72
    65
 73
     4
 40
10.16
 49
6.35
 74
     0
 49
-1.27
 74
     0
 49
1.27
 74
     0
 49
-1.27
 74
     0
  0
LTYPE
  5
61
330
5
100
AcDbSymbolTableRecord
100
AcDbLinetypeTableRecord
  2
CENTERX2
 70
     0
  3
Center (2x) ________  __  ________  __  _____
 72
    65
 73
     4
 40
20.32
 49
12.7
 74
     0
 49
-2.54
 74
     0
 49
2.54
 74
     0
 49
-2.54
 74
     0
  0
LTYPE
  5
62
330
5
100
AcDbSymbolTableRecord
100
AcDbLinetypeTableRecord
  2
DOT2
 70
     0
  3
Dot (.5x) ........................................
 72
    65
 73
     2
 40
0.635
 49
0.0
 74
     0
 49
-0.635
 74
     0
  0
ENDTAB
  0
TABLE
  2
LAYER
  5
2
330
0
100
AcDbSymbolTable
 70
     2
  0
LAYER
  5
10
330
2
100
AcDbSymbolTableRecord
100
AcDbLayerTableRecord
  2
0
 70
     0
 62
     7
  6
Continuous
370
    -3
390
F
  0
LAYER
  5
63
330
2
100
AcDbSymbolTableRecord
100
AcDbLayerTableRecord
  2
FORMAT
 70
     0
 62
     7
  6
Continuous
370
    -3
390
F
  0
ENDTAB
  0
TABLE
  2
STYLE
  5
3
330
0
100
AcDbSymbolTable
 70
     2
  0
STYLE
  5
11
330
3
100
AcDbSymbolTableRecord
100
AcDbTextStyleTableRecord
  2
Standard
 70
     0
 40
0.0
 41
1.0
 50
0.0
 71
     0
 42
7.0555555556
  3
txt
  4
bigfont
  0
STYLE
  5
64
330
3
100
AcDbSymbolTableRecord
100
AcDbTextStyleTableRecord
  2
SLDTEXTSTYLE0
 70
     0
 40
0.0
 41
0.7
 50
0.0
 71
     0
 42
7.0555555556
  3
TXT
  4
bigfont
  0
ENDTAB
  0
TABLE
  2
VIEW
  5
6
330
0
100
AcDbSymbolTable
 70
     0
  0
ENDTAB
  0
TABLE
  2
UCS
  5
7
330
0
100
AcDbSymbolTable
 70
     0
  0
ENDTAB
  0
TABLE
  2
APPID
  5
9
330
0
100
AcDbSymbolTable
 70
     1
  0
APPID
  5
12
330
9
100
AcDbSymbolTableRecord
100
AcDbRegAppTableRecord
  2
ACAD
 70
     0
  0
ENDTAB
  0
TABLE
  2
DIMSTYLE
  5
A
330
0
100
AcDbSymbolTable
 70
     1
100
AcDbDimStyleTable
  0
DIMSTYLE
105
27
330
A
100
AcDbSymbolTableRecord
100
AcDbDimStyleTableRecord
  2
ISO-25
 70
     0
 41
2.5
 42
0.625
 43
3.75
 44
1.25
 73
     0
 74
     0
 77
     1
 78
     8
140
2.5
141
2.5
143
0.0393700787
147
0.625
171
     3
172
     1
178
     0
271
     2
272
     2
274
     3
278
    44
283
     0
284
     8
340
11
  0
ENDTAB
  0
TABLE
  2
BLOCK_RECORD
  5
1
330
0
100
AcDbSymbolTable
 70
     3
  0
BLOCK_RECORD
  5
1F
330
1
100
AcDbSymbolTableRecord
100
AcDbBlockTableRecord
  2
*Model_Space
340
22
  0
BLOCK_RECORD
  5
1B
330
1
100
AcDbSymbolTableRecord
100
AcDbBlockTableRecord
  2
*Paper_Space
340
1E
  0
BLOCK_RECORD
  5
23
330
1
100
AcDbSymbolTableRecord
100
AcDbBlockTableRecord
  2
*Paper_Space0
340
26
  0
BLOCK_RECORD
  5
1D2
330
1
100
AcDbSymbolTableRecord
100
AcDbBlockTableRecord
  2
SW_CENTERMARKSYMBOL_0
340
0
102
{BLKREFS
331
1DD
102
}
  0
BLOCK_RECORD
  5
264
330
1
100
AcDbSymbolTableRecord
100
AcDbBlockTableRecord
  2
SW_CENTERMARKSYMBOL_1
340
0
102
{BLKREFS
331
26F
102
}
  0
ENDTAB
  0
ENDSEC
  0
SECTION
  2
BLOCKS
  0
BLOCK
  5
20
330
1F
100
AcDbEntity
  8
0
100
AcDbBlockBegin
  2
*Model_Space
 70
     0
 10
0.0
 20
0.0
 30
0.0
  3
*Model_Space
  1

  0
ENDBLK
  5
21
330
1F
100
AcDbEntity
  8
0
100
AcDbBlockEnd
  0
BLOCK
  5
1C
330
1B
100
AcDbEntity
 67
     1
  8
0
100
AcDbBlockBegin
  2
*Paper_Space
 70
     0
 10
0.0
 20
0.0
 30
0.0
  3
*Paper_Space
  1

  0
ENDBLK
  5
1D
330
1B
100
AcDbEntity
 67
     1
  8
0
100
AcDbBlockEnd
  0
BLOCK
  5
24
330
23
100
AcDbEntity
  8
0
100
AcDbBlockBegin
  2
*Paper_Space0
 70
     0
 10
0.0
 20
0.0
 30
0.0
  3
*Paper_Space0
  1

  0
ENDBLK
  5
25
330
23
100
AcDbEntity
  8
0
100
AcDbBlockEnd
  0
BLOCK
  5
1D3
330
1D2
100
AcDbEntity
  8
0
100
AcDbBlockBegin
  2
SW_CENTERMARKSYMBOL_0
 70
     0
 10
0.0
 20
0.0
 30
0.0
  3
SW_CENTERMARKSYMBOL_0
  1

  0
LINE
  5
1D5
330
1D2
100
AcDbEntity
  8
FORMAT
 62
     0
100
AcDbLine
 10
0.0
 20
0.0
 30
0.0
 11
0.0
 21
2.5
 31
0.0
  0
LINE
  5
1D6
330
1D2
100
AcDbEntity
  8
FORMAT
 62
     0
100
AcDbLine
 10
0.0
 20
0.0
 30
0.0
 11
-2.5
 21
0.0
 31
0.0
  0
LINE
  5
1D7
330
1D2
100
AcDbEntity
  8
FORMAT
 62
     0
100
AcDbLine
 10
0.0
 20
0.0
 30
0.0
 11
0.0
 21
-2.5
 31
0.0
  0
LINE
  5
1D8
330
1D2
100
AcDbEntity
  8
FORMAT
 62
     0
100
AcDbLine
 10
0.0
 20
0.0
 30
0.0
 11
2.5
 21
0.0
 31
0.0
  0
LINE
  5
1D9
330
1D2
100
AcDbEntity
  8
FORMAT
 62
     0
100
AcDbLine
 10
0.0
 20
5.0
 30
0.0
 11
0.0
 21
30.0778169221
 31
0.0
  0
LINE
  5
1DA
330
1D2
100
AcDbEntity
  8
FORMAT
 62
     0
100
AcDbLine
 10
-5.0
 20
0.0
 30
0.0
 11
-10.75
 21
0.0
 31
0.0
  0
LINE
  5
1DB
330
1D2
100
AcDbEntity
  8
FORMAT
 62
     0
100
AcDbLine
 10
0.0
 20
-5.0
 30
0.0
 11
0.0
 21
-24.8780709043
 31
0.0
  0
LINE
  5
1DC
330
1D2
100
AcDbEntity
  8
FORMAT
 62
     0
100
AcDbLine
 10
5.0
 20
0.0
 30
0.0
 11
10.75
 21
0.0
 31
0.0
  0
ENDBLK
  5
1D4
330
1D2
100
AcDbEntity
  8
0
100
AcDbBlockEnd
  0
BLOCK
  5
265
330
264
100
AcDbEntity
  8
0
100
AcDbBlockBegin
  2
SW_CENTERMARKSYMBOL_1
 70
     0
 10
0.0
 20
0.0
 30
0.0
  3
SW_CENTERMARKSYMBOL_1
  1

  0
LINE
  5
267
330
264
100
AcDbEntity
  8
FORMAT
 62
     0
100
AcDbLine
 10
0.0
 20
0.0
 30
0.0
 11
0.0
 21
2.5
 31
0.0
  0
LINE
  5
268
330
264
100
AcDbEntity
  8
FORMAT
 62
     0
100
AcDbLine
 10
0.0
 20
0.0
 30
0.0
 11
-2.5
 21
0.0
 31
0.0
  0
LINE
  5
269
330
264
100
AcDbEntity
  8
FORMAT
 62
     0
100
AcDbLine
 10
0.0
 20
0.0
 30
0.0
 11
0.0
 21
-2.5
 31
0.0
  0
LINE
  5
26A
330
264
100
AcDbEntity
  8
FORMAT
 62
     0
100
AcDbLine
 10
0.0
 20
0.0
 30
0.0
 11
2.5
 21
0.0
 31
0.0
  0
LINE
  5
26B
330
264
100
AcDbEntity
  8
FORMAT
 62
     0
100
AcDbLine
 10
0.0
 20
5.0
 30
0.0
 11
0.0
 21
9.95
 31
0.0
  0
LINE
  5
26C
330
264
100
AcDbEntity
  8
FORMAT
 62
     0
100
AcDbLine
 10
-5.0
 20
0.0
 30
0.0
 11
-25.4044980794
 21
0.0
 31
0.0
  0
LINE
  5
26D
330
264
100
AcDbEntity
  8
FORMAT
 62
     0
100
AcDbLine
 10
0.0
 20
-5.0
 30
0.0
 11
0.0
 21
-9.95
 31
0.0
  0
LINE
  5
26E
330
264
100
AcDbEntity
  8
FORMAT
 62
     0
100
AcDbLine
 10
5.0
 20
0.0
 30
0.0
 11
41.0888595335
 21
0.0
 31
0.0
  0
ENDBLK
  5
266
330
264
100
AcDbEntity
  8
0
100
AcDbBlockEnd
  0
ENDSEC
  0
SECTION
  2
ENTITIES
  0
MTEXT
  5
65
330
1F
100
AcDbEntity
  8
FORMAT
100
AcDbMText
 10
249.299273825
 20
145.4587774003
 30
0.0
 40
5.2916666667
 41
0.0
 71
     1
 72
     1
  1
エースボール　アングル型
  7
SLDTEXTSTYLE0
 73
     1
 44
1.0
  0
MTEXT
  5
66
330
1F
100
AcDbEntity
  8
FORMAT
100
AcDbMText
 10
249.299273825
 20
136.4032216022
 30
0.0
 40
5.2916666667
 41
0.0
 71
     1
 72
     1
  1
BS-3011R
  7
SLDTEXTSTYLE0
 73
     1
 44
1.0
  0
LINE
  5
67
330
1F
100
AcDbEntity
  8
0
  6
Continuous
 62
     7
370
    25
100
AcDbLine
 10
212.2822395073
 20
116.7567977056
 30
0.0
 11
210.3322395072
 21
108.7567977056
 31
0.0
  0
LINE
  5
68
330
1F
100
AcDbEntity
  8
0
  6
Continuous
 62
     7
370
    25
100
AcDbLine
 10
210.3322395072
 20
108.7567977056
 30
0.0
 11
210.7822395072
 21
100.7567977056
 31
0.0
  0
LINE
  5
69
330
1F
100
AcDbEntity
  8
0
  6
Continuous
 62
     7
370
    25
100
AcDbLine
 10
224.7822395072
 20
100.7567977056
 30
0.0
 11
224.852896133
 21
102.012915497
 31
0.0
  0
LINE
  5
6A
330
1F
100
AcDbEntity
  8
0
  6
Continuous
 62
     7
370
    25
100
AcDbLine
 10
223.5354710418
 20
115.7178991025
 30
0.0
 11
223.2822395072
 21
116.7567977056
 31
0.0
  0
LINE
  5
6B
330
1F
100
AcDbEntity
  8
0
  6
Continuous
 62
     7
370
    25
100
AcDbLine
 10
206.2822395072
 20
98.2567977056
 30
0.0
 11
203.4822395072
 21
98.2567977056
 31
0.0
  0
LINE
  5
6C
330
1F
100
AcDbEntity
  8
0
  6
Continuous
 62
     7
370
    25
100
AcDbLine
 10
203.4822395072
 20
82.2567977056
 30
0.0
 11
206.2822395072
 21
82.2567977056
 31
0.0
  0
LINE
  5
6D
330
1F
100
AcDbEntity
  8
0
  6
Continuous
 62
     7
370
    25
100
AcDbLine
 10
203.4822395072
 20
98.2567977056
 30
0.0
 11
203.2822395072
 21
98.0567977056
 31
0.0
  0
LINE
  5
6E
330
1F
100
AcDbEntity
  8
0
  6
Continuous
 62
     7
370
    25
100
AcDbLine
 10
203.2822395072
 20
82.4567977056
 30
0.0
 11
203.4822395072
 21
82.2567977056
 31
0.0
  0
LINE
  5
6F
330
1F
100
AcDbEntity
  8
0
  6
Continuous
 62
     7
370
    25
100
AcDbLine
 10
193.7822395072
 20
95.1207977056
 30
0.0
 11
193.2822395072
 21
94.6207977056
 31
0.0
  0
LINE
  5
70
330
1F
100
AcDbEntity
  8
0
  6
Continuous
 62
     7
370
    25
100
AcDbLine
 10
193.2822395072
 20
85.8927977056
 30
0.0
 11
193.7822395072
 21
85.3927977056
 31
0.0
  0
LINE
  5
71
330
1F
100
AcDbEntity
  8
0
  6
Continuous
 62
     7
370
    25
100
AcDbLine
 10
203.2822395072
 20
95.1207977056
 30
0.0
 11
193.7822395072
 21
95.1207977056
 31
0.0
  0
LINE
  5
72
330
1F
100
AcDbEntity
  8
0
  6
Continuous
 62
     7
370
    25
100
AcDbLine
 10
193.7822395072
 20
85.3927977056
 30
0.0
 11
203.2822395072
 21
85.3927977056
 31
0.0
  0
LINE
  5
73
330
1F
100
AcDbEntity
  8
0
  6
Continuous
 62
     7
370
    25
100
AcDbLine
 10
228.9233707601
 20
80.5191933986
 30
0.0
 11
229.7822395072
 21
82.0067977056
 31
0.0
  0
LINE
  5
74
330
1F
100
AcDbEntity
  8
0
  6
Continuous
 62
     7
370
    25
100
AcDbLine
 10
229.7822395072
 20
98.5067977056
 30
0.0
 11
228.9233707601
 21
99.9944020127
 31
0.0
  0
SPLINE
  5
75
330
1F
100
AcDbEntity
  8
0
  6
Continuous
 62
     7
370
    25
100
AcDbSpline
210
0.0
220
0.0
230
1.0
 70
     8
 71
     3
 72
    12
 73
     8
 74
     0
 42
0.00000001
 43
0.00000001
 40
0.0
 40
0.0
 40
0.0
 40
0.0
 40
0.1124729551091108
 40
0.3801815767707146
 40
0.6548624840006737
 40
0.9616932147832701
 40
1.0
 40
1.0
 40
1.0
 40
1.0
 10
211.8912448805699
 20
99.7564710718897
 30
0.0
 10
211.8928076026353
 20
99.72702129743658
 30
0.0
 10
211.8980899226234
 20
99.6274750405051
 30
0.0
 10
211.8623917800571
 20
99.45668232311571
 30
0.0
 10
211.7767548431426
 20
99.25214638465633
 30
0.0
 10
211.6881979926024
 20
99.11096602295514
 30
0.0
 10
211.6196556273942
 20
99.05196713545251
 30
0.0
 10
211.6120481157776
 20
99.045418853661
 30
0.0
  0
SPLINE
  5
76
330
1F
100
AcDbEntity
  8
0
  6
Continuous
 62
     7
370
    25
100
AcDbSpline
210
0.0
220
0.0
230
1.0
 70
     8
 71
     3
 72
    11
 73
     7
 74
     0
 42
0.00000001
 43
0.00000001
 40
0.0
 40
0.0
 40
0.0
 40
0.0
 40
0.2016826022989638
 40
0.499023674823364
 40
0.768728796220645
 40
1.0
 40
1.0
 40
1.0
 40
1.0
 10
223.9687520654245
 20
99.06161318983253
 30
0.0
 10
223.9329246905495
 20
99.09894348468362
 30
0.0
 10
223.8442769437156
 20
99.19130990948419
 30
0.0
 10
223.7528644338633
 20
99.3682513637605
 30
0.0
 10
223.6915168011112
 20
99.56462608394895
 30
0.0
 10
223.6854564034863
 20
99.69301210950687
 30
0.0
 10
223.6826586755625
 20
99.75228036069372
 30
0.0
  0
LINE
  5
77
330
1F
100
AcDbEntity
  8
0
  6
Continuous
 62
     7
370
    25
100
AcDbLine
 10
223.6822395072
 20
99.7522668856
 30
0.0
 11
223.6822395072
 21
100.7567977056
 31
0.0
  0
LINE
  5
78
330
1F
100
AcDbEntity
  8
0
  6
Continuous
 62
     7
370
    25
100
AcDbLine
 10
211.8822395072
 20
100.7567977056
 30
0.0
 11
211.8822395072
 21
99.7567977056
 31
0.0
  0
LINE
  5
79
330
1F
100
AcDbEntity
  8
0
  6
Continuous
 62
     7
370
    25
100
AcDbLine
 10
212.6829270072
 20
78.2567977056
 30
0.0
 11
212.9999598804
 21
68.1117457651
 31
0.0
  0
LINE
  5
7A
330
1F
100
AcDbEntity
  8
0
  6
Continuous
 62
     7
370
    25
100
AcDbLine
 10
222.5645191341
 20
68.1117457651
 30
0.0
 11
222.8815520072
 21
78.2567977056
 31
0.0
  0
LINE
  5
7B
330
1F
100
AcDbEntity
  8
0
  6
Continuous
 62
     7
370
    25
100
AcDbLine
 10
212.9999598804
 20
68.1117457651
 30
0.0
 11
213.7822395072
 21
66.7567977056
 31
0.0
  0
LINE
  5
7C
330
1F
100
AcDbEntity
  8
0
  6
Continuous
 62
     7
370
    25
100
AcDbLine
 10
221.7822395072
 20
66.7567977056
 30
0.0
 11
222.5645191341
 21
68.1117457651
 31
0.0
  0
LINE
  5
7D
330
1F
100
AcDbEntity
  8
0
  6
Continuous
 62
     7
370
    25
100
AcDbLine
 10
211.6120725999
 20
99.0515354349
 30
0.0
 11
211.0677083274
 21
99.9944020127
 31
0.0
  0
LINE
  5
7E
330
1F
100
AcDbEntity
  8
0
  6
Continuous
 62
     7
370
    25
100
AcDbLine
 10
226.2822395072
 20
78.2567977056
 30
0.0
 11
227.5198438143
 21
78.9713288855
 31
0.0
  0
LINE
  5
7F
330
1F
100
AcDbEntity
  8
0
  6
Continuous
 62
     7
370
    25
100
AcDbLine
 10
224.4967706871
 20
99.9944020127
 30
0.0
 11
223.9524064146
 21
99.0515354349
 31
0.0
  0
LINE
  5
80
330
1F
100
AcDbEntity
  8
0
  6
Continuous
 62
     7
370
    25
100
AcDbLine
 10
206.9967706871
 20
99.9944020127
 30
0.0
 11
206.2822395072
 21
98.7567977056
 31
0.0
  0
LINE
  5
81
330
1F
100
AcDbEntity
  8
0
  6
Continuous
 62
     7
370
    25
100
AcDbLine
 10
208.0446352002
 20
78.9713288855
 30
0.0
 11
209.2822395072
 21
78.2567977056
 31
0.0
  0
LINE
  5
82
330
1F
100
AcDbEntity
  8
0
  6
Continuous
 62
     7
370
    25
100
AcDbLine
 10
206.2822395072
 20
81.7567977056
 30
0.0
 11
206.9967706871
 21
80.5191933986
 31
0.0
  0
LINE
  5
83
330
1F
100
AcDbEntity
  8
0
  6
Continuous
 62
     7
370
    25
100
AcDbLine
 10
227.5198438143
 20
78.9687685041
 30
0.0
 11
227.5198438143
 21
80.5191933986
 31
0.0
  0
LINE
  5
84
330
1F
100
AcDbEntity
  8
0
  6
Continuous
 62
     7
370
    25
100
AcDbLine
 10
227.5198438143
 20
80.5191933986
 30
0.0
 11
228.9259388156
 21
80.5191933986
 31
0.0
  0
LINE
  5
85
330
1F
100
AcDbEntity
  8
0
  6
Continuous
 62
     7
370
    25
100
AcDbLine
 10
211.0702763829
 20
99.9944020127
 30
0.0
 11
206.9942103057
 21
99.9944020127
 31
0.0
  0
LINE
  5
86
330
1F
100
AcDbEntity
  8
0
  6
Continuous
 62
     7
370
    25
100
AcDbLine
 10
228.9259388156
 20
99.9944020127
 30
0.0
 11
224.4942026316
 21
99.9944020127
 31
0.0
  0
LINE
  5
87
330
1F
100
AcDbEntity
  8
0
  6
Continuous
 62
     7
370
    25
100
AcDbLine
 10
208.0446352002
 20
80.5191933986
 30
0.0
 11
208.0446352002
 21
78.9687685041
 31
0.0
  0
LINE
  5
88
330
1F
100
AcDbEntity
  8
0
  6
Continuous
 62
     7
370
    25
100
AcDbLine
 10
206.9942103057
 20
80.5191933986
 30
0.0
 11
208.0446352002
 21
80.5191933986
 31
0.0
  0
SPLINE
  5
89
330
1F
100
AcDbEntity
  8
0
  6
Continuous
 62
     7
370
    25
100
AcDbSpline
210
0.0
220
0.0
230
1.0
 70
     8
 71
     3
 72
    15
 73
    11
 74
     0
 42
0.00000001
 43
0.00000001
 40
0.0
 40
0.0
 40
0.0
 40
0.0
 40
0.0090459071881971
 40
0.1032433785236816
 40
0.1542564497735189
 40
0.31331690267151
 40
0.5243720399414428
 40
0.6678060008509183
 40
0.9918332554187028
 40
1.0
 40
1.0
 40
1.0
 40
1.0
 10
223.0213248399043
 20
117.3567977056367
 30
0.0
 10
223.0213191479376
 20
117.3584788042211
 30
0.0
 10
223.0212541839869
 20
117.3776656357767
 30
0.0
 10
223.019258497551
 20
117.4063599152966
 30
0.0
 10
223.0114415013345
 20
117.4570359552686
 30
0.0
 10
222.9942716775795
 20
117.5149122548455
 30
0.0
 10
222.967687781012
 20
117.5597777695802
 30
0.0
 10
222.9298584825234
 20
117.5971401528347
 30
0.0
 10
222.9015777025132
 20
117.6066861651042
 30
0.0
 10
222.8817465549818
 20
117.606795029291
 30
0.0
 10
222.881259020839
 20
117.6067977056367
 30
0.0
  0
LINE
  5
8A
330
1F
100
AcDbEntity
  8
0
  6
Continuous
 62
     7
370
    25
100
AcDbLine
 10
223.0213248399
 20
117.3567977056
 30
0.0
 11
212.5431541746
 21
117.3567977056
 31
0.0
  0
SPLINE
  5
8B
330
1F
100
AcDbEntity
  8
0
  6
Continuous
 62
     7
370
    25
100
AcDbSpline
210
0.0
220
0.0
230
1.0
 70
     8
 71
     3
 72
    15
 73
    11
 74
     0
 42
0.00000001
 43
0.00000001
 40
0.0
 40
0.0
 40
0.0
 40
0.0
 40
0.0081667445812973
 40
0.3321939991490804
 40
0.475627960058556
 40
0.6866830973284891
 40
0.8457435502264751
 40
0.8967566214763124
 40
0.9909540928118028
 40
1.0
 40
1.0
 40
1.0
 40
1.0
 10
212.6832199936534
 20
117.6067977056367
 30
0.0
 10
212.6827324595106
 20
117.6067950292909
 30
0.0
 10
212.6629013119793
 20
117.6066861651041
 30
0.0
 10
212.6346205319691
 20
117.5971401528347
 30
0.0
 10
212.5967912334804
 20
117.5597777695802
 30
0.0
 10
212.5702073369129
 20
117.5149122548455
 30
0.0
 10
212.5530375131579
 20
117.4570359552686
 30
0.0
 10
212.5452205169414
 20
117.4063599152966
 30
0.0
 10
212.5432248305056
 20
117.3776656357766
 30
0.0
 10
212.5431598665548
 20
117.3584788042211
 30
0.0
 10
212.5431541745881
 20
117.3567977056367
 30
0.0
  0
LINE
  5
8C
330
1F
100
AcDbEntity
  8
0
  6
Continuous
 62
     7
370
    25
100
AcDbLine
 10
212.6832199937
 20
117.6067977056
 30
0.0
 11
222.8812590208
 21
117.6067977056
 31
0.0
  0
LINE
  5
8D
330
1F
100
AcDbEntity
  8
0
  6
Continuous
 62
     7
370
    25
100
AcDbLine
 10
223.0213248399
 20
116.7567977056
 30
0.0
 11
223.0213248399
 21
117.3567977056
 31
0.0
  0
LINE
  5
8E
330
1F
100
AcDbEntity
  8
0
  6
Continuous
 62
     7
370
    25
100
AcDbLine
 10
212.5431541746
 20
117.3567977056
 30
0.0
 11
212.5431541746
 21
116.7567977056
 31
0.0
  0
LINE
  5
8F
330
1F
100
AcDbEntity
  8
0
  6
Continuous
 62
     7
370
    25
100
AcDbLine
 10
212.5431541746
 20
116.7567977056
 30
0.0
 11
223.0213248399
 21
116.7567977056
 31
0.0
  0
SPLINE
  5
90
330
1F
100
AcDbEntity
  8
0
  6
Continuous
 62
     7
370
    25
100
AcDbSpline
210
0.0
220
0.0
230
1.0
 70
     8
 71
     3
 72
    15
 73
    11
 74
     0
 42
0.00000001
 43
0.00000001
 40
0.0
 40
0.0
 40
0.0
 40
0.0
 40
0.0089557228015919
 40
0.0999003359608209
 40
0.1531632460581751
 40
0.3125636920784904
 40
0.5249666935695061
 40
0.6689893599351777
 40
0.991915253381045
 40
1.0
 40
1.0
 40
1.0
 40
1.0
 10
212.3050139321946
 20
117.3567977056367
 30
0.0
 10
212.3050296877732
 20
117.3584788312096
 30
0.0
 10
212.3052054399297
 20
117.3772316458341
 30
0.0
 10
212.3106344559492
 20
117.4059938749416
 30
0.0
 10
212.3321699396566
 20
117.4568809484099
 30
0.0
 10
212.3798753679214
 20
117.5150165985425
 30
0.0
 10
212.4522663129133
 20
117.5597244717259
 30
0.0
 10
212.5541854249309
 20
117.5970062951877
 30
0.0
 10
212.629540516386
 20
117.6066854500253
 30
0.0
 10
212.6819401621093
 20
117.606795029227
 30
0.0
 10
212.6832199936534
 20
117.6067977056367
 30
0.0
  0
LINE
  5
91
330
1F
100
AcDbEntity
  8
0
  6
Continuous
 62
     7
370
    25
100
AcDbLine
 10
212.3050139322
 20
117.3567977056
 30
0.0
 11
212.5431541746
 21
117.3567977056
 31
0.0
  0
SPLINE
  5
92
330
1F
100
AcDbEntity
  8
0
  6
Continuous
 62
     7
370
    25
100
AcDbSpline
210
0.0
220
0.0
230
1.0
 70
     8
 71
     3
 72
    15
 73
    11
 74
     0
 42
0.00000001
 43
0.00000001
 40
0.0
 40
0.0
 40
0.0
 40
0.0
 40
0.0080847466189582
 40
0.3310106400648243
 40
0.4750333064304948
 40
0.6874363079215142
 40
0.8468367539418303
 40
0.9000996640391847
 40
0.9910442771984082
 40
1.0
 40
1.0
 40
1.0
 40
1.0
 10
222.881259020839
 20
117.6067977056367
 30
0.0
 10
222.8825388523831
 20
117.606795029227
 30
0.0
 10
222.9349384981064
 20
117.6066854500253
 30
0.0
 10
223.0102935895615
 20
117.5970062951877
 30
0.0
 10
223.1122127015791
 20
117.5597244717259
 30
0.0
 10
223.184603646571
 20
117.5150165985425
 30
0.0
 10
223.2323090748359
 20
117.4568809484099
 30
0.0
 10
223.2538445585432
 20
117.4059938749415
 30
0.0
 10
223.2592735745627
 20
117.3772316458341
 30
0.0
 10
223.2594493267192
 20
117.3584788312096
 30
0.0
 10
223.2594650822979
 20
117.3567977056367
 30
0.0
  0
LINE
  5
93
330
1F
100
AcDbEntity
  8
0
  6
Continuous
 62
     7
370
    25
100
AcDbLine
 10
223.0213248399
 20
117.3567977056
 30
0.0
 11
223.2594650823
 21
117.3567977056
 31
0.0
  0
LINE
  5
94
330
1F
100
AcDbEntity
  8
0
  6
Continuous
 62
     7
370
    25
100
AcDbLine
 10
212.3050139322
 20
116.7567977056
 30
0.0
 11
212.3050139322
 21
117.3567977056
 31
0.0
  0
LINE
  5
95
330
1F
100
AcDbEntity
  8
0
  6
Continuous
 62
     7
370
    25
100
AcDbLine
 10
212.5431541746
 20
116.7567977056
 30
0.0
 11
212.3050139322
 21
116.7567977056
 31
0.0
  0
LINE
  5
96
330
1F
100
AcDbEntity
  8
0
  6
Continuous
 62
     7
370
    25
100
AcDbLine
 10
223.2594650823
 20
117.3567977056
 30
0.0
 11
223.2594650823
 21
116.7567977056
 31
0.0
  0
LINE
  5
97
330
1F
100
AcDbEntity
  8
0
  6
Continuous
 62
     7
370
    25
100
AcDbLine
 10
223.2594650823
 20
116.7567977056
 30
0.0
 11
223.0213248399
 21
116.7567977056
 31
0.0
  0
LINE
  5
98
330
1F
100
AcDbEntity
  8
0
  6
Continuous
 62
     7
370
    25
100
AcDbLine
 10
212.3050139322
 20
117.3567977056
 30
0.0
 11
212.0322395072
 21
117.3567977056
 31
0.0
  0
LINE
  5
99
330
1F
100
AcDbEntity
  8
0
  6
Continuous
 62
     7
370
    25
100
AcDbLine
 10
212.0322395072
 20
117.6067977056
 30
0.0
 11
212.0322395072
 21
117.3567977056
 31
0.0
  0
LINE
  5
9A
330
1F
100
AcDbEntity
  8
0
  6
Continuous
 62
     7
370
    25
100
AcDbLine
 10
212.0322395072
 20
117.6067977056
 30
0.0
 11
212.6832199937
 21
117.6067977056
 31
0.0
  0
LINE
  5
9B
330
1F
100
AcDbEntity
  8
0
  6
Continuous
 62
     7
370
    25
100
AcDbLine
 10
212.0322395072
 20
117.3567977056
 30
0.0
 11
212.0322395072
 21
116.7567977056
 31
0.0
  0
LINE
  5
9C
330
1F
100
AcDbEntity
  8
0
  6
Continuous
 62
     7
370
    25
100
AcDbLine
 10
212.0322395072
 20
116.7567977056
 30
0.0
 11
212.3050139322
 21
116.7567977056
 31
0.0
  0
LINE
  5
9D
330
1F
100
AcDbEntity
  8
0
  6
Continuous
 62
     7
370
    25
100
AcDbLine
 10
211.7822395072
 20
116.7567977056
 30
0.0
 11
211.7822395072
 21
117.3567977056
 31
0.0
  0
LINE
  5
9E
330
1F
100
AcDbEntity
  8
0
  6
Continuous
 62
     7
370
    25
100
AcDbLine
 10
211.7822395072
 20
117.3567977056
 30
0.0
 11
212.0322395072
 21
117.3567977056
 31
0.0
  0
LINE
  5
9F
330
1F
100
AcDbEntity
  8
0
  6
Continuous
 62
     7
370
    25
100
AcDbLine
 10
212.0322395072
 20
116.7567977056
 30
0.0
 11
211.7822395072
 21
116.7567977056
 31
0.0
  0
ARC
  5
A0
330
1F
100
AcDbEntity
  8
0
  6
Continuous
 62
     7
370
    25
100
AcDbCircle
 10
212.0322395072
 20
117.3567977056
 30
0.0
 40
0.25
100
AcDbArc
 50
90.0
 51
180.0
  0
LINE
  5
A1
330
1F
100
AcDbEntity
  8
0
  6
Continuous
 62
     7
370
    25
100
AcDbLine
 10
223.5322395072
 20
117.3567977056
 30
0.0
 11
223.7822395072
 21
117.3567977056
 31
0.0
  0
LINE
  5
A2
330
1F
100
AcDbEntity
  8
0
  6
Continuous
 62
     7
370
    25
100
AcDbLine
 10
223.5322395072
 20
117.3567977056
 30
0.0
 11
223.5322395072
 21
117.6067977056
 31
0.0
  0
ARC
  5
A3
330
1F
100
AcDbEntity
  8
0
  6
Continuous
 62
     7
370
    25
100
AcDbCircle
 10
223.5322395072
 20
117.3567977056
 30
0.0
 40
0.25
100
AcDbArc
 50
0.0
 51
90.0
  0
LINE
  5
A4
330
1F
100
AcDbEntity
  8
0
  6
Continuous
 62
     7
370
    25
100
AcDbLine
 10
223.5322395072
 20
116.7567977056
 30
0.0
 11
223.5322395072
 21
117.3567977056
 31
0.0
  0
LINE
  5
A5
330
1F
100
AcDbEntity
  8
0
  6
Continuous
 62
     7
370
    25
100
AcDbLine
 10
223.5322395072
 20
117.3567977056
 30
0.0
 11
223.2594650823
 21
117.3567977056
 31
0.0
  0
LINE
  5
A6
330
1F
100
AcDbEntity
  8
0
  6
Continuous
 62
     7
370
    25
100
AcDbLine
 10
223.2594650823
 20
116.7567977056
 30
0.0
 11
223.5322395072
 21
116.7567977056
 31
0.0
  0
LINE
  5
A7
330
1F
100
AcDbEntity
  8
0
  6
Continuous
 62
     7
370
    25
100
AcDbLine
 10
223.7822395072
 20
117.3567977056
 30
0.0
 11
223.7822395072
 21
116.7567977056
 31
0.0
  0
LINE
  5
A8
330
1F
100
AcDbEntity
  8
0
  6
Continuous
 62
     7
370
    25
100
AcDbLine
 10
223.7822395072
 20
116.7567977056
 30
0.0
 11
223.5322395072
 21
116.7567977056
 31
0.0
  0
LINE
  5
A9
330
1F
100
AcDbEntity
  8
0
  6
Continuous
 62
     7
370
    25
100
AcDbLine
 10
222.8812590208
 20
117.6067977056
 30
0.0
 11
223.5322395072
 21
117.6067977056
 31
0.0
  0
LINE
  5
AA
330
1F
100
AcDbEntity
  8
0
  6
Continuous
 62
     7
370
    25
100
AcDbLine
 10
212.7822395072
 20
117.6167977056
 30
0.0
 11
222.7822395072
 21
117.6167977056
 31
0.0
  0
LINE
  5
AB
330
1F
100
AcDbEntity
  8
0
  6
Continuous
 62
     7
370
    25
100
AcDbLine
 10
222.7822395072
 20
117.6067977056
 30
0.0
 11
222.7822395072
 21
117.6167977056
 31
0.0
  0
LINE
  5
AC
330
1F
100
AcDbEntity
  8
0
  6
Continuous
 62
     7
370
    25
100
AcDbLine
 10
212.7822395072
 20
117.6067977056
 30
0.0
 11
212.7822395072
 21
117.6167977056
 31
0.0
  0
LINE
  5
AD
330
1F
100
AcDbEntity
  8
0
  6
Continuous
 62
     7
370
    25
100
AcDbLine
 10
210.3322395072
 20
108.7567977056
 30
0.0
 11
222.2567863913
 21
108.7567977056
 31
0.0
  0
LINE
  5
AE
330
1F
100
AcDbEntity
  8
0
  6
Continuous
 62
     7
370
    25
100
AcDbLine
 10
223.0060416816
 20
116.7567977056
 30
0.0
 11
212.5431541746
 21
116.7567977056
 31
0.0
  0
LINE
  5
AF
330
1F
100
AcDbEntity
  8
0
  6
Continuous
 62
     7
370
    25
100
AcDbLine
 10
224.7341803456
 20
109.7515412836
 30
0.0
 11
223.0060416816
 21
116.7567977056
 31
0.0
  0
SPLINE
  5
B0
330
1F
100
AcDbEntity
  8
0
  6
Continuous
 62
     7
370
    25
100
AcDbSpline
210
0.0
220
0.0
230
1.0
 70
     8
 71
     3
 72
     9
 73
     5
 74
     0
 42
0.00000001
 43
0.00000001
 40
0.0
 40
0.0
 40
0.0
 40
0.0
 40
0.4983247250277991
 40
1.0
 40
1.0
 40
1.0
 40
1.0
 10
222.2567863913283
 20
108.7567977056343
 30
0.0
 10
222.1406760948492
 20
108.9305898194934
 30
0.0
 10
221.9076748194807
 20
109.2793425606892
 30
0.0
 10
221.633914446139
 20
109.5937905181034
 30
0.0
 10
221.4965756355663
 20
109.7515412836036
 30
0.0
  0
LINE
  5
B1
330
1F
100
AcDbEntity
  8
0
  6
Continuous
 62
     7
370
    25
100
AcDbLine
 10
219.7822395072
 20
100.7567977056
 30
0.0
 11
219.7822396018
 21
100.7946145836
 31
0.0
  0
LINE
  5
B2
330
1F
100
AcDbEntity
  8
0
  6
Continuous
 62
     7
370
    25
100
AcDbLine
 10
210.7822395072
 20
100.7567977056
 30
0.0
 11
219.7822395072
 21
100.7567977056
 31
0.0
  0
SPLINE
  5
B3
330
1F
100
AcDbEntity
  8
0
  6
Continuous
 62
     7
370
    25
100
AcDbSpline
210
0.0
220
0.0
230
1.0
 70
     8
 71
     3
 72
    16
 73
    12
 74
     0
 42
0.00000001
 43
0.00000001
 40
0.0
 40
0.0
 40
0.0
 40
0.0
 40
0.0155634360124117
 40
0.0359329243097674
 40
0.0739120889290614
 40
0.1570057548437684
 40
0.2406581385754913
 40
0.4592958294318596
 40
0.6783839187935417
 40
0.8974954344294845
 40
1.0
 40
1.0
 40
1.0
 40
1.0
 10
219.9381847576734
 20
100.7567977056368
 30
0.0
 10
219.980576746942
 20
100.761991077416
 30
0.0
 10
220.0784515440315
 20
100.7739815552838
 30
0.0
 10
220.2519302150444
 20
100.8923074792807
 30
0.0
 10
220.500263894047
 20
101.2035587867297
 30
0.0
 10
220.754728436093
 20
101.7292062880947
 30
0.0
 10
221.0984078477841
 20
102.7677524523649
 30
0.0
 10
221.4796278670507
 20
104.202826494711
 30
0.0
 10
221.8297295230504
 20
106.0410785961504
 30
0.0
 10
222.0735213721387
 20
107.5622614449699
 30
0.0
 10
222.2124935672957
 20
108.4680934857664
 30
0.0
 10
222.2567863913283
 20
108.7567977056343
 30
0.0
  0
SPLINE
  5
B4
330
1F
100
AcDbEntity
  8
0
  6
Continuous
 62
     7
370
    25
100
AcDbSpline
210
0.0
220
0.0
230
1.0
 70
     8
 71
     3
 72
     9
 73
     5
 74
     0
 42
0.00000001
 43
0.00000001
 40
0.0
 40
0.0
 40
0.0
 40
0.0
 40
0.5124861829376838
 40
0.9999999999999999
 40
0.9999999999999999
 40
0.9999999999999999
 40
0.9999999999999999
 10
219.7822396017776
 20
100.7946145835769
 30
0.0
 10
219.8078821059494
 20
100.7835866706258
 30
0.0
 10
219.8579176093943
 20
100.7620682115564
 30
0.0
 10
219.9118782162528
 20
100.7585250472112
 30
0.0
 10
219.9381847576734
 20
100.7567977056368
 30
0.0
  0
LINE
  5
B5
330
1F
100
AcDbEntity
  8
0
  6
Continuous
 62
     7
370
    25
100
AcDbLine
 10
221.4965756356
 20
109.7515412836
 30
0.0
 11
239.9576763688
 21
109.7515412836
 31
0.0
  0
LINE
  5
B6
330
1F
100
AcDbEntity
  8
0
  6
Continuous
 62
     7
370
    25
100
AcDbLine
 10
239.9576763688
 20
109.7515412836
 30
0.0
 11
239.9576763688
 21
106.5089733986
 31
0.0
  0
SPLINE
  5
B7
330
1F
100
AcDbEntity
  8
0
  6
Continuous
 62
     7
370
    25
100
AcDbSpline
210
0.0
220
0.0
230
1.0
 70
     8
 71
     3
 72
    11
 73
     7
 74
     0
 42
0.00000001
 43
0.00000001
 40
0.0
 40
0.0
 40
0.0
 40
0.0
 40
0.2488607147078904
 40
0.4977191536447657
 40
0.7488602698858827
 40
0.9999999999999999
 40
0.9999999999999999
 40
0.9999999999999999
 40
0.9999999999999999
 10
232.8872827465391
 20
105.1857728976267
 30
0.0
 10
233.4638757054219
 20
105.3352518345149
 30
0.0
 10
234.6170563503842
 20
105.6342083413424
 30
0.0
 10
236.3779706723148
 20
105.9960123148011
 30
0.0
 10
238.1579493858938
 20
106.2982869580406
 30
0.0
 10
239.3577684781862
 20
106.4387447142938
 30
0.0
 10
239.9576763687828
 20
106.5089733986123
 30
0.0
  0
LINE
  5
B8
330
1F
100
AcDbEntity
  8
0
  6
Continuous
 62
     7
370
    25
100
AcDbLine
 10
232.8872827465
 20
105.1857728976
 30
0.0
 11
227.1075258967
 21
103.6171514571
 31
0.0
  0
SPLINE
  5
B9
330
1F
100
AcDbEntity
  8
0
  6
Continuous
 62
     7
370
    25
100
AcDbSpline
210
0.0
220
0.0
230
1.0
 70
     8
 71
     3
 72
    13
 73
     9
 74
     0
 42
0.00000001
 43
0.00000001
 40
0.0
 40
0.0
 40
0.0
 40
0.0
 40
0.1610294006389558
 40
0.3266880383557516
 40
0.4877296220820636
 40
0.6535536198224136
 40
0.8237602734841889
 40
1.0
 40
1.0
 40
1.0
 40
1.0
 10
227.1075258966839
 20
103.6171514571439
 30
0.0
 10
226.8936558426527
 20
103.5477545625666
 30
0.0
 10
226.4597674462654
 20
103.4069657670581
 30
0.0
 10
225.8684466975997
 20
103.0608409493504
 30
0.0
 10
225.334515348749
 20
102.6216343062984
 30
0.0
 10
224.8808313769459
 20
102.0880324693588
 30
0.0
 10
224.5063776639604
 20
101.4642061626591
 30
0.0
 10
224.3578145932017
 20
100.9953222644571
 30
0.0
 10
224.2822395072462
 20
100.7567977056367
 30
0.0
  0
LINE
  5
BA
330
1F
100
AcDbEntity
  8
0
  6
Continuous
 62
     7
370
    25
100
AcDbLine
 10
224.2822395072
 20
100.7567977056
 30
0.0
 11
219.9381847577
 21
100.7567977056
 31
0.0
  0
LINE
  5
BB
330
1F
100
AcDbEntity
  8
0
  6
Continuous
 62
     7
370
    25
100
AcDbLine
 10
219.7890388652
 20
100.7567977056
 30
0.0
 11
219.7822396018
 21
100.7946145836
 31
0.0
  0
LINE
  5
BC
330
1F
100
AcDbEntity
  8
0
  6
Continuous
 62
     7
370
    25
100
AcDbLine
 10
219.7822395072
 20
100.7567977056
 30
0.0
 11
219.7890388652
 21
100.7567977056
 31
0.0
  0
LINE
  5
BD
330
1F
100
AcDbEntity
  8
0
  6
Continuous
 62
     7
370
    25
100
AcDbLine
 10
219.9381847577
 20
100.7567977056
 30
0.0
 11
219.7890388652
 21
100.7567977056
 31
0.0
  0
LINE
  5
BE
330
1F
100
AcDbEntity
  8
0
  6
Continuous
 62
     7
370
    25
100
AcDbLine
 10
239.9576763688
 20
109.7515412836
 30
0.0
 11
239.9576763688
 21
118.7567977056
 31
0.0
  0
LINE
  5
BF
330
1F
100
AcDbEntity
  8
0
  6
Continuous
 62
     7
370
    25
100
AcDbLine
 10
239.9576763688
 20
118.7567977056
 30
0.0
 11
257.7822395072
 21
118.7567977056
 31
0.0
  0
LINE
  5
C0
330
1F
100
AcDbEntity
  8
0
  6
Continuous
 62
     7
370
    25
100
AcDbLine
 10
257.7822395072
 20
118.7567977056
 30
0.0
 11
257.7822395072
 21
111.7567977056
 31
0.0
  0
ARC
  5
C1
330
1F
100
AcDbEntity
  8
0
  6
Continuous
 62
     7
370
    25
100
AcDbCircle
 10
252.7822395072
 20
111.7567977056
 30
0.0
 40
5.000000000000028
100
AcDbArc
 50
270.0
 51
0.0
  0
LINE
  5
C2
330
1F
100
AcDbEntity
  8
0
  6
Continuous
 62
     7
370
    25
100
AcDbLine
 10
252.7822395072
 20
106.7567977056
 30
0.0
 11
244.673907365
 21
106.7567977056
 31
0.0
  0
ARC
  5
C3
330
1F
100
AcDbEntity
  8
0
  6
Continuous
 62
     7
370
    25
100
AcDbCircle
 10
244.673907365
 20
61.7566684515
 30
0.0
 40
45.00012925418374
100
AcDbArc
 50
90.0
 51
96.0159222295
  0
ARC
  5
C4
330
1F
100
AcDbEntity
  8
0
  6
Continuous
 62
     7
370
    25
100
AcDbCircle
 10
232.1711930715
 20
120.7567977056
 30
0.0
 40
10.00000000000848
100
AcDbArc
 50
203.5781784783
 51
264.4198332155
  0
ARC
  5
C5
330
1F
100
AcDbEntity
  8
0
  6
Continuous
 62
     7
370
    25
100
AcDbCircle
 10
231.7822395072
 20
116.775753229
 30
0.0
 40
6.000000000000005
100
AcDbArc
 50
264.4198332155
 51
0.0
  0
LINE
  5
C6
330
1F
100
AcDbEntity
  8
0
  6
Continuous
 62
     7
370
    25
100
AcDbLine
 10
237.7822395072
 20
118.7567977056
 30
0.0
 11
237.7822395072
 21
116.775753229
 31
0.0
  0
LINE
  5
C7
330
1F
100
AcDbEntity
  8
0
  6
Continuous
 62
     7
370
    25
100
AcDbLine
 10
237.7822395072
 20
118.7567977056
 30
0.0
 11
239.9576763688
 21
118.7567977056
 31
0.0
  0
LINE
  5
C8
330
1F
100
AcDbEntity
  8
0
  6
Continuous
 62
     7
370
    25
100
AcDbLine
 10
224.7822395072
 20
100.7567977056
 30
0.0
 11
224.2822395072
 21
100.7567977056
 31
0.0
  0
LINE
  5
C9
330
1F
100
AcDbEntity
  8
0
  6
Continuous
 62
     7
370
    25
100
AcDbLine
 10
223.0060416816
 20
116.7567977056
 30
0.0
 11
223.0213248399
 21
116.7567977056
 31
0.0
  0
LINE
  5
CA
330
1F
100
AcDbEntity
  8
0
  6
Continuous
 62
     7
370
    25
100
AcDbLine
 10
203.4822395072
 20
86.7734873578
 30
0.0
 11
203.4822395072
 21
82.2567977056
 31
0.0
  0
LINE
  5
CB
330
1F
100
AcDbEntity
  8
0
  6
Continuous
 62
     7
370
    25
100
AcDbLine
 10
203.4822395072
 20
98.2567977056
 30
0.0
 11
203.4822395072
 21
86.7734873578
 31
0.0
  0
LINE
  5
CC
330
1F
100
AcDbEntity
  8
0
  6
Continuous
 62
     7
370
    25
100
AcDbLine
 10
203.2822395072
 20
86.8605701165
 30
0.0
 11
203.2822395072
 21
98.0567977056
 31
0.0
  0
LINE
  5
CD
330
1F
100
AcDbEntity
  8
0
  6
Continuous
 62
     7
370
    25
100
AcDbLine
 10
203.2822395072
 20
82.4567977056
 30
0.0
 11
203.2822395072
 21
86.8605701165
 31
0.0
  0
LINE
  5
CE
330
1F
100
AcDbEntity
  8
0
  6
Continuous
 62
     7
370
    25
100
AcDbLine
 10
193.2822395072
 20
88.3566519109
 30
0.0
 11
193.2822395072
 21
94.6207977056
 31
0.0
  0
LINE
  5
CF
330
1F
100
AcDbEntity
  8
0
  6
Continuous
 62
     7
370
    25
100
AcDbLine
 10
193.2822395072
 20
85.8927977056
 30
0.0
 11
193.2822395072
 21
88.3566519109
 31
0.0
  0
LINE
  5
D0
330
1F
100
AcDbEntity
  8
0
  6
Continuous
 62
     7
370
    25
100
AcDbLine
 10
193.7822395072
 20
88.1389450142
 30
0.0
 11
193.7822395072
 21
85.3927977056
 31
0.0
  0
LINE
  5
D1
330
1F
100
AcDbEntity
  8
0
  6
Continuous
 62
     7
370
    25
100
AcDbLine
 10
193.7822395072
 20
95.1207977056
 30
0.0
 11
193.7822395072
 21
88.1389450142
 31
0.0
  0
SPLINE
  5
D2
330
1F
100
AcDbEntity
  8
0
  6
Continuous
 62
     7
370
    25
100
AcDbSpline
210
0.0
220
0.0
230
1.0
 70
     8
 71
     3
 72
    10
 73
     6
 74
     0
 42
0.00000001
 43
0.00000001
 40
0.0
 40
0.0
 40
0.0
 40
0.0
 40
0.5
 40
0.5
 40
1.0
 40
1.0
 40
1.0
 40
1.0
 10
213.1634373537292
 20
78.93451911089687
 30
0.0
 10
213.914116053225
 20
78.72758905736417
 30
0.0
 10
214.6783969974477
 20
78.55578344699047
 30
0.0
 10
216.2329717315352
 20
78.3188329404591
 30
0.0
 10
217.0085466990514
 20
78.2567977056367
 30
0.0
 10
217.7822395072462
 20
78.25679770563671
 30
0.0
  0
LINE
  5
D3
330
1F
100
AcDbEntity
  8
0
  6
Continuous
 62
     7
370
    25
100
AcDbLine
 10
213.1634373537
 20
82.2904011658
 30
0.0
 11
213.1634373537
 21
78.9345191109
 31
0.0
  0
SPLINE
  5
D4
330
1F
100
AcDbEntity
  8
0
  6
Continuous
 62
     7
370
    25
100
AcDbSpline
210
0.0
220
0.0
230
1.0
 70
     8
 71
     3
 72
     8
 73
     4
 74
     0
 42
0.00000001
 43
0.00000001
 40
0.0
 40
0.0
 40
0.0
 40
0.0
 40
1.0
 40
1.0
 40
1.0
 40
1.0
 10
213.1634373537292
 20
82.29040116578172
 30
0.0
 10
213.3686231762725
 20
82.34696213290593
 30
0.0
 10
213.5748463769798
 20
82.40090220431976
 30
0.0
 10
213.7822395072462
 20
82.45188649406273
 30
0.0
  0
LINE
  5
D5
330
1F
100
AcDbEntity
  8
0
  6
Continuous
 62
     7
370
    25
100
AcDbLine
 10
213.7822395072
 20
86.2567977056
 30
0.0
 11
211.2660034303
 21
86.2567977056
 31
0.0
  0
SPLINE
  5
D6
330
1F
100
AcDbEntity
  8
0
  6
Continuous
 62
     7
370
    25
100
AcDbSpline
210
0.0
220
0.0
230
1.0
 70
     8
 71
     3
 72
     8
 73
     4
 74
     0
 42
0.00000001
 43
0.00000001
 40
0.0
 40
0.0
 40
0.0
 40
0.0
 40
1.0
 40
1.0
 40
1.0
 40
1.0
 10
211.104518101986
 20
85.63799555211968
 30
0.0
 10
211.1610814714543
 20
85.84319008962945
 30
0.0
 10
211.2150213942755
 20
86.0494137431466
 30
0.0
 10
211.2660034302671
 20
86.25679770563671
 30
0.0
  0
LINE
  5
D7
330
1F
100
AcDbEntity
  8
0
  6
Continuous
 62
     7
370
    25
100
AcDbLine
 10
206.9599609125
 20
85.6379955521
 30
0.0
 11
211.104518102
 21
85.6379955521
 31
0.0
  0
SPLINE
  5
D8
330
1F
100
AcDbEntity
  8
0
  6
Continuous
 62
     7
370
    25
100
AcDbSpline
210
0.0
220
0.0
230
1.0
 70
     8
 71
     3
 72
    10
 73
     6
 74
     0
 42
0.00000001
 43
0.00000001
 40
0.0
 40
0.0
 40
0.0
 40
0.0
 40
0.5
 40
0.5
 40
1.0
 40
1.0
 40
1.0
 40
1.0
 10
206.9599609125064
 20
85.6379955521197
 30
0.0
 10
206.7518922362752
 20
86.392804825169
 30
0.0
 10
206.5814932302507
 20
87.1535512124009
 30
0.0
 10
206.3463332505518
 20
88.69169359002416
 30
0.0
 10
206.2822395072462
 20
89.46919474254896
 30
0.0
 10
206.2822395072462
 20
90.25679770563671
 30
0.0
  0
SPLINE
  5
D9
330
1F
100
AcDbEntity
  8
0
  6
Continuous
 62
     7
370
    25
100
AcDbSpline
210
0.0
220
0.0
230
1.0
 70
     8
 71
     3
 72
    12
 73
     8
 74
     0
 42
0.00000001
 43
0.00000001
 40
0.0
 40
0.0
 40
0.0
 40
0.0
 40
0.2500000000000001
 40
0.2500000000000001
 40
0.5000000000000001
 40
0.5000000000000001
 40
1.0
 40
1.0
 40
1.0
 40
1.0
 10
206.2822395072462
 20
90.25679770563671
 30
0.0
 10
206.2822395072462
 20
90.65111578630855
 30
0.0
 10
206.2982383122273
 20
91.044774830259
 30
0.0
 10
206.3600084505417
 20
91.82431082980433
 30
0.0
 10
206.4057505748433
 20
92.21126401792975
 30
0.0
 10
206.5824207221901
 20
93.36465058078376
 30
0.0
 10
206.7526757876704
 20
94.12363306998878
 30
0.0
 10
206.9599609125064
 20
94.87559985915372
 30
0.0
  0
LINE
  5
DA
330
1F
100
AcDbEntity
  8
0
  6
Continuous
 62
     7
370
    25
100
AcDbLine
 10
211.104518102
 20
94.8755998592
 30
0.0
 11
206.9599609125
 21
94.8755998592
 31
0.0
  0
SPLINE
  5
DB
330
1F
100
AcDbEntity
  8
0
  6
Continuous
 62
     7
370
    25
100
AcDbSpline
210
0.0
220
0.0
230
1.0
 70
     8
 71
     3
 72
     8
 73
     4
 74
     0
 42
0.00000001
 43
0.00000001
 40
0.0
 40
0.0
 40
0.0
 40
0.0
 40
1.0
 40
1.0
 40
1.0
 40
1.0
 10
211.2660034302671
 20
94.25679770563671
 30
0.0
 10
211.2151047133445
 20
94.4638427440657
 30
0.0
 10
211.1611705770938
 20
94.67008207374235
 30
0.0
 10
211.104518101986
 20
94.87559985915372
 30
0.0
  0
LINE
  5
DC
330
1F
100
AcDbEntity
  8
0
  6
Continuous
 62
     7
370
    25
100
AcDbLine
 10
224.2984755842
 20
94.2567977056
 30
0.0
 11
211.2660034303
 21
94.2567977056
 31
0.0
  0
SPLINE
  5
DD
330
1F
100
AcDbEntity
  8
0
  6
Continuous
 62
     7
370
    25
100
AcDbSpline
210
0.0
220
0.0
230
1.0
 70
     8
 71
     3
 72
     8
 73
     4
 74
     0
 42
0.00000001
 43
0.00000001
 40
0.0
 40
0.0
 40
0.0
 40
0.0
 40
1.0
 40
1.0
 40
1.0
 40
1.0
 10
224.2984755842254
 20
94.25679770563679
 30
0.0
 10
224.3493718174805
 20
94.46383264104054
 30
0.0
 10
224.4033057724441
 20
94.67007240610553
 30
0.0
 10
224.4599609125064
 20
94.87559985915372
 30
0.0
  0
LINE
  5
DE
330
1F
100
AcDbEntity
  8
0
  6
Continuous
 62
     7
370
    25
100
AcDbLine
 10
228.9601805347
 20
94.8755998592
 30
0.0
 11
224.4599609125
 21
94.8755998592
 31
0.0
  0
SPLINE
  5
DF
330
1F
100
AcDbEntity
  8
0
  6
Continuous
 62
     7
370
    25
100
AcDbSpline
210
0.0
220
0.0
230
1.0
 70
     8
 71
     3
 72
    14
 73
    10
 74
     0
 42
0.00000001
 43
0.00000001
 40
0.0
 40
0.0
 40
0.0
 40
0.0
 40
0.25
 40
0.25
 40
0.5
 40
0.5
 40
0.75
 40
0.75
 40
1.0
 40
1.0
 40
1.0
 40
1.0
 10
228.9601805346886
 20
85.63799555211966
 30
0.0
 10
229.1681308953944
 20
86.39237561276965
 30
0.0
 10
229.3403527040833
 20
87.16181678023514
 30
0.0
 10
229.5749878268342
 20
88.70232814117631
 30
0.0
 10
229.6379318854618
 20
89.47718252118332
 30
0.0
 10
229.6378719727304
 20
91.03754347606888
 30
0.0
 10
229.5732573064383
 20
91.8279996688539
 30
0.0
 10
229.336697967037
 20
93.37027933166237
 30
0.0
 10
229.1663528269576
 20
94.12767008486357
 30
0.0
 10
228.9601805346886
 20
94.87559985915372
 30
0.0
  0
LINE
  5
E0
330
1F
100
AcDbEntity
  8
0
  6
Continuous
 62
     7
370
    25
100
AcDbLine
 10
224.4599609125
 20
85.6379955521
 30
0.0
 11
228.9601805347
 21
85.6379955521
 31
0.0
  0
SPLINE
  5
E1
330
1F
100
AcDbEntity
  8
0
  6
Continuous
 62
     7
370
    25
100
AcDbSpline
210
0.0
220
0.0
230
1.0
 70
     8
 71
     3
 72
     8
 73
     4
 74
     0
 42
0.00000001
 43
0.00000001
 40
0.0
 40
0.0
 40
0.0
 40
0.0
 40
1.0
 40
1.0
 40
1.0
 40
1.0
 10
224.4599609125064
 20
85.63799555211968
 30
0.0
 10
224.4033990690695
 20
85.8431845536565
 30
0.0
 10
224.3494590518131
 20
86.04940791972119
 30
0.0
 10
224.2984755842254
 20
86.25679770563666
 30
0.0
  0
LINE
  5
E2
330
1F
100
AcDbEntity
  8
0
  6
Continuous
 62
     7
370
    25
100
AcDbLine
 10
224.2984755842
 20
86.2567977056
 30
0.0
 11
221.7822395072
 21
86.2567977056
 31
0.0
  0
LINE
  5
E3
330
1F
100
AcDbEntity
  8
0
  6
Continuous
 62
     7
370
    25
100
AcDbLine
 10
221.7822395072
 20
82.4518864941
 30
0.0
 11
221.7822395072
 21
86.2567977056
 31
0.0
  0
SPLINE
  5
E4
330
1F
100
AcDbEntity
  8
0
  6
Continuous
 62
     7
370
    25
100
AcDbSpline
210
0.0
220
0.0
230
1.0
 70
     8
 71
     3
 72
     8
 73
     4
 74
     0
 42
0.00000001
 43
0.00000001
 40
0.0
 40
0.0
 40
0.0
 40
0.0
 40
1.0
 40
1.0
 40
1.0
 40
1.0
 10
221.7822395072462
 20
82.45188649406273
 30
0.0
 10
221.9892685705816
 20
82.40099170436191
 30
0.0
 10
222.195508587851
 20
82.34705785500047
 30
0.0
 10
222.4010416607632
 20
82.2904011657817
 30
0.0
  0
LINE
  5
E5
330
1F
100
AcDbEntity
  8
0
  6
Continuous
 62
     7
370
    25
100
AcDbLine
 10
222.4010416608
 20
78.9345191109
 30
0.0
 11
222.4010416608
 21
82.2904011658
 31
0.0
  0
SPLINE
  5
E6
330
1F
100
AcDbEntity
  8
0
  6
Continuous
 62
     7
370
    25
100
AcDbSpline
210
0.0
220
0.0
230
1.0
 70
     8
 71
     3
 72
    10
 73
     6
 74
     0
 42
0.00000001
 43
0.00000001
 40
0.0
 40
0.0
 40
0.0
 40
0.0
 40
0.5
 40
0.5
 40
1.0
 40
1.0
 40
1.0
 40
1.0
 10
217.7822395072462
 20
78.25679770563671
 30
0.0
 10
218.5578194438532
 20
78.25679770563671
 30
0.0
 10
219.3315096625796
 20
78.31908206761523
 30
0.0
 10
220.8755442049125
 20
78.55393018562226
 30
0.0
 10
221.6488528810673
 20
78.72717279275346
 30
0.0
 10
222.4010416607632
 20
78.93451911089691
 30
0.0
  0
ARC
  5
E7
330
1F
100
AcDbEntity
  8
0
  6
Continuous
 62
     7
370
    25
100
AcDbCircle
 10
219.332970863
 20
89.6798787123
 30
0.0
 40
0.889000000000007
100
AcDbArc
 50
45.0
 51
315.0
  0
LINE
  5
E8
330
1F
100
AcDbEntity
  8
0
  6
Continuous
 62
     7
370
    25
100
AcDbLine
 10
219.9615887914
 20
90.3084966408
 30
0.0
 11
220.4281991771
 21
90.7751070264
 31
0.0
  0
ARC
  5
E9
330
1F
100
AcDbEntity
  8
0
  6
Continuous
 62
     7
370
    25
100
AcDbCircle
 10
219.332970863
 20
89.6798787123
 30
0.0
 40
1.548886735692404
100
AcDbArc
 50
45.0
 51
315.0
  0
LINE
  5
EA
330
1F
100
AcDbEntity
  8
0
  6
Continuous
 62
     7
370
    25
100
AcDbLine
 10
220.4281991771
 20
88.5846503982
 30
0.0
 11
219.9615887914
 21
89.0512607839
 31
0.0
  0
ARC
  5
EB
330
1F
100
AcDbEntity
  8
0
  6
Continuous
 62
     7
370
    25
100
AcDbCircle
 10
222.6751154593
 20
89.6798787123
 30
0.0
 40
0.8889999999999875
100
AcDbArc
 50
45.0
 51
159.0751675724
  0
LINE
  5
EC
330
1F
100
AcDbEntity
  8
0
  6
Continuous
 62
     7
370
    25
100
AcDbLine
 10
223.3037333878
 20
90.3084966408
 30
0.0
 11
223.7703437734
 21
90.7751070264
 31
0.0
  0
ARC
  5
ED
330
1F
100
AcDbEntity
  8
0
  6
Continuous
 62
     7
370
    25
100
AcDbCircle
 10
222.6751154593
 20
89.6798787123
 30
0.0
 40
1.548886735692373
100
AcDbArc
 50
45.0
 51
315.0
  0
LINE
  5
EE
330
1F
100
AcDbEntity
  8
0
  6
Continuous
 62
     7
370
    25
100
AcDbLine
 10
223.7703437734
 20
88.5846503982
 30
0.0
 11
223.3037333878
 21
89.0512607839
 31
0.0
  0
ARC
  5
EF
330
1F
100
AcDbEntity
  8
0
  6
Continuous
 62
     7
370
    25
100
AcDbCircle
 10
222.6751154593
 20
89.6798787123
 30
0.0
 40
0.8890000000000405
100
AcDbArc
 50
200.9248324276
 51
315.0
  0
LINE
  5
F0
330
1F
100
AcDbEntity
  8
0
  6
Continuous
 62
     7
370
    25
100
AcDbLine
 10
221.8447452106
 20
89.3623787123
 30
0.0
 11
223.7703437734
 21
89.3623787123
 31
0.0
  0
LINE
  5
F1
330
1F
100
AcDbEntity
  8
0
  6
Continuous
 62
     7
370
    25
100
AcDbLine
 10
223.7703437734
 20
89.3623787123
 30
0.0
 11
223.7703437734
 21
89.9973787123
 31
0.0
  0
LINE
  5
F2
330
1F
100
AcDbEntity
  8
0
  6
Continuous
 62
     7
370
    25
100
AcDbLine
 10
223.7703437734
 20
89.9973787123
 30
0.0
 11
221.8447452106
 21
89.9973787123
 31
0.0
  0
LINE
  5
F3
330
1F
100
AcDbEntity
  8
0
  6
Continuous
 62
     7
370
    25
100
AcDbLine
 10
216.8804805933
 20
88.834424688
 30
0.0
 11
216.838830274
 21
88.8106197582
 31
0.0
  0
ELLIPSE
  5
F4
330
1F
100
AcDbEntity
  8
0
  6
Continuous
 62
     7
370
    25
100
AcDbEllipse
 10
216.4899870945
 20
89.3653022294
 30
0.0
 11
0.678412947925267
 21
6.110667527536863E-13
 31
0.0
210
0.0
220
0.0
230
1.0
 40
0.9533039403
 41
3.470145824140292
 42
5.252469180536299
  0
LINE
  5
F5
330
1F
100
AcDbEntity
  8
0
  6
Continuous
 62
     7
370
    25
100
AcDbLine
 10
215.8478623274
 20
89.1566181144
 30
0.0
 11
214.5882081225
 21
92.6790625111
 31
0.0
  0
ELLIPSE
  5
F6
330
1F
100
AcDbEntity
  8
0
  6
Continuous
 62
     7
370
    25
100
AcDbEllipse
 10
213.9972255646
 20
92.416723275
 30
0.0
 11
0.6519124952381786
 21
5.968558980384842E-13
 31
0.0
210
0.0
220
0.0
230
1.0
 40
0.9533023292
 41
0.4357905044355165
 42
2.705800116361541
  0
LINE
  5
F7
330
1F
100
AcDbEntity
  8
0
  6
Continuous
 62
     7
370
    25
100
AcDbLine
 10
213.4062435661
 20
92.6790636563
 30
0.0
 11
212.1468787644
 21
89.1574402546
 31
0.0
  0
ELLIPSE
  5
F8
330
1F
100
AcDbEntity
  8
0
  6
Continuous
 62
     7
370
    25
100
AcDbEllipse
 10
211.5047575804
 20
89.3661230883
 30
0.0
 11
-0.6784085062757583
 21
3.126388037344441E-13
 31
0.0
210
0.0
220
0.0
230
1.0
 40
0.9533122623
 41
1.047193771187948
 42
2.813042320199909
  0
LINE
  5
F9
330
1F
100
AcDbEntity
  8
0
  6
Continuous
 62
     7
370
    25
100
AcDbLine
 10
211.1655511064
 20
88.806035243
 30
0.0
 11
211.1139705359
 21
88.834424688
 31
0.0
  0
LINE
  5
FA
330
1F
100
AcDbEntity
  8
0
  6
Continuous
 62
     7
370
    25
100
AcDbLine
 10
211.1139705359
 20
88.834424688
 30
0.0
 11
211.9102391954
 21
87.3162525866
 31
0.0
  0
ELLIPSE
  5
FB
330
1F
100
AcDbEntity
  8
0
  6
Continuous
 62
     7
370
    25
100
AcDbEllipse
 10
211.9860880689
 20
87.3524061016
 30
0.0
 11
0.08480161849064416
 21
-2.842170943040401E-14
 31
0.0
210
0.0
220
0.0
230
1.0
 40
0.9533039403
 41
3.605240262590918
 42
5.462183310215271
  0
ELLIPSE
  5
FC
330
1F
100
AcDbEntity
  8
0
  6
Continuous
 62
     7
370
    25
100
AcDbEllipse
 10
213.9972255646
 20
85.293557481
 30
0.0
 11
2.866293551216216
 21
-1.506350599811412E-12
 31
0.0
210
0.0
220
0.0
230
1.0
 40
0.9533046568
 41
0.8210016221243815
 42
2.320591031466443
  0
ELLIPSE
  5
FD
330
1F
100
AcDbEntity
  8
0
  6
Continuous
 62
     7
370
    25
100
AcDbEllipse
 10
216.0083630603
 20
87.3524061016
 30
0.0
 11
0.08480161849061574
 21
0.0
 31
0.0
210
0.0
220
0.0
230
1.0
 40
0.9533039403
 41
3.962594650556491
 42
5.819537698177178
  0
LINE
  5
FE
330
1F
100
AcDbEntity
  8
0
  6
Continuous
 62
     7
370
    25
100
AcDbLine
 10
216.0842119337
 20
87.3162525866
 30
0.0
 11
216.8804805933
 21
88.834424688
 31
0.0
  0
LINE
  5
FF
330
1F
100
AcDbEntity
  8
0
  6
Continuous
 62
     7
370
    25
100
AcDbLine
 10
213.7822395072
 20
82.4518864941
 30
0.0
 11
213.7822395072
 21
86.2567977056
 31
0.0
  0
SPLINE
  5
100
330
1F
100
AcDbEntity
  8
0
  6
Continuous
 62
     7
370
    25
100
AcDbSpline
210
0.0
220
0.0
230
1.0
 70
     8
 71
     3
 72
    10
 73
     6
 74
     0
 42
0.00000001
 43
0.00000001
 40
0.0
 40
0.0
 40
0.0
 40
0.0
 40
0.5
 40
0.5
 40
1.0
 40
1.0
 40
1.0
 40
1.0
 10
222.4010416607632
 20
78.93451911089691
 30
0.0
 10
222.4869233032697
 20
78.95819301145286
 30
0.0
 10
222.5743325092351
 20
78.971285568632
 30
0.0
 10
222.72697499431
 20
78.97137198261429
 30
0.0
 10
222.7910979793924
 20
78.95820159101567
 30
0.0
 10
222.8340543626555
 20
78.93451911089691
 30
0.0
  0
SPLINE
  5
101
330
1F
100
AcDbEntity
  8
0
  6
Continuous
 62
     7
370
    25
100
AcDbSpline
210
0.0
220
0.0
230
1.0
 70
     8
 71
     3
 72
    12
 73
     8
 74
     0
 42
0.00000001
 43
0.00000001
 40
0.0
 40
0.0
 40
0.0
 40
0.0
 40
0.2499999999999998
 40
0.2499999999999998
 40
0.4999999999999996
 40
0.4999999999999996
 40
1.0
 40
1.0
 40
1.0
 40
1.0
 10
225.1434554394139
 20
78.25679770563671
 30
0.0
 10
224.9484519594081
 20
78.25679770563671
 30
0.0
 10
224.7519173003838
 20
78.27254403565867
 30
0.0
 10
224.3624976127782
 20
78.3339890602441
 30
0.0
 10
224.1690129197179
 20
78.37957781949783
 30
0.0
 10
223.5918293209623
 20
78.55602882175442
 30
0.0
 10
223.2113935391794
 20
78.72648652371791
 30
0.0
 10
222.8340543626555
 20
78.93451911089676
 30
0.0
  0
LINE
  5
102
330
1F
100
AcDbEntity
  8
0
  6
Continuous
 62
     7
370
    25
100
AcDbLine
 10
217.7822395072
 20
78.2567977056
 30
0.0
 11
225.1434554394
 21
78.2567977056
 31
0.0
  0
LINE
  5
103
330
1F
100
AcDbEntity
  8
0
  6
Continuous
 62
     7
370
    25
100
AcDbLine
 10
211.7822395072
 20
97.6180136378
 30
0.0
 11
211.7822395072
 21
94.2567977056
 31
0.0
  0
SPLINE
  5
104
330
1F
100
AcDbEntity
  8
0
  6
Continuous
 62
     7
370
    25
100
AcDbSpline
210
0.0
220
0.0
230
1.0
 70
     8
 71
     3
 72
    10
 73
     6
 74
     0
 42
0.00000001
 43
0.00000001
 40
0.0
 40
0.0
 40
0.0
 40
0.0
 40
0.5
 40
0.5
 40
1.0
 40
1.0
 40
1.0
 40
1.0
 10
211.104518101986
 20
95.30861256104595
 30
0.0
 10
211.0808427075616
 20
95.26566903014472
 30
0.0
 10
211.067751597677
 20
95.20222658552059
 30
0.0
 10
211.0676652763887
 20
95.04974774840163
 30
0.0
 10
211.0808342103325
 20
94.96151774629436
 30
0.0
 10
211.104518101986
 20
94.87559985915372
 30
0.0
  0
SPLINE
  5
105
330
1F
100
AcDbEntity
  8
0
  6
Continuous
 62
     7
370
    25
100
AcDbSpline
210
0.0
220
0.0
230
1.0
 70
     8
 71
     3
 72
    12
 73
     8
 74
     0
 42
0.00000001
 43
0.00000001
 40
0.0
 40
0.0
 40
0.0
 40
0.0
 40
0.2500000000000001
 40
0.2500000000000001
 40
0.5000000000000002
 40
0.5000000000000002
 40
1.0
 40
1.0
 40
1.0
 40
1.0
 10
211.7822395072462
 20
97.61801363780445
 30
0.0
 10
211.7822395072462
 20
97.42227137492493
 30
0.0
 10
211.7663965711573
 20
97.22560476573437
 30
0.0
 10
211.7048937109196
 20
96.83633653840609
 30
0.0
 10
211.6592900698759
 20
96.64293250545316
 30
0.0
 10
211.4828390523867
 20
96.06600345419642
 30
0.0
 10
211.3124416851348
 20
95.6857540209934
 30
0.0
 10
211.104518101986
 20
95.30861256104595
 30
0.0
  0
SPLINE
  5
106
330
1F
100
AcDbEntity
  8
0
  6
Continuous
 62
     7
370
    25
100
AcDbSpline
210
0.0
220
0.0
230
1.0
 70
     8
 71
     3
 72
    10
 73
     6
 74
     0
 42
0.00000001
 43
0.00000001
 40
0.0
 40
0.0
 40
0.0
 40
0.0
 40
0.5
 40
0.5
 40
1.0
 40
1.0
 40
1.0
 40
1.0
 10
212.730424651837
 20
78.93451911089645
 30
0.0
 10
212.3516755044457
 20
78.72570918623018
 30
0.0
 10
211.9704702280344
 20
78.55517504648292
 30
0.0
 10
211.2012396068466
 20
78.320389241464
 30
0.0
 10
210.8131719020483
 20
78.25679770563671
 30
0.0
 10
210.4210235750785
 20
78.25679770563671
 30
0.0
  0
SPLINE
  5
107
330
1F
100
AcDbEntity
  8
0
  6
Continuous
 62
     7
370
    25
100
AcDbSpline
210
0.0
220
0.0
230
1.0
 70
     8
 71
     3
 72
    10
 73
     6
 74
     0
 42
0.00000001
 43
0.00000001
 40
0.0
 40
0.0
 40
0.0
 40
0.0
 40
0.5
 40
0.5
 40
1.0
 40
1.0
 40
1.0
 40
1.0
 10
212.730424651837
 20
78.93451911089691
 30
0.0
 10
212.7733624609362
 20
78.95819135080846
 30
0.0
 10
212.8368030508284
 20
78.97128534074373
 30
0.0
 10
212.9892921963373
 20
78.97137220820517
 30
0.0
 10
213.0775215855406
 20
78.95820241844581
 30
0.0
 10
213.1634373537292
 20
78.93451911089691
 30
0.0
  0
LINE
  5
108
330
1F
100
AcDbEntity
  8
0
  6
Continuous
 62
     7
370
    25
100
AcDbLine
 10
210.4210235751
 20
78.2567977056
 30
0.0
 11
217.7822395072
 21
78.2567977056
 31
0.0
  0
SPLINE
  5
109
330
1F
100
AcDbEntity
  8
0
  6
Continuous
 62
     7
370
    25
100
AcDbSpline
210
0.0
220
0.0
230
1.0
 70
     8
 71
     3
 72
    10
 73
     6
 74
     0
 42
0.00000001
 43
0.00000001
 40
0.0
 40
0.0
 40
0.0
 40
0.0
 40
0.5
 40
0.5
 40
1.0
 40
1.0
 40
1.0
 40
1.0
 10
222.4010416607632
 20
82.29040116578169
 30
0.0
 10
222.4869287225658
 20
82.26672577135729
 30
0.0
 10
222.574335931546
 20
82.25363466147266
 30
0.0
 10
222.7269723741398
 20
82.25354834018444
 30
0.0
 10
222.7910954190856
 20
82.26671727412838
 30
0.0
 10
222.8340543626558
 20
82.29040116578193
 30
0.0
  0
LINE
  5
10A
330
1F
100
AcDbEntity
  8
0
  6
Continuous
 62
     7
370
    25
100
AcDbLine
 10
222.8340543627
 20
82.2904011658
 30
0.0
 11
222.8340543627
 21
78.9345191109
 31
0.0
  0
SPLINE
  5
10B
330
1F
100
AcDbEntity
  8
0
  6
Continuous
 62
     7
370
    25
100
AcDbSpline
210
0.0
220
0.0
230
1.0
 70
     8
 71
     3
 72
    10
 73
     6
 74
     0
 42
0.00000001
 43
0.00000001
 40
0.0
 40
0.0
 40
0.0
 40
0.0
 40
0.5
 40
0.5
 40
1.0
 40
1.0
 40
1.0
 40
1.0
 10
212.730424651837
 20
82.2904011657817
 30
0.0
 10
212.7733681827382
 20
82.26672577135733
 30
0.0
 10
212.8368106273624
 20
82.25363466147269
 30
0.0
 10
212.9892894644813
 20
82.25354834018441
 30
0.0
 10
213.0775194665886
 20
82.26671727412824
 30
0.0
 10
213.1634373537292
 20
82.2904011657817
 30
0.0
  0
LINE
  5
10C
330
1F
100
AcDbEntity
  8
0
  6
Continuous
 62
     7
370
    25
100
AcDbLine
 10
212.7304246518
 20
78.9345191109
 30
0.0
 11
212.7304246518
 21
82.2904011658
 31
0.0
  0
LINE
  5
10D
330
1F
100
AcDbEntity
  8
0
  6
Continuous
 62
     7
370
    25
100
AcDbLine
 10
228.9601805347
 20
85.2049828502
 30
0.0
 11
224.4599609125
 21
85.2049828502
 31
0.0
  0
SPLINE
  5
10E
330
1F
100
AcDbEntity
  8
0
  6
Continuous
 62
     7
370
    25
100
AcDbSpline
210
0.0
220
0.0
230
1.0
 70
     8
 71
     3
 72
    10
 73
     6
 74
     0
 42
0.00000001
 43
0.00000001
 40
0.0
 40
0.0
 40
0.0
 40
0.0
 40
0.5
 40
0.5
 40
1.0
 40
1.0
 40
1.0
 40
1.0
 10
224.4599609125031
 20
85.20498285022748
 30
0.0
 10
224.4836363069275
 20
85.24792638112865
 30
0.0
 10
224.4967274168154
 20
85.31136882575244
 30
0.0
 10
224.4968137381038
 20
85.46384766287152
 30
0.0
 10
224.4836448041599
 20
85.55207766497895
 30
0.0
 10
224.4599609125064
 20
85.63799555211969
 30
0.0
  0
SPLINE
  5
10F
330
1F
100
AcDbEntity
  8
0
  6
Continuous
 62
     7
370
    25
100
AcDbSpline
210
0.0
220
0.0
230
1.0
 70
     8
 71
     3
 72
    10
 73
     6
 74
     0
 42
0.00000001
 43
0.00000001
 40
0.0
 40
0.0
 40
0.0
 40
0.0
 40
0.5
 40
0.5
 40
1.0
 40
1.0
 40
1.0
 40
1.0
 10
228.9601805346885
 20
85.6379955521197
 30
0.0
 10
228.9365051402641
 20
85.55210849031725
 30
0.0
 10
228.9234140303796
 20
85.46470128133711
 30
0.0
 10
228.9233277090913
 20
85.31206483874338
 30
0.0
 10
228.9364966430352
 20
85.24794179379779
 30
0.0
 10
228.9601805346886
 20
85.20498285022748
 30
0.0
  0
SPLINE
  5
110
330
1F
100
AcDbEntity
  8
0
  6
Continuous
 62
     7
370
    25
100
AcDbSpline
210
0.0
220
0.0
230
1.0
 70
     8
 71
     3
 72
    10
 73
     6
 74
     0
 42
0.00000001
 43
0.00000001
 40
0.0
 40
0.0
 40
0.0
 40
0.0
 40
0.5
 40
0.5
 40
1.0
 40
1.0
 40
1.0
 40
1.0
 10
211.104518101986
 20
85.6379955521197
 30
0.0
 10
211.0808427075616
 20
85.55210849031725
 30
0.0
 10
211.067751597677
 20
85.46470128133713
 30
0.0
 10
211.0676652763887
 20
85.31206483874338
 30
0.0
 10
211.0808342103325
 20
85.24794179379779
 30
0.0
 10
211.104518101986
 20
85.20498285022748
 30
0.0
  0
LINE
  5
111
330
1F
100
AcDbEntity
  8
0
  6
Continuous
 62
     7
370
    25
100
AcDbLine
 10
211.104518102
 20
85.2049828502
 30
0.0
 11
206.9599609125
 21
85.2049828502
 31
0.0
  0
SPLINE
  5
112
330
1F
100
AcDbEntity
  8
0
  6
Continuous
 62
     7
370
    25
100
AcDbSpline
210
0.0
220
0.0
230
1.0
 70
     8
 71
     3
 72
    10
 73
     6
 74
     0
 42
0.00000001
 43
0.00000001
 40
0.0
 40
0.0
 40
0.0
 40
0.0
 40
0.5
 40
0.5
 40
1.0
 40
1.0
 40
1.0
 40
1.0
 10
206.9599609125064
 20
85.6379955521197
 30
0.0
 10
206.9836348130624
 20
85.55211390961324
 30
0.0
 10
206.9967273702415
 20
85.46470470364781
 30
0.0
 10
206.9968137842238
 20
85.31206221857289
 30
0.0
 10
206.9836433926251
 20
85.24793923349051
 30
0.0
 10
206.9599609125064
 20
85.20498285022748
 30
0.0
  0
LINE
  5
113
330
1F
100
AcDbEntity
  8
0
  6
Continuous
 62
     7
370
    25
100
AcDbLine
 10
206.2822395072
 20
90.2567977056
 30
0.0
 11
206.2822395072
 21
82.8955817735
 31
0.0
  0
SPLINE
  5
114
330
1F
100
AcDbEntity
  8
0
  6
Continuous
 62
     7
370
    25
100
AcDbSpline
210
0.0
220
0.0
230
1.0
 70
     8
 71
     3
 72
    12
 73
     8
 74
     0
 42
0.00000001
 43
0.00000001
 40
0.0
 40
0.0
 40
0.0
 40
0.0
 40
0.2499999999999999
 40
0.2499999999999999
 40
0.4999999999999998
 40
0.4999999999999998
 40
1.0
 40
1.0
 40
1.0
 40
1.0
 10
206.2822395072462
 20
82.89558177346898
 30
0.0
 10
206.2822395072462
 20
83.09058525347477
 30
0.0
 10
206.2979858372682
 20
83.2871199124992
 30
0.0
 10
206.3594308618536
 20
83.67653960010473
 30
0.0
 10
206.4050196211073
 20
83.870024293165
 30
0.0
 10
206.5814706233639
 20
84.4472078919206
 30
0.0
 10
206.7519283253274
 20
84.82764367370356
 30
0.0
 10
206.9599609125063
 20
85.2049828502275
 30
0.0
  0
LINE
  5
115
330
1F
100
AcDbEntity
  8
0
  6
Continuous
 62
     7
370
    25
100
AcDbLine
 10
206.2822395072
 20
90.2567977056
 30
0.0
 11
206.2822395072
 21
97.6180136378
 31
0.0
  0
SPLINE
  5
116
330
1F
100
AcDbEntity
  8
0
  6
Continuous
 62
     7
370
    25
100
AcDbSpline
210
0.0
220
0.0
230
1.0
 70
     8
 71
     3
 72
    10
 73
     6
 74
     0
 42
0.00000001
 43
0.00000001
 40
0.0
 40
0.0
 40
0.0
 40
0.0
 40
0.5
 40
0.5
 40
1.0
 40
1.0
 40
1.0
 40
1.0
 10
206.9599609125059
 20
95.30861256104592
 30
0.0
 10
206.7511509878397
 20
95.6873617084372
 30
0.0
 10
206.5806168480924
 20
96.0685669848485
 30
0.0
 10
206.3458310430735
 20
96.83779760603628
 30
0.0
 10
206.2822395072462
 20
97.2258653108346
 30
0.0
 10
206.2822395072462
 20
97.61801363780445
 30
0.0
  0
SPLINE
  5
117
330
1F
100
AcDbEntity
  8
0
  6
Continuous
 62
     7
370
    25
100
AcDbSpline
210
0.0
220
0.0
230
1.0
 70
     8
 71
     3
 72
    10
 73
     6
 74
     0
 42
0.00000001
 43
0.00000001
 40
0.0
 40
0.0
 40
0.0
 40
0.0
 40
0.5
 40
0.5
 40
1.0
 40
1.0
 40
1.0
 40
1.0
 10
206.9599609125064
 20
95.30861256104595
 30
0.0
 10
206.983633152418
 20
95.2656747519467
 30
0.0
 10
206.9967271423532
 20
95.20223416205451
 30
0.0
 10
206.9968140098147
 20
95.04974501654567
 30
0.0
 10
206.9836442200553
 20
94.96151562734235
 30
0.0
 10
206.9599609125064
 20
94.87559985915372
 30
0.0
  0
SPLINE
  5
118
330
1F
100
AcDbEntity
  8
0
  6
Continuous
 62
     7
370
    25
100
AcDbSpline
210
0.0
220
0.0
230
1.0
 70
     8
 71
     3
 72
     8
 73
     4
 74
     0
 42
0.00000001
 43
0.00000001
 40
0.0
 40
0.0
 40
0.0
 40
0.0
 40
1.0
 40
1.0
 40
1.0
 40
1.0
 10
223.9036229987423
 20
83.84667617231148
 30
0.0
 10
223.8625077231011
 20
83.98270656680101
 30
0.0
 10
223.8220187402333
 20
84.11941063143846
 30
0.0
 10
223.7822395072462
 20
84.25679770563671
 30
0.0
  0
LINE
  5
119
330
1F
100
AcDbEntity
  8
0
  6
Continuous
 62
     7
370
    25
100
AcDbLine
 10
223.7822395072
 20
86.2567977056
 30
0.0
 11
223.7822395072
 21
84.2567977056
 31
0.0
  0
SPLINE
  5
11A
330
1F
100
AcDbEntity
  8
0
  6
Continuous
 62
     7
370
    25
100
AcDbSpline
210
0.0
220
0.0
230
1.0
 70
     8
 71
     3
 72
     8
 73
     4
 74
     0
 42
0.00000001
 43
0.00000001
 40
0.0
 40
0.0
 40
0.0
 40
0.0
 40
1.0
 40
1.0
 40
1.0
 40
1.0
 10
223.9036229987423
 20
83.84667617231148
 30
0.0
 10
224.0192556087714
 20
84.30522710436924
 30
0.0
 10
224.2131450135919
 20
84.75729670012748
 30
0.0
 10
224.4599609125063
 20
85.20498285022724
 30
0.0
  0
SPLINE
  5
11B
330
1F
100
AcDbEntity
  8
0
  6
Continuous
 62
     7
370
    25
100
AcDbSpline
210
0.0
220
0.0
230
1.0
 70
     8
 71
     3
 72
     8
 73
     4
 74
     0
 42
0.00000001
 43
0.00000001
 40
0.0
 40
0.0
 40
0.0
 40
0.0
 40
1.0
 40
1.0
 40
1.0
 40
1.0
 10
210.4928633226296
 20
82.96742152100798
 30
0.0
 10
210.8018804652714
 20
83.06842662883811
 30
0.0
 10
211.1171982215893
 20
83.16508341790404
 30
0.0
 10
211.4396775484323
 20
83.25679770563671
 30
0.0
  0
SPLINE
  5
11C
330
1F
100
AcDbEntity
  8
0
  6
Continuous
 62
     7
370
    25
100
AcDbSpline
210
0.0
220
0.0
230
1.0
 70
     8
 71
     3
 72
    12
 73
     8
 74
     0
 42
0.00000001
 43
0.00000001
 40
0.0
 40
0.0
 40
0.0
 40
0.0
 40
0.2500000000000002
 40
0.2500000000000002
 40
0.5000000000000004
 40
0.5000000000000004
 40
1.0
 40
1.0
 40
1.0
 40
1.0
 10
210.4928633226243
 20
82.96742152100185
 30
0.0
 10
210.6828894979276
 20
82.96371303514542
 30
0.0
 10
210.8731045606134
 20
82.94513053230774
 30
0.0
 10
211.2500413197458
 20
82.8802634953416
 30
0.0
 10
211.4373641110053
 20
82.83399794209133
 30
0.0
 10
211.9962740673194
 20
82.65827341178436
 30
0.0
 10
212.3648097254297
 20
82.49197000300762
 30
0.0
 10
212.730424651837
 20
82.2904011657817
 30
0.0
  0
LINE
  5
11D
330
1F
100
AcDbEntity
  8
0
  6
Continuous
 62
     7
370
    25
100
AcDbLine
 10
213.7284785007
 20
89.6823658492
 30
0.0
 11
214.3358268595
 21
89.6823658492
 31
0.0
  0
LINE
  5
11E
330
1F
100
AcDbEntity
  8
0
  6
Continuous
 62
     7
370
    25
100
AcDbLine
 10
213.9522914436
 20
90.6009801951
 30
0.0
 11
213.6486172625
 21
89.7903975782
 31
0.0
  0
ELLIPSE
  5
11F
330
1F
100
AcDbEntity
  8
0
  6
Continuous
 62
     7
370
    25
100
AcDbEllipse
 10
214.0321526819
 20
90.5737901832
 30
0.0
 11
0.08480161849067258
 21
1.421085471520200E-14
 31
0.0
210
0.0
220
0.0
230
1.0
 40
0.9533039403
 41
0.3430239404205716
 42
2.798568713168874
  0
LINE
  5
120
330
1F
100
AcDbEntity
  8
0
  6
Continuous
 62
     7
370
    25
100
AcDbLine
 10
214.4156880979
 20
89.7903975779
 30
0.0
 11
214.1120139202
 21
90.6009801951
 31
0.0
  0
ELLIPSE
  5
121
330
1F
100
AcDbEntity
  8
0
  6
Continuous
 62
     7
370
    25
100
AcDbEllipse
 10
214.3358268595
 20
89.7632075662
 30
0.0
 11
-0.08480161849067258
 21
-4.263256414560601E-14
 31
0.0
210
0.0
220
0.0
230
1.0
 40
0.9533039403
 41
1.570796326794417
 42
3.484616592149421
  0
ELLIPSE
  5
122
330
1F
100
AcDbEntity
  8
0
  6
Continuous
 62
     7
370
    25
100
AcDbEllipse
 10
213.7284785007
 20
89.7632075662
 30
0.0
 11
0.08480161849067258
 21
-1.421085471520200E-14
 31
0.0
210
0.0
220
0.0
230
1.0
 40
0.9533039403
 41
2.798568711308443
 42
4.712388980384862
  0
SPLINE
  5
123
330
1F
100
AcDbEntity
  8
0
  6
Continuous
 62
     7
370
    25
100
AcDbSpline
210
0.0
220
0.0
230
1.0
 70
     8
 71
     3
 72
     8
 73
     4
 74
     0
 42
0.00000001
 43
0.00000001
 40
0.0
 40
0.0
 40
0.0
 40
0.0
 40
1.0
 40
1.0
 40
1.0
 40
1.0
 10
224.1248014660601
 20
83.25679770563671
 30
0.0
 10
224.4472807929093
 20
83.16508341790225
 30
0.0
 10
224.7625985492333
 20
83.06842662883435
 30
0.0
 10
225.0716156918808
 20
82.96742152100211
 30
0.0
  0
SPLINE
  5
124
330
1F
100
AcDbEntity
  8
0
  6
Continuous
 62
     7
370
    25
100
AcDbSpline
210
0.0
220
0.0
230
1.0
 70
     8
 71
     3
 72
    10
 73
     6
 74
     0
 42
0.00000001
 43
0.00000001
 40
0.0
 40
0.0
 40
0.0
 40
0.0
 40
0.5
 40
0.5
 40
1.0
 40
1.0
 40
1.0
 40
1.0
 10
222.8340543626557
 20
82.29040116578186
 30
0.0
 10
223.2005723094962
 20
82.49246785133279
 30
0.0
 10
223.5696525349621
 20
82.65886062360343
 30
0.0
 10
224.3149048831895
 20
82.8929075974735
 30
0.0
 10
224.6911176551372
 20
82.95999585143232
 30
0.0
 10
225.0716156918808
 20
82.96742152100211
 30
0.0
  0
LINE
  5
125
330
1F
100
AcDbEntity
  8
0
  6
Continuous
 62
     7
370
    25
100
AcDbLine
 10
223.7822395072
 20
97.6180136378
 30
0.0
 11
223.7822395072
 21
94.2567977056
 31
0.0
  0
SPLINE
  5
126
330
1F
100
AcDbEntity
  8
0
  6
Continuous
 62
     7
370
    25
100
AcDbSpline
210
0.0
220
0.0
230
1.0
 70
     8
 71
     3
 72
    10
 73
     6
 74
     0
 42
0.00000001
 43
0.00000001
 40
0.0
 40
0.0
 40
0.0
 40
0.0
 40
0.5
 40
0.5
 40
1.0
 40
1.0
 40
1.0
 40
1.0
 10
224.4599609125064
 20
95.30861256104592
 30
0.0
 10
224.251540159689
 20
95.68665581044807
 30
0.0
 10
224.0810763244116
 20
96.06742531524392
 30
0.0
 10
223.8460938894732
 20
96.83657384080148
 30
0.0
 10
223.7822395072462
 20
97.22500056897672
 30
0.0
 10
223.7822395072462
 20
97.61801363780445
 30
0.0
  0
SPLINE
  5
127
330
1F
100
AcDbEntity
  8
0
  6
Continuous
 62
     7
370
    25
100
AcDbSpline
210
0.0
220
0.0
230
1.0
 70
     8
 71
     3
 72
    10
 73
     6
 74
     0
 42
0.00000001
 43
0.00000001
 40
0.0
 40
0.0
 40
0.0
 40
0.0
 40
0.5
 40
0.5
 40
1.0
 40
1.0
 40
1.0
 40
1.0
 10
224.4599609125064
 20
94.87559985915372
 30
0.0
 10
224.4836363069308
 20
94.96148692095618
 30
0.0
 10
224.4967274168154
 20
95.04889412993627
 30
0.0
 10
224.4968137381037
 20
95.20153057253002
 30
0.0
 10
224.4836448041599
 20
95.26565361747559
 30
0.0
 10
224.4599609125064
 20
95.30861256104592
 30
0.0
  0
SPLINE
  5
128
330
1F
100
AcDbEntity
  8
0
  6
Continuous
 62
     7
370
    25
100
AcDbSpline
210
0.0
220
0.0
230
1.0
 70
     8
 71
     3
 72
    10
 73
     6
 74
     0
 42
0.00000001
 43
0.00000001
 40
0.0
 40
0.0
 40
0.0
 40
0.0
 40
0.5
 40
0.5
 40
1.0
 40
1.0
 40
1.0
 40
1.0
 10
228.9601805346886
 20
95.30861256104595
 30
0.0
 10
228.9365051402642
 20
95.26566903014472
 30
0.0
 10
228.9234140303796
 20
95.20222658552059
 30
0.0
 10
228.9233277090913
 20
95.04974774840163
 30
0.0
 10
228.9364966430352
 20
94.96151774629436
 30
0.0
 10
228.9601805346886
 20
94.87559985915372
 30
0.0
  0
SPLINE
  5
129
330
1F
100
AcDbEntity
  8
0
  6
Continuous
 62
     7
370
    25
100
AcDbSpline
210
0.0
220
0.0
230
1.0
 70
     8
 71
     3
 72
    16
 73
    12
 74
     0
 42
0.00000001
 43
0.00000001
 40
0.0
 40
0.0
 40
0.0
 40
0.0
 40
0.2500000000000001
 40
0.2500000000000001
 40
0.5000000000000001
 40
0.5000000000000001
 40
0.6250000000000001
 40
0.6250000000000001
 40
0.7500000000000002
 40
0.7500000000000002
 40
1.0
 40
1.0
 40
1.0
 40
1.0
 10
228.9601805346886
 20
99.92741471456296
 30
0.0
 10
229.1681959827944
 20
99.55010662568645
 30
0.0
 10
229.3384022877674
 20
99.17008289531225
 30
0.0
 10
229.573338319335
 20
98.40245957990156
 30
0.0
 10
229.6374104509986
 20
98.01481276311276
 30
0.0
 10
229.6381433999196
 20
97.42649221122491
 30
0.0
 10
229.6224839198366
 20
97.22941901866928
 30
0.0
 10
229.5612087931997
 20
96.83936204111517
 30
0.0
 10
229.5156525207005
 20
96.64556914052713
 30
0.0
 10
229.3391664879443
 20
96.0674881557637
 30
0.0
 10
229.1685100344585
 20
95.68649029142888
 30
0.0
 10
228.9601805346886
 20
95.30861256104595
 30
0.0
  0
SPLINE
  5
12A
330
1F
100
AcDbEntity
  8
0
  6
Continuous
 62
     7
370
    25
100
AcDbSpline
210
0.0
220
0.0
230
1.0
 70
     8
 71
     3
 72
    10
 73
     6
 74
     0
 42
0.00000001
 43
0.00000001
 40
0.0
 40
0.0
 40
0.0
 40
0.0
 40
0.1601790552921226
 40
0.7197651707803578
 40
1.0
 40
1.0
 40
1.0
 40
1.0
 10
228.9259511015717
 20
99.9896929933127
 30
0.0
 10
228.9251883114785
 20
99.99108522133906
 30
0.0
 10
228.9217607114047
 20
99.99734120306739
 30
0.0
 10
228.936268176203
 20
99.97083393833948
 30
0.0
 10
228.9541977293208
 20
99.93827808319432
 30
0.0
 10
228.9601805346886
 20
99.92741471456296
 30
0.0
  0
SPLINE
  5
12B
330
1F
100
AcDbEntity
  8
0
  6
Continuous
 62
     7
370
    25
100
AcDbSpline
210
0.0
220
0.0
230
1.0
 70
     8
 71
     3
 72
     9
 73
     5
 74
     0
 42
0.00000001
 43
0.00000001
 40
0.0
 40
0.0
 40
0.0
 40
0.0
 40
0.5797912171256352
 40
1.0
 40
1.0
 40
1.0
 40
1.0
 10
228.9601805346886
 20
80.58618069671049
 30
0.0
 10
228.9478219313421
 20
80.56370704846935
 30
0.0
 10
228.9265063215478
 20
80.52494542604853
 30
0.0
 10
228.926115379045
 20
80.52421102129031
 30
0.0
 10
228.9259511015717
 20
80.52390241796074
 30
0.0
  0
SPLINE
  5
12C
330
1F
100
AcDbEntity
  8
0
  6
Continuous
 62
     7
370
    25
100
AcDbSpline
210
0.0
220
0.0
230
1.0
 70
     8
 71
     3
 72
    16
 73
    12
 74
     0
 42
0.00000001
 43
0.00000001
 40
0.0
 40
0.0
 40
0.0
 40
0.0
 40
0.2500000000000001
 40
0.2500000000000001
 40
0.5000000000000002
 40
0.5000000000000002
 40
0.6250000000000001
 40
0.6250000000000001
 40
0.7500000000000001
 40
0.7500000000000001
 40
1.0
 40
1.0
 40
1.0
 40
1.0
 10
228.9601805346886
 20
85.20498285022748
 30
0.0
 10
229.1681959827944
 20
84.82767476135099
 30
0.0
 10
229.3384022877674
 20
84.44765103097679
 30
0.0
 10
229.573338319335
 20
83.6800277155661
 30
0.0
 10
229.6374104509986
 20
83.2923808987773
 30
0.0
 10
229.6381433999196
 20
82.70406034688946
 30
0.0
 10
229.6224839198366
 20
82.5069871543338
 30
0.0
 10
229.5612087931997
 20
82.1169301767797
 30
0.0
 10
229.5156525207005
 20
81.92313727619165
 30
0.0
 10
229.3391664879443
 20
81.34505629142824
 30
0.0
 10
229.1685100344585
 20
80.96405842709342
 30
0.0
 10
228.9601805346886
 20
80.58618069671049
 30
0.0
  0
LINE
  5
12D
330
1F
100
AcDbEntity
  8
0
  6
Continuous
 62
     7
370
    25
100
AcDbLine
 10
229.7822395072
 20
98.5067977056
 30
0.0
 11
229.7822395072
 21
82.0067977056
 31
0.0
  0
LINE
  5
12E
330
1F
100
AcDbEntity
  8
0
  6
Continuous
 62
     7
370
    25
100
AcDbLine
 10
224.4599609125
 20
95.308612561
 30
0.0
 11
228.9601805347
 21
95.308612561
 31
0.0
  0
LINE
  5
12F
330
1F
100
AcDbEntity
  8
0
  6
Continuous
 62
     7
370
    25
100
AcDbLine
 10
206.9599609125
 20
95.308612561
 30
0.0
 11
211.104518102
 21
95.308612561
 31
0.0
  0
LINE
  5
130
330
1F
100
AcDbEntity
  8
0
  6
Continuous
 62
     7
370
    25
100
AcDbLine
 10
211.7822395072
 20
86.2567977056
 30
0.0
 11
211.7822395072
 21
84.2567977056
 31
0.0
  0
SPLINE
  5
131
330
1F
100
AcDbEntity
  8
0
  6
Continuous
 62
     7
370
    25
100
AcDbSpline
210
0.0
220
0.0
230
1.0
 70
     8
 71
     3
 72
     8
 73
     4
 74
     0
 42
0.00000001
 43
0.00000001
 40
0.0
 40
0.0
 40
0.0
 40
0.0
 40
1.0
 40
1.0
 40
1.0
 40
1.0
 10
211.7822395072462
 20
84.25679770563671
 30
0.0
 10
211.742460849056
 20
84.11941261663661
 30
0.0
 10
211.7019718862278
 20
83.98270853482484
 30
0.0
 10
211.6608560157501
 20
83.84667617231146
 30
0.0
  0
SPLINE
  5
132
330
1F
100
AcDbEntity
  8
0
  6
Continuous
 62
     7
370
    25
100
AcDbSpline
210
0.0
220
0.0
230
1.0
 70
     8
 71
     3
 72
     8
 73
     4
 74
     0
 42
0.00000001
 43
0.00000001
 40
0.0
 40
0.0
 40
0.0
 40
0.0
 40
1.0
 40
1.0
 40
1.0
 40
1.0
 10
211.104518101986
 20
85.20498285022748
 30
0.0
 10
211.3516918828699
 20
84.75664755717615
 30
0.0
 10
211.5454135511739
 20
84.30447306643258
 30
0.0
 10
211.6608560157501
 20
83.84667617231146
 30
0.0
  0
SPLINE
  5
133
330
1F
100
AcDbEntity
  8
0
  6
Continuous
 62
     7
370
    25
100
AcDbSpline
210
0.0
220
0.0
230
1.0
 70
     8
 71
     3
 72
    12
 73
     8
 74
     0
 42
0.00000001
 43
0.00000001
 40
0.0
 40
0.0
 40
0.0
 40
0.0
 40
0.2499999999999999
 40
0.2499999999999999
 40
0.4999999999999998
 40
0.4999999999999998
 40
1.0
 40
1.0
 40
1.0
 40
1.0
 10
223.7822395072462
 20
97.61801363780445
 30
0.0
 10
223.7822395072462
 20
97.81375590068396
 30
0.0
 10
223.7980824433351
 20
98.01042250987452
 30
0.0
 10
223.8595853035728
 20
98.3996907372028
 30
0.0
 10
223.9051889446165
 20
98.59309477015573
 30
0.0
 10
224.0816399621058
 20
99.17002382141249
 30
0.0
 10
224.2520373293576
 20
99.55027325461549
 30
0.0
 10
224.4599609125064
 20
99.92741471456296
 30
0.0
  0
LINE
  5
134
330
1F
100
AcDbEntity
  8
0
  6
Continuous
 62
     7
370
    25
100
AcDbLine
 10
228.9601805347
 20
99.9274147146
 30
0.0
 11
224.4599609125
 21
99.9274147146
 31
0.0
  0
ELLIPSE
  5
135
330
1F
100
AcDbEntity
  8
0
  6
Continuous
 62
     7
370
    25
100
AcDbEllipse
 10
217.7822395072
 20
80.4418431294
 30
0.0
 11
8.5
 21
0.0
 31
0.0
210
0.0
220
0.0
230
1.0
 40
0.5773502692
 41
2.374833212873085
 42
2.530692279913058
  0
LINE
  5
136
330
1F
100
AcDbEntity
  8
0
  6
Continuous
 62
     7
370
    25
100
AcDbLine
 10
210.4928633226
 20
82.967421521
 30
0.0
 11
208.1116224983
 21
80.5861806967
 31
0.0
  0
LINE
  5
137
330
1F
100
AcDbEntity
  8
0
  6
Continuous
 62
     7
370
    25
100
AcDbLine
 10
206.9599609125
 20
80.5861806967
 30
0.0
 11
208.1116224983
 21
80.5861806967
 31
0.0
  0
SPLINE
  5
138
330
1F
100
AcDbEntity
  8
0
  6
Continuous
 62
     7
370
    25
100
AcDbSpline
210
0.0
220
0.0
230
1.0
 70
     8
 71
     3
 72
    10
 73
     6
 74
     0
 42
0.00000001
 43
0.00000001
 40
0.0
 40
0.0
 40
0.0
 40
0.0
 40
0.5
 40
0.5
 40
1.0
 40
1.0
 40
1.0
 40
1.0
 10
206.9599609125059
 20
80.58618069671044
 30
0.0
 10
206.7511509878397
 20
80.96492984410173
 30
0.0
 10
206.5806168480924
 20
81.34613512051304
 30
0.0
 10
206.3458310430735
 20
82.11536574170083
 30
0.0
 10
206.2822395072462
 20
82.50343344649914
 30
0.0
 10
206.2822395072462
 20
82.89558177346898
 30
0.0
  0
ELLIPSE
  5
139
330
1F
100
AcDbEntity
  8
0
  6
Continuous
 62
     7
370
    25
100
AcDbEllipse
 10
217.7822395072
 20
80.4418431294
 30
0.0
 11
8.5
 21
0.0
 31
0.0
210
0.0
220
0.0
230
1.0
 40
0.5773502692
 41
0.6109003736767322
 42
0.7667594407167091
  0
LINE
  5
13A
330
1F
100
AcDbEntity
  8
0
  6
Continuous
 62
     7
370
    25
100
AcDbLine
 10
227.4528565162
 20
80.5861806967
 30
0.0
 11
228.9601805347
 21
80.5861806967
 31
0.0
  0
LINE
  5
13B
330
1F
100
AcDbEntity
  8
0
  6
Continuous
 62
     7
370
    25
100
AcDbLine
 10
227.4528565162
 20
80.5861806967
 30
0.0
 11
225.0716156919
 21
82.967421521
 31
0.0
  0
SPLINE
  5
13C
330
1F
100
AcDbEntity
  8
0
  6
Continuous
 62
     7
370
    25
100
AcDbSpline
210
0.0
220
0.0
230
1.0
 70
     8
 71
     3
 72
    12
 73
     8
 74
     0
 42
0.00000001
 43
0.00000001
 40
0.0
 40
0.0
 40
0.0
 40
0.0
 40
0.2499999999999999
 40
0.2499999999999999
 40
0.5
 40
0.5
 40
1.0
 40
1.0
 40
1.0
 40
1.0
 10
206.2822395072462
 20
97.61801363780445
 30
0.0
 10
206.2822395072462
 20
97.81301711781023
 30
0.0
 10
206.2979858372682
 20
98.00955177683466
 30
0.0
 10
206.3594308618536
 20
98.3989714644402
 30
0.0
 10
206.4050196211073
 20
98.59245615750045
 30
0.0
 10
206.5814706233639
 20
99.16963975625606
 30
0.0
 10
206.7519283253274
 20
99.55007553803902
 30
0.0
 10
206.9599609125063
 20
99.92741471456296
 30
0.0
  0
LINE
  5
13D
330
1F
100
AcDbEntity
  8
0
  6
Continuous
 62
     7
370
    25
100
AcDbLine
 10
211.104518102
 20
99.9274147146
 30
0.0
 11
206.9599609125
 21
99.9274147146
 31
0.0
  0
SPLINE
  5
13E
330
1F
100
AcDbEntity
  8
0
  6
Continuous
 62
     7
370
    25
100
AcDbSpline
210
0.0
220
0.0
230
1.0
 70
     8
 71
     3
 72
    10
 73
     6
 74
     0
 42
0.00000001
 43
0.00000001
 40
0.0
 40
0.0
 40
0.0
 40
0.0
 40
0.5
 40
0.5
 40
1.0
 40
1.0
 40
1.0
 40
1.0
 10
211.104518101986
 20
99.92741471456297
 30
0.0
 10
211.3129388548034
 20
99.54937146516082
 30
0.0
 10
211.4834026900809
 20
99.16860196036497
 30
0.0
 10
211.7183851250193
 20
98.39945343480743
 30
0.0
 10
211.7822395072462
 20
98.01102670663218
 30
0.0
 10
211.7822395072462
 20
97.61801363780445
 30
0.0
  0
SPLINE
  5
13F
330
1F
100
AcDbEntity
  8
0
  6
Continuous
 62
     7
370
    25
100
AcDbSpline
210
0.0
220
0.0
230
1.0
 70
     8
 71
     3
 72
    12
 73
     8
 74
     0
 42
0.00000001
 43
0.00000001
 40
0.0
 40
0.0
 40
0.0
 40
0.0
 40
0.2499999999999996
 40
0.2499999999999996
 40
0.4999999999999993
 40
0.4999999999999993
 40
1.0
 40
1.0
 40
1.0
 40
1.0
 10
210.4210235750785
 20
78.25679770563671
 30
0.0
 10
210.2260200950727
 20
78.2567977056367
 30
0.0
 10
210.0294854360483
 20
78.27254403565867
 30
0.0
 10
209.6400657484427
 20
78.33398906024411
 30
0.0
 10
209.4465810553825
 20
78.37957781949783
 30
0.0
 10
208.8693974566269
 20
78.55602882175442
 30
0.0
 10
208.4889616748439
 20
78.72648652371791
 30
0.0
 10
208.11162249832
 20
78.93451911089676
 30
0.0
  0
LINE
  5
140
330
1F
100
AcDbEntity
  8
0
  6
Continuous
 62
     7
370
    25
100
AcDbLine
 10
208.1116224983
 20
80.5861806967
 30
0.0
 11
208.1116224983
 21
78.9345191109
 31
0.0
  0
LINE
  5
141
330
1F
100
AcDbEntity
  8
0
  6
Continuous
 62
     7
370
    25
100
AcDbLine
 10
227.4528565162
 20
78.9345191109
 30
0.0
 11
227.4528565162
 21
80.5861806967
 31
0.0
  0
SPLINE
  5
142
330
1F
100
AcDbEntity
  8
0
  6
Continuous
 62
     7
370
    25
100
AcDbSpline
210
0.0
220
0.0
230
1.0
 70
     8
 71
     3
 72
    10
 73
     6
 74
     0
 42
0.00000001
 43
0.00000001
 40
0.0
 40
0.0
 40
0.0
 40
0.0
 40
0.5
 40
0.5
 40
1.0
 40
1.0
 40
1.0
 40
1.0
 10
227.4528565161725
 20
78.93451911089645
 30
0.0
 10
227.0741073687812
 20
78.72570918623018
 30
0.0
 10
226.6929020923699
 20
78.55517504648292
 30
0.0
 10
225.9236714711821
 20
78.320389241464
 30
0.0
 10
225.5356037663838
 20
78.25679770563671
 30
0.0
 10
225.1434554394139
 20
78.25679770563671
 30
0.0
  0
LINE
  5
143
330
1F
100
AcDbEntity
  8
0
  6
Continuous
 62
     7
370
    25
100
AcDbLine
 10
223.7822395072
 20
84.2567977056
 30
0.0
 11
221.7822395072
 21
86.2567977056
 31
0.0
  0
LINE
  5
144
330
1F
100
AcDbEntity
  8
0
  6
Continuous
 62
     7
370
    25
100
AcDbLine
 10
221.7822395072
 20
83.2567977056
 30
0.0
 11
224.7448605799
 21
83.2567977056
 31
0.0
  0
LINE
  5
145
330
1F
100
AcDbEntity
  8
0
  6
Continuous
 62
     7
370
    25
100
AcDbLine
 10
213.7822395072
 20
86.2567977056
 30
0.0
 11
211.7822395072
 21
84.2567977056
 31
0.0
  0
LINE
  5
146
330
1F
100
AcDbEntity
  8
0
  6
Continuous
 62
     7
370
    25
100
AcDbLine
 10
210.8196184346
 20
83.2567977056
 30
0.0
 11
213.7822395072
 21
83.2567977056
 31
0.0
  0
LINE
  5
147
330
1F
100
AcDbEntity
  8
0
  6
Continuous
 62
     7
370
    25
100
AcDbLine
 10
211.7822395072
 20
98.1912521839
 30
0.0
 11
211.7822395072
 21
97.6180136378
 31
0.0
  0
SPLINE
  5
148
330
1F
100
AcDbEntity
  8
0
  6
Continuous
 62
     7
370
    25
100
AcDbSpline
210
0.0
220
0.0
230
1.0
 70
     8
 71
     3
 72
    32
 73
    28
 74
     0
 42
0.00000001
 43
0.00000001
 40
0.0
 40
0.0
 40
0.0
 40
0.0
 40
0.0625000000000001
 40
0.0625000000000001
 40
0.1250000000000001
 40
0.1250000000000001
 40
0.1875000000000002
 40
0.1875000000000002
 40
0.2500000000000003
 40
0.2500000000000003
 40
0.3750000000000003
 40
0.3750000000000003
 40
0.4375000000000003
 40
0.4375000000000003
 40
0.5000000000000002
 40
0.5000000000000002
 40
0.5625000000000002
 40
0.5625000000000002
 40
0.6250000000000001
 40
0.6250000000000001
 40
0.7500000000000001
 40
0.7500000000000001
 40
0.8750000000000002
 40
0.8750000000000002
 40
0.9375000000000001
 40
0.9375000000000001
 40
1.0
 40
1.0
 40
1.0
 40
1.0
 10
223.7822395072377
 20
98.19125218385737
 30
0.0
 10
223.6253831713209
 20
98.09629520596167
 30
0.0
 10
223.4523847371652
 20
97.99354203133649
 30
0.0
 10
223.0756801505394
 20
97.77683082968822
 30
0.0
 10
222.8728273700827
 20
97.66341211919821
 30
0.0
 10
222.4468461072801
 20
97.43532198250004
 30
0.0
 10
222.2226681469921
 20
97.32001510004818
 30
0.0
 10
221.7513170534157
 20
97.09169199767341
 30
0.0
 10
221.5026315380506
 20
96.97804198153966
 30
0.0
 10
220.732059053359
 20
96.65497795030562
 30
0.0
 10
220.1864216432768
 20
96.46207942614211
 30
0.0
 10
219.3036418947805
 20
96.25048550086841
 30
0.0
 10
219.0050027949076
 20
96.19484311475067
 30
0.0
 10
218.3985011941919
 20
96.11917504538684
 30
0.0
 10
218.0883539555259
 20
96.09920179961051
 30
0.0
 10
217.4682684668422
 20
96.09953556586376
 30
0.0
 10
217.1616974293741
 20
96.11953453118655
 30
0.0
 10
216.5550426820659
 20
96.19557331738301
 30
0.0
 10
216.2526696174406
 20
96.25222641751456
 30
0.0
 10
215.3760333146876
 20
96.46300496756041
 30
0.0
 10
214.8279791827108
 20
96.65655079813216
 30
0.0
 10
213.7974819154675
 20
97.08917009140795
 30
0.0
 10
213.329921880188
 20
97.32164673609839
 30
0.0
 10
212.6917082765601
 20
97.66338473701742
 30
0.0
 10
212.4884985383702
 20
97.77700225244581
 30
0.0
 10
212.1121616119758
 20
97.99350464480206
 30
0.0
 10
211.9391830034843
 20
98.09624244124645
 30
0.0
 10
211.7822395072462
 20
98.19125218386252
 30
0.0
  0
LINE
  5
149
330
1F
100
AcDbEntity
  8
0
  6
Continuous
 62
     7
370
    25
100
AcDbLine
 10
223.7822395072
 20
98.1912521839
 30
0.0
 11
223.7822395072
 21
97.6180136378
 31
0.0
  0
SPLINE
  5
14A
330
1F
100
AcDbEntity
  8
0
  6
Continuous
 62
     7
370
    25
100
AcDbSpline
210
0.0
220
0.0
230
1.0
 70
     8
 71
     3
 72
    12
 73
     8
 74
     0
 42
0.00000001
 43
0.00000001
 40
0.0
 40
0.0
 40
0.0
 40
0.0
 40
0.0821735270052371
 40
0.309693474540108
 40
0.5425051582295138
 40
0.7710683205978028
 40
1.0
 40
1.0
 40
1.0
 40
1.0
 10
223.9556786260001
 20
99.05000693602592
 30
0.0
 10
223.956810707385
 20
99.053776915013
 30
0.0
 10
223.9610772665841
 20
99.06798511483116
 30
0.0
 10
223.9286218686129
 20
98.96062852319903
 30
0.0
 10
223.8726572259773
 20
98.75469013018814
 30
0.0
 10
223.8044478423269
 20
98.47139481986056
 30
0.0
 10
223.7896462598846
 20
98.28468319526685
 30
0.0
 10
223.7822395072462
 20
98.19125218385538
 30
0.0
  0
SPLINE
  5
14B
330
1F
100
AcDbEntity
  8
0
  6
Continuous
 62
     7
370
    25
100
AcDbSpline
210
0.0
220
0.0
230
1.0
 70
     8
 71
     3
 72
    11
 73
     7
 74
     0
 42
0.00000001
 43
0.00000001
 40
0.0
 40
0.0
 40
0.0
 40
0.0
 40
0.3176418028925883
 40
0.6359707511458055
 40
0.8657042172526964
 40
1.0
 40
1.0
 40
1.0
 40
1.0
 10
211.7822395072462
 20
98.19125218386243
 30
0.0
 10
211.7686007331266
 20
98.3225168743403
 30
0.0
 10
211.7412936805202
 20
98.5853302164191
 30
0.0
 10
211.6532892627664
 20
98.89697392546104
 30
0.0
 10
211.6087294552756
 20
99.05071847585388
 30
0.0
 10
211.6090779393101
 20
99.04920593281753
 30
0.0
 10
211.6092065002331
 20
99.04864793328412
 30
0.0
  0
LINE
  5
14C
330
1F
100
AcDbEntity
  8
0
  6
Continuous
 62
     7
370
    25
100
AcDbLine
 10
211.8822395072
 20
99.7567977056
 30
0.0
 11
211.8828895194
 21
99.7562456605
 31
0.0
  0
LINE
  5
14D
330
1F
100
AcDbEntity
  8
0
  6
Continuous
 62
     7
370
    25
100
AcDbLine
 10
212.9999598804
 20
68.1117457651
 30
0.0
 11
222.5645191341
 21
68.1117457651
 31
0.0
  0
LINE
  5
14E
330
1F
100
AcDbEntity
  8
0
  6
Continuous
 62
     7
370
    25
100
AcDbLine
 10
221.7822395072
 20
66.7567977056
 30
0.0
 11
213.7822395072
 21
66.7567977056
 31
0.0
  0
SPLINE
  5
14F
330
1F
100
AcDbEntity
  8
0
  6
Continuous
 62
     7
370
    25
100
AcDbSpline
210
0.0
220
0.0
230
1.0
 70
     8
 71
     3
 72
    10
 73
     6
 74
     0
 42
0.00000001
 43
0.00000001
 40
0.0
 40
0.0
 40
0.0
 40
0.0
 40
0.1601790552921523
 40
0.7197651707804853
 40
1.0
 40
1.0
 40
1.0
 40
1.0
 10
211.0702886688691
 20
99.9896929933127
 30
0.0
 10
211.0695258787759
 20
99.99108522133906
 30
0.0
 10
211.0660982787021
 20
99.99734120306739
 30
0.0
 10
211.0806057435004
 20
99.97083393833948
 30
0.0
 10
211.0985352966182
 20
99.93827808319433
 30
0.0
 10
211.104518101986
 20
99.92741471456297
 30
0.0
  0
SPLINE
  5
150
330
1F
100
AcDbEntity
  8
0
  6
Continuous
 62
     7
370
    25
100
AcDbSpline
210
0.0
220
0.0
230
1.0
 70
     8
 71
     3
 72
     9
 73
     5
 74
     0
 42
0.00000001
 43
0.00000001
 40
0.0
 40
0.0
 40
0.0
 40
0.0
 40
0.5789479223911438
 40
1.0
 40
1.0
 40
1.0
 40
1.0
 10
227.4528565161725
 20
78.93451911089691
 30
0.0
 10
227.4752978833651
 20
78.94686000121132
 30
0.0
 10
227.5140602077896
 20
78.96817606408523
 30
0.0
 10
227.5148261106487
 20
78.96858423799961
 30
0.0
 10
227.5151485956388
 20
78.9687561004743
 30
0.0
  0
LINE
  5
151
330
1F
100
AcDbEntity
  8
0
  6
Continuous
 62
     7
370
    25
100
AcDbLine
 10
225.1434554394
 20
78.2567977056
 30
0.0
 11
226.2822395072
 21
78.2567977056
 31
0.0
  0
SPLINE
  5
152
330
1F
100
AcDbEntity
  8
0
  6
Continuous
 62
     7
370
    25
100
AcDbSpline
210
0.0
220
0.0
230
1.0
 70
     8
 71
     3
 72
     9
 73
     5
 74
     0
 42
0.00000001
 43
0.00000001
 40
0.0
 40
0.0
 40
0.0
 40
0.0
 40
0.5797912171256431
 40
1.0
 40
1.0
 40
1.0
 40
1.0
 10
224.4599609125064
 20
99.92741471456296
 30
0.0
 10
224.4723195158529
 20
99.94988836280407
 30
0.0
 10
224.4936351256473
 20
99.9886499852249
 30
0.0
 10
224.49402606815
 20
99.98938438998312
 30
0.0
 10
224.4941903456233
 20
99.9896929933127
 30
0.0
  0
SPLINE
  5
153
330
1F
100
AcDbEntity
  8
0
  6
Continuous
 62
     7
370
    25
100
AcDbSpline
210
0.0
220
0.0
230
1.0
 70
     8
 71
     3
 72
    10
 73
     6
 74
     0
 42
0.00000001
 43
0.00000001
 40
0.0
 40
0.0
 40
0.0
 40
0.0
 40
0.1593935212994522
 40
0.7189934545690309
 40
1.0
 40
1.0
 40
1.0
 40
1.0
 10
206.9941979020838
 20
99.98970679402942
 30
0.0
 10
206.9949594290813
 20
99.99109671285602
 30
0.0
 10
206.9983945305972
 20
99.99736636880297
 30
0.0
 10
206.9838999081307
 20
99.97088242697917
 30
0.0
 10
206.965958537638
 20
99.9383050229323
 30
0.0
 10
206.9599609125064
 20
99.92741471456296
 30
0.0
  0
LINE
  5
154
330
1F
100
AcDbEntity
  8
0
  6
Continuous
 62
     7
370
    25
100
AcDbLine
 10
206.2822395072
 20
98.7567977056
 30
0.0
 11
206.2822395072
 21
97.6180136378
 31
0.0
  0
SPLINE
  5
155
330
1F
100
AcDbEntity
  8
0
  6
Continuous
 62
     7
370
    25
100
AcDbSpline
210
0.0
220
0.0
230
1.0
 70
     8
 71
     3
 72
    10
 73
     6
 74
     0
 42
0.00000001
 43
0.00000001
 40
0.0
 40
0.0
 40
0.0
 40
0.0
 40
0.1593935213061672
 40
0.7189934545756304
 40
1.0
 40
1.0
 40
1.0
 40
1.0
 10
208.0493304188537
 20
78.9687561004743
 30
0.0
 10
208.047940500027
 20
78.96951762747175
 30
0.0
 10
208.0416708440802
 20
78.97295272898762
 30
0.0
 10
208.0681547859042
 20
78.95845810652101
 30
0.0
 10
208.1007321899509
 20
78.9405167360284
 30
0.0
 10
208.11162249832
 20
78.93451911089691
 30
0.0
  0
LINE
  5
156
330
1F
100
AcDbEntity
  8
0
  6
Continuous
 62
     7
370
    25
100
AcDbLine
 10
209.2822395072
 20
78.2567977056
 30
0.0
 11
210.4210235751
 21
78.2567977056
 31
0.0
  0
SPLINE
  5
157
330
1F
100
AcDbEntity
  8
0
  6
Continuous
 62
     7
370
    25
100
AcDbSpline
210
0.0
220
0.0
230
1.0
 70
     8
 71
     3
 72
     9
 73
     5
 74
     0
 42
0.00000001
 43
0.00000001
 40
0.0
 40
0.0
 40
0.0
 40
0.0
 40
0.5789479223839474
 40
0.9999999999999999
 40
0.9999999999999999
 40
0.9999999999999999
 40
0.9999999999999999
 10
206.9599609125064
 20
80.58618069671047
 30
0.0
 10
206.9723018028207
 20
80.5637393295181
 30
0.0
 10
206.9936178656946
 20
80.52497700509356
 30
0.0
 10
206.9940260396091
 20
80.52421110223419
 30
0.0
 10
206.9941979020838
 20
80.52388861724401
 30
0.0
  0
LINE
  5
158
330
1F
100
AcDbEntity
  8
0
  6
Continuous
 62
     7
370
    25
100
AcDbLine
 10
206.2822395072
 20
82.8955817735
 30
0.0
 11
206.2822395072
 21
81.7567977056
 31
0.0
  0
LINE
  5
159
330
1F
100
AcDbEntity
  8
0
  6
Continuous
 62
     7
370
    25
100
AcDbLine
 10
227.5198438143
 20
80.5191933986
 30
0.0
 11
227.4528565162
 21
80.5861806967
 31
0.0
  0
LINE
  5
15A
330
1F
100
AcDbEntity
  8
0
  6
Continuous
 62
     7
370
    25
100
AcDbLine
 10
208.1116224983
 20
80.5861806967
 30
0.0
 11
208.0446352002
 21
80.5191933986
 31
0.0
  0
SPLINE
  5
15B
330
1F
100
AcDbEntity
  8
0
  6
Continuous
 62
     7
370
    25
100
AcDbSpline
210
0.0
220
0.0
230
1.0
 70
     8
 71
     3
 72
    31
 73
    27
 74
     0
 42
0.00000001
 43
0.00000001
 40
0.0
 40
0.0
 40
0.0
 40
0.0
 40
0.0092782445503448
 40
0.0517190552853318
 40
0.0941871295519451
 40
0.1321091649715423
 40
0.1702213502972213
 40
0.2082126476779998
 40
0.2154754249368851
 40
0.2764910407357212
 40
0.3375058792147463
 40
0.3848261618849969
 40
0.4320512522545647
 40
0.4692202991101925
 40
0.5063504280223614
 40
0.5434382846963901
 40
0.580575444560658
 40
0.630338524811495
 40
0.6801937790343526
 40
0.7334734963368589
 40
0.7867444902737202
 40
0.8315888553536928
 40
0.8763982601620657
 40
0.9190741266266951
 40
0.9617148234965592
 40
1.0
 40
1.0
 40
1.0
 40
1.0
 10
211.8828895194082
 20
99.75624566051772
 30
0.0
 10
211.8836345471187
 20
99.75561440304132
 30
0.0
 10
211.8877875018228
 20
99.7520956296199
 30
0.0
 10
211.9580702309981
 20
99.69216893729057
 30
0.0
 10
212.1493902985214
 20
99.53177801890713
 30
0.0
 10
212.4243115321164
 20
99.30548343102423
 30
0.0
 10
212.7567286792503
 20
99.0401136297946
 30
0.0
 10
213.0437918213701
 20
98.82003486171322
 30
0.0
 10
213.4397392286423
 20
98.52623589127435
 30
0.0
 10
213.9753584753132
 20
98.1458135128575
 30
0.0
 10
214.7911119622154
 20
97.64778903271107
 30
0.0
 10
215.6326711198766
 20
97.23567135342937
 30
0.0
 10
216.4160781898627
 20
96.95867219214612
 30
0.0
 10
217.1890630345258
 20
96.8072550487752
 30
0.0
 10
217.9196533485171
 20
96.76910557749247
 30
0.0
 10
218.644375801839
 20
96.84843746859696
 30
0.0
 10
219.4177454214605
 20
97.04094067646787
 30
0.0
 10
220.208140243354
 20
97.35810014538094
 30
0.0
 10
221.0049447913917
 20
97.78337868425918
 30
0.0
 10
221.7323118931818
 20
98.24583939053984
 30
0.0
 10
222.3465177455265
 20
98.6862527798162
 30
0.0
 10
222.8399759233428
 20
99.06471192002248
 30
0.0
 10
223.2150444058592
 20
99.36648296455115
 30
0.0
 10
223.485232787903
 20
99.59007202146493
 30
0.0
 10
223.6536862848367
 20
99.73255845520228
 30
0.0
 10
223.6691006689636
 20
99.74557727091361
 30
0.0
 10
223.676393051392
 20
99.75173633521034
 30
0.0
  0
LINE
  5
15C
330
1F
100
AcDbEntity
  8
FORMAT
100
AcDbLine
 10
213.4830451369
 20
67.2750175564
 30
0.0
 11
213.1554895072
 21
77.7567977056
 31
0.0
  0
LINE
  5
15D
330
1F
100
AcDbEntity
  8
FORMAT
100
AcDbLine
 10
222.0814338776
 20
67.2750175564
 30
0.0
 11
222.4089895072
 21
77.7567977056
 31
0.0
  0
LINE
  5
15E
330
1F
100
AcDbEntity
  8
FORMAT
100
AcDbLine
 10
222.8659270072
 20
77.7567977056
 30
0.0
 11
212.6985520072
 21
77.7567977056
 31
0.0
  0
LINE
  5
15F
330
1F
100
AcDbEntity
  8
FORMAT
100
AcDbLine
 10
193.2822395072
 20
94.5367977056
 30
0.0
 11
203.2822395072
 21
94.5367977056
 31
0.0
  0
LINE
  5
160
330
1F
100
AcDbEntity
  8
FORMAT
100
AcDbLine
 10
193.2822395072
 20
85.9767977056
 30
0.0
 11
203.2822395072
 21
85.9767977056
 31
0.0
  0
LINE
  5
161
330
1F
100
AcDbEntity
  8
FORMAT
  6
CENTERX2
370
    18
100
AcDbLine
 10
189.7822395072
 20
90.2567977056
 30
0.0
 11
231.9455356763
 21
90.2567977056
 31
0.0
  0
LINE
  5
162
330
1F
100
AcDbEntity
  8
FORMAT
  6
CENTERX2
370
    18
100
AcDbLine
 10
217.7822395072
 20
64.1117457651
 30
0.0
 11
217.7822395072
 21
120.0640991036
 31
0.0
  0
ARC
  5
163
330
1F
100
AcDbEntity
  8
0
  6
Continuous
 62
     7
370
    25
100
AcDbCircle
 10
301.854592448
 20
117.3567977056
 30
0.0
 40
0.2500000000000568
100
AcDbArc
 50
90.0
 51
180.0
  0
ARC
  5
164
330
1F
100
AcDbEntity
  8
0
  6
Continuous
 62
     7
370
    25
100
AcDbCircle
 10
312.354592448
 20
117.3567977056
 30
0.0
 40
0.25
100
AcDbArc
 50
0.0
 51
90.0
  0
LINE
  5
165
330
1F
100
AcDbEntity
  8
0
  6
Continuous
 62
     7
370
    25
100
AcDbLine
 10
301.604592448
 20
117.3567977056
 30
0.0
 11
301.604592448
 21
116.7567977056
 31
0.0
  0
LINE
  5
166
330
1F
100
AcDbEntity
  8
0
  6
Continuous
 62
     7
370
    25
100
AcDbLine
 10
312.604592448
 20
116.7567977056
 30
0.0
 11
312.604592448
 21
117.3567977056
 31
0.0
  0
LINE
  5
167
330
1F
100
AcDbEntity
  8
0
  6
Continuous
 62
     7
370
    25
100
AcDbLine
 10
314.554592448
 20
108.7567977056
 30
0.0
 11
312.604592448
 21
116.7567977056
 31
0.0
  0
LINE
  5
168
330
1F
100
AcDbEntity
  8
0
  6
Continuous
 62
     7
370
    25
100
AcDbLine
 10
301.604592448
 20
116.7567977056
 30
0.0
 11
299.654592448
 21
108.7567977056
 31
0.0
  0
LINE
  5
169
330
1F
100
AcDbEntity
  8
0
  6
Continuous
 62
     7
370
    25
100
AcDbLine
 10
299.654592448
 20
108.7567977056
 30
0.0
 11
300.104592448
 21
100.7567977056
 31
0.0
  0
LINE
  5
16A
330
1F
100
AcDbEntity
  8
0
  6
Continuous
 62
     7
370
    25
100
AcDbLine
 10
314.104592448
 20
100.7567977056
 30
0.0
 11
314.554592448
 21
108.7567977056
 31
0.0
  0
LINE
  5
16B
330
1F
100
AcDbEntity
  8
0
  6
Continuous
 62
     7
370
    25
100
AcDbLine
 10
313.0173415129
 20
96.6580250176
 30
0.0
 11
313.0064152161
 21
96.7896861163
 31
0.0
  0
LINE
  5
16C
330
1F
100
AcDbEntity
  8
0
  6
Continuous
 62
     7
370
    25
100
AcDbLine
 10
301.2055472205
 20
96.7937800072
 30
0.0
 11
301.1956985976
 21
96.6602508267
 31
0.0
  0
LINE
  5
16D
330
1F
100
AcDbEntity
  8
0
  6
Continuous
 62
     7
370
    25
100
AcDbLine
 10
313.004592448
 20
96.7900239588
 30
0.0
 11
313.004592448
 21
100.7567977056
 31
0.0
  0
LINE
  5
16E
330
1F
100
AcDbEntity
  8
0
  6
Continuous
 62
     7
370
    25
100
AcDbLine
 10
301.204592448
 20
100.7567977056
 30
0.0
 11
301.204592448
 21
96.7953263696
 31
0.0
  0
LINE
  5
16F
330
1F
100
AcDbEntity
  8
0
  6
Continuous
 62
     7
370
    25
100
AcDbLine
 10
302.005279948
 20
78.2567977056
 30
0.0
 11
302.3223128211
 21
68.1117457651
 31
0.0
  0
LINE
  5
170
330
1F
100
AcDbEntity
  8
0
  6
Continuous
 62
     7
370
    25
100
AcDbLine
 10
311.8868720749
 20
68.1117457651
 30
0.0
 11
312.203904948
 21
78.2567977056
 31
0.0
  0
LINE
  5
171
330
1F
100
AcDbEntity
  8
0
  6
Continuous
 62
     7
370
    25
100
AcDbLine
 10
302.3223128211
 20
68.1117457651
 30
0.0
 11
303.104592448
 21
66.7567977056
 31
0.0
  0
LINE
  5
172
330
1F
100
AcDbEntity
  8
0
  6
Continuous
 62
     7
370
    25
100
AcDbLine
 10
311.104592448
 20
66.7567977056
 30
0.0
 11
311.8868720749
 21
68.1117457651
 31
0.0
  0
LINE
  5
173
330
1F
100
AcDbEntity
  8
0
  6
Continuous
 62
     7
370
    25
100
AcDbLine
 10
301.854592448
 20
117.6067977056
 30
0.0
 11
303.604592448
 21
117.6067977056
 31
0.0
  0
LINE
  5
174
330
1F
100
AcDbEntity
  8
0
  6
Continuous
 62
     7
370
    25
100
AcDbLine
 10
310.604592448
 20
117.6067977056
 30
0.0
 11
312.354592448
 21
117.6067977056
 31
0.0
  0
LINE
  5
175
330
1F
100
AcDbEntity
  8
0
  6
Continuous
 62
     7
370
    25
100
AcDbLine
 10
301.604592448
 20
116.7567977056
 30
0.0
 11
303.604592448
 21
116.7567977056
 31
0.0
  0
LINE
  5
176
330
1F
100
AcDbEntity
  8
0
  6
Continuous
 62
     7
370
    25
100
AcDbLine
 10
310.604592448
 20
116.7567977056
 30
0.0
 11
312.604592448
 21
116.7567977056
 31
0.0
  0
LINE
  5
177
330
1F
100
AcDbEntity
  8
0
  6
Continuous
 62
     7
370
    25
100
AcDbLine
 10
310.604592448
 20
106.7567977056
 30
0.0
 11
303.604592448
 21
106.7567977056
 31
0.0
  0
LINE
  5
178
330
1F
100
AcDbEntity
  8
0
  6
Continuous
 62
     7
370
    25
100
AcDbLine
 10
303.604592448
 20
106.7567977056
 30
0.0
 11
303.604592448
 21
111.7567977056
 31
0.0
  0
LINE
  5
179
330
1F
100
AcDbEntity
  8
0
  6
Continuous
 62
     7
370
    25
100
AcDbLine
 10
303.604592448
 20
111.7567977056
 30
0.0
 11
310.604592448
 21
111.7567977056
 31
0.0
  0
LINE
  5
17A
330
1F
100
AcDbEntity
  8
0
  6
Continuous
 62
     7
370
    25
100
AcDbLine
 10
310.604592448
 20
111.7567977056
 30
0.0
 11
310.604592448
 21
106.7567977056
 31
0.0
  0
LINE
  5
17B
330
1F
100
AcDbEntity
  8
0
  6
Continuous
 62
     7
370
    25
100
AcDbLine
 10
310.604592448
 20
111.7567977056
 30
0.0
 11
310.604592448
 21
118.7567977056
 31
0.0
  0
LINE
  5
17C
330
1F
100
AcDbEntity
  8
0
  6
Continuous
 62
     7
370
    25
100
AcDbLine
 10
303.604592448
 20
118.7567977056
 30
0.0
 11
303.604592448
 21
111.7567977056
 31
0.0
  0
LINE
  5
17D
330
1F
100
AcDbEntity
  8
0
  6
Continuous
 62
     7
370
    25
100
AcDbLine
 10
303.604592448
 20
118.7567977056
 30
0.0
 11
310.604592448
 21
118.7567977056
 31
0.0
  0
SPLINE
  5
17E
330
1F
100
AcDbEntity
  8
0
  6
Continuous
 62
     7
370
    25
100
AcDbSpline
210
0.0
220
0.0
230
1.0
 70
     8
 71
     3
 72
    11
 73
     7
 74
     0
 42
0.00000001
 43
0.00000001
 40
0.0
 40
0.0
 40
0.0
 40
0.0
 40
0.2488466353289361
 40
0.4976946020535204
 40
0.7488461225871278
 40
1.0
 40
1.0
 40
1.0
 40
1.0
 10
310.6045924480008
 20
106.5089733986123
 30
0.0
 10
310.6092839839402
 20
106.4394490221186
 30
0.0
 10
310.61866708092
 20
106.3003998971574
 30
0.0
 10
310.6950889644069
 20
106.0000711590322
 30
0.0
 10
310.8128150923706
 20
105.638161540777
 30
0.0
 10
310.9311240157036
 20
105.3365695837125
 30
0.0
 10
310.9902787549302
 20
105.1857728976267
 30
0.0
  0
LINE
  5
17F
330
1F
100
AcDbEntity
  8
0
  6
Continuous
 62
     7
370
    25
100
AcDbLine
 10
310.9902787549
 20
105.1857728976
 30
0.0
 11
303.2189061411
 21
105.1857728976
 31
0.0
  0
SPLINE
  5
180
330
1F
100
AcDbEntity
  8
0
  6
Continuous
 62
     7
370
    25
100
AcDbSpline
210
0.0
220
0.0
230
1.0
 70
     8
 71
     3
 72
    11
 73
     7
 74
     0
 42
0.00000001
 43
0.00000001
 40
0.0
 40
0.0
 40
0.0
 40
0.0
 40
0.2488607147078904
 40
0.4977191536447657
 40
0.7488602698858827
 40
0.9999999999999999
 40
0.9999999999999999
 40
0.9999999999999999
 40
0.9999999999999999
 10
303.2189061410714
 20
105.1857728976267
 30
0.0
 10
303.2775596327577
 20
105.3352518345149
 30
0.0
 10
303.3948660797583
 20
105.6342083413424
 30
0.0
 10
303.5129018862913
 20
105.9960123148011
 30
0.0
 10
303.5902565675715
 20
106.2982869580406
 30
0.0
 10
303.5998138299826
 20
106.4387447142938
 30
0.0
 10
303.6045924480008
 20
106.5089733986123
 30
0.0
  0
LINE
  5
181
330
1F
100
AcDbEntity
  8
0
  6
Continuous
 62
     7
370
    25
100
AcDbLine
 10
310.604592448
 20
106.7567977056
 30
0.0
 11
310.604592448
 21
106.5089733986
 31
0.0
  0
LINE
  5
182
330
1F
100
AcDbEntity
  8
0
  6
Continuous
 62
     7
370
    25
100
AcDbLine
 10
303.604592448
 20
106.5089733986
 30
0.0
 11
303.604592448
 21
106.7567977056
 31
0.0
  0
SPLINE
  5
183
330
1F
100
AcDbEntity
  8
0
  6
Continuous
 62
     7
370
    25
100
AcDbSpline
210
0.0
220
0.0
230
1.0
 70
     8
 71
     3
 72
    16
 73
    12
 74
     0
 42
0.00000001
 43
0.00000001
 40
0.0
 40
0.0
 40
0.0
 40
0.0
 40
0.0155634360124117
 40
0.0359329243097674
 40
0.0739120889290614
 40
0.1570057548437684
 40
0.2406581385754913
 40
0.4592958294318596
 40
0.6783839187935417
 40
0.8974954344294845
 40
1.0
 40
1.0
 40
1.0
 40
1.0
 10
300.4448702257785
 20
100.7567977056368
 30
0.0
 10
300.4585638927919
 20
100.761991077416
 30
0.0
 10
300.4901798868385
 20
100.7739815552838
 30
0.0
 10
300.5456595771486
 20
100.8923074792807
 30
0.0
 10
300.6242603876391
 20
101.2035587867297
 30
0.0
 10
300.7036005742682
 20
101.7292062880947
 30
0.0
 10
300.8088282823714
 20
102.7677524523649
 30
0.0
 10
300.9238216835907
 20
104.202826494711
 30
0.0
 10
301.0262216840056
 20
106.0410785961504
 30
0.0
 10
301.0959705638859
 20
107.5622614449699
 30
0.0
 10
301.1354291833147
 20
108.4680934857664
 30
0.0
 10
301.1480053226277
 20
108.7567977056343
 30
0.0
  0
SPLINE
  5
184
330
1F
100
AcDbEntity
  8
0
  6
Continuous
 62
     7
370
    25
100
AcDbSpline
210
0.0
220
0.0
230
1.0
 70
     8
 71
     3
 72
     9
 73
     5
 74
     0
 42
0.00000001
 43
0.00000001
 40
0.0
 40
0.0
 40
0.0
 40
0.0
 40
0.4983247250277991
 40
1.0
 40
1.0
 40
1.0
 40
1.0
 10
301.1480053226277
 20
108.7567977056343
 30
0.0
 10
301.1150027834692
 20
108.9305898194934
 30
0.0
 10
301.0487758083643
 20
109.2793425606892
 30
0.0
 10
300.9682449485784
 20
109.5937905181034
 30
0.0
 10
300.9278446073516
 20
109.7515412836036
 30
0.0
  0
ELLIPSE
  5
185
330
1F
100
AcDbEntity
  8
0
  6
Continuous
 62
     7
370
    25
100
AcDbEllipse
 10
238.604592448
 20
107.104672138
 30
0.0
 11
65.0
 21
0.0
 31
0.0
210
0.0
220
0.0
230
1.0
 40
0.2713992096
 41
6.084179739699221
 42
6.174194364446292
  0
SPLINE
  5
186
330
1F
100
AcDbEntity
  8
0
  6
Continuous
 62
     7
370
    25
100
AcDbSpline
210
0.0
220
0.0
230
1.0
 70
     8
 71
     3
 72
    13
 73
     9
 74
     0
 42
0.00000001
 43
0.00000001
 40
0.0
 40
0.0
 40
0.0
 40
0.0
 40
0.1610294006389558
 40
0.3266880383557516
 40
0.4877296220820636
 40
0.6535536198224136
 40
0.8237602734841889
 40
1.0
 40
1.0
 40
1.0
 40
1.0
 10
302.3217301178963
 20
103.6171514571439
 30
0.0
 10
302.2779263504639
 20
103.5477545625666
 30
0.0
 10
302.1890595547217
 20
103.4069657670581
 30
0.0
 10
302.0600395360497
 20
103.0608409493504
 30
0.0
 10
301.9390294402823
 20
102.6216343062984
 30
0.0
 10
301.8323484571576
 20
102.0880324693588
 30
0.0
 10
301.7416811698018
 20
101.4642061626591
 30
0.0
 10
301.7048623609051
 20
100.9953222644571
 30
0.0
 10
301.6861323721337
 20
100.7567977056367
 30
0.0
  0
LINE
  5
187
330
1F
100
AcDbEntity
  8
0
  6
Continuous
 62
     7
370
    25
100
AcDbLine
 10
301.6861323721
 20
100.7567977056
 30
0.0
 11
300.4448702258
 21
100.7567977056
 31
0.0
  0
LINE
  5
188
330
1F
100
AcDbEntity
  8
0
  6
Continuous
 62
     7
370
    25
100
AcDbLine
 10
300.9278446074
 20
109.7515412836
 30
0.0
 11
303.604592448
 21
109.7515412836
 31
0.0
  0
SPLINE
  5
189
330
1F
100
AcDbEntity
  8
0
  6
Continuous
 62
     7
370
    25
100
AcDbSpline
210
0.0
220
0.0
230
1.0
 70
     8
 71
     3
 72
    17
 73
    13
 74
     0
 42
0.00000001
 43
0.00000001
 40
0.0
 40
0.0
 40
0.0
 40
0.0
 40
0.3241697628029873
 40
0.542275846362072
 40
0.689509052693928
 40
0.7894036290694506
 40
0.8577090008137827
 40
0.9049823971474139
 40
0.9551712229700868
 40
0.9753097783197817
 40
0.9919572060138849
 40
1.0
 40
1.0
 40
1.0
 40
1.0
 10
313.0611795733739
 20
108.7567977056343
 30
0.0
 10
313.1018300121006
 20
107.8441842030287
 30
0.0
 10
313.1698306512563
 20
106.3175511967673
 30
0.0
 10
313.2812635505727
 20
104.3907782944864
 30
0.0
 10
313.3737682106312
 20
103.1031428235536
 30
0.0
 10
313.4516696669486
 20
102.2439908568318
 30
0.0
 10
313.517722166371
 20
101.6705229684544
 30
0.0
 10
313.5810787737334
 20
101.2489908144245
 30
0.0
 10
313.6392052414272
 20
100.968498271629
 30
0.0
 10
313.69854706975
 20
100.8129496030484
 30
0.0
 10
313.7355531383728
 20
100.7623390038509
 30
0.0
 10
313.7572477052433
 20
100.7581592520463
 30
0.0
 10
313.764314670223
 20
100.7567977056368
 30
0.0
  0
LINE
  5
18A
330
1F
100
AcDbEntity
  8
0
  6
Continuous
 62
     7
370
    25
100
AcDbLine
 10
313.7643146702
 20
100.7567977056
 30
0.0
 11
312.5230525239
 21
100.7567977056
 31
0.0
  0
SPLINE
  5
18B
330
1F
100
AcDbEntity
  8
0
  6
Continuous
 62
     7
370
    25
100
AcDbSpline
210
0.0
220
0.0
230
1.0
 70
     8
 71
     3
 72
    14
 73
    10
 74
     0
 42
0.00000001
 43
0.00000001
 40
0.0
 40
0.0
 40
0.0
 40
0.0
 40
0.1576095309202821
 40
0.3152382602707094
 40
0.4726926441579496
 40
0.6301650083177254
 40
0.7907313191165902
 40
0.9513050385928076
 40
1.0
 40
1.0
 40
1.0
 40
1.0
 10
312.5230525238679
 20
100.7567977056367
 30
0.0
 10
312.5065471870254
 20
100.9702994941141
 30
0.0
 10
312.4735345028241
 20
101.3973290777396
 30
0.0
 10
312.3937308129122
 20
101.9825761565959
 30
0.0
 10
312.2959434054259
 20
102.5047306974184
 30
0.0
 10
312.182353565744
 20
102.9537088248382
 30
0.0
 10
312.0578114667122
 20
103.3129905566446
 30
0.0
 10
311.9574541259358
 20
103.5175567357458
 30
0.0
 10
311.9006683283206
 20
103.5983512840971
 30
0.0
 10
311.8874547781054
 20
103.6171514571439
 30
0.0
  0
ELLIPSE
  5
18C
330
1F
100
AcDbEntity
  8
0
  6
Continuous
 62
     7
370
    25
100
AcDbEllipse
 10
375.604592448
 20
107.104672138
 30
0.0
 11
65.00000000000006
 21
0.0
 31
0.0
210
0.0
220
0.0
230
1.0
 40
0.2713992096
 41
3.25058359632319
 42
3.340598221070257
  0
LINE
  5
18D
330
1F
100
AcDbEntity
  8
0
  6
Continuous
 62
     7
370
    25
100
AcDbLine
 10
310.604592448
 20
109.7515412836
 30
0.0
 11
313.2813402886
 21
109.7515412836
 31
0.0
  0
SPLINE
  5
18E
330
1F
100
AcDbEntity
  8
0
  6
Continuous
 62
     7
370
    25
100
AcDbSpline
210
0.0
220
0.0
230
1.0
 70
     8
 71
     3
 72
     9
 73
     5
 74
     0
 42
0.00000001
 43
0.00000001
 40
0.0
 40
0.0
 40
0.0
 40
0.0
 40
0.4978401817595073
 40
1.0
 40
1.0
 40
1.0
 40
1.0
 10
313.2813402886499
 20
109.7515412836036
 30
0.0
 10
313.2412371241885
 20
109.595030100911
 30
0.0
 10
313.1606828299979
 20
109.280649726592
 30
0.0
 10
313.0944427033377
 20
108.9319171785658
 30
0.0
 10
313.0611795733739
 20
108.7567977056343
 30
0.0
  0
LINE
  5
18F
330
1F
100
AcDbEntity
  8
0
  6
Continuous
 62
     7
370
    25
100
AcDbLine
 10
302.3217301179
 20
103.6171514571
 30
0.0
 11
311.8874547781
 21
103.6171514571
 31
0.0
  0
SPLINE
  5
190
330
1F
100
AcDbEntity
  8
0
  6
Continuous
 62
     7
370
    25
100
AcDbSpline
210
0.0
220
0.0
230
1.0
 70
     8
 71
     3
 72
    20
 73
    16
 74
     0
 42
0.00000001
 43
0.00000001
 40
0.0
 40
0.0
 40
0.0
 40
0.0
 40
0.0541983873786813
 40
0.1084549937743861
 40
0.1748676008326813
 40
0.2413639405081385
 40
0.3280943358185923
 40
0.4149092203660895
 40
0.5031829151074113
 40
0.5914553293759743
 40
0.690663243287035
 40
0.7897037236706678
 40
0.8506104062320281
 40
0.9114495521941833
 40
1.0
 40
1.0
 40
1.0
 40
1.0
 10
309.7026686593541
 20
100.7567977056367
 30
0.0
 10
309.6489513168282
 20
100.8515240094484
 30
0.0
 10
309.5414589294897
 20
101.0410783705107
 30
0.0
 10
309.3050438206853
 20
101.2988017979294
 30
0.0
 10
309.009976822111
 20
101.5279003542808
 30
0.0
 10
308.621058980651
 20
101.7362813721153
 30
0.0
 10
308.1590670651582
 20
101.8953022139452
 30
0.0
 10
307.6298591948947
 20
101.9940837889421
 30
0.0
 10
307.0856393501925
 20
102.0252946251194
 30
0.0
 10
306.516225197077
 20
101.9877908019494
 30
0.0
 10
305.9395414698976
 20
101.8688477749353
 30
0.0
 10
305.4492135717526
 20
101.6750828411959
 30
0.0
 10
305.0763437078035
 20
101.4395691501424
 30
0.0
 10
304.7562012629999
 20
101.1657927954541
 30
0.0
 10
304.5994376329273
 20
100.9090070526393
 30
0.0
 10
304.5065162366475
 20
100.7567977056367
 30
0.0
  0
LINE
  5
191
330
1F
100
AcDbEntity
  8
0
  6
Continuous
 62
     7
370
    25
100
AcDbLine
 10
304.5065162366
 20
100.7567977056
 30
0.0
 11
301.6861323721
 21
100.7567977056
 31
0.0
  0
LINE
  5
192
330
1F
100
AcDbEntity
  8
0
  6
Continuous
 62
     7
370
    25
100
AcDbLine
 10
312.5230525239
 20
100.7567977056
 30
0.0
 11
309.7026686594
 21
100.7567977056
 31
0.0
  0
LINE
  5
193
330
1F
100
AcDbEntity
  8
0
  6
Continuous
 62
     7
370
    25
100
AcDbLine
 10
309.7026686594
 20
100.7567977056
 30
0.0
 11
304.5065162366
 21
100.7567977056
 31
0.0
  0
LINE
  5
194
330
1F
100
AcDbEntity
  8
0
  6
Continuous
 62
     7
370
    25
100
AcDbLine
 10
313.0611795734
 20
108.7567977056
 30
0.0
 11
314.554592448
 21
108.7567977056
 31
0.0
  0
LINE
  5
195
330
1F
100
AcDbEntity
  8
0
  6
Continuous
 62
     7
370
    25
100
AcDbLine
 10
299.654592448
 20
108.7567977056
 30
0.0
 11
301.1480053226
 21
108.7567977056
 31
0.0
  0
SPLINE
  5
196
330
1F
100
AcDbEntity
  8
0
  6
Continuous
 62
     7
370
    25
100
AcDbSpline
210
0.0
220
0.0
230
1.0
 70
     8
 71
     3
 72
     9
 73
     5
 74
     0
 42
0.00000001
 43
0.00000001
 40
0.0
 40
0.0
 40
0.0
 40
0.0
 40
0.4875141023677128
 40
0.9999999999999999
 40
0.9999999999999999
 40
0.9999999999999999
 40
0.9999999999999999
 10
313.764314670223
 20
100.7567977056368
 30
0.0
 10
313.7728407817588
 20
100.7585250516085
 30
0.0
 10
313.7903297354001
 20
100.7620682229
 30
0.0
 10
313.8066514392865
 20
100.7835867088493
 30
0.0
 10
313.8150160823536
 20
100.7946146294367
 30
0.0
  0
SPLINE
  5
197
330
1F
100
AcDbEntity
  8
0
  6
Continuous
 62
     7
370
    25
100
AcDbSpline
210
0.0
220
0.0
230
1.0
 70
     8
 71
     3
 72
     9
 73
     5
 74
     0
 42
0.00000001
 43
0.00000001
 40
0.0
 40
0.0
 40
0.0
 40
0.0
 40
0.5124861829376838
 40
0.9999999999999999
 40
0.9999999999999999
 40
0.9999999999999999
 40
0.9999999999999999
 10
300.3941688445142
 20
100.7946145835769
 30
0.0
 10
300.4025334876379
 20
100.7835866706258
 30
0.0
 10
300.4188551825481
 20
100.7620682115564
 30
0.0
 10
300.4363441247899
 20
100.7585250472112
 30
0.0
 10
300.4448702257785
 20
100.7567977056368
 30
0.0
  0
LINE
  5
198
330
1F
100
AcDbEntity
  8
0
  6
Continuous
 62
     7
370
    25
100
AcDbLine
 10
313.8127963805
 20
100.7567977056
 30
0.0
 11
314.104592448
 21
100.7567977056
 31
0.0
  0
LINE
  5
199
330
1F
100
AcDbEntity
  8
0
  6
Continuous
 62
     7
370
    25
100
AcDbLine
 10
300.104592448
 20
100.7567977056
 30
0.0
 11
300.3963885155
 21
100.7567977056
 31
0.0
  0
LINE
  5
19A
330
1F
100
AcDbEntity
  8
0
  6
Continuous
 62
     7
370
    25
100
AcDbLine
 10
313.8150160824
 20
100.7946146294
 30
0.0
 11
313.8127963805
 21
100.7567977056
 31
0.0
  0
LINE
  5
19B
330
1F
100
AcDbEntity
  8
0
  6
Continuous
 62
     7
370
    25
100
AcDbLine
 10
313.8127963805
 20
100.7567977056
 30
0.0
 11
313.7643146702
 21
100.7567977056
 31
0.0
  0
LINE
  5
19C
330
1F
100
AcDbEntity
  8
0
  6
Continuous
 62
     7
370
    25
100
AcDbLine
 10
300.3963885155
 20
100.7567977056
 30
0.0
 11
300.3941688445
 21
100.7946145836
 31
0.0
  0
LINE
  5
19D
330
1F
100
AcDbEntity
  8
0
  6
Continuous
 62
     7
370
    25
100
AcDbLine
 10
300.4448702258
 20
100.7567977056
 30
0.0
 11
300.3963885155
 21
100.7567977056
 31
0.0
  0
SPLINE
  5
19E
330
1F
100
AcDbEntity
  8
0
  6
Continuous
 62
     7
370
    25
100
AcDbSpline
210
0.0
220
0.0
230
1.0
 70
     8
 71
     3
 72
    10
 73
     6
 74
     0
 42
0.00000001
 43
0.00000001
 40
0.0
 40
0.0
 40
0.0
 40
0.0
 40
0.5
 40
0.5
 40
1.0
 40
1.0
 40
1.0
 40
1.0
 10
298.6045924480008
 20
85.6379955521197
 30
0.0
 10
298.6045924480008
 20
85.55210849031725
 30
0.0
 10
298.6273848973306
 20
85.46470128133711
 30
0.0
 10
298.7153276014237
 20
85.31206483874338
 30
0.0
 10
298.7801853750975
 20
85.24794179379779
 30
0.0
 10
298.8545924480009
 20
85.20498285022748
 30
0.0
  0
SPLINE
  5
19F
330
1F
100
AcDbEntity
  8
0
  6
Continuous
 62
     7
370
    25
100
AcDbSpline
210
0.0
220
0.0
230
1.0
 70
    24
 71
     3
 72
    14
 73
    10
 74
     0
 42
0.00000001
 43
0.00000001
 40
0.0
 40
0.0
 40
0.0
 40
0.0
 40
0.25
 40
0.25
 40
0.5
 40
0.5
 40
0.75
 40
0.75
 40
1.0
 40
1.0
 40
1.0
 40
1.0
 10
298.6045924480008
 20
85.63799555211966
 30
0.0
 10
298.6045924480008
 20
86.39237561276965
 30
0.0
 10
298.6045924480008
 20
87.16181678023514
 30
0.0
 10
298.6045924480008
 20
88.70232814117631
 30
0.0
 10
298.6045924480008
 20
89.47718252118332
 30
0.0
 10
298.6045924480008
 20
91.03754347606888
 30
0.0
 10
298.6045924480008
 20
91.8279996688539
 30
0.0
 10
298.6045924480008
 20
93.37027933166237
 30
0.0
 10
298.6045924480008
 20
94.12767008486357
 30
0.0
 10
298.6045924480008
 20
94.87559985915372
 30
0.0
  0
SPLINE
  5
1A0
330
1F
100
AcDbEntity
  8
0
  6
Continuous
 62
     7
370
    25
100
AcDbSpline
210
0.0
220
0.0
230
1.0
 70
     8
 71
     3
 72
    10
 73
     6
 74
     0
 42
0.00000001
 43
0.00000001
 40
0.0
 40
0.0
 40
0.0
 40
0.0
 40
0.5
 40
0.5
 40
1.0
 40
1.0
 40
1.0
 40
1.0
 10
298.8545924480009
 20
95.30861256104595
 30
0.0
 10
298.7802120706235
 20
95.26566903014472
 30
0.0
 10
298.7159114318378
 20
95.20222658552059
 30
0.0
 10
298.6276957470548
 20
95.04974774840163
 30
0.0
 10
298.6045924480008
 20
94.96151774629436
 30
0.0
 10
298.6045924480008
 20
94.87559985915372
 30
0.0
  0
SPLINE
  5
1A1
330
1F
100
AcDbEntity
  8
0
  6
Continuous
 62
     7
370
    25
100
AcDbSpline
210
0.0
220
0.0
230
1.0
 70
    24
 71
     3
 72
    16
 73
    12
 74
     0
 42
0.00000001
 43
0.00000001
 40
0.0
 40
0.0
 40
0.0
 40
0.0
 40
0.2500000000000001
 40
0.2500000000000001
 40
0.5000000000000001
 40
0.5000000000000001
 40
0.6250000000000001
 40
0.6250000000000001
 40
0.7500000000000002
 40
0.7500000000000002
 40
1.0
 40
1.0
 40
1.0
 40
1.0
 10
306.8545924480009
 20
99.92741471456296
 30
0.0
 10
306.20107566796
 20
99.55010662568645
 30
0.0
 10
305.54285525887
 20
99.17008289531225
 30
0.0
 10
304.2132926755042
 20
98.40245957990156
 30
0.0
 10
303.5418686934337
 20
98.01481276311276
 30
0.0
 10
302.522867606427
 20
97.42649221122491
 30
0.0
 10
302.1815268241108
 20
97.22941901866928
 30
0.0
 10
301.5059283211403
 20
96.83936204111517
 30
0.0
 10
301.1702691711757
 20
96.64556914052713
 30
0.0
 10
300.169003534676
 20
96.0674881557637
 30
0.0
 10
299.5090958760729
 20
95.68649029142888
 30
0.0
 10
298.8545924480009
 20
95.30861256104595
 30
0.0
  0
SPLINE
  5
1A2
330
1F
100
AcDbEntity
  8
0
  6
Continuous
 62
     7
370
    25
100
AcDbSpline
210
0.0
220
0.0
230
1.0
 70
     8
 71
     3
 72
    10
 73
     6
 74
     0
 42
0.00000001
 43
0.00000001
 40
0.0
 40
0.0
 40
0.0
 40
0.0
 40
0.5
 40
0.5
 40
1.0
 40
1.0
 40
1.0
 40
1.0
 10
307.3545924480009
 20
99.92741471456296
 30
0.0
 10
307.2802120706235
 20
99.97035824546418
 30
0.0
 10
307.1931189825079
 20
99.99432300982016
 30
0.0
 10
307.0169605936319
 20
99.99448061529495
 30
0.0
 10
306.9289995209041
 20
99.97037365813327
 30
0.0
 10
306.8545924480009
 20
99.92741471456296
 30
0.0
  0
SPLINE
  5
1A3
330
1F
100
AcDbEntity
  8
0
  6
Continuous
 62
     7
370
    25
100
AcDbSpline
210
0.0
220
0.0
230
1.0
 70
    24
 71
     3
 72
    16
 73
    12
 74
     0
 42
0.00000001
 43
0.00000001
 40
0.0
 40
0.0
 40
0.0
 40
0.0
 40
0.2499999999999997
 40
0.2499999999999997
 40
0.4999999999999993
 40
0.4999999999999993
 40
0.6249999999999993
 40
0.6249999999999993
 40
0.7499999999999996
 40
0.7499999999999996
 40
1.0
 40
1.0
 40
1.0
 40
1.0
 10
315.3545924480008
 20
95.30861256104595
 30
0.0
 10
314.70107566796
 20
95.68592064992244
 30
0.0
 10
314.04285525887
 20
96.06594438029664
 30
0.0
 10
312.7132926755042
 20
96.83356769570733
 30
0.0
 10
312.0418686934337
 20
97.22121451249615
 30
0.0
 10
311.022867606427
 20
97.809535064384
 30
0.0
 10
310.6815268241108
 20
98.00660825693963
 30
0.0
 10
310.0059283211403
 20
98.39666523449374
 30
0.0
 10
309.6702691711757
 20
98.59045813508178
 30
0.0
 10
308.6690035346761
 20
99.1685391198452
 30
0.0
 10
308.0090958760729
 20
99.54953698418002
 30
0.0
 10
307.3545924480009
 20
99.92741471456296
 30
0.0
  0
SPLINE
  5
1A4
330
1F
100
AcDbEntity
  8
0
  6
Continuous
 62
     7
370
    25
100
AcDbSpline
210
0.0
220
0.0
230
1.0
 70
     8
 71
     3
 72
    10
 73
     6
 74
     0
 42
0.00000001
 43
0.00000001
 40
0.0
 40
0.0
 40
0.0
 40
0.0
 40
0.5
 40
0.5
 40
1.0
 40
1.0
 40
1.0
 40
1.0
 10
315.6045924480008
 20
94.87559985915372
 30
0.0
 10
315.6045924480008
 20
94.96148692095619
 30
0.0
 10
315.581799998671
 20
95.04889412993629
 30
0.0
 10
315.4938572945779
 20
95.20153057253005
 30
0.0
 10
315.4289995209041
 20
95.26565361747564
 30
0.0
 10
315.3545924480008
 20
95.30861256104595
 30
0.0
  0
SPLINE
  5
1A5
330
1F
100
AcDbEntity
  8
0
  6
Continuous
 62
     7
370
    25
100
AcDbSpline
210
0.0
220
0.0
230
1.0
 70
    24
 71
     3
 72
    14
 73
    10
 74
     0
 42
0.00000001
 43
0.00000001
 40
0.0
 40
0.0
 40
0.0
 40
0.0
 40
0.25
 40
0.25
 40
0.5
 40
0.5
 40
0.75
 40
0.75
 40
1.0
 40
1.0
 40
1.0
 40
1.0
 10
315.6045924480008
 20
85.63799555211965
 30
0.0
 10
315.6045924480008
 20
86.39237561276964
 30
0.0
 10
315.6045924480008
 20
87.16181678023513
 30
0.0
 10
315.6045924480008
 20
88.70232814117631
 30
0.0
 10
315.6045924480008
 20
89.47718252118332
 30
0.0
 10
315.6045924480008
 20
91.03754347606888
 30
0.0
 10
315.6045924480008
 20
91.8279996688539
 30
0.0
 10
315.6045924480008
 20
93.37027933166237
 30
0.0
 10
315.6045924480008
 20
94.12767008486355
 30
0.0
 10
315.6045924480008
 20
94.87559985915372
 30
0.0
  0
SPLINE
  5
1A6
330
1F
100
AcDbEntity
  8
0
  6
Continuous
 62
     7
370
    25
100
AcDbSpline
210
0.0
220
0.0
230
1.0
 70
     8
 71
     3
 72
    10
 73
     6
 74
     0
 42
0.00000001
 43
0.00000001
 40
0.0
 40
0.0
 40
0.0
 40
0.0
 40
0.5
 40
0.5
 40
1.0
 40
1.0
 40
1.0
 40
1.0
 10
315.3545924480008
 20
85.20498285022748
 30
0.0
 10
315.428972825378
 20
85.24792638112862
 30
0.0
 10
315.4932734641635
 20
85.3113688257523
 30
0.0
 10
315.5814891489467
 20
85.46384766287142
 30
0.0
 10
315.6045924480008
 20
85.5520776649789
 30
0.0
 10
315.6045924480008
 20
85.63799555211968
 30
0.0
  0
SPLINE
  5
1A7
330
1F
100
AcDbEntity
  8
0
  6
Continuous
 62
     7
370
    25
100
AcDbSpline
210
0.0
220
0.0
230
1.0
 70
    24
 71
     3
 72
    16
 73
    12
 74
     0
 42
0.00000001
 43
0.00000001
 40
0.0
 40
0.0
 40
0.0
 40
0.0
 40
0.2500000000000002
 40
0.2500000000000002
 40
0.5000000000000004
 40
0.5000000000000004
 40
0.6250000000000003
 40
0.6250000000000003
 40
0.7500000000000002
 40
0.7500000000000002
 40
1.0
 40
1.0
 40
1.0
 40
1.0
 10
307.3545924480008
 20
80.58618069671049
 30
0.0
 10
308.0081092280416
 20
80.96348878558696
 30
0.0
 10
308.6663296371315
 20
81.34351251596112
 30
0.0
 10
309.9958922204972
 20
82.11113583137177
 30
0.0
 10
310.6673162025676
 20
82.49878264816053
 30
0.0
 10
311.6863172895743
 20
83.08710320004832
 30
0.0
 10
312.0276580718905
 20
83.28417639260397
 30
0.0
 10
312.7032565748609
 20
83.67423337015803
 30
0.0
 10
313.0389157248255
 20
83.86802627074604
 30
0.0
 10
314.0401813613251
 20
84.44610725550945
 30
0.0
 10
314.7000890199282
 20
84.82710511984423
 30
0.0
 10
315.3545924480002
 20
85.20498285022714
 30
0.0
  0
SPLINE
  5
1A8
330
1F
100
AcDbEntity
  8
0
  6
Continuous
 62
     7
370
    25
100
AcDbSpline
210
0.0
220
0.0
230
1.0
 70
     8
 71
     3
 72
    10
 73
     6
 74
     0
 42
0.00000001
 43
0.00000001
 40
0.0
 40
0.0
 40
0.0
 40
0.0
 40
0.5
 40
0.5
 40
1.0
 40
1.0
 40
1.0
 40
1.0
 10
306.8545924480008
 20
80.58618069671049
 30
0.0
 10
306.9289728253781
 20
80.54323716580926
 30
0.0
 10
307.0160659134937
 20
80.51927240145326
 30
0.0
 10
307.1922243023697
 20
80.51911479597848
 30
0.0
 10
307.2801853750976
 20
80.54322175314017
 30
0.0
 10
307.3545924480008
 20
80.58618069671047
 30
0.0
  0
SPLINE
  5
1A9
330
1F
100
AcDbEntity
  8
0
  6
Continuous
 62
     7
370
    25
100
AcDbSpline
210
0.0
220
0.0
230
1.0
 70
    24
 71
     3
 72
    16
 73
    12
 74
     0
 42
0.00000001
 43
0.00000001
 40
0.0
 40
0.0
 40
0.0
 40
0.0
 40
0.2500000000000001
 40
0.2500000000000001
 40
0.5000000000000002
 40
0.5000000000000002
 40
0.6250000000000001
 40
0.6250000000000001
 40
0.7500000000000001
 40
0.7500000000000001
 40
1.0
 40
1.0
 40
1.0
 40
1.0
 10
298.8545924480009
 20
85.20498285022748
 30
0.0
 10
299.5081092280416
 20
84.82767476135099
 30
0.0
 10
300.1663296371316
 20
84.44765103097679
 30
0.0
 10
301.4958922204974
 20
83.6800277155661
 30
0.0
 10
302.1673162025679
 20
83.2923808987773
 30
0.0
 10
303.1863172895746
 20
82.70406034688946
 30
0.0
 10
303.5276580718908
 20
82.5069871543338
 30
0.0
 10
304.2032565748613
 20
82.1169301767797
 30
0.0
 10
304.5389157248259
 20
81.92313727619165
 30
0.0
 10
305.5401813613256
 20
81.34505629142824
 30
0.0
 10
306.2000890199287
 20
80.96405842709342
 30
0.0
 10
306.8545924480008
 20
80.58618069671049
 30
0.0
  0
CIRCLE
  5
1AA
330
1F
100
AcDbEntity
  8
0
  6
Continuous
 62
     7
370
    25
100
AcDbCircle
 10
307.104592448
 20
90.2567977056
 30
0.0
 40
8.25
  0
SPLINE
  5
1AB
330
1F
100
AcDbEntity
  8
0
  6
Continuous
 62
     7
370
    25
100
AcDbSpline
210
0.0
220
0.0
230
1.0
 70
     8
 71
     3
 72
    10
 73
     6
 74
     0
 42
0.00000001
 43
0.00000001
 40
0.0
 40
0.0
 40
0.0
 40
0.0
 40
0.5
 40
0.5
 40
1.0
 40
1.0
 40
1.0
 40
1.0
 10
306.8545924480009
 20
78.93451911089691
 30
0.0
 10
306.9289672019909
 20
78.95819271538802
 30
0.0
 10
307.0160609335568
 20
78.97128549118125
 30
0.0
 10
307.1922267621012
 20
78.9713720592822
 30
0.0
 10
307.2801877859915
 20
78.95820223515892
 30
0.0
 10
307.3545924480008
 20
78.93451911089691
 30
0.0
  0
SPLINE
  5
1AC
330
1F
100
AcDbEntity
  8
0
  6
Continuous
 62
     7
370
    25
100
AcDbSpline
210
0.0
220
0.0
230
1.0
 70
     8
 71
     3
 72
    12
 73
     8
 74
     0
 42
0.00000001
 43
0.00000001
 40
0.0
 40
0.0
 40
0.0
 40
0.0
 40
0.2500000000000002
 40
0.2500000000000002
 40
0.5000000000000001
 40
0.5000000000000001
 40
1.0
 40
1.0
 40
1.0
 40
1.0
 10
311.3545924480008
 20
78.25679770563671
 30
0.0
 10
311.016836512978
 20
78.2567977056367
 30
0.0
 10
310.6764284980995
 20
78.27254403565867
 30
0.0
 10
310.0019338136991
 20
78.33398906024411
 30
0.0
 10
309.6668084948319
 20
78.37957781949784
 30
0.0
 10
308.6670971764917
 20
78.55602882175442
 30
0.0
 10
308.0081630734264
 20
78.72648652371791
 30
0.0
 10
307.3545924480008
 20
78.93451911089676
 30
0.0
  0
LINE
  5
1AD
330
1F
100
AcDbEntity
  8
0
  6
Continuous
 62
     7
370
    25
100
AcDbLine
 10
302.854592448
 20
78.2567977056
 30
0.0
 11
311.354592448
 21
78.2567977056
 31
0.0
  0
SPLINE
  5
1AE
330
1F
100
AcDbEntity
  8
0
  6
Continuous
 62
     7
370
    25
100
AcDbSpline
210
0.0
220
0.0
230
1.0
 70
     8
 71
     3
 72
    10
 73
     6
 74
     0
 42
0.00000001
 43
0.00000001
 40
0.0
 40
0.0
 40
0.0
 40
0.0
 40
0.5
 40
0.5
 40
1.0
 40
1.0
 40
1.0
 40
1.0
 10
306.8545924480009
 20
78.93451911089645
 30
0.0
 10
306.1985796813958
 20
78.72570918623018
 30
0.0
 10
305.538312774538
 20
78.55517504648292
 30
0.0
 10
304.205966255903
 20
78.320389241464
 30
0.0
 10
303.5338132744157
 20
78.25679770563671
 30
0.0
 10
302.8545924480009
 20
78.25679770563671
 30
0.0
  0
LINE
  5
1AF
330
1F
100
AcDbEntity
  8
0
  6
Continuous
 62
     7
370
    25
100
AcDbLine
 10
307.354592448
 20
80.5861806967
 30
0.0
 11
307.354592448
 21
78.9345191109
 31
0.0
  0
LINE
  5
1B0
330
1F
100
AcDbEntity
  8
0
  6
Continuous
 62
     7
370
    25
100
AcDbLine
 10
306.854592448
 20
78.9345191109
 30
0.0
 11
306.854592448
 21
80.5861806967
 31
0.0
  0
SPLINE
  5
1B1
330
1F
100
AcDbEntity
  8
0
  6
Continuous
 62
     7
370
    25
100
AcDbSpline
210
0.0
220
0.0
230
1.0
 70
     8
 71
     3
 72
    12
 73
     8
 74
     0
 42
0.00000001
 43
0.00000001
 40
0.0
 40
0.0
 40
0.0
 40
0.0
 40
0.2499999999999999
 40
0.2499999999999999
 40
0.4999999999999998
 40
0.4999999999999998
 40
1.0
 40
1.0
 40
1.0
 40
1.0
 10
311.4790225407531
 20
82.96742152100185
 30
0.0
 10
311.8081575311463
 20
82.96371303514542
 30
0.0
 10
312.1376196840831
 20
82.94513053230774
 30
0.0
 10
312.7904933021408
 20
82.8802634953416
 30
0.0
 10
313.1149458940179
 20
82.83399794209133
 30
0.0
 10
314.0830063352099
 20
82.65827341178436
 30
0.0
 10
314.7213288194579
 20
82.49197000300762
 30
0.0
 10
315.3545924480008
 20
82.2904011657817
 30
0.0
  0
LINE
  5
1B2
330
1F
100
AcDbEntity
  8
0
  6
Continuous
 62
     7
370
    25
100
AcDbLine
 10
315.354592448
 20
78.9345191109
 30
0.0
 11
315.354592448
 21
82.2904011658
 31
0.0
  0
SPLINE
  5
1B3
330
1F
100
AcDbEntity
  8
0
  6
Continuous
 62
     7
370
    25
100
AcDbSpline
210
0.0
220
0.0
230
1.0
 70
     8
 71
     3
 72
    10
 73
     6
 74
     0
 42
0.00000001
 43
0.00000001
 40
0.0
 40
0.0
 40
0.0
 40
0.0
 40
0.5
 40
0.5
 40
1.0
 40
1.0
 40
1.0
 40
1.0
 10
315.3545924480009
 20
78.93451911089645
 30
0.0
 10
314.6985796813958
 20
78.72570918623018
 30
0.0
 10
314.038312774538
 20
78.55517504648292
 30
0.0
 10
312.705966255903
 20
78.320389241464
 30
0.0
 10
312.0338132744157
 20
78.25679770563671
 30
0.0
 10
311.3545924480008
 20
78.25679770563671
 30
0.0
  0
SPLINE
  5
1B4
330
1F
100
AcDbEntity
  8
0
  6
Continuous
 62
     7
370
    25
100
AcDbSpline
210
0.0
220
0.0
230
1.0
 70
     8
 71
     3
 72
    12
 73
     8
 74
     0
 42
0.00000001
 43
0.00000001
 40
0.0
 40
0.0
 40
0.0
 40
0.0
 40
0.2499999999999998
 40
0.2499999999999998
 40
0.4999999999999996
 40
0.4999999999999996
 40
1.0
 40
1.0
 40
1.0
 40
1.0
 10
302.8545924480009
 20
78.25679770563671
 30
0.0
 10
302.516836512978
 20
78.25679770563671
 30
0.0
 10
302.1764284980995
 20
78.27254403565867
 30
0.0
 10
301.5019338136991
 20
78.3339890602441
 30
0.0
 10
301.1668084948319
 20
78.37957781949783
 30
0.0
 10
300.1670971764918
 20
78.55602882175442
 30
0.0
 10
299.5081630734265
 20
78.72648652371791
 30
0.0
 10
298.8545924480008
 20
78.93451911089676
 30
0.0
  0
LINE
  5
1B5
330
1F
100
AcDbEntity
  8
0
  6
Continuous
 62
     7
370
    25
100
AcDbLine
 10
298.854592448
 20
82.2904011658
 30
0.0
 11
298.854592448
 21
78.9345191109
 31
0.0
  0
SPLINE
  5
1B6
330
1F
100
AcDbEntity
  8
0
  6
Continuous
 62
     7
370
    25
100
AcDbSpline
210
0.0
220
0.0
230
1.0
 70
     8
 71
     3
 72
    10
 73
     6
 74
     0
 42
0.00000001
 43
0.00000001
 40
0.0
 40
0.0
 40
0.0
 40
0.0
 40
0.5
 40
0.5
 40
1.0
 40
1.0
 40
1.0
 40
1.0
 10
298.8545924480013
 20
82.29040116578186
 30
0.0
 10
299.4894201538149
 20
82.49246785133279
 30
0.0
 10
300.1286858563907
 20
82.65886062360343
 30
0.0
 10
301.4195007879806
 20
82.8929075974735
 30
0.0
 10
302.0711204234505
 20
82.95999585143232
 30
0.0
 10
302.7301623552706
 20
82.96742152100211
 30
0.0
  0
SPLINE
  5
1B7
330
1F
100
AcDbEntity
  8
0
  6
Continuous
 62
     7
370
    25
100
AcDbSpline
210
0.0
220
0.0
230
1.0
 70
     8
 71
     3
 72
    10
 73
     6
 74
     0
 42
0.00000001
 43
0.00000001
 40
0.0
 40
0.0
 40
0.0
 40
0.0
 40
0.5
 40
0.5
 40
1.0
 40
1.0
 40
1.0
 40
1.0
 10
315.3545924480008
 20
78.93451911089691
 30
0.0
 10
315.4289629149264
 20
78.95819135080846
 30
0.0
 10
315.4932685112142
 20
78.97128534074373
 30
0.0
 10
315.5814912990201
 20
78.97137220820517
 30
0.0
 10
315.6045924480008
 20
78.95820241844581
 30
0.0
 10
315.6045924480008
 20
78.93451911089691
 30
0.0
  0
LINE
  5
1B8
330
1F
100
AcDbEntity
  8
0
  6
Continuous
 62
     7
370
    25
100
AcDbLine
 10
311.354592448
 20
78.2567977056
 30
0.0
 11
315.604592448
 21
78.2567977056
 31
0.0
  0
SPLINE
  5
1B9
330
1F
100
AcDbEntity
  8
0
  6
Continuous
 62
     7
370
    25
100
AcDbSpline
210
0.0
220
0.0
230
1.0
 70
    24
 71
     3
 72
    10
 73
     6
 74
     0
 42
0.00000001
 43
0.00000001
 40
0.0
 40
0.0
 40
0.0
 40
0.0
 40
0.5
 40
0.5
 40
1.0
 40
1.0
 40
1.0
 40
1.0
 10
315.6045924480008
 20
78.25679770563671
 30
0.0
 10
315.6045924480008
 20
78.25679770563671
 30
0.0
 10
315.6045924480008
 20
78.31908206761523
 30
0.0
 10
315.6045924480008
 20
78.55393018562226
 30
0.0
 10
315.6045924480008
 20
78.72717279275346
 30
0.0
 10
315.6045924480008
 20
78.93451911089691
 30
0.0
  0
SPLINE
  5
1BA
330
1F
100
AcDbEntity
  8
0
  6
Continuous
 62
     7
370
    25
100
AcDbSpline
210
0.0
220
0.0
230
1.0
 70
     8
 71
     3
 72
    10
 73
     6
 74
     0
 42
0.00000001
 43
0.00000001
 40
0.0
 40
0.0
 40
0.0
 40
0.0
 40
0.5
 40
0.5
 40
1.0
 40
1.0
 40
1.0
 40
1.0
 10
298.6045924480008
 20
78.93451911089691
 30
0.0
 10
298.6045924480008
 20
78.95819301145286
 30
0.0
 10
298.6273830196483
 20
78.971285568632
 30
0.0
 10
298.7153290169471
 20
78.97137198261429
 30
0.0
 10
298.7801898096798
 20
78.95820159101567
 30
0.0
 10
298.8545924480009
 20
78.93451911089691
 30
0.0
  0
LINE
  5
1BB
330
1F
100
AcDbEntity
  8
0
  6
Continuous
 62
     7
370
    25
100
AcDbLine
 10
298.604592448
 20
78.2567977056
 30
0.0
 11
302.854592448
 21
78.2567977056
 31
0.0
  0
SPLINE
  5
1BC
330
1F
100
AcDbEntity
  8
0
  6
Continuous
 62
     7
370
    25
100
AcDbSpline
210
0.0
220
0.0
230
1.0
 70
    24
 71
     3
 72
    10
 73
     6
 74
     0
 42
0.00000001
 43
0.00000001
 40
0.0
 40
0.0
 40
0.0
 40
0.0
 40
0.5
 40
0.5
 40
1.0
 40
1.0
 40
1.0
 40
1.0
 10
298.6045924480008
 20
78.25679770563671
 30
0.0
 10
298.6045924480008
 20
78.25679770563671
 30
0.0
 10
298.6045924480008
 20
78.31908206761523
 30
0.0
 10
298.6045924480008
 20
78.55393018562226
 30
0.0
 10
298.6045924480008
 20
78.72717279275346
 30
0.0
 10
298.6045924480008
 20
78.93451911089691
 30
0.0
  0
SPLINE
  5
1BD
330
1F
100
AcDbEntity
  8
0
  6
Continuous
 62
     7
370
    25
100
AcDbSpline
210
0.0
220
0.0
230
1.0
 70
     8
 71
     3
 72
     8
 73
     4
 74
     0
 42
0.00000001
 43
0.00000001
 40
0.0
 40
0.0
 40
0.0
 40
0.0
 40
1.0
 40
1.0
 40
1.0
 40
1.0
 10
298.6045924480008
 20
82.45188649406273
 30
0.0
 10
299.1263985993026
 20
82.72447662973208
 30
0.0
 10
299.6500520681588
 20
82.99362913085348
 30
0.0
 10
300.1763892177253
 20
83.25679770563671
 30
0.0
  0
SPLINE
  5
1BE
330
1F
100
AcDbEntity
  8
0
  6
Continuous
 62
     7
370
    25
100
AcDbSpline
210
0.0
220
0.0
230
1.0
 70
     8
 71
     3
 72
    10
 73
     6
 74
     0
 42
0.00000001
 43
0.00000001
 40
0.0
 40
0.0
 40
0.0
 40
0.0
 40
0.5
 40
0.5
 40
1.0
 40
1.0
 40
1.0
 40
1.0
 10
298.6045924480008
 20
82.29040116578169
 30
0.0
 10
298.6045924480008
 20
82.26672577135729
 30
0.0
 10
298.6273848973307
 20
82.25363466147266
 30
0.0
 10
298.7153276014239
 20
82.25354834018444
 30
0.0
 10
298.7801853750981
 20
82.26671727412838
 30
0.0
 10
298.8545924480015
 20
82.29040116578193
 30
0.0
  0
SPLINE
  5
1BF
330
1F
100
AcDbEntity
  8
0
  6
Continuous
 62
     7
370
    25
100
AcDbSpline
210
0.0
220
0.0
230
1.0
 70
    24
 71
     3
 72
     8
 73
     4
 74
     0
 42
0.00000001
 43
0.00000001
 40
0.0
 40
0.0
 40
0.0
 40
0.0
 40
1.0
 40
1.0
 40
1.0
 40
1.0
 10
298.6045924480008
 20
82.45188649406273
 30
0.0
 10
298.6045924480008
 20
82.40099170436191
 30
0.0
 10
298.6045924480008
 20
82.34705785500047
 30
0.0
 10
298.6045924480008
 20
82.2904011657817
 30
0.0
  0
SPLINE
  5
1C0
330
1F
100
AcDbEntity
  8
0
  6
Continuous
 62
     7
370
    25
100
AcDbSpline
210
0.0
220
0.0
230
1.0
 70
     8
 71
     3
 72
     8
 73
     4
 74
     0
 42
0.00000001
 43
0.00000001
 40
0.0
 40
0.0
 40
0.0
 40
0.0
 40
1.0
 40
1.0
 40
1.0
 40
1.0
 10
314.0327956782763
 20
83.25679770563671
 30
0.0
 10
314.5592165394855
 20
82.9935872750321
 30
0.0
 10
315.0827609961992
 20
82.72448984664541
 30
0.0
 10
315.6045924480008
 20
82.45188649406275
 30
0.0
  0
SPLINE
  5
1C1
330
1F
100
AcDbEntity
  8
0
  6
Continuous
 62
     7
370
    25
100
AcDbSpline
210
0.0
220
0.0
230
1.0
 70
     8
 71
     3
 72
    10
 73
     6
 74
     0
 42
0.00000001
 43
0.00000001
 40
0.0
 40
0.0
 40
0.0
 40
0.0
 40
0.5
 40
0.5
 40
1.0
 40
1.0
 40
1.0
 40
1.0
 10
315.3545924480008
 20
82.2904011657817
 30
0.0
 10
315.4289728253781
 20
82.26672577135733
 30
0.0
 10
315.4932734641639
 20
82.25363466147269
 30
0.0
 10
315.5814891489468
 20
82.25354834018441
 30
0.0
 10
315.6045924480008
 20
82.26671727412824
 30
0.0
 10
315.6045924480008
 20
82.2904011657817
 30
0.0
  0
SPLINE
  5
1C2
330
1F
100
AcDbEntity
  8
0
  6
Continuous
 62
     7
370
    25
100
AcDbSpline
210
0.0
220
0.0
230
1.0
 70
    24
 71
     3
 72
     8
 73
     4
 74
     0
 42
0.00000001
 43
0.00000001
 40
0.0
 40
0.0
 40
0.0
 40
0.0
 40
1.0
 40
1.0
 40
1.0
 40
1.0
 10
315.6045924480008
 20
82.45188649406273
 30
0.0
 10
315.6045924480008
 20
82.40099170436191
 30
0.0
 10
315.6045924480008
 20
82.34705785500047
 30
0.0
 10
315.6045924480008
 20
82.2904011657817
 30
0.0
  0
LINE
  5
1C3
330
1F
100
AcDbEntity
  8
0
  6
Continuous
 62
     7
370
    25
100
AcDbLine
 10
311.980236795
 20
83.2567977056
 30
0.0
 11
314.604592448
 21
83.2567977056
 31
0.0
  0
LINE
  5
1C4
330
1F
100
AcDbEntity
  8
0
  6
Continuous
 62
     7
370
    25
100
AcDbLine
 10
314.604592448
 20
84.7719701483
 30
0.0
 11
314.604592448
 21
83.2567977056
 31
0.0
  0
LINE
  5
1C5
330
1F
100
AcDbEntity
  8
0
  6
Continuous
 62
     7
370
    25
100
AcDbLine
 10
299.604592448
 20
83.2567977056
 30
0.0
 11
299.604592448
 21
84.7719701483
 31
0.0
  0
LINE
  5
1C6
330
1F
100
AcDbEntity
  8
0
  6
Continuous
 62
     7
370
    25
100
AcDbLine
 10
299.604592448
 20
83.2567977056
 30
0.0
 11
302.228948101
 21
83.2567977056
 31
0.0
  0
LINE
  5
1C7
330
1F
100
AcDbEntity
  8
0
  6
Continuous
 62
     7
370
    25
100
AcDbLine
 10
307.104592448
 20
68.1117457651
 30
0.0
 11
311.8868720749
 21
68.1117457651
 31
0.0
  0
LINE
  5
1C8
330
1F
100
AcDbEntity
  8
0
  6
Continuous
 62
     7
370
    25
100
AcDbLine
 10
302.3223128211
 20
68.1117457651
 30
0.0
 11
307.104592448
 21
68.1117457651
 31
0.0
  0
LINE
  5
1C9
330
1F
100
AcDbEntity
  8
0
  6
Continuous
 62
     7
370
    25
100
AcDbLine
 10
298.604592448
 20
78.9345191109
 30
0.0
 11
298.604592448
 21
82.2904011658
 31
0.0
  0
LINE
  5
1CA
330
1F
100
AcDbEntity
  8
0
  6
Continuous
 62
     7
370
    25
100
AcDbLine
 10
315.604592448
 20
82.2904011658
 30
0.0
 11
315.604592448
 21
78.9345191109
 31
0.0
  0
LINE
  5
1CB
330
1F
100
AcDbEntity
  8
0
  6
Continuous
 62
     7
370
    25
100
AcDbLine
 10
311.104592448
 20
66.7567977056
 30
0.0
 11
303.104592448
 21
66.7567977056
 31
0.0
  0
LINE
  5
1CC
330
1F
100
AcDbEntity
  8
0
  6
Continuous
 62
     7
370
    25
100
AcDbLine
 10
298.604592448
 20
82.4518864941
 30
0.0
 11
298.604592448
 21
85.6087873517
 31
0.0
  0
LINE
  5
1CD
330
1F
100
AcDbEntity
  8
0
  6
Continuous
 62
     7
370
    25
100
AcDbLine
 10
315.604592448
 20
82.4518864941
 30
0.0
 11
315.604592448
 21
85.6087873517
 31
0.0
  0
LINE
  5
1CE
330
1F
100
AcDbEntity
  8
0
  6
Continuous
 62
     7
370
    25
100
AcDbLine
 10
303.604592448
 20
117.3567977056
 30
0.0
 11
301.604592448
 21
117.3567977056
 31
0.0
  0
LINE
  5
1CF
330
1F
100
AcDbEntity
  8
0
  6
Continuous
 62
     7
370
    25
100
AcDbLine
 10
312.604592448
 20
117.3567977056
 30
0.0
 11
310.604592448
 21
117.3567977056
 31
0.0
  0
SPLINE
  5
1D0
330
1F
100
AcDbEntity
  8
0
  6
Continuous
 62
     7
370
    25
100
AcDbSpline
210
0.0
220
0.0
230
1.0
 70
     8
 71
     3
 72
    19
 73
    15
 74
     0
 42
0.00000001
 43
0.00000001
 40
0.0
 40
0.0
 40
0.0
 40
0.0
 40
0.016743202643326
 40
0.0954624612616675
 40
0.1742863662772721
 40
0.2799088835971816
 40
0.385727040875613
 40
0.4988136471551589
 40
0.6118817380245999
 40
0.7070642448847952
 40
0.8021725483019175
 40
0.8927524003143269
 40
0.9832576045936481
 40
1.0
 40
1.0
 40
1.0
 40
1.0
 10
301.2122272489016
 20
96.79619056681996
 30
0.0
 10
301.2097069467587
 20
96.79306239475792
 30
0.0
 10
301.1953372798075
 20
96.77522691783913
 30
0.0
 10
301.2587827043149
 20
96.85429000713692
 30
0.0
 10
301.413883880063
 20
97.03876899448686
 30
0.0
 10
301.7021830857412
 20
97.3587500190337
 30
0.0
 10
302.134616507666
 20
97.78319766794367
 30
0.0
 10
302.6890494051731
 20
98.24586242398622
 30
0.0
 10
303.3319449220142
 20
98.6863423720493
 30
0.0
 10
304.0313818555626
 20
99.06440331629082
 30
0.0
 10
304.7533821734621
 20
99.36762684359394
 30
0.0
 10
305.5311015632714
 20
99.58602596244165
 30
0.0
 10
306.1191500359113
 20
99.70742572207259
 30
0.0
 10
306.4487402144288
 20
99.72072554942578
 30
0.0
 10
306.5001924530519
 20
99.72280178207842
 30
0.0
  0
SPLINE
  5
1D1
330
1F
100
AcDbEntity
  8
0
  6
Continuous
 62
     7
370
    25
100
AcDbSpline
210
0.0
220
0.0
230
1.0
 70
     8
 71
     3
 72
    19
 73
    15
 74
     0
 42
0.00000001
 43
0.00000001
 40
0.0
 40
0.0
 40
0.0
 40
0.0
 40
0.0313541594979697
 40
0.0973967778863065
 40
0.1974103051303599
 40
0.297536097720136
 40
0.4181236807786868
 40
0.538807706555298
 40
0.6564387508705917
 40
0.7739034008529844
 40
0.8504379647284789
 40
0.9268718191317191
 40
0.9967387107292084
 40
1.0
 40
1.0
 40
1.0
 40
1.0
 10
307.7167896579418
 20
99.71830005790375
 30
0.0
 10
307.8126615795643
 20
99.71308001837151
 30
0.0
 10
308.1104726644508
 20
99.69686478444339
 30
0.0
 10
308.69335806641
 20
99.58249231955911
 30
0.0
 10
309.4426024048577
 20
99.37321981407514
 30
0.0
 10
310.2630671305895
 20
99.02889792162048
 30
0.0
 10
311.0302138168258
 20
98.5932988803801
 30
0.0
 10
311.7115044113726
 20
98.0978999858972
 30
0.0
 10
312.2622145072733
 20
97.6075039516281
 30
0.0
 10
312.6309520613212
 20
97.22454792950235
 30
0.0
 10
312.8589773969575
 20
96.96379602268102
 30
0.0
 10
312.9700833424507
 20
96.82933914683319
 30
0.0
 10
313.0140595122387
 20
96.77544134084715
 30
0.0
 10
313.0031342815709
 20
96.78877505935291
 30
0.0
 10
313.0026470502855
 20
96.78936970169991
 30
0.0
  0
INSERT
  5
1DD
330
1F
100
AcDbEntity
  8
FORMAT
100
AcDbBlockReference
  2
SW_CENTERMARKSYMBOL_0
 10
307.104592448
 20
90.2567977056
 30
0.0
  0
ARC
  5
1DE
330
1F
100
AcDbEntity
  8
FORMAT
100
AcDbCircle
 10
307.104592448
 20
90.2567977056
 30
0.0
 40
7.000000000000016
100
AcDbArc
 50
75.0
 51
345.0
  0
LINE
  5
1DF
330
1F
100
AcDbEntity
  8
FORMAT
100
AcDbLine
 10
302.8053980777
 20
67.2750175564
 30
0.0
 11
302.477842448
 21
77.7567977056
 31
0.0
  0
LINE
  5
1E0
330
1F
100
AcDbEntity
  8
FORMAT
100
AcDbLine
 10
311.4037868183
 20
67.2750175564
 30
0.0
 11
311.731342448
 21
77.7567977056
 31
0.0
  0
LINE
  5
1E1
330
1F
100
AcDbEntity
  8
FORMAT
100
AcDbLine
 10
312.188279948
 20
77.7567977056
 30
0.0
 11
302.020904948
 21
77.7567977056
 31
0.0
  0
LINE
  5
1E2
330
1F
100
AcDbEntity
  8
0
  6
Continuous
 62
     7
370
    25
100
AcDbLine
 10
206.2822395072
 20
165.3459620418
 30
0.0
 11
203.4822395072
 21
165.3459620418
 31
0.0
  0
LINE
  5
1E3
330
1F
100
AcDbEntity
  8
0
  6
Continuous
 62
     7
370
    25
100
AcDbLine
 10
203.4822395072
 20
149.3459620418
 30
0.0
 11
206.2822395072
 21
149.3459620418
 31
0.0
  0
LINE
  5
1E4
330
1F
100
AcDbEntity
  8
0
  6
Continuous
 62
     7
370
    25
100
AcDbLine
 10
203.4822395072
 20
165.3459620418
 30
0.0
 11
203.2822395072
 21
165.1459620418
 31
0.0
  0
LINE
  5
1E5
330
1F
100
AcDbEntity
  8
0
  6
Continuous
 62
     7
370
    25
100
AcDbLine
 10
203.2822395072
 20
149.5459620418
 30
0.0
 11
203.4822395072
 21
149.3459620418
 31
0.0
  0
LINE
  5
1E6
330
1F
100
AcDbEntity
  8
0
  6
Continuous
 62
     7
370
    25
100
AcDbLine
 10
203.2822395072
 20
162.2099620418
 30
0.0
 11
193.7822395072
 21
162.2099620418
 31
0.0
  0
LINE
  5
1E7
330
1F
100
AcDbEntity
  8
0
  6
Continuous
 62
     7
370
    25
100
AcDbLine
 10
193.7822395072
 20
152.4819620418
 30
0.0
 11
203.2822395072
 21
152.4819620418
 31
0.0
  0
LINE
  5
1E8
330
1F
100
AcDbEntity
  8
0
  6
Continuous
 62
     7
370
    25
100
AcDbLine
 10
193.7822395072
 20
162.2099620418
 30
0.0
 11
193.2822395072
 21
161.7099620418
 31
0.0
  0
LINE
  5
1E9
330
1F
100
AcDbEntity
  8
0
  6
Continuous
 62
     7
370
    25
100
AcDbLine
 10
193.2822395072
 20
152.9819620418
 30
0.0
 11
193.7822395072
 21
152.4819620418
 31
0.0
  0
LINE
  5
1EA
330
1F
100
AcDbEntity
  8
0
  6
Continuous
 62
     7
370
    25
100
AcDbLine
 10
229.6379019399
 20
148.8459620418
 30
0.0
 11
229.7822395072
 21
149.0959620418
 31
0.0
  0
LINE
  5
1EB
330
1F
100
AcDbEntity
  8
0
  6
Continuous
 62
     7
370
    25
100
AcDbLine
 10
229.7822395072
 20
165.5959620418
 30
0.0
 11
229.6379019399
 21
165.8459620418
 31
0.0
  0
SPLINE
  5
1EC
330
1F
100
AcDbEntity
  8
0
  6
Continuous
 62
     7
370
    25
100
AcDbSpline
210
0.0
220
0.0
230
1.0
 70
     8
 71
     3
 72
    15
 73
    11
 74
     0
 42
0.00000001
 43
0.00000001
 40
0.0
 40
0.0
 40
0.0
 40
0.0
 40
0.0081667445812695
 40
0.3321939991490083
 40
0.4756279600585602
 40
0.6866830973284899
 40
0.8457435502264811
 40
0.8967566214763185
 40
0.9909540928118029
 40
1.0
 40
1.0
 40
1.0
 40
1.0
 10
222.881259020839
 20
158.5959620417655
 30
0.0
 10
222.8817465549819
 20
158.5973995047045
 30
0.0
 10
222.9015777025139
 20
158.6558703626562
 30
0.0
 10
222.9298584825232
 20
158.7402955403757
 30
0.0
 10
222.967687781012
 20
158.8548746123982
 30
0.0
 10
222.9942716775795
 20
158.9362454995947
 30
0.0
 10
223.0114415013345
 20
158.9892644915965
 30
0.0
 10
223.019258497551
 20
159.0134664234406
 30
0.0
 10
223.0212541839869
 20
159.0196560441068
 30
0.0
 10
223.0213191479376
 20
159.0198574395193
 30
0.0
 10
223.0213248399043
 20
159.0198750852438
 30
0.0
  0
ARC
  5
1ED
330
1F
100
AcDbEntity
  8
0
  6
Continuous
 62
     7
370
    25
100
AcDbCircle
 10
217.7822395072
 20
157.3459620418
 30
0.0
 40
5.250000000000009
100
AcDbArc
 50
13.774146998
 51
166.225853002
  0
SPLINE
  5
1EE
330
1F
100
AcDbEntity
  8
0
  6
Continuous
 62
     7
370
    25
100
AcDbSpline
210
0.0
220
0.0
230
1.0
 70
     8
 71
     3
 72
    15
 73
    11
 74
     0
 42
0.00000001
 43
0.00000001
 40
0.0
 40
0.0
 40
0.0
 40
0.0
 40
0.0090459071881971
 40
0.1032433785236874
 40
0.1542564497735246
 40
0.313316902671511
 40
0.5243720399414428
 40
0.6678060008509903
 40
0.9918332554187292
 40
1.0
 40
1.0
 40
1.0
 40
1.0
 10
212.5431541745881
 20
159.0198750852438
 30
0.0
 10
212.5431598665548
 20
159.0198574395193
 30
0.0
 10
212.5432248305056
 20
159.0196560441068
 30
0.0
 10
212.5452205169414
 20
159.0134664234406
 30
0.0
 10
212.5530375131579
 20
158.9892644915964
 30
0.0
 10
212.5702073369129
 20
158.9362454995947
 30
0.0
 10
212.5967912334804
 20
158.8548746123982
 30
0.0
 10
212.6346205319692
 20
158.7402955403757
 30
0.0
 10
212.6629013119785
 20
158.6558703626562
 30
0.0
 10
212.6827324595105
 20
158.5973995047045
 30
0.0
 10
212.6832199936534
 20
158.5959620417655
 30
0.0
  0
ARC
  5
1EF
330
1F
100
AcDbEntity
  8
0
  6
Continuous
 62
     7
370
    25
100
AcDbCircle
 10
217.7822395072
 20
157.3459620418
 30
0.0
 40
5.500000000000029
100
AcDbArc
 50
17.7189318734
 51
162.2810681266
  0
ARC
  5
1F0
330
1F
100
AcDbEntity
  8
0
  6
Continuous
 62
     7
370
    25
100
AcDbCircle
 10
212.3050139322
 20
159.0959620418
 30
0.0
 40
0.25
100
AcDbArc
 50
270.0
 51
342.2810681266
  0
SPLINE
  5
1F1
330
1F
100
AcDbEntity
  8
0
  6
Continuous
 62
     7
370
    25
100
AcDbSpline
210
0.0
220
0.0
230
1.0
 70
     8
 71
     3
 72
    15
 73
    11
 74
     0
 42
0.00000001
 43
0.00000001
 40
0.0
 40
0.0
 40
0.0
 40
0.0
 40
0.0080847466189818
 40
0.3310106400647567
 40
0.4750333064304972
 40
0.6874363079215137
 40
0.8468367539418253
 40
0.9000996640391794
 40
0.9910442771984082
 40
1.0
 40
1.0
 40
1.0
 40
1.0
 10
212.6832199936534
 20
158.5959620417655
 30
0.0
 10
212.6819401621093
 20
158.5967779777538
 30
0.0
 10
212.6295405163855
 20
158.6301845279474
 30
0.0
 10
212.5541854249311
 20
158.6789980926823
 30
0.0
 10
212.4522663129133
 20
158.7463685649504
 30
0.0
 10
212.3798753679214
 20
158.7949526052939
 30
0.0
 10
212.3321699396566
 20
158.8274014667525
 30
0.0
 10
212.3106344559492
 20
158.8421125078187
 30
0.0
 10
212.3052054399297
 20
158.8458309587369
 30
0.0
 10
212.3050296877732
 20
158.8459512574024
 30
0.0
 10
212.3050139321946
 20
158.8459620417655
 30
0.0
  0
SPLINE
  5
1F2
330
1F
100
AcDbEntity
  8
0
  6
Continuous
 62
     7
370
    25
100
AcDbSpline
210
0.0
220
0.0
230
1.0
 70
     8
 71
     3
 72
    15
 73
    11
 74
     0
 42
0.00000001
 43
0.00000001
 40
0.0
 40
0.0
 40
0.0
 40
0.0
 40
0.0090459071881971
 40
0.1032433785236816
 40
0.1542564497735189
 40
0.31331690267151
 40
0.5243720399414428
 40
0.6678060008509183
 40
0.9918332554187028
 40
1.0
 40
1.0
 40
1.0
 40
1.0
 10
223.0213248399043
 20
155.6720489982873
 30
0.0
 10
223.0213191479376
 20
155.6720666440117
 30
0.0
 10
223.0212541839869
 20
155.6722680394243
 30
0.0
 10
223.019258497551
 20
155.6784576600905
 30
0.0
 10
223.0114415013345
 20
155.7026595919346
 30
0.0
 10
222.9942716775795
 20
155.7556785839363
 30
0.0
 10
222.967687781012
 20
155.8370494711328
 30
0.0
 10
222.9298584825234
 20
155.9516285431553
 30
0.0
 10
222.9015777025132
 20
156.0360537208745
 30
0.0
 10
222.8817465549818
 20
156.0945245788265
 30
0.0
 10
222.881259020839
 20
156.0959620417655
 30
0.0
  0
ARC
  5
1F3
330
1F
100
AcDbEntity
  8
0
  6
Continuous
 62
     7
370
    25
100
AcDbCircle
 10
217.7822395072
 20
157.3459620418
 30
0.0
 40
5.50000000000002
100
AcDbArc
 50
197.7189318734
 51
342.2810681266
  0
SPLINE
  5
1F4
330
1F
100
AcDbEntity
  8
0
  6
Continuous
 62
     7
370
    25
100
AcDbSpline
210
0.0
220
0.0
230
1.0
 70
     8
 71
     3
 72
    15
 73
    11
 74
     0
 42
0.00000001
 43
0.00000001
 40
0.0
 40
0.0
 40
0.0
 40
0.0
 40
0.0081667445812973
 40
0.3321939991490804
 40
0.475627960058556
 40
0.6866830973284891
 40
0.8457435502264751
 40
0.8967566214763124
 40
0.9909540928118028
 40
1.0
 40
1.0
 40
1.0
 40
1.0
 10
212.6832199936534
 20
156.0959620417655
 30
0.0
 10
212.6827324595106
 20
156.0945245788265
 30
0.0
 10
212.6629013119793
 20
156.0360537208745
 30
0.0
 10
212.6346205319691
 20
155.9516285431553
 30
0.0
 10
212.5967912334804
 20
155.8370494711328
 30
0.0
 10
212.5702073369129
 20
155.7556785839363
 30
0.0
 10
212.5530375131579
 20
155.7026595919346
 30
0.0
 10
212.5452205169414
 20
155.6784576600905
 30
0.0
 10
212.5432248305056
 20
155.6722680394243
 30
0.0
 10
212.5431598665548
 20
155.6720666440117
 30
0.0
 10
212.5431541745881
 20
155.6720489982873
 30
0.0
  0
ARC
  5
1F5
330
1F
100
AcDbEntity
  8
0
  6
Continuous
 62
     7
370
    25
100
AcDbCircle
 10
217.7822395072
 20
157.3459620418
 30
0.0
 40
5.250000000000009
100
AcDbArc
 50
193.774146998
 51
346.225853002
  0
SPLINE
  5
1F6
330
1F
100
AcDbEntity
  8
0
  6
Continuous
 62
     7
370
    25
100
AcDbSpline
210
0.0
220
0.0
230
1.0
 70
     8
 71
     3
 72
    15
 73
    11
 74
     0
 42
0.00000001
 43
0.00000001
 40
0.0
 40
0.0
 40
0.0
 40
0.0
 40
0.0080847466189582
 40
0.3310106400648243
 40
0.4750333064304948
 40
0.6874363079215142
 40
0.8468367539418303
 40
0.9000996640391847
 40
0.9910442771984082
 40
1.0
 40
1.0
 40
1.0
 40
1.0
 10
222.881259020839
 20
156.0959620417655
 30
0.0
 10
222.8825388523831
 20
156.0951461057772
 30
0.0
 10
222.9349384981064
 20
156.0617395555827
 30
0.0
 10
223.0102935895615
 20
156.0129259908489
 30
0.0
 10
223.1122127015791
 20
155.9455555185806
 30
0.0
 10
223.184603646571
 20
155.8969714782371
 30
0.0
 10
223.2323090748359
 20
155.8645226167786
 30
0.0
 10
223.2538445585432
 20
155.8498115757123
 30
0.0
 10
223.2592735745627
 20
155.8460931247942
 30
0.0
 10
223.2594493267192
 20
155.8459728261287
 30
0.0
 10
223.2594650822979
 20
155.8459620417655
 30
0.0
  0
ARC
  5
1F7
330
1F
100
AcDbEntity
  8
0
  6
Continuous
 62
     7
370
    25
100
AcDbCircle
 10
223.2594650823
 20
155.5959620418
 30
0.0
 40
0.25
100
AcDbArc
 50
90.0
 51
162.2810681266
  0
SPLINE
  5
1F8
330
1F
100
AcDbEntity
  8
0
  6
Continuous
 62
     7
370
    25
100
AcDbSpline
210
0.0
220
0.0
230
1.0
 70
     8
 71
     3
 72
    15
 73
    11
 74
     0
 42
0.00000001
 43
0.00000001
 40
0.0
 40
0.0
 40
0.0
 40
0.0
 40
0.0089557228015919
 40
0.0999003359608209
 40
0.1531632460581751
 40
0.3125636920784904
 40
0.5249666935695061
 40
0.6689893599351777
 40
0.991915253381045
 40
1.0
 40
1.0
 40
1.0
 40
1.0
 10
212.3050139321946
 20
155.8459620417655
 30
0.0
 10
212.3050296877732
 20
155.8459728261287
 30
0.0
 10
212.3052054399297
 20
155.8460931247942
 30
0.0
 10
212.3106344559492
 20
155.8498115757123
 30
0.0
 10
212.3321699396566
 20
155.8645226167786
 30
0.0
 10
212.3798753679214
 20
155.8969714782371
 30
0.0
 10
212.4522663129133
 20
155.9455555185806
 30
0.0
 10
212.5541854249309
 20
156.0129259908489
 30
0.0
 10
212.629540516386
 20
156.0617395555828
 30
0.0
 10
212.6819401621093
 20
156.0951461057772
 30
0.0
 10
212.6832199936534
 20
156.0959620417655
 30
0.0
  0
ARC
  5
1F9
330
1F
100
AcDbEntity
  8
0
  6
Continuous
 62
     7
370
    25
100
AcDbCircle
 10
212.3050139322
 20
155.5959620418
 30
0.0
 40
0.25
100
AcDbArc
 50
17.7189318734
 51
90.0
  0
ARC
  5
1FA
330
1F
100
AcDbEntity
  8
0
  6
Continuous
 62
     7
370
    25
100
AcDbCircle
 10
223.2594650823
 20
159.0959620418
 30
0.0
 40
0.25
100
AcDbArc
 50
197.7189318734
 51
270.0
  0
SPLINE
  5
1FB
330
1F
100
AcDbEntity
  8
0
  6
Continuous
 62
     7
370
    25
100
AcDbSpline
210
0.0
220
0.0
230
1.0
 70
     8
 71
     3
 72
    15
 73
    11
 74
     0
 42
0.00000001
 43
0.00000001
 40
0.0
 40
0.0
 40
0.0
 40
0.0
 40
0.0089557228015919
 40
0.0999003359608148
 40
0.153163246058169
 40
0.3125636920784848
 40
0.5249666935694999
 40
0.6689893599352451
 40
0.9919152533810159
 40
1.0
 40
1.0
 40
1.0
 40
1.0
 10
223.2594650822979
 20
158.8459620417655
 30
0.0
 10
223.2594493267192
 20
158.8459512574024
 30
0.0
 10
223.2592735745627
 20
158.8458309587369
 30
0.0
 10
223.2538445585432
 20
158.8421125078187
 30
0.0
 10
223.2323090748359
 20
158.8274014667525
 30
0.0
 10
223.184603646571
 20
158.7949526052939
 30
0.0
 10
223.1122127015791
 20
158.7463685649504
 30
0.0
 10
223.0102935895614
 20
158.6789980926823
 30
0.0
 10
222.9349384981069
 20
158.6301845279475
 30
0.0
 10
222.8825388523831
 20
158.5967779777538
 30
0.0
 10
222.881259020839
 20
158.5959620417655
 30
0.0
  0
LINE
  5
1FC
330
1F
100
AcDbEntity
  8
0
  6
Continuous
 62
     7
370
    25
100
AcDbLine
 10
222.7822395072
 20
157.9459620418
 30
0.0
 11
212.7822395072
 21
157.9459620418
 31
0.0
  0
LINE
  5
1FD
330
1F
100
AcDbEntity
  8
0
  6
Continuous
 62
     7
370
    25
100
AcDbLine
 10
212.7822395072
 20
156.7459620418
 30
0.0
 11
222.7822395072
 21
156.7459620418
 31
0.0
  0
LINE
  5
1FE
330
1F
100
AcDbEntity
  8
0
  6
Continuous
 62
     7
370
    25
100
AcDbLine
 10
212.7822395072
 20
157.9459620418
 30
0.0
 11
212.7822395072
 21
156.7459620418
 31
0.0
  0
LINE
  5
1FF
330
1F
100
AcDbEntity
  8
0
  6
Continuous
 62
     7
370
    25
100
AcDbLine
 10
222.7822395072
 20
156.7459620418
 30
0.0
 11
222.7822395072
 21
157.9459620418
 31
0.0
  0
LINE
  5
200
330
1F
100
AcDbEntity
  8
0
  6
Continuous
 62
     7
370
    25
100
AcDbLine
 10
223.5322395072
 20
158.5959620418
 30
0.0
 11
222.8812590208
 21
158.5959620418
 31
0.0
  0
LINE
  5
201
330
1F
100
AcDbEntity
  8
0
  6
Continuous
 62
     7
370
    25
100
AcDbLine
 10
223.5322395072
 20
156.0959620418
 30
0.0
 11
223.5322395072
 21
158.5959620418
 31
0.0
  0
LINE
  5
202
330
1F
100
AcDbEntity
  8
0
  6
Continuous
 62
     7
370
    25
100
AcDbLine
 10
222.8812590208
 20
156.0959620418
 30
0.0
 11
223.5322395072
 21
156.0959620418
 31
0.0
  0
LINE
  5
203
330
1F
100
AcDbEntity
  8
0
  6
Continuous
 62
     7
370
    25
100
AcDbLine
 10
212.0322395072
 20
156.0959620418
 30
0.0
 11
212.6832199937
 21
156.0959620418
 31
0.0
  0
LINE
  5
204
330
1F
100
AcDbEntity
  8
0
  6
Continuous
 62
     7
370
    25
100
AcDbLine
 10
212.0322395072
 20
158.5959620418
 30
0.0
 11
212.0322395072
 21
156.0959620418
 31
0.0
  0
LINE
  5
205
330
1F
100
AcDbEntity
  8
0
  6
Continuous
 62
     7
370
    25
100
AcDbLine
 10
212.6832199937
 20
158.5959620418
 30
0.0
 11
212.0322395072
 21
158.5959620418
 31
0.0
  0
LINE
  5
206
330
1F
100
AcDbEntity
  8
0
  6
Continuous
 62
     7
370
    25
100
AcDbLine
 10
223.5322395072
 20
158.5959620418
 30
0.0
 11
223.5322395072
 21
158.8459620418
 31
0.0
  0
LINE
  5
207
330
1F
100
AcDbEntity
  8
0
  6
Continuous
 62
     7
370
    25
100
AcDbLine
 10
223.2594650823
 20
158.8459620418
 30
0.0
 11
223.5322395072
 21
158.8459620418
 31
0.0
  0
LINE
  5
208
330
1F
100
AcDbEntity
  8
0
  6
Continuous
 62
     7
370
    25
100
AcDbLine
 10
212.0322395072
 20
158.8459620418
 30
0.0
 11
212.0322395072
 21
158.5959620418
 31
0.0
  0
LINE
  5
209
330
1F
100
AcDbEntity
  8
0
  6
Continuous
 62
     7
370
    25
100
AcDbLine
 10
212.0322395072
 20
158.8459620418
 30
0.0
 11
212.3050139322
 21
158.8459620418
 31
0.0
  0
LINE
  5
20A
330
1F
100
AcDbEntity
  8
0
  6
Continuous
 62
     7
370
    25
100
AcDbLine
 10
212.0322395072
 20
158.5959620418
 30
0.0
 11
211.7822395072
 21
158.5959620418
 31
0.0
  0
ARC
  5
20B
330
1F
100
AcDbEntity
  8
0
  6
Continuous
 62
     7
370
    25
100
AcDbCircle
 10
212.0322395072
 20
158.5959620418
 30
0.0
 40
0.25
100
AcDbArc
 50
90.0
 51
180.0
  0
ARC
  5
20C
330
1F
100
AcDbEntity
  8
0
  6
Continuous
 62
     7
370
    25
100
AcDbCircle
 10
223.5322395072
 20
158.5959620418
 30
0.0
 40
0.25
100
AcDbArc
 50
0.0
 51
90.0
  0
LINE
  5
20D
330
1F
100
AcDbEntity
  8
0
  6
Continuous
 62
     7
370
    25
100
AcDbLine
 10
223.7822395072
 20
158.5959620418
 30
0.0
 11
223.5322395072
 21
158.5959620418
 31
0.0
  0
LINE
  5
20E
330
1F
100
AcDbEntity
  8
0
  6
Continuous
 62
     7
370
    25
100
AcDbLine
 10
223.7822395072
 20
158.5959620418
 30
0.0
 11
223.7822395072
 21
156.0959620418
 31
0.0
  0
LINE
  5
20F
330
1F
100
AcDbEntity
  8
0
  6
Continuous
 62
     7
370
    25
100
AcDbLine
 10
223.5322395072
 20
156.0959620418
 30
0.0
 11
223.7822395072
 21
156.0959620418
 31
0.0
  0
LINE
  5
210
330
1F
100
AcDbEntity
  8
0
  6
Continuous
 62
     7
370
    25
100
AcDbLine
 10
211.7822395072
 20
156.0959620418
 30
0.0
 11
212.0322395072
 21
156.0959620418
 31
0.0
  0
LINE
  5
211
330
1F
100
AcDbEntity
  8
0
  6
Continuous
 62
     7
370
    25
100
AcDbLine
 10
211.7822395072
 20
156.0959620418
 30
0.0
 11
211.7822395072
 21
158.5959620418
 31
0.0
  0
LINE
  5
212
330
1F
100
AcDbEntity
  8
0
  6
Continuous
 62
     7
370
    25
100
AcDbLine
 10
212.0322395072
 20
156.0959620418
 30
0.0
 11
212.0322395072
 21
155.8459620418
 31
0.0
  0
ARC
  5
213
330
1F
100
AcDbEntity
  8
0
  6
Continuous
 62
     7
370
    25
100
AcDbCircle
 10
212.0322395072
 20
156.0959620418
 30
0.0
 40
0.25
100
AcDbArc
 50
180.0
 51
270.0
  0
LINE
  5
214
330
1F
100
AcDbEntity
  8
0
  6
Continuous
 62
     7
370
    25
100
AcDbLine
 10
223.5322395072
 20
155.8459620418
 30
0.0
 11
223.5322395072
 21
156.0959620418
 31
0.0
  0
LINE
  5
215
330
1F
100
AcDbEntity
  8
0
  6
Continuous
 62
     7
370
    25
100
AcDbLine
 10
223.5322395072
 20
155.8459620418
 30
0.0
 11
223.2594650823
 21
155.8459620418
 31
0.0
  0
LINE
  5
216
330
1F
100
AcDbEntity
  8
0
  6
Continuous
 62
     7
370
    25
100
AcDbLine
 10
212.3050139322
 20
155.8459620418
 30
0.0
 11
212.0322395072
 21
155.8459620418
 31
0.0
  0
ARC
  5
217
330
1F
100
AcDbEntity
  8
0
  6
Continuous
 62
     7
370
    25
100
AcDbCircle
 10
223.5322395072
 20
156.0959620418
 30
0.0
 40
0.25
100
AcDbArc
 50
270.0
 51
0.0
  0
LINE
  5
218
330
1F
100
AcDbEntity
  8
0
  6
Continuous
 62
     7
370
    25
100
AcDbLine
 10
237.7822395072
 20
154.0742627777
 30
0.0
 11
239.9576763688
 21
153.8459620418
 31
0.0
  0
LINE
  5
219
330
1F
100
AcDbEntity
  8
0
  6
Continuous
 62
     7
370
    25
100
AcDbLine
 10
237.7822395072
 20
160.6176613058
 30
0.0
 11
237.7822395072
 21
154.0742627777
 31
0.0
  0
LINE
  5
21A
330
1F
100
AcDbEntity
  8
0
  6
Continuous
 62
     7
370
    25
100
AcDbLine
 10
239.9576763688
 20
160.8459620418
 30
0.0
 11
237.7822395072
 21
160.6176613058
 31
0.0
  0
LINE
  5
21B
330
1F
100
AcDbEntity
  8
0
  6
Continuous
 62
     7
370
    25
100
AcDbLine
 10
257.7822395072
 20
160.8459620418
 30
0.0
 11
239.9576763688
 21
160.8459620418
 31
0.0
  0
LINE
  5
21C
330
1F
100
AcDbEntity
  8
0
  6
Continuous
 62
     7
370
    25
100
AcDbLine
 10
257.7822395072
 20
153.8459620418
 30
0.0
 11
257.7822395072
 21
160.8459620418
 31
0.0
  0
LINE
  5
21D
330
1F
100
AcDbEntity
  8
0
  6
Continuous
 62
     7
370
    25
100
AcDbLine
 10
239.9576763688
 20
153.8459620418
 30
0.0
 11
257.7822395072
 21
153.8459620418
 31
0.0
  0
LINE
  5
21E
330
1F
100
AcDbEntity
  8
0
  6
Continuous
 62
     7
370
    25
100
AcDbLine
 10
223.0060416816
 20
155.624947561
 30
0.0
 11
223.1344507203
 21
155.8090891944
 31
0.0
  0
LINE
  5
21F
330
1F
100
AcDbEntity
  8
0
  6
Continuous
 62
     7
370
    25
100
AcDbLine
 10
223.1248833795
 20
158.8911797091
 30
0.0
 11
223.0060416816
 21
159.0669765226
 31
0.0
  0
LINE
  5
220
330
1F
100
AcDbEntity
  8
0
  6
Continuous
 62
     7
370
    25
100
AcDbLine
 10
231.1988091608
 20
154.7651594062
 30
0.0
 11
231.1988091608
 21
159.9267646773
 31
0.0
  0
LINE
  5
221
330
1F
100
AcDbEntity
  8
0
  6
Continuous
 62
     7
370
    25
100
AcDbLine
 10
231.1988091608
 20
154.7651594062
 30
0.0
 11
223.0060416816
 21
155.6249475609
 31
0.0
  0
LINE
  5
222
330
1F
100
AcDbEntity
  8
0
  6
Continuous
 62
     7
370
    25
100
AcDbLine
 10
223.0060416816
 20
159.0669765226
 30
0.0
 11
231.1988091608
 21
159.9267646773
 31
0.0
  0
LINE
  5
223
330
1F
100
AcDbEntity
  8
0
  6
Continuous
 62
     7
370
    25
100
AcDbLine
 10
237.7822395072
 20
154.0742627777
 30
0.0
 11
231.1988091608
 21
154.7651594062
 31
0.0
  0
LINE
  5
224
330
1F
100
AcDbEntity
  8
0
  6
Continuous
 62
     7
370
    25
100
AcDbLine
 10
231.1988091608
 20
159.9267646773
 30
0.0
 11
237.7822395072
 21
160.6176613058
 31
0.0
  0
ARC
  5
225
330
1F
100
AcDbEntity
  8
0
  6
Continuous
 62
     7
370
    25
100
AcDbCircle
 10
217.7822395072
 20
157.3459620418
 30
0.0
 40
7.450000000000667
100
AcDbArc
 50
53.0863788866
 51
306.9136211134
  0
ARC
  5
226
330
1F
100
AcDbEntity
  8
0
  6
Continuous
 62
     7
370
    25
100
AcDbCircle
 10
217.7822395072
 20
157.3459620418
 30
0.0
 40
7.207531252870806
100
AcDbArc
 50
15.3041237151
 51
58.9797515565
  0
ARC
  5
227
330
1F
100
AcDbEntity
  8
0
  6
Continuous
 62
     7
370
    25
100
AcDbCircle
 10
217.7822395072
 20
157.3459620418
 30
0.0
 40
7.207531252872461
100
AcDbArc
 50
301.0202484435
 51
344.6958762849
  0
ARC
  5
228
330
1F
100
AcDbEntity
  8
0
  6
Continuous
 62
     7
370
    25
100
AcDbCircle
 10
239.9576763688
 20
225.8459620418
 30
0.0
 40
65.0
100
AcDbArc
 50
253.4999050078
 51
270.0
  0
ARC
  5
229
330
1F
100
AcDbEntity
  8
0
  6
Continuous
 62
     7
370
    25
100
AcDbCircle
 10
239.9576763688
 20
88.8459620418
 30
0.0
 40
65.00000000000001
100
AcDbArc
 50
90.0
 51
106.5000949923
  0
LINE
  5
22A
330
1F
100
AcDbEntity
  8
0
  6
Continuous
 62
     7
370
    25
100
AcDbLine
 10
203.4822395072
 20
165.3459620418
 30
0.0
 11
203.4822395072
 21
149.3459620418
 31
0.0
  0
LINE
  5
22B
330
1F
100
AcDbEntity
  8
0
  6
Continuous
 62
     7
370
    25
100
AcDbLine
 10
203.2822395072
 20
149.5459620418
 30
0.0
 11
203.2822395072
 21
165.1459620418
 31
0.0
  0
LINE
  5
22C
330
1F
100
AcDbEntity
  8
0
  6
Continuous
 62
     7
370
    25
100
AcDbLine
 10
193.7822395072
 20
162.2099620418
 30
0.0
 11
193.7822395072
 21
152.4819620418
 31
0.0
  0
LINE
  5
22D
330
1F
100
AcDbEntity
  8
0
  6
Continuous
 62
     7
370
    25
100
AcDbLine
 10
193.2822395072
 20
152.9819620418
 30
0.0
 11
193.2822395072
 21
161.7099620418
 31
0.0
  0
SPLINE
  5
22E
330
1F
100
AcDbEntity
  8
0
  6
Continuous
 62
     7
370
    25
100
AcDbSpline
210
0.0
220
0.0
230
1.0
 70
    24
 71
     3
 72
    10
 73
     6
 74
     0
 42
0.00000001
 43
0.00000001
 40
0.0
 40
0.0
 40
0.0
 40
0.0
 40
0.3696314915011084
 40
0.7423086458804282
 40
0.9999999999999999
 40
0.9999999999999999
 40
0.9999999999999999
 40
0.9999999999999999
 10
228.9601805346886
 20
148.8459620417655
 30
0.0
 10
229.1013831252166
 20
148.8459620417655
 30
0.0
 10
229.384951777184
 20
148.8459620417655
 30
0.0
 10
229.6040861119695
 20
148.8459620417655
 30
0.0
 10
229.626477040099
 20
148.8459620417655
 30
0.0
 10
229.6356303345799
 20
148.8459620417655
 30
0.0
  0
SPLINE
  5
22F
330
1F
100
AcDbEntity
  8
0
  6
Continuous
 62
     7
370
    25
100
AcDbSpline
210
0.0
220
0.0
230
1.0
 70
     8
 71
     3
 72
    10
 73
     6
 74
     0
 42
0.00000001
 43
0.00000001
 40
0.0
 40
0.0
 40
0.0
 40
0.0
 40
0.5
 40
0.5
 40
1.0
 40
1.0
 40
1.0
 40
1.0
 10
228.9601805346886
 20
149.0959620417655
 30
0.0
 10
228.9365051402642
 20
149.0215816643882
 30
0.0
 10
228.9234140303796
 20
148.9572810256024
 30
0.0
 10
228.9233277090913
 20
148.8690653408195
 30
0.0
 10
228.9364966430352
 20
148.8459620417655
 30
0.0
 10
228.9601805346886
 20
148.8459620417655
 30
0.0
  0
SPLINE
  5
230
330
1F
100
AcDbEntity
  8
0
  6
Continuous
 62
     7
370
    25
100
AcDbSpline
210
0.0
220
0.0
230
1.0
 70
     8
 71
     3
 72
    12
 73
     8
 74
     0
 42
0.00000001
 43
0.00000001
 40
0.0
 40
0.0
 40
0.0
 40
0.0
 40
0.0534804914545912
 40
0.2881694996121056
 40
0.5228876560056955
 40
0.761424300013915
 40
1.0
 40
1.0
 40
1.0
 40
1.0
 10
229.6289419811354
 20
153.0057269848977
 30
0.0
 10
229.631100283081
 20
152.9350633886997
 30
0.0
 10
229.6427298843569
 20
152.5543059834603
 30
0.0
 10
229.5769536815418
 20
151.8638473209065
 30
0.0
 10
229.443281650276
 20
150.9356351319315
 30
0.0
 10
229.2363468266612
 20
150.0111271550582
 30
0.0
 10
229.0522409889244
 20
149.4010337267588
 30
0.0
 10
228.9601805346886
 20
149.0959620417655
 30
0.0
  0
SPLINE
  5
231
330
1F
100
AcDbEntity
  8
0
  6
Continuous
 62
     7
370
    25
100
AcDbSpline
210
0.0
220
0.0
230
1.0
 70
     8
 71
     3
 72
    11
 73
     7
 74
     0
 42
0.00000001
 43
0.00000001
 40
0.0
 40
0.0
 40
0.0
 40
0.0
 40
0.2728719166524368
 40
0.5456766959762575
 40
0.8241423281078462
 40
1.0
 40
1.0
 40
1.0
 40
1.0
 10
228.9601805346886
 20
165.5959620417655
 30
0.0
 10
229.064733854413
 20
165.2480079461004
 30
0.0
 10
229.2738147695929
 20
164.5521853652966
 30
0.0
 10
229.4919875109701
 20
163.482583861842
 30
0.0
 10
229.6191837767113
 20
162.5293333993587
 30
0.0
 10
229.6230477675063
 20
161.9306698999501
 30
0.0
 10
229.6245434258171
 20
161.6989415947534
 30
0.0
  0
SPLINE
  5
232
330
1F
100
AcDbEntity
  8
0
  6
Continuous
 62
     7
370
    25
100
AcDbSpline
210
0.0
220
0.0
230
1.0
 70
     8
 71
     3
 72
    10
 73
     6
 74
     0
 42
0.00000001
 43
0.00000001
 40
0.0
 40
0.0
 40
0.0
 40
0.0
 40
0.5
 40
0.5
 40
1.0
 40
1.0
 40
1.0
 40
1.0
 10
228.9601805346886
 20
165.8459620417655
 30
0.0
 10
228.9365051402642
 20
165.8459620417655
 30
0.0
 10
228.9234140303796
 20
165.8231695924357
 30
0.0
 10
228.9233277090913
 20
165.7352268883427
 30
0.0
 10
228.9364966430352
 20
165.6703691146688
 30
0.0
 10
228.9601805346886
 20
165.5959620417655
 30
0.0
  0
SPLINE
  5
233
330
1F
100
AcDbEntity
  8
0
  6
Continuous
 62
     7
370
    25
100
AcDbSpline
210
0.0
220
0.0
230
1.0
 70
    24
 71
     3
 72
    10
 73
     6
 74
     0
 42
0.00000001
 43
0.00000001
 40
0.0
 40
0.0
 40
0.0
 40
0.0
 40
0.2576881493422093
 40
0.6270662783413203
 40
1.0
 40
1.0
 40
1.0
 40
1.0
 10
229.6342888795275
 20
165.8459620417655
 30
0.0
 10
229.625685927482
 20
165.8459620417655
 30
0.0
 10
229.6047512390391
 20
165.8459620417655
 30
0.0
 10
229.3857860969004
 20
165.8459620417655
 30
0.0
 10
229.102501356411
 20
165.8459620417655
 30
0.0
 10
228.9601805346886
 20
165.8459620417655
 30
0.0
  0
LINE
  5
234
330
1F
100
AcDbEntity
  8
0
  6
Continuous
 62
     7
370
    25
100
AcDbLine
 10
229.7822395072
 20
165.5959620418
 30
0.0
 11
229.7822395072
 21
161.6473601514
 31
0.0
  0
LINE
  5
235
330
1F
100
AcDbEntity
  8
0
  6
Continuous
 62
     7
370
    25
100
AcDbLine
 10
229.7822395072
 20
153.0445639321
 30
0.0
 11
229.7822395072
 21
149.0959620418
 31
0.0
  0
SPLINE
  5
236
330
1F
100
AcDbEntity
  8
0
  6
Continuous
 62
     7
370
    25
100
AcDbSpline
210
0.0
220
0.0
230
1.0
 70
     8
 71
     3
 72
    10
 73
     6
 74
     0
 42
0.00000001
 43
0.00000001
 40
0.0
 40
0.0
 40
0.0
 40
0.0
 40
0.5
 40
0.5
 40
1.0
 40
1.0
 40
1.0
 40
1.0
 10
206.9599609125064
 20
157.5959620417655
 30
0.0
 10
206.9836345169975
 20
157.5215872877755
 30
0.0
 10
206.9967272927908
 20
157.4344935562096
 30
0.0
 10
206.9968138608917
 20
157.2583277276651
 30
0.0
 10
206.9836440367684
 20
157.1703667037748
 30
0.0
 10
206.9599609125064
 20
157.0959620417655
 30
0.0
  0
SPLINE
  5
237
330
1F
100
AcDbEntity
  8
0
  6
Continuous
 62
     7
370
    25
100
AcDbSpline
210
0.0
220
0.0
230
1.0
 70
     8
 71
     3
 72
    12
 73
     8
 74
     0
 42
0.00000001
 43
0.00000001
 40
0.0
 40
0.0
 40
0.0
 40
0.0
 40
0.2499999999999999
 40
0.2499999999999999
 40
0.5
 40
0.5
 40
1.0
 40
1.0
 40
1.0
 40
1.0
 10
206.2822395072462
 20
153.0959620417655
 30
0.0
 10
206.2822395072462
 20
153.4337179767883
 30
0.0
 10
206.2979858372682
 20
153.7741259916668
 30
0.0
 10
206.3594308618536
 20
154.4486206760672
 30
0.0
 10
206.4050196211073
 20
154.7837459949345
 30
0.0
 10
206.5814706233639
 20
155.7834573132746
 30
0.0
 10
206.7519283253274
 20
156.4423914163399
 30
0.0
 10
206.9599609125063
 20
157.0959620417655
 30
0.0
  0
LINE
  5
238
330
1F
100
AcDbEntity
  8
0
  6
Continuous
 62
     7
370
    25
100
AcDbLine
 10
206.2822395072
 20
161.5959620418
 30
0.0
 11
206.2822395072
 21
153.0959620418
 31
0.0
  0
SPLINE
  5
239
330
1F
100
AcDbEntity
  8
0
  6
Continuous
 62
     7
370
    25
100
AcDbSpline
210
0.0
220
0.0
230
1.0
 70
     8
 71
     3
 72
    10
 73
     6
 74
     0
 42
0.00000001
 43
0.00000001
 40
0.0
 40
0.0
 40
0.0
 40
0.0
 40
0.5
 40
0.5
 40
1.0
 40
1.0
 40
1.0
 40
1.0
 10
206.9599609125059
 20
157.5959620417655
 30
0.0
 10
206.7511509878397
 20
158.2519748083706
 30
0.0
 10
206.5806168480924
 20
158.9122417152283
 30
0.0
 10
206.3458310430735
 20
160.2445882338633
 30
0.0
 10
206.2822395072462
 20
160.9167412153506
 30
0.0
 10
206.2822395072462
 20
161.5959620417655
 30
0.0
  0
SPLINE
  5
23A
330
1F
100
AcDbEntity
  8
0
  6
Continuous
 62
     7
370
    25
100
AcDbSpline
210
0.0
220
0.0
230
1.0
 70
     8
 71
     3
 72
    10
 73
     6
 74
     0
 42
0.00000001
 43
0.00000001
 40
0.0
 40
0.0
 40
0.0
 40
0.0
 40
0.3156979941942014
 40
0.6578209889305457
 40
1.0
 40
1.0
 40
1.0
 40
1.0
 10
223.8591302852844
 20
162.8843718449727
 30
0.0
 10
223.8978980515102
 20
163.1733864339073
 30
0.0
 10
223.9786785784261
 20
163.7756071201478
 30
0.0
 10
224.184421719349
 20
164.6807068448195
 30
0.0
 10
224.3681095026162
 20
165.2908603272491
 30
0.0
 10
224.4599609125064
 20
165.5959620417655
 30
0.0
  0
LINE
  5
23B
330
1F
100
AcDbEntity
  8
0
  6
Continuous
 62
     7
370
    25
100
AcDbLine
 10
228.9601805347
 20
165.5959620418
 30
0.0
 11
224.4599609125
 21
165.5959620418
 31
0.0
  0
SPLINE
  5
23C
330
1F
100
AcDbEntity
  8
0
  6
Continuous
 62
     7
370
    25
100
AcDbSpline
210
0.0
220
0.0
230
1.0
 70
     8
 71
     3
 72
    12
 73
     8
 74
     0
 42
0.00000001
 43
0.00000001
 40
0.0
 40
0.0
 40
0.0
 40
0.0
 40
0.2500000000000001
 40
0.2500000000000001
 40
0.5000000000000002
 40
0.5000000000000002
 40
1.0
 40
1.0
 40
1.0
 40
1.0
 10
206.2822395072462
 20
161.5959620417655
 30
0.0
 10
206.2822395072462
 20
161.9337179767883
 30
0.0
 10
206.2979858372682
 20
162.2741259916668
 30
0.0
 10
206.3594308618536
 20
162.9486206760672
 30
0.0
 10
206.4050196211073
 20
163.2837459949344
 30
0.0
 10
206.5814706233639
 20
164.2834573132746
 30
0.0
 10
206.7519283253274
 20
164.9423914163399
 30
0.0
 10
206.9599609125063
 20
165.5959620417655
 30
0.0
  0
LINE
  5
23D
330
1F
100
AcDbEntity
  8
0
  6
Continuous
 62
     7
370
    25
100
AcDbLine
 10
211.104518102
 20
165.5959620418
 30
0.0
 11
206.9599609125
 21
165.5959620418
 31
0.0
  0
SPLINE
  5
23E
330
1F
100
AcDbEntity
  8
0
  6
Continuous
 62
     7
370
    25
100
AcDbSpline
210
0.0
220
0.0
230
1.0
 70
     8
 71
     3
 72
    11
 73
     7
 74
     0
 42
0.00000001
 43
0.00000001
 40
0.0
 40
0.0
 40
0.0
 40
0.0
 40
0.2571275640435611
 40
0.5142042599871043
 40
0.7757619084520364
 40
1.0
 40
1.0
 40
1.0
 40
1.0
 10
211.104518101986
 20
165.5959620417656
 30
0.0
 10
211.2022801565488
 20
165.2717081586149
 30
0.0
 10
211.3977849251965
 20
164.6232645401579
 30
0.0
 10
211.6101107508794
 20
163.6287086644147
 30
0.0
 10
211.7490162853597
 20
162.6668812400805
 30
0.0
 10
211.7671310933611
 20
162.0337988581822
 30
0.0
 10
211.7754926940102
 20
161.7415748359918
 30
0.0
  0
SPLINE
  5
23F
330
1F
100
AcDbEntity
  8
0
  6
Continuous
 62
     7
370
    25
100
AcDbSpline
210
0.0
220
0.0
230
1.0
 70
     8
 71
     3
 72
    12
 73
     8
 74
     0
 42
0.00000001
 43
0.00000001
 40
0.0
 40
0.0
 40
0.0
 40
0.0
 40
0.0391283752475321
 40
0.2773759829766208
 40
0.5156531809177475
 40
0.757806766366201
 40
1.0
 40
1.0
 40
1.0
 40
1.0
 10
211.7801955262093
 20
152.9465413572687
 30
0.0
 10
211.7796540466027
 20
152.8956070229957
 30
0.0
 10
211.7758155678216
 20
152.5345401259715
 30
0.0
 10
211.7251710825823
 20
151.8638649317438
 30
0.0
 10
211.5865657335287
 20
150.9356303500936
 30
0.0
 10
211.3809495840653
 20
150.0111283587747
 30
0.0
 10
211.1966669577479
 20
149.4010341280195
 30
0.0
 10
211.104518101986
 20
149.0959620417655
 30
0.0
  0
LINE
  5
240
330
1F
100
AcDbEntity
  8
0
  6
Continuous
 62
     7
370
    25
100
AcDbLine
 10
206.9599609125
 20
149.0959620418
 30
0.0
 11
211.104518102
 21
149.0959620418
 31
0.0
  0
SPLINE
  5
241
330
1F
100
AcDbEntity
  8
0
  6
Continuous
 62
     7
370
    25
100
AcDbSpline
210
0.0
220
0.0
230
1.0
 70
     8
 71
     3
 72
    10
 73
     6
 74
     0
 42
0.00000001
 43
0.00000001
 40
0.0
 40
0.0
 40
0.0
 40
0.0
 40
0.5
 40
0.5
 40
1.0
 40
1.0
 40
1.0
 40
1.0
 10
206.9599609125059
 20
149.0959620417655
 30
0.0
 10
206.7511509878397
 20
149.7519748083706
 30
0.0
 10
206.5806168480924
 20
150.4122417152283
 30
0.0
 10
206.3458310430735
 20
151.7445882338633
 30
0.0
 10
206.2822395072462
 20
152.4167412153506
 30
0.0
 10
206.2822395072462
 20
153.0959620417655
 30
0.0
  0
LINE
  5
242
330
1F
100
AcDbEntity
  8
0
  6
Continuous
 62
     7
370
    25
100
AcDbLine
 10
224.4599609125
 20
149.0959620418
 30
0.0
 11
228.9601805347
 21
149.0959620418
 31
0.0
  0
SPLINE
  5
243
330
1F
100
AcDbEntity
  8
0
  6
Continuous
 62
     7
370
    25
100
AcDbSpline
210
0.0
220
0.0
230
1.0
 70
     8
 71
     3
 72
    10
 73
     6
 74
     0
 42
0.00000001
 43
0.00000001
 40
0.0
 40
0.0
 40
0.0
 40
0.0
 40
0.3653875654947669
 40
0.730702845580165
 40
1.0
 40
1.0
 40
1.0
 40
1.0
 10
224.4599609125064
 20
149.0959620417655
 30
0.0
 10
224.3628946469699
 20
149.4202696033641
 30
0.0
 10
224.1687813187254
 20
150.0688205680979
 30
0.0
 10
223.9666554549152
 20
150.9702711265959
 30
0.0
 10
223.8969187366007
 20
151.549171186376
 30
0.0
 10
223.8673260296515
 20
151.7948268500785
 30
0.0
  0
LINE
  5
244
330
1F
100
AcDbEntity
  8
0
  6
Continuous
 62
     7
370
    25
100
AcDbLine
 10
223.7822395072
 20
151.8011464378
 30
0.0
 11
223.7822395072
 21
149.8459620418
 31
0.0
  0
LINE
  5
245
330
1F
100
AcDbEntity
  8
0
  6
Continuous
 62
     7
370
    25
100
AcDbLine
 10
223.7822395072
 20
149.8459620418
 30
0.0
 11
211.7822395072
 21
149.8459620418
 31
0.0
  0
LINE
  5
246
330
1F
100
AcDbEntity
  8
0
  6
Continuous
 62
     7
370
    25
100
AcDbLine
 10
211.7822395072
 20
152.9297985484
 30
0.0
 11
211.7822395072
 21
149.8459620418
 31
0.0
  0
LINE
  5
247
330
1F
100
AcDbEntity
  8
0
  6
Continuous
 62
     7
370
    25
100
AcDbLine
 10
211.7822395072
 20
164.8459620418
 30
0.0
 11
211.7822395072
 21
161.7621255351
 31
0.0
  0
LINE
  5
248
330
1F
100
AcDbEntity
  8
0
  6
Continuous
 62
     7
370
    25
100
AcDbLine
 10
211.7822395072
 20
164.8459620418
 30
0.0
 11
223.7822395072
 21
164.8459620418
 31
0.0
  0
LINE
  5
249
330
1F
100
AcDbEntity
  8
0
  6
Continuous
 62
     7
370
    25
100
AcDbLine
 10
223.7822395072
 20
164.8459620418
 30
0.0
 11
223.7822395072
 21
162.8907776457
 31
0.0
  0
SPLINE
  5
24A
330
1F
100
AcDbEntity
  8
0
  6
Continuous
 62
     7
370
    25
100
AcDbSpline
210
0.0
220
0.0
230
1.0
 70
     8
 71
     3
 72
     8
 73
     4
 74
     0
 42
0.00000001
 43
0.00000001
 40
0.0
 40
0.0
 40
0.0
 40
0.0
 40
1.0
 40
1.0
 40
1.0
 40
1.0
 10
211.266003430267
 20
165.8459620417655
 30
0.0
 10
211.4397065064868
 20
165.51345061963
 30
0.0
 10
211.6120087255495
 20
165.1801235197312
 30
0.0
 10
211.7822395072462
 20
164.8459620417655
 30
0.0
  0
SPLINE
  5
24B
330
1F
100
AcDbEntity
  8
0
  6
Continuous
 62
     7
370
    25
100
AcDbSpline
210
0.0
220
0.0
230
1.0
 70
     8
 71
     3
 72
    10
 73
     6
 74
     0
 42
0.00000001
 43
0.00000001
 40
0.0
 40
0.0
 40
0.0
 40
0.0
 40
0.5
 40
0.5
 40
1.0
 40
1.0
 40
1.0
 40
1.0
 10
211.1045181019917
 20
165.8459620417655
 30
0.0
 10
211.0808427075674
 20
165.8459620417655
 30
0.0
 10
211.067751597677
 20
165.823169592436
 30
0.0
 10
211.0676652763887
 20
165.735226888343
 30
0.0
 10
211.0808342103325
 20
165.670369114669
 30
0.0
 10
211.104518101986
 20
165.5959620417656
 30
0.0
  0
SPLINE
  5
24C
330
1F
100
AcDbEntity
  8
0
  6
Continuous
 62
     7
370
    25
100
AcDbSpline
210
0.0
220
0.0
230
1.0
 70
    24
 71
     3
 72
     8
 73
     4
 74
     0
 42
0.00000001
 43
0.00000001
 40
0.0
 40
0.0
 40
0.0
 40
0.0
 40
1.0
 40
1.0
 40
1.0
 40
1.0
 10
211.266003430267
 20
165.8459620417655
 30
0.0
 10
211.2151047133446
 20
165.8459620417655
 30
0.0
 10
211.161170577094
 20
165.8459620417655
 30
0.0
 10
211.1045181019864
 20
165.8459620417655
 30
0.0
  0
SPLINE
  5
24D
330
1F
100
AcDbEntity
  8
0
  6
Continuous
 62
     7
370
    25
100
AcDbSpline
210
0.0
220
0.0
230
1.0
 70
     8
 71
     3
 72
     8
 73
     4
 74
     0
 42
0.00000001
 43
0.00000001
 40
0.0
 40
0.0
 40
0.0
 40
0.0
 40
1.0
 40
1.0
 40
1.0
 40
1.0
 10
223.7822395072462
 20
164.8459620417655
 30
0.0
 10
223.9525171145899
 20
165.1802154380509
 30
0.0
 10
224.1247888632156
 20
165.5134819276198
 30
0.0
 10
224.2984755842253
 20
165.8459620417653
 30
0.0
  0
SPLINE
  5
24E
330
1F
100
AcDbEntity
  8
0
  6
Continuous
 62
     7
370
    25
100
AcDbSpline
210
0.0
220
0.0
230
1.0
 70
    24
 71
     3
 72
     8
 73
     4
 74
     0
 42
0.00000001
 43
0.00000001
 40
0.0
 40
0.0
 40
0.0
 40
0.0
 40
1.0
 40
1.0
 40
1.0
 40
1.0
 10
224.2984755842249
 20
165.8459620417655
 30
0.0
 10
224.3493718174801
 20
165.8459620417655
 30
0.0
 10
224.4033057724439
 20
165.8459620417655
 30
0.0
 10
224.4599609125064
 20
165.8459620417655
 30
0.0
  0
SPLINE
  5
24F
330
1F
100
AcDbEntity
  8
0
  6
Continuous
 62
     7
370
    25
100
AcDbSpline
210
0.0
220
0.0
230
1.0
 70
     8
 71
     3
 72
    10
 73
     6
 74
     0
 42
0.00000001
 43
0.00000001
 40
0.0
 40
0.0
 40
0.0
 40
0.0
 40
0.5
 40
0.5
 40
1.0
 40
1.0
 40
1.0
 40
1.0
 10
224.4599609125064
 20
165.5959620417655
 30
0.0
 10
224.4836363069308
 20
165.6703424191429
 30
0.0
 10
224.4967274168154
 20
165.7346430579286
 30
0.0
 10
224.4968137381037
 20
165.8228587427116
 30
0.0
 10
224.4836448041599
 20
165.8459620417655
 30
0.0
 10
224.4599609125064
 20
165.8459620417655
 30
0.0
  0
SPLINE
  5
250
330
1F
100
AcDbEntity
  8
0
  6
Continuous
 62
     7
370
    25
100
AcDbSpline
210
0.0
220
0.0
230
1.0
 70
     8
 71
     3
 72
    10
 73
     6
 74
     0
 42
0.00000001
 43
0.00000001
 40
0.0
 40
0.0
 40
0.0
 40
0.0
 40
0.5
 40
0.5
 40
1.0
 40
1.0
 40
1.0
 40
1.0
 10
206.9599609125064
 20
165.8459620417655
 30
0.0
 10
206.9836348130623
 20
165.8459620417655
 30
0.0
 10
206.9967273702415
 20
165.8231714701181
 30
0.0
 10
206.9968137842238
 20
165.7352254728193
 30
0.0
 10
206.9836433926251
 20
165.6703646800865
 30
0.0
 10
206.9599609125064
 20
165.5959620417655
 30
0.0
  0
SPLINE
  5
251
330
1F
100
AcDbEntity
  8
0
  6
Continuous
 62
     7
370
    25
100
AcDbSpline
210
0.0
220
0.0
230
1.0
 70
    24
 71
     3
 72
    12
 73
     8
 74
     0
 42
0.00000001
 43
0.00000001
 40
0.0
 40
0.0
 40
0.0
 40
0.0
 40
0.2499999999999999
 40
0.2499999999999999
 40
0.4999999999999998
 40
0.4999999999999998
 40
1.0
 40
1.0
 40
1.0
 40
1.0
 10
206.2822395072462
 20
165.8459620417655
 30
0.0
 10
206.2822395072462
 20
165.8459620417655
 30
0.0
 10
206.2982383122273
 20
165.8459620417655
 30
0.0
 10
206.3600084505417
 20
165.8459620417655
 30
0.0
 10
206.4057505748433
 20
165.8459620417655
 30
0.0
 10
206.5824207221901
 20
165.8459620417655
 30
0.0
 10
206.7526757876704
 20
165.8459620417655
 30
0.0
 10
206.9599609125064
 20
165.8459620417655
 30
0.0
  0
LINE
  5
252
330
1F
100
AcDbEntity
  8
0
  6
Continuous
 62
     7
370
    25
100
AcDbLine
 10
206.2822395072
 20
165.8459620418
 30
0.0
 11
206.2822395072
 21
161.5959620418
 31
0.0
  0
SPLINE
  5
253
330
1F
100
AcDbEntity
  8
0
  6
Continuous
 62
     7
370
    25
100
AcDbSpline
210
0.0
220
0.0
230
1.0
 70
     8
 71
     3
 72
     8
 73
     4
 74
     0
 42
0.00000001
 43
0.00000001
 40
0.0
 40
0.0
 40
0.0
 40
0.0
 40
1.0
 40
1.0
 40
1.0
 40
1.0
 10
224.2984755842254
 20
148.8459620417655
 30
0.0
 10
224.1247725080056
 20
149.178473463901
 30
0.0
 10
223.9524702889429
 20
149.5118005637999
 30
0.0
 10
223.7822395072462
 20
149.8459620417655
 30
0.0
  0
SPLINE
  5
254
330
1F
100
AcDbEntity
  8
0
  6
Continuous
 62
     7
370
    25
100
AcDbSpline
210
0.0
220
0.0
230
1.0
 70
     8
 71
     3
 72
    10
 73
     6
 74
     0
 42
0.00000001
 43
0.00000001
 40
0.0
 40
0.0
 40
0.0
 40
0.0
 40
0.5
 40
0.5
 40
1.0
 40
1.0
 40
1.0
 40
1.0
 10
224.4599609125064
 20
148.8459620417655
 30
0.0
 10
224.4836363069308
 20
148.8459620417655
 30
0.0
 10
224.4967274168154
 20
148.8687544910953
 30
0.0
 10
224.4968137381037
 20
148.9566971951884
 30
0.0
 10
224.4836448041599
 20
149.0215549688622
 30
0.0
 10
224.4599609125064
 20
149.0959620417655
 30
0.0
  0
SPLINE
  5
255
330
1F
100
AcDbEntity
  8
0
  6
Continuous
 62
     7
370
    25
100
AcDbSpline
210
0.0
220
0.0
230
1.0
 70
    24
 71
     3
 72
     8
 73
     4
 74
     0
 42
0.00000001
 43
0.00000001
 40
0.0
 40
0.0
 40
0.0
 40
0.0
 40
1.0
 40
1.0
 40
1.0
 40
1.0
 10
224.2984755842254
 20
148.8459620417655
 30
0.0
 10
224.3493718174805
 20
148.8459620417655
 30
0.0
 10
224.4033057724441
 20
148.8459620417655
 30
0.0
 10
224.4599609125064
 20
148.8459620417655
 30
0.0
  0
SPLINE
  5
256
330
1F
100
AcDbEntity
  8
0
  6
Continuous
 62
     7
370
    25
100
AcDbSpline
210
0.0
220
0.0
230
1.0
 70
     8
 71
     3
 72
     8
 73
     4
 74
     0
 42
0.00000001
 43
0.00000001
 40
0.0
 40
0.0
 40
0.0
 40
0.0
 40
1.0
 40
1.0
 40
1.0
 40
1.0
 10
211.7822395072462
 20
149.8459620417655
 30
0.0
 10
211.6119618999024
 20
149.5117086454801
 30
0.0
 10
211.4396901512767
 20
149.1784421559111
 30
0.0
 10
211.2660034302671
 20
148.8459620417655
 30
0.0
  0
SPLINE
  5
257
330
1F
100
AcDbEntity
  8
0
  6
Continuous
 62
     7
370
    25
100
AcDbSpline
210
0.0
220
0.0
230
1.0
 70
    24
 71
     3
 72
     8
 73
     4
 74
     0
 42
0.00000001
 43
0.00000001
 40
0.0
 40
0.0
 40
0.0
 40
0.0
 40
1.0
 40
1.0
 40
1.0
 40
1.0
 10
211.2660034302671
 20
148.8459620417655
 30
0.0
 10
211.2151047133445
 20
148.8459620417655
 30
0.0
 10
211.1611705770938
 20
148.8459620417655
 30
0.0
 10
211.104518101986
 20
148.8459620417655
 30
0.0
  0
SPLINE
  5
258
330
1F
100
AcDbEntity
  8
0
  6
Continuous
 62
     7
370
    25
100
AcDbSpline
210
0.0
220
0.0
230
1.0
 70
     8
 71
     3
 72
    10
 73
     6
 74
     0
 42
0.00000001
 43
0.00000001
 40
0.0
 40
0.0
 40
0.0
 40
0.0
 40
0.5
 40
0.5
 40
1.0
 40
1.0
 40
1.0
 40
1.0
 10
211.104518101986
 20
149.0959620417655
 30
0.0
 10
211.0808427075616
 20
149.0215816643882
 30
0.0
 10
211.067751597677
 20
148.9572810256024
 30
0.0
 10
211.0676652763887
 20
148.8690653408195
 30
0.0
 10
211.0808342103325
 20
148.8459620417655
 30
0.0
 10
211.104518101986
 20
148.8459620417655
 30
0.0
  0
SPLINE
  5
259
330
1F
100
AcDbEntity
  8
0
  6
Continuous
 62
     7
370
    25
100
AcDbSpline
210
0.0
220
0.0
230
1.0
 70
     8
 71
     3
 72
    10
 73
     6
 74
     0
 42
0.00000001
 43
0.00000001
 40
0.0
 40
0.0
 40
0.0
 40
0.0
 40
0.5
 40
0.5
 40
1.0
 40
1.0
 40
1.0
 40
1.0
 10
206.9599609125064
 20
149.0959620417655
 30
0.0
 10
206.983633152418
 20
149.02159157484
 30
0.0
 10
206.9967271423532
 20
148.9572859785521
 30
0.0
 10
206.9968140098147
 20
148.8690631907463
 30
0.0
 10
206.9836442200553
 20
148.8459620417655
 30
0.0
 10
206.9599609125064
 20
148.8459620417655
 30
0.0
  0
SPLINE
  5
25A
330
1F
100
AcDbEntity
  8
0
  6
Continuous
 62
     7
370
    25
100
AcDbSpline
210
0.0
220
0.0
230
1.0
 70
    24
 71
     3
 72
    12
 73
     8
 74
     0
 42
0.00000001
 43
0.00000001
 40
0.0
 40
0.0
 40
0.0
 40
0.0
 40
0.2500000000000001
 40
0.2500000000000001
 40
0.5000000000000001
 40
0.5000000000000001
 40
1.0
 40
1.0
 40
1.0
 40
1.0
 10
206.2822395072462
 20
148.8459620417655
 30
0.0
 10
206.2822395072462
 20
148.8459620417655
 30
0.0
 10
206.2982383122273
 20
148.8459620417655
 30
0.0
 10
206.3600084505417
 20
148.8459620417655
 30
0.0
 10
206.4057505748433
 20
148.8459620417655
 30
0.0
 10
206.5824207221901
 20
148.8459620417655
 30
0.0
 10
206.7526757876704
 20
148.8459620417655
 30
0.0
 10
206.9599609125064
 20
148.8459620417655
 30
0.0
  0
LINE
  5
25B
330
1F
100
AcDbEntity
  8
0
  6
Continuous
 62
     7
370
    25
100
AcDbLine
 10
206.2822395072
 20
148.8459620418
 30
0.0
 11
206.2822395072
 21
153.0959620418
 31
0.0
  0
LINE
  5
25C
330
1F
100
AcDbEntity
  8
0
  6
Continuous
 62
     7
370
    25
100
AcDbLine
 10
224.4599609125
 20
165.8459620418
 30
0.0
 11
228.9601805347
 21
165.8459620418
 31
0.0
  0
LINE
  5
25D
330
1F
100
AcDbEntity
  8
0
  6
Continuous
 62
     7
370
    25
100
AcDbLine
 10
206.9599609125
 20
165.8459620418
 30
0.0
 11
211.104518102
 21
165.8459620418
 31
0.0
  0
LINE
  5
25E
330
1F
100
AcDbEntity
  8
0
  6
Continuous
 62
     7
370
    25
100
AcDbLine
 10
228.9601805347
 20
148.8459620418
 30
0.0
 11
224.4599609125
 21
148.8459620418
 31
0.0
  0
LINE
  5
25F
330
1F
100
AcDbEntity
  8
0
  6
Continuous
 62
     7
370
    25
100
AcDbLine
 10
211.104518102
 20
148.8459620418
 30
0.0
 11
206.9599609125
 21
148.8459620418
 31
0.0
  0
LINE
  5
260
330
1F
100
AcDbEntity
  8
0
  6
Continuous
 62
     7
370
    25
100
AcDbLine
 10
224.2984755842
 20
165.8459620418
 30
0.0
 11
211.2660034303
 21
165.8459620418
 31
0.0
  0
LINE
  5
261
330
1F
100
AcDbEntity
  8
0
  6
Continuous
 62
     7
370
    25
100
AcDbLine
 10
224.2984755842
 20
148.8459620418
 30
0.0
 11
211.2660034303
 21
148.8459620418
 31
0.0
  0
LINE
  5
262
330
1F
100
AcDbEntity
  8
0
  6
Continuous
 62
     7
370
    25
100
AcDbLine
 10
210.3364353196
 20
157.0959620418
 30
0.0
 11
206.9599609125
 21
157.0959620418
 31
0.0
  0
LINE
  5
263
330
1F
100
AcDbEntity
  8
0
  6
Continuous
 62
     7
370
    25
100
AcDbLine
 10
206.9599609125
 20
157.5959620418
 30
0.0
 11
210.3364353196
 21
157.5959620418
 31
0.0
  0
INSERT
  5
26F
330
1F
100
AcDbEntity
  8
FORMAT
100
AcDbBlockReference
  2
SW_CENTERMARKSYMBOL_1
 10
217.7822395072
 20
157.3459620418
 30
0.0
  0
LINE
  5
270
330
1F
100
AcDbEntity
  8
FORMAT
100
AcDbLine
 10
193.2822395072
 20
161.6259620418
 30
0.0
 11
203.2822395072
 21
161.6259620418
 31
0.0
  0
LINE
  5
271
330
1F
100
AcDbEntity
  8
FORMAT
100
AcDbLine
 10
193.2822395072
 20
153.0659620418
 30
0.0
 11
203.2822395072
 21
153.0659620418
 31
0.0
  0
ENDSEC
  0
SECTION
  2
OBJECTS
  0
DICTIONARY
  5
C
330
0
100
AcDbDictionary
281
     1
  3
ACAD_GROUP
350
D
  3
ACAD_LAYOUT
350
1A
  3
ACAD_MLINESTYLE
350
17
  3
ACAD_PLOTSETTINGS
350
19
  3
ACAD_PLOTSTYLENAME
350
E
  3
ACAD_SCALELIST
350
47
  3
DWGPROPS
350
272
  0
DICTIONARY
  5
D
102
{ACAD_REACTORS
330
C
102
}
330
C
100
AcDbDictionary
281
     1
  0
DICTIONARY
  5
1A
102
{ACAD_REACTORS
330
C
102
}
330
C
100
AcDbDictionary
281
     1
  3
Layout1
350
1E
  3
Layout2
350
26
  3
Model
350
22
  0
DICTIONARY
  5
17
102
{ACAD_REACTORS
330
C
102
}
330
C
100
AcDbDictionary
281
     1
  3
Standard
350
18
  0
DICTIONARY
  5
19
102
{ACAD_REACTORS
330
C
102
}
330
C
100
AcDbDictionary
281
     1
  0
ACDBDICTIONARYWDFLT
  5
E
102
{ACAD_REACTORS
330
C
102
}
330
C
100
AcDbDictionary
281
     1
  3
Normal
350
F
100
AcDbDictionaryWithDefault
340
F
  0
DICTIONARY
  5
47
102
{ACAD_REACTORS
330
C
102
}
330
C
100
AcDbDictionary
281
     1
  3
A0
350
48
  3
A1
350
49
  3
A2
350
4A
  3
A3
350
4B
  3
A4
350
4C
  3
A5
350
4D
  3
A6
350
4E
  3
A7
350
4F
  3
A8
350
50
  3
A9
350
51
  3
B0
350
52
  3
B1
350
53
  3
B2
350
54
  3
B3
350
55
  3
B4
350
56
  3
B5
350
57
  3
B6
350
58
  0
XRECORD
  5
272
102
{ACAD_REACTORS
330
C
102
}
330
C
100
AcDbXrecord
280
     1
  1
DWGPROPS COOKIE
  2

  3

  4

  6

  7

  8
user28
  9

300
=
301
=
302
=
303
=
304
=
305
=
306
=
307
=
308
=
309
=
 40
0.0
 41
2460305.186876273
 42
2460305.186876944
  1

 90
        0
  0
LAYOUT
  5
1E
102
{ACAD_REACTORS
330
1A
102
}
330
1A
100
AcDbPlotSettings
  1

  2
none_device
  4

  6

 40
0.0
 41
0.0
 42
0.0
 43
0.0
 44
0.0
 45
0.0
 46
0.0
 47
0.0
 48
0.0
 49
0.0
140
0.0
141
0.0
142
1.0
143
1.0
 70
   688
 72
     1
 73
     0
 74
     5
  7

 75
    16
147
1.0
148
0.0
149
0.0
100
AcDbLayout
  1
Layout1
 70
     1
 71
     1
 10
0.0
 20
0.0
 11
420.0
 21
297.0
 12
0.0
 22
0.0
 32
0.0
 14
1.0000000000E+20
 24
1.0000000000E+20
 34
1.0000000000E+20
 15
-1.0000000000E+20
 25
-1.0000000000E+20
 35
-1.0000000000E+20
146
0.0
 13
0.0
 23
0.0
 33
0.0
 16
1.0
 26
0.0
 36
0.0
 17
0.0
 27
1.0
 37
0.0
 76
     0
330
1B
  0
LAYOUT
  5
26
102
{ACAD_REACTORS
330
1A
102
}
330
1A
100
AcDbPlotSettings
  1

  2
none_device
  4

  6

 40
0.0
 41
0.0
 42
0.0
 43
0.0
 44
0.0
 45
0.0
 46
0.0
 47
0.0
 48
0.0
 49
0.0
140
0.0
141
0.0
142
1.0
143
1.0
 70
   688
 72
     1
 73
     0
 74
     5
  7

 75
    16
147
1.0
148
0.0
149
0.0
100
AcDbLayout
  1
Layout2
 70
     1
 71
     2
 10
0.0
 20
0.0
 11
0.0
 21
0.0
 12
0.0
 22
0.0
 32
0.0
 14
0.0
 24
0.0
 34
0.0
 15
0.0
 25
0.0
 35
0.0
146
0.0
 13
0.0
 23
0.0
 33
0.0
 16
1.0
 26
0.0
 36
0.0
 17
0.0
 27
1.0
 37
0.0
 76
     0
330
23
  0
LAYOUT
  5
22
102
{ACAD_REACTORS
330
1A
102
}
330
1A
100
AcDbPlotSettings
  1

  2
none_device
  4
Letter_(8.50_x_11.00_Inches)
  6

 40
6.35
 41
6.35
 42
6.35000508
 43
6.35000508
 44
215.9
 45
279.4
 46
0.0
 47
0.0
 48
0.0
 49
0.0
140
0.0
141
0.0
142
1.0
143
1.0
 70
  1712
 72
     1
 73
     0
 74
     0
  7

 75
     0
147
1.0
148
0.0
149
0.0
100
AcDbLayout
  1
Model
 70
     1
 71
     0
 10
0.0
 20
0.0
 11
594.0
 21
420.0
 12
0.0
 22
0.0
 32
0.0
 14
0.0
 24
0.0
 34
0.0
 15
594.0
 25
420.0
 35
0.0
146
0.0
 13
0.0
 23
0.0
 33
0.0
 16
1.0
 26
0.0
 36
0.0
 17
0.0
 27
1.0
 37
0.0
 76
     0
330
1F
331
29
  0
MLINESTYLE
  5
18
102
{ACAD_REACTORS
330
17
102
}
330
17
100
AcDbMlineStyle
  2
Standard
 70
     0
  3

 62
   256
 51
90.0
 52
90.0
 71
     2
 49
0.5
 62
   256
  6
BYLAYER
 49
-0.5
 62
   256
  6
BYLAYER
  0
ACDBPLACEHOLDER
  5
F
102
{ACAD_REACTORS
330
E
102
}
330
E
  0
SCALE
  5
48
102
{ACAD_REACTORS
330
47
102
}
330
47
100
AcDbScale
 70
     0
300
1:1
140
1.0
141
1.0
290
     1
  0
SCALE
  5
49
102
{ACAD_REACTORS
330
47
102
}
330
47
100
AcDbScale
 70
     0
300
1:2
140
1.0
141
2.0
290
     0
  0
SCALE
  5
4A
102
{ACAD_REACTORS
330
47
102
}
330
47
100
AcDbScale
 70
     0
300
1:4
140
1.0
141
4.0
290
     0
  0
SCALE
  5
4B
102
{ACAD_REACTORS
330
47
102
}
330
47
100
AcDbScale
 70
     0
300
1:5
140
1.0
141
5.0
290
     0
  0
SCALE
  5
4C
102
{ACAD_REACTORS
330
47
102
}
330
47
100
AcDbScale
 70
     0
300
1:8
140
1.0
141
8.0
290
     0
  0
SCALE
  5
4D
102
{ACAD_REACTORS
330
47
102
}
330
47
100
AcDbScale
 70
     0
300
1:10
140
1.0
141
10.0
290
     0
  0
SCALE
  5
4E
102
{ACAD_REACTORS
330
47
102
}
330
47
100
AcDbScale
 70
     0
300
1:16
140
1.0
141
16.0
290
     0
  0
SCALE
  5
4F
102
{ACAD_REACTORS
330
47
102
}
330
47
100
AcDbScale
 70
     0
300
1:20
140
1.0
141
20.0
290
     0
  0
SCALE
  5
50
102
{ACAD_REACTORS
330
47
102
}
330
47
100
AcDbScale
 70
     0
300
1:30
140
1.0
141
30.0
290
     0
  0
SCALE
  5
51
102
{ACAD_REACTORS
330
47
102
}
330
47
100
AcDbScale
 70
     0
300
1:40
140
1.0
141
40.0
290
     0
  0
SCALE
  5
52
102
{ACAD_REACTORS
330
47
102
}
330
47
100
AcDbScale
 70
     0
300
1:50
140
1.0
141
50.0
290
     0
  0
SCALE
  5
53
102
{ACAD_REACTORS
330
47
102
}
330
47
100
AcDbScale
 70
     0
300
1:100
140
1.0
141
100.0
290
     0
  0
SCALE
  5
54
102
{ACAD_REACTORS
330
47
102
}
330
47
100
AcDbScale
 70
     0
300
2:1
140
2.0
141
1.0
290
     0
  0
SCALE
  5
55
102
{ACAD_REACTORS
330
47
102
}
330
47
100
AcDbScale
 70
     0
300
4:1
140
4.0
141
1.0
290
     0
  0
SCALE
  5
56
102
{ACAD_REACTORS
330
47
102
}
330
47
100
AcDbScale
 70
     0
300
8:1
140
8.0
141
1.0
290
     0
  0
SCALE
  5
57
102
{ACAD_REACTORS
330
47
102
}
330
47
100
AcDbScale
 70
     0
300
10:1
140
10.0
141
1.0
290
     0
  0
SCALE
  5
58
102
{ACAD_REACTORS
330
47
102
}
330
47
100
AcDbScale
 70
     0
300
100:1
140
100.0
141
1.0
290
     0
  0
ENDSEC
  0
EOF
