  0
SECTION
  2
HEADER
  9
$ACADVER
  1
AC1015
  9
$ACADMAINTVER
 70
     6
  9
$DWGCODEPAGE
  3
DOS932
  9
$INSBASE
 10
0.0
 20
0.0
 30
0.0
  9
$EXTMIN
 10
0.0
 20
0.0
 30
0.0
  9
$EXTMAX
 10
279.4
 20
215.9
 30
0.0
  9
$LIMMIN
 10
0.0
 20
0.0
  9
$LIMMAX
 10
279.4
 20
215.9
  9
$ORTHOMODE
 70
     0
  9
$REGENMODE
 70
     1
  9
$FILLMODE
 70
     1
  9
$QTEXTMODE
 70
     0
  9
$MIRRTEXT
 70
     1
  9
$LTSCALE
 40
1.0
  9
$ATTMODE
 70
     1
  9
$TEXTSIZE
 40
3.5
  9
$TRACEWID
 40
1.0
  9
$TEXTSTYLE
  7
Standard
  9
$CLAYER
  8
0
  9
$CELTYPE
  6
ByLayer
  9
$CECOLOR
 62
   256
  9
$CELTSCALE
 40
1.0
  9
$DISPSILH
 70
     0
  9
$DIMSCALE
 40
1.0
  9
$DIMASZ
 40
3.556
  9
$DIMEXO
 40
1.0
  9
$DIMDLI
 40
3.75
  9
$DIMRND
 40
0.0
  9
$DIMDLE
 40
0.0
  9
$DIMEXE
 40
1.0
  9
$DIMTP
 40
0.0
  9
$DIMTM
 40
0.0
  9
$DIMTXT
 40
3.5
  9
$DIMCEN
 40
2.5
  9
$DIMTSZ
 40
0.0
  9
$DIMTOL
 70
     0
  9
$DIMLIM
 70
     0
  9
$DIMTIH
 70
     1
  9
$DIMTOH
 70
     1
  9
$DIMSE1
 70
     0
  9
$DIMSE2
 70
     0
  9
$DIMTAD
 70
     1
  9
$DIMZIN
 70
     1
  9
$DIMBLK
  1

  9
$DIMASO
 70
     1
  9
$DIMSHO
 70
     1
  9
$DIMPOST
  1

  9
$DIMAPOST
  1

  9
$DIMALT
 70
     0
  9
$DIMALTD
 70
     3
  9
$DIMALTF
 40
0.0393700787
  9
$DIMLFAC
 40
1.0
  9
$DIMTOFL
 70
     1
  9
$DIMTVP
 40
0.0
  9
$DIMTIX
 70
     0
  9
$DIMSOXD
 70
     0
  9
$DIMSAH
 70
     0
  9
$DIMBLK1
  1

  9
$DIMBLK2
  1

  9
$DIMSTYLE
  2
ISO-25
  9
$DIMCLRD
 70
     0
  9
$DIMCLRE
 70
     0
  9
$DIMCLRT
 70
     0
  9
$DIMTFAC
 40
1.0
  9
$DIMGAP
 40
1.524
  9
$DIMJUST
 70
     0
  9
$DIMSD1
 70
     0
  9
$DIMSD2
 70
     0
  9
$DIMTOLJ
 70
     0
  9
$DIMTZIN
 70
     1
  9
$DIMALTZ
 70
     0
  9
$DIMALTTZ
 70
     0
  9
$DIMUPT
 70
     0
  9
$DIMDEC
 70
     2
  9
$DIMTDEC
 70
     2
  9
$DIMALTU
 70
     2
  9
$DIMALTTD
 70
     3
  9
$DIMTXSTY
  7
Standard
  9
$DIMAUNIT
 70
     0
  9
$DIMADEC
 70
     2
  9
$DIMALTRND
 40
0.0
  9
$DIMAZIN
 70
     0
  9
$DIMDSEP
 70
    44
  9
$DIMATFIT
 70
     3
  9
$DIMFRAC
 70
     0
  9
$DIMLDRBLK
  1

  9
$DIMLUNIT
 70
     2
  9
$DIMLWD
 70
    -2
  9
$DIMLWE
 70
    -2
  9
$DIMTMOVE
 70
     0
  9
$LUNITS
 70
     2
  9
$LUPREC
 70
     2
  9
$SKETCHINC
 40
1.0
  9
$FILLETRAD
 40
10.0
  9
$AUNITS
 70
     0
  9
$AUPREC
 70
     2
  9
$MENU
  1
.
  9
$ELEVATION
 40
0.0
  9
$PELEVATION
 40
0.0
  9
$THICKNESS
 40
0.0
  9
$LIMCHECK
 70
     0
  9
$CHAMFERA
 40
0.0
  9
$CHAMFERB
 40
0.0
  9
$CHAMFERC
 40
0.0
  9
$CHAMFERD
 40
0.0
  9
$SKPOLY
 70
     0
  9
$TDCREATE
 40
2459223.461420856
  9
$TDUCREATE
 40
2459223.086420856
  9
$TDUPDATE
 40
2459223.461421933
  9
$TDUUPDATE
 40
2459223.086421933
  9
$TDINDWG
 40
0.0000000116
  9
$TDUSRTIMER
 40
0.0000000116
  9
$USRTIMER
 70
     1
  9
$ANGBASE
 50
0.0
  9
$ANGDIR
 70
     0
  9
$PDMODE
 70
     0
  9
$PDSIZE
 40
-1.0
  9
$PLINEWID
 40
0.0
  9
$SPLFRAME
 70
     0
  9
$SPLINETYPE
 70
     6
  9
$SPLINESEGS
 70
     8
  9
$HANDSEED
  5
47D
  9
$SURFTAB1
 70
     6
  9
$SURFTAB2
 70
     6
  9
$SURFTYPE
 70
     6
  9
$SURFU
 70
     6
  9
$SURFV
 70
     6
  9
$UCSBASE
  2

  9
$UCSNAME
  2

  9
$UCSORG
 10
0.0
 20
0.0
 30
0.0
  9
$UCSXDIR
 10
1.0
 20
0.0
 30
0.0
  9
$UCSYDIR
 10
0.0
 20
1.0
 30
0.0
  9
$UCSORTHOREF
  2

  9
$UCSORTHOVIEW
 70
     0
  9
$UCSORGTOP
 10
0.0
 20
0.0
 30
0.0
  9
$UCSORGBOTTOM
 10
0.0
 20
0.0
 30
0.0
  9
$UCSORGLEFT
 10
0.0
 20
0.0
 30
0.0
  9
$UCSORGRIGHT
 10
0.0
 20
0.0
 30
0.0
  9
$UCSORGFRONT
 10
0.0
 20
0.0
 30
0.0
  9
$UCSORGBACK
 10
0.0
 20
0.0
 30
0.0
  9
$PUCSBASE
  2

  9
$PUCSNAME
  2

  9
$PUCSORG
 10
0.0
 20
0.0
 30
0.0
  9
$PUCSXDIR
 10
1.0
 20
0.0
 30
0.0
  9
$PUCSYDIR
 10
0.0
 20
1.0
 30
0.0
  9
$PUCSORTHOREF
  2

  9
$PUCSORTHOVIEW
 70
     0
  9
$PUCSORGTOP
 10
0.0
 20
0.0
 30
0.0
  9
$PUCSORGBOTTOM
 10
0.0
 20
0.0
 30
0.0
  9
$PUCSORGLEFT
 10
0.0
 20
0.0
 30
0.0
  9
$PUCSORGRIGHT
 10
0.0
 20
0.0
 30
0.0
  9
$PUCSORGFRONT
 10
0.0
 20
0.0
 30
0.0
  9
$PUCSORGBACK
 10
0.0
 20
0.0
 30
0.0
  9
$USERI1
 70
     0
  9
$USERI2
 70
     0
  9
$USERI3
 70
     0
  9
$USERI4
 70
     0
  9
$USERI5
 70
     0
  9
$USERR1
 40
0.0
  9
$USERR2
 40
0.0
  9
$USERR3
 40
0.0
  9
$USERR4
 40
0.0
  9
$USERR5
 40
0.0
  9
$WORLDVIEW
 70
     1
  9
$SHADEDGE
 70
     3
  9
$SHADEDIF
 70
    70
  9
$TILEMODE
 70
     1
  9
$MAXACTVP
 70
    64
  9
$PINSBASE
 10
0.0
 20
0.0
 30
0.0
  9
$PLIMCHECK
 70
     0
  9
$PEXTMIN
 10
1.0000000000E+20
 20
1.0000000000E+20
 30
1.0000000000E+20
  9
$PEXTMAX
 10
-1.0000000000E+20
 20
-1.0000000000E+20
 30
-1.0000000000E+20
  9
$PLIMMIN
 10
0.0
 20
0.0
  9
$PLIMMAX
 10
420.0
 20
297.0
  9
$UNITMODE
 70
     0
  9
$VISRETAIN
 70
     1
  9
$PLINEGEN
 70
     0
  9
$PSLTSCALE
 70
     1
  9
$TREEDEPTH
 70
  3020
  9
$CMLSTYLE
  2
Standard
  9
$CMLJUST
 70
     0
  9
$CMLSCALE
 40
20.0
  9
$PROXYGRAPHICS
 70
     1
  9
$MEASUREMENT
 70
     1
  9
$CELWEIGHT
370
    -1
  9
$ENDCAPS
280
     0
  9
$JOINSTYLE
280
     0
  9
$LWDISPLAY
290
     1
  9
$INSUNITS
 70
     4
  9
$HYPERLINKBASE
  1

  9
$STYLESHEET
  1

  9
$XEDIT
290
     1
  9
$CEPSNTYPE
380
     0
  9
$PSTYLEMODE
290
     1
  9
$FINGERPRINTGUID
  2
{0111EAB2-A029-490A-83E5-E2CCA0E3A002}
  9
$VERSIONGUID
  2
{FAEB1C32-E019-11D5-929B-00C0DF256EC4}
  9
$EXTNAMES
290
     1
  9
$PSVPSCALE
 40
0.0
  9
$OLESTARTUP
290
     0
  0
ENDSEC
  0
SECTION
  2
CLASSES
  0
CLASS
  1
ACDBDICTIONARYWDFLT
  2
AcDbDictionaryWithDefault
  3
ObjectDBX Classes
 90
        0
280
     0
281
     0
  0
CLASS
  1
VISUALSTYLE
  2
AcDbVisualStyle
  3
ObjectDBX Classes
 90
     4095
280
     0
281
     0
  0
CLASS
  1
MATERIAL
  2
AcDbMaterial
  3
ObjectDBX Classes
 90
     1153
280
     0
281
     0
  0
CLASS
  1
SCALE
  2
AcDbScale
  3
ObjectDBX Classes
 90
     1153
280
     0
281
     0
  0
CLASS
  1
TABLESTYLE
  2
AcDbTableStyle
  3
ObjectDBX Classes
 90
     4095
280
     0
281
     0
  0
CLASS
  1
MLEADERSTYLE
  2
AcDbMLeaderStyle
  3
ACDB_MLEADERSTYLE_CLASS
 90
     4095
280
     0
281
     0
  0
CLASS
  1
SUN
  2
AcDbSun
  3
SCENEOE
 90
     1153
280
     0
281
     0
  0
CLASS
  1
ACDBPLACEHOLDER
  2
AcDbPlaceHolder
  3
ObjectDBX Classes
 90
        0
280
     0
281
     0
  0
CLASS
  1
LAYOUT
  2
AcDbLayout
  3
ObjectDBX Classes
 90
        0
280
     0
281
     0
  0
ENDSEC
  0
SECTION
  2
TABLES
  0
TABLE
  2
VPORT
  5
8
330
0
100
AcDbSymbolTable
 70
     1
  0
VPORT
  5
29
330
8
100
AcDbSymbolTableRecord
100
AcDbViewportTableRecord
  2
*Active
 70
     0
 10
0.0
 20
0.0
 11
1.0
 21
1.0
 12
139.7
 22
107.95
 13
0.0
 23
0.0
 14
10.0
 24
10.0
 15
10.0
 25
10.0
 16
0.0
 26
0.0
 36
1.0
 17
0.0
 27
0.0
 37
0.0
 40
215.9
 41
1.2941176471
 42
50.0
 43
0.0
 44
0.0
 50
0.0
 51
0.0
 71
     0
 72
  2000
 73
     1
 74
     3
 75
     0
 76
     0
 77
     0
 78
     0
281
     0
 65
     1
110
0.0
120
0.0
130
0.0
111
1.0
121
0.0
131
0.0
112
0.0
122
1.0
132
0.0
 79
     0
146
0.0
  0
ENDTAB
  0
TABLE
  2
LTYPE
  5
5
330
0
100
AcDbSymbolTable
 70
     6
  0
LTYPE
  5
14
330
5
100
AcDbSymbolTableRecord
100
AcDbLinetypeTableRecord
  2
ByBlock
 70
     0
  3

 72
    65
 73
     0
 40
0.0
  0
LTYPE
  5
15
330
5
100
AcDbSymbolTableRecord
100
AcDbLinetypeTableRecord
  2
ByLayer
 70
     0
  3

 72
    65
 73
     0
 40
0.0
  0
LTYPE
  5
16
330
5
100
AcDbSymbolTableRecord
100
AcDbLinetypeTableRecord
  2
Continuous
 70
     0
  3
Solid line
 72
    65
 73
     0
 40
0.0
  0
LTYPE
  5
6E
330
5
100
AcDbSymbolTableRecord
100
AcDbLinetypeTableRecord
  2
HIDDEN
 70
     0
  3
Hidden __ __ __ __ __ __ __ __ __ __ __ __ __ __
 72
    65
 73
     2
 40
1.905
 49
1.27
 74
     0
 49
-0.635
 74
     0
  0
LTYPE
  5
6F
330
5
100
AcDbSymbolTableRecord
100
AcDbLinetypeTableRecord
  2
PHANTOM
 70
     0
  3
Phantom ______  __  __  ______  __  __  ______
 72
    65
 73
     6
 40
12.7
 49
6.35
 74
     0
 49
-1.27
 74
     0
 49
1.27
 74
     0
 49
-1.27
 74
     0
 49
1.27
 74
     0
 49
-1.27
 74
     0
  0
LTYPE
  5
70
330
5
100
AcDbSymbolTableRecord
100
AcDbLinetypeTableRecord
  2
CENTER
 70
     0
  3
Center ____ _ ____ _ ____ _ ____ _ ____ _ ____
 72
    65
 73
     4
 40
10.16
 49
6.35
 74
     0
 49
-1.27
 74
     0
 49
1.27
 74
     0
 49
-1.27
 74
     0
  0
LTYPE
  5
71
330
5
100
AcDbSymbolTableRecord
100
AcDbLinetypeTableRecord
  2
CENTERX2
 70
     0
  3
Center (2x) ________  __  ________  __  _____
 72
    65
 73
     4
 40
20.32
 49
12.7
 74
     0
 49
-2.54
 74
     0
 49
2.54
 74
     0
 49
-2.54
 74
     0
  0
LTYPE
  5
72
330
5
100
AcDbSymbolTableRecord
100
AcDbLinetypeTableRecord
  2
DOT2
 70
     0
  3
Dot (.5x) ........................................
 72
    65
 73
     2
 40
0.635
 49
0.0
 74
     0
 49
-0.635
 74
     0
  0
ENDTAB
  0
TABLE
  2
LAYER
  5
2
330
0
100
AcDbSymbolTable
 70
     1
  0
LAYER
  5
10
330
2
100
AcDbSymbolTableRecord
100
AcDbLayerTableRecord
  2
0
 70
     0
 62
     7
  6
Continuous
370
    -3
390
F
  0
ENDTAB
  0
TABLE
  2
STYLE
  5
3
330
0
100
AcDbSymbolTable
 70
     2
  0
STYLE
  5
11
330
3
100
AcDbSymbolTableRecord
100
AcDbTextStyleTableRecord
  2
Standard
 70
     0
 40
0.0
 41
1.0
 50
0.0
 71
     0
 42
3.5
  3
txt
  4
bigfont
  0
STYLE
  5
370
330
3
100
AcDbSymbolTableRecord
100
AcDbTextStyleTableRecord
  2
SLDTEXTSTYLE0
 70
     0
 40
0.0
 41
0.75
 50
0.0
 71
     0
 42
3.5
  3
TXT
  4
bigfont
  0
ENDTAB
  0
TABLE
  2
VIEW
  5
6
330
0
100
AcDbSymbolTable
 70
     0
  0
ENDTAB
  0
TABLE
  2
UCS
  5
7
330
0
100
AcDbSymbolTable
 70
     0
  0
ENDTAB
  0
TABLE
  2
APPID
  5
9
330
0
100
AcDbSymbolTable
 70
     1
  0
APPID
  5
12
330
9
100
AcDbSymbolTableRecord
100
AcDbRegAppTableRecord
  2
ACAD
 70
     0
  0
ENDTAB
  0
TABLE
  2
DIMSTYLE
  5
A
330
0
100
AcDbSymbolTable
 70
     1
100
AcDbDimStyleTable
  0
DIMSTYLE
105
27
330
A
100
AcDbSymbolTableRecord
100
AcDbDimStyleTableRecord
  2
ISO-25
 70
     0
 41
2.5
 42
0.625
 43
3.75
 44
1.25
 73
     0
 74
     0
 77
     1
 78
     8
140
2.5
141
2.5
143
0.0393700787
147
0.625
171
     3
172
     1
178
     0
271
     2
272
     2
274
     3
278
    44
283
     0
284
     8
340
11
  0
ENDTAB
  0
TABLE
  2
BLOCK_RECORD
  5
1
330
0
100
AcDbSymbolTable
 70
     1
  0
BLOCK_RECORD
  5
1F
330
1
100
AcDbSymbolTableRecord
100
AcDbBlockTableRecord
  2
*Model_Space
340
22
  0
BLOCK_RECORD
  5
1B
330
1
100
AcDbSymbolTableRecord
100
AcDbBlockTableRecord
  2
*Paper_Space
340
1E
  0
BLOCK_RECORD
  5
23
330
1
100
AcDbSymbolTableRecord
100
AcDbBlockTableRecord
  2
*Paper_Space0
340
26
  0
ENDTAB
  0
ENDSEC
  0
SECTION
  2
BLOCKS
  0
BLOCK
  5
20
330
1F
100
AcDbEntity
  8
0
100
AcDbBlockBegin
  2
*Model_Space
 70
     0
 10
0.0
 20
0.0
 30
0.0
  3
*Model_Space
  1

  0
ENDBLK
  5
21
330
1F
100
AcDbEntity
  8
0
100
AcDbBlockEnd
  0
BLOCK
  5
1C
330
1B
100
AcDbEntity
 67
     1
  8
0
100
AcDbBlockBegin
  2
*Paper_Space
 70
     0
 10
0.0
 20
0.0
 30
0.0
  3
*Paper_Space
  1

  0
ENDBLK
  5
1D
330
1B
100
AcDbEntity
 67
     1
  8
0
100
AcDbBlockEnd
  0
BLOCK
  5
24
330
23
100
AcDbEntity
  8
0
100
AcDbBlockBegin
  2
*Paper_Space0
 70
     0
 10
0.0
 20
0.0
 30
0.0
  3
*Paper_Space0
  1

  0
ENDBLK
  5
25
330
23
100
AcDbEntity
  8
0
100
AcDbBlockEnd
  0
ENDSEC
  0
SECTION
  2
ENTITIES
  0
LINE
  5
73
330
1F
100
AcDbEntity
  8
0
  6
Continuous
 62
     7
370
    25
100
AcDbLine
 10
99.9691544857
 20
53.2666636142
 30
0.0
 11
100.4691545676
 21
53.7666636961
 31
0.0
  0
LINE
  5
74
330
1F
100
AcDbEntity
  8
0
  6
Continuous
 62
     7
370
    25
100
AcDbLine
 10
100.4691545676
 20
72.7666630852
 30
0.0
 11
99.9691544857
 21
73.2666631671
 31
0.0
  0
LINE
  5
75
330
1F
100
AcDbEntity
  8
0
  6
Continuous
 62
     7
370
    25
100
AcDbLine
 10
99.9691544857
 20
73.2666631671
 30
0.0
 11
98.3511212107
 21
73.2666631671
 31
0.0
  0
LINE
  5
76
330
1F
100
AcDbEntity
  8
0
  6
Continuous
 62
     7
370
    25
100
AcDbLine
 10
98.3511212107
 20
53.2666636142
 30
0.0
 11
99.9691544857
 21
53.2666636142
 31
0.0
  0
ARC
  5
77
330
1F
100
AcDbEntity
  8
0
  6
Continuous
 62
     7
370
    25
100
AcDbCircle
 10
99.4691547912
 20
72.2666633907
 30
0.0
 40
1.5
100
AcDbArc
 50
138.1896851042
 51
180.0
  0
ARC
  5
78
330
1F
100
AcDbEntity
  8
0
  6
Continuous
 62
     7
370
    25
100
AcDbCircle
 10
99.4691547912
 20
54.2666633907
 30
0.0
 40
1.5
100
AcDbArc
 50
180.0
 51
221.8103148958
  0
LINE
  5
79
330
1F
100
AcDbEntity
  8
0
  6
Continuous
 62
     7
370
    25
100
AcDbLine
 10
80.71915459
 20
53.2666636142
 30
0.0
 11
82.5871883716
 21
53.2666636142
 31
0.0
  0
LINE
  5
7A
330
1F
100
AcDbEntity
  8
0
  6
Continuous
 62
     7
370
    25
100
AcDbLine
 10
82.5871883716
 20
73.2666631671
 30
0.0
 11
80.71915459
 21
73.2666631671
 31
0.0
  0
LINE
  5
7B
330
1F
100
AcDbEntity
  8
0
  6
Continuous
 62
     7
370
    25
100
AcDbLine
 10
80.71915459
 20
73.2666631671
 30
0.0
 11
80.4691550147
 21
73.0166635918
 31
0.0
  0
LINE
  5
7C
330
1F
100
AcDbEntity
  8
0
  6
Continuous
 62
     7
370
    25
100
AcDbLine
 10
80.4691550147
 20
53.5166631895
 30
0.0
 11
80.71915459
 21
53.2666636142
 31
0.0
  0
ARC
  5
7D
330
1F
100
AcDbEntity
  8
0
  6
Continuous
 62
     7
370
    25
100
AcDbCircle
 10
81.4691547912
 20
54.2666633907
 30
0.0
 40
1.500000000000004
100
AcDbArc
 50
318.1896851042
 51
0.0
  0
ARC
  5
7E
330
1F
100
AcDbEntity
  8
0
  6
Continuous
 62
     7
370
    25
100
AcDbCircle
 10
81.4691547912
 20
72.2666633907
 30
0.0
 40
1.500000000000004
100
AcDbArc
 50
0.0
 51
41.8103148958
  0
LINE
  5
7F
330
1F
100
AcDbEntity
  8
0
  6
Continuous
 62
     7
370
    25
100
AcDbLine
 10
100.4691545676
 20
54.8216007161
 30
0.0
 11
108.3952461194
 21
55.0692915427
 31
0.0
  0
LINE
  5
80
330
1F
100
AcDbEntity
  8
0
  6
Continuous
 62
     7
370
    25
100
AcDbLine
 10
108.3952461194
 20
71.4640352386
 30
0.0
 11
100.4691545676
 21
71.7117260652
 31
0.0
  0
LINE
  5
81
330
1F
100
AcDbEntity
  8
0
  6
Continuous
 62
     7
370
    25
100
AcDbLine
 10
108.3952461194
 20
55.0692915427
 30
0.0
 11
110.4691543441
 21
56.2666631746
 31
0.0
  0
LINE
  5
82
330
1F
100
AcDbEntity
  8
0
  6
Continuous
 62
     7
370
    25
100
AcDbLine
 10
110.4691543441
 20
70.2666636067
 30
0.0
 11
108.3952461194
 21
71.4640352386
 31
0.0
  0
ARC
  5
83
330
1F
100
AcDbEntity
  8
0
  6
Continuous
 62
     7
370
    25
100
AcDbCircle
 10
97.4691547912
 20
72.2666633907
 30
0.0
 40
0.5
100
AcDbArc
 50
270.0
 51
0.0
  0
ARC
  5
84
330
1F
100
AcDbEntity
  8
0
  6
Continuous
 62
     7
370
    25
100
AcDbCircle
 10
83.4691547912
 20
54.2666633907
 30
0.0
 40
0.5
100
AcDbArc
 50
90.0
 51
180.0
  0
ARC
  5
85
330
1F
100
AcDbEntity
  8
0
  6
Continuous
 62
     7
370
    25
100
AcDbCircle
 10
83.4691547912
 20
72.2666633907
 30
0.0
 40
0.5
100
AcDbArc
 50
180.0
 51
270.0
  0
ARC
  5
86
330
1F
100
AcDbEntity
  8
0
  6
Continuous
 62
     7
370
    25
100
AcDbCircle
 10
97.4691547912
 20
54.2666633907
 30
0.0
 40
0.5
100
AcDbArc
 50
0.0
 51
90.0
  0
LINE
  5
87
330
1F
100
AcDbEntity
  8
0
  6
Continuous
 62
     7
370
    25
100
AcDbLine
 10
84.0868337836
 20
71.7666638526
 30
0.0
 11
83.4691545751
 21
71.7666638526
 31
0.0
  0
LINE
  5
88
330
1F
100
AcDbEntity
  8
0
  6
Continuous
 62
     7
370
    25
100
AcDbLine
 10
97.4691550072
 20
71.7666638526
 30
0.0
 11
96.8691546295
 21
71.7666638526
 31
0.0
  0
LINE
  5
89
330
1F
100
AcDbEntity
  8
0
  6
Continuous
 62
     7
370
    25
100
AcDbLine
 10
83.4691545751
 20
54.7666629287
 30
0.0
 11
97.4691550072
 21
54.7666629287
 31
0.0
  0
SPLINE
  5
8A
330
1F
100
AcDbEntity
  8
0
  6
Continuous
 62
     7
370
    25
100
AcDbSpline
210
0.0
220
0.0
230
1.0
 70
     8
 71
     3
 72
    14
 73
    10
 74
     0
 42
0.000000001
 43
0.00000001
 40
0.0
 40
0.0
 40
0.0
 40
0.0
 40
0.0798015173962998
 40
0.2384112633795968
 40
0.4074467509627531
 40
0.5840678704495411
 40
0.7712060161804928
 40
0.9313116937975251
 40
1.0
 40
1.0
 40
1.0
 40
1.0
 10
96.86911970488066
 20
71.77038076099468
 30
0.0
 10
96.8482319812141
 20
71.76969622345541
 30
0.0
 10
96.78582879953356
 20
71.76765113127057
 30
0.0
 10
96.68167539748288
 20
71.79816620904394
 30
0.0
 10
96.56532171935288
 20
71.86152395185097
 30
0.0
 10
96.46465099624483
 20
71.96086352462186
 30
0.0
 10
96.39882258948258
 20
72.08217199013494
 30
0.0
 10
96.36959865043177
 20
72.18897022321197
 30
0.0
 10
96.37160112091496
 20
72.24881265180835
 30
0.0
 10
96.37220230064625
 20
72.26677848723246
 30
0.0
  0
SPLINE
  5
8B
330
1F
100
AcDbEntity
  8
0
  6
Continuous
 62
     7
370
    25
100
AcDbSpline
210
0.0
220
0.0
230
1.0
 70
     8
 71
     3
 72
    14
 73
    10
 74
     0
 42
0.000000001
 43
0.00000001
 40
0.0
 40
0.0
 40
0.0
 40
0.0
 40
0.1330271211849526
 40
0.3130778778851796
 40
0.4972460868228206
 40
0.6777796887357747
 40
0.8344004547400194
 40
0.9733802331997967
 40
1.0
 40
1.0
 40
1.0
 40
1.0
 10
84.56666933483714
 20
72.25711787816597
 30
0.0
 10
84.56501043359371
 20
72.22348743570424
 30
0.0
 10
84.56110622762215
 20
72.14433855640452
 30
0.0
 10
84.51385588976196
 20
72.02554716136154
 30
0.0
 10
84.43235114066464
 20
71.91358926884881
 30
0.0
 10
84.3270457379002
 20
71.83147975794861
 30
0.0
 10
84.2157691473454
 20
71.78538888116569
 30
0.0
 10
84.13529438059635
 20
71.76687498946775
 30
0.0
 10
84.09355254109988
 20
71.76818706236777
 30
0.0
 10
84.0868426311695
 20
71.76839797523333
 30
0.0
  0
LINE
  5
8C
330
1F
100
AcDbEntity
  8
0
  6
Continuous
 62
     7
370
    25
100
AcDbLine
 10
96.3691550132
 20
72.2666630032
 30
0.0
 11
96.3691550132
 21
74.9666630733
 31
0.0
  0
LINE
  5
8D
330
1F
100
AcDbEntity
  8
0
  6
Continuous
 62
     7
370
    25
100
AcDbLine
 10
84.5691545691
 20
74.9666630733
 30
0.0
 11
84.5691545691
 21
72.2553930688
 31
0.0
  0
LINE
  5
8E
330
1F
100
AcDbEntity
  8
0
  6
Continuous
 62
     7
370
    25
100
AcDbLine
 10
82.9691549588
 20
75.1666636648
 30
0.0
 11
83.169154619
 21
74.9666630733
 31
0.0
  0
LINE
  5
8F
330
1F
100
AcDbEntity
  8
0
  6
Continuous
 62
     7
370
    25
100
AcDbLine
 10
97.7691549633
 20
74.9666630733
 30
0.0
 11
97.9691546235
 21
75.1666636648
 31
0.0
  0
LINE
  5
90
330
1F
100
AcDbEntity
  8
0
  6
Continuous
 62
     7
370
    25
100
AcDbLine
 10
82.9691549588
 20
79.9666629615
 30
0.0
 11
82.9691549588
 21
75.1666636648
 31
0.0
  0
LINE
  5
91
330
1F
100
AcDbEntity
  8
0
  6
Continuous
 62
     7
370
    25
100
AcDbLine
 10
97.9691546235
 20
75.1666636648
 30
0.0
 11
97.9691546235
 21
79.9666629615
 31
0.0
  0
LINE
  5
92
330
1F
100
AcDbEntity
  8
0
  6
Continuous
 62
     7
370
    25
100
AcDbLine
 10
81.6691548388
 20
93.466664243
 30
0.0
 11
81.4691551786
 21
93.2666627201
 31
0.0
  0
LINE
  5
93
330
1F
100
AcDbEntity
  8
0
  6
Continuous
 62
     7
370
    25
100
AcDbLine
 10
81.4691551786
 20
80.1666626218
 30
0.0
 11
81.6691548388
 21
79.9666629615
 31
0.0
  0
LINE
  5
94
330
1F
100
AcDbEntity
  8
0
  6
Continuous
 62
     7
370
    25
100
AcDbLine
 10
99.2691547435
 20
79.9666629615
 30
0.0
 11
99.4691544037
 21
80.1666626218
 31
0.0
  0
LINE
  5
95
330
1F
100
AcDbEntity
  8
0
  6
Continuous
 62
     7
370
    25
100
AcDbLine
 10
99.4691544037
 20
93.2666627201
 30
0.0
 11
99.2691547435
 21
93.466664243
 31
0.0
  0
LINE
  5
96
330
1F
100
AcDbEntity
  8
0
  6
Continuous
 62
     7
370
    25
100
AcDbLine
 10
80.4691550147
 20
71.2666637706
 30
0.0
 11
77.4691545229
 21
71.2666637706
 31
0.0
  0
LINE
  5
97
330
1F
100
AcDbEntity
  8
0
  6
Continuous
 62
     7
370
    25
100
AcDbLine
 10
77.4691545229
 20
55.2666630107
 30
0.0
 11
80.4691550147
 21
55.2666630107
 31
0.0
  0
LINE
  5
98
330
1F
100
AcDbEntity
  8
0
  6
Continuous
 62
     7
370
    25
100
AcDbLine
 10
69.4691550743
 20
56.6666634264
 30
0.0
 11
70.6191540521
 21
57.8166633355
 31
0.0
  0
LINE
  5
99
330
1F
100
AcDbEntity
  8
0
  6
Continuous
 62
     7
370
    25
100
AcDbLine
 10
70.6191540521
 20
68.7166634458
 30
0.0
 11
69.4691550743
 21
69.8666633549
 31
0.0
  0
LINE
  5
9A
330
1F
100
AcDbEntity
  8
0
  6
Continuous
 62
     7
370
    25
100
AcDbLine
 10
73.5691555601
 20
69.8666633549
 30
0.0
 11
72.4191547196
 21
68.7166634458
 31
0.0
  0
LINE
  5
9B
330
1F
100
AcDbEntity
  8
0
  6
Continuous
 62
     7
370
    25
100
AcDbLine
 10
72.4191547196
 20
57.8166633355
 30
0.0
 11
73.5691555601
 21
56.6666634264
 31
0.0
  0
LINE
  5
9C
330
1F
100
AcDbEntity
  8
0
  6
Continuous
 62
     7
370
    25
100
AcDbLine
 10
69.4691550743
 20
69.8666633549
 30
0.0
 11
67.2337778669
 21
69.8666633549
 31
0.0
  0
LINE
  5
9D
330
1F
100
AcDbEntity
  8
0
  6
Continuous
 62
     7
370
    25
100
AcDbLine
 10
67.2337778669
 20
56.6666634264
 30
0.0
 11
69.4691550743
 21
56.6666634264
 31
0.0
  0
LINE
  5
9E
330
1F
100
AcDbEntity
  8
0
  6
Continuous
 62
     7
370
    25
100
AcDbLine
 10
77.4691545229
 20
69.8666633549
 30
0.0
 11
73.5691555601
 21
69.8666633549
 31
0.0
  0
LINE
  5
9F
330
1F
100
AcDbEntity
  8
0
  6
Continuous
 62
     7
370
    25
100
AcDbLine
 10
73.5691555601
 20
56.6666634264
 30
0.0
 11
77.4691545229
 21
56.6666634264
 31
0.0
  0
LINE
  5
A0
330
1F
100
AcDbEntity
  8
0
  6
Continuous
 62
     7
370
    25
100
AcDbLine
 10
67.2337778669
 20
69.8666633549
 30
0.0
 11
62.4691539269
 21
68.7666633609
 31
0.0
  0
LINE
  5
A1
330
1F
100
AcDbEntity
  8
0
  6
Continuous
 62
     7
370
    25
100
AcDbLine
 10
62.4691539269
 20
57.7666634205
 30
0.0
 11
67.2337778669
 21
56.6666634264
 31
0.0
  0
LINE
  5
A2
330
1F
100
AcDbEntity
  8
0
  6
Continuous
 62
     7
370
    25
100
AcDbLine
 10
62.4691539269
 20
68.7666633609
 30
0.0
 11
57.769156323
 21
68.7666633609
 31
0.0
  0
LINE
  5
A3
330
1F
100
AcDbEntity
  8
0
  6
Continuous
 62
     7
370
    25
100
AcDbLine
 10
57.769156323
 20
57.7666634205
 30
0.0
 11
62.4691539269
 21
57.7666634205
 31
0.0
  0
ARC
  5
A4
330
1F
100
AcDbEntity
  8
0
  6
Continuous
 62
     7
370
    25
100
AcDbCircle
 10
57.7691547912
 20
58.0666633907
 30
0.0
 40
0.3000000000000043
100
AcDbArc
 50
180.0
 51
270.0
  0
ARC
  5
A5
330
1F
100
AcDbEntity
  8
0
  6
Continuous
 62
     7
370
    25
100
AcDbCircle
 10
57.7691547912
 20
68.4666633907
 30
0.0
 40
0.3000000000000114
100
AcDbArc
 50
90.0
 51
180.0
  0
LINE
  5
A6
330
1F
100
AcDbEntity
  8
0
  6
Continuous
 62
     7
370
    25
100
AcDbLine
 10
72.4191547196
 20
68.7166634458
 30
0.0
 11
70.6191540521
 21
68.7166634458
 31
0.0
  0
LINE
  5
A7
330
1F
100
AcDbEntity
  8
0
  6
Continuous
 62
     7
370
    25
100
AcDbLine
 10
70.6191540521
 20
57.8166633355
 30
0.0
 11
72.4191547196
 21
57.8166633355
 31
0.0
  0
LINE
  5
A8
330
1F
100
AcDbEntity
  8
0
  6
Continuous
 62
     7
370
    25
100
AcDbLine
 10
99.9691544857
 20
53.2666636142
 30
0.0
 11
99.9691544857
 21
73.2666631671
 31
0.0
  0
LINE
  5
A9
330
1F
100
AcDbEntity
  8
0
  6
Continuous
 62
     7
370
    25
100
AcDbLine
 10
100.4691545676
 20
72.7666630852
 30
0.0
 11
100.4691545676
 21
53.7666636961
 31
0.0
  0
LINE
  5
AA
330
1F
100
AcDbEntity
  8
0
  6
Continuous
 62
     7
370
    25
100
AcDbLine
 10
98.3511212107
 20
53.2666636142
 30
0.0
 11
98.3511212107
 21
73.2666631671
 31
0.0
  0
SPLINE
  5
AB
330
1F
100
AcDbEntity
  8
0
  6
Continuous
 62
     7
370
    25
100
AcDbSpline
210
0.0
220
0.0
230
1.0
 70
     8
 71
     3
 72
     8
 73
     4
 74
     0
 42
0.000000001
 43
0.00000001
 40
0.0
 40
0.0
 40
0.0
 40
0.0
 40
1.0
 40
1.0
 40
1.0
 40
1.0
 10
98.06635591580873
 20
57.8669735391675
 30
0.0
 10
97.99851949823265
 20
57.83561059815671
 30
0.0
 10
97.96915479115479
 20
57.80214243750716
 30
0.0
 10
97.96915479115479
 20
57.7666633906634
 30
0.0
  0
SPLINE
  5
AC
330
1F
100
AcDbEntity
  8
0
  6
Continuous
 62
     7
370
    25
100
AcDbSpline
210
0.0
220
0.0
230
1.0
 70
     8
 71
     3
 72
    12
 73
     8
 74
     0
 42
0.000000001
 43
0.00000001
 40
0.0
 40
0.0
 40
0.0
 40
0.0
 40
0.5000000000000001
 40
0.5000000000000001
 40
0.75
 40
0.75
 40
1.0
 40
1.0
 40
1.0
 40
1.0
 10
98.06635591580873
 20
57.8669735391675
 30
0.0
 10
98.13422567581851
 20
57.8983518954496
 30
0.0
 10
98.21026022707225
 20
58.03206041594814
 30
0.0
 10
98.25690482544925
 20
58.31008652561393
 30
0.0
 10
98.2613438219719
 20
58.41693270961788
 30
0.0
 10
98.24561320817907
 20
58.64381418367363
 30
0.0
 10
98.22573277823669
 20
58.76398315597825
 30
0.0
 10
98.19824085825684
 20
58.88543280078849
 30
0.0
  0
SPLINE
  5
AD
330
1F
100
AcDbEntity
  8
0
  6
Continuous
 62
     7
370
    25
100
AcDbSpline
210
0.0
220
0.0
230
1.0
 70
     8
 71
     3
 72
    12
 73
     8
 74
     0
 42
0.000000001
 43
0.00000001
 40
0.0
 40
0.0
 40
0.0
 40
0.0
 40
0.5
 40
0.5
 40
0.75
 40
0.75
 40
1.0
 40
1.0
 40
1.0
 40
1.0
 10
97.96915479115479
 20
63.2666633906634
 30
0.0
 10
97.96915479115479
 20
62.53270636850618
 30
0.0
 10
97.96459739615557
 20
61.79972792414338
 30
0.0
 10
97.99178106053485
 20
60.70290381119697
 30
0.0
 10
98.00723073145204
 20
60.33775622262653
 30
0.0
 10
98.07009433298389
 20
59.60896820876248
 30
0.0
 10
98.1171242561522
 20
59.24377745336416
 30
0.0
 10
98.19824085825684
 20
58.88543280078849
 30
0.0
  0
SPLINE
  5
AE
330
1F
100
AcDbEntity
  8
0
  6
Continuous
 62
     7
370
    25
100
AcDbSpline
210
0.0
220
0.0
230
1.0
 70
     8
 71
     3
 72
    12
 73
     8
 74
     0
 42
0.000000001
 43
0.00000001
 40
0.0
 40
0.0
 40
0.0
 40
0.0
 40
0.25
 40
0.25
 40
0.5
 40
0.5
 40
1.0
 40
1.0
 40
1.0
 40
1.0
 10
98.19824085825684
 20
67.6478939805383
 30
0.0
 10
98.1171242561522
 20
67.28954932796262
 30
0.0
 10
98.07009433298389
 20
66.9243585725643
 30
0.0
 10
98.00723073145204
 20
66.19557055870027
 30
0.0
 10
97.99178106053485
 20
65.83042297012982
 30
0.0
 10
97.96459739615557
 20
64.73359885718341
 30
0.0
 10
97.96915479115479
 20
64.00062041282061
 30
0.0
 10
97.96915479115479
 20
63.26666339066339
 30
0.0
  0
SPLINE
  5
AF
330
1F
100
AcDbEntity
  8
0
  6
Continuous
 62
     7
370
    25
100
AcDbSpline
210
0.0
220
0.0
230
1.0
 70
     8
 71
     3
 72
    14
 73
    10
 74
     0
 42
0.000000001
 43
0.00000001
 40
0.0
 40
0.0
 40
0.0
 40
0.0
 40
0.25
 40
0.25
 40
0.5
 40
0.5
 40
0.75
 40
0.75
 40
1.0
 40
1.0
 40
1.0
 40
1.0
 10
98.19824085825684
 20
67.6478939805383
 30
0.0
 10
98.22576184600192
 20
67.76947203652402
 30
0.0
 10
98.24568176783832
 20
67.88999677354913
 30
0.0
 10
98.26134880965638
 20
68.11697303265726
 30
0.0
 10
98.25685697784407
 20
68.22394301022341
 30
0.0
 10
98.22560063256049
 20
68.40940856200314
 30
0.0
 10
98.19922804917871
 20
68.48829382312198
 30
0.0
 10
98.13639149803441
 20
68.60893161429507
 30
0.0
 10
98.10035191917433
 20
68.65063580473768
 30
0.0
 10
98.06635591580871
 20
68.66635324215929
 30
0.0
  0
SPLINE
  5
B0
330
1F
100
AcDbEntity
  8
0
  6
Continuous
 62
     7
370
    25
100
AcDbSpline
210
0.0
220
0.0
230
1.0
 70
     8
 71
     3
 72
     8
 73
     4
 74
     0
 42
0.000000001
 43
0.00000001
 40
0.0
 40
0.0
 40
0.0
 40
0.0
 40
1.0
 40
1.0
 40
1.0
 40
1.0
 10
97.96915479115479
 20
68.7666633906634
 30
0.0
 10
97.96915479115479
 20
68.73118434381962
 30
0.0
 10
97.99851949823265
 20
68.69771618317007
 30
0.0
 10
98.06635591580873
 20
68.66635324215929
 30
0.0
  0
LINE
  5
B1
330
1F
100
AcDbEntity
  8
0
  6
Continuous
 62
     7
370
    25
100
AcDbLine
 10
97.9691546235
 20
68.7666633609
 30
0.0
 11
97.9691546235
 21
72.2666630032
 31
0.0
  0
LINE
  5
B2
330
1F
100
AcDbEntity
  8
0
  6
Continuous
 62
     7
370
    25
100
AcDbLine
 10
97.9691546235
 20
54.2666637781
 30
0.0
 11
97.9691546235
 21
57.7666634205
 31
0.0
  0
LINE
  5
B3
330
1F
100
AcDbEntity
  8
0
  6
Continuous
 62
     7
370
    25
100
AcDbLine
 10
82.5871883716
 20
63.2666633907
 30
0.0
 11
82.5871883716
 21
53.2666636142
 31
0.0
  0
LINE
  5
B4
330
1F
100
AcDbEntity
  8
0
  6
Continuous
 62
     7
370
    25
100
AcDbLine
 10
82.5871883716
 20
73.2666631671
 30
0.0
 11
82.5871883716
 21
63.2666633907
 31
0.0
  0
LINE
  5
B5
330
1F
100
AcDbEntity
  8
0
  6
Continuous
 62
     7
370
    25
100
AcDbLine
 10
80.71915459
 20
63.2666633907
 30
0.0
 11
80.71915459
 21
53.2666636142
 31
0.0
  0
LINE
  5
B6
330
1F
100
AcDbEntity
  8
0
  6
Continuous
 62
     7
370
    25
100
AcDbLine
 10
80.71915459
 20
73.2666631671
 30
0.0
 11
80.71915459
 21
63.2666633907
 31
0.0
  0
LINE
  5
B7
330
1F
100
AcDbEntity
  8
0
  6
Continuous
 62
     7
370
    25
100
AcDbLine
 10
80.4691550147
 20
63.2666633907
 30
0.0
 11
80.4691550147
 21
73.0166635918
 31
0.0
  0
LINE
  5
B8
330
1F
100
AcDbEntity
  8
0
  6
Continuous
 62
     7
370
    25
100
AcDbLine
 10
80.4691550147
 20
53.5166631895
 30
0.0
 11
80.4691550147
 21
63.2666633907
 31
0.0
  0
LINE
  5
B9
330
1F
100
AcDbEntity
  8
0
  6
Continuous
 62
     7
370
    25
100
AcDbLine
 10
82.9691549588
 20
72.2666630032
 30
0.0
 11
82.9691549588
 21
68.7666633609
 31
0.0
  0
SPLINE
  5
BA
330
1F
100
AcDbEntity
  8
0
  6
Continuous
 62
     7
370
    25
100
AcDbSpline
210
0.0
220
0.0
230
1.0
 70
     8
 71
     3
 72
     8
 73
     4
 74
     0
 42
0.000000001
 43
0.00000001
 40
0.0
 40
0.0
 40
0.0
 40
0.0
 40
1.0
 40
1.0
 40
1.0
 40
1.0
 10
82.87195366650089
 20
68.66635324215929
 30
0.0
 10
82.93979008407693
 20
68.69771618317007
 30
0.0
 10
82.96915479115479
 20
68.73118434381962
 30
0.0
 10
82.96915479115479
 20
68.7666633906634
 30
0.0
  0
SPLINE
  5
BB
330
1F
100
AcDbEntity
  8
0
  6
Continuous
 62
     7
370
    25
100
AcDbSpline
210
0.0
220
0.0
230
1.0
 70
     8
 71
     3
 72
    12
 73
     8
 74
     0
 42
0.000000001
 43
0.00000001
 40
0.0
 40
0.0
 40
0.0
 40
0.0
 40
0.4999999999999992
 40
0.4999999999999992
 40
0.7499999999999996
 40
0.7499999999999996
 40
1.0
 40
1.0
 40
1.0
 40
1.0
 10
82.87195366650089
 20
68.66635324215929
 30
0.0
 10
82.80408390649107
 20
68.6349748858772
 30
0.0
 10
82.72804935523733
 20
68.50126636537865
 30
0.0
 10
82.68140475686033
 20
68.22324025571285
 30
0.0
 10
82.67696576033768
 20
68.1163940717089
 30
0.0
 10
82.69269637413053
 20
67.88951259765317
 30
0.0
 10
82.7125768040729
 20
67.76934362534854
 30
0.0
 10
82.74006872405276
 20
67.6478939805383
 30
0.0
  0
SPLINE
  5
BC
330
1F
100
AcDbEntity
  8
0
  6
Continuous
 62
     7
370
    25
100
AcDbSpline
210
0.0
220
0.0
230
1.0
 70
     8
 71
     3
 72
    12
 73
     8
 74
     0
 42
0.000000001
 43
0.00000001
 40
0.0
 40
0.0
 40
0.0
 40
0.0
 40
0.4999999999999998
 40
0.4999999999999998
 40
0.7499999999999999
 40
0.7499999999999999
 40
1.0
 40
1.0
 40
1.0
 40
1.0
 10
82.96915479115479
 20
63.26666339066337
 30
0.0
 10
82.96915479115479
 20
64.0006204128206
 30
0.0
 10
82.97371218615403
 20
64.73359885718341
 30
0.0
 10
82.94652852177475
 20
65.83042297012982
 30
0.0
 10
82.93107885085756
 20
66.19557055870025
 30
0.0
 10
82.86821524932571
 20
66.9243585725643
 30
0.0
 10
82.8211853261574
 20
67.28954932796262
 30
0.0
 10
82.74006872405276
 20
67.6478939805383
 30
0.0
  0
SPLINE
  5
BD
330
1F
100
AcDbEntity
  8
0
  6
Continuous
 62
     7
370
    25
100
AcDbSpline
210
0.0
220
0.0
230
1.0
 70
     8
 71
     3
 72
    12
 73
     8
 74
     0
 42
0.000000001
 43
0.00000001
 40
0.0
 40
0.0
 40
0.0
 40
0.0
 40
0.2500000000000001
 40
0.2500000000000001
 40
0.5000000000000002
 40
0.5000000000000002
 40
1.0
 40
1.0
 40
1.0
 40
1.0
 10
82.74006872405276
 20
58.88543280078849
 30
0.0
 10
82.8211853261574
 20
59.24377745336416
 30
0.0
 10
82.86821524932571
 20
59.60896820876248
 30
0.0
 10
82.93107885085756
 20
60.33775622262653
 30
0.0
 10
82.94652852177475
 20
60.70290381119697
 30
0.0
 10
82.97371218615403
 20
61.79972792414338
 30
0.0
 10
82.96915479115479
 20
62.53270636850618
 30
0.0
 10
82.96915479115479
 20
63.26666339066339
 30
0.0
  0
SPLINE
  5
BE
330
1F
100
AcDbEntity
  8
0
  6
Continuous
 62
     7
370
    25
100
AcDbSpline
210
0.0
220
0.0
230
1.0
 70
     8
 71
     3
 72
    14
 73
    10
 74
     0
 42
0.000000001
 43
0.00000001
 40
0.0
 40
0.0
 40
0.0
 40
0.0
 40
0.25
 40
0.25
 40
0.5
 40
0.5
 40
0.75
 40
0.75
 40
1.0
 40
1.0
 40
1.0
 40
1.0
 10
82.74006872405276
 20
58.88543280078849
 30
0.0
 10
82.71254773630768
 20
58.76385474480277
 30
0.0
 10
82.69262781447128
 20
58.64333000777765
 30
0.0
 10
82.67696077265322
 20
58.41635374866954
 30
0.0
 10
82.68145260446553
 20
58.30938377110337
 30
0.0
 10
82.71270894974911
 20
58.12391821932364
 30
0.0
 10
82.73908153313089
 20
58.04503295820481
 30
0.0
 10
82.80191808427517
 20
57.92439516703171
 30
0.0
 10
82.83795766313527
 20
57.8826909765891
 30
0.0
 10
82.87195366650089
 20
57.8669735391675
 30
0.0
  0
SPLINE
  5
BF
330
1F
100
AcDbEntity
  8
0
  6
Continuous
 62
     7
370
    25
100
AcDbSpline
210
0.0
220
0.0
230
1.0
 70
     8
 71
     3
 72
     8
 73
     4
 74
     0
 42
0.000000001
 43
0.00000001
 40
0.0
 40
0.0
 40
0.0
 40
0.0
 40
1.0
 40
1.0
 40
1.0
 40
1.0
 10
82.96915479115479
 20
57.7666633906634
 30
0.0
 10
82.96915479115479
 20
57.80214243750716
 30
0.0
 10
82.93979008407693
 20
57.83561059815671
 30
0.0
 10
82.87195366650089
 20
57.8669735391675
 30
0.0
  0
LINE
  5
C0
330
1F
100
AcDbEntity
  8
0
  6
Continuous
 62
     7
370
    25
100
AcDbLine
 10
82.9691549588
 20
57.7666634205
 30
0.0
 11
82.9691549588
 21
54.2666637781
 31
0.0
  0
SPLINE
  5
C1
330
1F
100
AcDbEntity
  8
0
  6
Continuous
 62
     7
370
    25
100
AcDbSpline
210
0.0
220
0.0
230
1.0
 70
     8
 71
     3
 72
    14
 73
    10
 74
     0
 42
0.000000001
 43
0.00000001
 40
0.0
 40
0.0
 40
0.0
 40
0.0
 40
0.2500000000000001
 40
0.2500000000000001
 40
0.5000000000000001
 40
0.5000000000000001
 40
0.7500000000000001
 40
0.7500000000000001
 40
1.0
 40
1.0
 40
1.0
 40
1.0
 10
83.46915479115479
 20
63.26666339066339
 30
0.0
 10
83.46915479115479
 20
62.89014667857643
 30
0.0
 10
83.46956405287443
 20
62.51361062094746
 30
0.0
 10
83.46625270476855
 20
61.76073372209887
 30
0.0
 10
83.4624892193039
 20
61.38439490758353
 30
0.0
 10
83.43671596352418
 20
60.63257976886838
 30
0.0
 10
83.41479786884568
 20
60.25709911121938
 30
0.0
 10
83.3295802056604
 20
59.5080938719507
 30
0.0
 10
83.26626721950952
 20
59.13248595650924
 30
0.0
 10
83.16370670168541
 20
58.7666633906634
 30
0.0
  0
LWPOLYLINE
  5
C2
330
1F
100
AcDbEntity
  8
0
  6
Continuous
 62
     7
370
    25
100
AcDbPolyline
 90
        9
 70
   128
 43
0.0
 10
83.1637068476
 20
58.7666635844
 10
83.0991638649
 20
58.7847582507
 10
83.0357859667
 20
58.8025269541
 10
82.9747177485
 20
58.819647457
 10
82.9170614306
 20
58.8358119572
 10
82.8638586972
 20
58.8507275539
 10
82.8160692763
 20
58.8641255605
 10
82.7745560381
 20
58.8757642987
 10
82.7400686976
 20
58.885432824
  0
LINE
  5
C3
330
1F
100
AcDbEntity
  8
0
  6
Continuous
 62
     7
370
    25
100
AcDbLine
 10
83.4691545751
 20
63.2666633907
 30
0.0
 11
82.9691549588
 21
63.2666633907
 31
0.0
  0
LWPOLYLINE
  5
C4
330
1F
100
AcDbEntity
  8
0
  6
Continuous
 62
     7
370
    25
100
AcDbPolyline
 90
        9
 70
   128
 43
0.0
 10
98.1982408848
 20
58.885432824
 10
98.1637535442
 20
58.8757642987
 10
98.1222403061
 20
58.8641255605
 10
98.0744508851
 20
58.8507275539
 10
98.0212481517
 20
58.8358119572
 10
97.9635918338
 20
58.819647457
 10
97.9025236156
 20
58.8025269541
 10
97.8391457174
 20
58.7847582507
 10
97.7746027347
 20
58.7666635844
  0
SPLINE
  5
C5
330
1F
100
AcDbEntity
  8
0
  6
Continuous
 62
     7
370
    25
100
AcDbSpline
210
0.0
220
0.0
230
1.0
 70
     8
 71
     3
 72
    14
 73
    10
 74
     0
 42
0.000000001
 43
0.00000001
 40
0.0
 40
0.0
 40
0.0
 40
0.0
 40
0.2500000000000002
 40
0.2500000000000002
 40
0.5000000000000003
 40
0.5000000000000003
 40
0.7500000000000002
 40
0.7500000000000002
 40
1.0
 40
1.0
 40
1.0
 40
1.0
 10
97.77460288062417
 20
58.7666633906634
 30
0.0
 10
97.67204236280008
 20
59.13248595650924
 30
0.0
 10
97.6087293766492
 20
59.50809387195071
 30
0.0
 10
97.52351171346392
 20
60.25709911121938
 30
0.0
 10
97.5015936187854
 20
60.63257976886839
 30
0.0
 10
97.4758203630057
 20
61.38439490758353
 30
0.0
 10
97.47205687754104
 20
61.76073372209888
 30
0.0
 10
97.46874552943515
 20
62.51361062094746
 30
0.0
 10
97.46915479115479
 20
62.89014667857643
 30
0.0
 10
97.46915479115479
 20
63.2666633906634
 30
0.0
  0
LINE
  5
C6
330
1F
100
AcDbEntity
  8
0
  6
Continuous
 62
     7
370
    25
100
AcDbLine
 10
97.9691546235
 20
63.2666633907
 30
0.0
 11
97.4691550072
 21
63.2666633907
 31
0.0
  0
SPLINE
  5
C7
330
1F
100
AcDbEntity
  8
0
  6
Continuous
 62
     7
370
    25
100
AcDbSpline
210
0.0
220
0.0
230
1.0
 70
     8
 71
     3
 72
    14
 73
    10
 74
     0
 42
0.000000001
 43
0.00000001
 40
0.0
 40
0.0
 40
0.0
 40
0.0
 40
0.2499999999999999
 40
0.2499999999999999
 40
0.4999999999999999
 40
0.4999999999999999
 40
0.7499999999999999
 40
0.7499999999999999
 40
1.0
 40
1.0
 40
1.0
 40
1.0
 10
97.46915479115479
 20
63.26666339066339
 30
0.0
 10
97.46915479115479
 20
63.64318010275036
 30
0.0
 10
97.46874552943514
 20
64.01971616037933
 30
0.0
 10
97.47205687754104
 20
64.7725930592279
 30
0.0
 10
97.4758203630057
 20
65.14893187374325
 30
0.0
 10
97.5015936187854
 20
65.9007470124584
 30
0.0
 10
97.52351171346392
 20
66.2762276701074
 30
0.0
 10
97.6087293766492
 20
67.02523290937609
 30
0.0
 10
97.67204236280008
 20
67.40084082481754
 30
0.0
 10
97.77460288062417
 20
67.7666633906634
 30
0.0
  0
LWPOLYLINE
  5
C8
330
1F
100
AcDbEntity
  8
0
  6
Continuous
 62
     7
370
    25
100
AcDbPolyline
 90
        9
 70
   128
 43
0.0
 10
98.1982408848
 20
67.6478939573
 10
98.1637535442
 20
67.6575624826
 10
98.1222403061
 20
67.6692012208
 10
98.0744508851
 20
67.6825992274
 10
98.0212481517
 20
67.6975148241
 10
97.9635918338
 20
67.7136793244
 10
97.9025236156
 20
67.7307998272
 10
97.8391457174
 20
67.7485685306
 10
97.7746027347
 20
67.7666631969
  0
SPLINE
  5
C9
330
1F
100
AcDbEntity
  8
0
  6
Continuous
 62
     7
370
    25
100
AcDbSpline
210
0.0
220
0.0
230
1.0
 70
     8
 71
     3
 72
    14
 73
    10
 74
     0
 42
0.000000001
 43
0.00000001
 40
0.0
 40
0.0
 40
0.0
 40
0.0
 40
0.2500000000000001
 40
0.2500000000000001
 40
0.5000000000000001
 40
0.5000000000000001
 40
0.75
 40
0.75
 40
1.0
 40
1.0
 40
1.0
 40
1.0
 10
83.16370670168541
 20
67.7666633906634
 30
0.0
 10
83.26626721950952
 20
67.40084082481754
 30
0.0
 10
83.3295802056604
 20
67.02523290937607
 30
0.0
 10
83.41479786884568
 20
66.2762276701074
 30
0.0
 10
83.43671596352418
 20
65.9007470124584
 30
0.0
 10
83.4624892193039
 20
65.14893187374324
 30
0.0
 10
83.46625270476855
 20
64.77259305922789
 30
0.0
 10
83.46956405287445
 20
64.01971616037932
 30
0.0
 10
83.46915479115479
 20
63.64318010275036
 30
0.0
 10
83.46915479115479
 20
63.26666339066337
 30
0.0
  0
LWPOLYLINE
  5
CA
330
1F
100
AcDbEntity
  8
0
  6
Continuous
 62
     7
370
    25
100
AcDbPolyline
 90
        9
 70
   128
 43
0.0
 10
83.1637068476
 20
67.7666631969
 10
83.0991638649
 20
67.7485685306
 10
83.0357859667
 20
67.7307998272
 10
82.9747177485
 20
67.7136793244
 10
82.9170614306
 20
67.6975148241
 10
82.8638586972
 20
67.6825992274
 10
82.8160692763
 20
67.6692012208
 10
82.7745560381
 20
67.6575624826
 10
82.7400686976
 20
67.6478939573
  0
SPLINE
  5
CB
330
1F
100
AcDbEntity
  8
0
  6
Continuous
 62
     7
370
    25
100
AcDbSpline
210
0.0
220
0.0
230
1.0
 70
     8
 71
     3
 72
    14
 73
    10
 74
     0
 42
0.000000001
 43
0.00000001
 40
0.0
 40
0.0
 40
0.0
 40
0.0
 40
0.25
 40
0.25
 40
0.5
 40
0.5
 40
0.75
 40
0.75
 40
1.0
 40
1.0
 40
1.0
 40
1.0
 10
83.33955329161623
 20
58.2666633906634
 30
0.0
 10
83.30107780799464
 20
58.2666633906634
 30
0.0
 10
83.25998888652462
 20
58.27744996164661
 30
0.0
 10
83.18070603908406
 20
58.32038174871176
 30
0.0
 10
83.1434231379736
 20
58.35179925701664
 30
0.0
 10
83.09061737866183
 20
58.44311410259287
 30
0.0
 10
83.07864811856818
 20
58.50434458535712
 30
0.0
 10
83.09864990694035
 20
58.63520794601285
 30
0.0
 10
83.12810636249266
 20
58.70317206035043
 30
0.0
 10
83.16370670168541
 20
58.7666633906634
 30
0.0
  0
ARC
  5
CC
330
1F
100
AcDbEntity
  8
0
  6
Continuous
 62
     7
370
    25
100
AcDbCircle
 10
83.3481020353
 20
57.7832936675
 30
0.0
 40
0.4834454273380953
100
AcDbArc
 50
91.0132315312
 51
170.0324555796
  0
SPLINE
  5
CD
330
1F
100
AcDbEntity
  8
0
  6
Continuous
 62
     7
370
    25
100
AcDbSpline
210
0.0
220
0.0
230
1.0
 70
     8
 71
     3
 72
    14
 73
    10
 74
     0
 42
0.000000001
 43
0.00000001
 40
0.0
 40
0.0
 40
0.0
 40
0.0
 40
0.25
 40
0.25
 40
0.5
 40
0.5
 40
0.75
 40
0.75
 40
1.0
 40
1.0
 40
1.0
 40
1.0
 10
97.59875629069337
 20
68.2666633906634
 30
0.0
 10
97.63723177431496
 20
68.2666633906634
 30
0.0
 10
97.67832069578498
 20
68.25587681968018
 30
0.0
 10
97.75760354322553
 20
68.21294503261502
 30
0.0
 10
97.794886444336
 20
68.18152752431014
 30
0.0
 10
97.84769220364777
 20
68.09021267873393
 30
0.0
 10
97.85966146374139
 20
68.02898219596968
 30
0.0
 10
97.83965967536925
 20
67.89811883531395
 30
0.0
 10
97.81020321981694
 20
67.83015472097637
 30
0.0
 10
97.77460288062417
 20
67.7666633906634
 30
0.0
  0
ARC
  5
CE
330
1F
100
AcDbEntity
  8
0
  6
Continuous
 62
     7
370
    25
100
AcDbCircle
 10
97.590207547
 20
68.7500331138
 30
0.0
 40
0.4834454273380953
100
AcDbArc
 50
271.0132315313
 51
350.0324555796
  0
SPLINE
  5
CF
330
1F
100
AcDbEntity
  8
0
  6
Continuous
 62
     7
370
    25
100
AcDbSpline
210
0.0
220
0.0
230
1.0
 70
     8
 71
     3
 72
    16
 73
    12
 74
     0
 42
0.000000001
 43
0.00000001
 40
0.0
 40
0.0
 40
0.0
 40
0.0
 40
0.2500000000000049
 40
0.2500000000000049
 40
0.3750000000000051
 40
0.3750000000000051
 40
0.5000000000000052
 40
0.5000000000000052
 40
0.7500000000000026
 40
0.7500000000000026
 40
1.0
 40
1.0
 40
1.0
 40
1.0
 10
83.16370670168541
 20
67.7666633906634
 30
0.0
 10
83.12815277223676
 20
67.83007195164159
 30
0.0
 10
83.09888063100807
 20
67.8973392519624
 30
0.0
 10
83.08366808078719
 20
67.99577856310475
 30
0.0
 10
83.08360741261366
 20
68.02825396946004
 30
0.0
 10
83.09381799709098
 20
68.08687917658624
 30
0.0
 10
83.1036013266162
 20
68.11250198813921
 30
0.0
 10
83.14276587514816
 20
68.18071083183466
 30
0.0
 10
83.18063894842142
 20
68.21287358700044
 30
0.0
 10
83.259711921413
 20
68.25576180611634
 30
0.0
 10
83.30109905400381
 20
68.2666633906634
 30
0.0
 10
83.33955329161623
 20
68.2666633906634
 30
0.0
  0
ARC
  5
D0
330
1F
100
AcDbEntity
  8
0
  6
Continuous
 62
     7
370
    25
100
AcDbCircle
 10
83.3481020353
 20
68.7500331138
 30
0.0
 40
0.4834454273380953
100
AcDbArc
 50
189.9675444204
 51
268.9867684688
  0
ARC
  5
D1
330
1F
100
AcDbEntity
  8
0
  6
Continuous
 62
     7
370
    25
100
AcDbCircle
 10
97.590207547
 20
57.7832936675
 30
0.0
 40
0.4834454273380953
100
AcDbArc
 50
9.9675444204
 51
88.9867684688
  0
SPLINE
  5
D2
330
1F
100
AcDbEntity
  8
0
  6
Continuous
 62
     7
370
    25
100
AcDbSpline
210
0.0
220
0.0
230
1.0
 70
     8
 71
     3
 72
    16
 73
    12
 74
     0
 42
0.000000001
 43
0.00000001
 40
0.0
 40
0.0
 40
0.0
 40
0.0
 40
0.2499999999999999
 40
0.2499999999999999
 40
0.3750000000000003
 40
0.3750000000000003
 40
0.5000000000000007
 40
0.5000000000000007
 40
0.7500000000000003
 40
0.7500000000000003
 40
1.0
 40
1.0
 40
1.0
 40
1.0
 10
97.77460288062417
 20
58.7666633906634
 30
0.0
 10
97.81015681007284
 20
58.7032548296852
 30
0.0
 10
97.83942895130153
 20
58.63598752936439
 30
0.0
 10
97.85464150152241
 20
58.53754821822204
 30
0.0
 10
97.85470216969595
 20
58.50507281186675
 30
0.0
 10
97.84449158521863
 20
58.44644760474055
 30
0.0
 10
97.83470825569339
 20
58.42082479318757
 30
0.0
 10
97.79554370716146
 20
58.35261594949212
 30
0.0
 10
97.75767063388818
 20
58.32045319432634
 30
0.0
 10
97.6785976608966
 20
58.27756497521046
 30
0.0
 10
97.63721052830577
 20
58.2666633906634
 30
0.0
 10
97.59875629069337
 20
58.2666633906634
 30
0.0
  0
LINE
  5
D3
330
1F
100
AcDbEntity
  8
0
  6
Continuous
 62
     7
370
    25
100
AcDbLine
 10
97.5987564597
 20
58.2666635024
 30
0.0
 11
83.3395531226
 21
58.2666635024
 31
0.0
  0
LINE
  5
D4
330
1F
100
AcDbEntity
  8
0
  6
Continuous
 62
     7
370
    25
100
AcDbLine
 10
83.1637068476
 20
58.7666635844
 30
0.0
 11
97.7746027347
 21
58.7666635844
 31
0.0
  0
LINE
  5
D5
330
1F
100
AcDbEntity
  8
0
  6
Continuous
 62
     7
370
    25
100
AcDbLine
 10
87.1752111997
 20
62.7115237736
 30
0.0
 11
87.6610901032
 21
62.7115237736
 31
0.0
  0
ELLIPSE
  5
D6
330
1F
100
AcDbEntity
  8
0
  6
Continuous
 62
     7
370
    25
100
AcDbEllipse
 10
87.1752113102
 20
62.7761971405
 30
0.0
 11
0.06784129479237322
 21
0.0
 31
0.0
210
0.0
220
0.0
230
1.0
 40
0.9533039403
 41
2.798568711307219
 42
4.712388980384703
  0
LINE
  5
D7
330
1F
100
AcDbEntity
  8
0
  6
Continuous
 62
     7
370
    25
100
AcDbLine
 10
87.7249790646
 20
62.7979491406
 30
0.0
 11
87.4820396129
 21
63.4464152396
 31
0.0
  0
LINE
  5
D8
330
1F
100
AcDbEntity
  8
0
  6
Continuous
 62
     7
370
    25
100
AcDbLine
 10
87.35426169
 20
63.4464152396
 30
0.0
 11
87.1113222383
 21
62.7979491406
 31
0.0
  0
ELLIPSE
  5
D9
330
1F
100
AcDbEntity
  8
0
  6
Continuous
 62
     7
370
    25
100
AcDbEllipse
 10
87.4181506551
 20
63.4246632341
 30
0.0
 11
0.06784129479271428
 21
0.0
 31
0.0
210
0.0
220
0.0
230
1.0
 40
0.9533039403
 41
0.3430239385580566
 42
2.79856871130884
  0
ELLIPSE
  5
DA
330
1F
100
AcDbEntity
  8
0
  6
Continuous
 62
     7
370
    25
100
AcDbEllipse
 10
87.6610899972
 20
62.7761971405
 30
0.0
 11
-0.06784129479237322
 21
0.0
 31
0.0
210
0.0
220
0.0
230
1.0
 40
0.9533039403
 41
1.570796326794897
 42
3.484616592149588
  0
LINE
  5
DB
330
1F
100
AcDbEntity
  8
0
  6
Continuous
 62
     7
370
    25
100
AcDbLine
 10
97.7746027347
 20
67.7666631969
 30
0.0
 11
83.1637068476
 21
67.7666631969
 31
0.0
  0
LINE
  5
DC
330
1F
100
AcDbEntity
  8
0
  6
Continuous
 62
     7
370
    25
100
AcDbLine
 10
83.3395531226
 20
68.2666632789
 30
0.0
 11
97.5987564597
 21
68.2666632789
 31
0.0
  0
LINE
  5
DD
330
1F
100
AcDbEntity
  8
0
  6
Continuous
 62
     7
370
    25
100
AcDbLine
 10
93.6682247847
 20
62.2076172591
 30
0.0
 11
95.2087033365
 21
62.2076172591
 31
0.0
  0
LINE
  5
DE
330
1F
100
AcDbEntity
  8
0
  6
Continuous
 62
     7
370
    25
100
AcDbLine
 10
95.2087033365
 20
62.2076172591
 30
0.0
 11
95.2087033365
 21
62.7156172274
 31
0.0
  0
ARC
  5
DF
330
1F
100
AcDbEntity
  8
0
  6
Continuous
 62
     7
370
    25
100
AcDbCircle
 10
94.332520877
 20
62.4616172502
 30
0.0
 40
1.239109388553836
100
AcDbArc
 50
45.0
 51
315.0
  0
ELLIPSE
  5
E0
330
1F
100
AcDbEntity
  8
0
  6
Continuous
 62
     7
370
    25
100
AcDbEllipse
 10
89.0270606501
 20
61.2672154031
 30
0.0
 11
0.06784129479235901
 21
0.0
 31
0.0
210
0.0
220
0.0
230
1.0
 40
0.9533039403
 41
3.962594650555113
 42
5.819537698174926
  0
ELLIPSE
  5
E1
330
1F
100
AcDbEntity
  8
0
  6
Continuous
 62
     7
370
    25
100
AcDbEllipse
 10
87.4181506535
 20
65.3186691419
 30
0.0
 11
0.5215299537176463
 21
0.0
 31
0.0
210
0.0
220
0.0
230
1.0
 40
0.9533039403
 41
0.4357918987552989
 42
2.705800754834497
  0
ARC
  5
E2
330
1F
100
AcDbEntity
  8
0
  6
Continuous
 62
     7
370
    25
100
AcDbCircle
 10
94.332520877
 20
62.4616172502
 30
0.0
 40
0.7112000000000839
100
AcDbArc
 50
200.9248324276
 51
315.0
  0
LINE
  5
E3
330
1F
100
AcDbEntity
  8
0
  6
Continuous
 62
     7
370
    25
100
AcDbLine
 10
94.8354152787
 20
62.9645115847
 30
0.0
 11
95.2087033365
 21
63.3377999044
 31
0.0
  0
LINE
  5
E4
330
1F
100
AcDbEntity
  8
0
  6
Continuous
 62
     7
370
    25
100
AcDbLine
 10
95.2087033365
 20
62.7156172274
 30
0.0
 11
93.6682247847
 21
62.7156172274
 31
0.0
  0
LINE
  5
E5
330
1F
100
AcDbEntity
  8
0
  6
Continuous
 62
     7
370
    25
100
AcDbLine
 10
88.8986600621
 20
62.7105850004
 30
0.0
 11
87.8909363236
 21
65.5285413819
 31
0.0
  0
ELLIPSE
  5
E6
330
1F
100
AcDbEntity
  8
0
  6
Continuous
 62
     7
370
    25
100
AcDbEllipse
 10
89.4123598774
 20
62.8775323054
 30
0.0
 11
0.5427303583402932
 21
3.481659405224491E-13
 31
0.0
210
0.0
220
0.0
230
1.0
 40
0.9533039404
 41
3.470145824142436
 42
5.25246918052791
  0
LINE
  5
E7
330
1F
100
AcDbEntity
  8
0
  6
Continuous
 62
     7
370
    25
100
AcDbLine
 10
95.2087033365
 20
61.5854346403
 30
0.0
 11
94.8354152787
 21
61.9587229309
 31
0.0
  0
ARC
  5
E8
330
1F
100
AcDbEntity
  8
0
  6
Continuous
 62
     7
370
    25
100
AcDbCircle
 10
94.332520877
 20
62.4616172502
 30
0.0
 40
0.7112000000000337
100
AcDbArc
 50
45.0
 51
159.0751675723
  0
LINE
  5
E9
330
1F
100
AcDbEntity
  8
0
  6
Continuous
 62
     7
370
    25
100
AcDbLine
 10
86.9453649793
 20
65.5285413819
 30
0.0
 11
85.9378760505
 21
62.7112416993
 31
0.0
  0
ARC
  5
EA
330
1F
100
AcDbEntity
  8
0
  6
Continuous
 62
     7
370
    25
100
AcDbCircle
 10
91.6588051999
 20
62.4616172502
 30
0.0
 40
1.239109388553836
100
AcDbArc
 50
45.0
 51
315.0
  0
LINE
  5
EB
330
1F
100
AcDbEntity
  8
0
  6
Continuous
 62
     7
370
    25
100
AcDbLine
 10
85.152811167
 20
62.4301187205
 30
0.0
 11
85.111546592
 21
62.4528302438
 31
0.0
  0
LINE
  5
EC
330
1F
100
AcDbEntity
  8
0
  6
Continuous
 62
     7
370
    25
100
AcDbLine
 10
89.0877397323
 20
61.2382926489
 30
0.0
 11
89.7247546527
 21
62.4528302438
 31
0.0
  0
ELLIPSE
  5
ED
330
1F
100
AcDbEntity
  8
0
  6
Continuous
 62
     7
370
    25
100
AcDbEllipse
 10
87.4181506535
 20
59.6201365067
 30
0.0
 11
2.293035763987604
 21
-1.072919530997751E-12
 31
0.0
210
0.0
220
0.0
230
1.0
 40
0.9533039403
 41
0.8210019969645956
 42
2.320590656625127
  0
LINE
  5
EE
330
1F
100
AcDbEntity
  8
0
  6
Continuous
 62
     7
370
    25
100
AcDbLine
 10
92.1616995765
 20
62.9645115847
 30
0.0
 11
92.5349877506
 21
63.3377999044
 31
0.0
  0
LINE
  5
EF
330
1F
100
AcDbEntity
  8
0
  6
Continuous
 62
     7
370
    25
100
AcDbLine
 10
89.7247546527
 20
62.4528302438
 30
0.0
 11
89.6914344339
 21
62.433786327
 31
0.0
  0
LINE
  5
F0
330
1F
100
AcDbEntity
  8
0
  6
Continuous
 62
     7
370
    25
100
AcDbLine
 10
92.5349877506
 20
61.5854346403
 30
0.0
 11
92.1616995765
 21
61.9587229309
 31
0.0
  0
ELLIPSE
  5
F1
330
1F
100
AcDbEntity
  8
0
  6
Continuous
 62
     7
370
    25
100
AcDbEllipse
 10
85.4241762661
 20
62.8781889925
 30
0.0
 11
-0.5427303583406342
 21
3.623767952376511E-13
 31
0.0
210
0.0
220
0.0
230
1.0
 40
0.9533039403
 41
1.047197551196593
 42
2.81303948303932
  0
ARC
  5
F2
330
1F
100
AcDbEntity
  8
0
  6
Continuous
 62
     7
370
    25
100
AcDbCircle
 10
91.6588051999
 20
62.4616172502
 30
0.0
 40
0.7111999999997624
100
AcDbArc
 50
45.0
 51
315.0
  0
LINE
  5
F3
330
1F
100
AcDbEntity
  8
0
  6
Continuous
 62
     7
370
    25
100
AcDbLine
 10
85.111546592
 20
62.4528302438
 30
0.0
 11
85.7485614542
 21
61.2382926489
 31
0.0
  0
ELLIPSE
  5
F4
330
1F
100
AcDbEntity
  8
0
  6
Continuous
 62
     7
370
    25
100
AcDbEllipse
 10
85.8092406569
 20
61.2672154031
 30
0.0
 11
0.06784129479235901
 21
0.0
 31
0.0
210
0.0
220
0.0
230
1.0
 40
0.9533039403
 41
3.605240262580586
 42
5.462183310226871
  0
LINE
  5
F5
330
1F
100
AcDbEntity
  8
0
  6
Continuous
 62
     7
370
    25
100
AcDbLine
 10
108.3952461194
 20
63.2666633907
 30
0.0
 11
108.3952461194
 21
55.0692915427
 31
0.0
  0
LINE
  5
F6
330
1F
100
AcDbEntity
  8
0
  6
Continuous
 62
     7
370
    25
100
AcDbLine
 10
108.3952461194
 20
71.4640352386
 30
0.0
 11
108.3952461194
 21
63.2666633907
 31
0.0
  0
LINE
  5
F7
330
1F
100
AcDbEntity
  8
0
  6
Continuous
 62
     7
370
    25
100
AcDbLine
 10
110.4691543441
 20
70.2666636067
 30
0.0
 11
110.4691543441
 21
56.2666631746
 31
0.0
  0
ARC
  5
F8
330
1F
100
AcDbEntity
  8
0
  6
Continuous
 62
     7
370
    25
100
AcDbCircle
 10
83.4691547912
 20
57.7666633907
 30
0.0
 40
0.5
100
AcDbArc
 50
90.0
 51
180.0
  0
ARC
  5
F9
330
1F
100
AcDbEntity
  8
0
  6
Continuous
 62
     7
370
    25
100
AcDbCircle
 10
97.4691547912
 20
57.7666633907
 30
0.0
 40
0.5
100
AcDbArc
 50
0.0
 51
90.0
  0
ARC
  5
FA
330
1F
100
AcDbEntity
  8
0
  6
Continuous
 62
     7
370
    25
100
AcDbCircle
 10
97.4691547912
 20
68.7666633907
 30
0.0
 40
0.5
100
AcDbArc
 50
270.0
 51
0.0
  0
ARC
  5
FB
330
1F
100
AcDbEntity
  8
0
  6
Continuous
 62
     7
370
    25
100
AcDbCircle
 10
83.4691547912
 20
68.7666633907
 30
0.0
 40
0.5
100
AcDbArc
 50
180.0
 51
270.0
  0
LWPOLYLINE
  5
FC
330
1F
100
AcDbEntity
  8
0
  6
Continuous
 62
     7
370
    25
100
AcDbPolyline
 90
        9
 70
   128
 43
0.0
 10
97.4691550072
 20
68.4611080657
 10
97.566699871
 20
68.4669791232
 10
97.6604966272
 20
68.4843669156
 10
97.7469401259
 20
68.5126032191
 10
97.8227083396
 20
68.5506030428
 10
97.8848894883
 20
68.5969056073
 10
97.9310947295
 20
68.649732552
 10
97.9595475655
 20
68.7070526625
 10
97.9691546235
 20
68.7666633609
  0
LINE
  5
FD
330
1F
100
AcDbEntity
  8
0
  6
Continuous
 62
     7
370
    25
100
AcDbLine
 10
97.4691550072
 20
68.2666632789
 30
0.0
 11
97.4691550072
 21
68.4611080657
 31
0.0
  0
LWPOLYLINE
  5
FE
330
1F
100
AcDbEntity
  8
0
  6
Continuous
 62
     7
370
    25
100
AcDbPolyline
 90
        9
 70
   128
 43
0.0
 10
83.4691545751
 20
58.0722187157
 10
83.3716097113
 20
58.0663476582
 10
83.2778129551
 20
58.0489598657
 10
83.1913694564
 20
58.0207235622
 10
83.1156012427
 20
57.9827237385
 10
83.053420094
 20
57.9364211741
 10
83.0072148528
 20
57.8835942293
 10
82.9787620168
 20
57.8262741188
 10
82.9691549588
 20
57.7666634205
  0
LINE
  5
FF
330
1F
100
AcDbEntity
  8
0
  6
Continuous
 62
     7
370
    25
100
AcDbLine
 10
83.4691545751
 20
58.0722187157
 30
0.0
 11
83.4691545751
 21
58.2666635024
 31
0.0
  0
LWPOLYLINE
  5
100
330
1F
100
AcDbEntity
  8
0
  6
Continuous
 62
     7
370
    25
100
AcDbPolyline
 90
        9
 70
   128
 43
0.0
 10
82.9691549588
 20
68.7666633609
 10
82.9787620168
 20
68.7070526625
 10
83.0072148528
 20
68.649732552
 10
83.053420094
 20
68.5969056073
 10
83.1156012427
 20
68.5506030428
 10
83.1913694564
 20
68.5126032191
 10
83.2778129551
 20
68.4843669156
 10
83.3716097113
 20
68.4669791232
 10
83.4691545751
 20
68.4611080657
  0
LINE
  5
101
330
1F
100
AcDbEntity
  8
0
  6
Continuous
 62
     7
370
    25
100
AcDbLine
 10
83.4691545751
 20
68.2666632789
 30
0.0
 11
83.4691545751
 21
68.4611080657
 31
0.0
  0
LINE
  5
102
330
1F
100
AcDbEntity
  8
0
  6
Continuous
 62
     7
370
    25
100
AcDbLine
 10
97.4691550072
 20
58.0722187157
 30
0.0
 11
83.4691545751
 21
58.0722187157
 31
0.0
  0
LINE
  5
103
330
1F
100
AcDbEntity
  8
0
  6
Continuous
 62
     7
370
    25
100
AcDbLine
 10
97.4691550072
 20
58.0722187157
 30
0.0
 11
97.4691550072
 21
58.2666635024
 31
0.0
  0
LWPOLYLINE
  5
104
330
1F
100
AcDbEntity
  8
0
  6
Continuous
 62
     7
370
    25
100
AcDbPolyline
 90
        9
 70
   128
 43
0.0
 10
97.9691546235
 20
57.7666634205
 10
97.9595475655
 20
57.8262741188
 10
97.9310947295
 20
57.8835942293
 10
97.8848894883
 20
57.9364211741
 10
97.8227083396
 20
57.9827237385
 10
97.7469401259
 20
58.0207235622
 10
97.6604966272
 20
58.0489598657
 10
97.566699871
 20
58.0663476582
 10
97.4691550072
 20
58.0722187157
  0
LINE
  5
105
330
1F
100
AcDbEntity
  8
0
  6
Continuous
 62
     7
370
    25
100
AcDbLine
 10
83.4691545751
 20
68.4611080657
 30
0.0
 11
97.4691550072
 21
68.4611080657
 31
0.0
  0
SPLINE
  5
106
330
1F
100
AcDbEntity
  8
0
  6
Continuous
 62
     7
370
    25
100
AcDbSpline
210
0.0
220
0.0
230
1.0
 70
    11
 71
     3
 72
    26
 73
    22
 74
     0
 42
0.000000001
 43
0.00000001
 40
0.0
 40
0.0
 40
0.0
 40
0.0
 40
0.125
 40
0.125
 40
0.1875
 40
0.1875
 40
0.25
 40
0.25
 40
0.3125
 40
0.3125
 40
0.375
 40
0.375
 40
0.5
 40
0.5
 40
0.625
 40
0.625
 40
0.75
 40
0.75
 40
0.875
 40
0.875
 40
1.0
 40
1.0
 40
1.0
 40
1.0
 10
90.98247376000317
 20
71.2666633906634
 30
0.0
 10
90.98247376000317
 20
71.40578242189221
 30
0.0
 10
90.92967778885422
 20
71.5415101248677
 30
0.0
 10
90.78822219897691
 20
71.69452886136348
 30
0.0
 10
90.73166826260504
 20
71.736031762384
 30
0.0
 10
90.6061241111616
 20
71.79323165617768
 30
0.0
 10
90.53697249805359
 20
71.80851564492202
 30
0.0
 10
90.39981412331014
 20
71.80829477115839
 30
0.0
 10
90.330699540504
 20
71.79273470987071
 30
0.0
 10
90.2059397718729
 20
71.7355288753767
 30
0.0
 10
90.14930868353845
 20
71.69377744810976
 30
0.0
 10
90.00919505701553
 20
71.54193657982631
 30
0.0
 10
89.9558745230689
 20
71.40588425255845
 30
0.0
 10
89.95579716449281
 20
71.1277515588551
 30
0.0
 10
90.00948554651447
 20
70.9909495488351
 30
0.0
 10
90.19618036082218
 20
70.78888074517003
 30
0.0
 10
90.33206157018576
 20
70.72471098548449
 30
0.0
 10
90.60769270422423
 20
70.7251320382855
 30
0.0
 10
90.74266774263788
 20
70.78940072070881
 30
0.0
 10
90.92851521970391
 20
70.99067827193294
 30
0.0
 10
90.98247376000317
 20
71.12754435943458
 30
0.0
 10
90.98247376000317
 20
71.2666633906634
 30
0.0
  0
SPLINE
  5
107
330
1F
100
AcDbEntity
  8
0
  6
Continuous
 62
     7
370
    25
100
AcDbSpline
210
0.0
220
0.0
230
1.0
 70
    11
 71
     3
 72
    38
 73
    34
 74
     0
 42
0.000000001
 43
0.00000001
 40
0.0
 40
0.0
 40
0.0
 40
0.0
 40
0.0625
 40
0.0625
 40
0.125
 40
0.125
 40
0.1874999999999999
 40
0.1874999999999999
 40
0.2499999999999999
 40
0.2499999999999999
 40
0.3125
 40
0.3125
 40
0.375
 40
0.375
 40
0.4375000000000001
 40
0.4375000000000001
 40
0.5000000000000001
 40
0.5000000000000001
 40
0.5625000000000001
 40
0.5625000000000001
 40
0.6250000000000001
 40
0.6250000000000001
 40
0.6875000000000001
 40
0.6875000000000001
 40
0.75
 40
0.75
 40
0.8125
 40
0.8125
 40
0.875
 40
0.875
 40
0.9375
 40
0.9375
 40
1.0
 40
1.0
 40
1.0
 40
1.0
 10
89.4691547911548
 20
71.2666633906634
 30
0.0
 10
89.4691547911548
 20
71.13427747575308
 30
0.0
 10
89.49530334229763
 20
71.00439014927439
 30
0.0
 10
89.59576901175544
 20
70.7623111546885
 30
0.0
 10
89.67005387815199
 20
70.65152980063249
 30
0.0
 10
89.85420305788672
 20
70.46742252052672
 30
0.0
 10
89.96557868048097
 20
70.39295384923074
 30
0.0
 10
90.20612718501485
 20
70.29312667310202
 30
0.0
 10
90.33788508100227
 20
70.26673875302873
 30
0.0
 10
90.59927377316615
 20
70.26658835934191
 30
0.0
 10
90.73044584375782
 20
70.29252817975194
 30
0.0
 10
90.97288352975754
 20
70.39289581217723
 30
0.0
 10
91.08293769790713
 20
70.46628471532244
 30
0.0
 10
91.26919101531801
 20
70.65243418215199
 30
0.0
 10
91.34261734321116
 20
70.76247269955199
 30
0.0
 10
91.44298209084006
 20
71.00435541664068
 30
0.0
 10
91.46910335513627
 20
71.135629935152
 30
0.0
 10
91.46920607262149
 20
71.3969105845245
 30
0.0
 10
91.44296244452778
 20
71.52872598803744
 30
0.0
 10
91.34329408772963
 20
71.76951390611889
 30
0.0
 10
91.2690132957611
 20
71.8808461075169
 30
0.0
 10
91.08482655532751
 20
72.0653763027119
 30
0.0
 10
90.97440298126493
 20
72.13956263198568
 30
0.0
 10
90.73201826602497
 20
72.24038389095583
 30
0.0
 10
90.60209408645855
 20
72.26655812026087
 30
0.0
 10
90.33780397694164
 20
72.26676803024779
 30
0.0
 10
90.20757021827964
 20
72.2406803078846
 30
0.0
 10
89.96567754710894
 20
72.14053186390599
 30
0.0
 10
89.85466162170232
 20
72.06624556874085
 30
0.0
 10
89.6704938857223
 20
71.88235346930406
 30
0.0
 10
89.59589521422018
 20
71.77102331875003
 30
0.0
 10
89.49584440067507
 20
71.53053477894142
 30
0.0
 10
89.4691547911548
 20
71.3990493055737
 30
0.0
 10
89.4691547911548
 20
71.26666339066338
 30
0.0
  0
LINE
  5
108
330
1F
100
AcDbEntity
  8
0
  6
Continuous
 62
     7
370
    25
100
AcDbLine
 10
85.2191548619
 20
93.9166625473
 30
0.0
 11
85.2191548619
 21
93.466664243
 31
0.0
  0
LINE
  5
109
330
1F
100
AcDbEntity
  8
0
  6
Continuous
 62
     7
370
    25
100
AcDbLine
 10
85.2191548619
 20
93.9166625473
 30
0.0
 11
88.4691546962
 21
93.9166625473
 31
0.0
  0
LINE
  5
10A
330
1F
100
AcDbEntity
  8
0
  6
Continuous
 62
     7
370
    25
100
AcDbLine
 10
88.4691546962
 20
93.9166625473
 30
0.0
 11
88.4691546962
 21
93.466664243
 31
0.0
  0
LINE
  5
10B
330
1F
100
AcDbEntity
  8
0
  6
Continuous
 62
     7
370
    25
100
AcDbLine
 10
95.7191547204
 20
93.9166625473
 30
0.0
 11
95.7191547204
 21
93.466664243
 31
0.0
  0
LINE
  5
10C
330
1F
100
AcDbEntity
  8
0
  6
Continuous
 62
     7
370
    25
100
AcDbLine
 10
92.4691548861
 20
93.9166625473
 30
0.0
 11
92.4691548861
 21
93.466664243
 31
0.0
  0
LINE
  5
10D
330
1F
100
AcDbEntity
  8
0
  6
Continuous
 62
     7
370
    25
100
AcDbLine
 10
95.7191547204
 20
93.9166625473
 30
0.0
 11
92.4691548861
 21
93.9166625473
 31
0.0
  0
LINE
  5
10E
330
1F
100
AcDbEntity
  8
0
  6
Continuous
 62
     7
370
    25
100
AcDbLine
 10
92.4691548861
 20
93.9166625473
 30
0.0
 11
88.4691546962
 21
93.9166625473
 31
0.0
  0
LINE
  5
10F
330
1F
100
AcDbEntity
  8
0
  6
Continuous
 62
     7
370
    25
100
AcDbLine
 10
90.4691547912
 20
80.1666626218
 30
0.0
 11
90.9297112084
 21
79.9666629615
 31
0.0
  0
LINE
  5
110
330
1F
100
AcDbEntity
  8
0
  6
Continuous
 62
     7
370
    25
100
AcDbLine
 10
90.9297112084
 20
79.9666629615
 30
0.0
 11
90.0085983739
 21
79.9666629615
 31
0.0
  0
LINE
  5
111
330
1F
100
AcDbEntity
  8
0
  6
Continuous
 62
     7
370
    25
100
AcDbLine
 10
90.0085983739
 20
79.9666629615
 30
0.0
 11
90.4691547912
 21
80.1666626218
 31
0.0
  0
LINE
  5
112
330
1F
100
AcDbEntity
  8
0
  6
Continuous
 62
     7
370
    25
100
AcDbLine
 10
90.4691547912
 20
80.1666626218
 30
0.0
 11
90.4691547912
 21
93.2666627201
 31
0.0
  0
LINE
  5
113
330
1F
100
AcDbEntity
  8
0
  6
Continuous
 62
     7
370
    25
100
AcDbLine
 10
90.0085983739
 20
79.9666629615
 30
0.0
 11
90.0085983739
 21
93.466664243
 31
0.0
  0
LINE
  5
114
330
1F
100
AcDbEntity
  8
0
  6
Continuous
 62
     7
370
    25
100
AcDbLine
 10
90.4691547912
 20
93.2666627201
 30
0.0
 11
90.0085983739
 21
93.466664243
 31
0.0
  0
LINE
  5
115
330
1F
100
AcDbEntity
  8
0
  6
Continuous
 62
     7
370
    25
100
AcDbLine
 10
90.9297112084
 20
79.9666629615
 30
0.0
 11
90.9297112084
 21
93.466664243
 31
0.0
  0
LINE
  5
116
330
1F
100
AcDbEntity
  8
0
  6
Continuous
 62
     7
370
    25
100
AcDbLine
 10
90.9297112084
 20
93.466664243
 30
0.0
 11
90.4691547912
 21
93.2666627201
 31
0.0
  0
LINE
  5
117
330
1F
100
AcDbEntity
  8
0
  6
Continuous
 62
     7
370
    25
100
AcDbLine
 10
90.0085983739
 20
93.466664243
 30
0.0
 11
90.9297112084
 21
93.466664243
 31
0.0
  0
LINE
  5
118
330
1F
100
AcDbEntity
  8
0
  6
Continuous
 62
     7
370
    25
100
AcDbLine
 10
91.409910965
 20
80.1666626218
 30
0.0
 11
91.409910965
 21
93.2666627201
 31
0.0
  0
LINE
  5
119
330
1F
100
AcDbEntity
  8
0
  6
Continuous
 62
     7
370
    25
100
AcDbLine
 10
90.9297112084
 20
79.9666629615
 30
0.0
 11
91.409910965
 21
80.1666626218
 31
0.0
  0
LINE
  5
11A
330
1F
100
AcDbEntity
  8
0
  6
Continuous
 62
     7
370
    25
100
AcDbLine
 10
91.409910965
 20
93.2666627201
 30
0.0
 11
90.9297112084
 21
93.466664243
 31
0.0
  0
LINE
  5
11B
330
1F
100
AcDbEntity
  8
0
  6
Continuous
 62
     7
370
    25
100
AcDbLine
 10
91.845778079
 20
79.9666629615
 30
0.0
 11
91.845778079
 21
93.466664243
 31
0.0
  0
LINE
  5
11C
330
1F
100
AcDbEntity
  8
0
  6
Continuous
 62
     7
370
    25
100
AcDbLine
 10
91.409910965
 20
80.1666626218
 30
0.0
 11
91.845778079
 21
79.9666629615
 31
0.0
  0
LINE
  5
11D
330
1F
100
AcDbEntity
  8
0
  6
Continuous
 62
     7
370
    25
100
AcDbLine
 10
91.845778079
 20
93.466664243
 30
0.0
 11
91.409910965
 21
93.2666627201
 31
0.0
  0
LINE
  5
11E
330
1F
100
AcDbEntity
  8
0
  6
Continuous
 62
     7
370
    25
100
AcDbLine
 10
91.845778079
 20
79.9666629615
 30
0.0
 11
90.9297112084
 21
79.9666629615
 31
0.0
  0
LINE
  5
11F
330
1F
100
AcDbEntity
  8
0
  6
Continuous
 62
     7
370
    25
100
AcDbLine
 10
90.9297112084
 20
93.466664243
 30
0.0
 11
91.845778079
 21
93.466664243
 31
0.0
  0
LINE
  5
120
330
1F
100
AcDbEntity
  8
0
  6
Continuous
 62
     7
370
    25
100
AcDbLine
 10
89.5283986174
 20
80.1666626218
 30
0.0
 11
90.0085983739
 21
79.9666629615
 31
0.0
  0
LINE
  5
121
330
1F
100
AcDbEntity
  8
0
  6
Continuous
 62
     7
370
    25
100
AcDbLine
 10
89.5283986174
 20
80.1666626218
 30
0.0
 11
89.5283986174
 21
93.2666627201
 31
0.0
  0
LINE
  5
122
330
1F
100
AcDbEntity
  8
0
  6
Continuous
 62
     7
370
    25
100
AcDbLine
 10
90.0085983739
 20
93.466664243
 30
0.0
 11
89.5283986174
 21
93.2666627201
 31
0.0
  0
LINE
  5
123
330
1F
100
AcDbEntity
  8
0
  6
Continuous
 62
     7
370
    25
100
AcDbLine
 10
90.0085983739
 20
79.9666629615
 30
0.0
 11
89.0925315034
 21
79.9666629615
 31
0.0
  0
LINE
  5
124
330
1F
100
AcDbEntity
  8
0
  6
Continuous
 62
     7
370
    25
100
AcDbLine
 10
89.0925315034
 20
79.9666629615
 30
0.0
 11
89.5283986174
 21
80.1666626218
 31
0.0
  0
LINE
  5
125
330
1F
100
AcDbEntity
  8
0
  6
Continuous
 62
     7
370
    25
100
AcDbLine
 10
89.0925315034
 20
79.9666629615
 30
0.0
 11
89.0925315034
 21
93.466664243
 31
0.0
  0
LINE
  5
126
330
1F
100
AcDbEntity
  8
0
  6
Continuous
 62
     7
370
    25
100
AcDbLine
 10
89.5283986174
 20
93.2666627201
 30
0.0
 11
89.0925315034
 21
93.466664243
 31
0.0
  0
LINE
  5
127
330
1F
100
AcDbEntity
  8
0
  6
Continuous
 62
     7
370
    25
100
AcDbLine
 10
89.0925315034
 20
93.466664243
 30
0.0
 11
90.0085983739
 21
93.466664243
 31
0.0
  0
LINE
  5
128
330
1F
100
AcDbEntity
  8
0
  6
Continuous
 62
     7
370
    25
100
AcDbLine
 10
92.746762355
 20
79.9666629615
 30
0.0
 11
92.746762355
 21
93.466664243
 31
0.0
  0
LINE
  5
129
330
1F
100
AcDbEntity
  8
0
  6
Continuous
 62
     7
370
    25
100
AcDbLine
 10
92.340359959
 20
80.1666626218
 30
0.0
 11
92.746762355
 21
79.9666629615
 31
0.0
  0
LINE
  5
12A
330
1F
100
AcDbEntity
  8
0
  6
Continuous
 62
     7
370
    25
100
AcDbLine
 10
92.340359959
 20
80.1666626218
 30
0.0
 11
92.340359959
 21
93.2666627201
 31
0.0
  0
LINE
  5
12B
330
1F
100
AcDbEntity
  8
0
  6
Continuous
 62
     7
370
    25
100
AcDbLine
 10
92.746762355
 20
93.466664243
 30
0.0
 11
92.340359959
 21
93.2666627201
 31
0.0
  0
LINE
  5
12C
330
1F
100
AcDbEntity
  8
0
  6
Continuous
 62
     7
370
    25
100
AcDbLine
 10
92.746762355
 20
79.9666629615
 30
0.0
 11
91.845778079
 21
79.9666629615
 31
0.0
  0
LINE
  5
12D
330
1F
100
AcDbEntity
  8
0
  6
Continuous
 62
     7
370
    25
100
AcDbLine
 10
91.845778079
 20
79.9666629615
 30
0.0
 11
92.340359959
 21
80.1666626218
 31
0.0
  0
LINE
  5
12E
330
1F
100
AcDbEntity
  8
0
  6
Continuous
 62
     7
370
    25
100
AcDbLine
 10
92.340359959
 20
93.2666627201
 30
0.0
 11
91.845778079
 21
93.466664243
 31
0.0
  0
LINE
  5
12F
330
1F
100
AcDbEntity
  8
0
  6
Continuous
 62
     7
370
    25
100
AcDbLine
 10
91.845778079
 20
93.466664243
 30
0.0
 11
92.746762355
 21
93.466664243
 31
0.0
  0
LINE
  5
130
330
1F
100
AcDbEntity
  8
0
  6
Continuous
 62
     7
370
    25
100
AcDbLine
 10
88.5979496233
 20
80.1666626218
 30
0.0
 11
89.0925315034
 21
79.9666629615
 31
0.0
  0
LINE
  5
131
330
1F
100
AcDbEntity
  8
0
  6
Continuous
 62
     7
370
    25
100
AcDbLine
 10
89.0925315034
 20
79.9666629615
 30
0.0
 11
88.1915472273
 21
79.9666629615
 31
0.0
  0
LINE
  5
132
330
1F
100
AcDbEntity
  8
0
  6
Continuous
 62
     7
370
    25
100
AcDbLine
 10
88.1915472273
 20
79.9666629615
 30
0.0
 11
88.5979496233
 21
80.1666626218
 31
0.0
  0
LINE
  5
133
330
1F
100
AcDbEntity
  8
0
  6
Continuous
 62
     7
370
    25
100
AcDbLine
 10
88.5979496233
 20
80.1666626218
 30
0.0
 11
88.5979496233
 21
93.2666627201
 31
0.0
  0
LINE
  5
134
330
1F
100
AcDbEntity
  8
0
  6
Continuous
 62
     7
370
    25
100
AcDbLine
 10
89.0925315034
 20
93.466664243
 30
0.0
 11
88.5979496233
 21
93.2666627201
 31
0.0
  0
LINE
  5
135
330
1F
100
AcDbEntity
  8
0
  6
Continuous
 62
     7
370
    25
100
AcDbLine
 10
88.1915472273
 20
79.9666629615
 30
0.0
 11
88.1915472273
 21
93.466664243
 31
0.0
  0
LINE
  5
136
330
1F
100
AcDbEntity
  8
0
  6
Continuous
 62
     7
370
    25
100
AcDbLine
 10
88.5979496233
 20
93.2666627201
 30
0.0
 11
88.1915472273
 21
93.466664243
 31
0.0
  0
LINE
  5
137
330
1F
100
AcDbEntity
  8
0
  6
Continuous
 62
     7
370
    25
100
AcDbLine
 10
88.1915472273
 20
93.466664243
 30
0.0
 11
89.0925315034
 21
93.466664243
 31
0.0
  0
LINE
  5
138
330
1F
100
AcDbEntity
  8
0
  6
Continuous
 62
     7
370
    25
100
AcDbLine
 10
87.6880018331
 20
80.1666626218
 30
0.0
 11
88.1915472273
 21
79.9666629615
 31
0.0
  0
LINE
  5
139
330
1F
100
AcDbEntity
  8
0
  6
Continuous
 62
     7
370
    25
100
AcDbLine
 10
87.6880018331
 20
80.1666626218
 30
0.0
 11
87.6880018331
 21
93.2666627201
 31
0.0
  0
LINE
  5
13A
330
1F
100
AcDbEntity
  8
0
  6
Continuous
 62
     7
370
    25
100
AcDbLine
 10
88.1915472273
 20
93.466664243
 30
0.0
 11
87.6880018331
 21
93.2666627201
 31
0.0
  0
LINE
  5
13B
330
1F
100
AcDbEntity
  8
0
  6
Continuous
 62
     7
370
    25
100
AcDbLine
 10
87.3155168082
 20
79.9666629615
 30
0.0
 11
87.6880018331
 21
80.1666626218
 31
0.0
  0
LINE
  5
13C
330
1F
100
AcDbEntity
  8
0
  6
Continuous
 62
     7
370
    25
100
AcDbLine
 10
88.1915472273
 20
79.9666629615
 30
0.0
 11
87.3155168082
 21
79.9666629615
 31
0.0
  0
LINE
  5
13D
330
1F
100
AcDbEntity
  8
0
  6
Continuous
 62
     7
370
    25
100
AcDbLine
 10
87.3155168082
 20
79.9666629615
 30
0.0
 11
87.3155168082
 21
93.466664243
 31
0.0
  0
LINE
  5
13E
330
1F
100
AcDbEntity
  8
0
  6
Continuous
 62
     7
370
    25
100
AcDbLine
 10
87.6880018331
 20
93.2666627201
 30
0.0
 11
87.3155168082
 21
93.466664243
 31
0.0
  0
LINE
  5
13F
330
1F
100
AcDbEntity
  8
0
  6
Continuous
 62
     7
370
    25
100
AcDbLine
 10
87.3155168082
 20
93.466664243
 30
0.0
 11
88.1915472273
 21
93.466664243
 31
0.0
  0
LINE
  5
140
330
1F
100
AcDbEntity
  8
0
  6
Continuous
 62
     7
370
    25
100
AcDbLine
 10
93.2503077492
 20
80.1666626218
 30
0.0
 11
93.6227927741
 21
79.9666629615
 31
0.0
  0
LINE
  5
141
330
1F
100
AcDbEntity
  8
0
  6
Continuous
 62
     7
370
    25
100
AcDbLine
 10
92.746762355
 20
79.9666629615
 30
0.0
 11
93.2503077492
 21
80.1666626218
 31
0.0
  0
LINE
  5
142
330
1F
100
AcDbEntity
  8
0
  6
Continuous
 62
     7
370
    25
100
AcDbLine
 10
93.6227927741
 20
79.9666629615
 30
0.0
 11
92.746762355
 21
79.9666629615
 31
0.0
  0
LINE
  5
143
330
1F
100
AcDbEntity
  8
0
  6
Continuous
 62
     7
370
    25
100
AcDbLine
 10
93.2503077492
 20
80.1666626218
 30
0.0
 11
93.2503077492
 21
93.2666627201
 31
0.0
  0
LINE
  5
144
330
1F
100
AcDbEntity
  8
0
  6
Continuous
 62
     7
370
    25
100
AcDbLine
 10
93.2503077492
 20
93.2666627201
 30
0.0
 11
92.746762355
 21
93.466664243
 31
0.0
  0
LINE
  5
145
330
1F
100
AcDbEntity
  8
0
  6
Continuous
 62
     7
370
    25
100
AcDbLine
 10
93.6227927741
 20
79.9666629615
 30
0.0
 11
93.6227927741
 21
93.466664243
 31
0.0
  0
LINE
  5
146
330
1F
100
AcDbEntity
  8
0
  6
Continuous
 62
     7
370
    25
100
AcDbLine
 10
93.6227927741
 20
93.466664243
 30
0.0
 11
93.2503077492
 21
93.2666627201
 31
0.0
  0
LINE
  5
147
330
1F
100
AcDbEntity
  8
0
  6
Continuous
 62
     7
370
    25
100
AcDbLine
 10
92.746762355
 20
93.466664243
 30
0.0
 11
93.6227927741
 21
93.466664243
 31
0.0
  0
LINE
  5
148
330
1F
100
AcDbEntity
  8
0
  6
Continuous
 62
     7
370
    25
100
AcDbLine
 10
94.1297845274
 20
80.1666626218
 30
0.0
 11
94.4642711256
 21
79.9666629615
 31
0.0
  0
LINE
  5
149
330
1F
100
AcDbEntity
  8
0
  6
Continuous
 62
     7
370
    25
100
AcDbLine
 10
93.6227927741
 20
79.9666629615
 30
0.0
 11
94.1297845274
 21
80.1666626218
 31
0.0
  0
LINE
  5
14A
330
1F
100
AcDbEntity
  8
0
  6
Continuous
 62
     7
370
    25
100
AcDbLine
 10
94.4642711256
 20
79.9666629615
 30
0.0
 11
93.6227927741
 21
79.9666629615
 31
0.0
  0
LINE
  5
14B
330
1F
100
AcDbEntity
  8
0
  6
Continuous
 62
     7
370
    25
100
AcDbLine
 10
94.1297845274
 20
80.1666626218
 30
0.0
 11
94.1297845274
 21
93.2666627201
 31
0.0
  0
LINE
  5
14C
330
1F
100
AcDbEntity
  8
0
  6
Continuous
 62
     7
370
    25
100
AcDbLine
 10
94.1297845274
 20
93.2666627201
 30
0.0
 11
93.6227927741
 21
93.466664243
 31
0.0
  0
LINE
  5
14D
330
1F
100
AcDbEntity
  8
0
  6
Continuous
 62
     7
370
    25
100
AcDbLine
 10
94.4642711256
 20
93.466664243
 30
0.0
 11
94.1297845274
 21
93.2666627201
 31
0.0
  0
LINE
  5
14E
330
1F
100
AcDbEntity
  8
0
  6
Continuous
 62
     7
370
    25
100
AcDbLine
 10
93.6227927741
 20
93.466664243
 30
0.0
 11
94.4642711256
 21
93.466664243
 31
0.0
  0
LINE
  5
14F
330
1F
100
AcDbEntity
  8
0
  6
Continuous
 62
     7
370
    25
100
AcDbLine
 10
86.8085250549
 20
80.1666626218
 30
0.0
 11
87.3155168082
 21
79.9666629615
 31
0.0
  0
LINE
  5
150
330
1F
100
AcDbEntity
  8
0
  6
Continuous
 62
     7
370
    25
100
AcDbLine
 10
86.8085250549
 20
80.1666626218
 30
0.0
 11
86.8085250549
 21
93.2666627201
 31
0.0
  0
LINE
  5
151
330
1F
100
AcDbEntity
  8
0
  6
Continuous
 62
     7
370
    25
100
AcDbLine
 10
87.3155168082
 20
93.466664243
 30
0.0
 11
86.8085250549
 21
93.2666627201
 31
0.0
  0
LINE
  5
152
330
1F
100
AcDbEntity
  8
0
  6
Continuous
 62
     7
370
    25
100
AcDbLine
 10
86.4740384567
 20
79.9666629615
 30
0.0
 11
86.8085250549
 21
80.1666626218
 31
0.0
  0
LINE
  5
153
330
1F
100
AcDbEntity
  8
0
  6
Continuous
 62
     7
370
    25
100
AcDbLine
 10
87.3155168082
 20
79.9666629615
 30
0.0
 11
86.4740384567
 21
79.9666629615
 31
0.0
  0
LINE
  5
154
330
1F
100
AcDbEntity
  8
0
  6
Continuous
 62
     7
370
    25
100
AcDbLine
 10
86.8085250549
 20
93.2666627201
 30
0.0
 11
86.4740384567
 21
93.466664243
 31
0.0
  0
LINE
  5
155
330
1F
100
AcDbEntity
  8
0
  6
Continuous
 62
     7
370
    25
100
AcDbLine
 10
86.4740384567
 20
93.466664243
 30
0.0
 11
87.3155168082
 21
93.466664243
 31
0.0
  0
LINE
  5
156
330
1F
100
AcDbEntity
  8
0
  6
Continuous
 62
     7
370
    25
100
AcDbLine
 10
86.4740384567
 20
79.9666629615
 30
0.0
 11
86.4740384567
 21
93.466664243
 31
0.0
  0
LINE
  5
157
330
1F
100
AcDbEntity
  8
0
  6
Continuous
 62
     7
370
    25
100
AcDbLine
 10
94.4642711256
 20
79.9666629615
 30
0.0
 11
94.4642711256
 21
93.466664243
 31
0.0
  0
LINE
  5
158
330
1F
100
AcDbEntity
  8
0
  6
Continuous
 62
     7
370
    25
100
AcDbLine
 10
85.9691549849
 20
80.1666626218
 30
0.0
 11
86.4740384567
 21
79.9666629615
 31
0.0
  0
LINE
  5
159
330
1F
100
AcDbEntity
  8
0
  6
Continuous
 62
     7
370
    25
100
AcDbLine
 10
85.9691549849
 20
80.1666626218
 30
0.0
 11
85.9691549849
 21
93.2666627201
 31
0.0
  0
LINE
  5
15A
330
1F
100
AcDbEntity
  8
0
  6
Continuous
 62
     7
370
    25
100
AcDbLine
 10
86.4740384567
 20
93.466664243
 30
0.0
 11
85.9691549849
 21
93.2666627201
 31
0.0
  0
LINE
  5
15B
330
1F
100
AcDbEntity
  8
0
  6
Continuous
 62
     7
370
    25
100
AcDbLine
 10
85.6763313349
 20
79.9666629615
 30
0.0
 11
85.9691549849
 21
80.1666626218
 31
0.0
  0
LINE
  5
15C
330
1F
100
AcDbEntity
  8
0
  6
Continuous
 62
     7
370
    25
100
AcDbLine
 10
86.4740384567
 20
79.9666629615
 30
0.0
 11
85.6763313349
 21
79.9666629615
 31
0.0
  0
LINE
  5
15D
330
1F
100
AcDbEntity
  8
0
  6
Continuous
 62
     7
370
    25
100
AcDbLine
 10
85.9691549849
 20
93.2666627201
 30
0.0
 11
85.6763313349
 21
93.466664243
 31
0.0
  0
LINE
  5
15E
330
1F
100
AcDbEntity
  8
0
  6
Continuous
 62
     7
370
    25
100
AcDbLine
 10
85.6763313349
 20
93.466664243
 30
0.0
 11
86.4740384567
 21
93.466664243
 31
0.0
  0
LINE
  5
15F
330
1F
100
AcDbEntity
  8
0
  6
Continuous
 62
     7
370
    25
100
AcDbLine
 10
94.9691545974
 20
80.1666626218
 30
0.0
 11
95.2619782474
 21
79.9666629615
 31
0.0
  0
LINE
  5
160
330
1F
100
AcDbEntity
  8
0
  6
Continuous
 62
     7
370
    25
100
AcDbLine
 10
94.4642711256
 20
79.9666629615
 30
0.0
 11
94.9691545974
 21
80.1666626218
 31
0.0
  0
LINE
  5
161
330
1F
100
AcDbEntity
  8
0
  6
Continuous
 62
     7
370
    25
100
AcDbLine
 10
95.2619782474
 20
79.9666629615
 30
0.0
 11
94.4642711256
 21
79.9666629615
 31
0.0
  0
LINE
  5
162
330
1F
100
AcDbEntity
  8
0
  6
Continuous
 62
     7
370
    25
100
AcDbLine
 10
94.9691545974
 20
80.1666626218
 30
0.0
 11
94.9691545974
 21
93.2666627201
 31
0.0
  0
LINE
  5
163
330
1F
100
AcDbEntity
  8
0
  6
Continuous
 62
     7
370
    25
100
AcDbLine
 10
94.9691545974
 20
93.2666627201
 30
0.0
 11
94.4642711256
 21
93.466664243
 31
0.0
  0
LINE
  5
164
330
1F
100
AcDbEntity
  8
0
  6
Continuous
 62
     7
370
    25
100
AcDbLine
 10
95.2619782474
 20
93.466664243
 30
0.0
 11
94.9691545974
 21
93.2666627201
 31
0.0
  0
LINE
  5
165
330
1F
100
AcDbEntity
  8
0
  6
Continuous
 62
     7
370
    25
100
AcDbLine
 10
94.4642711256
 20
93.466664243
 30
0.0
 11
95.2619782474
 21
93.466664243
 31
0.0
  0
LINE
  5
166
330
1F
100
AcDbEntity
  8
0
  6
Continuous
 62
     7
370
    25
100
AcDbLine
 10
85.6763313349
 20
79.9666629615
 30
0.0
 11
85.6763313349
 21
93.466664243
 31
0.0
  0
LINE
  5
167
330
1F
100
AcDbEntity
  8
0
  6
Continuous
 62
     7
370
    25
100
AcDbLine
 10
95.2619782474
 20
79.9666629615
 30
0.0
 11
95.2619782474
 21
93.466664243
 31
0.0
  0
LINE
  5
168
330
1F
100
AcDbEntity
  8
0
  6
Continuous
 62
     7
370
    25
100
AcDbLine
 10
90.4691547912
 20
74.9666630733
 30
0.0
 11
83.169154619
 21
74.9666630733
 31
0.0
  0
LINE
  5
169
330
1F
100
AcDbEntity
  8
0
  6
Continuous
 62
     7
370
    25
100
AcDbLine
 10
97.7691549633
 20
74.9666630733
 30
0.0
 11
90.4691547912
 21
74.9666630733
 31
0.0
  0
LINE
  5
16A
330
1F
100
AcDbEntity
  8
0
  6
Continuous
 62
     7
370
    25
100
AcDbLine
 10
90.4691547912
 20
75.1666636648
 30
0.0
 11
97.9691546235
 21
75.1666636648
 31
0.0
  0
LINE
  5
16B
330
1F
100
AcDbEntity
  8
0
  6
Continuous
 62
     7
370
    25
100
AcDbLine
 10
82.9691549588
 20
75.1666636648
 30
0.0
 11
90.4691547912
 21
75.1666636648
 31
0.0
  0
LINE
  5
16C
330
1F
100
AcDbEntity
  8
0
  6
Continuous
 62
     7
370
    25
100
AcDbLine
 10
85.1790875021
 20
80.1666626218
 30
0.0
 11
85.6763313349
 21
79.9666629615
 31
0.0
  0
LINE
  5
16D
330
1F
100
AcDbEntity
  8
0
  6
Continuous
 62
     7
370
    25
100
AcDbLine
 10
84.9311354395
 20
79.9666629615
 30
0.0
 11
85.1790875021
 21
80.1666626218
 31
0.0
  0
LINE
  5
16E
330
1F
100
AcDbEntity
  8
0
  6
Continuous
 62
     7
370
    25
100
AcDbLine
 10
85.6763313349
 20
79.9666629615
 30
0.0
 11
84.9311354395
 21
79.9666629615
 31
0.0
  0
LINE
  5
16F
330
1F
100
AcDbEntity
  8
0
  6
Continuous
 62
     7
370
    25
100
AcDbLine
 10
85.1790875021
 20
80.1666626218
 30
0.0
 11
85.1790875021
 21
93.2666627201
 31
0.0
  0
LINE
  5
170
330
1F
100
AcDbEntity
  8
0
  6
Continuous
 62
     7
370
    25
100
AcDbLine
 10
85.6763313349
 20
93.466664243
 30
0.0
 11
85.1790875021
 21
93.2666627201
 31
0.0
  0
LINE
  5
171
330
1F
100
AcDbEntity
  8
0
  6
Continuous
 62
     7
370
    25
100
AcDbLine
 10
85.1790875021
 20
93.2666627201
 30
0.0
 11
84.9311354395
 21
93.466664243
 31
0.0
  0
LINE
  5
172
330
1F
100
AcDbEntity
  8
0
  6
Continuous
 62
     7
370
    25
100
AcDbLine
 10
84.9311354395
 20
93.466664243
 30
0.0
 11
85.6763313349
 21
93.466664243
 31
0.0
  0
LINE
  5
173
330
1F
100
AcDbEntity
  8
0
  6
Continuous
 62
     7
370
    25
100
AcDbLine
 10
95.7592220802
 20
80.1666626218
 30
0.0
 11
95.7592220802
 21
93.2666627201
 31
0.0
  0
LINE
  5
174
330
1F
100
AcDbEntity
  8
0
  6
Continuous
 62
     7
370
    25
100
AcDbLine
 10
95.2619782474
 20
79.9666629615
 30
0.0
 11
95.7592220802
 21
80.1666626218
 31
0.0
  0
LINE
  5
175
330
1F
100
AcDbEntity
  8
0
  6
Continuous
 62
     7
370
    25
100
AcDbLine
 10
95.7592220802
 20
93.2666627201
 30
0.0
 11
95.2619782474
 21
93.466664243
 31
0.0
  0
LINE
  5
176
330
1F
100
AcDbEntity
  8
0
  6
Continuous
 62
     7
370
    25
100
AcDbLine
 10
95.7592220802
 20
80.1666626218
 30
0.0
 11
96.0071741428
 21
79.9666629615
 31
0.0
  0
LINE
  5
177
330
1F
100
AcDbEntity
  8
0
  6
Continuous
 62
     7
370
    25
100
AcDbLine
 10
96.0071741428
 20
79.9666629615
 30
0.0
 11
95.2619782474
 21
79.9666629615
 31
0.0
  0
LINE
  5
178
330
1F
100
AcDbEntity
  8
0
  6
Continuous
 62
     7
370
    25
100
AcDbLine
 10
96.0071741428
 20
93.466664243
 30
0.0
 11
95.7592220802
 21
93.2666627201
 31
0.0
  0
LINE
  5
179
330
1F
100
AcDbEntity
  8
0
  6
Continuous
 62
     7
370
    25
100
AcDbLine
 10
95.2619782474
 20
93.466664243
 30
0.0
 11
96.0071741428
 21
93.466664243
 31
0.0
  0
LINE
  5
17A
330
1F
100
AcDbEntity
  8
0
  6
Continuous
 62
     7
370
    25
100
AcDbLine
 10
84.9311354395
 20
79.9666629615
 30
0.0
 11
84.9311354395
 21
93.466664243
 31
0.0
  0
LINE
  5
17B
330
1F
100
AcDbEntity
  8
0
  6
Continuous
 62
     7
370
    25
100
AcDbLine
 10
96.0071741428
 20
79.9666629615
 30
0.0
 11
96.0071741428
 21
93.466664243
 31
0.0
  0
LINE
  5
17C
330
1F
100
AcDbEntity
  8
0
  6
Continuous
 62
     7
370
    25
100
AcDbLine
 10
84.4469794828
 20
80.1666626218
 30
0.0
 11
84.9311354395
 21
79.9666629615
 31
0.0
  0
LINE
  5
17D
330
1F
100
AcDbEntity
  8
0
  6
Continuous
 62
     7
370
    25
100
AcDbLine
 10
84.2466152098
 20
79.9666629615
 30
0.0
 11
84.4469794828
 21
80.1666626218
 31
0.0
  0
LINE
  5
17E
330
1F
100
AcDbEntity
  8
0
  6
Continuous
 62
     7
370
    25
100
AcDbLine
 10
84.9311354395
 20
79.9666629615
 30
0.0
 11
84.2466152098
 21
79.9666629615
 31
0.0
  0
LINE
  5
17F
330
1F
100
AcDbEntity
  8
0
  6
Continuous
 62
     7
370
    25
100
AcDbLine
 10
84.4469794828
 20
80.1666626218
 30
0.0
 11
84.4469794828
 21
93.2666627201
 31
0.0
  0
LINE
  5
180
330
1F
100
AcDbEntity
  8
0
  6
Continuous
 62
     7
370
    25
100
AcDbLine
 10
84.9311354395
 20
93.466664243
 30
0.0
 11
84.4469794828
 21
93.2666627201
 31
0.0
  0
LINE
  5
181
330
1F
100
AcDbEntity
  8
0
  6
Continuous
 62
     7
370
    25
100
AcDbLine
 10
84.4469794828
 20
93.2666627201
 30
0.0
 11
84.2466152098
 21
93.466664243
 31
0.0
  0
LINE
  5
182
330
1F
100
AcDbEntity
  8
0
  6
Continuous
 62
     7
370
    25
100
AcDbLine
 10
84.2466152098
 20
93.466664243
 30
0.0
 11
84.9311354395
 21
93.466664243
 31
0.0
  0
LINE
  5
183
330
1F
100
AcDbEntity
  8
0
  6
Continuous
 62
     7
370
    25
100
AcDbLine
 10
96.4913300995
 20
80.1666626218
 30
0.0
 11
96.6916943725
 21
79.9666629615
 31
0.0
  0
LINE
  5
184
330
1F
100
AcDbEntity
  8
0
  6
Continuous
 62
     7
370
    25
100
AcDbLine
 10
96.0071741428
 20
79.9666629615
 30
0.0
 11
96.4913300995
 21
80.1666626218
 31
0.0
  0
LINE
  5
185
330
1F
100
AcDbEntity
  8
0
  6
Continuous
 62
     7
370
    25
100
AcDbLine
 10
96.6916943725
 20
79.9666629615
 30
0.0
 11
96.0071741428
 21
79.9666629615
 31
0.0
  0
LINE
  5
186
330
1F
100
AcDbEntity
  8
0
  6
Continuous
 62
     7
370
    25
100
AcDbLine
 10
96.4913300995
 20
80.1666626218
 30
0.0
 11
96.4913300995
 21
93.2666627201
 31
0.0
  0
LINE
  5
187
330
1F
100
AcDbEntity
  8
0
  6
Continuous
 62
     7
370
    25
100
AcDbLine
 10
96.4913300995
 20
93.2666627201
 30
0.0
 11
96.0071741428
 21
93.466664243
 31
0.0
  0
LINE
  5
188
330
1F
100
AcDbEntity
  8
0
  6
Continuous
 62
     7
370
    25
100
AcDbLine
 10
96.6916943725
 20
93.466664243
 30
0.0
 11
96.4913300995
 21
93.2666627201
 31
0.0
  0
LINE
  5
189
330
1F
100
AcDbEntity
  8
0
  6
Continuous
 62
     7
370
    25
100
AcDbLine
 10
96.0071741428
 20
93.466664243
 30
0.0
 11
96.6916943725
 21
93.466664243
 31
0.0
  0
LINE
  5
18A
330
1F
100
AcDbEntity
  8
0
  6
Continuous
 62
     7
370
    25
100
AcDbLine
 10
84.2466152098
 20
79.9666629615
 30
0.0
 11
84.2466152098
 21
93.466664243
 31
0.0
  0
LINE
  5
18B
330
1F
100
AcDbEntity
  8
0
  6
Continuous
 62
     7
370
    25
100
AcDbLine
 10
96.6916943725
 20
79.9666629615
 30
0.0
 11
96.6916943725
 21
93.466664243
 31
0.0
  0
LINE
  5
18C
330
1F
100
AcDbEntity
  8
0
  6
Continuous
 62
     7
370
    25
100
AcDbLine
 10
83.780851477
 20
80.1666626218
 30
0.0
 11
84.2466152098
 21
79.9666629615
 31
0.0
  0
LINE
  5
18D
330
1F
100
AcDbEntity
  8
0
  6
Continuous
 62
     7
370
    25
100
AcDbLine
 10
83.6302701209
 20
79.9666629615
 30
0.0
 11
83.780851477
 21
80.1666626218
 31
0.0
  0
LINE
  5
18E
330
1F
100
AcDbEntity
  8
0
  6
Continuous
 62
     7
370
    25
100
AcDbLine
 10
84.2466152098
 20
79.9666629615
 30
0.0
 11
83.6302701209
 21
79.9666629615
 31
0.0
  0
LINE
  5
18F
330
1F
100
AcDbEntity
  8
0
  6
Continuous
 62
     7
370
    25
100
AcDbLine
 10
83.780851477
 20
80.1666626218
 30
0.0
 11
83.780851477
 21
93.2666627201
 31
0.0
  0
LINE
  5
190
330
1F
100
AcDbEntity
  8
0
  6
Continuous
 62
     7
370
    25
100
AcDbLine
 10
84.2466152098
 20
93.466664243
 30
0.0
 11
83.780851477
 21
93.2666627201
 31
0.0
  0
LINE
  5
191
330
1F
100
AcDbEntity
  8
0
  6
Continuous
 62
     7
370
    25
100
AcDbLine
 10
83.780851477
 20
93.2666627201
 30
0.0
 11
83.6302701209
 21
93.466664243
 31
0.0
  0
LINE
  5
192
330
1F
100
AcDbEntity
  8
0
  6
Continuous
 62
     7
370
    25
100
AcDbLine
 10
83.6302701209
 20
93.466664243
 30
0.0
 11
84.2466152098
 21
93.466664243
 31
0.0
  0
LINE
  5
193
330
1F
100
AcDbEntity
  8
0
  6
Continuous
 62
     7
370
    25
100
AcDbLine
 10
97.1574581053
 20
80.1666626218
 30
0.0
 11
97.3080394614
 21
79.9666629615
 31
0.0
  0
LINE
  5
194
330
1F
100
AcDbEntity
  8
0
  6
Continuous
 62
     7
370
    25
100
AcDbLine
 10
96.6916943725
 20
79.9666629615
 30
0.0
 11
97.1574581053
 21
80.1666626218
 31
0.0
  0
LINE
  5
195
330
1F
100
AcDbEntity
  8
0
  6
Continuous
 62
     7
370
    25
100
AcDbLine
 10
97.3080394614
 20
79.9666629615
 30
0.0
 11
96.6916943725
 21
79.9666629615
 31
0.0
  0
LINE
  5
196
330
1F
100
AcDbEntity
  8
0
  6
Continuous
 62
     7
370
    25
100
AcDbLine
 10
97.1574581053
 20
80.1666626218
 30
0.0
 11
97.1574581053
 21
93.2666627201
 31
0.0
  0
LINE
  5
197
330
1F
100
AcDbEntity
  8
0
  6
Continuous
 62
     7
370
    25
100
AcDbLine
 10
97.1574581053
 20
93.2666627201
 30
0.0
 11
96.6916943725
 21
93.466664243
 31
0.0
  0
LINE
  5
198
330
1F
100
AcDbEntity
  8
0
  6
Continuous
 62
     7
370
    25
100
AcDbLine
 10
97.3080394614
 20
93.466664243
 30
0.0
 11
97.1574581053
 21
93.2666627201
 31
0.0
  0
LINE
  5
199
330
1F
100
AcDbEntity
  8
0
  6
Continuous
 62
     7
370
    25
100
AcDbLine
 10
96.6916943725
 20
93.466664243
 30
0.0
 11
97.3080394614
 21
93.466664243
 31
0.0
  0
LINE
  5
19A
330
1F
100
AcDbEntity
  8
0
  6
Continuous
 62
     7
370
    25
100
AcDbLine
 10
83.6302701209
 20
79.9666629615
 30
0.0
 11
83.6302701209
 21
93.466664243
 31
0.0
  0
LINE
  5
19B
330
1F
100
AcDbEntity
  8
0
  6
Continuous
 62
     7
370
    25
100
AcDbLine
 10
97.3080394614
 20
79.9666629615
 30
0.0
 11
97.3080394614
 21
93.466664243
 31
0.0
  0
LINE
  5
19C
330
1F
100
AcDbEntity
  8
0
  6
Continuous
 62
     7
370
    25
100
AcDbLine
 10
83.188001794
 20
80.1666626218
 30
0.0
 11
83.6302701209
 21
79.9666629615
 31
0.0
  0
LINE
  5
19D
330
1F
100
AcDbEntity
  8
0
  6
Continuous
 62
     7
370
    25
100
AcDbLine
 10
83.188001794
 20
80.1666626218
 30
0.0
 11
83.188001794
 21
93.2666627201
 31
0.0
  0
LINE
  5
19E
330
1F
100
AcDbEntity
  8
0
  6
Continuous
 62
     7
370
    25
100
AcDbLine
 10
83.6302701209
 20
93.466664243
 30
0.0
 11
83.188001794
 21
93.2666627201
 31
0.0
  0
LINE
  5
19F
330
1F
100
AcDbEntity
  8
0
  6
Continuous
 62
     7
370
    25
100
AcDbLine
 10
83.0888536584
 20
79.9666629615
 30
0.0
 11
83.188001794
 21
80.1666626218
 31
0.0
  0
LINE
  5
1A0
330
1F
100
AcDbEntity
  8
0
  6
Continuous
 62
     7
370
    25
100
AcDbLine
 10
83.6302701209
 20
79.9666629615
 30
0.0
 11
83.0888536584
 21
79.9666629615
 31
0.0
  0
LINE
  5
1A1
330
1F
100
AcDbEntity
  8
0
  6
Continuous
 62
     7
370
    25
100
AcDbLine
 10
83.188001794
 20
93.2666627201
 30
0.0
 11
83.0888536584
 21
93.466664243
 31
0.0
  0
LINE
  5
1A2
330
1F
100
AcDbEntity
  8
0
  6
Continuous
 62
     7
370
    25
100
AcDbLine
 10
83.0888536584
 20
93.466664243
 30
0.0
 11
83.6302701209
 21
93.466664243
 31
0.0
  0
LINE
  5
1A3
330
1F
100
AcDbEntity
  8
0
  6
Continuous
 62
     7
370
    25
100
AcDbLine
 10
97.7503077883
 20
80.1666626218
 30
0.0
 11
97.849455924
 21
79.9666629615
 31
0.0
  0
LINE
  5
1A4
330
1F
100
AcDbEntity
  8
0
  6
Continuous
 62
     7
370
    25
100
AcDbLine
 10
97.3080394614
 20
79.9666629615
 30
0.0
 11
97.7503077883
 21
80.1666626218
 31
0.0
  0
LINE
  5
1A5
330
1F
100
AcDbEntity
  8
0
  6
Continuous
 62
     7
370
    25
100
AcDbLine
 10
97.849455924
 20
79.9666629615
 30
0.0
 11
97.3080394614
 21
79.9666629615
 31
0.0
  0
LINE
  5
1A6
330
1F
100
AcDbEntity
  8
0
  6
Continuous
 62
     7
370
    25
100
AcDbLine
 10
97.7503077883
 20
80.1666626218
 30
0.0
 11
97.7503077883
 21
93.2666627201
 31
0.0
  0
LINE
  5
1A7
330
1F
100
AcDbEntity
  8
0
  6
Continuous
 62
     7
370
    25
100
AcDbLine
 10
97.7503077883
 20
93.2666627201
 30
0.0
 11
97.3080394614
 21
93.466664243
 31
0.0
  0
LINE
  5
1A8
330
1F
100
AcDbEntity
  8
0
  6
Continuous
 62
     7
370
    25
100
AcDbLine
 10
97.849455924
 20
93.466664243
 30
0.0
 11
97.7503077883
 21
93.2666627201
 31
0.0
  0
LINE
  5
1A9
330
1F
100
AcDbEntity
  8
0
  6
Continuous
 62
     7
370
    25
100
AcDbLine
 10
97.3080394614
 20
93.466664243
 30
0.0
 11
97.849455924
 21
93.466664243
 31
0.0
  0
LINE
  5
1AA
330
1F
100
AcDbEntity
  8
0
  6
Continuous
 62
     7
370
    25
100
AcDbLine
 10
83.0888536584
 20
79.9666629615
 30
0.0
 11
83.0888536584
 21
93.466664243
 31
0.0
  0
LINE
  5
1AB
330
1F
100
AcDbEntity
  8
0
  6
Continuous
 62
     7
370
    25
100
AcDbLine
 10
97.849455924
 20
79.9666629615
 30
0.0
 11
97.849455924
 21
93.466664243
 31
0.0
  0
LINE
  5
1AC
330
1F
100
AcDbEntity
  8
0
  6
Continuous
 62
     7
370
    25
100
AcDbLine
 10
82.6749259431
 20
80.1666626218
 30
0.0
 11
83.0888536584
 21
79.9666629615
 31
0.0
  0
LINE
  5
1AD
330
1F
100
AcDbEntity
  8
0
  6
Continuous
 62
     7
370
    25
100
AcDbLine
 10
82.6749259431
 20
80.1666626218
 30
0.0
 11
82.6749259431
 21
93.2666627201
 31
0.0
  0
LINE
  5
1AE
330
1F
100
AcDbEntity
  8
0
  6
Continuous
 62
     7
370
    25
100
AcDbLine
 10
83.0888536584
 20
93.466664243
 30
0.0
 11
82.6749259431
 21
93.2666627201
 31
0.0
  0
LINE
  5
1AF
330
1F
100
AcDbEntity
  8
0
  6
Continuous
 62
     7
370
    25
100
AcDbLine
 10
82.6282969501
 20
79.9666629615
 30
0.0
 11
82.6749259431
 21
80.1666626218
 31
0.0
  0
LINE
  5
1B0
330
1F
100
AcDbEntity
  8
0
  6
Continuous
 62
     7
370
    25
100
AcDbLine
 10
83.0888536584
 20
79.9666629615
 30
0.0
 11
82.6282969501
 21
79.9666629615
 31
0.0
  0
LINE
  5
1B1
330
1F
100
AcDbEntity
  8
0
  6
Continuous
 62
     7
370
    25
100
AcDbLine
 10
82.6749259431
 20
93.2666627201
 30
0.0
 11
82.6282969501
 21
93.466664243
 31
0.0
  0
LINE
  5
1B2
330
1F
100
AcDbEntity
  8
0
  6
Continuous
 62
     7
370
    25
100
AcDbLine
 10
82.6282969501
 20
93.466664243
 30
0.0
 11
83.0888536584
 21
93.466664243
 31
0.0
  0
LINE
  5
1B3
330
1F
100
AcDbEntity
  8
0
  6
Continuous
 62
     7
370
    25
100
AcDbLine
 10
98.2633836392
 20
80.1666626218
 30
0.0
 11
98.2633836392
 21
93.2666627201
 31
0.0
  0
LINE
  5
1B4
330
1F
100
AcDbEntity
  8
0
  6
Continuous
 62
     7
370
    25
100
AcDbLine
 10
97.849455924
 20
79.9666629615
 30
0.0
 11
98.2633836392
 21
80.1666626218
 31
0.0
  0
LINE
  5
1B5
330
1F
100
AcDbEntity
  8
0
  6
Continuous
 62
     7
370
    25
100
AcDbLine
 10
98.2633836392
 20
93.2666627201
 30
0.0
 11
97.849455924
 21
93.466664243
 31
0.0
  0
LINE
  5
1B6
330
1F
100
AcDbEntity
  8
0
  6
Continuous
 62
     7
370
    25
100
AcDbLine
 10
98.2633836392
 20
80.1666626218
 30
0.0
 11
98.3100126322
 21
79.9666629615
 31
0.0
  0
LINE
  5
1B7
330
1F
100
AcDbEntity
  8
0
  6
Continuous
 62
     7
370
    25
100
AcDbLine
 10
98.3100126322
 20
79.9666629615
 30
0.0
 11
97.849455924
 21
79.9666629615
 31
0.0
  0
LINE
  5
1B8
330
1F
100
AcDbEntity
  8
0
  6
Continuous
 62
     7
370
    25
100
AcDbLine
 10
98.3100126322
 20
93.466664243
 30
0.0
 11
98.2633836392
 21
93.2666627201
 31
0.0
  0
LINE
  5
1B9
330
1F
100
AcDbEntity
  8
0
  6
Continuous
 62
     7
370
    25
100
AcDbLine
 10
97.849455924
 20
93.466664243
 30
0.0
 11
98.3100126322
 21
93.466664243
 31
0.0
  0
LINE
  5
1BA
330
1F
100
AcDbEntity
  8
0
  6
Continuous
 62
     7
370
    25
100
AcDbLine
 10
82.6282969501
 20
79.9666629615
 30
0.0
 11
82.6282969501
 21
93.466664243
 31
0.0
  0
LINE
  5
1BB
330
1F
100
AcDbEntity
  8
0
  6
Continuous
 62
     7
370
    25
100
AcDbLine
 10
98.3100126322
 20
79.9666629615
 30
0.0
 11
98.3100126322
 21
93.466664243
 31
0.0
  0
LINE
  5
1BC
330
1F
100
AcDbEntity
  8
0
  6
Continuous
 62
     7
370
    25
100
AcDbLine
 10
82.2472453874
 20
80.1666626218
 30
0.0
 11
82.6282969501
 21
79.9666629615
 31
0.0
  0
LINE
  5
1BD
330
1F
100
AcDbEntity
  8
0
  6
Continuous
 62
     7
370
    25
100
AcDbLine
 10
82.2472453874
 20
80.1666626218
 30
0.0
 11
82.2472453874
 21
93.2666627201
 31
0.0
  0
LINE
  5
1BE
330
1F
100
AcDbEntity
  8
0
  6
Continuous
 62
     7
370
    25
100
AcDbLine
 10
82.6282969501
 20
93.466664243
 30
0.0
 11
82.2472453874
 21
93.2666627201
 31
0.0
  0
LINE
  5
1BF
330
1F
100
AcDbEntity
  8
0
  6
Continuous
 62
     7
370
    25
100
AcDbLine
 10
82.2536472987
 20
79.9666629615
 30
0.0
 11
82.2472453874
 21
80.1666626218
 31
0.0
  0
LINE
  5
1C0
330
1F
100
AcDbEntity
  8
0
  6
Continuous
 62
     7
370
    25
100
AcDbLine
 10
82.6282969501
 20
79.9666629615
 30
0.0
 11
82.2536472987
 21
79.9666629615
 31
0.0
  0
LINE
  5
1C1
330
1F
100
AcDbEntity
  8
0
  6
Continuous
 62
     7
370
    25
100
AcDbLine
 10
82.2472453874
 20
93.2666627201
 30
0.0
 11
82.2536472987
 21
93.466664243
 31
0.0
  0
LINE
  5
1C2
330
1F
100
AcDbEntity
  8
0
  6
Continuous
 62
     7
370
    25
100
AcDbLine
 10
82.2536472987
 20
93.466664243
 30
0.0
 11
82.6282969501
 21
93.466664243
 31
0.0
  0
LINE
  5
1C3
330
1F
100
AcDbEntity
  8
0
  6
Continuous
 62
     7
370
    25
100
AcDbLine
 10
98.691064195
 20
80.1666626218
 30
0.0
 11
98.6846622836
 21
79.9666629615
 31
0.0
  0
LINE
  5
1C4
330
1F
100
AcDbEntity
  8
0
  6
Continuous
 62
     7
370
    25
100
AcDbLine
 10
98.3100126322
 20
79.9666629615
 30
0.0
 11
98.691064195
 21
80.1666626218
 31
0.0
  0
LINE
  5
1C5
330
1F
100
AcDbEntity
  8
0
  6
Continuous
 62
     7
370
    25
100
AcDbLine
 10
98.6846622836
 20
79.9666629615
 30
0.0
 11
98.3100126322
 21
79.9666629615
 31
0.0
  0
LINE
  5
1C6
330
1F
100
AcDbEntity
  8
0
  6
Continuous
 62
     7
370
    25
100
AcDbLine
 10
98.691064195
 20
80.1666626218
 30
0.0
 11
98.691064195
 21
93.2666627201
 31
0.0
  0
LINE
  5
1C7
330
1F
100
AcDbEntity
  8
0
  6
Continuous
 62
     7
370
    25
100
AcDbLine
 10
98.691064195
 20
93.2666627201
 30
0.0
 11
98.3100126322
 21
93.466664243
 31
0.0
  0
LINE
  5
1C8
330
1F
100
AcDbEntity
  8
0
  6
Continuous
 62
     7
370
    25
100
AcDbLine
 10
98.6846622836
 20
93.466664243
 30
0.0
 11
98.691064195
 21
93.2666627201
 31
0.0
  0
LINE
  5
1C9
330
1F
100
AcDbEntity
  8
0
  6
Continuous
 62
     7
370
    25
100
AcDbLine
 10
98.3100126322
 20
93.466664243
 30
0.0
 11
98.6846622836
 21
93.466664243
 31
0.0
  0
LINE
  5
1CA
330
1F
100
AcDbEntity
  8
0
  6
Continuous
 62
     7
370
    25
100
AcDbLine
 10
81.909646542
 20
80.1666626218
 30
0.0
 11
82.2536472987
 21
79.9666629615
 31
0.0
  0
LINE
  5
1CB
330
1F
100
AcDbEntity
  8
0
  6
Continuous
 62
     7
370
    25
100
AcDbLine
 10
81.9690071803
 20
79.9666629615
 30
0.0
 11
81.909646542
 21
80.1666626218
 31
0.0
  0
LINE
  5
1CC
330
1F
100
AcDbEntity
  8
0
  6
Continuous
 62
     7
370
    25
100
AcDbLine
 10
82.2536472987
 20
79.9666629615
 30
0.0
 11
81.9690071803
 21
79.9666629615
 31
0.0
  0
LINE
  5
1CD
330
1F
100
AcDbEntity
  8
0
  6
Continuous
 62
     7
370
    25
100
AcDbLine
 10
81.909646542
 20
80.1666626218
 30
0.0
 11
81.909646542
 21
93.2666627201
 31
0.0
  0
LINE
  5
1CE
330
1F
100
AcDbEntity
  8
0
  6
Continuous
 62
     7
370
    25
100
AcDbLine
 10
82.2536472987
 20
93.466664243
 30
0.0
 11
81.909646542
 21
93.2666627201
 31
0.0
  0
LINE
  5
1CF
330
1F
100
AcDbEntity
  8
0
  6
Continuous
 62
     7
370
    25
100
AcDbLine
 10
81.909646542
 20
93.2666627201
 30
0.0
 11
81.9690071803
 21
93.466664243
 31
0.0
  0
LINE
  5
1D0
330
1F
100
AcDbEntity
  8
0
  6
Continuous
 62
     7
370
    25
100
AcDbLine
 10
81.9690071803
 20
93.466664243
 30
0.0
 11
82.2536472987
 21
93.466664243
 31
0.0
  0
LINE
  5
1D1
330
1F
100
AcDbEntity
  8
0
  6
Continuous
 62
     7
370
    25
100
AcDbLine
 10
99.0286630403
 20
80.1666626218
 30
0.0
 11
98.9693024021
 21
79.9666629615
 31
0.0
  0
LINE
  5
1D2
330
1F
100
AcDbEntity
  8
0
  6
Continuous
 62
     7
370
    25
100
AcDbLine
 10
98.6846622836
 20
79.9666629615
 30
0.0
 11
99.0286630403
 21
80.1666626218
 31
0.0
  0
LINE
  5
1D3
330
1F
100
AcDbEntity
  8
0
  6
Continuous
 62
     7
370
    25
100
AcDbLine
 10
98.9693024021
 20
79.9666629615
 30
0.0
 11
98.6846622836
 21
79.9666629615
 31
0.0
  0
LINE
  5
1D4
330
1F
100
AcDbEntity
  8
0
  6
Continuous
 62
     7
370
    25
100
AcDbLine
 10
99.0286630403
 20
80.1666626218
 30
0.0
 11
99.0286630403
 21
93.2666627201
 31
0.0
  0
LINE
  5
1D5
330
1F
100
AcDbEntity
  8
0
  6
Continuous
 62
     7
370
    25
100
AcDbLine
 10
99.0286630403
 20
93.2666627201
 30
0.0
 11
98.6846622836
 21
93.466664243
 31
0.0
  0
LINE
  5
1D6
330
1F
100
AcDbEntity
  8
0
  6
Continuous
 62
     7
370
    25
100
AcDbLine
 10
98.9693024021
 20
93.466664243
 30
0.0
 11
99.0286630403
 21
93.2666627201
 31
0.0
  0
LINE
  5
1D7
330
1F
100
AcDbEntity
  8
0
  6
Continuous
 62
     7
370
    25
100
AcDbLine
 10
98.6846622836
 20
93.466664243
 30
0.0
 11
98.9693024021
 21
93.466664243
 31
0.0
  0
LINE
  5
1D8
330
1F
100
AcDbEntity
  8
0
  6
Continuous
 62
     7
370
    25
100
AcDbLine
 10
81.665826292
 20
80.1666626218
 30
0.0
 11
81.9690071803
 21
79.9666629615
 31
0.0
  0
LINE
  5
1D9
330
1F
100
AcDbEntity
  8
0
  6
Continuous
 62
     7
370
    25
100
AcDbLine
 10
81.7774974566
 20
79.9666629615
 30
0.0
 11
81.665826292
 21
80.1666626218
 31
0.0
  0
LINE
  5
1DA
330
1F
100
AcDbEntity
  8
0
  6
Continuous
 62
     7
370
    25
100
AcDbLine
 10
81.9690071803
 20
79.9666629615
 30
0.0
 11
81.7774974566
 21
79.9666629615
 31
0.0
  0
LINE
  5
1DB
330
1F
100
AcDbEntity
  8
0
  6
Continuous
 62
     7
370
    25
100
AcDbLine
 10
81.665826292
 20
80.1666626218
 30
0.0
 11
81.665826292
 21
93.2666627201
 31
0.0
  0
LINE
  5
1DC
330
1F
100
AcDbEntity
  8
0
  6
Continuous
 62
     7
370
    25
100
AcDbLine
 10
81.9690071803
 20
93.466664243
 30
0.0
 11
81.665826292
 21
93.2666627201
 31
0.0
  0
LINE
  5
1DD
330
1F
100
AcDbEntity
  8
0
  6
Continuous
 62
     7
370
    25
100
AcDbLine
 10
81.665826292
 20
93.2666627201
 30
0.0
 11
81.7774974566
 21
93.466664243
 31
0.0
  0
LINE
  5
1DE
330
1F
100
AcDbEntity
  8
0
  6
Continuous
 62
     7
370
    25
100
AcDbLine
 10
81.7774974566
 20
93.466664243
 30
0.0
 11
81.9690071803
 21
93.466664243
 31
0.0
  0
LINE
  5
1DF
330
1F
100
AcDbEntity
  8
0
  6
Continuous
 62
     7
370
    25
100
AcDbLine
 10
99.2724832904
 20
80.1666626218
 30
0.0
 11
99.2724832904
 21
93.2666627201
 31
0.0
  0
LINE
  5
1E0
330
1F
100
AcDbEntity
  8
0
  6
Continuous
 62
     7
370
    25
100
AcDbLine
 10
98.9693024021
 20
79.9666629615
 30
0.0
 11
99.2724832904
 21
80.1666626218
 31
0.0
  0
LINE
  5
1E1
330
1F
100
AcDbEntity
  8
0
  6
Continuous
 62
     7
370
    25
100
AcDbLine
 10
99.2724832904
 20
93.2666627201
 30
0.0
 11
98.9693024021
 21
93.466664243
 31
0.0
  0
LINE
  5
1E2
330
1F
100
AcDbEntity
  8
0
  6
Continuous
 62
     7
370
    25
100
AcDbLine
 10
99.2724832904
 20
80.1666626218
 30
0.0
 11
99.1608121257
 21
79.9666629615
 31
0.0
  0
LINE
  5
1E3
330
1F
100
AcDbEntity
  8
0
  6
Continuous
 62
     7
370
    25
100
AcDbLine
 10
99.1608121257
 20
79.9666629615
 30
0.0
 11
98.9693024021
 21
79.9666629615
 31
0.0
  0
LINE
  5
1E4
330
1F
100
AcDbEntity
  8
0
  6
Continuous
 62
     7
370
    25
100
AcDbLine
 10
99.1608121257
 20
93.466664243
 30
0.0
 11
99.2724832904
 21
93.2666627201
 31
0.0
  0
LINE
  5
1E5
330
1F
100
AcDbEntity
  8
0
  6
Continuous
 62
     7
370
    25
100
AcDbLine
 10
98.9693024021
 20
93.466664243
 30
0.0
 11
99.1608121257
 21
93.466664243
 31
0.0
  0
LINE
  5
1E6
330
1F
100
AcDbEntity
  8
0
  6
Continuous
 62
     7
370
    25
100
AcDbLine
 10
81.518457533
 20
80.1666626218
 30
0.0
 11
81.7774974566
 21
79.9666629615
 31
0.0
  0
LINE
  5
1E7
330
1F
100
AcDbEntity
  8
0
  6
Continuous
 62
     7
370
    25
100
AcDbLine
 10
81.6812145349
 20
79.9666629615
 30
0.0
 11
81.518457533
 21
80.1666626218
 31
0.0
  0
LINE
  5
1E8
330
1F
100
AcDbEntity
  8
0
  6
Continuous
 62
     7
370
    25
100
AcDbLine
 10
81.7774974566
 20
79.9666629615
 30
0.0
 11
81.6812145349
 21
79.9666629615
 31
0.0
  0
LINE
  5
1E9
330
1F
100
AcDbEntity
  8
0
  6
Continuous
 62
     7
370
    25
100
AcDbLine
 10
81.518457533
 20
80.1666626218
 30
0.0
 11
81.518457533
 21
93.2666627201
 31
0.0
  0
LINE
  5
1EA
330
1F
100
AcDbEntity
  8
0
  6
Continuous
 62
     7
370
    25
100
AcDbLine
 10
81.7774974566
 20
93.466664243
 30
0.0
 11
81.518457533
 21
93.2666627201
 31
0.0
  0
LINE
  5
1EB
330
1F
100
AcDbEntity
  8
0
  6
Continuous
 62
     7
370
    25
100
AcDbLine
 10
81.518457533
 20
93.2666627201
 30
0.0
 11
81.6812145349
 21
93.466664243
 31
0.0
  0
LINE
  5
1EC
330
1F
100
AcDbEntity
  8
0
  6
Continuous
 62
     7
370
    25
100
AcDbLine
 10
81.6812145349
 20
93.466664243
 30
0.0
 11
81.7774974566
 21
93.466664243
 31
0.0
  0
LINE
  5
1ED
330
1F
100
AcDbEntity
  8
0
  6
Continuous
 62
     7
370
    25
100
AcDbLine
 10
99.4198520493
 20
80.1666626218
 30
0.0
 11
99.4198520493
 21
93.2666627201
 31
0.0
  0
LINE
  5
1EE
330
1F
100
AcDbEntity
  8
0
  6
Continuous
 62
     7
370
    25
100
AcDbLine
 10
99.1608121257
 20
79.9666629615
 30
0.0
 11
99.4198520493
 21
80.1666626218
 31
0.0
  0
LINE
  5
1EF
330
1F
100
AcDbEntity
  8
0
  6
Continuous
 62
     7
370
    25
100
AcDbLine
 10
99.4198520493
 20
93.2666627201
 30
0.0
 11
99.1608121257
 21
93.466664243
 31
0.0
  0
LINE
  5
1F0
330
1F
100
AcDbEntity
  8
0
  6
Continuous
 62
     7
370
    25
100
AcDbLine
 10
99.4198520493
 20
80.1666626218
 30
0.0
 11
99.2570950475
 21
79.9666629615
 31
0.0
  0
LINE
  5
1F1
330
1F
100
AcDbEntity
  8
0
  6
Continuous
 62
     7
370
    25
100
AcDbLine
 10
99.2570950475
 20
79.9666629615
 30
0.0
 11
99.1608121257
 21
79.9666629615
 31
0.0
  0
LINE
  5
1F2
330
1F
100
AcDbEntity
  8
0
  6
Continuous
 62
     7
370
    25
100
AcDbLine
 10
99.2570950475
 20
93.466664243
 30
0.0
 11
99.4198520493
 21
93.2666627201
 31
0.0
  0
LINE
  5
1F3
330
1F
100
AcDbEntity
  8
0
  6
Continuous
 62
     7
370
    25
100
AcDbLine
 10
99.1608121257
 20
93.466664243
 30
0.0
 11
99.2570950475
 21
93.466664243
 31
0.0
  0
LINE
  5
1F4
330
1F
100
AcDbEntity
  8
0
  6
Continuous
 62
     7
370
    25
100
AcDbLine
 10
81.4691551786
 20
80.1666626218
 30
0.0
 11
81.6812145349
 21
79.9666629615
 31
0.0
  0
LINE
  5
1F5
330
1F
100
AcDbEntity
  8
0
  6
Continuous
 62
     7
370
    25
100
AcDbLine
 10
81.4691551786
 20
80.1666626218
 30
0.0
 11
81.4691551786
 21
93.2666627201
 31
0.0
  0
LINE
  5
1F6
330
1F
100
AcDbEntity
  8
0
  6
Continuous
 62
     7
370
    25
100
AcDbLine
 10
81.6812145349
 20
93.466664243
 30
0.0
 11
81.4691551786
 21
93.2666627201
 31
0.0
  0
LINE
  5
1F7
330
1F
100
AcDbEntity
  8
0
  6
Continuous
 62
     7
370
    25
100
AcDbLine
 10
81.6691548388
 20
93.466664243
 30
0.0
 11
81.6812145349
 21
93.466664243
 31
0.0
  0
LINE
  5
1F8
330
1F
100
AcDbEntity
  8
0
  6
Continuous
 62
     7
370
    25
100
AcDbLine
 10
81.6812145349
 20
79.9666629615
 30
0.0
 11
81.6691548388
 21
79.9666629615
 31
0.0
  0
LINE
  5
1F9
330
1F
100
AcDbEntity
  8
0
  6
Continuous
 62
     7
370
    25
100
AcDbLine
 10
99.2570950475
 20
79.9666629615
 30
0.0
 11
99.4691544037
 21
80.1666626218
 31
0.0
  0
LINE
  5
1FA
330
1F
100
AcDbEntity
  8
0
  6
Continuous
 62
     7
370
    25
100
AcDbLine
 10
99.2691547435
 20
79.9666629615
 30
0.0
 11
99.2570950475
 21
79.9666629615
 31
0.0
  0
LINE
  5
1FB
330
1F
100
AcDbEntity
  8
0
  6
Continuous
 62
     7
370
    25
100
AcDbLine
 10
99.4691544037
 20
80.1666626218
 30
0.0
 11
99.4691544037
 21
93.2666627201
 31
0.0
  0
LINE
  5
1FC
330
1F
100
AcDbEntity
  8
0
  6
Continuous
 62
     7
370
    25
100
AcDbLine
 10
99.4691544037
 20
93.2666627201
 30
0.0
 11
99.2570950475
 21
93.466664243
 31
0.0
  0
LINE
  5
1FD
330
1F
100
AcDbEntity
  8
0
  6
Continuous
 62
     7
370
    25
100
AcDbLine
 10
99.2570950475
 20
93.466664243
 30
0.0
 11
99.2691547435
 21
93.466664243
 31
0.0
  0
LINE
  5
1FE
330
1F
100
AcDbEntity
  8
0
  6
Continuous
 62
     7
370
    25
100
AcDbLine
 10
77.4691545229
 20
63.2666633907
 30
0.0
 11
77.4691545229
 21
71.2666637706
 31
0.0
  0
LINE
  5
1FF
330
1F
100
AcDbEntity
  8
0
  6
Continuous
 62
     7
370
    25
100
AcDbLine
 10
77.4691545229
 20
55.2666630107
 30
0.0
 11
77.4691545229
 21
63.2666633907
 31
0.0
  0
LINE
  5
200
330
1F
100
AcDbEntity
  8
0
  6
Continuous
 62
     7
370
    25
100
AcDbLine
 10
70.6191540521
 20
68.7166634458
 30
0.0
 11
70.6191540521
 21
57.8166633355
 31
0.0
  0
LINE
  5
201
330
1F
100
AcDbEntity
  8
0
  6
Continuous
 62
     7
370
    25
100
AcDbLine
 10
69.4691550743
 20
69.8666633549
 30
0.0
 11
69.4691550743
 21
56.6666634264
 31
0.0
  0
LINE
  5
202
330
1F
100
AcDbEntity
  8
0
  6
Continuous
 62
     7
370
    25
100
AcDbLine
 10
73.5691555601
 20
69.8666633549
 30
0.0
 11
73.5691555601
 21
56.6666634264
 31
0.0
  0
LINE
  5
203
330
1F
100
AcDbEntity
  8
0
  6
Continuous
 62
     7
370
    25
100
AcDbLine
 10
72.4191547196
 20
68.7166634458
 30
0.0
 11
72.4191547196
 21
57.8166633355
 31
0.0
  0
LINE
  5
204
330
1F
100
AcDbEntity
  8
0
  6
Continuous
 62
     7
370
    25
100
AcDbLine
 10
67.2337778669
 20
69.8666633549
 30
0.0
 11
67.2337778669
 21
56.6666634264
 31
0.0
  0
LINE
  5
205
330
1F
100
AcDbEntity
  8
0
  6
Continuous
 62
     7
370
    25
100
AcDbLine
 10
62.4691539269
 20
68.7666633609
 30
0.0
 11
62.4691539269
 21
57.7666634205
 31
0.0
  0
LINE
  5
206
330
1F
100
AcDbEntity
  8
0
  6
Continuous
 62
     7
370
    25
100
AcDbLine
 10
57.46915497
 20
63.2666633907
 30
0.0
 11
57.46915497
 21
68.4666634048
 31
0.0
  0
LINE
  5
207
330
1F
100
AcDbEntity
  8
0
  6
Continuous
 62
     7
370
    25
100
AcDbLine
 10
57.46915497
 20
58.0666633765
 30
0.0
 11
57.46915497
 21
63.2666633907
 31
0.0
  0
LINE
  5
208
330
1F
100
AcDbEntity
  8
0
  6
Continuous
 62
     1
370
    25
100
AcDbLine
 10
97.4691550072
 20
68.4611080657
 30
0.0
 11
97.4691550072
 21
71.7666638526
 31
0.0
  0
LINE
  5
209
330
1F
100
AcDbEntity
  8
0
  6
Continuous
 62
     1
370
    25
100
AcDbLine
 10
83.4691545751
 20
58.0722187157
 30
0.0
 11
83.4691545751
 21
54.7666629287
 31
0.0
  0
LINE
  5
20A
330
1F
100
AcDbEntity
  8
0
  6
Continuous
 62
     1
370
    25
100
AcDbLine
 10
83.4691545751
 20
71.7666638526
 30
0.0
 11
83.4691545751
 21
68.4611080657
 31
0.0
  0
LINE
  5
20B
330
1F
100
AcDbEntity
  8
0
  6
Continuous
 62
     1
370
    25
100
AcDbLine
 10
97.4691550072
 20
54.7666629287
 30
0.0
 11
97.4691550072
 21
58.0722187157
 31
0.0
  0
SPLINE
  5
20C
330
1F
100
AcDbEntity
  8
0
  6
Continuous
 62
     1
370
    25
100
AcDbSpline
210
0.0
220
0.0
230
1.0
 70
     8
 71
     3
 72
    32
 73
    28
 74
     0
 42
0.000000001
 43
0.00000001
 40
0.0
 40
0.0
 40
0.0
 40
0.0
 40
0.0401450221632395
 40
0.0814946536401461
 40
0.1230108409586373
 40
0.1655335799748644
 40
0.2131026898219141
 40
0.2616870022954625
 40
0.3186512825243805
 40
0.3479268726644023
 40
0.3771976361574257
 40
0.4187548088698845
 40
0.4612652034728578
 40
0.5031787625365712
 40
0.5464778243509152
 40
0.5837150066472543
 40
0.6216789014452945
 40
0.6496079967307147
 40
0.6775412832743115
 40
0.7348752080451525
 40
0.7907587104420757
 40
0.8195305303078511
 40
0.8482972711327345
 40
0.8930422563907552
 40
0.9390687309218955
 40
0.9835429324097366
 40
1.0
 40
1.0
 40
1.0
 40
1.0
 10
96.86915462947721
 20
71.7666638525994
 30
0.0
 10
96.85783596441317
 20
71.75904514925885
 30
0.0
 10
96.83485900140862
 20
71.74357913239128
 30
0.0
 10
96.65018229420711
 20
71.6203590199039
 30
0.0
 10
96.35960230382511
 20
71.43033595252453
 30
0.0
 10
95.94866234192448
 20
71.16980094752839
 30
0.0
 10
95.41603021443836
 20
70.8479964409443
 30
0.0
 10
94.72758561444958
 20
70.4621369622624
 30
0.0
 10
94.03562962011256
 20
70.11796797991374
 30
0.0
 10
93.38971102498927
 20
69.84392663492564
 30
0.0
 10
92.79952499154209
 20
69.62684020059763
 30
0.0
 10
92.09163224229002
 20
69.42129046908487
 30
0.0
 10
91.26153525477466
 20
69.2718532762141
 30
0.0
 10
90.39474036243838
 20
69.22427027392202
 30
0.0
 10
89.5656626017408
 20
69.28773878301595
 30
0.0
 10
88.78992030172347
 20
69.43796425632193
 30
0.0
 10
88.14660359584106
 20
69.62537308624192
 30
0.0
 10
87.59175200157115
 20
69.82730765412524
 30
0.0
 10
86.95502267794986
 20
70.09373918695088
 30
0.0
 10
86.22492157666605
 20
70.45316566066542
 30
0.0
 10
85.58604331357769
 20
70.81213233502507
 30
0.0
 10
85.14243385537735
 20
71.07727531185596
 30
0.0
 10
84.78750409762216
 20
71.297023759446
 30
0.0
 10
84.44418140047681
 20
71.51757381718704
 30
0.0
 10
84.18752406167326
 20
71.6871904900513
 30
0.0
 10
84.06444628157239
 20
71.76981995659936
 30
0.0
 10
84.08207295464824
 20
71.75799460283206
 30
0.0
 10
84.08683378360504
 20
71.75480066564394
 30
0.0
  0
SPLINE
  5
20D
330
1F
100
AcDbEntity
  8
0
  6
Continuous
 62
     1
370
    25
100
AcDbSpline
210
0.0
220
0.0
230
1.0
 70
     8
 71
     3
 72
    33
 73
    29
 74
     0
 42
0.000000001
 43
0.00000001
 40
0.0
 40
0.0
 40
0.0
 40
0.0
 40
0.0148211240469429
 40
0.061906063969509
 40
0.1074359711031479
 40
0.1543276768856095
 40
0.1825886223515991
 40
0.2108538897730015
 40
0.2399561671799298
 40
0.2690606064953306
 40
0.3246391278734068
 40
0.3531838695855392
 40
0.3817220214769791
 40
0.4180177569521428
 40
0.4550555140468025
 40
0.4953465722858043
 40
0.5372537212750658
 40
0.5776250139646001
 40
0.6191776771117481
 40
0.6475263589738919
 40
0.6758813295767765
 40
0.7341827319504398
 40
0.7823042633568378
 40
0.831370735690596
 40
0.8736529247897509
 40
0.9168721031320799
 40
0.9578509921635352
 40
1.0
 40
1.0
 40
1.0
 40
1.0
 10
84.58365991822713
 20
72.2554843383701
 30
0.0
 10
84.57971634052039
 20
72.25852346499862
 30
0.0
 10
84.56324448771025
 20
72.27121753374001
 30
0.0
 10
84.67401773395449
 20
72.1857644160863
 30
0.0
 10
84.91144914505259
 20
72.00552574174499
 30
0.0
 10
85.22427220764628
 20
71.77452655248396
 30
0.0
 10
85.54938229394882
 20
71.54323804515434
 30
0.0
 10
85.85262557288358
 20
71.33470215813627
 30
0.0
 10
86.19076100919752
 20
71.11176356471638
 30
0.0
 10
86.67543938027805
 20
70.80920758739698
 30
0.0
 10
87.21353883259754
 20
70.50414357399347
 30
0.0
 10
87.80006078564654
 20
70.2203593526676
 30
0.0
 10
88.31533337049022
 20
70.00421739592642
 30
0.0
 10
88.91282886783668
 20
69.80335186131015
 30
0.0
 10
89.61891908255085
 20
69.64486504467739
 30
0.0
 10
90.39029239561354
 20
69.57476852556691
 30
0.0
 10
91.18714157551408
 20
69.62306947913574
 30
0.0
 10
91.96308151779176
 20
69.78277114038283
 30
0.0
 10
92.61197720032541
 20
69.99887321889459
 30
0.0
 10
93.15302474051256
 20
70.22714035911861
 30
0.0
 10
93.75072734192945
 20
70.51735567274778
 30
0.0
 10
94.38807333653216
 20
70.88125741405563
 30
0.0
 10
95.02747089198267
 20
71.29252400400391
 30
0.0
 10
95.51551355161052
 20
71.63111220076881
 30
0.0
 10
95.8973353144397
 20
71.90899549643338
 30
0.0
 10
96.16365439582263
 20
72.10900407107935
 30
0.0
 10
96.3364307910362
 20
72.24136042368485
 30
0.0
 10
96.35814505489071
 20
72.25815003249703
 30
0.0
 10
96.36915501318211
 20
72.2666630032332
 30
0.0
  0
LINE
  5
20E
330
1F
100
AcDbEntity
  8
0
  6
Continuous
 62
     1
370
    25
100
AcDbLine
 10
57.769156323
 20
63.2666633907
 30
0.0
 11
57.769156323
 21
57.7666634205
 31
0.0
  0
LINE
  5
20F
330
1F
100
AcDbEntity
  8
0
  6
Continuous
 62
     1
370
    25
100
AcDbLine
 10
57.769156323
 20
68.7666633609
 30
0.0
 11
57.769156323
 21
63.2666633907
 31
0.0
  0
LINE
  5
210
330
1F
100
AcDbEntity
  8
0
  6
Continuous
 62
     7
370
     0
100
AcDbLine
 10
109.7180283894
 20
55.8330003604
 30
0.0
 11
100.9691547912
 21
55.5595980605
 31
0.0
  0
LINE
  5
211
330
1F
100
AcDbEntity
  8
0
  6
Continuous
 62
     7
370
     0
100
AcDbLine
 10
109.7180283894
 20
70.7003264209
 30
0.0
 11
100.9691547912
 21
70.9737287209
 31
0.0
  0
LINE
  5
212
330
1F
100
AcDbEntity
  8
0
  6
Continuous
 62
     7
370
     0
100
AcDbLine
 10
100.9691547912
 20
71.6961008907
 30
0.0
 11
100.9691547912
 21
54.8372258907
 31
0.0
  0
LINE
  5
213
330
1F
100
AcDbEntity
  8
0
  6
Continuous
 62
     7
370
    25
100
AcDbLine
 10
80.71915459
 20
109.5831378157
 30
0.0
 11
82.5871883716
 21
109.5831378157
 31
0.0
  0
LINE
  5
214
330
1F
100
AcDbEntity
  8
0
  6
Continuous
 62
     7
370
    25
100
AcDbLine
 10
82.5871883716
 20
129.5831373686
 30
0.0
 11
80.71915459
 21
129.5831373686
 31
0.0
  0
LINE
  5
215
330
1F
100
AcDbEntity
  8
0
  6
Continuous
 62
     7
370
    25
100
AcDbLine
 10
99.9691544857
 20
129.5831373686
 30
0.0
 11
98.3511212107
 21
129.5831373686
 31
0.0
  0
LINE
  5
216
330
1F
100
AcDbEntity
  8
0
  6
Continuous
 62
     7
370
    25
100
AcDbLine
 10
98.3511212107
 20
109.5831378157
 30
0.0
 11
99.9691544857
 21
109.5831378157
 31
0.0
  0
ARC
  5
217
330
1F
100
AcDbEntity
  8
0
  6
Continuous
 62
     7
370
    25
100
AcDbCircle
 10
81.4691547912
 20
110.5831375921
 30
0.0
 40
1.500000000000004
100
AcDbArc
 50
318.1896851042
 51
0.0
  0
ARC
  5
218
330
1F
100
AcDbEntity
  8
0
  6
Continuous
 62
     7
370
    25
100
AcDbCircle
 10
81.4691547912
 20
128.5831375921
 30
0.0
 40
1.500000000000004
100
AcDbArc
 50
0.0
 51
41.8103148958
  0
ARC
  5
219
330
1F
100
AcDbEntity
  8
0
  6
Continuous
 62
     7
370
    25
100
AcDbCircle
 10
99.4691547912
 20
128.5831375921
 30
0.0
 40
1.5
100
AcDbArc
 50
138.1896851042
 51
180.0
  0
ARC
  5
21A
330
1F
100
AcDbEntity
  8
0
  6
Continuous
 62
     7
370
    25
100
AcDbCircle
 10
99.4691547912
 20
110.5831375921
 30
0.0
 40
1.5
100
AcDbArc
 50
180.0
 51
221.8103148958
  0
LINE
  5
21B
330
1F
100
AcDbEntity
  8
0
  6
Continuous
 62
     7
370
    25
100
AcDbLine
 10
99.9691544857
 20
109.5831378157
 30
0.0
 11
100.4691545676
 21
110.0831378976
 31
0.0
  0
LINE
  5
21C
330
1F
100
AcDbEntity
  8
0
  6
Continuous
 62
     7
370
    25
100
AcDbLine
 10
100.4691545676
 20
129.0831372867
 30
0.0
 11
99.9691544857
 21
129.5831373686
 31
0.0
  0
LINE
  5
21D
330
1F
100
AcDbEntity
  8
0
  6
Continuous
 62
     7
370
    25
100
AcDbLine
 10
80.71915459
 20
129.5831373686
 30
0.0
 11
80.4691550147
 21
129.3331377933
 31
0.0
  0
LINE
  5
21E
330
1F
100
AcDbEntity
  8
0
  6
Continuous
 62
     7
370
    25
100
AcDbLine
 10
80.4691550147
 20
109.833137391
 30
0.0
 11
80.71915459
 21
109.5831378157
 31
0.0
  0
LINE
  5
21F
330
1F
100
AcDbEntity
  8
0
  6
Continuous
 62
     7
370
    25
100
AcDbLine
 10
100.4691545676
 20
111.1380749176
 30
0.0
 11
108.3952461194
 21
111.3857657442
 31
0.0
  0
LINE
  5
220
330
1F
100
AcDbEntity
  8
0
  6
Continuous
 62
     7
370
    25
100
AcDbLine
 10
108.3952461194
 20
127.7805094401
 30
0.0
 11
100.4691545676
 21
128.0282002667
 31
0.0
  0
LINE
  5
221
330
1F
100
AcDbEntity
  8
0
  6
Continuous
 62
     7
370
    25
100
AcDbLine
 10
108.3952461194
 20
111.3857657442
 30
0.0
 11
110.4691543441
 21
112.5831373761
 31
0.0
  0
LINE
  5
222
330
1F
100
AcDbEntity
  8
0
  6
Continuous
 62
     7
370
    25
100
AcDbLine
 10
110.4691543441
 20
126.5831378082
 30
0.0
 11
108.3952461194
 21
127.7805094401
 31
0.0
  0
LINE
  5
223
330
1F
100
AcDbEntity
  8
0
  6
Continuous
 62
     7
370
    25
100
AcDbLine
 10
80.4691550147
 20
127.5831379721
 30
0.0
 11
77.4691545229
 21
127.5831379721
 31
0.0
  0
LINE
  5
224
330
1F
100
AcDbEntity
  8
0
  6
Continuous
 62
     7
370
    25
100
AcDbLine
 10
77.4691545229
 20
111.5831372122
 30
0.0
 11
80.4691550147
 21
111.5831372122
 31
0.0
  0
LINE
  5
225
330
1F
100
AcDbEntity
  8
0
  6
Continuous
 62
     7
370
    25
100
AcDbLine
 10
77.4691545229
 20
126.1831375564
 30
0.0
 11
73.5691555601
 21
126.1831375564
 31
0.0
  0
LINE
  5
226
330
1F
100
AcDbEntity
  8
0
  6
Continuous
 62
     7
370
    25
100
AcDbLine
 10
73.5691555601
 20
112.9831376279
 30
0.0
 11
77.4691545229
 21
112.9831376279
 31
0.0
  0
LINE
  5
227
330
1F
100
AcDbEntity
  8
0
  6
Continuous
 62
     7
370
    25
100
AcDbLine
 10
73.5691555601
 20
126.1831375564
 30
0.0
 11
72.4191547196
 21
125.0331376473
 31
0.0
  0
LINE
  5
228
330
1F
100
AcDbEntity
  8
0
  6
Continuous
 62
     7
370
    25
100
AcDbLine
 10
72.4191547196
 20
114.133137537
 30
0.0
 11
73.5691555601
 21
112.9831376279
 31
0.0
  0
LINE
  5
229
330
1F
100
AcDbEntity
  8
0
  6
Continuous
 62
     7
370
    25
100
AcDbLine
 10
69.4691550743
 20
126.1831375564
 30
0.0
 11
67.2337778669
 21
126.1831375564
 31
0.0
  0
LINE
  5
22A
330
1F
100
AcDbEntity
  8
0
  6
Continuous
 62
     7
370
    25
100
AcDbLine
 10
67.2337778669
 20
112.9831376279
 30
0.0
 11
69.4691550743
 21
112.9831376279
 31
0.0
  0
LINE
  5
22B
330
1F
100
AcDbEntity
  8
0
  6
Continuous
 62
     7
370
    25
100
AcDbLine
 10
69.4691550743
 20
112.9831376279
 30
0.0
 11
70.6191540521
 21
114.133137537
 31
0.0
  0
LINE
  5
22C
330
1F
100
AcDbEntity
  8
0
  6
Continuous
 62
     7
370
    25
100
AcDbLine
 10
70.6191540521
 20
125.0331376473
 30
0.0
 11
69.4691550743
 21
126.1831375564
 31
0.0
  0
LINE
  5
22D
330
1F
100
AcDbEntity
  8
0
  6
Continuous
 62
     7
370
    25
100
AcDbLine
 10
67.2337778669
 20
126.1831375564
 30
0.0
 11
62.4691539269
 21
125.0831375623
 31
0.0
  0
LINE
  5
22E
330
1F
100
AcDbEntity
  8
0
  6
Continuous
 62
     7
370
    25
100
AcDbLine
 10
62.4691539269
 20
114.0831376219
 30
0.0
 11
67.2337778669
 21
112.9831376279
 31
0.0
  0
ARC
  5
22F
330
1F
100
AcDbEntity
  8
0
  6
Continuous
 62
     7
370
    25
100
AcDbCircle
 10
57.7691547912
 20
114.3831375921
 30
0.0
 40
0.3000000000000114
100
AcDbArc
 50
180.0
 51
270.0
  0
ARC
  5
230
330
1F
100
AcDbEntity
  8
0
  6
Continuous
 62
     7
370
    25
100
AcDbCircle
 10
57.7691547912
 20
124.7831375921
 30
0.0
 40
0.3000000000000043
100
AcDbArc
 50
90.0
 51
180.0
  0
LINE
  5
231
330
1F
100
AcDbEntity
  8
0
  6
Continuous
 62
     7
370
    25
100
AcDbLine
 10
62.4691539269
 20
125.0831375623
 30
0.0
 11
57.769156323
 21
125.0831375623
 31
0.0
  0
LINE
  5
232
330
1F
100
AcDbEntity
  8
0
  6
Continuous
 62
     7
370
    25
100
AcDbLine
 10
57.769156323
 20
114.0831376219
 30
0.0
 11
62.4691539269
 21
114.0831376219
 31
0.0
  0
LINE
  5
233
330
1F
100
AcDbEntity
  8
0
  6
Continuous
 62
     7
370
    25
100
AcDbLine
 10
72.4191547196
 20
125.0331376473
 30
0.0
 11
70.6191540521
 21
125.0331376473
 31
0.0
  0
LINE
  5
234
330
1F
100
AcDbEntity
  8
0
  6
Continuous
 62
     7
370
    25
100
AcDbLine
 10
70.6191540521
 20
114.133137537
 30
0.0
 11
72.4191547196
 21
114.133137537
 31
0.0
  0
LINE
  5
235
330
1F
100
AcDbEntity
  8
0
  6
Continuous
 62
     7
370
    25
100
AcDbLine
 10
82.5871883716
 20
129.5831373686
 30
0.0
 11
82.5871883716
 21
123.5477093401
 31
0.0
  0
LINE
  5
236
330
1F
100
AcDbEntity
  8
0
  6
Continuous
 62
     7
370
    25
100
AcDbLine
 10
82.5871883716
 20
115.6203572432
 30
0.0
 11
82.5871883716
 21
109.5831378157
 31
0.0
  0
LINE
  5
237
330
1F
100
AcDbEntity
  8
0
  6
Continuous
 62
     7
370
    25
100
AcDbLine
 10
80.71915459
 20
129.5831373686
 30
0.0
 11
80.71915459
 21
109.5831378157
 31
0.0
  0
LINE
  5
238
330
1F
100
AcDbEntity
  8
0
  6
Continuous
 62
     7
370
    25
100
AcDbLine
 10
98.3511212107
 20
109.5831378157
 30
0.0
 11
98.3511212107
 21
115.6185658442
 31
0.0
  0
LINE
  5
239
330
1F
100
AcDbEntity
  8
0
  6
Continuous
 62
     7
370
    25
100
AcDbLine
 10
98.3511212107
 20
123.5459179411
 30
0.0
 11
98.3511212107
 21
129.5831373686
 31
0.0
  0
LINE
  5
23A
330
1F
100
AcDbEntity
  8
0
  6
Continuous
 62
     7
370
    25
100
AcDbLine
 10
99.9691544857
 20
109.5831378157
 30
0.0
 11
99.9691544857
 21
129.5831373686
 31
0.0
  0
SPLINE
  5
23B
330
1F
100
AcDbEntity
  8
0
  6
Continuous
 62
     7
370
    25
100
AcDbSpline
210
0.0
220
0.0
230
1.0
 70
     8
 71
     3
 72
    12
 73
     8
 74
     0
 42
0.000000001
 43
0.00000001
 40
0.0
 40
0.0
 40
0.0
 40
0.0
 40
0.2500000000000001
 40
0.2500000000000001
 40
0.5000000000000001
 40
0.5000000000000001
 40
1.0
 40
1.0
 40
1.0
 40
1.0
 10
82.74006872405276
 20
128.3455987718874
 30
0.0
 10
82.8211853261574
 20
128.3801039097475
 30
0.0
 10
82.86821524932571
 20
128.412948981048
 30
0.0
 10
82.93107885085756
 20
128.4713015092946
 30
0.0
 10
82.94652852177475
 20
128.4969558729233
 30
0.0
 10
82.97371218615403
 20
128.560055125663
 30
0.0
 10
82.96915479115479
 20
128.5831375921376
 30
0.0
 10
82.96915479115479
 20
128.5831375921376
 30
0.0
  0
SPLINE
  5
23C
330
1F
100
AcDbEntity
  8
0
  6
Continuous
 62
     7
370
    25
100
AcDbSpline
210
0.0
220
0.0
230
1.0
 70
     8
 71
     3
 72
    14
 73
    10
 74
     0
 42
0.000000001
 43
0.00000001
 40
0.0
 40
0.0
 40
0.0
 40
0.0
 40
0.25
 40
0.25
 40
0.5
 40
0.5
 40
0.75
 40
0.75
 40
1.0
 40
1.0
 40
1.0
 40
1.0
 10
82.74006872405276
 20
128.3455987718874
 30
0.0
 10
82.71254773630768
 20
128.3338919763419
 30
0.0
 10
82.69262781447128
 20
128.3018500232603
 30
0.0
 10
82.67696077265322
 20
128.2025262725953
 30
0.0
 10
82.68145260446553
 20
128.1347028298146
 30
0.0
 10
82.71270894974911
 20
127.9722612124017
 30
0.0
 10
82.73908153313089
 20
127.877815815666
 30
0.0
 10
82.80191808427517
 20
127.6695867080694
 30
0.0
 10
82.83795766313527
 20
127.5569883151863
 30
0.0
 10
82.87195366650089
 20
127.4372319215862
 30
0.0
  0
SPLINE
  5
23D
330
1F
100
AcDbEntity
  8
0
  6
Continuous
 62
     7
370
    25
100
AcDbSpline
210
0.0
220
0.0
230
1.0
 70
     8
 71
     3
 72
     8
 73
     4
 74
     0
 42
0.000000001
 43
0.00000001
 40
0.0
 40
0.0
 40
0.0
 40
0.0
 40
1.0
 40
1.0
 40
1.0
 40
1.0
 10
82.96915479115479
 20
126.7070410165251
 30
0.0
 10
82.96915479115479
 20
126.9544704733201
 30
0.0
 10
82.93979008407693
 20
127.1982672222275
 30
0.0
 10
82.87195366650089
 20
127.4372319215862
 30
0.0
  0
LINE
  5
23E
330
1F
100
AcDbEntity
  8
0
  6
Continuous
 62
     7
370
    25
100
AcDbLine
 10
82.9691549588
 20
126.7070409635
 30
0.0
 11
82.9691549588
 21
124.3037150966
 31
0.0
  0
LINE
  5
23F
330
1F
100
AcDbEntity
  8
0
  6
Continuous
 62
     7
370
    25
100
AcDbLine
 10
82.9691549588
 20
114.8716921712
 30
0.0
 11
82.9691549588
 21
112.4592342207
 31
0.0
  0
SPLINE
  5
240
330
1F
100
AcDbEntity
  8
0
  6
Continuous
 62
     7
370
    25
100
AcDbSpline
210
0.0
220
0.0
230
1.0
 70
     8
 71
     3
 72
     8
 73
     4
 74
     0
 42
0.000000001
 43
0.00000001
 40
0.0
 40
0.0
 40
0.0
 40
0.0
 40
1.0
 40
1.0
 40
1.0
 40
1.0
 10
82.87195366650089
 20
111.729043262689
 30
0.0
 10
82.93979008407693
 20
111.9680079620478
 30
0.0
 10
82.96915479115479
 20
112.2118047109551
 30
0.0
 10
82.96915479115479
 20
112.4592341677501
 30
0.0
  0
SPLINE
  5
241
330
1F
100
AcDbEntity
  8
0
  6
Continuous
 62
     7
370
    25
100
AcDbSpline
210
0.0
220
0.0
230
1.0
 70
     8
 71
     3
 72
    12
 73
     8
 74
     0
 42
0.000000001
 43
0.00000001
 40
0.0
 40
0.0
 40
0.0
 40
0.0
 40
0.4999999999999992
 40
0.4999999999999992
 40
0.7499999999999996
 40
0.7499999999999996
 40
1.0
 40
1.0
 40
1.0
 40
1.0
 10
82.87195366650089
 20
111.729043262689
 30
0.0
 10
82.80408390649107
 20
111.489961109241
 30
0.0
 10
82.72804935523733
 20
111.2741910020641
 30
0.0
 10
82.68140475686033
 20
111.0310964093602
 30
0.0
 10
82.67696576033768
 20
110.9634311338841
 30
0.0
 10
82.69269637413053
 20
110.8642780177275
 30
0.0
 10
82.7125768040729
 20
110.8323708431742
 30
0.0
 10
82.74006872405276
 20
110.8206764123878
 30
0.0
  0
SPLINE
  5
242
330
1F
100
AcDbEntity
  8
0
  6
Continuous
 62
     7
370
    25
100
AcDbSpline
210
0.0
220
0.0
230
1.0
 70
     8
 71
     3
 72
    12
 73
     8
 74
     0
 42
0.000000001
 43
0.00000001
 40
0.0
 40
0.0
 40
0.0
 40
0.0
 40
0.4999999999999998
 40
0.4999999999999998
 40
0.7499999999999999
 40
0.7499999999999999
 40
1.0
 40
1.0
 40
1.0
 40
1.0
 10
82.96915479115479
 20
110.5831375921376
 30
0.0
 10
82.96915479115479
 20
110.5831375921376
 30
0.0
 10
82.97371218615403
 20
110.6062200586123
 30
0.0
 10
82.94652852177475
 20
110.669319311352
 30
0.0
 10
82.93107885085756
 20
110.6949736749806
 30
0.0
 10
82.86821524932571
 20
110.7533262032273
 30
0.0
 10
82.8211853261574
 20
110.7861712745277
 30
0.0
 10
82.74006872405276
 20
110.8206764123878
 30
0.0
  0
SPLINE
  5
243
330
1F
100
AcDbEntity
  8
0
  6
Continuous
 62
     7
370
    25
100
AcDbSpline
210
0.0
220
0.0
230
1.0
 70
     8
 71
     3
 72
    12
 73
     8
 74
     0
 42
0.000000001
 43
0.00000001
 40
0.0
 40
0.0
 40
0.0
 40
0.0
 40
0.25
 40
0.25
 40
0.5
 40
0.5
 40
1.0
 40
1.0
 40
1.0
 40
1.0
 10
98.19824085825684
 20
110.8206764123878
 30
0.0
 10
98.1171242561522
 20
110.7861712745277
 30
0.0
 10
98.07009433298389
 20
110.7533262032273
 30
0.0
 10
98.00723073145204
 20
110.6949736749806
 30
0.0
 10
97.99178106053485
 20
110.669319311352
 30
0.0
 10
97.96459739615557
 20
110.6062200586123
 30
0.0
 10
97.96915479115479
 20
110.5831375921376
 30
0.0
 10
97.96915479115479
 20
110.5831375921376
 30
0.0
  0
SPLINE
  5
244
330
1F
100
AcDbEntity
  8
0
  6
Continuous
 62
     7
370
    25
100
AcDbSpline
210
0.0
220
0.0
230
1.0
 70
     8
 71
     3
 72
    14
 73
    10
 74
     0
 42
0.000000001
 43
0.00000001
 40
0.0
 40
0.0
 40
0.0
 40
0.0
 40
0.25
 40
0.25
 40
0.5
 40
0.5
 40
0.75
 40
0.75
 40
1.0
 40
1.0
 40
1.0
 40
1.0
 10
98.19824085825684
 20
110.8206764123878
 30
0.0
 10
98.22576184600192
 20
110.8323832079334
 30
0.0
 10
98.24568176783832
 20
110.8644251610149
 30
0.0
 10
98.26134880965638
 20
110.96374891168
 30
0.0
 10
98.25685697784407
 20
111.0315723544607
 30
0.0
 10
98.22560063256049
 20
111.1940139718735
 30
0.0
 10
98.19922804917871
 20
111.2884593686093
 30
0.0
 10
98.13639149803441
 20
111.4966884762058
 30
0.0
 10
98.10035191917433
 20
111.609286869089
 30
0.0
 10
98.06635591580871
 20
111.729043262689
 30
0.0
  0
SPLINE
  5
245
330
1F
100
AcDbEntity
  8
0
  6
Continuous
 62
     7
370
    25
100
AcDbSpline
210
0.0
220
0.0
230
1.0
 70
     8
 71
     3
 72
     8
 73
     4
 74
     0
 42
0.000000001
 43
0.00000001
 40
0.0
 40
0.0
 40
0.0
 40
0.0
 40
1.0
 40
1.0
 40
1.0
 40
1.0
 10
97.96915479115479
 20
112.4592341677501
 30
0.0
 10
97.96915479115479
 20
112.2118047109551
 30
0.0
 10
97.99851949823265
 20
111.9680079620478
 30
0.0
 10
98.06635591580873
 20
111.729043262689
 30
0.0
  0
LINE
  5
246
330
1F
100
AcDbEntity
  8
0
  6
Continuous
 62
     7
370
    25
100
AcDbLine
 10
97.9691546235
 20
112.4592342207
 30
0.0
 11
97.9691546235
 21
114.8625600877
 31
0.0
  0
LINE
  5
247
330
1F
100
AcDbEntity
  8
0
  6
Continuous
 62
     7
370
    25
100
AcDbLine
 10
97.9691546235
 20
124.2945830131
 30
0.0
 11
97.9691546235
 21
126.7070409635
 31
0.0
  0
SPLINE
  5
248
330
1F
100
AcDbEntity
  8
0
  6
Continuous
 62
     7
370
    25
100
AcDbSpline
210
0.0
220
0.0
230
1.0
 70
     8
 71
     3
 72
     8
 73
     4
 74
     0
 42
0.000000001
 43
0.00000001
 40
0.0
 40
0.0
 40
0.0
 40
0.0
 40
1.0
 40
1.0
 40
1.0
 40
1.0
 10
98.06635591580873
 20
127.4372319215862
 30
0.0
 10
97.99851949823265
 20
127.1982672222275
 30
0.0
 10
97.96915479115479
 20
126.9544704733201
 30
0.0
 10
97.96915479115479
 20
126.7070410165251
 30
0.0
  0
SPLINE
  5
249
330
1F
100
AcDbEntity
  8
0
  6
Continuous
 62
     7
370
    25
100
AcDbSpline
210
0.0
220
0.0
230
1.0
 70
     8
 71
     3
 72
    12
 73
     8
 74
     0
 42
0.000000001
 43
0.00000001
 40
0.0
 40
0.0
 40
0.0
 40
0.0
 40
0.4999999999999992
 40
0.4999999999999992
 40
0.7499999999999996
 40
0.7499999999999996
 40
1.0
 40
1.0
 40
1.0
 40
1.0
 10
98.06635591580873
 20
127.4372319215862
 30
0.0
 10
98.13422567581851
 20
127.6763140750343
 30
0.0
 10
98.21026022707225
 20
127.8920841822111
 30
0.0
 10
98.25690482544927
 20
128.135178774915
 30
0.0
 10
98.2613438219719
 20
128.2028440503912
 30
0.0
 10
98.24561320817907
 20
128.3019971665478
 30
0.0
 10
98.22573277823669
 20
128.333904341101
 30
0.0
 10
98.19824085825684
 20
128.3455987718874
 30
0.0
  0
SPLINE
  5
24A
330
1F
100
AcDbEntity
  8
0
  6
Continuous
 62
     7
370
    25
100
AcDbSpline
210
0.0
220
0.0
230
1.0
 70
     8
 71
     3
 72
    12
 73
     8
 74
     0
 42
0.000000001
 43
0.00000001
 40
0.0
 40
0.0
 40
0.0
 40
0.0
 40
0.5000000000000002
 40
0.5000000000000002
 40
0.7500000000000001
 40
0.7500000000000001
 40
1.0
 40
1.0
 40
1.0
 40
1.0
 10
97.96915479115479
 20
128.5831375921376
 30
0.0
 10
97.96915479115479
 20
128.5831375921376
 30
0.0
 10
97.96459739615557
 20
128.560055125663
 30
0.0
 10
97.99178106053485
 20
128.4969558729233
 30
0.0
 10
98.00723073145204
 20
128.4713015092946
 30
0.0
 10
98.07009433298387
 20
128.412948981048
 30
0.0
 10
98.1171242561522
 20
128.3801039097475
 30
0.0
 10
98.19824085825684
 20
128.3455987718874
 30
0.0
  0
LINE
  5
24B
330
1F
100
AcDbEntity
  8
0
  6
Continuous
 62
     7
370
    25
100
AcDbLine
 10
100.4691545676
 20
129.0831372867
 30
0.0
 11
100.4691545676
 21
110.0831378976
 31
0.0
  0
LINE
  5
24C
330
1F
100
AcDbEntity
  8
0
  6
Continuous
 62
     7
370
    25
100
AcDbLine
 10
80.4691550147
 20
109.833137391
 30
0.0
 11
80.4691550147
 21
129.3331377933
 31
0.0
  0
ARC
  5
24D
330
1F
100
AcDbEntity
  8
0
  6
Continuous
 62
     7
370
    25
100
AcDbCircle
 10
97.5158370258
 20
126.7660164481
 30
0.0
 40
0.4571377824698555
100
AcDbArc
 50
264.1388497305
 51
352.5875946393
  0
ARC
  5
24E
330
1F
100
AcDbEntity
  8
0
  6
Continuous
 62
     7
370
    25
100
AcDbCircle
 10
97.5158370258
 20
112.4002587362
 30
0.0
 40
0.4571377824698537
100
AcDbArc
 50
7.4124053607
 51
95.8611502695
  0
ARC
  5
24F
330
1F
100
AcDbEntity
  8
0
  6
Continuous
 62
     7
370
    25
100
AcDbCircle
 10
83.4224725565
 20
126.7660164481
 30
0.0
 40
0.4571377824698478
100
AcDbArc
 50
187.4124053607
 51
275.8611502695
  0
ARC
  5
250
330
1F
100
AcDbEntity
  8
0
  6
Continuous
 62
     7
370
    25
100
AcDbCircle
 10
83.4224725565
 20
112.4002587362
 30
0.0
 40
0.4571377824698337
100
AcDbArc
 50
84.1388497305
 51
172.5875946393
  0
LINE
  5
251
330
1F
100
AcDbEntity
  8
0
  6
Continuous
 62
     7
370
    25
100
AcDbLine
 10
108.3952461194
 20
127.7805094401
 30
0.0
 11
108.3952461194
 21
111.3857657442
 31
0.0
  0
LINE
  5
252
330
1F
100
AcDbEntity
  8
0
  6
Continuous
 62
     7
370
    25
100
AcDbLine
 10
110.4691543441
 20
126.5831378082
 30
0.0
 11
110.4691543441
 21
112.5831373761
 31
0.0
  0
LWPOLYLINE
  5
253
330
1F
100
AcDbEntity
  8
0
  6
Continuous
 62
     7
370
    25
100
AcDbPolyline
 90
        9
 70
   128
 43
0.0
 10
82.871953753
 20
127.437232321
 10
82.8950859431
 20
127.4444500709
 10
82.9311979759
 20
127.4557181427
 10
82.97923606
 20
127.4707077796
 10
83.0377971578
 20
127.4889803285
 10
83.1051704299
 20
127.510003073
 10
83.1793884572
 20
127.5331613401
 10
83.2582840521
 20
127.5577789897
 10
83.3395531226
 20
127.5831379721
  0
SPLINE
  5
254
330
1F
100
AcDbEntity
  8
0
  6
Continuous
 62
     7
370
    25
100
AcDbSpline
210
0.0
220
0.0
230
1.0
 70
     8
 71
     3
 72
     8
 73
     4
 74
     0
 42
0.000000001
 43
0.00000001
 40
0.0
 40
0.0
 40
0.0
 40
0.0
 40
1.0
 40
1.0
 40
1.0
 40
1.0
 10
83.33955329161623
 20
127.5831375921376
 30
0.0
 10
83.42856198700466
 20
127.2978818345078
 30
0.0
 10
83.46915479115479
 20
127.0054638846259
 30
0.0
 10
83.46915479115479
 20
126.7070410165251
 30
0.0
  0
LINE
  5
255
330
1F
100
AcDbEntity
  8
0
  6
Continuous
 62
     7
370
    25
100
AcDbLine
 10
82.9691549588
 20
126.7070409635
 30
0.0
 11
83.4691545751
 21
126.7070409635
 31
0.0
  0
SPLINE
  5
256
330
1F
100
AcDbEntity
  8
0
  6
Continuous
 62
     7
370
    25
100
AcDbSpline
210
0.0
220
0.0
230
1.0
 70
     8
 71
     3
 72
     8
 73
     4
 74
     0
 42
0.000000001
 43
0.00000001
 40
0.0
 40
0.0
 40
0.0
 40
0.0
 40
1.0
 40
1.0
 40
1.0
 40
1.0
 10
97.46915479115479
 20
126.7070410165251
 30
0.0
 10
97.46915479115479
 20
127.0054638846259
 30
0.0
 10
97.50974759530496
 20
127.2978818345078
 30
0.0
 10
97.59875629069337
 20
127.5831375921376
 30
0.0
  0
LWPOLYLINE
  5
257
330
1F
100
AcDbEntity
  8
0
  6
Continuous
 62
     7
370
    25
100
AcDbPolyline
 90
        9
 70
   128
 43
0.0
 10
97.5987564597
 20
127.5831379721
 10
97.6800255302
 20
127.5577789897
 10
97.7589211252
 20
127.5331613401
 10
97.8331391524
 20
127.510003073
 10
97.9005124245
 20
127.4889803285
 10
97.9590735223
 20
127.4707077796
 10
98.0071116064
 20
127.4557181427
 10
98.0432236392
 20
127.4444500709
 10
98.0663558293
 20
127.437232321
  0
LINE
  5
258
330
1F
100
AcDbEntity
  8
0
  6
Continuous
 62
     7
370
    25
100
AcDbLine
 10
97.4691550072
 20
126.7070409635
 30
0.0
 11
97.9691546235
 21
126.7070409635
 31
0.0
  0
SPLINE
  5
259
330
1F
100
AcDbEntity
  8
0
  6
Continuous
 62
     7
370
    25
100
AcDbSpline
210
0.0
220
0.0
230
1.0
 70
     8
 71
     3
 72
     8
 73
     4
 74
     0
 42
0.000000001
 43
0.00000001
 40
0.0
 40
0.0
 40
0.0
 40
0.0
 40
1.0
 40
1.0
 40
1.0
 40
1.0
 10
83.46915479115479
 20
112.4592341677501
 30
0.0
 10
83.46915479115479
 20
112.1608112996494
 30
0.0
 10
83.42856198700466
 20
111.8683933497674
 30
0.0
 10
83.33955329161624
 20
111.5831375921376
 30
0.0
  0
LWPOLYLINE
  5
25A
330
1F
100
AcDbEntity
  8
0
  6
Continuous
 62
     7
370
    25
100
AcDbPolyline
 90
        9
 70
   128
 43
0.0
 10
83.3395531226
 20
111.5831372122
 10
83.2582840521
 20
111.6084961945
 10
83.1793884572
 20
111.6331138442
 10
83.1051704299
 20
111.6562721113
 10
83.0377971578
 20
111.6772948558
 10
82.97923606
 20
111.6955674047
 10
82.9311979759
 20
111.7105570415
 10
82.8950859431
 20
111.7218251134
 10
82.871953753
 20
111.7290428633
  0
LINE
  5
25B
330
1F
100
AcDbEntity
  8
0
  6
Continuous
 62
     7
370
    25
100
AcDbLine
 10
82.9691549588
 20
112.4592342207
 30
0.0
 11
83.4691545751
 21
112.4592342207
 31
0.0
  0
LWPOLYLINE
  5
25C
330
1F
100
AcDbEntity
  8
0
  6
Continuous
 62
     7
370
    25
100
AcDbPolyline
 90
        9
 70
   128
 43
0.0
 10
98.0663558293
 20
111.7290428633
 10
98.0432236392
 20
111.7218251134
 10
98.0071116064
 20
111.7105570415
 10
97.9590735223
 20
111.6955674047
 10
97.9005124245
 20
111.6772948558
 10
97.8331391524
 20
111.6562721113
 10
97.7589211252
 20
111.6331138442
 10
97.6800255302
 20
111.6084961945
 10
97.5987564597
 20
111.5831372122
  0
SPLINE
  5
25D
330
1F
100
AcDbEntity
  8
0
  6
Continuous
 62
     7
370
    25
100
AcDbSpline
210
0.0
220
0.0
230
1.0
 70
     8
 71
     3
 72
     8
 73
     4
 74
     0
 42
0.000000001
 43
0.00000001
 40
0.0
 40
0.0
 40
0.0
 40
0.0
 40
1.0
 40
1.0
 40
1.0
 40
1.0
 10
97.59875629069337
 20
111.5831375921376
 30
0.0
 10
97.50974759530496
 20
111.8683933497674
 30
0.0
 10
97.46915479115479
 20
112.1608112996494
 30
0.0
 10
97.46915479115479
 20
112.4592341677501
 30
0.0
  0
LINE
  5
25E
330
1F
100
AcDbEntity
  8
0
  6
Continuous
 62
     7
370
    25
100
AcDbLine
 10
97.9691546235
 20
112.4592342207
 30
0.0
 11
97.4691550072
 21
112.4592342207
 31
0.0
  0
LINE
  5
25F
330
1F
100
AcDbEntity
  8
0
  6
Continuous
 62
     7
370
    25
100
AcDbLine
 10
83.4691545751
 20
126.3112684505
 30
0.0
 11
83.4691545751
 21
126.7070409635
 31
0.0
  0
LINE
  5
260
330
1F
100
AcDbEntity
  8
0
  6
Continuous
 62
     7
370
    25
100
AcDbLine
 10
97.4691550072
 20
126.3112684505
 30
0.0
 11
97.4691550072
 21
126.7070409635
 31
0.0
  0
LINE
  5
261
330
1F
100
AcDbEntity
  8
0
  6
Continuous
 62
     7
370
    25
100
AcDbLine
 10
83.4691545751
 20
112.4592342207
 30
0.0
 11
83.4691545751
 21
112.8550067337
 31
0.0
  0
LINE
  5
262
330
1F
100
AcDbEntity
  8
0
  6
Continuous
 62
     7
370
    25
100
AcDbLine
 10
97.4691550072
 20
112.4592342207
 30
0.0
 11
97.4691550072
 21
112.8550067337
 31
0.0
  0
ARC
  5
263
330
1F
100
AcDbEntity
  8
0
  6
Continuous
 62
     7
370
    25
100
AcDbCircle
 10
83.1675349244
 20
128.56244477
 30
0.0
 40
0.4793220025378437
100
AcDbArc
 50
206.8978733264
 51
269.5424057934
  0
SPLINE
  5
264
330
1F
100
AcDbEntity
  8
0
  6
Continuous
 62
     7
370
    25
100
AcDbSpline
210
0.0
220
0.0
230
1.0
 70
     8
 71
     3
 72
    14
 73
    10
 74
     0
 42
0.000000001
 43
0.00000001
 40
0.0
 40
0.0
 40
0.0
 40
0.0
 40
0.25
 40
0.25
 40
0.5
 40
0.5
 40
0.75
 40
0.75
 40
1.0
 40
1.0
 40
1.0
 40
1.0
 10
83.33955329161623
 20
127.5831375921376
 30
0.0
 10
83.30107780799464
 20
127.6447908563651
 30
0.0
 10
83.25998888652462
 20
127.702974801638
 30
0.0
 10
83.18070603908406
 20
127.816640123105
 30
0.0
 10
83.1434231379736
 20
127.8703167218047
 30
0.0
 10
83.09061737866183
 20
127.9703067542514
 30
0.0
 10
83.07864811856818
 20
128.0147112544743
 30
0.0
 10
83.09864990694035
 20
128.0707711099681
 30
0.0
 10
83.12810636249266
 20
128.0831375921376
 30
0.0
 10
83.16370670168541
 20
128.0831375921376
 30
0.0
  0
ARC
  5
265
330
1F
100
AcDbEntity
  8
0
  6
Continuous
 62
     7
370
    25
100
AcDbCircle
 10
97.7707746579
 20
110.6038304143
 30
0.0
 40
0.4793220025378311
100
AcDbArc
 50
26.8978733264
 51
89.5424057934
  0
SPLINE
  5
266
330
1F
100
AcDbEntity
  8
0
  6
Continuous
 62
     7
370
    25
100
AcDbSpline
210
0.0
220
0.0
230
1.0
 70
     8
 71
     3
 72
    14
 73
    10
 74
     0
 42
0.000000001
 43
0.00000001
 40
0.0
 40
0.0
 40
0.0
 40
0.0
 40
0.25
 40
0.25
 40
0.5
 40
0.5
 40
0.75
 40
0.75
 40
1.0
 40
1.0
 40
1.0
 40
1.0
 10
97.59875629069337
 20
111.5831375921376
 30
0.0
 10
97.63723177431496
 20
111.5214843279101
 30
0.0
 10
97.67832069578498
 20
111.4633003826372
 30
0.0
 10
97.75760354322553
 20
111.3496350611703
 30
0.0
 10
97.794886444336
 20
111.2959584624705
 30
0.0
 10
97.84769220364777
 20
111.1959684300239
 30
0.0
 10
97.85966146374139
 20
111.1515639298009
 30
0.0
 10
97.83965967536925
 20
111.0955040743071
 30
0.0
 10
97.81020321981694
 20
111.0831375921376
 30
0.0
 10
97.77460288062417
 20
111.0831375921376
 30
0.0
  0
SPLINE
  5
267
330
1F
100
AcDbEntity
  8
0
  6
Continuous
 62
     7
370
    25
100
AcDbSpline
210
0.0
220
0.0
230
1.0
 70
     8
 71
     3
 72
    16
 73
    12
 74
     0
 42
0.000000001
 43
0.00000001
 40
0.0
 40
0.0
 40
0.0
 40
0.0
 40
0.2500000000000011
 40
0.2500000000000011
 40
0.3749999999999992
 40
0.3749999999999992
 40
0.4999999999999974
 40
0.4999999999999974
 40
0.7499999999999987
 40
0.7499999999999987
 40
1.0
 40
1.0
 40
1.0
 40
1.0
 10
97.77460288062417
 20
128.0831375921376
 30
0.0
 10
97.81015681007284
 20
128.0831375921376
 30
0.0
 10
97.83942895130153
 20
128.0710058417218
 30
0.0
 10
97.85464150152241
 20
128.0289841354424
 30
0.0
 10
97.85470216969594
 20
128.0107697659359
 30
0.0
 10
97.84449158521863
 20
127.9688327534093
 30
0.0
 10
97.83470825569339
 20
127.945805189915
 30
0.0
 10
97.79554370716146
 20
127.871396511143
 30
0.0
 10
97.75767063388818
 20
127.8167386349605
 30
0.0
 10
97.6785976608966
 20
127.7033695617818
 30
0.0
 10
97.63721052830577
 20
127.6447568116776
 30
0.0
 10
97.59875629069337
 20
127.5831375921376
 30
0.0
  0
ARC
  5
268
330
1F
100
AcDbEntity
  8
0
  6
Continuous
 62
     7
370
    25
100
AcDbCircle
 10
97.7707746579
 20
128.56244477
 30
0.0
 40
0.4793220025378311
100
AcDbArc
 50
270.4575942066
 51
333.1021266736
  0
SPLINE
  5
269
330
1F
100
AcDbEntity
  8
0
  6
Continuous
 62
     7
370
    25
100
AcDbSpline
210
0.0
220
0.0
230
1.0
 70
     8
 71
     3
 72
    16
 73
    12
 74
     0
 42
0.000000001
 43
0.00000001
 40
0.0
 40
0.0
 40
0.0
 40
0.0
 40
0.2500000000000049
 40
0.2500000000000049
 40
0.3750000000000051
 40
0.3750000000000051
 40
0.5000000000000052
 40
0.5000000000000052
 40
0.7500000000000026
 40
0.7500000000000026
 40
1.0
 40
1.0
 40
1.0
 40
1.0
 10
83.16370670168541
 20
111.0831375921376
 30
0.0
 10
83.12815277223676
 20
111.0831375921376
 30
0.0
 10
83.09888063100807
 20
111.0952693425534
 30
0.0
 10
83.08366808078719
 20
111.1372910488329
 30
0.0
 10
83.08360741261366
 20
111.1555054183394
 30
0.0
 10
83.09381799709098
 20
111.197442430866
 30
0.0
 10
83.1036013266162
 20
111.2204699943602
 30
0.0
 10
83.14276587514816
 20
111.2948786731323
 30
0.0
 10
83.18063894842142
 20
111.3495365493148
 30
0.0
 10
83.259711921413
 20
111.4629056224935
 30
0.0
 10
83.30109905400381
 20
111.5215183725977
 30
0.0
 10
83.33955329161623
 20
111.5831375921376
 30
0.0
  0
ARC
  5
26A
330
1F
100
AcDbEntity
  8
0
  6
Continuous
 62
     7
370
    25
100
AcDbCircle
 10
83.1675349244
 20
110.6038304143
 30
0.0
 40
0.4793220025378437
100
AcDbArc
 50
90.4575942066
 51
153.1021266736
  0
LINE
  5
26B
330
1F
100
AcDbEntity
  8
0
  6
Continuous
 62
     7
370
    25
100
AcDbLine
 10
83.1637068476
 20
128.0831380541
 30
0.0
 11
87.6235657196
 21
128.0831380541
 31
0.0
  0
LINE
  5
26C
330
1F
100
AcDbEntity
  8
0
  6
Continuous
 62
     7
370
    25
100
AcDbLine
 10
93.3147438627
 20
128.0831380541
 30
0.0
 11
97.7746027347
 21
128.0831380541
 31
0.0
  0
LINE
  5
26D
330
1F
100
AcDbEntity
  8
0
  6
Continuous
 62
     7
370
    25
100
AcDbLine
 10
97.7746027347
 20
111.0831371302
 30
0.0
 11
93.3147438627
 21
111.0831371302
 31
0.0
  0
LINE
  5
26E
330
1F
100
AcDbEntity
  8
0
  6
Continuous
 62
     7
370
    25
100
AcDbLine
 10
87.6235657196
 20
111.0831371302
 30
0.0
 11
83.1637068476
 21
111.0831371302
 31
0.0
  0
ARC
  5
26F
330
1F
100
AcDbEntity
  8
0
  6
Continuous
 62
     7
370
    25
100
AcDbCircle
 10
97.4691547912
 20
128.5831375921
 30
0.0
 40
0.5
100
AcDbArc
 50
270.0
 51
0.0
  0
ARC
  5
270
330
1F
100
AcDbEntity
  8
0
  6
Continuous
 62
     7
370
    25
100
AcDbCircle
 10
83.4691547912
 20
128.5831375921
 30
0.0
 40
0.5
100
AcDbArc
 50
180.0
 51
270.0
  0
ARC
  5
271
330
1F
100
AcDbEntity
  8
0
  6
Continuous
 62
     7
370
    25
100
AcDbCircle
 10
97.4691547912
 20
110.5831375921
 30
0.0
 40
0.5
100
AcDbArc
 50
0.0
 51
90.0
  0
ARC
  5
272
330
1F
100
AcDbEntity
  8
0
  6
Continuous
 62
     7
370
    25
100
AcDbCircle
 10
83.4691547912
 20
110.5831375921
 30
0.0
 40
0.5
100
AcDbArc
 50
90.0
 51
180.0
  0
LINE
  5
273
330
1F
100
AcDbEntity
  8
0
  6
Continuous
 62
     7
370
    25
100
AcDbLine
 10
92.4691548861
 20
121.4581375502
 30
0.0
 11
95.7191547204
 21
119.5831375921
 31
0.0
  0
LINE
  5
274
330
1F
100
AcDbEntity
  8
0
  6
Continuous
 62
     7
370
    25
100
AcDbLine
 10
95.7191547204
 20
119.5831375921
 30
0.0
 11
92.4691548861
 21
117.708137634
 31
0.0
  0
LINE
  5
275
330
1F
100
AcDbEntity
  8
0
  6
Continuous
 62
     7
370
    25
100
AcDbLine
 10
92.4691548861
 20
119.0831375684
 30
0.0
 11
92.4691548861
 21
117.708137634
 31
0.0
  0
LINE
  5
276
330
1F
100
AcDbEntity
  8
0
  6
Continuous
 62
     7
370
    25
100
AcDbLine
 10
92.4691548861
 20
119.0831375684
 30
0.0
 11
88.4691546962
 21
119.0831375684
 31
0.0
  0
LINE
  5
277
330
1F
100
AcDbEntity
  8
0
  6
Continuous
 62
     7
370
    25
100
AcDbLine
 10
88.4691546962
 20
117.708137634
 30
0.0
 11
88.4691546962
 21
119.0831375684
 31
0.0
  0
LINE
  5
278
330
1F
100
AcDbEntity
  8
0
  6
Continuous
 62
     7
370
    25
100
AcDbLine
 10
85.2191548619
 20
119.5831375921
 30
0.0
 11
88.4691546962
 21
117.708137634
 31
0.0
  0
LINE
  5
279
330
1F
100
AcDbEntity
  8
0
  6
Continuous
 62
     7
370
    25
100
AcDbLine
 10
88.4691546962
 20
121.4581375502
 30
0.0
 11
85.2191548619
 21
119.5831375921
 31
0.0
  0
LINE
  5
27A
330
1F
100
AcDbEntity
  8
0
  6
Continuous
 62
     7
370
    25
100
AcDbLine
 10
88.4691546962
 20
120.0831376159
 30
0.0
 11
88.4691546962
 21
121.4581375502
 31
0.0
  0
LINE
  5
27B
330
1F
100
AcDbEntity
  8
0
  6
Continuous
 62
     7
370
    25
100
AcDbLine
 10
92.4691548861
 20
120.0831376159
 30
0.0
 11
88.4691546962
 21
120.0831376159
 31
0.0
  0
LINE
  5
27C
330
1F
100
AcDbEntity
  8
0
  6
Continuous
 62
     7
370
    25
100
AcDbLine
 10
92.4691548861
 20
120.0831376159
 30
0.0
 11
92.4691548861
 21
121.4581375502
 31
0.0
  0
SPLINE
  5
27D
330
1F
100
AcDbEntity
  8
0
  6
Continuous
 62
     7
370
    25
100
AcDbSpline
210
0.0
220
0.0
230
1.0
 70
     8
 71
     3
 72
    15
 73
    11
 74
     0
 42
0.000000001
 43
0.00000001
 40
0.0
 40
0.0
 40
0.0
 40
0.0
 40
0.0081668383054952
 40
0.3321938761999904
 40
0.4756273228308269
 40
0.6866812823106717
 40
0.8457414751284381
 40
0.8967552665950478
 40
0.9909530123461384
 40
1.0
 40
1.0
 40
1.0
 40
1.0
 10
95.56817429251308
 20
120.833137564198
 30
0.0
 10
95.56866185620102
 20
120.8345750385214
 30
0.0
 10
95.58849397058023
 20
120.8930456668838
 30
0.0
 10
95.61677313889314
 20
120.9774709341334
 30
0.0
 10
95.65460316338827
 20
121.0920501231643
 30
0.0
 10
95.68118646301467
 20
121.1734210989362
 30
0.0
 10
95.6983573137582
 20
121.2264403280084
 30
0.0
 10
95.706173539395
 20
121.2506418314
 30
0.0
 10
95.70816867821028
 20
121.256831512663
 30
0.0
 10
95.70823433240547
 20
121.2570330290803
 30
0.0
 10
95.70824008546109
 20
121.257050687284
 30
0.0
  0
ARC
  5
27E
330
1F
100
AcDbEntity
  8
0
  6
Continuous
 62
     7
370
    25
100
AcDbCircle
 10
90.4691547912
 20
119.5831375921
 30
0.0
 40
5.250000000000009
100
AcDbArc
 50
13.774146998
 51
166.225853002
  0
SPLINE
  5
27F
330
1F
100
AcDbEntity
  8
0
  6
Continuous
 62
     7
370
    25
100
AcDbSpline
210
0.0
220
0.0
230
1.0
 70
     8
 71
     3
 72
    15
 73
    11
 74
     0
 42
0.000000001
 43
0.00000001
 40
0.0
 40
0.0
 40
0.0
 40
0.0
 40
0.0090469876538617
 40
0.1032447334049523
 40
0.154258524871562
 40
0.3133187176893285
 40
0.5243726771691732
 40
0.6678061238000097
 40
0.9918331616945046
 40
1.0
 40
1.0
 40
1.0
 40
1.0
 10
85.23006949684853
 20
121.257050687284
 30
0.0
 10
85.23007524990413
 20
121.2570330290803
 30
0.0
 10
85.2301409040993
 20
121.256831512663
 30
0.0
 10
85.2321360429146
 20
121.2506418314
 30
0.0
 10
85.23995226855139
 20
121.2264403280084
 30
0.0
 10
85.25712311929493
 20
121.1734210989362
 30
0.0
 10
85.28370641892131
 20
121.0920501231643
 30
0.0
 10
85.32153644341646
 20
120.9774709341334
 30
0.0
 10
85.34981561172938
 20
120.8930456668838
 30
0.0
 10
85.36964772610858
 20
120.8345750385214
 30
0.0
 10
85.37013528979654
 20
120.833137564198
 30
0.0
  0
ARC
  5
280
330
1F
100
AcDbEntity
  8
0
  6
Continuous
 62
     7
370
    25
100
AcDbCircle
 10
90.4691547912
 20
119.5831375921
 30
0.0
 40
5.500000000000011
100
AcDbArc
 50
17.7189318734
 51
162.2810681266
  0
SPLINE
  5
281
330
1F
100
AcDbEntity
  8
0
  6
Continuous
 62
     7
370
    25
100
AcDbSpline
210
0.0
220
0.0
230
1.0
 70
     8
 71
     3
 72
    15
 73
    11
 74
     0
 42
0.000000001
 43
0.00000001
 40
0.0
 40
0.0
 40
0.0
 40
0.0
 40
0.0090469876538617
 40
0.1032447334049523
 40
0.154258524871562
 40
0.3133187176893285
 40
0.5243726771691732
 40
0.6678061238000097
 40
0.9918331616945046
 40
1.0
 40
1.0
 40
1.0
 40
1.0
 10
95.70824008546109
 20
117.9092244969912
 30
0.0
 10
95.70823433240547
 20
117.909242155195
 30
0.0
 10
95.70816867821028
 20
117.9094436716123
 30
0.0
 10
95.706173539395
 20
117.9156333528752
 30
0.0
 10
95.6983573137582
 20
117.9398348562669
 30
0.0
 10
95.68118646301467
 20
117.9928540853391
 30
0.0
 10
95.65460316338827
 20
118.074225061111
 30
0.0
 10
95.61677313889314
 20
118.1888042501419
 30
0.0
 10
95.58849397058022
 20
118.2732295173915
 30
0.0
 10
95.56866185620102
 20
118.3317001457538
 30
0.0
 10
95.56817429251308
 20
118.3331376200773
 30
0.0
  0
SPLINE
  5
282
330
1F
100
AcDbEntity
  8
0
  6
Continuous
 62
     7
370
    25
100
AcDbSpline
210
0.0
220
0.0
230
1.0
 70
     8
 71
     3
 72
    15
 73
    11
 74
     0
 42
0.000000001
 43
0.00000001
 40
0.0
 40
0.0
 40
0.0
 40
0.0
 40
0.0080844995757249
 40
0.3310107670311961
 40
0.4750328550059972
 40
0.6874347390466703
 40
0.846834841206855
 40
0.9000984019812466
 40
0.9910432189289485
 40
1.0
 40
1.0
 40
1.0
 40
1.0
 10
95.56817429251308
 20
118.3331376200773
 30
0.0
 10
95.56945406296322
 20
118.3323216688374
 30
0.0
 10
95.62185282857156
 20
118.2989134605446
 30
0.0
 10
95.69720888151677
 20
118.2501021241426
 30
0.0
 10
95.79912816982642
 20
118.1827309839707
 30
0.0
 10
95.87151873469901
 20
118.1341469990613
 30
0.0
 10
95.919225397109
 20
118.101697885962
 30
0.0
 10
95.94075909471455
 20
118.0869872996011
 30
0.0
 10
95.94618990937458
 20
118.0832686100769
 30
0.0
 10
95.94636454222413
 20
118.083148360224
 30
0.0
 10
95.94638019911284
 20
118.0831375790991
 30
0.0
  0
ARC
  5
283
330
1F
100
AcDbEntity
  8
0
  6
Continuous
 62
     7
370
    25
100
AcDbCircle
 10
95.9463803662
 20
117.8331375921
 30
0.0
 40
0.2500000000000077
100
AcDbArc
 50
90.0
 51
162.2810681266
  0
SPLINE
  5
284
330
1F
100
AcDbEntity
  8
0
  6
Continuous
 62
     7
370
    25
100
AcDbSpline
210
0.0
220
0.0
230
1.0
 70
     8
 71
     3
 72
    15
 73
    11
 74
     0
 42
0.000000001
 43
0.00000001
 40
0.0
 40
0.0
 40
0.0
 40
0.0
 40
0.0089567810710515
 40
0.0999015980187534
 40
0.153165158793145
 40
0.3125652609533296
 40
0.5249671449940028
 40
0.6689892329688039
 40
0.9919155004242751
 40
1.0
 40
1.0
 40
1.0
 40
1.0
 10
84.99192938319678
 20
118.0831375790991
 30
0.0
 10
84.99194504008547
 20
118.083148360224
 30
0.0
 10
84.99211967293502
 20
118.0832686100769
 30
0.0
 10
84.99755048759505
 20
118.0869872996011
 30
0.0
 10
85.01908418520057
 20
118.101697885962
 30
0.0
 10
85.06679084761058
 20
118.1341469990613
 30
0.0
 10
85.13918141248318
 20
118.1827309839707
 30
0.0
 10
85.24110070079283
 20
118.2501021241426
 30
0.0
 10
85.31645675373802
 20
118.2989134605446
 30
0.0
 10
85.36885551934638
 20
118.3323216688374
 30
0.0
 10
85.37013528979654
 20
118.3331376200773
 30
0.0
  0
SPLINE
  5
285
330
1F
100
AcDbEntity
  8
0
  6
Continuous
 62
     7
370
    25
100
AcDbSpline
210
0.0
220
0.0
230
1.0
 70
     8
 71
     3
 72
    15
 73
    11
 74
     0
 42
0.000000001
 43
0.00000001
 40
0.0
 40
0.0
 40
0.0
 40
0.0
 40
0.0081668383054952
 40
0.3321938761999904
 40
0.4756273228308269
 40
0.6866812823106717
 40
0.8457414751284381
 40
0.8967552665950478
 40
0.9909530123461384
 40
1.0
 40
1.0
 40
1.0
 40
1.0
 10
85.37013528979654
 20
118.3331376200773
 30
0.0
 10
85.36964772610858
 20
118.3317001457538
 30
0.0
 10
85.34981561172935
 20
118.2732295173915
 30
0.0
 10
85.32153644341648
 20
118.1888042501419
 30
0.0
 10
85.28370641892131
 20
118.074225061111
 30
0.0
 10
85.25712311929493
 20
117.9928540853391
 30
0.0
 10
85.23995226855138
 20
117.9398348562669
 30
0.0
 10
85.2321360429146
 20
117.9156333528752
 30
0.0
 10
85.2301409040993
 20
117.9094436716123
 30
0.0
 10
85.23007524990413
 20
117.909242155195
 30
0.0
 10
85.23006949684853
 20
117.9092244969912
 30
0.0
  0
ARC
  5
286
330
1F
100
AcDbEntity
  8
0
  6
Continuous
 62
     7
370
    25
100
AcDbCircle
 10
84.9919292161
 20
117.8331375921
 30
0.0
 40
0.25
100
AcDbArc
 50
17.7189318734
 51
90.0
  0
ARC
  5
287
330
1F
100
AcDbEntity
  8
0
  6
Continuous
 62
     7
370
    25
100
AcDbCircle
 10
90.4691547912
 20
119.5831375921
 30
0.0
 40
5.500000000000007
100
AcDbArc
 50
197.7189318734
 51
342.2810681266
  0
ARC
  5
288
330
1F
100
AcDbEntity
  8
0
  6
Continuous
 62
     7
370
    25
100
AcDbCircle
 10
90.4691547912
 20
119.5831375921
 30
0.0
 40
5.250000000000009
100
AcDbArc
 50
193.774146998
 51
346.225853002
  0
ARC
  5
289
330
1F
100
AcDbEntity
  8
0
  6
Continuous
 62
     7
370
    25
100
AcDbCircle
 10
95.9463803662
 20
121.3331375921
 30
0.0
 40
0.2500000000000034
100
AcDbArc
 50
197.7189318734
 51
270.0
  0
SPLINE
  5
28A
330
1F
100
AcDbEntity
  8
0
  6
Continuous
 62
     7
370
    25
100
AcDbSpline
210
0.0
220
0.0
230
1.0
 70
     8
 71
     3
 72
    15
 73
    11
 74
     0
 42
0.000000001
 43
0.00000001
 40
0.0
 40
0.0
 40
0.0
 40
0.0
 40
0.0089567810710515
 40
0.0999015980187534
 40
0.153165158793145
 40
0.3125652609533296
 40
0.5249671449940028
 40
0.6689892329688039
 40
0.9919155004242751
 40
1.0
 40
1.0
 40
1.0
 40
1.0
 10
95.94638019911284
 20
121.0831376051761
 30
0.0
 10
95.94636454222413
 20
121.0831268240512
 30
0.0
 10
95.94618990937458
 20
121.0830065741984
 30
0.0
 10
95.94075909471455
 20
121.0792878846742
 30
0.0
 10
95.919225397109
 20
121.0645772983133
 30
0.0
 10
95.87151873469901
 20
121.032128185214
 30
0.0
 10
95.79912816982642
 20
120.9835442003046
 30
0.0
 10
95.69720888151677
 20
120.9161730601326
 30
0.0
 10
95.62185282857156
 20
120.8673617237307
 30
0.0
 10
95.56945406296322
 20
120.8339535154378
 30
0.0
 10
95.56817429251308
 20
120.833137564198
 30
0.0
  0
ARC
  5
28B
330
1F
100
AcDbEntity
  8
0
  6
Continuous
 62
     7
370
    25
100
AcDbCircle
 10
84.9919292161
 20
121.3331375921
 30
0.0
 40
0.25
100
AcDbArc
 50
270.0
 51
342.2810681266
  0
SPLINE
  5
28C
330
1F
100
AcDbEntity
  8
0
  6
Continuous
 62
     7
370
    25
100
AcDbSpline
210
0.0
220
0.0
230
1.0
 70
     8
 71
     3
 72
    15
 73
    11
 74
     0
 42
0.000000001
 43
0.00000001
 40
0.0
 40
0.0
 40
0.0
 40
0.0
 40
0.0080844995757249
 40
0.3310107670311961
 40
0.4750328550059972
 40
0.6874347390466703
 40
0.846834841206855
 40
0.9000984019812466
 40
0.9910432189289485
 40
1.0
 40
1.0
 40
1.0
 40
1.0
 10
85.37013528979654
 20
120.833137564198
 30
0.0
 10
85.36885551934638
 20
120.8339535154378
 30
0.0
 10
85.31645675373802
 20
120.8673617237307
 30
0.0
 10
85.24110070079283
 20
120.9161730601326
 30
0.0
 10
85.13918141248318
 20
120.9835442003046
 30
0.0
 10
85.06679084761058
 20
121.032128185214
 30
0.0
 10
85.01908418520058
 20
121.0645772983133
 30
0.0
 10
84.99755048759505
 20
121.0792878846742
 30
0.0
 10
84.99211967293502
 20
121.0830065741984
 30
0.0
 10
84.99194504008547
 20
121.0831268240512
 30
0.0
 10
84.99192938319678
 20
121.0831376051761
 30
0.0
  0
LINE
  5
28D
330
1F
100
AcDbEntity
  8
0
  6
Continuous
 62
     7
370
    25
100
AcDbLine
 10
96.2191548023
 20
120.8331375642
 30
0.0
 11
95.5681742925
 21
120.8331375642
 31
0.0
  0
LINE
  5
28E
330
1F
100
AcDbEntity
  8
0
  6
Continuous
 62
     7
370
    25
100
AcDbLine
 10
96.2191548023
 20
118.3331376201
 30
0.0
 11
96.2191548023
 21
120.8331375642
 31
0.0
  0
LINE
  5
28F
330
1F
100
AcDbEntity
  8
0
  6
Continuous
 62
     7
370
    25
100
AcDbLine
 10
95.5681742925
 20
118.3331376201
 30
0.0
 11
96.2191548023
 21
118.3331376201
 31
0.0
  0
LINE
  5
290
330
1F
100
AcDbEntity
  8
0
  6
Continuous
 62
     7
370
    25
100
AcDbLine
 10
84.71915478
 20
118.3331376201
 30
0.0
 11
85.3701352898
 21
118.3331376201
 31
0.0
  0
LINE
  5
291
330
1F
100
AcDbEntity
  8
0
  6
Continuous
 62
     7
370
    25
100
AcDbLine
 10
84.71915478
 20
120.8331375642
 30
0.0
 11
84.71915478
 21
118.3331376201
 31
0.0
  0
LINE
  5
292
330
1F
100
AcDbEntity
  8
0
  6
Continuous
 62
     7
370
    25
100
AcDbLine
 10
85.3701352898
 20
120.8331375642
 30
0.0
 11
84.71915478
 21
120.8331375642
 31
0.0
  0
LINE
  5
293
330
1F
100
AcDbEntity
  8
0
  6
Continuous
 62
     7
370
    25
100
AcDbLine
 10
84.7630177449
 20
121.0831376052
 30
0.0
 11
84.9919293832
 21
121.0831376052
 31
0.0
  0
LINE
  5
294
330
1F
100
AcDbEntity
  8
0
  6
Continuous
 62
     7
370
    25
100
AcDbLine
 10
95.9463801991
 20
121.0831376052
 30
0.0
 11
96.1752918374
 21
121.0831376052
 31
0.0
  0
LINE
  5
295
330
1F
100
AcDbEntity
  8
0
  6
Continuous
 62
     7
370
    25
100
AcDbLine
 10
96.1752918374
 20
118.0831375791
 30
0.0
 11
95.9463801991
 21
118.0831375791
 31
0.0
  0
LINE
  5
296
330
1F
100
AcDbEntity
  8
0
  6
Continuous
 62
     7
370
    25
100
AcDbLine
 10
84.9919293832
 20
118.0831375791
 30
0.0
 11
84.7630177449
 21
118.0831375791
 31
0.0
  0
ARC
  5
297
330
1F
100
AcDbEntity
  8
0
  6
Continuous
 62
     7
370
    25
100
AcDbCircle
 10
90.4691547912
 20
119.5831375921
 30
0.0
 40
8.799999999999999
100
AcDbArc
 50
105.0
 51
111.0
  0
LINE
  5
298
330
1F
100
AcDbEntity
  8
0
  6
Continuous
 62
     7
370
    25
100
AcDbLine
 10
87.3155168082
 20
127.7986450846
 30
0.0
 11
87.6880018331
 21
128.1426458413
 31
0.0
  0
LINE
  5
299
330
1F
100
AcDbEntity
  8
0
  6
Continuous
 62
     7
370
    25
100
AcDbLine
 10
87.6880018331
 20
128.1426458413
 30
0.0
 11
88.1915472273
 21
128.083285203
 31
0.0
  0
CIRCLE
  5
29A
330
1F
100
AcDbEntity
  8
0
  6
Continuous
 62
     7
370
    25
100
AcDbCircle
 10
90.4691547912
 20
119.5831375921
 30
0.0
 40
6.100000000000009
  0
ARC
  5
29B
330
1F
100
AcDbEntity
  8
0
  6
Continuous
 62
     7
370
    25
100
AcDbCircle
 10
90.4691547912
 20
119.5831375921
 30
0.0
 40
8.799999999999992
100
AcDbArc
 50
267.0
 51
273.0
  0
ARC
  5
29C
330
1F
100
AcDbEntity
  8
0
  6
Continuous
 62
     7
370
    25
100
AcDbCircle
 10
90.4691547912
 20
119.5831375921
 30
0.0
 40
8.799999999999992
100
AcDbArc
 50
261.0
 51
267.0
  0
ARC
  5
29D
330
1F
100
AcDbEntity
  8
0
  6
Continuous
 62
     7
370
    25
100
AcDbCircle
 10
90.4691547912
 20
119.5831375921
 30
0.0
 40
8.799999999999994
100
AcDbArc
 50
255.0
 51
261.0
  0
ARC
  5
29E
330
1F
100
AcDbEntity
  8
0
  6
Continuous
 62
     7
370
    25
100
AcDbCircle
 10
90.4691547912
 20
119.5831375921
 30
0.0
 40
8.799999999999997
100
AcDbArc
 50
249.0
 51
255.0
  0
ARC
  5
29F
330
1F
100
AcDbEntity
  8
0
  6
Continuous
 62
     7
370
    25
100
AcDbCircle
 10
90.4691547912
 20
119.5831375921
 30
0.0
 40
8.8
100
AcDbArc
 50
243.0
 51
249.0
  0
ARC
  5
2A0
330
1F
100
AcDbEntity
  8
0
  6
Continuous
 62
     7
370
    25
100
AcDbCircle
 10
90.4691547912
 20
119.5831375921
 30
0.0
 40
8.8
100
AcDbArc
 50
237.0
 51
243.0
  0
ARC
  5
2A1
330
1F
100
AcDbEntity
  8
0
  6
Continuous
 62
     7
370
    25
100
AcDbCircle
 10
90.4691547912
 20
119.5831375921
 30
0.0
 40
8.799999999999999
100
AcDbArc
 50
231.0
 51
237.0
  0
ARC
  5
2A2
330
1F
100
AcDbEntity
  8
0
  6
Continuous
 62
     7
370
    25
100
AcDbCircle
 10
90.4691547912
 20
119.5831375921
 30
0.0
 40
8.799999999999997
100
AcDbArc
 50
225.0
 51
231.0
  0
ARC
  5
2A3
330
1F
100
AcDbEntity
  8
0
  6
Continuous
 62
     7
370
    25
100
AcDbCircle
 10
90.4691547912
 20
119.5831375921
 30
0.0
 40
8.799999999999992
100
AcDbArc
 50
219.0
 51
225.0
  0
ARC
  5
2A4
330
1F
100
AcDbEntity
  8
0
  6
Continuous
 62
     7
370
    25
100
AcDbCircle
 10
90.4691547912
 20
119.5831375921
 30
0.0
 40
8.79999999999999
100
AcDbArc
 50
213.0
 51
219.0
  0
ARC
  5
2A5
330
1F
100
AcDbEntity
  8
0
  6
Continuous
 62
     7
370
    25
100
AcDbCircle
 10
90.4691547912
 20
119.5831375921
 30
0.0
 40
8.800000000000002
100
AcDbArc
 50
207.0
 51
213.0
  0
ARC
  5
2A6
330
1F
100
AcDbEntity
  8
0
  6
Continuous
 62
     7
370
    25
100
AcDbCircle
 10
90.4691547912
 20
119.5831375921
 30
0.0
 40
8.800000000000002
100
AcDbArc
 50
201.0
 51
207.0
  0
ARC
  5
2A7
330
1F
100
AcDbEntity
  8
0
  6
Continuous
 62
     7
370
    25
100
AcDbCircle
 10
90.4691547912
 20
119.5831375921
 30
0.0
 40
8.80000000000001
100
AcDbArc
 50
195.0
 51
201.0
  0
ARC
  5
2A8
330
1F
100
AcDbEntity
  8
0
  6
Continuous
 62
     7
370
    25
100
AcDbCircle
 10
90.4691547912
 20
119.5831375921
 30
0.0
 40
8.80000000000001
100
AcDbArc
 50
189.0
 51
195.0
  0
ARC
  5
2A9
330
1F
100
AcDbEntity
  8
0
  6
Continuous
 62
     7
370
    25
100
AcDbCircle
 10
90.4691547912
 20
119.5831375921
 30
0.0
 40
8.800000000000002
100
AcDbArc
 50
183.0
 51
189.0
  0
ARC
  5
2AA
330
1F
100
AcDbEntity
  8
0
  6
Continuous
 62
     7
370
    25
100
AcDbCircle
 10
90.4691547912
 20
119.5831375921
 30
0.0
 40
8.799999999999994
100
AcDbArc
 50
177.0
 51
183.0
  0
ARC
  5
2AB
330
1F
100
AcDbEntity
  8
0
  6
Continuous
 62
     7
370
    25
100
AcDbCircle
 10
90.4691547912
 20
119.5831375921
 30
0.0
 40
8.8
100
AcDbArc
 50
171.0
 51
177.0
  0
ARC
  5
2AC
330
1F
100
AcDbEntity
  8
0
  6
Continuous
 62
     7
370
    25
100
AcDbCircle
 10
90.4691547912
 20
119.5831375921
 30
0.0
 40
8.8
100
AcDbArc
 50
165.0
 51
171.0
  0
ARC
  5
2AD
330
1F
100
AcDbEntity
  8
0
  6
Continuous
 62
     7
370
    25
100
AcDbCircle
 10
90.4691547912
 20
119.5831375921
 30
0.0
 40
8.800000000000011
100
AcDbArc
 50
159.0
 51
165.0
  0
ARC
  5
2AE
330
1F
100
AcDbEntity
  8
0
  6
Continuous
 62
     7
370
    25
100
AcDbCircle
 10
90.4691547912
 20
119.5831375921
 30
0.0
 40
8.800000000000011
100
AcDbArc
 50
153.0
 51
159.0
  0
ARC
  5
2AF
330
1F
100
AcDbEntity
  8
0
  6
Continuous
 62
     7
370
    25
100
AcDbCircle
 10
90.4691547912
 20
119.5831375921
 30
0.0
 40
8.800000000000006
100
AcDbArc
 50
147.0
 51
153.0
  0
ARC
  5
2B0
330
1F
100
AcDbEntity
  8
0
  6
Continuous
 62
     7
370
    25
100
AcDbCircle
 10
90.4691547912
 20
119.5831375921
 30
0.0
 40
8.800000000000008
100
AcDbArc
 50
141.0
 51
147.0
  0
ARC
  5
2B1
330
1F
100
AcDbEntity
  8
0
  6
Continuous
 62
     7
370
    25
100
AcDbCircle
 10
90.4691547912
 20
119.5831375921
 30
0.0
 40
8.800000000000008
100
AcDbArc
 50
135.0
 51
141.0
  0
ARC
  5
2B2
330
1F
100
AcDbEntity
  8
0
  6
Continuous
 62
     7
370
    25
100
AcDbCircle
 10
90.4691547912
 20
119.5831375921
 30
0.0
 40
8.8
100
AcDbArc
 50
129.0
 51
135.0
  0
ARC
  5
2B3
330
1F
100
AcDbEntity
  8
0
  6
Continuous
 62
     7
370
    25
100
AcDbCircle
 10
90.4691547912
 20
119.5831375921
 30
0.0
 40
8.8
100
AcDbArc
 50
123.0
 51
129.0
  0
ARC
  5
2B4
330
1F
100
AcDbEntity
  8
0
  6
Continuous
 62
     7
370
    25
100
AcDbCircle
 10
90.4691547912
 20
119.5831375921
 30
0.0
 40
8.8
100
AcDbArc
 50
117.0
 51
123.0
  0
ARC
  5
2B5
330
1F
100
AcDbEntity
  8
0
  6
Continuous
 62
     7
370
    25
100
AcDbCircle
 10
90.4691547912
 20
119.5831375921
 30
0.0
 40
8.799999999999999
100
AcDbArc
 50
111.0
 51
117.0
  0
ARC
  5
2B6
330
1F
100
AcDbEntity
  8
0
  6
Continuous
 62
     7
370
    25
100
AcDbCircle
 10
90.4691547912
 20
119.5831375921
 30
0.0
 40
8.800000000000011
100
AcDbArc
 50
99.0
 51
105.0
  0
ARC
  5
2B7
330
1F
100
AcDbEntity
  8
0
  6
Continuous
 62
     7
370
    25
100
AcDbCircle
 10
90.4691547912
 20
119.5831375921
 30
0.0
 40
8.800000000000011
100
AcDbArc
 50
93.0
 51
99.0
  0
ARC
  5
2B8
330
1F
100
AcDbEntity
  8
0
  6
Continuous
 62
     7
370
    25
100
AcDbCircle
 10
90.4691547912
 20
119.5831375921
 30
0.0
 40
8.800000000000013
100
AcDbArc
 50
87.0
 51
93.0
  0
ARC
  5
2B9
330
1F
100
AcDbEntity
  8
0
  6
Continuous
 62
     7
370
    25
100
AcDbCircle
 10
90.4691547912
 20
119.5831375921
 30
0.0
 40
8.800000000000013
100
AcDbArc
 50
81.0
 51
87.0
  0
ARC
  5
2BA
330
1F
100
AcDbEntity
  8
0
  6
Continuous
 62
     7
370
    25
100
AcDbCircle
 10
90.4691547912
 20
119.5831375921
 30
0.0
 40
8.800000000000008
100
AcDbArc
 50
75.0
 51
81.0
  0
ARC
  5
2BB
330
1F
100
AcDbEntity
  8
0
  6
Continuous
 62
     7
370
    25
100
AcDbCircle
 10
90.4691547912
 20
119.5831375921
 30
0.0
 40
8.800000000000008
100
AcDbArc
 50
69.0
 51
75.0
  0
ARC
  5
2BC
330
1F
100
AcDbEntity
  8
0
  6
Continuous
 62
     7
370
    25
100
AcDbCircle
 10
90.4691547912
 20
119.5831375921
 30
0.0
 40
8.799999999999999
100
AcDbArc
 50
63.0
 51
69.0
  0
ARC
  5
2BD
330
1F
100
AcDbEntity
  8
0
  6
Continuous
 62
     7
370
    25
100
AcDbCircle
 10
90.4691547912
 20
119.5831375921
 30
0.0
 40
8.799999999999999
100
AcDbArc
 50
57.0
 51
63.0
  0
ARC
  5
2BE
330
1F
100
AcDbEntity
  8
0
  6
Continuous
 62
     7
370
    25
100
AcDbCircle
 10
90.4691547912
 20
119.5831375921
 30
0.0
 40
8.799999999999986
100
AcDbArc
 50
51.0
 51
57.0
  0
ARC
  5
2BF
330
1F
100
AcDbEntity
  8
0
  6
Continuous
 62
     7
370
    25
100
AcDbCircle
 10
90.4691547912
 20
119.5831375921
 30
0.0
 40
8.799999999999994
100
AcDbArc
 50
45.0
 51
51.0
  0
ARC
  5
2C0
330
1F
100
AcDbEntity
  8
0
  6
Continuous
 62
     7
370
    25
100
AcDbCircle
 10
90.4691547912
 20
119.5831375921
 30
0.0
 40
8.800000000000002
100
AcDbArc
 50
39.0
 51
45.0
  0
ARC
  5
2C1
330
1F
100
AcDbEntity
  8
0
  6
Continuous
 62
     7
370
    25
100
AcDbCircle
 10
90.4691547912
 20
119.5831375921
 30
0.0
 40
8.800000000000002
100
AcDbArc
 50
33.0
 51
39.0
  0
ARC
  5
2C2
330
1F
100
AcDbEntity
  8
0
  6
Continuous
 62
     7
370
    25
100
AcDbCircle
 10
90.4691547912
 20
119.5831375921
 30
0.0
 40
8.799999999999985
100
AcDbArc
 50
27.0
 51
33.0
  0
ARC
  5
2C3
330
1F
100
AcDbEntity
  8
0
  6
Continuous
 62
     7
370
    25
100
AcDbCircle
 10
90.4691547912
 20
119.5831375921
 30
0.0
 40
8.799999999999985
100
AcDbArc
 50
21.0
 51
27.0
  0
ARC
  5
2C4
330
1F
100
AcDbEntity
  8
0
  6
Continuous
 62
     7
370
    25
100
AcDbCircle
 10
90.4691547912
 20
119.5831375921
 30
0.0
 40
8.799999999999983
100
AcDbArc
 50
15.0
 51
21.0
  0
ARC
  5
2C5
330
1F
100
AcDbEntity
  8
0
  6
Continuous
 62
     7
370
    25
100
AcDbCircle
 10
90.4691547912
 20
119.5831375921
 30
0.0
 40
8.799999999999985
100
AcDbArc
 50
9.0
 51
15.0
  0
ARC
  5
2C6
330
1F
100
AcDbEntity
  8
0
  6
Continuous
 62
     7
370
    25
100
AcDbCircle
 10
90.4691547912
 20
119.5831375921
 30
0.0
 40
8.799999999999992
100
AcDbArc
 50
3.0
 51
9.0
  0
ARC
  5
2C7
330
1F
100
AcDbEntity
  8
0
  6
Continuous
 62
     7
370
    25
100
AcDbCircle
 10
90.4691547912
 20
119.5831375921
 30
0.0
 40
8.799999999999992
100
AcDbArc
 50
357.0
 51
3.0
  0
ARC
  5
2C8
330
1F
100
AcDbEntity
  8
0
  6
Continuous
 62
     7
370
    25
100
AcDbCircle
 10
90.4691547912
 20
119.5831375921
 30
0.0
 40
8.799999999999988
100
AcDbArc
 50
351.0
 51
357.0
  0
ARC
  5
2C9
330
1F
100
AcDbEntity
  8
0
  6
Continuous
 62
     7
370
    25
100
AcDbCircle
 10
90.4691547912
 20
119.5831375921
 30
0.0
 40
8.799999999999992
100
AcDbArc
 50
345.0
 51
351.0
  0
ARC
  5
2CA
330
1F
100
AcDbEntity
  8
0
  6
Continuous
 62
     7
370
    25
100
AcDbCircle
 10
90.4691547912
 20
119.5831375921
 30
0.0
 40
8.799999999999992
100
AcDbArc
 50
339.0
 51
345.0
  0
ARC
  5
2CB
330
1F
100
AcDbEntity
  8
0
  6
Continuous
 62
     7
370
    25
100
AcDbCircle
 10
90.4691547912
 20
119.5831375921
 30
0.0
 40
8.799999999999985
100
AcDbArc
 50
333.0
 51
339.0
  0
ARC
  5
2CC
330
1F
100
AcDbEntity
  8
0
  6
Continuous
 62
     7
370
    25
100
AcDbCircle
 10
90.4691547912
 20
119.5831375921
 30
0.0
 40
8.799999999999994
100
AcDbArc
 50
327.0
 51
333.0
  0
ARC
  5
2CD
330
1F
100
AcDbEntity
  8
0
  6
Continuous
 62
     7
370
    25
100
AcDbCircle
 10
90.4691547912
 20
119.5831375921
 30
0.0
 40
8.799999999999994
100
AcDbArc
 50
321.0
 51
327.0
  0
ARC
  5
2CE
330
1F
100
AcDbEntity
  8
0
  6
Continuous
 62
     7
370
    25
100
AcDbCircle
 10
90.4691547912
 20
119.5831375921
 30
0.0
 40
8.799999999999985
100
AcDbArc
 50
315.0
 51
321.0
  0
ARC
  5
2CF
330
1F
100
AcDbEntity
  8
0
  6
Continuous
 62
     7
370
    25
100
AcDbCircle
 10
90.4691547912
 20
119.5831375921
 30
0.0
 40
8.79999999999999
100
AcDbArc
 50
309.0
 51
315.0
  0
ARC
  5
2D0
330
1F
100
AcDbEntity
  8
0
  6
Continuous
 62
     7
370
    25
100
AcDbCircle
 10
90.4691547912
 20
119.5831375921
 30
0.0
 40
8.79999999999999
100
AcDbArc
 50
303.0
 51
309.0
  0
ARC
  5
2D1
330
1F
100
AcDbEntity
  8
0
  6
Continuous
 62
     7
370
    25
100
AcDbCircle
 10
90.4691547912
 20
119.5831375921
 30
0.0
 40
8.799999999999988
100
AcDbArc
 50
297.0
 51
303.0
  0
ARC
  5
2D2
330
1F
100
AcDbEntity
  8
0
  6
Continuous
 62
     7
370
    25
100
AcDbCircle
 10
90.4691547912
 20
119.5831375921
 30
0.0
 40
8.799999999999994
100
AcDbArc
 50
291.0
 51
297.0
  0
ARC
  5
2D3
330
1F
100
AcDbEntity
  8
0
  6
Continuous
 62
     7
370
    25
100
AcDbCircle
 10
90.4691547912
 20
119.5831375921
 30
0.0
 40
8.799999999999994
100
AcDbArc
 50
285.0
 51
291.0
  0
ARC
  5
2D4
330
1F
100
AcDbEntity
  8
0
  6
Continuous
 62
     7
370
    25
100
AcDbCircle
 10
90.4691547912
 20
119.5831375921
 30
0.0
 40
8.799999999999992
100
AcDbArc
 50
279.0
 51
285.0
  0
ARC
  5
2D5
330
1F
100
AcDbEntity
  8
0
  6
Continuous
 62
     7
370
    25
100
AcDbCircle
 10
90.4691547912
 20
119.5831375921
 30
0.0
 40
8.799999999999992
100
AcDbArc
 50
273.0
 51
279.0
  0
LINE
  5
2D6
330
1F
100
AcDbEntity
  8
0
  6
Continuous
 62
     7
370
    25
100
AcDbLine
 10
90.9297112084
 20
128.3710778484
 30
0.0
 11
91.409910965
 21
128.5338348503
 31
0.0
  0
LINE
  5
2D7
330
1F
100
AcDbEntity
  8
0
  6
Continuous
 62
     7
370
    25
100
AcDbLine
 10
91.409910965
 20
128.5338348503
 30
0.0
 11
91.845778079
 21
128.2747949267
 31
0.0
  0
LINE
  5
2D8
330
1F
100
AcDbEntity
  8
0
  6
Continuous
 62
     7
370
    25
100
AcDbLine
 10
90.4691547912
 20
128.5831372047
 30
0.0
 11
90.9297112084
 21
128.3710778484
 31
0.0
  0
LINE
  5
2D9
330
1F
100
AcDbEntity
  8
0
  6
Continuous
 62
     7
370
    25
100
AcDbLine
 10
90.0085983739
 20
128.3710778484
 30
0.0
 11
90.4691547912
 21
128.5831372047
 31
0.0
  0
LINE
  5
2DA
330
1F
100
AcDbEntity
  8
0
  6
Continuous
 62
     7
370
    25
100
AcDbLine
 10
89.0925315034
 20
128.2747949267
 30
0.0
 11
89.5283986174
 21
128.5338348503
 31
0.0
  0
LINE
  5
2DB
330
1F
100
AcDbEntity
  8
0
  6
Continuous
 62
     7
370
    25
100
AcDbLine
 10
89.5283986174
 20
128.5338348503
 30
0.0
 11
90.0085983739
 21
128.3710778484
 31
0.0
  0
LINE
  5
2DC
330
1F
100
AcDbEntity
  8
0
  6
Continuous
 62
     7
370
    25
100
AcDbLine
 10
88.1915472273
 20
128.083285203
 30
0.0
 11
88.5979496233
 21
128.3864660913
 31
0.0
  0
LINE
  5
2DD
330
1F
100
AcDbEntity
  8
0
  6
Continuous
 62
     7
370
    25
100
AcDbLine
 10
88.5979496233
 20
128.3864660913
 30
0.0
 11
89.0925315034
 21
128.2747949267
 31
0.0
  0
LINE
  5
2DE
330
1F
100
AcDbEntity
  8
0
  6
Continuous
 62
     7
370
    25
100
AcDbLine
 10
93.2503077492
 20
128.1426458413
 30
0.0
 11
93.6227927741
 21
127.7986450846
 31
0.0
  0
LINE
  5
2DF
330
1F
100
AcDbEntity
  8
0
  6
Continuous
 62
     7
370
    25
100
AcDbLine
 10
92.746762355
 20
128.083285203
 30
0.0
 11
93.2503077492
 21
128.1426458413
 31
0.0
  0
LINE
  5
2E0
330
1F
100
AcDbEntity
  8
0
  6
Continuous
 62
     7
370
    25
100
AcDbLine
 10
91.845778079
 20
128.2747949267
 30
0.0
 11
92.340359959
 21
128.3864660913
 31
0.0
  0
LINE
  5
2E1
330
1F
100
AcDbEntity
  8
0
  6
Continuous
 62
     7
370
    25
100
AcDbLine
 10
92.340359959
 20
128.3864660913
 30
0.0
 11
92.746762355
 21
128.083285203
 31
0.0
  0
LINE
  5
2E2
330
1F
100
AcDbEntity
  8
0
  6
Continuous
 62
     7
370
    25
100
AcDbLine
 10
86.4740384567
 20
127.4239954332
 30
0.0
 11
86.8085250549
 21
127.8050469959
 31
0.0
  0
LINE
  5
2E3
330
1F
100
AcDbEntity
  8
0
  6
Continuous
 62
     7
370
    25
100
AcDbLine
 10
86.8085250549
 20
127.8050469959
 30
0.0
 11
87.3155168082
 21
127.7986450846
 31
0.0
  0
LINE
  5
2E4
330
1F
100
AcDbEntity
  8
0
  6
Continuous
 62
     7
370
    25
100
AcDbLine
 10
85.6763313349
 20
126.9634387249
 30
0.0
 11
85.9691549849
 21
127.3773664402
 31
0.0
  0
LINE
  5
2E5
330
1F
100
AcDbEntity
  8
0
  6
Continuous
 62
     7
370
    25
100
AcDbLine
 10
85.9691549849
 20
127.3773664402
 30
0.0
 11
86.4740384567
 21
127.4239954332
 31
0.0
  0
LINE
  5
2E6
330
1F
100
AcDbEntity
  8
0
  6
Continuous
 62
     7
370
    25
100
AcDbLine
 10
94.4642711256
 20
127.4239954332
 30
0.0
 11
94.9691545974
 21
127.3773664402
 31
0.0
  0
LINE
  5
2E7
330
1F
100
AcDbEntity
  8
0
  6
Continuous
 62
     7
370
    25
100
AcDbLine
 10
94.9691545974
 20
127.3773664402
 30
0.0
 11
95.2619782474
 21
126.9634387249
 31
0.0
  0
LINE
  5
2E8
330
1F
100
AcDbEntity
  8
0
  6
Continuous
 62
     7
370
    25
100
AcDbLine
 10
94.1297845274
 20
127.8050469959
 30
0.0
 11
94.4642711256
 21
127.4239954332
 31
0.0
  0
LINE
  5
2E9
330
1F
100
AcDbEntity
  8
0
  6
Continuous
 62
     7
370
    25
100
AcDbLine
 10
93.6227927741
 20
127.7986450846
 30
0.0
 11
94.1297845274
 21
127.8050469959
 31
0.0
  0
LINE
  5
2EA
330
1F
100
AcDbEntity
  8
0
  6
Continuous
 62
     7
370
    25
100
AcDbLine
 10
96.0071741428
 20
126.4220222624
 30
0.0
 11
96.4913300995
 21
126.2714409063
 31
0.0
  0
LINE
  5
2EB
330
1F
100
AcDbEntity
  8
0
  6
Continuous
 62
     7
370
    25
100
AcDbLine
 10
96.4913300995
 20
126.2714409063
 30
0.0
 11
96.6916943725
 21
125.8056771735
 31
0.0
  0
LINE
  5
2EC
330
1F
100
AcDbEntity
  8
0
  6
Continuous
 62
     7
370
    25
100
AcDbLine
 10
95.7592220802
 20
126.8642905893
 30
0.0
 11
96.0071741428
 21
126.4220222624
 31
0.0
  0
LINE
  5
2ED
330
1F
100
AcDbEntity
  8
0
  6
Continuous
 62
     7
370
    25
100
AcDbLine
 10
95.2619782474
 20
126.9634387249
 30
0.0
 11
95.7592220802
 21
126.8642905893
 31
0.0
  0
LINE
  5
2EE
330
1F
100
AcDbEntity
  8
0
  6
Continuous
 62
     7
370
    25
100
AcDbLine
 10
84.9311354395
 20
126.4220222624
 30
0.0
 11
85.1790875021
 21
126.8642905893
 31
0.0
  0
LINE
  5
2EF
330
1F
100
AcDbEntity
  8
0
  6
Continuous
 62
     7
370
    25
100
AcDbLine
 10
85.1790875021
 20
126.8642905893
 30
0.0
 11
85.6763313349
 21
126.9634387249
 31
0.0
  0
LINE
  5
2F0
330
1F
100
AcDbEntity
  8
0
  6
Continuous
 62
     7
370
    25
100
AcDbLine
 10
84.2466152098
 20
125.8056771735
 30
0.0
 11
84.4469794828
 21
126.2714409063
 31
0.0
  0
LINE
  5
2F1
330
1F
100
AcDbEntity
  8
0
  6
Continuous
 62
     7
370
    25
100
AcDbLine
 10
84.4469794828
 20
126.2714409063
 30
0.0
 11
84.9311354395
 21
126.4220222624
 31
0.0
  0
LINE
  5
2F2
330
1F
100
AcDbEntity
  8
0
  6
Continuous
 62
     7
370
    25
100
AcDbLine
 10
97.7503077883
 20
124.8732048812
 30
0.0
 11
97.849455924
 21
124.3759610484
 31
0.0
  0
LINE
  5
2F3
330
1F
100
AcDbEntity
  8
0
  6
Continuous
 62
     7
370
    25
100
AcDbLine
 10
97.3080394614
 20
125.1211569438
 30
0.0
 11
97.7503077883
 21
124.8732048812
 31
0.0
  0
ARC
  5
2F4
330
1F
100
AcDbEntity
  8
0
  6
Continuous
 62
     7
370
    25
100
AcDbCircle
 10
90.4691547912
 20
119.5831375921
 30
0.0
 40
5.900000000000005
100
AcDbArc
 50
270.0
 51
345.2716043991
  0
ARC
  5
2F5
330
1F
100
AcDbEntity
  8
0
  6
Continuous
 62
     7
370
    25
100
AcDbCircle
 10
90.4691547912
 20
119.5831375921
 30
0.0
 40
5.900000000000005
100
AcDbArc
 50
14.7283956009
 51
165.2716043991
  0
ARC
  5
2F6
330
1F
100
AcDbEntity
  8
0
  6
Continuous
 62
     7
370
    25
100
AcDbCircle
 10
90.4691547912
 20
119.5831375921
 30
0.0
 40
5.900000000000005
100
AcDbArc
 50
194.7283956009
 51
270.0
  0
LINE
  5
2F7
330
1F
100
AcDbEntity
  8
0
  6
Continuous
 62
     7
370
    25
100
AcDbLine
 10
96.6916943725
 20
125.8056771735
 30
0.0
 11
97.1574581053
 21
125.6053129005
 31
0.0
  0
LINE
  5
2F8
330
1F
100
AcDbEntity
  8
0
  6
Continuous
 62
     7
370
    25
100
AcDbLine
 10
97.1574581053
 20
125.6053129005
 30
0.0
 11
97.3080394614
 21
125.1211569438
 31
0.0
  0
LINE
  5
2F9
330
1F
100
AcDbEntity
  8
0
  6
Continuous
 62
     7
370
    25
100
AcDbLine
 10
83.0888536584
 20
124.3759610484
 30
0.0
 11
83.188001794
 21
124.8732048812
 31
0.0
  0
LINE
  5
2FA
330
1F
100
AcDbEntity
  8
0
  6
Continuous
 62
     7
370
    25
100
AcDbLine
 10
83.188001794
 20
124.8732048812
 30
0.0
 11
83.6302701209
 21
125.1211569438
 31
0.0
  0
LINE
  5
2FB
330
1F
100
AcDbEntity
  8
0
  6
Continuous
 62
     7
370
    25
100
AcDbLine
 10
83.6302701209
 20
125.1211569438
 30
0.0
 11
83.780851477
 21
125.6053129005
 31
0.0
  0
LINE
  5
2FC
330
1F
100
AcDbEntity
  8
0
  6
Continuous
 62
     7
370
    25
100
AcDbLine
 10
83.780851477
 20
125.6053129005
 30
0.0
 11
84.2466152098
 21
125.8056771735
 31
0.0
  0
LINE
  5
2FD
330
1F
100
AcDbEntity
  8
0
  6
Continuous
 62
     7
370
    25
100
AcDbLine
 10
97.849455924
 20
124.3759610484
 30
0.0
 11
98.2633836392
 21
124.0831373984
 31
0.0
  0
LINE
  5
2FE
330
1F
100
AcDbEntity
  8
0
  6
Continuous
 62
     7
370
    25
100
AcDbLine
 10
98.2633836392
 20
124.0831373984
 30
0.0
 11
98.3100126322
 21
123.5782539265
 31
0.0
  0
LINE
  5
2FF
330
1F
100
AcDbEntity
  8
0
  6
Continuous
 62
     7
370
    25
100
AcDbLine
 10
82.6749259431
 20
124.0831373984
 30
0.0
 11
83.0888536584
 21
124.3759610484
 31
0.0
  0
LINE
  5
300
330
1F
100
AcDbEntity
  8
0
  6
Continuous
 62
     7
370
    25
100
AcDbLine
 10
82.6282969501
 20
123.5782539265
 30
0.0
 11
82.6749259431
 21
124.0831373984
 31
0.0
  0
LINE
  5
301
330
1F
100
AcDbEntity
  8
0
  6
Continuous
 62
     7
370
    25
100
AcDbLine
 10
98.3100126322
 20
123.5782539265
 30
0.0
 11
98.691064195
 21
123.2437673284
 31
0.0
  0
LINE
  5
302
330
1F
100
AcDbEntity
  8
0
  6
Continuous
 62
     7
370
    25
100
AcDbLine
 10
98.691064195
 20
123.2437673284
 30
0.0
 11
98.6846622836
 21
122.736775575
 31
0.0
  0
LINE
  5
303
330
1F
100
AcDbEntity
  8
0
  6
Continuous
 62
     7
370
    25
100
AcDbLine
 10
82.2472453874
 20
123.2437673284
 30
0.0
 11
82.6282969501
 21
123.5782539265
 31
0.0
  0
LINE
  5
304
330
1F
100
AcDbEntity
  8
0
  6
Continuous
 62
     7
370
    25
100
AcDbLine
 10
82.2536472987
 20
122.736775575
 30
0.0
 11
82.2472453874
 21
123.2437673284
 31
0.0
  0
LINE
  5
305
330
1F
100
AcDbEntity
  8
0
  6
Continuous
 62
     7
370
    25
100
AcDbLine
 10
99.0286630403
 20
122.3642905502
 30
0.0
 11
98.9693024021
 21
121.860745156
 31
0.0
  0
LINE
  5
306
330
1F
100
AcDbEntity
  8
0
  6
Continuous
 62
     7
370
    25
100
AcDbLine
 10
98.6846622836
 20
122.736775575
 30
0.0
 11
99.0286630403
 21
122.3642905502
 31
0.0
  0
LINE
  5
307
330
1F
100
AcDbEntity
  8
0
  6
Continuous
 62
     7
370
    25
100
AcDbLine
 10
81.909646542
 20
122.3642905502
 30
0.0
 11
82.2536472987
 21
122.736775575
 31
0.0
  0
LINE
  5
308
330
1F
100
AcDbEntity
  8
0
  6
Continuous
 62
     7
370
    25
100
AcDbLine
 10
81.9690071803
 20
121.860745156
 30
0.0
 11
81.909646542
 21
122.3642905502
 31
0.0
  0
LINE
  5
309
330
1F
100
AcDbEntity
  8
0
  6
Continuous
 62
     7
370
    25
100
AcDbLine
 10
98.9693024021
 20
121.860745156
 30
0.0
 11
99.2724832904
 21
121.45434276
 31
0.0
  0
LINE
  5
30A
330
1F
100
AcDbEntity
  8
0
  6
Continuous
 62
     7
370
    25
100
AcDbLine
 10
99.2724832904
 20
121.45434276
 30
0.0
 11
99.1608121257
 21
120.9597608799
 31
0.0
  0
LINE
  5
30B
330
1F
100
AcDbEntity
  8
0
  6
Continuous
 62
     7
370
    25
100
AcDbLine
 10
81.7774974566
 20
120.9597608799
 30
0.0
 11
81.665826292
 21
121.45434276
 31
0.0
  0
LINE
  5
30C
330
1F
100
AcDbEntity
  8
0
  6
Continuous
 62
     7
370
    25
100
AcDbLine
 10
81.665826292
 20
121.45434276
 30
0.0
 11
81.9690071803
 21
121.860745156
 31
0.0
  0
LINE
  5
30D
330
1F
100
AcDbEntity
  8
0
  6
Continuous
 62
     7
370
    25
100
AcDbLine
 10
81.518457533
 20
120.5238937659
 30
0.0
 11
81.7774974566
 21
120.9597608799
 31
0.0
  0
LINE
  5
30E
330
1F
100
AcDbEntity
  8
0
  6
Continuous
 62
     7
370
    25
100
AcDbLine
 10
81.6812145349
 20
120.0436940094
 30
0.0
 11
81.518457533
 21
120.5238937659
 31
0.0
  0
LINE
  5
30F
330
1F
100
AcDbEntity
  8
0
  6
Continuous
 62
     7
370
    25
100
AcDbLine
 10
99.1608121257
 20
120.9597608799
 30
0.0
 11
99.4198520493
 21
120.5238937659
 31
0.0
  0
LINE
  5
310
330
1F
100
AcDbEntity
  8
0
  6
Continuous
 62
     7
370
    25
100
AcDbLine
 10
99.4198520493
 20
120.5238937659
 30
0.0
 11
99.2570950475
 21
120.0436940094
 31
0.0
  0
LINE
  5
311
330
1F
100
AcDbEntity
  8
0
  6
Continuous
 62
     7
370
    25
100
AcDbLine
 10
81.6812145349
 20
119.1225811749
 30
0.0
 11
81.4691551786
 21
119.5831375921
 31
0.0
  0
LINE
  5
312
330
1F
100
AcDbEntity
  8
0
  6
Continuous
 62
     7
370
    25
100
AcDbLine
 10
81.4691551786
 20
119.5831375921
 30
0.0
 11
81.6812145349
 21
120.0436940094
 31
0.0
  0
LINE
  5
313
330
1F
100
AcDbEntity
  8
0
  6
Continuous
 62
     7
370
    25
100
AcDbLine
 10
81.7774974566
 20
118.2065143043
 30
0.0
 11
81.518457533
 21
118.6423814183
 31
0.0
  0
LINE
  5
314
330
1F
100
AcDbEntity
  8
0
  6
Continuous
 62
     7
370
    25
100
AcDbLine
 10
81.518457533
 20
118.6423814183
 30
0.0
 11
81.6812145349
 21
119.1225811749
 31
0.0
  0
LINE
  5
315
330
1F
100
AcDbEntity
  8
0
  6
Continuous
 62
     7
370
    25
100
AcDbLine
 10
99.4198520493
 20
118.6423814183
 30
0.0
 11
99.1608121257
 21
118.2065143043
 31
0.0
  0
LINE
  5
316
330
1F
100
AcDbEntity
  8
0
  6
Continuous
 62
     7
370
    25
100
AcDbLine
 10
99.2570950475
 20
119.1225811749
 30
0.0
 11
99.4198520493
 21
118.6423814183
 31
0.0
  0
LINE
  5
317
330
1F
100
AcDbEntity
  8
0
  6
Continuous
 62
     7
370
    25
100
AcDbLine
 10
99.2570950475
 20
120.0436940094
 30
0.0
 11
99.4691544037
 21
119.5831375921
 31
0.0
  0
LINE
  5
318
330
1F
100
AcDbEntity
  8
0
  6
Continuous
 62
     7
370
    25
100
AcDbLine
 10
99.4691544037
 20
119.5831375921
 30
0.0
 11
99.2570950475
 21
119.1225811749
 31
0.0
  0
LINE
  5
319
330
1F
100
AcDbEntity
  8
0
  6
Continuous
 62
     7
370
    25
100
AcDbLine
 10
81.9690071803
 20
117.3055300283
 30
0.0
 11
81.665826292
 21
117.7119324243
 31
0.0
  0
LINE
  5
31A
330
1F
100
AcDbEntity
  8
0
  6
Continuous
 62
     7
370
    25
100
AcDbLine
 10
81.665826292
 20
117.7119324243
 30
0.0
 11
81.7774974566
 21
118.2065143043
 31
0.0
  0
LINE
  5
31B
330
1F
100
AcDbEntity
  8
0
  6
Continuous
 62
     7
370
    25
100
AcDbLine
 10
99.1608121257
 20
118.2065143043
 30
0.0
 11
99.2724832904
 21
117.7119324243
 31
0.0
  0
LINE
  5
31C
330
1F
100
AcDbEntity
  8
0
  6
Continuous
 62
     7
370
    25
100
AcDbLine
 10
99.2724832904
 20
117.7119324243
 30
0.0
 11
98.9693024021
 21
117.3055300283
 31
0.0
  0
LINE
  5
31D
330
1F
100
AcDbEntity
  8
0
  6
Continuous
 62
     7
370
    25
100
AcDbLine
 10
98.9693024021
 20
117.3055300283
 30
0.0
 11
99.0286630403
 21
116.8019846341
 31
0.0
  0
LINE
  5
31E
330
1F
100
AcDbEntity
  8
0
  6
Continuous
 62
     7
370
    25
100
AcDbLine
 10
99.0286630403
 20
116.8019846341
 30
0.0
 11
98.6846622836
 21
116.4294996092
 31
0.0
  0
LINE
  5
31F
330
1F
100
AcDbEntity
  8
0
  6
Continuous
 62
     7
370
    25
100
AcDbLine
 10
82.2536472987
 20
116.4294996092
 30
0.0
 11
81.909646542
 21
116.8019846341
 31
0.0
  0
LINE
  5
320
330
1F
100
AcDbEntity
  8
0
  6
Continuous
 62
     7
370
    25
100
AcDbLine
 10
81.909646542
 20
116.8019846341
 30
0.0
 11
81.9690071803
 21
117.3055300283
 31
0.0
  0
LINE
  5
321
330
1F
100
AcDbEntity
  8
0
  6
Continuous
 62
     7
370
    25
100
AcDbLine
 10
98.6846622836
 20
116.4294996092
 30
0.0
 11
98.691064195
 21
115.9225078559
 31
0.0
  0
LINE
  5
322
330
1F
100
AcDbEntity
  8
0
  6
Continuous
 62
     7
370
    25
100
AcDbLine
 10
98.691064195
 20
115.9225078559
 30
0.0
 11
98.3100126322
 21
115.5880212577
 31
0.0
  0
LINE
  5
323
330
1F
100
AcDbEntity
  8
0
  6
Continuous
 62
     7
370
    25
100
AcDbLine
 10
82.6282969501
 20
115.5880212577
 30
0.0
 11
82.2472453874
 21
115.9225078559
 31
0.0
  0
LINE
  5
324
330
1F
100
AcDbEntity
  8
0
  6
Continuous
 62
     7
370
    25
100
AcDbLine
 10
82.2472453874
 20
115.9225078559
 30
0.0
 11
82.2536472987
 21
116.4294996092
 31
0.0
  0
LINE
  5
325
330
1F
100
AcDbEntity
  8
0
  6
Continuous
 62
     7
370
    25
100
AcDbLine
 10
83.0888536584
 20
114.7903141359
 30
0.0
 11
82.6749259431
 21
115.0831377859
 31
0.0
  0
LINE
  5
326
330
1F
100
AcDbEntity
  8
0
  6
Continuous
 62
     7
370
    25
100
AcDbLine
 10
82.6749259431
 20
115.0831377859
 30
0.0
 11
82.6282969501
 21
115.5880212577
 31
0.0
  0
LINE
  5
327
330
1F
100
AcDbEntity
  8
0
  6
Continuous
 62
     7
370
    25
100
AcDbLine
 10
98.2633836392
 20
115.0831377859
 30
0.0
 11
97.849455924
 21
114.7903141359
 31
0.0
  0
LINE
  5
328
330
1F
100
AcDbEntity
  8
0
  6
Continuous
 62
     7
370
    25
100
AcDbLine
 10
98.3100126322
 20
115.5880212577
 30
0.0
 11
98.2633836392
 21
115.0831377859
 31
0.0
  0
LINE
  5
329
330
1F
100
AcDbEntity
  8
0
  6
Continuous
 62
     7
370
    25
100
AcDbLine
 10
83.188001794
 20
114.2930703031
 30
0.0
 11
83.0888536584
 21
114.7903141359
 31
0.0
  0
LINE
  5
32A
330
1F
100
AcDbEntity
  8
0
  6
Continuous
 62
     7
370
    25
100
AcDbLine
 10
83.6302701209
 20
114.0451182405
 30
0.0
 11
83.188001794
 21
114.2930703031
 31
0.0
  0
LINE
  5
32B
330
1F
100
AcDbEntity
  8
0
  6
Continuous
 62
     7
370
    25
100
AcDbLine
 10
97.7503077883
 20
114.2930703031
 30
0.0
 11
97.3080394614
 21
114.0451182405
 31
0.0
  0
LINE
  5
32C
330
1F
100
AcDbEntity
  8
0
  6
Continuous
 62
     7
370
    25
100
AcDbLine
 10
97.849455924
 20
114.7903141359
 30
0.0
 11
97.7503077883
 21
114.2930703031
 31
0.0
  0
LINE
  5
32D
330
1F
100
AcDbEntity
  8
0
  6
Continuous
 62
     7
370
    25
100
AcDbLine
 10
97.3080394614
 20
114.0451182405
 30
0.0
 11
97.1574581053
 21
113.5609622838
 31
0.0
  0
LINE
  5
32E
330
1F
100
AcDbEntity
  8
0
  6
Continuous
 62
     7
370
    25
100
AcDbLine
 10
97.1574581053
 20
113.5609622838
 30
0.0
 11
96.6916943725
 21
113.3605980108
 31
0.0
  0
LINE
  5
32F
330
1F
100
AcDbEntity
  8
0
  6
Continuous
 62
     7
370
    25
100
AcDbLine
 10
96.4913300995
 20
112.894834278
 30
0.0
 11
96.0071741428
 21
112.7442529219
 31
0.0
  0
LINE
  5
330
330
1F
100
AcDbEntity
  8
0
  6
Continuous
 62
     7
370
    25
100
AcDbLine
 10
96.6916943725
 20
113.3605980108
 30
0.0
 11
96.4913300995
 21
112.894834278
 31
0.0
  0
LINE
  5
331
330
1F
100
AcDbEntity
  8
0
  6
Continuous
 62
     7
370
    25
100
AcDbLine
 10
84.9311354395
 20
112.7442529219
 30
0.0
 11
84.4469794828
 21
112.894834278
 31
0.0
  0
LINE
  5
332
330
1F
100
AcDbEntity
  8
0
  6
Continuous
 62
     7
370
    25
100
AcDbLine
 10
84.4469794828
 20
112.894834278
 30
0.0
 11
84.2466152098
 21
113.3605980108
 31
0.0
  0
LINE
  5
333
330
1F
100
AcDbEntity
  8
0
  6
Continuous
 62
     7
370
    25
100
AcDbLine
 10
83.780851477
 20
113.5609622838
 30
0.0
 11
83.6302701209
 21
114.0451182405
 31
0.0
  0
LINE
  5
334
330
1F
100
AcDbEntity
  8
0
  6
Continuous
 62
     7
370
    25
100
AcDbLine
 10
84.2466152098
 20
113.3605980108
 30
0.0
 11
83.780851477
 21
113.5609622838
 31
0.0
  0
LINE
  5
335
330
1F
100
AcDbEntity
  8
0
  6
Continuous
 62
     7
370
    25
100
AcDbLine
 10
96.0071741428
 20
112.7442529219
 30
0.0
 11
95.7592220802
 21
112.301984595
 31
0.0
  0
LINE
  5
336
330
1F
100
AcDbEntity
  8
0
  6
Continuous
 62
     7
370
    25
100
AcDbLine
 10
95.7592220802
 20
112.301984595
 30
0.0
 11
95.2619782474
 21
112.2028364593
 31
0.0
  0
LINE
  5
337
330
1F
100
AcDbEntity
  8
0
  6
Continuous
 62
     7
370
    25
100
AcDbLine
 10
95.2619782474
 20
112.2028364593
 30
0.0
 11
94.9691545974
 21
111.7889087441
 31
0.0
  0
LINE
  5
338
330
1F
100
AcDbEntity
  8
0
  6
Continuous
 62
     7
370
    25
100
AcDbLine
 10
94.9691545974
 20
111.7889087441
 30
0.0
 11
94.4642711256
 21
111.7422797511
 31
0.0
  0
LINE
  5
339
330
1F
100
AcDbEntity
  8
0
  6
Continuous
 62
     7
370
    25
100
AcDbLine
 10
86.4740384567
 20
111.7422797511
 30
0.0
 11
85.9691549849
 21
111.7889087441
 31
0.0
  0
LINE
  5
33A
330
1F
100
AcDbEntity
  8
0
  6
Continuous
 62
     7
370
    25
100
AcDbLine
 10
85.9691549849
 20
111.7889087441
 30
0.0
 11
85.6763313349
 21
112.2028364593
 31
0.0
  0
LINE
  5
33B
330
1F
100
AcDbEntity
  8
0
  6
Continuous
 62
     7
370
    25
100
AcDbLine
 10
85.1790875021
 20
112.301984595
 30
0.0
 11
84.9311354395
 21
112.7442529219
 31
0.0
  0
LINE
  5
33C
330
1F
100
AcDbEntity
  8
0
  6
Continuous
 62
     7
370
    25
100
AcDbLine
 10
85.6763313349
 20
112.2028364593
 30
0.0
 11
85.1790875021
 21
112.301984595
 31
0.0
  0
LINE
  5
33D
330
1F
100
AcDbEntity
  8
0
  6
Continuous
 62
     7
370
    25
100
AcDbLine
 10
94.4642711256
 20
111.7422797511
 30
0.0
 11
94.1297845274
 21
111.3612281883
 31
0.0
  0
LINE
  5
33E
330
1F
100
AcDbEntity
  8
0
  6
Continuous
 62
     7
370
    25
100
AcDbLine
 10
94.1297845274
 20
111.3612281883
 30
0.0
 11
93.6227927741
 21
111.3676300997
 31
0.0
  0
LINE
  5
33F
330
1F
100
AcDbEntity
  8
0
  6
Continuous
 62
     7
370
    25
100
AcDbLine
 10
88.1915472273
 20
111.0829899812
 30
0.0
 11
87.6880018331
 21
111.023629343
 31
0.0
  0
LINE
  5
340
330
1F
100
AcDbEntity
  8
0
  6
Continuous
 62
     7
370
    25
100
AcDbLine
 10
87.6880018331
 20
111.023629343
 30
0.0
 11
87.3155168082
 21
111.3676300997
 31
0.0
  0
LINE
  5
341
330
1F
100
AcDbEntity
  8
0
  6
Continuous
 62
     7
370
    25
100
AcDbLine
 10
93.2503077492
 20
111.023629343
 30
0.0
 11
92.746762355
 21
111.0829899812
 31
0.0
  0
LINE
  5
342
330
1F
100
AcDbEntity
  8
0
  6
Continuous
 62
     7
370
    25
100
AcDbLine
 10
93.6227927741
 20
111.3676300997
 30
0.0
 11
93.2503077492
 21
111.023629343
 31
0.0
  0
LINE
  5
343
330
1F
100
AcDbEntity
  8
0
  6
Continuous
 62
     7
370
    25
100
AcDbLine
 10
87.3155168082
 20
111.3676300997
 30
0.0
 11
86.8085250549
 21
111.3612281883
 31
0.0
  0
LINE
  5
344
330
1F
100
AcDbEntity
  8
0
  6
Continuous
 62
     7
370
    25
100
AcDbLine
 10
86.8085250549
 20
111.3612281883
 30
0.0
 11
86.4740384567
 21
111.7422797511
 31
0.0
  0
LINE
  5
345
330
1F
100
AcDbEntity
  8
0
  6
Continuous
 62
     7
370
    25
100
AcDbLine
 10
91.409910965
 20
110.632440334
 30
0.0
 11
90.9297112084
 21
110.7951973358
 31
0.0
  0
LINE
  5
346
330
1F
100
AcDbEntity
  8
0
  6
Continuous
 62
     7
370
    25
100
AcDbLine
 10
91.845778079
 20
110.8914802576
 30
0.0
 11
91.409910965
 21
110.632440334
 31
0.0
  0
LINE
  5
347
330
1F
100
AcDbEntity
  8
0
  6
Continuous
 62
     7
370
    25
100
AcDbLine
 10
90.0085983739
 20
110.7951973358
 30
0.0
 11
89.5283986174
 21
110.632440334
 31
0.0
  0
LINE
  5
348
330
1F
100
AcDbEntity
  8
0
  6
Continuous
 62
     7
370
    25
100
AcDbLine
 10
89.5283986174
 20
110.632440334
 30
0.0
 11
89.0925315034
 21
110.8914802576
 31
0.0
  0
LINE
  5
349
330
1F
100
AcDbEntity
  8
0
  6
Continuous
 62
     7
370
    25
100
AcDbLine
 10
89.0925315034
 20
110.8914802576
 30
0.0
 11
88.5979496233
 21
110.7798090929
 31
0.0
  0
LINE
  5
34A
330
1F
100
AcDbEntity
  8
0
  6
Continuous
 62
     7
370
    25
100
AcDbLine
 10
88.5979496233
 20
110.7798090929
 30
0.0
 11
88.1915472273
 21
111.0829899812
 31
0.0
  0
LINE
  5
34B
330
1F
100
AcDbEntity
  8
0
  6
Continuous
 62
     7
370
    25
100
AcDbLine
 10
92.746762355
 20
111.0829899812
 30
0.0
 11
92.340359959
 21
110.7798090929
 31
0.0
  0
LINE
  5
34C
330
1F
100
AcDbEntity
  8
0
  6
Continuous
 62
     7
370
    25
100
AcDbLine
 10
92.340359959
 20
110.7798090929
 30
0.0
 11
91.845778079
 21
110.8914802576
 31
0.0
  0
LINE
  5
34D
330
1F
100
AcDbEntity
  8
0
  6
Continuous
 62
     7
370
    25
100
AcDbLine
 10
90.9297112084
 20
110.7951973358
 30
0.0
 11
90.4691547912
 21
110.5831379796
 31
0.0
  0
LINE
  5
34E
330
1F
100
AcDbEntity
  8
0
  6
Continuous
 62
     7
370
    25
100
AcDbLine
 10
90.4691547912
 20
110.5831379796
 30
0.0
 11
90.0085983739
 21
110.7951973358
 31
0.0
  0
LINE
  5
34F
330
1F
100
AcDbEntity
  8
0
  6
Continuous
 62
     7
370
    25
100
AcDbLine
 10
77.4691545229
 20
111.5831372122
 30
0.0
 11
77.4691545229
 21
127.5831379721
 31
0.0
  0
LINE
  5
350
330
1F
100
AcDbEntity
  8
0
  6
Continuous
 62
     7
370
    25
100
AcDbLine
 10
73.5691555601
 20
126.1831375564
 30
0.0
 11
73.5691555601
 21
112.9831376279
 31
0.0
  0
LINE
  5
351
330
1F
100
AcDbEntity
  8
0
  6
Continuous
 62
     7
370
    25
100
AcDbLine
 10
72.4191547196
 20
125.0331376473
 30
0.0
 11
72.4191547196
 21
114.133137537
 31
0.0
  0
LINE
  5
352
330
1F
100
AcDbEntity
  8
0
  6
Continuous
 62
     7
370
    25
100
AcDbLine
 10
69.4691550743
 20
126.1831375564
 30
0.0
 11
69.4691550743
 21
112.9831376279
 31
0.0
  0
LINE
  5
353
330
1F
100
AcDbEntity
  8
0
  6
Continuous
 62
     7
370
    25
100
AcDbLine
 10
67.2337778669
 20
126.1831375564
 30
0.0
 11
67.2337778669
 21
112.9831376279
 31
0.0
  0
LINE
  5
354
330
1F
100
AcDbEntity
  8
0
  6
Continuous
 62
     7
370
    25
100
AcDbLine
 10
70.6191540521
 20
125.0331376473
 30
0.0
 11
70.6191540521
 21
114.133137537
 31
0.0
  0
LINE
  5
355
330
1F
100
AcDbEntity
  8
0
  6
Continuous
 62
     7
370
    25
100
AcDbLine
 10
62.4691539269
 20
125.0831375623
 30
0.0
 11
62.4691539269
 21
114.0831376219
 31
0.0
  0
LINE
  5
356
330
1F
100
AcDbEntity
  8
0
  6
Continuous
 62
     7
370
    25
100
AcDbLine
 10
57.46915497
 20
114.383137578
 30
0.0
 11
57.46915497
 21
124.7831376063
 31
0.0
  0
LINE
  5
357
330
1F
100
AcDbEntity
  8
0
  6
Continuous
 62
     1
370
    25
100
AcDbLine
 10
97.4691550072
 20
112.8550067337
 30
0.0
 11
97.4691550072
 21
114.1204934361
 31
0.0
  0
LINE
  5
358
330
1F
100
AcDbEntity
  8
0
  6
Continuous
 62
     1
370
    25
100
AcDbLine
 10
97.4691550072
 20
125.0416056978
 30
0.0
 11
97.4691550072
 21
126.3112684505
 31
0.0
  0
LINE
  5
359
330
1F
100
AcDbEntity
  8
0
  6
Continuous
 62
     1
370
    25
100
AcDbLine
 10
83.4691545751
 20
126.3112684505
 30
0.0
 11
83.4691545751
 21
125.0457817482
 31
0.0
  0
LINE
  5
35A
330
1F
100
AcDbEntity
  8
0
  6
Continuous
 62
     1
370
    25
100
AcDbLine
 10
83.4691545751
 20
114.1246694865
 30
0.0
 11
83.4691545751
 21
112.8550067337
 31
0.0
  0
LINE
  5
35B
330
1F
100
AcDbEntity
  8
0
  6
Continuous
 62
     1
370
    25
100
AcDbLine
 10
97.4691550072
 20
126.3112684505
 30
0.0
 11
96.3632746424
 21
126.3112684505
 31
0.0
  0
LINE
  5
35C
330
1F
100
AcDbEntity
  8
0
  6
Continuous
 62
     1
370
    25
100
AcDbLine
 10
84.5750349399
 20
126.3112684505
 30
0.0
 11
83.4691545751
 21
126.3112684505
 31
0.0
  0
LINE
  5
35D
330
1F
100
AcDbEntity
  8
0
  6
Continuous
 62
     1
370
    25
100
AcDbLine
 10
83.4691545751
 20
112.8550067337
 30
0.0
 11
84.5750349399
 21
112.8550067337
 31
0.0
  0
LINE
  5
35E
330
1F
100
AcDbEntity
  8
0
  6
Continuous
 62
     1
370
    25
100
AcDbLine
 10
96.3632746424
 20
112.8550067337
 30
0.0
 11
97.4691550072
 21
112.8550067337
 31
0.0
  0
LINE
  5
35F
330
1F
100
AcDbEntity
  8
0
  6
Continuous
 62
     1
370
    25
100
AcDbLine
 10
83.4691545751
 20
126.7070409635
 30
0.0
 11
85.0909275759
 21
126.7070409635
 31
0.0
  0
LINE
  5
360
330
1F
100
AcDbEntity
  8
0
  6
Continuous
 62
     1
370
    25
100
AcDbLine
 10
95.8473820064
 20
126.7070409635
 30
0.0
 11
97.4691550072
 21
126.7070409635
 31
0.0
  0
LINE
  5
361
330
1F
100
AcDbEntity
  8
0
  6
Continuous
 62
     1
370
    25
100
AcDbLine
 10
97.4691550072
 20
112.4592342207
 30
0.0
 11
95.8473820064
 21
112.4592342207
 31
0.0
  0
LINE
  5
362
330
1F
100
AcDbEntity
  8
0
  6
Continuous
 62
     1
370
    25
100
AcDbLine
 10
85.0909275759
 20
112.4592342207
 30
0.0
 11
83.4691545751
 21
112.4592342207
 31
0.0
  0
LINE
  5
363
330
1F
100
AcDbEntity
  8
0
  6
Continuous
 62
     1
370
    25
100
AcDbLine
 10
97.5987564597
 20
127.5831379721
 30
0.0
 11
94.324575999
 21
127.5831379721
 31
0.0
  0
LINE
  5
364
330
1F
100
AcDbEntity
  8
0
  6
Continuous
 62
     1
370
    25
100
AcDbLine
 10
86.6137335833
 20
127.5831379721
 30
0.0
 11
83.3395531226
 21
127.5831379721
 31
0.0
  0
LINE
  5
365
330
1F
100
AcDbEntity
  8
0
  6
Continuous
 62
     1
370
    25
100
AcDbLine
 10
83.3395531226
 20
111.5831372122
 30
0.0
 11
86.6137335833
 21
111.5831372122
 31
0.0
  0
LINE
  5
366
330
1F
100
AcDbEntity
  8
0
  6
Continuous
 62
     1
370
    25
100
AcDbLine
 10
94.324575999
 20
111.5831372122
 30
0.0
 11
97.5987564597
 21
111.5831372122
 31
0.0
  0
LINE
  5
367
330
1F
100
AcDbEntity
  8
0
  6
Continuous
 62
     1
370
    25
100
AcDbLine
 10
84.71915478
 20
121.0448907482
 30
0.0
 11
84.71915478
 21
120.8331375642
 31
0.0
  0
LINE
  5
368
330
1F
100
AcDbEntity
  8
0
  6
Continuous
 62
     1
370
    25
100
AcDbLine
 10
84.71915478
 20
120.8331375642
 30
0.0
 11
84.5878075633
 21
120.8331375642
 31
0.0
  0
LINE
  5
369
330
1F
100
AcDbEntity
  8
0
  6
Continuous
 62
     1
370
    25
100
AcDbLine
 10
96.350502019
 20
120.8331375642
 30
0.0
 11
96.2191548023
 21
120.8331375642
 31
0.0
  0
LINE
  5
36A
330
1F
100
AcDbEntity
  8
0
  6
Continuous
 62
     1
370
    25
100
AcDbLine
 10
96.2191548023
 20
120.8331375642
 30
0.0
 11
96.2191548023
 21
121.0448907482
 31
0.0
  0
LINE
  5
36B
330
1F
100
AcDbEntity
  8
0
  6
Continuous
 62
     1
370
    25
100
AcDbLine
 10
84.5878075633
 20
118.3331376201
 30
0.0
 11
84.71915478
 21
118.3331376201
 31
0.0
  0
LINE
  5
36C
330
1F
100
AcDbEntity
  8
0
  6
Continuous
 62
     1
370
    25
100
AcDbLine
 10
96.2191548023
 20
118.3331376201
 30
0.0
 11
96.350502019
 21
118.3331376201
 31
0.0
  0
LINE
  5
36D
330
1F
100
AcDbEntity
  8
0
  6
Continuous
 62
     1
370
    25
100
AcDbLine
 10
84.71915478
 20
118.3331376201
 30
0.0
 11
84.71915478
 21
118.1213844361
 31
0.0
  0
LINE
  5
36E
330
1F
100
AcDbEntity
  8
0
  6
Continuous
 62
     1
370
    25
100
AcDbLine
 10
96.2191548023
 20
118.1213844361
 30
0.0
 11
96.2191548023
 21
118.3331376201
 31
0.0
  0
LINE
  5
36F
330
1F
100
AcDbEntity
  8
0
  6
Continuous
 62
     1
370
    25
100
AcDbLine
 10
57.769156323
 20
125.0831375623
 30
0.0
 11
57.769156323
 21
114.0831376219
 31
0.0
  0
MTEXT
  5
371
330
1F
100
AcDbEntity
  8
0
  6
Continuous
 62
     7
370
     0
100
AcDbMText
 10
109.3997346437
 20
101.1725904703
 30
0.0
 40
3.5
 41
0.0
 71
     1
 72
     1
  1
1R-BO1300
  7
SLDTEXTSTYLE0
 73
     1
 44
1.0
  0
LINE
  5
372
330
1F
100
AcDbEntity
  8
0
  6
Continuous
 62
     7
370
     0
100
AcDbLine
 10
109.7180283894
 20
112.1494745619
 30
0.0
 11
100.9691547912
 21
111.8760722619
 31
0.0
  0
LINE
  5
373
330
1F
100
AcDbEntity
  8
0
  6
Continuous
 62
     7
370
     0
100
AcDbLine
 10
109.7180283894
 20
127.0168006224
 30
0.0
 11
100.9691547912
 21
127.2902029223
 31
0.0
  0
LINE
  5
374
330
1F
100
AcDbEntity
  8
0
  6
Continuous
 62
     7
370
     0
100
AcDbLine
 10
100.9691547912
 20
128.0125750921
 30
0.0
 11
100.9691547912
 21
111.1537000921
 31
0.0
  0
LINE
  5
375
330
1F
100
AcDbEntity
  8
0
  6
Continuous
 62
     7
370
    25
100
AcDbLine
 10
162.1028233179
 20
71.3406955334
 30
0.0
 11
162.1028233179
 21
74.9666630733
 31
0.0
  0
LINE
  5
376
330
1F
100
AcDbEntity
  8
0
  6
Continuous
 62
     7
370
    25
100
AcDbLine
 10
150.3028228738
 20
74.9666630733
 30
0.0
 11
150.3028228738
 21
72.2647575172
 31
0.0
  0
ARC
  5
377
330
1F
100
AcDbEntity
  8
0
  6
Continuous
 62
     7
370
    25
100
AcDbCircle
 10
150.5028230958
 20
71.808405821
 30
0.0
 40
0.500000000000042
100
AcDbArc
 50
113.64497808
 51
180.007858636
  0
LINE
  5
378
330
1F
100
AcDbEntity
  8
0
  6
Continuous
 62
     7
370
    25
100
AcDbLine
 10
148.7028232635
 20
79.9666629615
 30
0.0
 11
148.7028232635
 21
75.1666636648
 31
0.0
  0
LINE
  5
379
330
1F
100
AcDbEntity
  8
0
  6
Continuous
 62
     7
370
    25
100
AcDbLine
 10
163.7028229282
 20
75.1666636648
 30
0.0
 11
163.7028229282
 21
79.9666629615
 31
0.0
  0
LINE
  5
37A
330
1F
100
AcDbEntity
  8
0
  6
Continuous
 62
     7
370
    25
100
AcDbLine
 10
148.7028232635
 20
75.1666636648
 30
0.0
 11
148.9028229237
 21
74.9666630733
 31
0.0
  0
LINE
  5
37B
330
1F
100
AcDbEntity
  8
0
  6
Continuous
 62
     7
370
    25
100
AcDbLine
 10
163.5028232679
 20
74.9666630733
 30
0.0
 11
163.7028229282
 21
75.1666636648
 31
0.0
  0
LINE
  5
37C
330
1F
100
AcDbEntity
  8
0
  6
Continuous
 62
     7
370
    25
100
AcDbLine
 10
147.4028231435
 20
93.466664243
 30
0.0
 11
147.2028234833
 21
93.2666627201
 31
0.0
  0
LINE
  5
37D
330
1F
100
AcDbEntity
  8
0
  6
Continuous
 62
     7
370
    25
100
AcDbLine
 10
147.2028234833
 20
80.1666626218
 30
0.0
 11
147.4028231435
 21
79.9666629615
 31
0.0
  0
LINE
  5
37E
330
1F
100
AcDbEntity
  8
0
  6
Continuous
 62
     7
370
    25
100
AcDbLine
 10
165.2028227084
 20
93.2666627201
 30
0.0
 11
165.0028230481
 21
93.466664243
 31
0.0
  0
LINE
  5
37F
330
1F
100
AcDbEntity
  8
0
  6
Continuous
 62
     7
370
    25
100
AcDbLine
 10
165.0028230481
 20
79.9666629615
 30
0.0
 11
165.2028227084
 21
80.1666626218
 31
0.0
  0
CIRCLE
  5
380
330
1F
100
AcDbEntity
  8
0
  6
Continuous
 62
     7
370
    25
100
AcDbCircle
 10
156.2028230958
 20
63.2666633907
 30
0.0
 40
8.197372169802065
  0
CIRCLE
  5
381
330
1F
100
AcDbEntity
  8
0
  6
Continuous
 62
     7
370
    25
100
AcDbCircle
 10
156.2028230958
 20
63.2666633907
 30
0.0
 40
7.000000000000028
  0
CIRCLE
  5
382
330
1F
100
AcDbEntity
  8
0
  6
Continuous
 62
     7
370
    25
100
AcDbCircle
 10
156.2028230958
 20
63.2666633907
 30
0.0
 40
5.0
  0
CIRCLE
  5
383
330
1F
100
AcDbEntity
  8
0
  6
Continuous
 62
     7
370
    25
100
AcDbCircle
 10
156.2028230958
 20
63.2666633907
 30
0.0
 40
4.5
  0
CIRCLE
  5
384
330
1F
100
AcDbEntity
  8
0
  6
Continuous
 62
     7
370
    25
100
AcDbCircle
 10
156.2028230958
 20
63.2666633907
 30
0.0
 40
8.445062499999977
  0
CIRCLE
  5
385
330
1F
100
AcDbEntity
  8
0
  6
Continuous
 62
     7
370
    25
100
AcDbCircle
 10
156.2028230958
 20
63.2666633907
 30
0.0
 40
10.00000000000003
  0
CIRCLE
  5
386
330
1F
100
AcDbEntity
  8
0
  6
Continuous
 62
     7
370
    25
100
AcDbCircle
 10
156.2028230958
 20
63.2666633907
 30
0.0
 40
9.500000000000028
  0
CIRCLE
  5
387
330
1F
100
AcDbEntity
  8
0
  6
Continuous
 62
     7
370
    25
100
AcDbCircle
 10
156.2028230958
 20
63.2666633907
 30
0.0
 40
3.000000000000028
  0
SPLINE
  5
388
330
1F
100
AcDbEntity
  8
0
  6
Continuous
 62
     7
370
    25
100
AcDbSpline
210
0.0
220
0.0
230
1.0
 70
     8
 71
     3
 72
    13
 73
     9
 74
     0
 42
0.000000001
 43
0.00000001
 40
0.0
 40
0.0
 40
0.0
 40
0.0
 40
0.0737597927454939
 40
0.3006919187459112
 40
0.5298019228134139
 40
0.7613598368541584
 40
0.9918446264450032
 40
1.0
 40
1.0
 40
1.0
 40
1.0
 10
150.3851280406661
 20
71.37317075159861
 30
0.0
 10
150.385046220902
 20
71.40920943645557
 30
0.0
 10
150.3847126714036
 20
71.55612608162714
 30
0.0
 10
150.3655689091567
 20
71.79726621593329
 30
0.0
 10
150.3362175699093
 20
72.0567143229418
 30
0.0
 10
150.3115107174261
 20
72.21586243224586
 30
0.0
 10
150.2999709126208
 20
72.28390842367003
 30
0.0
 10
150.3030339159855
 20
72.26539036011579
 30
0.0
 10
150.3031385921485
 20
72.26475751724554
 30
0.0
  0
SPLINE
  5
389
330
1F
100
AcDbEntity
  8
0
  6
Continuous
 62
     7
370
    25
100
AcDbSpline
210
0.0
220
0.0
230
1.0
 70
    24
 71
     3
 72
    14
 73
    10
 74
     0
 42
0.000000001
 43
0.00000001
 40
0.0
 40
0.0
 40
0.0
 40
0.0
 40
0.0686783537768138
 40
0.2932170497282056
 40
0.2935200239703272
 40
0.5073355948525435
 40
0.7069536501822122
 40
0.9001970470938867
 40
1.0
 40
1.0
 40
1.0
 40
1.0
 10
150.0028229177542
 20
71.266663770643
 30
0.0
 10
150.0028229177542
 20
71.28551596662597
 30
0.0
 10
150.0028229177541
 20
71.36600399499346
 30
0.0
 10
150.0028229177543
 20
71.4456885633321
 30
0.0
 10
150.002822917754
 20
71.55490794084794
 30
0.0
 10
150.0028229177543
 20
71.65159806988555
 30
0.0
 10
150.0028229177542
 20
71.75318290626912
 30
0.0
 10
150.0028229177542
 20
71.80673421803888
 30
0.0
 10
150.0028229177542
 20
71.80252752417408
 30
0.0
 10
150.0028229177542
 20
71.80109484818293
 30
0.0
  0
SPLINE
  5
38A
330
1F
100
AcDbEntity
  8
0
  6
Continuous
 62
     7
370
    25
100
AcDbSpline
210
0.0
220
0.0
230
1.0
 70
    24
 71
     3
 72
     9
 73
     5
 74
     0
 42
0.000000001
 43
0.00000001
 40
0.0
 40
0.0
 40
0.0
 40
0.0
 40
0.2886514344077302
 40
1.0
 40
1.0
 40
1.0
 40
1.0
 10
150.0028229177542
 20
71.08758534070564
 30
0.0
 10
150.0028229177542
 20
71.10369732460633
 30
0.0
 10
150.0028229177542
 20
71.15951545672044
 30
0.0
 10
150.0028229177542
 20
71.22212591263623
 30
0.0
 10
150.0028229177542
 20
71.266663770643
 30
0.0
  0
LINE
  5
38B
330
1F
100
AcDbEntity
  8
0
  6
Continuous
 62
     7
370
    25
100
AcDbLine
 10
156.2028230958
 20
93.9166625473
 30
0.0
 11
156.2028230958
 21
93.466664243
 31
0.0
  0
LINE
  5
38C
330
1F
100
AcDbEntity
  8
0
  6
Continuous
 62
     7
370
    25
100
AcDbLine
 10
158.0778230539
 20
93.9166625473
 30
0.0
 11
158.0778230539
 21
93.466664243
 31
0.0
  0
LINE
  5
38D
330
1F
100
AcDbEntity
  8
0
  6
Continuous
 62
     7
370
    25
100
AcDbLine
 10
158.0778230539
 20
93.9166625473
 30
0.0
 11
156.2028230958
 21
93.9166625473
 31
0.0
  0
LINE
  5
38E
330
1F
100
AcDbEntity
  8
0
  6
Continuous
 62
     7
370
    25
100
AcDbLine
 10
154.3278231377
 20
93.9166625473
 30
0.0
 11
154.3278231377
 21
93.466664243
 31
0.0
  0
LINE
  5
38F
330
1F
100
AcDbEntity
  8
0
  6
Continuous
 62
     7
370
    25
100
AcDbLine
 10
156.2028230958
 20
93.9166625473
 30
0.0
 11
154.3278231377
 21
93.9166625473
 31
0.0
  0
LINE
  5
390
330
1F
100
AcDbEntity
  8
0
  6
Continuous
 62
     7
370
    25
100
AcDbLine
 10
155.7422666786
 20
93.466664243
 30
0.0
 11
156.6633795131
 21
93.466664243
 31
0.0
  0
LINE
  5
391
330
1F
100
AcDbEntity
  8
0
  6
Continuous
 62
     7
370
    25
100
AcDbLine
 10
156.6633795131
 20
93.466664243
 30
0.0
 11
156.2028230958
 21
93.2666627201
 31
0.0
  0
LINE
  5
392
330
1F
100
AcDbEntity
  8
0
  6
Continuous
 62
     7
370
    25
100
AcDbLine
 10
156.2028230958
 20
93.2666627201
 30
0.0
 11
155.7422666786
 21
93.466664243
 31
0.0
  0
LINE
  5
393
330
1F
100
AcDbEntity
  8
0
  6
Continuous
 62
     7
370
    25
100
AcDbLine
 10
156.6633795131
 20
79.9666629615
 30
0.0
 11
156.6633795131
 21
93.466664243
 31
0.0
  0
LINE
  5
394
330
1F
100
AcDbEntity
  8
0
  6
Continuous
 62
     7
370
    25
100
AcDbLine
 10
156.2028230958
 20
80.1666626218
 30
0.0
 11
156.6633795131
 21
79.9666629615
 31
0.0
  0
LINE
  5
395
330
1F
100
AcDbEntity
  8
0
  6
Continuous
 62
     7
370
    25
100
AcDbLine
 10
156.2028230958
 20
80.1666626218
 30
0.0
 11
156.2028230958
 21
93.2666627201
 31
0.0
  0
LINE
  5
396
330
1F
100
AcDbEntity
  8
0
  6
Continuous
 62
     7
370
    25
100
AcDbLine
 10
156.6633795131
 20
79.9666629615
 30
0.0
 11
155.7422666786
 21
79.9666629615
 31
0.0
  0
LINE
  5
397
330
1F
100
AcDbEntity
  8
0
  6
Continuous
 62
     7
370
    25
100
AcDbLine
 10
155.7422666786
 20
79.9666629615
 30
0.0
 11
156.2028230958
 21
80.1666626218
 31
0.0
  0
LINE
  5
398
330
1F
100
AcDbEntity
  8
0
  6
Continuous
 62
     7
370
    25
100
AcDbLine
 10
155.7422666786
 20
79.9666629615
 30
0.0
 11
155.7422666786
 21
93.466664243
 31
0.0
  0
LINE
  5
399
330
1F
100
AcDbEntity
  8
0
  6
Continuous
 62
     7
370
    25
100
AcDbLine
 10
155.262066922
 20
80.1666626218
 30
0.0
 11
155.7422666786
 21
79.9666629615
 31
0.0
  0
LINE
  5
39A
330
1F
100
AcDbEntity
  8
0
  6
Continuous
 62
     7
370
    25
100
AcDbLine
 10
155.262066922
 20
80.1666626218
 30
0.0
 11
155.262066922
 21
93.2666627201
 31
0.0
  0
LINE
  5
39B
330
1F
100
AcDbEntity
  8
0
  6
Continuous
 62
     7
370
    25
100
AcDbLine
 10
155.7422666786
 20
93.466664243
 30
0.0
 11
155.262066922
 21
93.2666627201
 31
0.0
  0
LINE
  5
39C
330
1F
100
AcDbEntity
  8
0
  6
Continuous
 62
     7
370
    25
100
AcDbLine
 10
154.826199808
 20
93.466664243
 30
0.0
 11
155.7422666786
 21
93.466664243
 31
0.0
  0
LINE
  5
39D
330
1F
100
AcDbEntity
  8
0
  6
Continuous
 62
     7
370
    25
100
AcDbLine
 10
155.262066922
 20
93.2666627201
 30
0.0
 11
154.826199808
 21
93.466664243
 31
0.0
  0
LINE
  5
39E
330
1F
100
AcDbEntity
  8
0
  6
Continuous
 62
     7
370
    25
100
AcDbLine
 10
154.826199808
 20
79.9666629615
 30
0.0
 11
155.262066922
 21
80.1666626218
 31
0.0
  0
LINE
  5
39F
330
1F
100
AcDbEntity
  8
0
  6
Continuous
 62
     7
370
    25
100
AcDbLine
 10
154.826199808
 20
79.9666629615
 30
0.0
 11
154.826199808
 21
93.466664243
 31
0.0
  0
LINE
  5
3A0
330
1F
100
AcDbEntity
  8
0
  6
Continuous
 62
     7
370
    25
100
AcDbLine
 10
155.7422666786
 20
79.9666629615
 30
0.0
 11
154.826199808
 21
79.9666629615
 31
0.0
  0
LINE
  5
3A1
330
1F
100
AcDbEntity
  8
0
  6
Continuous
 62
     7
370
    25
100
AcDbLine
 10
157.5794463836
 20
79.9666629615
 30
0.0
 11
157.5794463836
 21
93.466664243
 31
0.0
  0
LINE
  5
3A2
330
1F
100
AcDbEntity
  8
0
  6
Continuous
 62
     7
370
    25
100
AcDbLine
 10
157.1435792696
 20
80.1666626218
 30
0.0
 11
157.5794463836
 21
79.9666629615
 31
0.0
  0
LINE
  5
3A3
330
1F
100
AcDbEntity
  8
0
  6
Continuous
 62
     7
370
    25
100
AcDbLine
 10
157.1435792696
 20
80.1666626218
 30
0.0
 11
157.1435792696
 21
93.2666627201
 31
0.0
  0
LINE
  5
3A4
330
1F
100
AcDbEntity
  8
0
  6
Continuous
 62
     7
370
    25
100
AcDbLine
 10
157.5794463836
 20
93.466664243
 30
0.0
 11
157.1435792696
 21
93.2666627201
 31
0.0
  0
LINE
  5
3A5
330
1F
100
AcDbEntity
  8
0
  6
Continuous
 62
     7
370
    25
100
AcDbLine
 10
156.6633795131
 20
93.466664243
 30
0.0
 11
157.5794463836
 21
93.466664243
 31
0.0
  0
LINE
  5
3A6
330
1F
100
AcDbEntity
  8
0
  6
Continuous
 62
     7
370
    25
100
AcDbLine
 10
157.1435792696
 20
93.2666627201
 30
0.0
 11
156.6633795131
 21
93.466664243
 31
0.0
  0
LINE
  5
3A7
330
1F
100
AcDbEntity
  8
0
  6
Continuous
 62
     7
370
    25
100
AcDbLine
 10
157.5794463836
 20
79.9666629615
 30
0.0
 11
156.6633795131
 21
79.9666629615
 31
0.0
  0
LINE
  5
3A8
330
1F
100
AcDbEntity
  8
0
  6
Continuous
 62
     7
370
    25
100
AcDbLine
 10
156.6633795131
 20
79.9666629615
 30
0.0
 11
157.1435792696
 21
80.1666626218
 31
0.0
  0
LINE
  5
3A9
330
1F
100
AcDbEntity
  8
0
  6
Continuous
 62
     7
370
    25
100
AcDbLine
 10
154.331617928
 20
80.1666626218
 30
0.0
 11
154.826199808
 21
79.9666629615
 31
0.0
  0
LINE
  5
3AA
330
1F
100
AcDbEntity
  8
0
  6
Continuous
 62
     7
370
    25
100
AcDbLine
 10
154.331617928
 20
80.1666626218
 30
0.0
 11
154.331617928
 21
93.2666627201
 31
0.0
  0
LINE
  5
3AB
330
1F
100
AcDbEntity
  8
0
  6
Continuous
 62
     7
370
    25
100
AcDbLine
 10
154.826199808
 20
93.466664243
 30
0.0
 11
154.331617928
 21
93.2666627201
 31
0.0
  0
LINE
  5
3AC
330
1F
100
AcDbEntity
  8
0
  6
Continuous
 62
     7
370
    25
100
AcDbLine
 10
153.9252155319
 20
93.466664243
 30
0.0
 11
154.826199808
 21
93.466664243
 31
0.0
  0
LINE
  5
3AD
330
1F
100
AcDbEntity
  8
0
  6
Continuous
 62
     7
370
    25
100
AcDbLine
 10
154.331617928
 20
93.2666627201
 30
0.0
 11
153.9252155319
 21
93.466664243
 31
0.0
  0
LINE
  5
3AE
330
1F
100
AcDbEntity
  8
0
  6
Continuous
 62
     7
370
    25
100
AcDbLine
 10
154.826199808
 20
79.9666629615
 30
0.0
 11
153.9252155319
 21
79.9666629615
 31
0.0
  0
LINE
  5
3AF
330
1F
100
AcDbEntity
  8
0
  6
Continuous
 62
     7
370
    25
100
AcDbLine
 10
153.9252155319
 20
79.9666629615
 30
0.0
 11
154.331617928
 21
80.1666626218
 31
0.0
  0
LINE
  5
3B0
330
1F
100
AcDbEntity
  8
0
  6
Continuous
 62
     7
370
    25
100
AcDbLine
 10
153.9252155319
 20
79.9666629615
 30
0.0
 11
153.9252155319
 21
93.466664243
 31
0.0
  0
LINE
  5
3B1
330
1F
100
AcDbEntity
  8
0
  6
Continuous
 62
     7
370
    25
100
AcDbLine
 10
157.5794463836
 20
93.466664243
 30
0.0
 11
158.4804306597
 21
93.466664243
 31
0.0
  0
LINE
  5
3B2
330
1F
100
AcDbEntity
  8
0
  6
Continuous
 62
     7
370
    25
100
AcDbLine
 10
158.4804306597
 20
93.466664243
 30
0.0
 11
158.0740282637
 21
93.2666627201
 31
0.0
  0
LINE
  5
3B3
330
1F
100
AcDbEntity
  8
0
  6
Continuous
 62
     7
370
    25
100
AcDbLine
 10
158.0740282637
 20
93.2666627201
 30
0.0
 11
157.5794463836
 21
93.466664243
 31
0.0
  0
LINE
  5
3B4
330
1F
100
AcDbEntity
  8
0
  6
Continuous
 62
     7
370
    25
100
AcDbLine
 10
158.4804306597
 20
79.9666629615
 30
0.0
 11
158.4804306597
 21
93.466664243
 31
0.0
  0
LINE
  5
3B5
330
1F
100
AcDbEntity
  8
0
  6
Continuous
 62
     7
370
    25
100
AcDbLine
 10
158.0740282637
 20
80.1666626218
 30
0.0
 11
158.4804306597
 21
79.9666629615
 31
0.0
  0
LINE
  5
3B6
330
1F
100
AcDbEntity
  8
0
  6
Continuous
 62
     7
370
    25
100
AcDbLine
 10
158.0740282637
 20
80.1666626218
 30
0.0
 11
158.0740282637
 21
93.2666627201
 31
0.0
  0
LINE
  5
3B7
330
1F
100
AcDbEntity
  8
0
  6
Continuous
 62
     7
370
    25
100
AcDbLine
 10
158.4804306597
 20
79.9666629615
 30
0.0
 11
157.5794463836
 21
79.9666629615
 31
0.0
  0
LINE
  5
3B8
330
1F
100
AcDbEntity
  8
0
  6
Continuous
 62
     7
370
    25
100
AcDbLine
 10
157.5794463836
 20
79.9666629615
 30
0.0
 11
158.0740282637
 21
80.1666626218
 31
0.0
  0
LINE
  5
3B9
330
1F
100
AcDbEntity
  8
0
  6
Continuous
 62
     7
370
    25
100
AcDbLine
 10
153.4216701378
 20
80.1666626218
 30
0.0
 11
153.9252155319
 21
79.9666629615
 31
0.0
  0
LINE
  5
3BA
330
1F
100
AcDbEntity
  8
0
  6
Continuous
 62
     7
370
    25
100
AcDbLine
 10
153.4216701378
 20
80.1666626218
 30
0.0
 11
153.4216701378
 21
93.2666627201
 31
0.0
  0
LINE
  5
3BB
330
1F
100
AcDbEntity
  8
0
  6
Continuous
 62
     7
370
    25
100
AcDbLine
 10
153.9252155319
 20
93.466664243
 30
0.0
 11
153.4216701378
 21
93.2666627201
 31
0.0
  0
LINE
  5
3BC
330
1F
100
AcDbEntity
  8
0
  6
Continuous
 62
     7
370
    25
100
AcDbLine
 10
153.4216701378
 20
93.2666627201
 30
0.0
 11
153.0491851129
 21
93.466664243
 31
0.0
  0
LINE
  5
3BD
330
1F
100
AcDbEntity
  8
0
  6
Continuous
 62
     7
370
    25
100
AcDbLine
 10
153.0491851129
 20
93.466664243
 30
0.0
 11
153.9252155319
 21
93.466664243
 31
0.0
  0
LINE
  5
3BE
330
1F
100
AcDbEntity
  8
0
  6
Continuous
 62
     7
370
    25
100
AcDbLine
 10
153.0491851129
 20
79.9666629615
 30
0.0
 11
153.4216701378
 21
80.1666626218
 31
0.0
  0
LINE
  5
3BF
330
1F
100
AcDbEntity
  8
0
  6
Continuous
 62
     7
370
    25
100
AcDbLine
 10
153.0491851129
 20
79.9666629615
 30
0.0
 11
153.0491851129
 21
93.466664243
 31
0.0
  0
LINE
  5
3C0
330
1F
100
AcDbEntity
  8
0
  6
Continuous
 62
     7
370
    25
100
AcDbLine
 10
153.9252155319
 20
79.9666629615
 30
0.0
 11
153.0491851129
 21
79.9666629615
 31
0.0
  0
LINE
  5
3C1
330
1F
100
AcDbEntity
  8
0
  6
Continuous
 62
     7
370
    25
100
AcDbLine
 10
158.9839760539
 20
80.1666626218
 30
0.0
 11
158.9839760539
 21
93.2666627201
 31
0.0
  0
LINE
  5
3C2
330
1F
100
AcDbEntity
  8
0
  6
Continuous
 62
     7
370
    25
100
AcDbLine
 10
158.4804306597
 20
79.9666629615
 30
0.0
 11
158.9839760539
 21
80.1666626218
 31
0.0
  0
LINE
  5
3C3
330
1F
100
AcDbEntity
  8
0
  6
Continuous
 62
     7
370
    25
100
AcDbLine
 10
158.9839760539
 20
93.2666627201
 30
0.0
 11
158.4804306597
 21
93.466664243
 31
0.0
  0
LINE
  5
3C4
330
1F
100
AcDbEntity
  8
0
  6
Continuous
 62
     7
370
    25
100
AcDbLine
 10
159.3564610787
 20
93.466664243
 30
0.0
 11
158.9839760539
 21
93.2666627201
 31
0.0
  0
LINE
  5
3C5
330
1F
100
AcDbEntity
  8
0
  6
Continuous
 62
     7
370
    25
100
AcDbLine
 10
158.4804306597
 20
93.466664243
 30
0.0
 11
159.3564610787
 21
93.466664243
 31
0.0
  0
LINE
  5
3C6
330
1F
100
AcDbEntity
  8
0
  6
Continuous
 62
     7
370
    25
100
AcDbLine
 10
159.3564610787
 20
79.9666629615
 30
0.0
 11
159.3564610787
 21
93.466664243
 31
0.0
  0
LINE
  5
3C7
330
1F
100
AcDbEntity
  8
0
  6
Continuous
 62
     7
370
    25
100
AcDbLine
 10
158.9839760539
 20
80.1666626218
 30
0.0
 11
159.3564610787
 21
79.9666629615
 31
0.0
  0
LINE
  5
3C8
330
1F
100
AcDbEntity
  8
0
  6
Continuous
 62
     7
370
    25
100
AcDbLine
 10
159.3564610787
 20
79.9666629615
 30
0.0
 11
158.4804306597
 21
79.9666629615
 31
0.0
  0
LINE
  5
3C9
330
1F
100
AcDbEntity
  8
0
  6
Continuous
 62
     7
370
    25
100
AcDbLine
 10
153.0491851129
 20
93.466664243
 30
0.0
 11
152.5421933596
 21
93.2666627201
 31
0.0
  0
LINE
  5
3CA
330
1F
100
AcDbEntity
  8
0
  6
Continuous
 62
     7
370
    25
100
AcDbLine
 10
152.5421933596
 20
93.2666627201
 30
0.0
 11
152.2077067614
 21
93.466664243
 31
0.0
  0
LINE
  5
3CB
330
1F
100
AcDbEntity
  8
0
  6
Continuous
 62
     7
370
    25
100
AcDbLine
 10
152.2077067614
 20
93.466664243
 30
0.0
 11
153.0491851129
 21
93.466664243
 31
0.0
  0
LINE
  5
3CC
330
1F
100
AcDbEntity
  8
0
  6
Continuous
 62
     7
370
    25
100
AcDbLine
 10
152.5421933596
 20
80.1666626218
 30
0.0
 11
153.0491851129
 21
79.9666629615
 31
0.0
  0
LINE
  5
3CD
330
1F
100
AcDbEntity
  8
0
  6
Continuous
 62
     7
370
    25
100
AcDbLine
 10
152.5421933596
 20
80.1666626218
 30
0.0
 11
152.5421933596
 21
93.2666627201
 31
0.0
  0
LINE
  5
3CE
330
1F
100
AcDbEntity
  8
0
  6
Continuous
 62
     7
370
    25
100
AcDbLine
 10
152.2077067614
 20
79.9666629615
 30
0.0
 11
152.5421933596
 21
80.1666626218
 31
0.0
  0
LINE
  5
3CF
330
1F
100
AcDbEntity
  8
0
  6
Continuous
 62
     7
370
    25
100
AcDbLine
 10
153.0491851129
 20
79.9666629615
 30
0.0
 11
152.2077067614
 21
79.9666629615
 31
0.0
  0
LINE
  5
3D0
330
1F
100
AcDbEntity
  8
0
  6
Continuous
 62
     7
370
    25
100
AcDbLine
 10
159.8634528321
 20
80.1666626218
 30
0.0
 11
160.1979394302
 21
79.9666629615
 31
0.0
  0
LINE
  5
3D1
330
1F
100
AcDbEntity
  8
0
  6
Continuous
 62
     7
370
    25
100
AcDbLine
 10
159.3564610787
 20
79.9666629615
 30
0.0
 11
159.8634528321
 21
80.1666626218
 31
0.0
  0
LINE
  5
3D2
330
1F
100
AcDbEntity
  8
0
  6
Continuous
 62
     7
370
    25
100
AcDbLine
 10
160.1979394302
 20
79.9666629615
 30
0.0
 11
159.3564610787
 21
79.9666629615
 31
0.0
  0
LINE
  5
3D3
330
1F
100
AcDbEntity
  8
0
  6
Continuous
 62
     7
370
    25
100
AcDbLine
 10
159.8634528321
 20
80.1666626218
 30
0.0
 11
159.8634528321
 21
93.2666627201
 31
0.0
  0
LINE
  5
3D4
330
1F
100
AcDbEntity
  8
0
  6
Continuous
 62
     7
370
    25
100
AcDbLine
 10
159.8634528321
 20
93.2666627201
 30
0.0
 11
159.3564610787
 21
93.466664243
 31
0.0
  0
LINE
  5
3D5
330
1F
100
AcDbEntity
  8
0
  6
Continuous
 62
     7
370
    25
100
AcDbLine
 10
160.1979394302
 20
93.466664243
 30
0.0
 11
159.8634528321
 21
93.2666627201
 31
0.0
  0
LINE
  5
3D6
330
1F
100
AcDbEntity
  8
0
  6
Continuous
 62
     7
370
    25
100
AcDbLine
 10
159.3564610787
 20
93.466664243
 30
0.0
 11
160.1979394302
 21
93.466664243
 31
0.0
  0
LINE
  5
3D7
330
1F
100
AcDbEntity
  8
0
  6
Continuous
 62
     7
370
    25
100
AcDbLine
 10
152.2077067614
 20
79.9666629615
 30
0.0
 11
152.2077067614
 21
93.466664243
 31
0.0
  0
LINE
  5
3D8
330
1F
100
AcDbEntity
  8
0
  6
Continuous
 62
     7
370
    25
100
AcDbLine
 10
160.1979394302
 20
79.9666629615
 30
0.0
 11
160.1979394302
 21
93.466664243
 31
0.0
  0
LINE
  5
3D9
330
1F
100
AcDbEntity
  8
0
  6
Continuous
 62
     7
370
    25
100
AcDbLine
 10
152.2077067614
 20
93.466664243
 30
0.0
 11
151.7028232895
 21
93.2666627201
 31
0.0
  0
LINE
  5
3DA
330
1F
100
AcDbEntity
  8
0
  6
Continuous
 62
     7
370
    25
100
AcDbLine
 10
151.7028232895
 20
93.2666627201
 30
0.0
 11
151.4099996396
 21
93.466664243
 31
0.0
  0
LINE
  5
3DB
330
1F
100
AcDbEntity
  8
0
  6
Continuous
 62
     7
370
    25
100
AcDbLine
 10
151.4099996396
 20
93.466664243
 30
0.0
 11
152.2077067614
 21
93.466664243
 31
0.0
  0
LINE
  5
3DC
330
1F
100
AcDbEntity
  8
0
  6
Continuous
 62
     7
370
    25
100
AcDbLine
 10
151.7028232895
 20
80.1666626218
 30
0.0
 11
152.2077067614
 21
79.9666629615
 31
0.0
  0
LINE
  5
3DD
330
1F
100
AcDbEntity
  8
0
  6
Continuous
 62
     7
370
    25
100
AcDbLine
 10
151.7028232895
 20
80.1666626218
 30
0.0
 11
151.7028232895
 21
93.2666627201
 31
0.0
  0
LINE
  5
3DE
330
1F
100
AcDbEntity
  8
0
  6
Continuous
 62
     7
370
    25
100
AcDbLine
 10
151.4099996396
 20
79.9666629615
 30
0.0
 11
151.7028232895
 21
80.1666626218
 31
0.0
  0
LINE
  5
3DF
330
1F
100
AcDbEntity
  8
0
  6
Continuous
 62
     7
370
    25
100
AcDbLine
 10
152.2077067614
 20
79.9666629615
 30
0.0
 11
151.4099996396
 21
79.9666629615
 31
0.0
  0
LINE
  5
3E0
330
1F
100
AcDbEntity
  8
0
  6
Continuous
 62
     7
370
    25
100
AcDbLine
 10
160.9956465521
 20
93.466664243
 30
0.0
 11
160.7028229021
 21
93.2666627201
 31
0.0
  0
LINE
  5
3E1
330
1F
100
AcDbEntity
  8
0
  6
Continuous
 62
     7
370
    25
100
AcDbLine
 10
160.7028229021
 20
93.2666627201
 30
0.0
 11
160.1979394302
 21
93.466664243
 31
0.0
  0
LINE
  5
3E2
330
1F
100
AcDbEntity
  8
0
  6
Continuous
 62
     7
370
    25
100
AcDbLine
 10
160.1979394302
 20
93.466664243
 30
0.0
 11
160.9956465521
 21
93.466664243
 31
0.0
  0
LINE
  5
3E3
330
1F
100
AcDbEntity
  8
0
  6
Continuous
 62
     7
370
    25
100
AcDbLine
 10
160.7028229021
 20
80.1666626218
 30
0.0
 11
160.7028229021
 21
93.2666627201
 31
0.0
  0
LINE
  5
3E4
330
1F
100
AcDbEntity
  8
0
  6
Continuous
 62
     7
370
    25
100
AcDbLine
 10
160.1979394302
 20
79.9666629615
 30
0.0
 11
160.7028229021
 21
80.1666626218
 31
0.0
  0
LINE
  5
3E5
330
1F
100
AcDbEntity
  8
0
  6
Continuous
 62
     7
370
    25
100
AcDbLine
 10
160.7028229021
 20
80.1666626218
 30
0.0
 11
160.9956465521
 21
79.9666629615
 31
0.0
  0
LINE
  5
3E6
330
1F
100
AcDbEntity
  8
0
  6
Continuous
 62
     7
370
    25
100
AcDbLine
 10
160.9956465521
 20
79.9666629615
 30
0.0
 11
160.1979394302
 21
79.9666629615
 31
0.0
  0
LINE
  5
3E7
330
1F
100
AcDbEntity
  8
0
  6
Continuous
 62
     7
370
    25
100
AcDbLine
 10
151.4099996396
 20
79.9666629615
 30
0.0
 11
151.4099996396
 21
93.466664243
 31
0.0
  0
LINE
  5
3E8
330
1F
100
AcDbEntity
  8
0
  6
Continuous
 62
     7
370
    25
100
AcDbLine
 10
160.9956465521
 20
79.9666629615
 30
0.0
 11
160.9956465521
 21
93.466664243
 31
0.0
  0
LINE
  5
3E9
330
1F
100
AcDbEntity
  8
0
  6
Continuous
 62
     7
370
    25
100
AcDbLine
 10
148.7028232635
 20
75.1666636648
 30
0.0
 11
163.7028229282
 21
75.1666636648
 31
0.0
  0
LINE
  5
3EA
330
1F
100
AcDbEntity
  8
0
  6
Continuous
 62
     7
370
    25
100
AcDbLine
 10
163.5028232679
 20
74.9666630733
 30
0.0
 11
148.9028229237
 21
74.9666630733
 31
0.0
  0
LINE
  5
3EB
330
1F
100
AcDbEntity
  8
0
  6
Continuous
 62
     7
370
    25
100
AcDbLine
 10
150.9127558068
 20
80.1666626218
 30
0.0
 11
151.4099996396
 21
79.9666629615
 31
0.0
  0
LINE
  5
3EC
330
1F
100
AcDbEntity
  8
0
  6
Continuous
 62
     7
370
    25
100
AcDbLine
 10
150.9127558068
 20
80.1666626218
 30
0.0
 11
150.9127558068
 21
93.2666627201
 31
0.0
  0
LINE
  5
3ED
330
1F
100
AcDbEntity
  8
0
  6
Continuous
 62
     7
370
    25
100
AcDbLine
 10
151.4099996396
 20
93.466664243
 30
0.0
 11
150.9127558068
 21
93.2666627201
 31
0.0
  0
LINE
  5
3EE
330
1F
100
AcDbEntity
  8
0
  6
Continuous
 62
     7
370
    25
100
AcDbLine
 10
150.9127558068
 20
93.2666627201
 30
0.0
 11
150.6648037442
 21
93.466664243
 31
0.0
  0
LINE
  5
3EF
330
1F
100
AcDbEntity
  8
0
  6
Continuous
 62
     7
370
    25
100
AcDbLine
 10
150.6648037442
 20
93.466664243
 30
0.0
 11
151.4099996396
 21
93.466664243
 31
0.0
  0
LINE
  5
3F0
330
1F
100
AcDbEntity
  8
0
  6
Continuous
 62
     7
370
    25
100
AcDbLine
 10
150.6648037442
 20
79.9666629615
 30
0.0
 11
150.9127558068
 21
80.1666626218
 31
0.0
  0
LINE
  5
3F1
330
1F
100
AcDbEntity
  8
0
  6
Continuous
 62
     7
370
    25
100
AcDbLine
 10
151.4099996396
 20
79.9666629615
 30
0.0
 11
150.6648037442
 21
79.9666629615
 31
0.0
  0
LINE
  5
3F2
330
1F
100
AcDbEntity
  8
0
  6
Continuous
 62
     7
370
    25
100
AcDbLine
 10
161.7408424475
 20
93.466664243
 30
0.0
 11
161.4928903848
 21
93.2666627201
 31
0.0
  0
LINE
  5
3F3
330
1F
100
AcDbEntity
  8
0
  6
Continuous
 62
     7
370
    25
100
AcDbLine
 10
161.4928903848
 20
93.2666627201
 30
0.0
 11
160.9956465521
 21
93.466664243
 31
0.0
  0
LINE
  5
3F4
330
1F
100
AcDbEntity
  8
0
  6
Continuous
 62
     7
370
    25
100
AcDbLine
 10
160.9956465521
 20
93.466664243
 30
0.0
 11
161.7408424475
 21
93.466664243
 31
0.0
  0
LINE
  5
3F5
330
1F
100
AcDbEntity
  8
0
  6
Continuous
 62
     7
370
    25
100
AcDbLine
 10
161.4928903848
 20
80.1666626218
 30
0.0
 11
161.4928903848
 21
93.2666627201
 31
0.0
  0
LINE
  5
3F6
330
1F
100
AcDbEntity
  8
0
  6
Continuous
 62
     7
370
    25
100
AcDbLine
 10
160.9956465521
 20
79.9666629615
 30
0.0
 11
161.4928903848
 21
80.1666626218
 31
0.0
  0
LINE
  5
3F7
330
1F
100
AcDbEntity
  8
0
  6
Continuous
 62
     7
370
    25
100
AcDbLine
 10
161.4928903848
 20
80.1666626218
 30
0.0
 11
161.7408424475
 21
79.9666629615
 31
0.0
  0
LINE
  5
3F8
330
1F
100
AcDbEntity
  8
0
  6
Continuous
 62
     7
370
    25
100
AcDbLine
 10
161.7408424475
 20
79.9666629615
 30
0.0
 11
160.9956465521
 21
79.9666629615
 31
0.0
  0
LINE
  5
3F9
330
1F
100
AcDbEntity
  8
0
  6
Continuous
 62
     7
370
    25
100
AcDbLine
 10
150.6648037442
 20
79.9666629615
 30
0.0
 11
150.6648037442
 21
93.466664243
 31
0.0
  0
LINE
  5
3FA
330
1F
100
AcDbEntity
  8
0
  6
Continuous
 62
     7
370
    25
100
AcDbLine
 10
161.7408424475
 20
79.9666629615
 30
0.0
 11
161.7408424475
 21
93.466664243
 31
0.0
  0
LINE
  5
3FB
330
1F
100
AcDbEntity
  8
0
  6
Continuous
 62
     7
370
    25
100
AcDbLine
 10
150.1806477875
 20
80.1666626218
 30
0.0
 11
150.6648037442
 21
79.9666629615
 31
0.0
  0
LINE
  5
3FC
330
1F
100
AcDbEntity
  8
0
  6
Continuous
 62
     7
370
    25
100
AcDbLine
 10
150.1806477875
 20
80.1666626218
 30
0.0
 11
150.1806477875
 21
93.2666627201
 31
0.0
  0
LINE
  5
3FD
330
1F
100
AcDbEntity
  8
0
  6
Continuous
 62
     7
370
    25
100
AcDbLine
 10
150.6648037442
 20
93.466664243
 30
0.0
 11
150.1806477875
 21
93.2666627201
 31
0.0
  0
LINE
  5
3FE
330
1F
100
AcDbEntity
  8
0
  6
Continuous
 62
     7
370
    25
100
AcDbLine
 10
150.1806477875
 20
93.2666627201
 30
0.0
 11
149.9802835145
 21
93.466664243
 31
0.0
  0
LINE
  5
3FF
330
1F
100
AcDbEntity
  8
0
  6
Continuous
 62
     7
370
    25
100
AcDbLine
 10
149.9802835145
 20
93.466664243
 30
0.0
 11
150.6648037442
 21
93.466664243
 31
0.0
  0
LINE
  5
400
330
1F
100
AcDbEntity
  8
0
  6
Continuous
 62
     7
370
    25
100
AcDbLine
 10
149.9802835145
 20
79.9666629615
 30
0.0
 11
150.1806477875
 21
80.1666626218
 31
0.0
  0
LINE
  5
401
330
1F
100
AcDbEntity
  8
0
  6
Continuous
 62
     7
370
    25
100
AcDbLine
 10
150.6648037442
 20
79.9666629615
 30
0.0
 11
149.9802835145
 21
79.9666629615
 31
0.0
  0
LINE
  5
402
330
1F
100
AcDbEntity
  8
0
  6
Continuous
 62
     7
370
    25
100
AcDbLine
 10
162.4253626772
 20
93.466664243
 30
0.0
 11
162.2249984041
 21
93.2666627201
 31
0.0
  0
LINE
  5
403
330
1F
100
AcDbEntity
  8
0
  6
Continuous
 62
     7
370
    25
100
AcDbLine
 10
162.2249984041
 20
93.2666627201
 30
0.0
 11
161.7408424475
 21
93.466664243
 31
0.0
  0
LINE
  5
404
330
1F
100
AcDbEntity
  8
0
  6
Continuous
 62
     7
370
    25
100
AcDbLine
 10
161.7408424475
 20
93.466664243
 30
0.0
 11
162.4253626772
 21
93.466664243
 31
0.0
  0
LINE
  5
405
330
1F
100
AcDbEntity
  8
0
  6
Continuous
 62
     7
370
    25
100
AcDbLine
 10
162.2249984041
 20
80.1666626218
 30
0.0
 11
162.2249984041
 21
93.2666627201
 31
0.0
  0
LINE
  5
406
330
1F
100
AcDbEntity
  8
0
  6
Continuous
 62
     7
370
    25
100
AcDbLine
 10
161.7408424475
 20
79.9666629615
 30
0.0
 11
162.2249984041
 21
80.1666626218
 31
0.0
  0
LINE
  5
407
330
1F
100
AcDbEntity
  8
0
  6
Continuous
 62
     7
370
    25
100
AcDbLine
 10
162.2249984041
 20
80.1666626218
 30
0.0
 11
162.4253626772
 21
79.9666629615
 31
0.0
  0
LINE
  5
408
330
1F
100
AcDbEntity
  8
0
  6
Continuous
 62
     7
370
    25
100
AcDbLine
 10
162.4253626772
 20
79.9666629615
 30
0.0
 11
161.7408424475
 21
79.9666629615
 31
0.0
  0
LINE
  5
409
330
1F
100
AcDbEntity
  8
0
  6
Continuous
 62
     7
370
    25
100
AcDbLine
 10
149.9802835145
 20
79.9666629615
 30
0.0
 11
149.9802835145
 21
93.466664243
 31
0.0
  0
LINE
  5
40A
330
1F
100
AcDbEntity
  8
0
  6
Continuous
 62
     7
370
    25
100
AcDbLine
 10
162.4253626772
 20
79.9666629615
 30
0.0
 11
162.4253626772
 21
93.466664243
 31
0.0
  0
LINE
  5
40B
330
1F
100
AcDbEntity
  8
0
  6
Continuous
 62
     7
370
    25
100
AcDbLine
 10
149.5145197817
 20
80.1666626218
 30
0.0
 11
149.9802835145
 21
79.9666629615
 31
0.0
  0
LINE
  5
40C
330
1F
100
AcDbEntity
  8
0
  6
Continuous
 62
     7
370
    25
100
AcDbLine
 10
149.5145197817
 20
80.1666626218
 30
0.0
 11
149.5145197817
 21
93.2666627201
 31
0.0
  0
LINE
  5
40D
330
1F
100
AcDbEntity
  8
0
  6
Continuous
 62
     7
370
    25
100
AcDbLine
 10
149.9802835145
 20
93.466664243
 30
0.0
 11
149.5145197817
 21
93.2666627201
 31
0.0
  0
LINE
  5
40E
330
1F
100
AcDbEntity
  8
0
  6
Continuous
 62
     7
370
    25
100
AcDbLine
 10
149.5145197817
 20
93.2666627201
 30
0.0
 11
149.3639384255
 21
93.466664243
 31
0.0
  0
LINE
  5
40F
330
1F
100
AcDbEntity
  8
0
  6
Continuous
 62
     7
370
    25
100
AcDbLine
 10
149.3639384255
 20
93.466664243
 30
0.0
 11
149.9802835145
 21
93.466664243
 31
0.0
  0
LINE
  5
410
330
1F
100
AcDbEntity
  8
0
  6
Continuous
 62
     7
370
    25
100
AcDbLine
 10
149.3639384255
 20
79.9666629615
 30
0.0
 11
149.5145197817
 21
80.1666626218
 31
0.0
  0
LINE
  5
411
330
1F
100
AcDbEntity
  8
0
  6
Continuous
 62
     7
370
    25
100
AcDbLine
 10
149.9802835145
 20
79.9666629615
 30
0.0
 11
149.3639384255
 21
79.9666629615
 31
0.0
  0
LINE
  5
412
330
1F
100
AcDbEntity
  8
0
  6
Continuous
 62
     7
370
    25
100
AcDbLine
 10
163.0417077661
 20
93.466664243
 30
0.0
 11
162.89112641
 21
93.2666627201
 31
0.0
  0
LINE
  5
413
330
1F
100
AcDbEntity
  8
0
  6
Continuous
 62
     7
370
    25
100
AcDbLine
 10
162.89112641
 20
93.2666627201
 30
0.0
 11
162.4253626772
 21
93.466664243
 31
0.0
  0
LINE
  5
414
330
1F
100
AcDbEntity
  8
0
  6
Continuous
 62
     7
370
    25
100
AcDbLine
 10
162.4253626772
 20
93.466664243
 30
0.0
 11
163.0417077661
 21
93.466664243
 31
0.0
  0
LINE
  5
415
330
1F
100
AcDbEntity
  8
0
  6
Continuous
 62
     7
370
    25
100
AcDbLine
 10
162.89112641
 20
80.1666626218
 30
0.0
 11
162.89112641
 21
93.2666627201
 31
0.0
  0
LINE
  5
416
330
1F
100
AcDbEntity
  8
0
  6
Continuous
 62
     7
370
    25
100
AcDbLine
 10
162.4253626772
 20
79.9666629615
 30
0.0
 11
162.89112641
 21
80.1666626218
 31
0.0
  0
LINE
  5
417
330
1F
100
AcDbEntity
  8
0
  6
Continuous
 62
     7
370
    25
100
AcDbLine
 10
162.89112641
 20
80.1666626218
 30
0.0
 11
163.0417077661
 21
79.9666629615
 31
0.0
  0
LINE
  5
418
330
1F
100
AcDbEntity
  8
0
  6
Continuous
 62
     7
370
    25
100
AcDbLine
 10
163.0417077661
 20
79.9666629615
 30
0.0
 11
162.4253626772
 21
79.9666629615
 31
0.0
  0
LINE
  5
419
330
1F
100
AcDbEntity
  8
0
  6
Continuous
 62
     7
370
    25
100
AcDbLine
 10
149.3639384255
 20
79.9666629615
 30
0.0
 11
149.3639384255
 21
93.466664243
 31
0.0
  0
LINE
  5
41A
330
1F
100
AcDbEntity
  8
0
  6
Continuous
 62
     7
370
    25
100
AcDbLine
 10
163.0417077661
 20
79.9666629615
 30
0.0
 11
163.0417077661
 21
93.466664243
 31
0.0
  0
LINE
  5
41B
330
1F
100
AcDbEntity
  8
0
  6
Continuous
 62
     7
370
    25
100
AcDbLine
 10
149.3639384255
 20
93.466664243
 30
0.0
 11
148.9216700987
 21
93.2666627201
 31
0.0
  0
LINE
  5
41C
330
1F
100
AcDbEntity
  8
0
  6
Continuous
 62
     7
370
    25
100
AcDbLine
 10
148.9216700987
 20
93.2666627201
 30
0.0
 11
148.822521963
 21
93.466664243
 31
0.0
  0
LINE
  5
41D
330
1F
100
AcDbEntity
  8
0
  6
Continuous
 62
     7
370
    25
100
AcDbLine
 10
148.822521963
 20
93.466664243
 30
0.0
 11
149.3639384255
 21
93.466664243
 31
0.0
  0
LINE
  5
41E
330
1F
100
AcDbEntity
  8
0
  6
Continuous
 62
     7
370
    25
100
AcDbLine
 10
148.9216700987
 20
80.1666626218
 30
0.0
 11
149.3639384255
 21
79.9666629615
 31
0.0
  0
LINE
  5
41F
330
1F
100
AcDbEntity
  8
0
  6
Continuous
 62
     7
370
    25
100
AcDbLine
 10
148.9216700987
 20
80.1666626218
 30
0.0
 11
148.9216700987
 21
93.2666627201
 31
0.0
  0
LINE
  5
420
330
1F
100
AcDbEntity
  8
0
  6
Continuous
 62
     7
370
    25
100
AcDbLine
 10
148.822521963
 20
79.9666629615
 30
0.0
 11
148.9216700987
 21
80.1666626218
 31
0.0
  0
LINE
  5
421
330
1F
100
AcDbEntity
  8
0
  6
Continuous
 62
     7
370
    25
100
AcDbLine
 10
149.3639384255
 20
79.9666629615
 30
0.0
 11
148.822521963
 21
79.9666629615
 31
0.0
  0
LINE
  5
422
330
1F
100
AcDbEntity
  8
0
  6
Continuous
 62
     7
370
    25
100
AcDbLine
 10
163.5831242286
 20
93.466664243
 30
0.0
 11
163.483976093
 21
93.2666627201
 31
0.0
  0
LINE
  5
423
330
1F
100
AcDbEntity
  8
0
  6
Continuous
 62
     7
370
    25
100
AcDbLine
 10
163.483976093
 20
93.2666627201
 30
0.0
 11
163.0417077661
 21
93.466664243
 31
0.0
  0
LINE
  5
424
330
1F
100
AcDbEntity
  8
0
  6
Continuous
 62
     7
370
    25
100
AcDbLine
 10
163.0417077661
 20
93.466664243
 30
0.0
 11
163.5831242286
 21
93.466664243
 31
0.0
  0
LINE
  5
425
330
1F
100
AcDbEntity
  8
0
  6
Continuous
 62
     7
370
    25
100
AcDbLine
 10
163.483976093
 20
80.1666626218
 30
0.0
 11
163.483976093
 21
93.2666627201
 31
0.0
  0
LINE
  5
426
330
1F
100
AcDbEntity
  8
0
  6
Continuous
 62
     7
370
    25
100
AcDbLine
 10
163.0417077661
 20
79.9666629615
 30
0.0
 11
163.483976093
 21
80.1666626218
 31
0.0
  0
LINE
  5
427
330
1F
100
AcDbEntity
  8
0
  6
Continuous
 62
     7
370
    25
100
AcDbLine
 10
163.483976093
 20
80.1666626218
 30
0.0
 11
163.5831242286
 21
79.9666629615
 31
0.0
  0
LINE
  5
428
330
1F
100
AcDbEntity
  8
0
  6
Continuous
 62
     7
370
    25
100
AcDbLine
 10
163.5831242286
 20
79.9666629615
 30
0.0
 11
163.0417077661
 21
79.9666629615
 31
0.0
  0
LINE
  5
429
330
1F
100
AcDbEntity
  8
0
  6
Continuous
 62
     7
370
    25
100
AcDbLine
 10
148.822521963
 20
79.9666629615
 30
0.0
 11
148.822521963
 21
93.466664243
 31
0.0
  0
LINE
  5
42A
330
1F
100
AcDbEntity
  8
0
  6
Continuous
 62
     7
370
    25
100
AcDbLine
 10
163.5831242286
 20
79.9666629615
 30
0.0
 11
163.5831242286
 21
93.466664243
 31
0.0
  0
LINE
  5
42B
330
1F
100
AcDbEntity
  8
0
  6
Continuous
 62
     7
370
    25
100
AcDbLine
 10
148.822521963
 20
93.466664243
 30
0.0
 11
148.4085942478
 21
93.2666627201
 31
0.0
  0
LINE
  5
42C
330
1F
100
AcDbEntity
  8
0
  6
Continuous
 62
     7
370
    25
100
AcDbLine
 10
148.4085942478
 20
93.2666627201
 30
0.0
 11
148.3619652547
 21
93.466664243
 31
0.0
  0
LINE
  5
42D
330
1F
100
AcDbEntity
  8
0
  6
Continuous
 62
     7
370
    25
100
AcDbLine
 10
148.3619652547
 20
93.466664243
 30
0.0
 11
148.822521963
 21
93.466664243
 31
0.0
  0
LINE
  5
42E
330
1F
100
AcDbEntity
  8
0
  6
Continuous
 62
     7
370
    25
100
AcDbLine
 10
148.4085942478
 20
80.1666626218
 30
0.0
 11
148.822521963
 21
79.9666629615
 31
0.0
  0
LINE
  5
42F
330
1F
100
AcDbEntity
  8
0
  6
Continuous
 62
     7
370
    25
100
AcDbLine
 10
148.4085942478
 20
80.1666626218
 30
0.0
 11
148.4085942478
 21
93.2666627201
 31
0.0
  0
LINE
  5
430
330
1F
100
AcDbEntity
  8
0
  6
Continuous
 62
     7
370
    25
100
AcDbLine
 10
148.3619652547
 20
79.9666629615
 30
0.0
 11
148.4085942478
 21
80.1666626218
 31
0.0
  0
LINE
  5
431
330
1F
100
AcDbEntity
  8
0
  6
Continuous
 62
     7
370
    25
100
AcDbLine
 10
148.822521963
 20
79.9666629615
 30
0.0
 11
148.3619652547
 21
79.9666629615
 31
0.0
  0
LINE
  5
432
330
1F
100
AcDbEntity
  8
0
  6
Continuous
 62
     7
370
    25
100
AcDbLine
 10
164.0436809369
 20
93.466664243
 30
0.0
 11
163.9970519439
 21
93.2666627201
 31
0.0
  0
LINE
  5
433
330
1F
100
AcDbEntity
  8
0
  6
Continuous
 62
     7
370
    25
100
AcDbLine
 10
163.9970519439
 20
93.2666627201
 30
0.0
 11
163.5831242286
 21
93.466664243
 31
0.0
  0
LINE
  5
434
330
1F
100
AcDbEntity
  8
0
  6
Continuous
 62
     7
370
    25
100
AcDbLine
 10
163.5831242286
 20
93.466664243
 30
0.0
 11
164.0436809369
 21
93.466664243
 31
0.0
  0
LINE
  5
435
330
1F
100
AcDbEntity
  8
0
  6
Continuous
 62
     7
370
    25
100
AcDbLine
 10
163.9970519439
 20
80.1666626218
 30
0.0
 11
163.9970519439
 21
93.2666627201
 31
0.0
  0
LINE
  5
436
330
1F
100
AcDbEntity
  8
0
  6
Continuous
 62
     7
370
    25
100
AcDbLine
 10
163.5831242286
 20
79.9666629615
 30
0.0
 11
163.9970519439
 21
80.1666626218
 31
0.0
  0
LINE
  5
437
330
1F
100
AcDbEntity
  8
0
  6
Continuous
 62
     7
370
    25
100
AcDbLine
 10
163.9970519439
 20
80.1666626218
 30
0.0
 11
164.0436809369
 21
79.9666629615
 31
0.0
  0
LINE
  5
438
330
1F
100
AcDbEntity
  8
0
  6
Continuous
 62
     7
370
    25
100
AcDbLine
 10
164.0436809369
 20
79.9666629615
 30
0.0
 11
163.5831242286
 21
79.9666629615
 31
0.0
  0
LINE
  5
439
330
1F
100
AcDbEntity
  8
0
  6
Continuous
 62
     7
370
    25
100
AcDbLine
 10
148.3619652547
 20
79.9666629615
 30
0.0
 11
148.3619652547
 21
93.466664243
 31
0.0
  0
LINE
  5
43A
330
1F
100
AcDbEntity
  8
0
  6
Continuous
 62
     7
370
    25
100
AcDbLine
 10
164.0436809369
 20
79.9666629615
 30
0.0
 11
164.0436809369
 21
93.466664243
 31
0.0
  0
LINE
  5
43B
330
1F
100
AcDbEntity
  8
0
  6
Continuous
 62
     7
370
    25
100
AcDbLine
 10
147.980913692
 20
80.1666626218
 30
0.0
 11
148.3619652547
 21
79.9666629615
 31
0.0
  0
LINE
  5
43C
330
1F
100
AcDbEntity
  8
0
  6
Continuous
 62
     7
370
    25
100
AcDbLine
 10
147.980913692
 20
80.1666626218
 30
0.0
 11
147.980913692
 21
93.2666627201
 31
0.0
  0
LINE
  5
43D
330
1F
100
AcDbEntity
  8
0
  6
Continuous
 62
     7
370
    25
100
AcDbLine
 10
148.3619652547
 20
93.466664243
 30
0.0
 11
147.980913692
 21
93.2666627201
 31
0.0
  0
LINE
  5
43E
330
1F
100
AcDbEntity
  8
0
  6
Continuous
 62
     7
370
    25
100
AcDbLine
 10
147.980913692
 20
93.2666627201
 30
0.0
 11
147.9873156034
 21
93.466664243
 31
0.0
  0
LINE
  5
43F
330
1F
100
AcDbEntity
  8
0
  6
Continuous
 62
     7
370
    25
100
AcDbLine
 10
147.9873156034
 20
93.466664243
 30
0.0
 11
148.3619652547
 21
93.466664243
 31
0.0
  0
LINE
  5
440
330
1F
100
AcDbEntity
  8
0
  6
Continuous
 62
     7
370
    25
100
AcDbLine
 10
147.9873156034
 20
79.9666629615
 30
0.0
 11
147.980913692
 21
80.1666626218
 31
0.0
  0
LINE
  5
441
330
1F
100
AcDbEntity
  8
0
  6
Continuous
 62
     7
370
    25
100
AcDbLine
 10
148.3619652547
 20
79.9666629615
 30
0.0
 11
147.9873156034
 21
79.9666629615
 31
0.0
  0
LINE
  5
442
330
1F
100
AcDbEntity
  8
0
  6
Continuous
 62
     7
370
    25
100
AcDbLine
 10
164.4183305882
 20
93.466664243
 30
0.0
 11
164.4247324996
 21
93.2666627201
 31
0.0
  0
LINE
  5
443
330
1F
100
AcDbEntity
  8
0
  6
Continuous
 62
     7
370
    25
100
AcDbLine
 10
164.4247324996
 20
93.2666627201
 30
0.0
 11
164.0436809369
 21
93.466664243
 31
0.0
  0
LINE
  5
444
330
1F
100
AcDbEntity
  8
0
  6
Continuous
 62
     7
370
    25
100
AcDbLine
 10
164.0436809369
 20
93.466664243
 30
0.0
 11
164.4183305882
 21
93.466664243
 31
0.0
  0
LINE
  5
445
330
1F
100
AcDbEntity
  8
0
  6
Continuous
 62
     7
370
    25
100
AcDbLine
 10
164.4247324996
 20
80.1666626218
 30
0.0
 11
164.4247324996
 21
93.2666627201
 31
0.0
  0
LINE
  5
446
330
1F
100
AcDbEntity
  8
0
  6
Continuous
 62
     7
370
    25
100
AcDbLine
 10
164.0436809369
 20
79.9666629615
 30
0.0
 11
164.4247324996
 21
80.1666626218
 31
0.0
  0
LINE
  5
447
330
1F
100
AcDbEntity
  8
0
  6
Continuous
 62
     7
370
    25
100
AcDbLine
 10
164.4247324996
 20
80.1666626218
 30
0.0
 11
164.4183305882
 21
79.9666629615
 31
0.0
  0
LINE
  5
448
330
1F
100
AcDbEntity
  8
0
  6
Continuous
 62
     7
370
    25
100
AcDbLine
 10
164.4183305882
 20
79.9666629615
 30
0.0
 11
164.0436809369
 21
79.9666629615
 31
0.0
  0
LINE
  5
449
330
1F
100
AcDbEntity
  8
0
  6
Continuous
 62
     7
370
    25
100
AcDbLine
 10
147.6433148467
 20
80.1666626218
 30
0.0
 11
147.9873156034
 21
79.9666629615
 31
0.0
  0
LINE
  5
44A
330
1F
100
AcDbEntity
  8
0
  6
Continuous
 62
     7
370
    25
100
AcDbLine
 10
147.6433148467
 20
80.1666626218
 30
0.0
 11
147.6433148467
 21
93.2666627201
 31
0.0
  0
LINE
  5
44B
330
1F
100
AcDbEntity
  8
0
  6
Continuous
 62
     7
370
    25
100
AcDbLine
 10
147.9873156034
 20
93.466664243
 30
0.0
 11
147.6433148467
 21
93.2666627201
 31
0.0
  0
LINE
  5
44C
330
1F
100
AcDbEntity
  8
0
  6
Continuous
 62
     7
370
    25
100
AcDbLine
 10
147.6433148467
 20
93.2666627201
 30
0.0
 11
147.7026754849
 21
93.466664243
 31
0.0
  0
LINE
  5
44D
330
1F
100
AcDbEntity
  8
0
  6
Continuous
 62
     7
370
    25
100
AcDbLine
 10
147.7026754849
 20
93.466664243
 30
0.0
 11
147.9873156034
 21
93.466664243
 31
0.0
  0
LINE
  5
44E
330
1F
100
AcDbEntity
  8
0
  6
Continuous
 62
     7
370
    25
100
AcDbLine
 10
147.7026754849
 20
79.9666629615
 30
0.0
 11
147.6433148467
 21
80.1666626218
 31
0.0
  0
LINE
  5
44F
330
1F
100
AcDbEntity
  8
0
  6
Continuous
 62
     7
370
    25
100
AcDbLine
 10
147.9873156034
 20
79.9666629615
 30
0.0
 11
147.7026754849
 21
79.9666629615
 31
0.0
  0
LINE
  5
450
330
1F
100
AcDbEntity
  8
0
  6
Continuous
 62
     7
370
    25
100
AcDbLine
 10
164.7029707067
 20
93.466664243
 30
0.0
 11
164.762331345
 21
93.2666627201
 31
0.0
  0
LINE
  5
451
330
1F
100
AcDbEntity
  8
0
  6
Continuous
 62
     7
370
    25
100
AcDbLine
 10
164.762331345
 20
93.2666627201
 30
0.0
 11
164.4183305882
 21
93.466664243
 31
0.0
  0
LINE
  5
452
330
1F
100
AcDbEntity
  8
0
  6
Continuous
 62
     7
370
    25
100
AcDbLine
 10
164.4183305882
 20
93.466664243
 30
0.0
 11
164.7029707067
 21
93.466664243
 31
0.0
  0
LINE
  5
453
330
1F
100
AcDbEntity
  8
0
  6
Continuous
 62
     7
370
    25
100
AcDbLine
 10
164.762331345
 20
80.1666626218
 30
0.0
 11
164.762331345
 21
93.2666627201
 31
0.0
  0
LINE
  5
454
330
1F
100
AcDbEntity
  8
0
  6
Continuous
 62
     7
370
    25
100
AcDbLine
 10
164.4183305882
 20
79.9666629615
 30
0.0
 11
164.762331345
 21
80.1666626218
 31
0.0
  0
LINE
  5
455
330
1F
100
AcDbEntity
  8
0
  6
Continuous
 62
     7
370
    25
100
AcDbLine
 10
164.762331345
 20
80.1666626218
 30
0.0
 11
164.7029707067
 21
79.9666629615
 31
0.0
  0
LINE
  5
456
330
1F
100
AcDbEntity
  8
0
  6
Continuous
 62
     7
370
    25
100
AcDbLine
 10
164.7029707067
 20
79.9666629615
 30
0.0
 11
164.4183305882
 21
79.9666629615
 31
0.0
  0
LINE
  5
457
330
1F
100
AcDbEntity
  8
0
  6
Continuous
 62
     7
370
    25
100
AcDbLine
 10
147.3994945966
 20
80.1666626218
 30
0.0
 11
147.7026754849
 21
79.9666629615
 31
0.0
  0
LINE
  5
458
330
1F
100
AcDbEntity
  8
0
  6
Continuous
 62
     7
370
    25
100
AcDbLine
 10
147.3994945966
 20
80.1666626218
 30
0.0
 11
147.3994945966
 21
93.2666627201
 31
0.0
  0
LINE
  5
459
330
1F
100
AcDbEntity
  8
0
  6
Continuous
 62
     7
370
    25
100
AcDbLine
 10
147.7026754849
 20
93.466664243
 30
0.0
 11
147.3994945966
 21
93.2666627201
 31
0.0
  0
LINE
  5
45A
330
1F
100
AcDbEntity
  8
0
  6
Continuous
 62
     7
370
    25
100
AcDbLine
 10
147.3994945966
 20
93.2666627201
 30
0.0
 11
147.5111657613
 21
93.466664243
 31
0.0
  0
LINE
  5
45B
330
1F
100
AcDbEntity
  8
0
  6
Continuous
 62
     7
370
    25
100
AcDbLine
 10
147.5111657613
 20
93.466664243
 30
0.0
 11
147.7026754849
 21
93.466664243
 31
0.0
  0
LINE
  5
45C
330
1F
100
AcDbEntity
  8
0
  6
Continuous
 62
     7
370
    25
100
AcDbLine
 10
147.5111657613
 20
79.9666629615
 30
0.0
 11
147.3994945966
 21
80.1666626218
 31
0.0
  0
LINE
  5
45D
330
1F
100
AcDbEntity
  8
0
  6
Continuous
 62
     7
370
    25
100
AcDbLine
 10
147.7026754849
 20
79.9666629615
 30
0.0
 11
147.5111657613
 21
79.9666629615
 31
0.0
  0
LINE
  5
45E
330
1F
100
AcDbEntity
  8
0
  6
Continuous
 62
     7
370
    25
100
AcDbLine
 10
165.006151595
 20
80.1666626218
 30
0.0
 11
165.006151595
 21
93.2666627201
 31
0.0
  0
LINE
  5
45F
330
1F
100
AcDbEntity
  8
0
  6
Continuous
 62
     7
370
    25
100
AcDbLine
 10
164.7029707067
 20
79.9666629615
 30
0.0
 11
165.006151595
 21
80.1666626218
 31
0.0
  0
LINE
  5
460
330
1F
100
AcDbEntity
  8
0
  6
Continuous
 62
     7
370
    25
100
AcDbLine
 10
165.006151595
 20
93.2666627201
 30
0.0
 11
164.7029707067
 21
93.466664243
 31
0.0
  0
LINE
  5
461
330
1F
100
AcDbEntity
  8
0
  6
Continuous
 62
     7
370
    25
100
AcDbLine
 10
164.8944804304
 20
93.466664243
 30
0.0
 11
165.006151595
 21
93.2666627201
 31
0.0
  0
LINE
  5
462
330
1F
100
AcDbEntity
  8
0
  6
Continuous
 62
     7
370
    25
100
AcDbLine
 10
164.7029707067
 20
93.466664243
 30
0.0
 11
164.8944804304
 21
93.466664243
 31
0.0
  0
LINE
  5
463
330
1F
100
AcDbEntity
  8
0
  6
Continuous
 62
     7
370
    25
100
AcDbLine
 10
165.006151595
 20
80.1666626218
 30
0.0
 11
164.8944804304
 21
79.9666629615
 31
0.0
  0
LINE
  5
464
330
1F
100
AcDbEntity
  8
0
  6
Continuous
 62
     7
370
    25
100
AcDbLine
 10
164.8944804304
 20
79.9666629615
 30
0.0
 11
164.7029707067
 21
79.9666629615
 31
0.0
  0
LINE
  5
465
330
1F
100
AcDbEntity
  8
0
  6
Continuous
 62
     7
370
    25
100
AcDbLine
 10
147.2521258377
 20
80.1666626218
 30
0.0
 11
147.5111657613
 21
79.9666629615
 31
0.0
  0
LINE
  5
466
330
1F
100
AcDbEntity
  8
0
  6
Continuous
 62
     7
370
    25
100
AcDbLine
 10
147.2521258377
 20
80.1666626218
 30
0.0
 11
147.2521258377
 21
93.2666627201
 31
0.0
  0
LINE
  5
467
330
1F
100
AcDbEntity
  8
0
  6
Continuous
 62
     7
370
    25
100
AcDbLine
 10
147.5111657613
 20
93.466664243
 30
0.0
 11
147.2521258377
 21
93.2666627201
 31
0.0
  0
LINE
  5
468
330
1F
100
AcDbEntity
  8
0
  6
Continuous
 62
     7
370
    25
100
AcDbLine
 10
147.2521258377
 20
93.2666627201
 30
0.0
 11
147.4148828395
 21
93.466664243
 31
0.0
  0
LINE
  5
469
330
1F
100
AcDbEntity
  8
0
  6
Continuous
 62
     7
370
    25
100
AcDbLine
 10
147.4148828395
 20
93.466664243
 30
0.0
 11
147.5111657613
 21
93.466664243
 31
0.0
  0
LINE
  5
46A
330
1F
100
AcDbEntity
  8
0
  6
Continuous
 62
     7
370
    25
100
AcDbLine
 10
147.4148828395
 20
79.9666629615
 30
0.0
 11
147.2521258377
 21
80.1666626218
 31
0.0
  0
LINE
  5
46B
330
1F
100
AcDbEntity
  8
0
  6
Continuous
 62
     7
370
    25
100
AcDbLine
 10
147.5111657613
 20
79.9666629615
 30
0.0
 11
147.4148828395
 21
79.9666629615
 31
0.0
  0
LINE
  5
46C
330
1F
100
AcDbEntity
  8
0
  6
Continuous
 62
     7
370
    25
100
AcDbLine
 10
164.9907633521
 20
93.466664243
 30
0.0
 11
165.1535203539
 21
93.2666627201
 31
0.0
  0
LINE
  5
46D
330
1F
100
AcDbEntity
  8
0
  6
Continuous
 62
     7
370
    25
100
AcDbLine
 10
165.1535203539
 20
93.2666627201
 30
0.0
 11
164.8944804304
 21
93.466664243
 31
0.0
  0
LINE
  5
46E
330
1F
100
AcDbEntity
  8
0
  6
Continuous
 62
     7
370
    25
100
AcDbLine
 10
164.8944804304
 20
93.466664243
 30
0.0
 11
164.9907633521
 21
93.466664243
 31
0.0
  0
LINE
  5
46F
330
1F
100
AcDbEntity
  8
0
  6
Continuous
 62
     7
370
    25
100
AcDbLine
 10
165.1535203539
 20
80.1666626218
 30
0.0
 11
165.1535203539
 21
93.2666627201
 31
0.0
  0
LINE
  5
470
330
1F
100
AcDbEntity
  8
0
  6
Continuous
 62
     7
370
    25
100
AcDbLine
 10
164.8944804304
 20
79.9666629615
 30
0.0
 11
165.1535203539
 21
80.1666626218
 31
0.0
  0
LINE
  5
471
330
1F
100
AcDbEntity
  8
0
  6
Continuous
 62
     7
370
    25
100
AcDbLine
 10
165.1535203539
 20
80.1666626218
 30
0.0
 11
164.9907633521
 21
79.9666629615
 31
0.0
  0
LINE
  5
472
330
1F
100
AcDbEntity
  8
0
  6
Continuous
 62
     7
370
    25
100
AcDbLine
 10
164.9907633521
 20
79.9666629615
 30
0.0
 11
164.8944804304
 21
79.9666629615
 31
0.0
  0
LINE
  5
473
330
1F
100
AcDbEntity
  8
0
  6
Continuous
 62
     7
370
    25
100
AcDbLine
 10
147.2028234833
 20
80.1666626218
 30
0.0
 11
147.4148828395
 21
79.9666629615
 31
0.0
  0
LINE
  5
474
330
1F
100
AcDbEntity
  8
0
  6
Continuous
 62
     7
370
    25
100
AcDbLine
 10
147.2028234833
 20
80.1666626218
 30
0.0
 11
147.2028234833
 21
93.2666627201
 31
0.0
  0
LINE
  5
475
330
1F
100
AcDbEntity
  8
0
  6
Continuous
 62
     7
370
    25
100
AcDbLine
 10
147.4148828395
 20
93.466664243
 30
0.0
 11
147.2028234833
 21
93.2666627201
 31
0.0
  0
LINE
  5
476
330
1F
100
AcDbEntity
  8
0
  6
Continuous
 62
     7
370
    25
100
AcDbLine
 10
147.4028231435
 20
93.466664243
 30
0.0
 11
147.4148828395
 21
93.466664243
 31
0.0
  0
LINE
  5
477
330
1F
100
AcDbEntity
  8
0
  6
Continuous
 62
     7
370
    25
100
AcDbLine
 10
147.4148828395
 20
79.9666629615
 30
0.0
 11
147.4028231435
 21
79.9666629615
 31
0.0
  0
LINE
  5
478
330
1F
100
AcDbEntity
  8
0
  6
Continuous
 62
     7
370
    25
100
AcDbLine
 10
165.2028227084
 20
80.1666626218
 30
0.0
 11
165.2028227084
 21
93.2666627201
 31
0.0
  0
LINE
  5
479
330
1F
100
AcDbEntity
  8
0
  6
Continuous
 62
     7
370
    25
100
AcDbLine
 10
164.9907633521
 20
79.9666629615
 30
0.0
 11
165.2028227084
 21
80.1666626218
 31
0.0
  0
LINE
  5
47A
330
1F
100
AcDbEntity
  8
0
  6
Continuous
 62
     7
370
    25
100
AcDbLine
 10
165.2028227084
 20
93.2666627201
 30
0.0
 11
164.9907633521
 21
93.466664243
 31
0.0
  0
LINE
  5
47B
330
1F
100
AcDbEntity
  8
0
  6
Continuous
 62
     7
370
    25
100
AcDbLine
 10
164.9907633521
 20
93.466664243
 30
0.0
 11
165.0028230481
 21
93.466664243
 31
0.0
  0
LINE
  5
47C
330
1F
100
AcDbEntity
  8
0
  6
Continuous
 62
     7
370
    25
100
AcDbLine
 10
165.0028230481
 20
79.9666629615
 30
0.0
 11
164.9907633521
 21
79.9666629615
 31
0.0
  0
ENDSEC
  0
SECTION
  2
OBJECTS
  0
DICTIONARY
  5
C
330
0
100
AcDbDictionary
281
     1
  3
ACAD_GROUP
350
D
  3
ACAD_LAYOUT
350
1A
  3
ACAD_MLINESTYLE
350
17
  3
ACAD_PLOTSETTINGS
350
19
  3
ACAD_PLOTSTYLENAME
350
E
  3
ACAD_SCALELIST
350
47
  0
DICTIONARY
  5
D
102
{ACAD_REACTORS
330
C
102
}
330
C
100
AcDbDictionary
281
     1
  0
DICTIONARY
  5
1A
102
{ACAD_REACTORS
330
C
102
}
330
C
100
AcDbDictionary
281
     1
  3
Layout1
350
1E
  3
Layout2
350
26
  3
Model
350
22
  0
DICTIONARY
  5
17
102
{ACAD_REACTORS
330
C
102
}
330
C
100
AcDbDictionary
281
     1
  3
Standard
350
18
  0
DICTIONARY
  5
19
102
{ACAD_REACTORS
330
C
102
}
330
C
100
AcDbDictionary
281
     1
  0
ACDBDICTIONARYWDFLT
  5
E
102
{ACAD_REACTORS
330
C
102
}
330
C
100
AcDbDictionary
281
     1
  3
Normal
350
F
100
AcDbDictionaryWithDefault
340
F
  0
DICTIONARY
  5
47
102
{ACAD_REACTORS
330
C
102
}
330
C
100
AcDbDictionary
281
     1
  3
A0
350
48
  3
A1
350
49
  3
A2
350
4A
  3
A3
350
4B
  3
A4
350
4C
  3
A5
350
4D
  3
A6
350
4E
  3
A7
350
4F
  3
A8
350
50
  3
A9
350
51
  3
B0
350
52
  3
B1
350
53
  3
B2
350
54
  3
B3
350
55
  3
B4
350
56
  3
B5
350
57
  3
B6
350
58
  3
B7
350
59
  3
B8
350
5A
  3
B9
350
5B
  3
C0
350
5C
  3
C1
350
5D
  3
C2
350
5E
  3
C3
350
5F
  3
C4
350
60
  3
C5
350
61
  3
C6
350
62
  3
C7
350
63
  3
C8
350
64
  3
C9
350
65
  3
D0
350
66
  3
D1
350
67
  3
D2
350
68
  0
LAYOUT
  5
1E
102
{ACAD_REACTORS
330
1A
102
}
330
1A
100
AcDbPlotSettings
  1

  2
none_device
  4

  6

 40
0.0
 41
0.0
 42
0.0
 43
0.0
 44
0.0
 45
0.0
 46
0.0
 47
0.0
 48
0.0
 49
0.0
140
0.0
141
0.0
142
1.0
143
1.0
 70
   688
 72
     1
 73
     0
 74
     5
  7

 75
    16
147
1.0
148
0.0
149
0.0
100
AcDbLayout
  1
Layout1
 70
     1
 71
     1
 10
0.0
 20
0.0
 11
420.0
 21
297.0
 12
0.0
 22
0.0
 32
0.0
 14
1.0000000000E+20
 24
1.0000000000E+20
 34
1.0000000000E+20
 15
-1.0000000000E+20
 25
-1.0000000000E+20
 35
-1.0000000000E+20
146
0.0
 13
0.0
 23
0.0
 33
0.0
 16
1.0
 26
0.0
 36
0.0
 17
0.0
 27
1.0
 37
0.0
 76
     0
330
1B
  0
LAYOUT
  5
26
102
{ACAD_REACTORS
330
1A
102
}
330
1A
100
AcDbPlotSettings
  1

  2
none_device
  4

  6

 40
0.0
 41
0.0
 42
0.0
 43
0.0
 44
0.0
 45
0.0
 46
0.0
 47
0.0
 48
0.0
 49
0.0
140
0.0
141
0.0
142
1.0
143
1.0
 70
   688
 72
     1
 73
     0
 74
     5
  7

 75
    16
147
1.0
148
0.0
149
0.0
100
AcDbLayout
  1
Layout2
 70
     1
 71
     2
 10
0.0
 20
0.0
 11
0.0
 21
0.0
 12
0.0
 22
0.0
 32
0.0
 14
0.0
 24
0.0
 34
0.0
 15
0.0
 25
0.0
 35
0.0
146
0.0
 13
0.0
 23
0.0
 33
0.0
 16
1.0
 26
0.0
 36
0.0
 17
0.0
 27
1.0
 37
0.0
 76
     0
330
23
  0
LAYOUT
  5
22
102
{ACAD_REACTORS
330
1A
102
}
330
1A
100
AcDbPlotSettings
  1

  2
none_device
  4
Letter_(8.50_x_11.00_Inches)
  6

 40
6.35
 41
6.35
 42
6.35000508
 43
6.35000508
 44
215.9
 45
279.4
 46
0.0
 47
0.0
 48
0.0
 49
0.0
140
0.0
141
0.0
142
1.0
143
1.0
 70
  1712
 72
     1
 73
     0
 74
     0
  7

 75
     0
147
1.0
148
0.0
149
0.0
100
AcDbLayout
  1
Model
 70
     1
 71
     0
 10
0.0
 20
0.0
 11
279.4
 21
215.9
 12
0.0
 22
0.0
 32
0.0
 14
0.0
 24
0.0
 34
0.0
 15
279.4
 25
215.9
 35
0.0
146
0.0
 13
0.0
 23
0.0
 33
0.0
 16
1.0
 26
0.0
 36
0.0
 17
0.0
 27
1.0
 37
0.0
 76
     0
330
1F
331
29
  0
MLINESTYLE
  5
18
102
{ACAD_REACTORS
330
17
102
}
330
17
100
AcDbMlineStyle
  2
Standard
 70
     0
  3

 62
   256
 51
90.0
 52
90.0
 71
     2
 49
0.5
 62
   256
  6
BYLAYER
 49
-0.5
 62
   256
  6
BYLAYER
  0
ACDBPLACEHOLDER
  5
F
102
{ACAD_REACTORS
330
E
102
}
330
E
  0
SCALE
  5
48
102
{ACAD_REACTORS
330
47
102
}
330
47
100
AcDbScale
 70
     0
300
1:1
140
1.0
141
1.0
290
     1
  0
SCALE
  5
49
102
{ACAD_REACTORS
330
47
102
}
330
47
100
AcDbScale
 70
     0
300
1:2
140
1.0
141
2.0
290
     0
  0
SCALE
  5
4A
102
{ACAD_REACTORS
330
47
102
}
330
47
100
AcDbScale
 70
     0
300
1:4
140
1.0
141
4.0
290
     0
  0
SCALE
  5
4B
102
{ACAD_REACTORS
330
47
102
}
330
47
100
AcDbScale
 70
     0
300
1:5
140
1.0
141
5.0
290
     0
  0
SCALE
  5
4C
102
{ACAD_REACTORS
330
47
102
}
330
47
100
AcDbScale
 70
     0
300
1:8
140
1.0
141
8.0
290
     0
  0
SCALE
  5
4D
102
{ACAD_REACTORS
330
47
102
}
330
47
100
AcDbScale
 70
     0
300
1:10
140
1.0
141
10.0
290
     0
  0
SCALE
  5
4E
102
{ACAD_REACTORS
330
47
102
}
330
47
100
AcDbScale
 70
     0
300
1:16
140
1.0
141
16.0
290
     0
  0
SCALE
  5
4F
102
{ACAD_REACTORS
330
47
102
}
330
47
100
AcDbScale
 70
     0
300
1:20
140
1.0
141
20.0
290
     0
  0
SCALE
  5
50
102
{ACAD_REACTORS
330
47
102
}
330
47
100
AcDbScale
 70
     0
300
1:30
140
1.0
141
30.0
290
     0
  0
SCALE
  5
51
102
{ACAD_REACTORS
330
47
102
}
330
47
100
AcDbScale
 70
     0
300
1:40
140
1.0
141
40.0
290
     0
  0
SCALE
  5
52
102
{ACAD_REACTORS
330
47
102
}
330
47
100
AcDbScale
 70
     0
300
1:50
140
1.0
141
50.0
290
     0
  0
SCALE
  5
53
102
{ACAD_REACTORS
330
47
102
}
330
47
100
AcDbScale
 70
     0
300
1:100
140
1.0
141
100.0
290
     0
  0
SCALE
  5
54
102
{ACAD_REACTORS
330
47
102
}
330
47
100
AcDbScale
 70
     0
300
2:1
140
2.0
141
1.0
290
     0
  0
SCALE
  5
55
102
{ACAD_REACTORS
330
47
102
}
330
47
100
AcDbScale
 70
     0
300
4:1
140
4.0
141
1.0
290
     0
  0
SCALE
  5
56
102
{ACAD_REACTORS
330
47
102
}
330
47
100
AcDbScale
 70
     0
300
8:1
140
8.0
141
1.0
290
     0
  0
SCALE
  5
57
102
{ACAD_REACTORS
330
47
102
}
330
47
100
AcDbScale
 70
     0
300
10:1
140
10.0
141
1.0
290
     0
  0
SCALE
  5
58
102
{ACAD_REACTORS
330
47
102
}
330
47
100
AcDbScale
 70
     0
300
100:1
140
100.0
141
1.0
290
     0
  0
SCALE
  5
59
102
{ACAD_REACTORS
330
47
102
}
330
47
100
AcDbScale
 70
     0
300
1/128" = 1'-0"
140
0.0078125
141
12.0
290
     0
  0
SCALE
  5
5A
102
{ACAD_REACTORS
330
47
102
}
330
47
100
AcDbScale
 70
     0
300
1/64" = 1'-0"
140
0.015625
141
12.0
290
     0
  0
SCALE
  5
5B
102
{ACAD_REACTORS
330
47
102
}
330
47
100
AcDbScale
 70
     0
300
1/32" = 1'-0"
140
0.03125
141
12.0
290
     0
  0
SCALE
  5
5C
102
{ACAD_REACTORS
330
47
102
}
330
47
100
AcDbScale
 70
     0
300
1/16" = 1'-0"
140
0.0625
141
12.0
290
     0
  0
SCALE
  5
5D
102
{ACAD_REACTORS
330
47
102
}
330
47
100
AcDbScale
 70
     0
300
3/32" = 1'-0"
140
0.09375
141
12.0
290
     0
  0
SCALE
  5
5E
102
{ACAD_REACTORS
330
47
102
}
330
47
100
AcDbScale
 70
     0
300
1/8" = 1'-0"
140
0.125
141
12.0
290
     0
  0
SCALE
  5
5F
102
{ACAD_REACTORS
330
47
102
}
330
47
100
AcDbScale
 70
     0
300
3/16" = 1'-0"
140
0.1875
141
12.0
290
     0
  0
SCALE
  5
60
102
{ACAD_REACTORS
330
47
102
}
330
47
100
AcDbScale
 70
     0
300
1/4" = 1'-0"
140
0.25
141
12.0
290
     0
  0
SCALE
  5
61
102
{ACAD_REACTORS
330
47
102
}
330
47
100
AcDbScale
 70
     0
300
3/8" = 1'-0"
140
0.375
141
12.0
290
     0
  0
SCALE
  5
62
102
{ACAD_REACTORS
330
47
102
}
330
47
100
AcDbScale
 70
     0
300
1/2" = 1'-0"
140
0.5
141
12.0
290
     0
  0
SCALE
  5
63
102
{ACAD_REACTORS
330
47
102
}
330
47
100
AcDbScale
 70
     0
300
3/4" = 1'-0"
140
0.75
141
12.0
290
     0
  0
SCALE
  5
64
102
{ACAD_REACTORS
330
47
102
}
330
47
100
AcDbScale
 70
     0
300
1" = 1'-0"
140
1.0
141
12.0
290
     0
  0
SCALE
  5
65
102
{ACAD_REACTORS
330
47
102
}
330
47
100
AcDbScale
 70
     0
300
1-1/2" = 1'-0"
140
1.5
141
12.0
290
     0
  0
SCALE
  5
66
102
{ACAD_REACTORS
330
47
102
}
330
47
100
AcDbScale
 70
     0
300
3" = 1'-0"
140
3.0
141
12.0
290
     0
  0
SCALE
  5
67
102
{ACAD_REACTORS
330
47
102
}
330
47
100
AcDbScale
 70
     0
300
6" = 1'-0"
140
6.0
141
12.0
290
     0
  0
SCALE
  5
68
102
{ACAD_REACTORS
330
47
102
}
330
47
100
AcDbScale
 70
     0
300
1'-0" = 1'-0"
140
12.0
141
12.0
290
     0
  0
ENDSEC
  0
EOF
