  0
SECTION
  2
HEADER
  9
$ACADVER
  1
AC1015
  9
$ACADMAINTVER
 70
     6
  9
$DWGCODEPAGE
  3
DOS932
  9
$INSBASE
 10
0.0
 20
0.0
 30
0.0
  9
$EXTMIN
 10
0.0
 20
0.0
 30
0.0
  9
$EXTMAX
 10
279.4
 20
215.9
 30
0.0
  9
$LIMMIN
 10
0.0
 20
0.0
  9
$LIMMAX
 10
279.4
 20
215.9
  9
$ORTHOMODE
 70
     0
  9
$REGENMODE
 70
     1
  9
$FILLMODE
 70
     1
  9
$QTEXTMODE
 70
     0
  9
$MIRRTEXT
 70
     1
  9
$LTSCALE
 40
1.0
  9
$ATTMODE
 70
     1
  9
$TEXTSIZE
 40
3.5
  9
$TRACEWID
 40
1.0
  9
$TEXTSTYLE
  7
Standard
  9
$CLAYER
  8
0
  9
$CELTYPE
  6
ByLayer
  9
$CECOLOR
 62
   256
  9
$CELTSCALE
 40
1.0
  9
$DISPSILH
 70
     0
  9
$DIMSCALE
 40
1.0
  9
$DIMASZ
 40
3.556
  9
$DIMEXO
 40
1.0
  9
$DIMDLI
 40
3.75
  9
$DIMRND
 40
0.0
  9
$DIMDLE
 40
0.0
  9
$DIMEXE
 40
1.0
  9
$DIMTP
 40
0.0
  9
$DIMTM
 40
0.0
  9
$DIMTXT
 40
3.5
  9
$DIMCEN
 40
2.5
  9
$DIMTSZ
 40
0.0
  9
$DIMTOL
 70
     0
  9
$DIMLIM
 70
     0
  9
$DIMTIH
 70
     1
  9
$DIMTOH
 70
     1
  9
$DIMSE1
 70
     0
  9
$DIMSE2
 70
     0
  9
$DIMTAD
 70
     1
  9
$DIMZIN
 70
     1
  9
$DIMBLK
  1

  9
$DIMASO
 70
     1
  9
$DIMSHO
 70
     1
  9
$DIMPOST
  1

  9
$DIMAPOST
  1

  9
$DIMALT
 70
     0
  9
$DIMALTD
 70
     3
  9
$DIMALTF
 40
0.0393700787
  9
$DIMLFAC
 40
1.0
  9
$DIMTOFL
 70
     1
  9
$DIMTVP
 40
0.0
  9
$DIMTIX
 70
     0
  9
$DIMSOXD
 70
     0
  9
$DIMSAH
 70
     0
  9
$DIMBLK1
  1

  9
$DIMBLK2
  1

  9
$DIMSTYLE
  2
ISO-25
  9
$DIMCLRD
 70
     0
  9
$DIMCLRE
 70
     0
  9
$DIMCLRT
 70
     0
  9
$DIMTFAC
 40
1.0
  9
$DIMGAP
 40
1.524
  9
$DIMJUST
 70
     0
  9
$DIMSD1
 70
     0
  9
$DIMSD2
 70
     0
  9
$DIMTOLJ
 70
     0
  9
$DIMTZIN
 70
     1
  9
$DIMALTZ
 70
     0
  9
$DIMALTTZ
 70
     0
  9
$DIMUPT
 70
     0
  9
$DIMDEC
 70
     2
  9
$DIMTDEC
 70
     2
  9
$DIMALTU
 70
     2
  9
$DIMALTTD
 70
     3
  9
$DIMTXSTY
  7
Standard
  9
$DIMAUNIT
 70
     0
  9
$DIMADEC
 70
     2
  9
$DIMALTRND
 40
0.0
  9
$DIMAZIN
 70
     0
  9
$DIMDSEP
 70
    44
  9
$DIMATFIT
 70
     3
  9
$DIMFRAC
 70
     0
  9
$DIMLDRBLK
  1

  9
$DIMLUNIT
 70
     2
  9
$DIMLWD
 70
    -2
  9
$DIMLWE
 70
    -2
  9
$DIMTMOVE
 70
     0
  9
$LUNITS
 70
     2
  9
$LUPREC
 70
     2
  9
$SKETCHINC
 40
1.0
  9
$FILLETRAD
 40
10.0
  9
$AUNITS
 70
     0
  9
$AUPREC
 70
     2
  9
$MENU
  1
.
  9
$ELEVATION
 40
0.0
  9
$PELEVATION
 40
0.0
  9
$THICKNESS
 40
0.0
  9
$LIMCHECK
 70
     0
  9
$CHAMFERA
 40
0.0
  9
$CHAMFERB
 40
0.0
  9
$CHAMFERC
 40
0.0
  9
$CHAMFERD
 40
0.0
  9
$SKPOLY
 70
     0
  9
$TDCREATE
 40
2459223.458025313
  9
$TDUCREATE
 40
2459223.083025313
  9
$TDUPDATE
 40
2459223.458026412
  9
$TDUUPDATE
 40
2459223.083026412
  9
$TDINDWG
 40
0.0000000116
  9
$TDUSRTIMER
 40
0.0000000116
  9
$USRTIMER
 70
     1
  9
$ANGBASE
 50
0.0
  9
$ANGDIR
 70
     0
  9
$PDMODE
 70
     0
  9
$PDSIZE
 40
-1.0
  9
$PLINEWID
 40
0.0
  9
$SPLFRAME
 70
     0
  9
$SPLINETYPE
 70
     6
  9
$SPLINESEGS
 70
     8
  9
$HANDSEED
  5
47D
  9
$SURFTAB1
 70
     6
  9
$SURFTAB2
 70
     6
  9
$SURFTYPE
 70
     6
  9
$SURFU
 70
     6
  9
$SURFV
 70
     6
  9
$UCSBASE
  2

  9
$UCSNAME
  2

  9
$UCSORG
 10
0.0
 20
0.0
 30
0.0
  9
$UCSXDIR
 10
1.0
 20
0.0
 30
0.0
  9
$UCSYDIR
 10
0.0
 20
1.0
 30
0.0
  9
$UCSORTHOREF
  2

  9
$UCSORTHOVIEW
 70
     0
  9
$UCSORGTOP
 10
0.0
 20
0.0
 30
0.0
  9
$UCSORGBOTTOM
 10
0.0
 20
0.0
 30
0.0
  9
$UCSORGLEFT
 10
0.0
 20
0.0
 30
0.0
  9
$UCSORGRIGHT
 10
0.0
 20
0.0
 30
0.0
  9
$UCSORGFRONT
 10
0.0
 20
0.0
 30
0.0
  9
$UCSORGBACK
 10
0.0
 20
0.0
 30
0.0
  9
$PUCSBASE
  2

  9
$PUCSNAME
  2

  9
$PUCSORG
 10
0.0
 20
0.0
 30
0.0
  9
$PUCSXDIR
 10
1.0
 20
0.0
 30
0.0
  9
$PUCSYDIR
 10
0.0
 20
1.0
 30
0.0
  9
$PUCSORTHOREF
  2

  9
$PUCSORTHOVIEW
 70
     0
  9
$PUCSORGTOP
 10
0.0
 20
0.0
 30
0.0
  9
$PUCSORGBOTTOM
 10
0.0
 20
0.0
 30
0.0
  9
$PUCSORGLEFT
 10
0.0
 20
0.0
 30
0.0
  9
$PUCSORGRIGHT
 10
0.0
 20
0.0
 30
0.0
  9
$PUCSORGFRONT
 10
0.0
 20
0.0
 30
0.0
  9
$PUCSORGBACK
 10
0.0
 20
0.0
 30
0.0
  9
$USERI1
 70
     0
  9
$USERI2
 70
     0
  9
$USERI3
 70
     0
  9
$USERI4
 70
     0
  9
$USERI5
 70
     0
  9
$USERR1
 40
0.0
  9
$USERR2
 40
0.0
  9
$USERR3
 40
0.0
  9
$USERR4
 40
0.0
  9
$USERR5
 40
0.0
  9
$WORLDVIEW
 70
     1
  9
$SHADEDGE
 70
     3
  9
$SHADEDIF
 70
    70
  9
$TILEMODE
 70
     1
  9
$MAXACTVP
 70
    64
  9
$PINSBASE
 10
0.0
 20
0.0
 30
0.0
  9
$PLIMCHECK
 70
     0
  9
$PEXTMIN
 10
1.0000000000E+20
 20
1.0000000000E+20
 30
1.0000000000E+20
  9
$PEXTMAX
 10
-1.0000000000E+20
 20
-1.0000000000E+20
 30
-1.0000000000E+20
  9
$PLIMMIN
 10
0.0
 20
0.0
  9
$PLIMMAX
 10
420.0
 20
297.0
  9
$UNITMODE
 70
     0
  9
$VISRETAIN
 70
     1
  9
$PLINEGEN
 70
     0
  9
$PSLTSCALE
 70
     1
  9
$TREEDEPTH
 70
  3020
  9
$CMLSTYLE
  2
Standard
  9
$CMLJUST
 70
     0
  9
$CMLSCALE
 40
20.0
  9
$PROXYGRAPHICS
 70
     1
  9
$MEASUREMENT
 70
     1
  9
$CELWEIGHT
370
    -1
  9
$ENDCAPS
280
     0
  9
$JOINSTYLE
280
     0
  9
$LWDISPLAY
290
     1
  9
$INSUNITS
 70
     4
  9
$HYPERLINKBASE
  1

  9
$STYLESHEET
  1

  9
$XEDIT
290
     1
  9
$CEPSNTYPE
380
     0
  9
$PSTYLEMODE
290
     1
  9
$FINGERPRINTGUID
  2
{B65B2764-38B6-48B2-A437-756CC8A993BC}
  9
$VERSIONGUID
  2
{FAEB1C32-E019-11D5-929B-00C0DF256EC4}
  9
$EXTNAMES
290
     1
  9
$PSVPSCALE
 40
0.0
  9
$OLESTARTUP
290
     0
  0
ENDSEC
  0
SECTION
  2
CLASSES
  0
CLASS
  1
ACDBDICTIONARYWDFLT
  2
AcDbDictionaryWithDefault
  3
ObjectDBX Classes
 90
        0
280
     0
281
     0
  0
CLASS
  1
VISUALSTYLE
  2
AcDbVisualStyle
  3
ObjectDBX Classes
 90
     4095
280
     0
281
     0
  0
CLASS
  1
MATERIAL
  2
AcDbMaterial
  3
ObjectDBX Classes
 90
     1153
280
     0
281
     0
  0
CLASS
  1
SCALE
  2
AcDbScale
  3
ObjectDBX Classes
 90
     1153
280
     0
281
     0
  0
CLASS
  1
TABLESTYLE
  2
AcDbTableStyle
  3
ObjectDBX Classes
 90
     4095
280
     0
281
     0
  0
CLASS
  1
MLEADERSTYLE
  2
AcDbMLeaderStyle
  3
ACDB_MLEADERSTYLE_CLASS
 90
     4095
280
     0
281
     0
  0
CLASS
  1
SUN
  2
AcDbSun
  3
SCENEOE
 90
     1153
280
     0
281
     0
  0
CLASS
  1
ACDBPLACEHOLDER
  2
AcDbPlaceHolder
  3
ObjectDBX Classes
 90
        0
280
     0
281
     0
  0
CLASS
  1
LAYOUT
  2
AcDbLayout
  3
ObjectDBX Classes
 90
        0
280
     0
281
     0
  0
ENDSEC
  0
SECTION
  2
TABLES
  0
TABLE
  2
VPORT
  5
8
330
0
100
AcDbSymbolTable
 70
     1
  0
VPORT
  5
29
330
8
100
AcDbSymbolTableRecord
100
AcDbViewportTableRecord
  2
*Active
 70
     0
 10
0.0
 20
0.0
 11
1.0
 21
1.0
 12
139.7
 22
107.95
 13
0.0
 23
0.0
 14
10.0
 24
10.0
 15
10.0
 25
10.0
 16
0.0
 26
0.0
 36
1.0
 17
0.0
 27
0.0
 37
0.0
 40
215.9
 41
1.2941176471
 42
50.0
 43
0.0
 44
0.0
 50
0.0
 51
0.0
 71
     0
 72
  2000
 73
     1
 74
     3
 75
     0
 76
     0
 77
     0
 78
     0
281
     0
 65
     1
110
0.0
120
0.0
130
0.0
111
1.0
121
0.0
131
0.0
112
0.0
122
1.0
132
0.0
 79
     0
146
0.0
  0
ENDTAB
  0
TABLE
  2
LTYPE
  5
5
330
0
100
AcDbSymbolTable
 70
     6
  0
LTYPE
  5
14
330
5
100
AcDbSymbolTableRecord
100
AcDbLinetypeTableRecord
  2
ByBlock
 70
     0
  3

 72
    65
 73
     0
 40
0.0
  0
LTYPE
  5
15
330
5
100
AcDbSymbolTableRecord
100
AcDbLinetypeTableRecord
  2
ByLayer
 70
     0
  3

 72
    65
 73
     0
 40
0.0
  0
LTYPE
  5
16
330
5
100
AcDbSymbolTableRecord
100
AcDbLinetypeTableRecord
  2
Continuous
 70
     0
  3
Solid line
 72
    65
 73
     0
 40
0.0
  0
LTYPE
  5
6E
330
5
100
AcDbSymbolTableRecord
100
AcDbLinetypeTableRecord
  2
HIDDEN
 70
     0
  3
Hidden __ __ __ __ __ __ __ __ __ __ __ __ __ __
 72
    65
 73
     2
 40
1.905
 49
1.27
 74
     0
 49
-0.635
 74
     0
  0
LTYPE
  5
6F
330
5
100
AcDbSymbolTableRecord
100
AcDbLinetypeTableRecord
  2
PHANTOM
 70
     0
  3
Phantom ______  __  __  ______  __  __  ______
 72
    65
 73
     6
 40
12.7
 49
6.35
 74
     0
 49
-1.27
 74
     0
 49
1.27
 74
     0
 49
-1.27
 74
     0
 49
1.27
 74
     0
 49
-1.27
 74
     0
  0
LTYPE
  5
70
330
5
100
AcDbSymbolTableRecord
100
AcDbLinetypeTableRecord
  2
CENTER
 70
     0
  3
Center ____ _ ____ _ ____ _ ____ _ ____ _ ____
 72
    65
 73
     4
 40
10.16
 49
6.35
 74
     0
 49
-1.27
 74
     0
 49
1.27
 74
     0
 49
-1.27
 74
     0
  0
LTYPE
  5
71
330
5
100
AcDbSymbolTableRecord
100
AcDbLinetypeTableRecord
  2
CENTERX2
 70
     0
  3
Center (2x) ________  __  ________  __  _____
 72
    65
 73
     4
 40
20.32
 49
12.7
 74
     0
 49
-2.54
 74
     0
 49
2.54
 74
     0
 49
-2.54
 74
     0
  0
LTYPE
  5
72
330
5
100
AcDbSymbolTableRecord
100
AcDbLinetypeTableRecord
  2
DOT2
 70
     0
  3
Dot (.5x) ........................................
 72
    65
 73
     2
 40
0.635
 49
0.0
 74
     0
 49
-0.635
 74
     0
  0
ENDTAB
  0
TABLE
  2
LAYER
  5
2
330
0
100
AcDbSymbolTable
 70
     1
  0
LAYER
  5
10
330
2
100
AcDbSymbolTableRecord
100
AcDbLayerTableRecord
  2
0
 70
     0
 62
     7
  6
Continuous
370
    -3
390
F
  0
ENDTAB
  0
TABLE
  2
STYLE
  5
3
330
0
100
AcDbSymbolTable
 70
     2
  0
STYLE
  5
11
330
3
100
AcDbSymbolTableRecord
100
AcDbTextStyleTableRecord
  2
Standard
 70
     0
 40
0.0
 41
1.0
 50
0.0
 71
     0
 42
3.5
  3
txt
  4
bigfont
  0
STYLE
  5
73
330
3
100
AcDbSymbolTableRecord
100
AcDbTextStyleTableRecord
  2
SLDTEXTSTYLE0
 70
     0
 40
0.0
 41
0.75
 50
0.0
 71
     0
 42
3.5
  3
TXT
  4
bigfont
  0
ENDTAB
  0
TABLE
  2
VIEW
  5
6
330
0
100
AcDbSymbolTable
 70
     0
  0
ENDTAB
  0
TABLE
  2
UCS
  5
7
330
0
100
AcDbSymbolTable
 70
     0
  0
ENDTAB
  0
TABLE
  2
APPID
  5
9
330
0
100
AcDbSymbolTable
 70
     1
  0
APPID
  5
12
330
9
100
AcDbSymbolTableRecord
100
AcDbRegAppTableRecord
  2
ACAD
 70
     0
  0
ENDTAB
  0
TABLE
  2
DIMSTYLE
  5
A
330
0
100
AcDbSymbolTable
 70
     1
100
AcDbDimStyleTable
  0
DIMSTYLE
105
27
330
A
100
AcDbSymbolTableRecord
100
AcDbDimStyleTableRecord
  2
ISO-25
 70
     0
 41
2.5
 42
0.625
 43
3.75
 44
1.25
 73
     0
 74
     0
 77
     1
 78
     8
140
2.5
141
2.5
143
0.0393700787
147
0.625
171
     3
172
     1
178
     0
271
     2
272
     2
274
     3
278
    44
283
     0
284
     8
340
11
  0
ENDTAB
  0
TABLE
  2
BLOCK_RECORD
  5
1
330
0
100
AcDbSymbolTable
 70
     1
  0
BLOCK_RECORD
  5
1F
330
1
100
AcDbSymbolTableRecord
100
AcDbBlockTableRecord
  2
*Model_Space
340
22
  0
BLOCK_RECORD
  5
1B
330
1
100
AcDbSymbolTableRecord
100
AcDbBlockTableRecord
  2
*Paper_Space
340
1E
  0
BLOCK_RECORD
  5
23
330
1
100
AcDbSymbolTableRecord
100
AcDbBlockTableRecord
  2
*Paper_Space0
340
26
  0
ENDTAB
  0
ENDSEC
  0
SECTION
  2
BLOCKS
  0
BLOCK
  5
20
330
1F
100
AcDbEntity
  8
0
100
AcDbBlockBegin
  2
*Model_Space
 70
     0
 10
0.0
 20
0.0
 30
0.0
  3
*Model_Space
  1

  0
ENDBLK
  5
21
330
1F
100
AcDbEntity
  8
0
100
AcDbBlockEnd
  0
BLOCK
  5
1C
330
1B
100
AcDbEntity
 67
     1
  8
0
100
AcDbBlockBegin
  2
*Paper_Space
 70
     0
 10
0.0
 20
0.0
 30
0.0
  3
*Paper_Space
  1

  0
ENDBLK
  5
1D
330
1B
100
AcDbEntity
 67
     1
  8
0
100
AcDbBlockEnd
  0
BLOCK
  5
24
330
23
100
AcDbEntity
  8
0
100
AcDbBlockBegin
  2
*Paper_Space0
 70
     0
 10
0.0
 20
0.0
 30
0.0
  3
*Paper_Space0
  1

  0
ENDBLK
  5
25
330
23
100
AcDbEntity
  8
0
100
AcDbBlockEnd
  0
ENDSEC
  0
SECTION
  2
ENTITIES
  0
MTEXT
  5
74
330
1F
100
AcDbEntity
  8
0
  6
Continuous
 62
     7
370
     0
100
AcDbMText
 10
116.4337248157
 20
110.9119614777
 30
0.0
 40
3.5
 41
0.0
 71
     1
 72
     1
  1
1R-BO1200
  7
SLDTEXTSTYLE0
 73
     1
 44
1.0
  0
LINE
  5
75
330
1F
100
AcDbEntity
  8
0
  6
Continuous
 62
     7
370
    25
100
AcDbLine
 10
90.2736832143
 20
82.4711919204
 30
0.0
 11
90.4736828746
 21
82.2711913288
 31
0.0
  0
LINE
  5
76
330
1F
100
AcDbEntity
  8
0
  6
Continuous
 62
     7
370
    25
100
AcDbLine
 10
105.0736832188
 20
82.2711913288
 30
0.0
 11
105.273682879
 21
82.4711919204
 31
0.0
  0
LINE
  5
77
330
1F
100
AcDbEntity
  8
0
  6
Continuous
 62
     7
370
    25
100
AcDbLine
 10
90.2736832143
 20
87.271191217
 30
0.0
 11
90.2736832143
 21
82.4711919204
 31
0.0
  0
LINE
  5
78
330
1F
100
AcDbEntity
  8
0
  6
Continuous
 62
     7
370
    25
100
AcDbLine
 10
105.273682879
 20
82.4711919204
 30
0.0
 11
105.273682879
 21
87.271191217
 31
0.0
  0
LINE
  5
79
330
1F
100
AcDbEntity
  8
0
  6
Continuous
 62
     7
370
    25
100
AcDbLine
 10
88.9736830944
 20
100.7711924985
 30
0.0
 11
88.7736834341
 21
100.5711909756
 31
0.0
  0
LINE
  5
7A
330
1F
100
AcDbEntity
  8
0
  6
Continuous
 62
     7
370
    25
100
AcDbLine
 10
88.7736834341
 20
87.4711908773
 30
0.0
 11
88.9736830944
 21
87.271191217
 31
0.0
  0
LINE
  5
7B
330
1F
100
AcDbEntity
  8
0
  6
Continuous
 62
     7
370
    25
100
AcDbLine
 10
106.573682999
 20
87.271191217
 30
0.0
 11
106.7736826593
 21
87.4711908773
 31
0.0
  0
LINE
  5
7C
330
1F
100
AcDbEntity
  8
0
  6
Continuous
 62
     7
370
    25
100
AcDbLine
 10
106.7736826593
 20
100.5711909756
 30
0.0
 11
106.573682999
 21
100.7711924985
 31
0.0
  0
LINE
  5
7D
330
1F
100
AcDbEntity
  8
0
  6
Continuous
 62
     7
370
    25
100
AcDbLine
 10
87.7736832702
 20
78.5711920262
 30
0.0
 11
84.7736827785
 21
78.5711920262
 31
0.0
  0
LINE
  5
7E
330
1F
100
AcDbEntity
  8
0
  6
Continuous
 62
     7
370
    25
100
AcDbLine
 10
84.7736827785
 20
62.5711912662
 30
0.0
 11
87.7736832702
 21
62.5711912662
 31
0.0
  0
LINE
  5
7F
330
1F
100
AcDbEntity
  8
0
  6
Continuous
 62
     7
370
    25
100
AcDbLine
 10
80.8736838156
 20
77.1711916104
 30
0.0
 11
79.7236829752
 21
76.0211917013
 31
0.0
  0
LINE
  5
80
330
1F
100
AcDbEntity
  8
0
  6
Continuous
 62
     7
370
    25
100
AcDbLine
 10
79.7236829752
 20
65.1211915911
 30
0.0
 11
80.8736838156
 21
63.971191682
 31
0.0
  0
LINE
  5
81
330
1F
100
AcDbEntity
  8
0
  6
Continuous
 62
     7
370
    25
100
AcDbLine
 10
76.7736833298
 20
63.971191682
 30
0.0
 11
77.9236823076
 21
65.1211915911
 31
0.0
  0
LINE
  5
82
330
1F
100
AcDbEntity
  8
0
  6
Continuous
 62
     7
370
    25
100
AcDbLine
 10
77.9236823076
 20
76.0211917013
 30
0.0
 11
76.7736833298
 21
77.1711916104
 31
0.0
  0
LINE
  5
83
330
1F
100
AcDbEntity
  8
0
  6
Continuous
 62
     7
370
    25
100
AcDbLine
 10
84.7736827785
 20
77.1711916104
 30
0.0
 11
80.8736838156
 21
77.1711916104
 31
0.0
  0
LINE
  5
84
330
1F
100
AcDbEntity
  8
0
  6
Continuous
 62
     7
370
    25
100
AcDbLine
 10
80.8736838156
 20
63.971191682
 30
0.0
 11
84.7736827785
 21
63.971191682
 31
0.0
  0
LINE
  5
85
330
1F
100
AcDbEntity
  8
0
  6
Continuous
 62
     7
370
    25
100
AcDbLine
 10
74.5383061224
 20
77.1711916104
 30
0.0
 11
69.7736821824
 21
76.0711916164
 31
0.0
  0
LINE
  5
86
330
1F
100
AcDbEntity
  8
0
  6
Continuous
 62
     7
370
    25
100
AcDbLine
 10
69.7736821824
 20
65.071191676
 30
0.0
 11
74.5383061224
 21
63.971191682
 31
0.0
  0
LINE
  5
87
330
1F
100
AcDbEntity
  8
0
  6
Continuous
 62
     7
370
    25
100
AcDbLine
 10
76.7736833298
 20
77.1711916104
 30
0.0
 11
74.5383061224
 21
77.1711916104
 31
0.0
  0
LINE
  5
88
330
1F
100
AcDbEntity
  8
0
  6
Continuous
 62
     7
370
    25
100
AcDbLine
 10
74.5383061224
 20
63.971191682
 30
0.0
 11
76.7736833298
 21
63.971191682
 31
0.0
  0
LINE
  5
89
330
1F
100
AcDbEntity
  8
0
  6
Continuous
 62
     7
370
    25
100
AcDbLine
 10
69.7736821824
 20
76.0711916164
 30
0.0
 11
65.0736845785
 21
76.0711916164
 31
0.0
  0
LINE
  5
8A
330
1F
100
AcDbEntity
  8
0
  6
Continuous
 62
     7
370
    25
100
AcDbLine
 10
65.0736845785
 20
65.071191676
 30
0.0
 11
69.7736821824
 21
65.071191676
 31
0.0
  0
ARC
  5
8B
330
1F
100
AcDbEntity
  8
0
  6
Continuous
 62
     7
370
    25
100
AcDbCircle
 10
65.0736830467
 20
65.3711916462
 30
0.0
 40
0.2999999999999972
100
AcDbArc
 50
180.0
 51
270.0
  0
ARC
  5
8C
330
1F
100
AcDbEntity
  8
0
  6
Continuous
 62
     7
370
    25
100
AcDbCircle
 10
65.0736830467
 20
75.7711916462
 30
0.0
 40
0.3000000000000114
100
AcDbArc
 50
90.0
 51
180.0
  0
LINE
  5
8D
330
1F
100
AcDbEntity
  8
0
  6
Continuous
 62
     7
370
    25
100
AcDbLine
 10
79.7236829752
 20
76.0211917013
 30
0.0
 11
77.9236823076
 21
76.0211917013
 31
0.0
  0
LINE
  5
8E
330
1F
100
AcDbEntity
  8
0
  6
Continuous
 62
     7
370
    25
100
AcDbLine
 10
77.9236823076
 20
65.1211915911
 30
0.0
 11
79.7236829752
 21
65.1211915911
 31
0.0
  0
LINE
  5
8F
330
1F
100
AcDbEntity
  8
0
  6
Continuous
 62
     7
370
    25
100
AcDbLine
 10
88.0236828455
 20
60.5711918697
 30
0.0
 11
89.8917166272
 21
60.5711918697
 31
0.0
  0
LINE
  5
90
330
1F
100
AcDbEntity
  8
0
  6
Continuous
 62
     7
370
    25
100
AcDbLine
 10
89.8917166272
 20
80.5711914227
 30
0.0
 11
88.0236828455
 21
80.5711914227
 31
0.0
  0
LINE
  5
91
330
1F
100
AcDbEntity
  8
0
  6
Continuous
 62
     7
370
    25
100
AcDbLine
 10
88.0236828455
 20
80.5711914227
 30
0.0
 11
87.7736832702
 21
80.3211918474
 31
0.0
  0
LINE
  5
92
330
1F
100
AcDbEntity
  8
0
  6
Continuous
 62
     7
370
    25
100
AcDbLine
 10
87.7736832702
 20
60.821191445
 30
0.0
 11
88.0236828455
 21
60.5711918697
 31
0.0
  0
ARC
  5
93
330
1F
100
AcDbEntity
  8
0
  6
Continuous
 62
     7
370
    25
100
AcDbCircle
 10
88.7736830467
 20
61.5711916462
 30
0.0
 40
1.500000000000004
100
AcDbArc
 50
318.1896851042
 51
0.0
  0
ARC
  5
94
330
1F
100
AcDbEntity
  8
0
  6
Continuous
 62
     7
370
    25
100
AcDbCircle
 10
88.7736830467
 20
79.5711916462
 30
0.0
 40
1.500000000000004
100
AcDbArc
 50
0.0
 51
41.8103148958
  0
LINE
  5
95
330
1F
100
AcDbEntity
  8
0
  6
Continuous
 62
     7
370
    25
100
AcDbLine
 10
107.2736827412
 20
60.5711918697
 30
0.0
 11
107.7736828232
 21
61.0711919517
 31
0.0
  0
LINE
  5
96
330
1F
100
AcDbEntity
  8
0
  6
Continuous
 62
     7
370
    25
100
AcDbLine
 10
107.7736828232
 20
80.0711913407
 30
0.0
 11
107.2736827412
 21
80.5711914227
 31
0.0
  0
ARC
  5
97
330
1F
100
AcDbEntity
  8
0
  6
Continuous
 62
     7
370
    25
100
AcDbCircle
 10
106.7736830467
 20
79.5711916462
 30
0.0
 40
1.500000000000014
100
AcDbArc
 50
138.1896851042
 51
180.0
  0
ARC
  5
98
330
1F
100
AcDbEntity
  8
0
  6
Continuous
 62
     7
370
    25
100
AcDbCircle
 10
106.7736830467
 20
61.5711916462
 30
0.0
 40
1.500000000000014
100
AcDbArc
 50
180.0
 51
221.8103148958
  0
LINE
  5
99
330
1F
100
AcDbEntity
  8
0
  6
Continuous
 62
     7
370
    25
100
AcDbLine
 10
107.2736827412
 20
80.5711914227
 30
0.0
 11
105.6556494662
 21
80.5711914227
 31
0.0
  0
LINE
  5
9A
330
1F
100
AcDbEntity
  8
0
  6
Continuous
 62
     7
370
    25
100
AcDbLine
 10
105.6556494662
 20
60.5711918697
 30
0.0
 11
107.2736827412
 21
60.5711918697
 31
0.0
  0
ARC
  5
9B
330
1F
100
AcDbEntity
  8
0
  6
Continuous
 62
     7
370
    25
100
AcDbCircle
 10
104.7736830467
 20
79.5711916462
 30
0.0
 40
0.5
100
AcDbArc
 50
270.0
 51
0.0
  0
ARC
  5
9C
330
1F
100
AcDbEntity
  8
0
  6
Continuous
 62
     7
370
    25
100
AcDbCircle
 10
90.7736830467
 20
61.5711916462
 30
0.0
 40
0.5000000000000142
100
AcDbArc
 50
90.0
 51
180.0
  0
ARC
  5
9D
330
1F
100
AcDbEntity
  8
0
  6
Continuous
 62
     7
370
    25
100
AcDbCircle
 10
90.7736830467
 20
79.5711916462
 30
0.0
 40
0.5000000000000142
100
AcDbArc
 50
180.0
 51
270.0
  0
ARC
  5
9E
330
1F
100
AcDbEntity
  8
0
  6
Continuous
 62
     7
370
    25
100
AcDbCircle
 10
104.7736830467
 20
61.5711916462
 30
0.0
 40
0.5
100
AcDbArc
 50
0.0
 51
90.0
  0
LINE
  5
9F
330
1F
100
AcDbEntity
  8
0
  6
Continuous
 62
     7
370
    25
100
AcDbLine
 10
107.7736828232
 20
63.8268622943
 30
0.0
 11
115.6095571571
 21
64.0717335418
 31
0.0
  0
LINE
  5
A0
330
1F
100
AcDbEntity
  8
0
  6
Continuous
 62
     7
370
    25
100
AcDbLine
 10
115.6095571571
 20
77.0706497506
 30
0.0
 11
107.7736828232
 21
77.3155209981
 31
0.0
  0
LINE
  5
A1
330
1F
100
AcDbEntity
  8
0
  6
Continuous
 62
     7
370
    25
100
AcDbLine
 10
91.3913620391
 20
79.0711921081
 30
0.0
 11
90.7736828306
 21
79.0711921081
 31
0.0
  0
LINE
  5
A2
330
1F
100
AcDbEntity
  8
0
  6
Continuous
 62
     7
370
    25
100
AcDbLine
 10
104.7736832627
 20
79.0711921081
 30
0.0
 11
104.173682885
 21
79.0711921081
 31
0.0
  0
LINE
  5
A3
330
1F
100
AcDbEntity
  8
0
  6
Continuous
 62
     7
370
    25
100
AcDbLine
 10
90.7736828306
 20
62.0711911843
 30
0.0
 11
104.7736832627
 21
62.0711911843
 31
0.0
  0
LINE
  5
A4
330
1F
100
AcDbEntity
  8
0
  6
Continuous
 62
     7
370
    25
100
AcDbLine
 10
115.6095571571
 20
64.0717335418
 30
0.0
 11
117.7736825996
 21
65.321191717
 31
0.0
  0
LINE
  5
A5
330
1F
100
AcDbEntity
  8
0
  6
Continuous
 62
     7
370
    25
100
AcDbLine
 10
117.7736825996
 20
75.8211915754
 30
0.0
 11
115.6095571571
 21
77.0706497506
 31
0.0
  0
SPLINE
  5
A6
330
1F
100
AcDbEntity
  8
0
  6
Continuous
 62
     7
370
    25
100
AcDbSpline
210
0.0
220
0.0
230
1.0
 70
     8
 71
     3
 72
    14
 73
    10
 74
     0
 42
0.000000001
 43
0.00000001
 40
0.0
 40
0.0
 40
0.0
 40
0.0
 40
0.0798015173962998
 40
0.2384112633795968
 40
0.4074467509627531
 40
0.5840678704495411
 40
0.7712060161804928
 40
0.9313116937975251
 40
1.0
 40
1.0
 40
1.0
 40
1.0
 10
104.1736479604089
 20
79.07490901652295
 30
0.0
 10
104.1527602367423
 20
79.07422447898368
 30
0.0
 10
104.0903570550618
 20
79.07217938679884
 30
0.0
 10
103.9862036530111
 20
79.10269446457221
 30
0.0
 10
103.8698499748811
 20
79.16605220737924
 30
0.0
 10
103.7691792517731
 20
79.26539178015013
 30
0.0
 10
103.7033508450108
 20
79.3867002456632
 30
0.0
 10
103.67412690596
 20
79.49349847874024
 30
0.0
 10
103.6761293764432
 20
79.55334090733662
 30
0.0
 10
103.6767305561745
 20
79.57130674276073
 30
0.0
  0
SPLINE
  5
A7
330
1F
100
AcDbEntity
  8
0
  6
Continuous
 62
     7
370
    25
100
AcDbSpline
210
0.0
220
0.0
230
1.0
 70
     8
 71
     3
 72
    14
 73
    10
 74
     0
 42
0.000000001
 43
0.00000001
 40
0.0
 40
0.0
 40
0.0
 40
0.0
 40
0.1330271211849526
 40
0.3130778778851796
 40
0.4972460868228206
 40
0.6777796887357747
 40
0.8344004547400194
 40
0.9733802331997967
 40
1.0
 40
1.0
 40
1.0
 40
1.0
 10
91.87119759036538
 20
79.56164613369424
 30
0.0
 10
91.86953868912195
 20
79.52801569123251
 30
0.0
 10
91.8656344831504
 20
79.44886681193279
 30
0.0
 10
91.8183841452902
 20
79.33007541688981
 30
0.0
 10
91.73687939619288
 20
79.21811752437708
 30
0.0
 10
91.63157399342845
 20
79.13600801347688
 30
0.0
 10
91.52029740287364
 20
79.08991713669396
 30
0.0
 10
91.43982263612459
 20
79.07140324499602
 30
0.0
 10
91.39808079662812
 20
79.07271531789604
 30
0.0
 10
91.39137088669774
 20
79.0729262307616
 30
0.0
  0
LINE
  5
A8
330
1F
100
AcDbEntity
  8
0
  6
Continuous
 62
     7
370
    25
100
AcDbLine
 10
103.6736832687
 20
79.5711912588
 30
0.0
 11
103.6736832687
 21
82.2711913288
 31
0.0
  0
LINE
  5
A9
330
1F
100
AcDbEntity
  8
0
  6
Continuous
 62
     7
370
    25
100
AcDbLine
 10
91.8736828247
 20
82.2711913288
 30
0.0
 11
91.8736828247
 21
79.5599213243
 31
0.0
  0
LINE
  5
AA
330
1F
100
AcDbEntity
  8
0
  6
Continuous
 62
     7
370
    25
100
AcDbLine
 10
92.5236831175
 20
101.2211908028
 30
0.0
 11
92.5236831175
 21
100.7711924985
 31
0.0
  0
LINE
  5
AB
330
1F
100
AcDbEntity
  8
0
  6
Continuous
 62
     7
370
    25
100
AcDbLine
 10
92.5236831175
 20
101.2211908028
 30
0.0
 11
95.7736829517
 21
101.2211908028
 31
0.0
  0
LINE
  5
AC
330
1F
100
AcDbEntity
  8
0
  6
Continuous
 62
     7
370
    25
100
AcDbLine
 10
95.7736829517
 20
101.2211908028
 30
0.0
 11
95.7736829517
 21
100.7711924985
 31
0.0
  0
LINE
  5
AD
330
1F
100
AcDbEntity
  8
0
  6
Continuous
 62
     7
370
    25
100
AcDbLine
 10
103.0236829759
 20
101.2211908028
 30
0.0
 11
103.0236829759
 21
100.7711924985
 31
0.0
  0
LINE
  5
AE
330
1F
100
AcDbEntity
  8
0
  6
Continuous
 62
     7
370
    25
100
AcDbLine
 10
99.7736831417
 20
101.2211908028
 30
0.0
 11
99.7736831417
 21
100.7711924985
 31
0.0
  0
LINE
  5
AF
330
1F
100
AcDbEntity
  8
0
  6
Continuous
 62
     7
370
    25
100
AcDbLine
 10
103.0236829759
 20
101.2211908028
 30
0.0
 11
99.7736831417
 21
101.2211908028
 31
0.0
  0
LINE
  5
B0
330
1F
100
AcDbEntity
  8
0
  6
Continuous
 62
     7
370
    25
100
AcDbLine
 10
99.7736831417
 20
101.2211908028
 30
0.0
 11
95.7736829517
 21
101.2211908028
 31
0.0
  0
LINE
  5
B1
330
1F
100
AcDbEntity
  8
0
  6
Continuous
 62
     7
370
    25
100
AcDbLine
 10
98.2342394639
 20
87.271191217
 30
0.0
 11
98.2342394639
 21
100.7711924985
 31
0.0
  0
LINE
  5
B2
330
1F
100
AcDbEntity
  8
0
  6
Continuous
 62
     7
370
    25
100
AcDbLine
 10
97.7736830467
 20
87.4711908773
 30
0.0
 11
98.2342394639
 21
87.271191217
 31
0.0
  0
LINE
  5
B3
330
1F
100
AcDbEntity
  8
0
  6
Continuous
 62
     7
370
    25
100
AcDbLine
 10
97.7736830467
 20
87.4711908773
 30
0.0
 11
97.7736830467
 21
100.5711909756
 31
0.0
  0
LINE
  5
B4
330
1F
100
AcDbEntity
  8
0
  6
Continuous
 62
     7
370
    25
100
AcDbLine
 10
98.2342394639
 20
100.7711924985
 30
0.0
 11
97.7736830467
 21
100.5711909756
 31
0.0
  0
LINE
  5
B5
330
1F
100
AcDbEntity
  8
0
  6
Continuous
 62
     7
370
    25
100
AcDbLine
 10
97.3131266294
 20
87.271191217
 30
0.0
 11
97.7736830467
 21
87.4711908773
 31
0.0
  0
LINE
  5
B6
330
1F
100
AcDbEntity
  8
0
  6
Continuous
 62
     7
370
    25
100
AcDbLine
 10
97.3131266294
 20
87.271191217
 30
0.0
 11
97.3131266294
 21
100.7711924985
 31
0.0
  0
LINE
  5
B7
330
1F
100
AcDbEntity
  8
0
  6
Continuous
 62
     7
370
    25
100
AcDbLine
 10
97.7736830467
 20
100.5711909756
 30
0.0
 11
97.3131266294
 21
100.7711924985
 31
0.0
  0
LINE
  5
B8
330
1F
100
AcDbEntity
  8
0
  6
Continuous
 62
     7
370
    25
100
AcDbLine
 10
98.2342394639
 20
87.271191217
 30
0.0
 11
97.3131266294
 21
87.271191217
 31
0.0
  0
LINE
  5
B9
330
1F
100
AcDbEntity
  8
0
  6
Continuous
 62
     7
370
    25
100
AcDbLine
 10
97.3131266294
 20
100.7711924985
 30
0.0
 11
98.2342394639
 21
100.7711924985
 31
0.0
  0
LINE
  5
BA
330
1F
100
AcDbEntity
  8
0
  6
Continuous
 62
     7
370
    25
100
AcDbLine
 10
98.7144392205
 20
87.4711908773
 30
0.0
 11
98.7144392205
 21
100.5711909756
 31
0.0
  0
LINE
  5
BB
330
1F
100
AcDbEntity
  8
0
  6
Continuous
 62
     7
370
    25
100
AcDbLine
 10
98.2342394639
 20
87.271191217
 30
0.0
 11
98.7144392205
 21
87.4711908773
 31
0.0
  0
LINE
  5
BC
330
1F
100
AcDbEntity
  8
0
  6
Continuous
 62
     7
370
    25
100
AcDbLine
 10
98.7144392205
 20
100.5711909756
 30
0.0
 11
98.2342394639
 21
100.7711924985
 31
0.0
  0
LINE
  5
BD
330
1F
100
AcDbEntity
  8
0
  6
Continuous
 62
     7
370
    25
100
AcDbLine
 10
99.1503063345
 20
87.271191217
 30
0.0
 11
99.1503063345
 21
100.7711924985
 31
0.0
  0
LINE
  5
BE
330
1F
100
AcDbEntity
  8
0
  6
Continuous
 62
     7
370
    25
100
AcDbLine
 10
98.7144392205
 20
87.4711908773
 30
0.0
 11
99.1503063345
 21
87.271191217
 31
0.0
  0
LINE
  5
BF
330
1F
100
AcDbEntity
  8
0
  6
Continuous
 62
     7
370
    25
100
AcDbLine
 10
99.1503063345
 20
100.7711924985
 30
0.0
 11
98.7144392205
 21
100.5711909756
 31
0.0
  0
LINE
  5
C0
330
1F
100
AcDbEntity
  8
0
  6
Continuous
 62
     7
370
    25
100
AcDbLine
 10
99.1503063345
 20
87.271191217
 30
0.0
 11
98.2342394639
 21
87.271191217
 31
0.0
  0
LINE
  5
C1
330
1F
100
AcDbEntity
  8
0
  6
Continuous
 62
     7
370
    25
100
AcDbLine
 10
98.2342394639
 20
100.7711924985
 30
0.0
 11
99.1503063345
 21
100.7711924985
 31
0.0
  0
LINE
  5
C2
330
1F
100
AcDbEntity
  8
0
  6
Continuous
 62
     7
370
    25
100
AcDbLine
 10
96.8329268729
 20
87.4711908773
 30
0.0
 11
97.3131266294
 21
87.271191217
 31
0.0
  0
LINE
  5
C3
330
1F
100
AcDbEntity
  8
0
  6
Continuous
 62
     7
370
    25
100
AcDbLine
 10
96.8329268729
 20
87.4711908773
 30
0.0
 11
96.8329268729
 21
100.5711909756
 31
0.0
  0
LINE
  5
C4
330
1F
100
AcDbEntity
  8
0
  6
Continuous
 62
     7
370
    25
100
AcDbLine
 10
97.3131266294
 20
100.7711924985
 30
0.0
 11
96.8329268729
 21
100.5711909756
 31
0.0
  0
LINE
  5
C5
330
1F
100
AcDbEntity
  8
0
  6
Continuous
 62
     7
370
    25
100
AcDbLine
 10
96.3970597589
 20
87.271191217
 30
0.0
 11
96.8329268729
 21
87.4711908773
 31
0.0
  0
LINE
  5
C6
330
1F
100
AcDbEntity
  8
0
  6
Continuous
 62
     7
370
    25
100
AcDbLine
 10
96.3970597589
 20
87.271191217
 30
0.0
 11
96.3970597589
 21
100.7711924985
 31
0.0
  0
LINE
  5
C7
330
1F
100
AcDbEntity
  8
0
  6
Continuous
 62
     7
370
    25
100
AcDbLine
 10
96.8329268729
 20
100.5711909756
 30
0.0
 11
96.3970597589
 21
100.7711924985
 31
0.0
  0
LINE
  5
C8
330
1F
100
AcDbEntity
  8
0
  6
Continuous
 62
     7
370
    25
100
AcDbLine
 10
97.3131266294
 20
87.271191217
 30
0.0
 11
96.3970597589
 21
87.271191217
 31
0.0
  0
LINE
  5
C9
330
1F
100
AcDbEntity
  8
0
  6
Continuous
 62
     7
370
    25
100
AcDbLine
 10
96.3970597589
 20
100.7711924985
 30
0.0
 11
97.3131266294
 21
100.7711924985
 31
0.0
  0
LINE
  5
CA
330
1F
100
AcDbEntity
  8
0
  6
Continuous
 62
     7
370
    25
100
AcDbLine
 10
99.6448882145
 20
87.4711908773
 30
0.0
 11
99.6448882145
 21
100.5711909756
 31
0.0
  0
LINE
  5
CB
330
1F
100
AcDbEntity
  8
0
  6
Continuous
 62
     7
370
    25
100
AcDbLine
 10
99.1503063345
 20
87.271191217
 30
0.0
 11
99.6448882145
 21
87.4711908773
 31
0.0
  0
LINE
  5
CC
330
1F
100
AcDbEntity
  8
0
  6
Continuous
 62
     7
370
    25
100
AcDbLine
 10
99.6448882145
 20
100.5711909756
 30
0.0
 11
99.1503063345
 21
100.7711924985
 31
0.0
  0
LINE
  5
CD
330
1F
100
AcDbEntity
  8
0
  6
Continuous
 62
     7
370
    25
100
AcDbLine
 10
99.6448882145
 20
87.4711908773
 30
0.0
 11
100.0512906106
 21
87.271191217
 31
0.0
  0
LINE
  5
CE
330
1F
100
AcDbEntity
  8
0
  6
Continuous
 62
     7
370
    25
100
AcDbLine
 10
100.0512906106
 20
87.271191217
 30
0.0
 11
99.1503063345
 21
87.271191217
 31
0.0
  0
LINE
  5
CF
330
1F
100
AcDbEntity
  8
0
  6
Continuous
 62
     7
370
    25
100
AcDbLine
 10
100.0512906106
 20
87.271191217
 30
0.0
 11
100.0512906106
 21
100.7711924985
 31
0.0
  0
LINE
  5
D0
330
1F
100
AcDbEntity
  8
0
  6
Continuous
 62
     7
370
    25
100
AcDbLine
 10
100.0512906106
 20
100.7711924985
 30
0.0
 11
99.6448882145
 21
100.5711909756
 31
0.0
  0
LINE
  5
D1
330
1F
100
AcDbEntity
  8
0
  6
Continuous
 62
     7
370
    25
100
AcDbLine
 10
99.1503063345
 20
100.7711924985
 30
0.0
 11
100.0512906106
 21
100.7711924985
 31
0.0
  0
LINE
  5
D2
330
1F
100
AcDbEntity
  8
0
  6
Continuous
 62
     7
370
    25
100
AcDbLine
 10
95.9024778788
 20
87.4711908773
 30
0.0
 11
96.3970597589
 21
87.271191217
 31
0.0
  0
LINE
  5
D3
330
1F
100
AcDbEntity
  8
0
  6
Continuous
 62
     7
370
    25
100
AcDbLine
 10
96.3970597589
 20
87.271191217
 30
0.0
 11
95.4960754828
 21
87.271191217
 31
0.0
  0
LINE
  5
D4
330
1F
100
AcDbEntity
  8
0
  6
Continuous
 62
     7
370
    25
100
AcDbLine
 10
95.4960754828
 20
87.271191217
 30
0.0
 11
95.9024778788
 21
87.4711908773
 31
0.0
  0
LINE
  5
D5
330
1F
100
AcDbEntity
  8
0
  6
Continuous
 62
     7
370
    25
100
AcDbLine
 10
95.9024778788
 20
87.4711908773
 30
0.0
 11
95.9024778788
 21
100.5711909756
 31
0.0
  0
LINE
  5
D6
330
1F
100
AcDbEntity
  8
0
  6
Continuous
 62
     7
370
    25
100
AcDbLine
 10
95.4960754828
 20
87.271191217
 30
0.0
 11
95.4960754828
 21
100.7711924985
 31
0.0
  0
LINE
  5
D7
330
1F
100
AcDbEntity
  8
0
  6
Continuous
 62
     7
370
    25
100
AcDbLine
 10
95.9024778788
 20
100.5711909756
 30
0.0
 11
95.4960754828
 21
100.7711924985
 31
0.0
  0
LINE
  5
D8
330
1F
100
AcDbEntity
  8
0
  6
Continuous
 62
     7
370
    25
100
AcDbLine
 10
96.3970597589
 20
100.7711924985
 30
0.0
 11
95.9024778788
 21
100.5711909756
 31
0.0
  0
LINE
  5
D9
330
1F
100
AcDbEntity
  8
0
  6
Continuous
 62
     7
370
    25
100
AcDbLine
 10
95.4960754828
 20
100.7711924985
 30
0.0
 11
96.3970597589
 21
100.7711924985
 31
0.0
  0
LINE
  5
DA
330
1F
100
AcDbEntity
  8
0
  6
Continuous
 62
     7
370
    25
100
AcDbLine
 10
94.9925300886
 20
87.4711908773
 30
0.0
 11
94.9925300886
 21
100.5711909756
 31
0.0
  0
LINE
  5
DB
330
1F
100
AcDbEntity
  8
0
  6
Continuous
 62
     7
370
    25
100
AcDbLine
 10
94.6200450638
 20
87.271191217
 30
0.0
 11
94.9925300886
 21
87.4711908773
 31
0.0
  0
LINE
  5
DC
330
1F
100
AcDbEntity
  8
0
  6
Continuous
 62
     7
370
    25
100
AcDbLine
 10
94.6200450638
 20
87.271191217
 30
0.0
 11
94.6200450638
 21
100.7711924985
 31
0.0
  0
LINE
  5
DD
330
1F
100
AcDbEntity
  8
0
  6
Continuous
 62
     7
370
    25
100
AcDbLine
 10
94.9925300886
 20
100.5711909756
 30
0.0
 11
94.6200450638
 21
100.7711924985
 31
0.0
  0
LINE
  5
DE
330
1F
100
AcDbEntity
  8
0
  6
Continuous
 62
     7
370
    25
100
AcDbLine
 10
94.9925300886
 20
87.4711908773
 30
0.0
 11
95.4960754828
 21
87.271191217
 31
0.0
  0
LINE
  5
DF
330
1F
100
AcDbEntity
  8
0
  6
Continuous
 62
     7
370
    25
100
AcDbLine
 10
95.4960754828
 20
87.271191217
 30
0.0
 11
94.6200450638
 21
87.271191217
 31
0.0
  0
LINE
  5
E0
330
1F
100
AcDbEntity
  8
0
  6
Continuous
 62
     7
370
    25
100
AcDbLine
 10
95.4960754828
 20
100.7711924985
 30
0.0
 11
94.9925300886
 21
100.5711909756
 31
0.0
  0
LINE
  5
E1
330
1F
100
AcDbEntity
  8
0
  6
Continuous
 62
     7
370
    25
100
AcDbLine
 10
94.6200450638
 20
100.7711924985
 30
0.0
 11
95.4960754828
 21
100.7711924985
 31
0.0
  0
LINE
  5
E2
330
1F
100
AcDbEntity
  8
0
  6
Continuous
 62
     7
370
    25
100
AcDbLine
 10
100.5548360047
 20
87.4711908773
 30
0.0
 11
100.9273210296
 21
87.271191217
 31
0.0
  0
LINE
  5
E3
330
1F
100
AcDbEntity
  8
0
  6
Continuous
 62
     7
370
    25
100
AcDbLine
 10
100.0512906106
 20
87.271191217
 30
0.0
 11
100.5548360047
 21
87.4711908773
 31
0.0
  0
LINE
  5
E4
330
1F
100
AcDbEntity
  8
0
  6
Continuous
 62
     7
370
    25
100
AcDbLine
 10
100.9273210296
 20
87.271191217
 30
0.0
 11
100.0512906106
 21
87.271191217
 31
0.0
  0
LINE
  5
E5
330
1F
100
AcDbEntity
  8
0
  6
Continuous
 62
     7
370
    25
100
AcDbLine
 10
100.9273210296
 20
87.271191217
 30
0.0
 11
100.9273210296
 21
100.7711924985
 31
0.0
  0
LINE
  5
E6
330
1F
100
AcDbEntity
  8
0
  6
Continuous
 62
     7
370
    25
100
AcDbLine
 10
100.5548360047
 20
87.4711908773
 30
0.0
 11
100.5548360047
 21
100.5711909756
 31
0.0
  0
LINE
  5
E7
330
1F
100
AcDbEntity
  8
0
  6
Continuous
 62
     7
370
    25
100
AcDbLine
 10
100.9273210296
 20
100.7711924985
 30
0.0
 11
100.5548360047
 21
100.5711909756
 31
0.0
  0
LINE
  5
E8
330
1F
100
AcDbEntity
  8
0
  6
Continuous
 62
     7
370
    25
100
AcDbLine
 10
100.5548360047
 20
100.5711909756
 30
0.0
 11
100.0512906106
 21
100.7711924985
 31
0.0
  0
LINE
  5
E9
330
1F
100
AcDbEntity
  8
0
  6
Continuous
 62
     7
370
    25
100
AcDbLine
 10
100.0512906106
 20
100.7711924985
 30
0.0
 11
100.9273210296
 21
100.7711924985
 31
0.0
  0
LINE
  5
EA
330
1F
100
AcDbEntity
  8
0
  6
Continuous
 62
     7
370
    25
100
AcDbLine
 10
101.4343127829
 20
87.4711908773
 30
0.0
 11
101.4343127829
 21
100.5711909756
 31
0.0
  0
LINE
  5
EB
330
1F
100
AcDbEntity
  8
0
  6
Continuous
 62
     7
370
    25
100
AcDbLine
 10
100.9273210296
 20
87.271191217
 30
0.0
 11
101.4343127829
 21
87.4711908773
 31
0.0
  0
LINE
  5
EC
330
1F
100
AcDbEntity
  8
0
  6
Continuous
 62
     7
370
    25
100
AcDbLine
 10
101.4343127829
 20
100.5711909756
 30
0.0
 11
100.9273210296
 21
100.7711924985
 31
0.0
  0
LINE
  5
ED
330
1F
100
AcDbEntity
  8
0
  6
Continuous
 62
     7
370
    25
100
AcDbLine
 10
101.4343127829
 20
87.4711908773
 30
0.0
 11
101.7687993811
 21
87.271191217
 31
0.0
  0
LINE
  5
EE
330
1F
100
AcDbEntity
  8
0
  6
Continuous
 62
     7
370
    25
100
AcDbLine
 10
101.7687993811
 20
87.271191217
 30
0.0
 11
100.9273210296
 21
87.271191217
 31
0.0
  0
LINE
  5
EF
330
1F
100
AcDbEntity
  8
0
  6
Continuous
 62
     7
370
    25
100
AcDbLine
 10
101.7687993811
 20
100.7711924985
 30
0.0
 11
101.4343127829
 21
100.5711909756
 31
0.0
  0
LINE
  5
F0
330
1F
100
AcDbEntity
  8
0
  6
Continuous
 62
     7
370
    25
100
AcDbLine
 10
100.9273210296
 20
100.7711924985
 30
0.0
 11
101.7687993811
 21
100.7711924985
 31
0.0
  0
LINE
  5
F1
330
1F
100
AcDbEntity
  8
0
  6
Continuous
 62
     7
370
    25
100
AcDbLine
 10
94.1130533104
 20
87.4711908773
 30
0.0
 11
94.6200450638
 21
87.271191217
 31
0.0
  0
LINE
  5
F2
330
1F
100
AcDbEntity
  8
0
  6
Continuous
 62
     7
370
    25
100
AcDbLine
 10
94.1130533104
 20
87.4711908773
 30
0.0
 11
94.1130533104
 21
100.5711909756
 31
0.0
  0
LINE
  5
F3
330
1F
100
AcDbEntity
  8
0
  6
Continuous
 62
     7
370
    25
100
AcDbLine
 10
94.6200450638
 20
100.7711924985
 30
0.0
 11
94.1130533104
 21
100.5711909756
 31
0.0
  0
LINE
  5
F4
330
1F
100
AcDbEntity
  8
0
  6
Continuous
 62
     7
370
    25
100
AcDbLine
 10
93.7785667123
 20
87.271191217
 30
0.0
 11
94.1130533104
 21
87.4711908773
 31
0.0
  0
LINE
  5
F5
330
1F
100
AcDbEntity
  8
0
  6
Continuous
 62
     7
370
    25
100
AcDbLine
 10
94.6200450638
 20
87.271191217
 30
0.0
 11
93.7785667123
 21
87.271191217
 31
0.0
  0
LINE
  5
F6
330
1F
100
AcDbEntity
  8
0
  6
Continuous
 62
     7
370
    25
100
AcDbLine
 10
94.1130533104
 20
100.5711909756
 30
0.0
 11
93.7785667123
 21
100.7711924985
 31
0.0
  0
LINE
  5
F7
330
1F
100
AcDbEntity
  8
0
  6
Continuous
 62
     7
370
    25
100
AcDbLine
 10
93.7785667123
 20
100.7711924985
 30
0.0
 11
94.6200450638
 21
100.7711924985
 31
0.0
  0
LINE
  5
F8
330
1F
100
AcDbEntity
  8
0
  6
Continuous
 62
     7
370
    25
100
AcDbLine
 10
93.7785667123
 20
87.271191217
 30
0.0
 11
93.7785667123
 21
100.7711924985
 31
0.0
  0
LINE
  5
F9
330
1F
100
AcDbEntity
  8
0
  6
Continuous
 62
     7
370
    25
100
AcDbLine
 10
101.7687993811
 20
87.271191217
 30
0.0
 11
101.7687993811
 21
100.7711924985
 31
0.0
  0
LINE
  5
FA
330
1F
100
AcDbEntity
  8
0
  6
Continuous
 62
     7
370
    25
100
AcDbLine
 10
93.2736832404
 20
87.4711908773
 30
0.0
 11
93.7785667123
 21
87.271191217
 31
0.0
  0
LINE
  5
FB
330
1F
100
AcDbEntity
  8
0
  6
Continuous
 62
     7
370
    25
100
AcDbLine
 10
93.2736832404
 20
87.4711908773
 30
0.0
 11
93.2736832404
 21
100.5711909756
 31
0.0
  0
LINE
  5
FC
330
1F
100
AcDbEntity
  8
0
  6
Continuous
 62
     7
370
    25
100
AcDbLine
 10
93.7785667123
 20
100.7711924985
 30
0.0
 11
93.2736832404
 21
100.5711909756
 31
0.0
  0
LINE
  5
FD
330
1F
100
AcDbEntity
  8
0
  6
Continuous
 62
     7
370
    25
100
AcDbLine
 10
92.9808595905
 20
87.271191217
 30
0.0
 11
93.2736832404
 21
87.4711908773
 31
0.0
  0
LINE
  5
FE
330
1F
100
AcDbEntity
  8
0
  6
Continuous
 62
     7
370
    25
100
AcDbLine
 10
93.7785667123
 20
87.271191217
 30
0.0
 11
92.9808595905
 21
87.271191217
 31
0.0
  0
LINE
  5
FF
330
1F
100
AcDbEntity
  8
0
  6
Continuous
 62
     7
370
    25
100
AcDbLine
 10
93.2736832404
 20
100.5711909756
 30
0.0
 11
92.9808595905
 21
100.7711924985
 31
0.0
  0
LINE
  5
100
330
1F
100
AcDbEntity
  8
0
  6
Continuous
 62
     7
370
    25
100
AcDbLine
 10
92.9808595905
 20
100.7711924985
 30
0.0
 11
93.7785667123
 21
100.7711924985
 31
0.0
  0
LINE
  5
101
330
1F
100
AcDbEntity
  8
0
  6
Continuous
 62
     7
370
    25
100
AcDbLine
 10
102.273682853
 20
87.4711908773
 30
0.0
 11
102.5665065029
 21
87.271191217
 31
0.0
  0
LINE
  5
102
330
1F
100
AcDbEntity
  8
0
  6
Continuous
 62
     7
370
    25
100
AcDbLine
 10
101.7687993811
 20
87.271191217
 30
0.0
 11
102.273682853
 21
87.4711908773
 31
0.0
  0
LINE
  5
103
330
1F
100
AcDbEntity
  8
0
  6
Continuous
 62
     7
370
    25
100
AcDbLine
 10
102.5665065029
 20
87.271191217
 30
0.0
 11
101.7687993811
 21
87.271191217
 31
0.0
  0
LINE
  5
104
330
1F
100
AcDbEntity
  8
0
  6
Continuous
 62
     7
370
    25
100
AcDbLine
 10
102.273682853
 20
87.4711908773
 30
0.0
 11
102.273682853
 21
100.5711909756
 31
0.0
  0
LINE
  5
105
330
1F
100
AcDbEntity
  8
0
  6
Continuous
 62
     7
370
    25
100
AcDbLine
 10
102.273682853
 20
100.5711909756
 30
0.0
 11
101.7687993811
 21
100.7711924985
 31
0.0
  0
LINE
  5
106
330
1F
100
AcDbEntity
  8
0
  6
Continuous
 62
     7
370
    25
100
AcDbLine
 10
102.5665065029
 20
100.7711924985
 30
0.0
 11
102.273682853
 21
100.5711909756
 31
0.0
  0
LINE
  5
107
330
1F
100
AcDbEntity
  8
0
  6
Continuous
 62
     7
370
    25
100
AcDbLine
 10
101.7687993811
 20
100.7711924985
 30
0.0
 11
102.5665065029
 21
100.7711924985
 31
0.0
  0
LINE
  5
108
330
1F
100
AcDbEntity
  8
0
  6
Continuous
 62
     7
370
    25
100
AcDbLine
 10
92.9808595905
 20
87.271191217
 30
0.0
 11
92.9808595905
 21
100.7711924985
 31
0.0
  0
LINE
  5
109
330
1F
100
AcDbEntity
  8
0
  6
Continuous
 62
     7
370
    25
100
AcDbLine
 10
102.5665065029
 20
87.271191217
 30
0.0
 11
102.5665065029
 21
100.7711924985
 31
0.0
  0
LINE
  5
10A
330
1F
100
AcDbEntity
  8
0
  6
Continuous
 62
     7
370
    25
100
AcDbLine
 10
97.7736830467
 20
82.2711913288
 30
0.0
 11
90.4736828746
 21
82.2711913288
 31
0.0
  0
LINE
  5
10B
330
1F
100
AcDbEntity
  8
0
  6
Continuous
 62
     7
370
    25
100
AcDbLine
 10
105.0736832188
 20
82.2711913288
 30
0.0
 11
97.7736830467
 21
82.2711913288
 31
0.0
  0
LINE
  5
10C
330
1F
100
AcDbEntity
  8
0
  6
Continuous
 62
     7
370
    25
100
AcDbLine
 10
97.7736830467
 20
82.4711919204
 30
0.0
 11
105.273682879
 21
82.4711919204
 31
0.0
  0
LINE
  5
10D
330
1F
100
AcDbEntity
  8
0
  6
Continuous
 62
     7
370
    25
100
AcDbLine
 10
90.2736832143
 20
82.4711919204
 30
0.0
 11
97.7736830467
 21
82.4711919204
 31
0.0
  0
LINE
  5
10E
330
1F
100
AcDbEntity
  8
0
  6
Continuous
 62
     7
370
    25
100
AcDbLine
 10
92.4836157577
 20
87.4711908773
 30
0.0
 11
92.9808595905
 21
87.271191217
 31
0.0
  0
LINE
  5
10F
330
1F
100
AcDbEntity
  8
0
  6
Continuous
 62
     7
370
    25
100
AcDbLine
 10
92.4836157577
 20
87.4711908773
 30
0.0
 11
92.4836157577
 21
100.5711909756
 31
0.0
  0
LINE
  5
110
330
1F
100
AcDbEntity
  8
0
  6
Continuous
 62
     7
370
    25
100
AcDbLine
 10
92.9808595905
 20
100.7711924985
 30
0.0
 11
92.4836157577
 21
100.5711909756
 31
0.0
  0
LINE
  5
111
330
1F
100
AcDbEntity
  8
0
  6
Continuous
 62
     7
370
    25
100
AcDbLine
 10
92.235663695
 20
87.271191217
 30
0.0
 11
92.4836157577
 21
87.4711908773
 31
0.0
  0
LINE
  5
112
330
1F
100
AcDbEntity
  8
0
  6
Continuous
 62
     7
370
    25
100
AcDbLine
 10
92.9808595905
 20
87.271191217
 30
0.0
 11
92.235663695
 21
87.271191217
 31
0.0
  0
LINE
  5
113
330
1F
100
AcDbEntity
  8
0
  6
Continuous
 62
     7
370
    25
100
AcDbLine
 10
92.4836157577
 20
100.5711909756
 30
0.0
 11
92.235663695
 21
100.7711924985
 31
0.0
  0
LINE
  5
114
330
1F
100
AcDbEntity
  8
0
  6
Continuous
 62
     7
370
    25
100
AcDbLine
 10
92.235663695
 20
100.7711924985
 30
0.0
 11
92.9808595905
 21
100.7711924985
 31
0.0
  0
LINE
  5
115
330
1F
100
AcDbEntity
  8
0
  6
Continuous
 62
     7
370
    25
100
AcDbLine
 10
103.0637503357
 20
87.4711908773
 30
0.0
 11
103.3117023983
 21
87.271191217
 31
0.0
  0
LINE
  5
116
330
1F
100
AcDbEntity
  8
0
  6
Continuous
 62
     7
370
    25
100
AcDbLine
 10
102.5665065029
 20
87.271191217
 30
0.0
 11
103.0637503357
 21
87.4711908773
 31
0.0
  0
LINE
  5
117
330
1F
100
AcDbEntity
  8
0
  6
Continuous
 62
     7
370
    25
100
AcDbLine
 10
103.3117023983
 20
87.271191217
 30
0.0
 11
102.5665065029
 21
87.271191217
 31
0.0
  0
LINE
  5
118
330
1F
100
AcDbEntity
  8
0
  6
Continuous
 62
     7
370
    25
100
AcDbLine
 10
103.0637503357
 20
87.4711908773
 30
0.0
 11
103.0637503357
 21
100.5711909756
 31
0.0
  0
LINE
  5
119
330
1F
100
AcDbEntity
  8
0
  6
Continuous
 62
     7
370
    25
100
AcDbLine
 10
103.0637503357
 20
100.5711909756
 30
0.0
 11
102.5665065029
 21
100.7711924985
 31
0.0
  0
LINE
  5
11A
330
1F
100
AcDbEntity
  8
0
  6
Continuous
 62
     7
370
    25
100
AcDbLine
 10
103.3117023983
 20
100.7711924985
 30
0.0
 11
103.0637503357
 21
100.5711909756
 31
0.0
  0
LINE
  5
11B
330
1F
100
AcDbEntity
  8
0
  6
Continuous
 62
     7
370
    25
100
AcDbLine
 10
102.5665065029
 20
100.7711924985
 30
0.0
 11
103.3117023983
 21
100.7711924985
 31
0.0
  0
LINE
  5
11C
330
1F
100
AcDbEntity
  8
0
  6
Continuous
 62
     7
370
    25
100
AcDbLine
 10
92.235663695
 20
87.271191217
 30
0.0
 11
92.235663695
 21
100.7711924985
 31
0.0
  0
LINE
  5
11D
330
1F
100
AcDbEntity
  8
0
  6
Continuous
 62
     7
370
    25
100
AcDbLine
 10
103.3117023983
 20
87.271191217
 30
0.0
 11
103.3117023983
 21
100.7711924985
 31
0.0
  0
LINE
  5
11E
330
1F
100
AcDbEntity
  8
0
  6
Continuous
 62
     7
370
    25
100
AcDbLine
 10
91.7515077384
 20
87.4711908773
 30
0.0
 11
92.235663695
 21
87.271191217
 31
0.0
  0
LINE
  5
11F
330
1F
100
AcDbEntity
  8
0
  6
Continuous
 62
     7
370
    25
100
AcDbLine
 10
91.5511434653
 20
87.271191217
 30
0.0
 11
91.7515077384
 21
87.4711908773
 31
0.0
  0
LINE
  5
120
330
1F
100
AcDbEntity
  8
0
  6
Continuous
 62
     7
370
    25
100
AcDbLine
 10
92.235663695
 20
87.271191217
 30
0.0
 11
91.5511434653
 21
87.271191217
 31
0.0
  0
LINE
  5
121
330
1F
100
AcDbEntity
  8
0
  6
Continuous
 62
     7
370
    25
100
AcDbLine
 10
91.7515077384
 20
87.4711908773
 30
0.0
 11
91.7515077384
 21
100.5711909756
 31
0.0
  0
LINE
  5
122
330
1F
100
AcDbEntity
  8
0
  6
Continuous
 62
     7
370
    25
100
AcDbLine
 10
92.235663695
 20
100.7711924985
 30
0.0
 11
91.7515077384
 21
100.5711909756
 31
0.0
  0
LINE
  5
123
330
1F
100
AcDbEntity
  8
0
  6
Continuous
 62
     7
370
    25
100
AcDbLine
 10
91.7515077384
 20
100.5711909756
 30
0.0
 11
91.5511434653
 21
100.7711924985
 31
0.0
  0
LINE
  5
124
330
1F
100
AcDbEntity
  8
0
  6
Continuous
 62
     7
370
    25
100
AcDbLine
 10
91.5511434653
 20
100.7711924985
 30
0.0
 11
92.235663695
 21
100.7711924985
 31
0.0
  0
LINE
  5
125
330
1F
100
AcDbEntity
  8
0
  6
Continuous
 62
     7
370
    25
100
AcDbLine
 10
103.795858355
 20
87.4711908773
 30
0.0
 11
103.996222628
 21
87.271191217
 31
0.0
  0
LINE
  5
126
330
1F
100
AcDbEntity
  8
0
  6
Continuous
 62
     7
370
    25
100
AcDbLine
 10
103.3117023983
 20
87.271191217
 30
0.0
 11
103.795858355
 21
87.4711908773
 31
0.0
  0
LINE
  5
127
330
1F
100
AcDbEntity
  8
0
  6
Continuous
 62
     7
370
    25
100
AcDbLine
 10
103.996222628
 20
87.271191217
 30
0.0
 11
103.3117023983
 21
87.271191217
 31
0.0
  0
LINE
  5
128
330
1F
100
AcDbEntity
  8
0
  6
Continuous
 62
     7
370
    25
100
AcDbLine
 10
103.795858355
 20
87.4711908773
 30
0.0
 11
103.795858355
 21
100.5711909756
 31
0.0
  0
LINE
  5
129
330
1F
100
AcDbEntity
  8
0
  6
Continuous
 62
     7
370
    25
100
AcDbLine
 10
103.795858355
 20
100.5711909756
 30
0.0
 11
103.3117023983
 21
100.7711924985
 31
0.0
  0
LINE
  5
12A
330
1F
100
AcDbEntity
  8
0
  6
Continuous
 62
     7
370
    25
100
AcDbLine
 10
103.996222628
 20
100.7711924985
 30
0.0
 11
103.795858355
 21
100.5711909756
 31
0.0
  0
LINE
  5
12B
330
1F
100
AcDbEntity
  8
0
  6
Continuous
 62
     7
370
    25
100
AcDbLine
 10
103.3117023983
 20
100.7711924985
 30
0.0
 11
103.996222628
 21
100.7711924985
 31
0.0
  0
LINE
  5
12C
330
1F
100
AcDbEntity
  8
0
  6
Continuous
 62
     7
370
    25
100
AcDbLine
 10
91.5511434653
 20
87.271191217
 30
0.0
 11
91.5511434653
 21
100.7711924985
 31
0.0
  0
LINE
  5
12D
330
1F
100
AcDbEntity
  8
0
  6
Continuous
 62
     7
370
    25
100
AcDbLine
 10
103.996222628
 20
87.271191217
 30
0.0
 11
103.996222628
 21
100.7711924985
 31
0.0
  0
LINE
  5
12E
330
1F
100
AcDbEntity
  8
0
  6
Continuous
 62
     7
370
    25
100
AcDbLine
 10
91.0853797325
 20
87.4711908773
 30
0.0
 11
91.5511434653
 21
87.271191217
 31
0.0
  0
LINE
  5
12F
330
1F
100
AcDbEntity
  8
0
  6
Continuous
 62
     7
370
    25
100
AcDbLine
 10
90.9347983764
 20
87.271191217
 30
0.0
 11
91.0853797325
 21
87.4711908773
 31
0.0
  0
LINE
  5
130
330
1F
100
AcDbEntity
  8
0
  6
Continuous
 62
     7
370
    25
100
AcDbLine
 10
91.5511434653
 20
87.271191217
 30
0.0
 11
90.9347983764
 21
87.271191217
 31
0.0
  0
LINE
  5
131
330
1F
100
AcDbEntity
  8
0
  6
Continuous
 62
     7
370
    25
100
AcDbLine
 10
91.0853797325
 20
87.4711908773
 30
0.0
 11
91.0853797325
 21
100.5711909756
 31
0.0
  0
LINE
  5
132
330
1F
100
AcDbEntity
  8
0
  6
Continuous
 62
     7
370
    25
100
AcDbLine
 10
91.5511434653
 20
100.7711924985
 30
0.0
 11
91.0853797325
 21
100.5711909756
 31
0.0
  0
LINE
  5
133
330
1F
100
AcDbEntity
  8
0
  6
Continuous
 62
     7
370
    25
100
AcDbLine
 10
91.0853797325
 20
100.5711909756
 30
0.0
 11
90.9347983764
 21
100.7711924985
 31
0.0
  0
LINE
  5
134
330
1F
100
AcDbEntity
  8
0
  6
Continuous
 62
     7
370
    25
100
AcDbLine
 10
90.9347983764
 20
100.7711924985
 30
0.0
 11
91.5511434653
 21
100.7711924985
 31
0.0
  0
LINE
  5
135
330
1F
100
AcDbEntity
  8
0
  6
Continuous
 62
     7
370
    25
100
AcDbLine
 10
104.4619863608
 20
87.4711908773
 30
0.0
 11
104.4619863608
 21
100.5711909756
 31
0.0
  0
LINE
  5
136
330
1F
100
AcDbEntity
  8
0
  6
Continuous
 62
     7
370
    25
100
AcDbLine
 10
103.996222628
 20
87.271191217
 30
0.0
 11
104.4619863608
 21
87.4711908773
 31
0.0
  0
LINE
  5
137
330
1F
100
AcDbEntity
  8
0
  6
Continuous
 62
     7
370
    25
100
AcDbLine
 10
104.4619863608
 20
100.5711909756
 30
0.0
 11
103.996222628
 21
100.7711924985
 31
0.0
  0
LINE
  5
138
330
1F
100
AcDbEntity
  8
0
  6
Continuous
 62
     7
370
    25
100
AcDbLine
 10
104.4619863608
 20
87.4711908773
 30
0.0
 11
104.612567717
 21
87.271191217
 31
0.0
  0
LINE
  5
139
330
1F
100
AcDbEntity
  8
0
  6
Continuous
 62
     7
370
    25
100
AcDbLine
 10
104.612567717
 20
87.271191217
 30
0.0
 11
103.996222628
 21
87.271191217
 31
0.0
  0
LINE
  5
13A
330
1F
100
AcDbEntity
  8
0
  6
Continuous
 62
     7
370
    25
100
AcDbLine
 10
104.612567717
 20
100.7711924985
 30
0.0
 11
104.4619863608
 21
100.5711909756
 31
0.0
  0
LINE
  5
13B
330
1F
100
AcDbEntity
  8
0
  6
Continuous
 62
     7
370
    25
100
AcDbLine
 10
103.996222628
 20
100.7711924985
 30
0.0
 11
104.612567717
 21
100.7711924985
 31
0.0
  0
LINE
  5
13C
330
1F
100
AcDbEntity
  8
0
  6
Continuous
 62
     7
370
    25
100
AcDbLine
 10
90.9347983764
 20
87.271191217
 30
0.0
 11
90.9347983764
 21
100.7711924985
 31
0.0
  0
LINE
  5
13D
330
1F
100
AcDbEntity
  8
0
  6
Continuous
 62
     7
370
    25
100
AcDbLine
 10
104.612567717
 20
87.271191217
 30
0.0
 11
104.612567717
 21
100.7711924985
 31
0.0
  0
LINE
  5
13E
330
1F
100
AcDbEntity
  8
0
  6
Continuous
 62
     7
370
    25
100
AcDbLine
 10
90.4925300495
 20
87.4711908773
 30
0.0
 11
90.9347983764
 21
87.271191217
 31
0.0
  0
LINE
  5
13F
330
1F
100
AcDbEntity
  8
0
  6
Continuous
 62
     7
370
    25
100
AcDbLine
 10
90.3933819139
 20
87.271191217
 30
0.0
 11
90.4925300495
 21
87.4711908773
 31
0.0
  0
LINE
  5
140
330
1F
100
AcDbEntity
  8
0
  6
Continuous
 62
     7
370
    25
100
AcDbLine
 10
90.9347983764
 20
87.271191217
 30
0.0
 11
90.3933819139
 21
87.271191217
 31
0.0
  0
LINE
  5
141
330
1F
100
AcDbEntity
  8
0
  6
Continuous
 62
     7
370
    25
100
AcDbLine
 10
90.4925300495
 20
87.4711908773
 30
0.0
 11
90.4925300495
 21
100.5711909756
 31
0.0
  0
LINE
  5
142
330
1F
100
AcDbEntity
  8
0
  6
Continuous
 62
     7
370
    25
100
AcDbLine
 10
90.9347983764
 20
100.7711924985
 30
0.0
 11
90.4925300495
 21
100.5711909756
 31
0.0
  0
LINE
  5
143
330
1F
100
AcDbEntity
  8
0
  6
Continuous
 62
     7
370
    25
100
AcDbLine
 10
90.4925300495
 20
100.5711909756
 30
0.0
 11
90.3933819139
 21
100.7711924985
 31
0.0
  0
LINE
  5
144
330
1F
100
AcDbEntity
  8
0
  6
Continuous
 62
     7
370
    25
100
AcDbLine
 10
90.3933819139
 20
100.7711924985
 30
0.0
 11
90.9347983764
 21
100.7711924985
 31
0.0
  0
LINE
  5
145
330
1F
100
AcDbEntity
  8
0
  6
Continuous
 62
     7
370
    25
100
AcDbLine
 10
105.0548360438
 20
87.4711908773
 30
0.0
 11
105.1539841795
 21
87.271191217
 31
0.0
  0
LINE
  5
146
330
1F
100
AcDbEntity
  8
0
  6
Continuous
 62
     7
370
    25
100
AcDbLine
 10
104.612567717
 20
87.271191217
 30
0.0
 11
105.0548360438
 21
87.4711908773
 31
0.0
  0
LINE
  5
147
330
1F
100
AcDbEntity
  8
0
  6
Continuous
 62
     7
370
    25
100
AcDbLine
 10
105.1539841795
 20
87.271191217
 30
0.0
 11
104.612567717
 21
87.271191217
 31
0.0
  0
LINE
  5
148
330
1F
100
AcDbEntity
  8
0
  6
Continuous
 62
     7
370
    25
100
AcDbLine
 10
105.0548360438
 20
87.4711908773
 30
0.0
 11
105.0548360438
 21
100.5711909756
 31
0.0
  0
LINE
  5
149
330
1F
100
AcDbEntity
  8
0
  6
Continuous
 62
     7
370
    25
100
AcDbLine
 10
105.0548360438
 20
100.5711909756
 30
0.0
 11
104.612567717
 21
100.7711924985
 31
0.0
  0
LINE
  5
14A
330
1F
100
AcDbEntity
  8
0
  6
Continuous
 62
     7
370
    25
100
AcDbLine
 10
105.1539841795
 20
100.7711924985
 30
0.0
 11
105.0548360438
 21
100.5711909756
 31
0.0
  0
LINE
  5
14B
330
1F
100
AcDbEntity
  8
0
  6
Continuous
 62
     7
370
    25
100
AcDbLine
 10
104.612567717
 20
100.7711924985
 30
0.0
 11
105.1539841795
 21
100.7711924985
 31
0.0
  0
LINE
  5
14C
330
1F
100
AcDbEntity
  8
0
  6
Continuous
 62
     7
370
    25
100
AcDbLine
 10
90.3933819139
 20
87.271191217
 30
0.0
 11
90.3933819139
 21
100.7711924985
 31
0.0
  0
LINE
  5
14D
330
1F
100
AcDbEntity
  8
0
  6
Continuous
 62
     7
370
    25
100
AcDbLine
 10
105.1539841795
 20
87.271191217
 30
0.0
 11
105.1539841795
 21
100.7711924985
 31
0.0
  0
LINE
  5
14E
330
1F
100
AcDbEntity
  8
0
  6
Continuous
 62
     7
370
    25
100
AcDbLine
 10
89.9794541986
 20
87.4711908773
 30
0.0
 11
90.3933819139
 21
87.271191217
 31
0.0
  0
LINE
  5
14F
330
1F
100
AcDbEntity
  8
0
  6
Continuous
 62
     7
370
    25
100
AcDbLine
 10
89.9794541986
 20
87.4711908773
 30
0.0
 11
89.9794541986
 21
100.5711909756
 31
0.0
  0
LINE
  5
150
330
1F
100
AcDbEntity
  8
0
  6
Continuous
 62
     7
370
    25
100
AcDbLine
 10
90.3933819139
 20
100.7711924985
 30
0.0
 11
89.9794541986
 21
100.5711909756
 31
0.0
  0
LINE
  5
151
330
1F
100
AcDbEntity
  8
0
  6
Continuous
 62
     7
370
    25
100
AcDbLine
 10
89.9328252056
 20
87.271191217
 30
0.0
 11
89.9794541986
 21
87.4711908773
 31
0.0
  0
LINE
  5
152
330
1F
100
AcDbEntity
  8
0
  6
Continuous
 62
     7
370
    25
100
AcDbLine
 10
90.3933819139
 20
87.271191217
 30
0.0
 11
89.9328252056
 21
87.271191217
 31
0.0
  0
LINE
  5
153
330
1F
100
AcDbEntity
  8
0
  6
Continuous
 62
     7
370
    25
100
AcDbLine
 10
89.9794541986
 20
100.5711909756
 30
0.0
 11
89.9328252056
 21
100.7711924985
 31
0.0
  0
LINE
  5
154
330
1F
100
AcDbEntity
  8
0
  6
Continuous
 62
     7
370
    25
100
AcDbLine
 10
89.9328252056
 20
100.7711924985
 30
0.0
 11
90.3933819139
 21
100.7711924985
 31
0.0
  0
LINE
  5
155
330
1F
100
AcDbEntity
  8
0
  6
Continuous
 62
     7
370
    25
100
AcDbLine
 10
105.5679118948
 20
87.4711908773
 30
0.0
 11
105.5679118948
 21
100.5711909756
 31
0.0
  0
LINE
  5
156
330
1F
100
AcDbEntity
  8
0
  6
Continuous
 62
     7
370
    25
100
AcDbLine
 10
105.1539841795
 20
87.271191217
 30
0.0
 11
105.5679118948
 21
87.4711908773
 31
0.0
  0
LINE
  5
157
330
1F
100
AcDbEntity
  8
0
  6
Continuous
 62
     7
370
    25
100
AcDbLine
 10
105.5679118948
 20
100.5711909756
 30
0.0
 11
105.1539841795
 21
100.7711924985
 31
0.0
  0
LINE
  5
158
330
1F
100
AcDbEntity
  8
0
  6
Continuous
 62
     7
370
    25
100
AcDbLine
 10
105.5679118948
 20
87.4711908773
 30
0.0
 11
105.6145408878
 21
87.271191217
 31
0.0
  0
LINE
  5
159
330
1F
100
AcDbEntity
  8
0
  6
Continuous
 62
     7
370
    25
100
AcDbLine
 10
105.6145408878
 20
87.271191217
 30
0.0
 11
105.1539841795
 21
87.271191217
 31
0.0
  0
LINE
  5
15A
330
1F
100
AcDbEntity
  8
0
  6
Continuous
 62
     7
370
    25
100
AcDbLine
 10
105.6145408878
 20
100.7711924985
 30
0.0
 11
105.5679118948
 21
100.5711909756
 31
0.0
  0
LINE
  5
15B
330
1F
100
AcDbEntity
  8
0
  6
Continuous
 62
     7
370
    25
100
AcDbLine
 10
105.1539841795
 20
100.7711924985
 30
0.0
 11
105.6145408878
 21
100.7711924985
 31
0.0
  0
LINE
  5
15C
330
1F
100
AcDbEntity
  8
0
  6
Continuous
 62
     7
370
    25
100
AcDbLine
 10
89.9328252056
 20
87.271191217
 30
0.0
 11
89.9328252056
 21
100.7711924985
 31
0.0
  0
LINE
  5
15D
330
1F
100
AcDbEntity
  8
0
  6
Continuous
 62
     7
370
    25
100
AcDbLine
 10
105.6145408878
 20
87.271191217
 30
0.0
 11
105.6145408878
 21
100.7711924985
 31
0.0
  0
LINE
  5
15E
330
1F
100
AcDbEntity
  8
0
  6
Continuous
 62
     7
370
    25
100
AcDbLine
 10
89.5517736429
 20
87.4711908773
 30
0.0
 11
89.9328252056
 21
87.271191217
 31
0.0
  0
LINE
  5
15F
330
1F
100
AcDbEntity
  8
0
  6
Continuous
 62
     7
370
    25
100
AcDbLine
 10
89.5581755543
 20
87.271191217
 30
0.0
 11
89.5517736429
 21
87.4711908773
 31
0.0
  0
LINE
  5
160
330
1F
100
AcDbEntity
  8
0
  6
Continuous
 62
     7
370
    25
100
AcDbLine
 10
89.9328252056
 20
87.271191217
 30
0.0
 11
89.5581755543
 21
87.271191217
 31
0.0
  0
LINE
  5
161
330
1F
100
AcDbEntity
  8
0
  6
Continuous
 62
     7
370
    25
100
AcDbLine
 10
89.5517736429
 20
87.4711908773
 30
0.0
 11
89.5517736429
 21
100.5711909756
 31
0.0
  0
LINE
  5
162
330
1F
100
AcDbEntity
  8
0
  6
Continuous
 62
     7
370
    25
100
AcDbLine
 10
89.9328252056
 20
100.7711924985
 30
0.0
 11
89.5517736429
 21
100.5711909756
 31
0.0
  0
LINE
  5
163
330
1F
100
AcDbEntity
  8
0
  6
Continuous
 62
     7
370
    25
100
AcDbLine
 10
89.5517736429
 20
100.5711909756
 30
0.0
 11
89.5581755543
 21
100.7711924985
 31
0.0
  0
LINE
  5
164
330
1F
100
AcDbEntity
  8
0
  6
Continuous
 62
     7
370
    25
100
AcDbLine
 10
89.5581755543
 20
100.7711924985
 30
0.0
 11
89.9328252056
 21
100.7711924985
 31
0.0
  0
LINE
  5
165
330
1F
100
AcDbEntity
  8
0
  6
Continuous
 62
     7
370
    25
100
AcDbLine
 10
105.9955924505
 20
87.4711908773
 30
0.0
 11
105.9955924505
 21
100.5711909756
 31
0.0
  0
LINE
  5
166
330
1F
100
AcDbEntity
  8
0
  6
Continuous
 62
     7
370
    25
100
AcDbLine
 10
105.6145408878
 20
87.271191217
 30
0.0
 11
105.9955924505
 21
87.4711908773
 31
0.0
  0
LINE
  5
167
330
1F
100
AcDbEntity
  8
0
  6
Continuous
 62
     7
370
    25
100
AcDbLine
 10
105.9955924505
 20
100.5711909756
 30
0.0
 11
105.6145408878
 21
100.7711924985
 31
0.0
  0
LINE
  5
168
330
1F
100
AcDbEntity
  8
0
  6
Continuous
 62
     7
370
    25
100
AcDbLine
 10
105.9955924505
 20
87.4711908773
 30
0.0
 11
105.9891905391
 21
87.271191217
 31
0.0
  0
LINE
  5
169
330
1F
100
AcDbEntity
  8
0
  6
Continuous
 62
     7
370
    25
100
AcDbLine
 10
105.9891905391
 20
87.271191217
 30
0.0
 11
105.6145408878
 21
87.271191217
 31
0.0
  0
LINE
  5
16A
330
1F
100
AcDbEntity
  8
0
  6
Continuous
 62
     7
370
    25
100
AcDbLine
 10
105.9891905391
 20
100.7711924985
 30
0.0
 11
105.9955924505
 21
100.5711909756
 31
0.0
  0
LINE
  5
16B
330
1F
100
AcDbEntity
  8
0
  6
Continuous
 62
     7
370
    25
100
AcDbLine
 10
105.6145408878
 20
100.7711924985
 30
0.0
 11
105.9891905391
 21
100.7711924985
 31
0.0
  0
LINE
  5
16C
330
1F
100
AcDbEntity
  8
0
  6
Continuous
 62
     7
370
    25
100
AcDbLine
 10
89.2141747975
 20
87.4711908773
 30
0.0
 11
89.5581755543
 21
87.271191217
 31
0.0
  0
LINE
  5
16D
330
1F
100
AcDbEntity
  8
0
  6
Continuous
 62
     7
370
    25
100
AcDbLine
 10
89.2735354358
 20
87.271191217
 30
0.0
 11
89.2141747975
 21
87.4711908773
 31
0.0
  0
LINE
  5
16E
330
1F
100
AcDbEntity
  8
0
  6
Continuous
 62
     7
370
    25
100
AcDbLine
 10
89.5581755543
 20
87.271191217
 30
0.0
 11
89.2735354358
 21
87.271191217
 31
0.0
  0
LINE
  5
16F
330
1F
100
AcDbEntity
  8
0
  6
Continuous
 62
     7
370
    25
100
AcDbLine
 10
89.2141747975
 20
87.4711908773
 30
0.0
 11
89.2141747975
 21
100.5711909756
 31
0.0
  0
LINE
  5
170
330
1F
100
AcDbEntity
  8
0
  6
Continuous
 62
     7
370
    25
100
AcDbLine
 10
89.5581755543
 20
100.7711924985
 30
0.0
 11
89.2141747975
 21
100.5711909756
 31
0.0
  0
LINE
  5
171
330
1F
100
AcDbEntity
  8
0
  6
Continuous
 62
     7
370
    25
100
AcDbLine
 10
89.2141747975
 20
100.5711909756
 30
0.0
 11
89.2735354358
 21
100.7711924985
 31
0.0
  0
LINE
  5
172
330
1F
100
AcDbEntity
  8
0
  6
Continuous
 62
     7
370
    25
100
AcDbLine
 10
89.2735354358
 20
100.7711924985
 30
0.0
 11
89.5581755543
 21
100.7711924985
 31
0.0
  0
LINE
  5
173
330
1F
100
AcDbEntity
  8
0
  6
Continuous
 62
     7
370
    25
100
AcDbLine
 10
106.3331912958
 20
87.4711908773
 30
0.0
 11
106.2738306576
 21
87.271191217
 31
0.0
  0
LINE
  5
174
330
1F
100
AcDbEntity
  8
0
  6
Continuous
 62
     7
370
    25
100
AcDbLine
 10
105.9891905391
 20
87.271191217
 30
0.0
 11
106.3331912958
 21
87.4711908773
 31
0.0
  0
LINE
  5
175
330
1F
100
AcDbEntity
  8
0
  6
Continuous
 62
     7
370
    25
100
AcDbLine
 10
106.2738306576
 20
87.271191217
 30
0.0
 11
105.9891905391
 21
87.271191217
 31
0.0
  0
LINE
  5
176
330
1F
100
AcDbEntity
  8
0
  6
Continuous
 62
     7
370
    25
100
AcDbLine
 10
106.3331912958
 20
87.4711908773
 30
0.0
 11
106.3331912958
 21
100.5711909756
 31
0.0
  0
LINE
  5
177
330
1F
100
AcDbEntity
  8
0
  6
Continuous
 62
     7
370
    25
100
AcDbLine
 10
106.3331912958
 20
100.5711909756
 30
0.0
 11
105.9891905391
 21
100.7711924985
 31
0.0
  0
LINE
  5
178
330
1F
100
AcDbEntity
  8
0
  6
Continuous
 62
     7
370
    25
100
AcDbLine
 10
106.2738306576
 20
100.7711924985
 30
0.0
 11
106.3331912958
 21
100.5711909756
 31
0.0
  0
LINE
  5
179
330
1F
100
AcDbEntity
  8
0
  6
Continuous
 62
     7
370
    25
100
AcDbLine
 10
105.9891905391
 20
100.7711924985
 30
0.0
 11
106.2738306576
 21
100.7711924985
 31
0.0
  0
LINE
  5
17A
330
1F
100
AcDbEntity
  8
0
  6
Continuous
 62
     7
370
    25
100
AcDbLine
 10
88.9703545475
 20
87.4711908773
 30
0.0
 11
89.2735354358
 21
87.271191217
 31
0.0
  0
LINE
  5
17B
330
1F
100
AcDbEntity
  8
0
  6
Continuous
 62
     7
370
    25
100
AcDbLine
 10
89.0820257121
 20
87.271191217
 30
0.0
 11
88.9703545475
 21
87.4711908773
 31
0.0
  0
LINE
  5
17C
330
1F
100
AcDbEntity
  8
0
  6
Continuous
 62
     7
370
    25
100
AcDbLine
 10
89.2735354358
 20
87.271191217
 30
0.0
 11
89.0820257121
 21
87.271191217
 31
0.0
  0
LINE
  5
17D
330
1F
100
AcDbEntity
  8
0
  6
Continuous
 62
     7
370
    25
100
AcDbLine
 10
88.9703545475
 20
87.4711908773
 30
0.0
 11
88.9703545475
 21
100.5711909756
 31
0.0
  0
LINE
  5
17E
330
1F
100
AcDbEntity
  8
0
  6
Continuous
 62
     7
370
    25
100
AcDbLine
 10
89.2735354358
 20
100.7711924985
 30
0.0
 11
88.9703545475
 21
100.5711909756
 31
0.0
  0
LINE
  5
17F
330
1F
100
AcDbEntity
  8
0
  6
Continuous
 62
     7
370
    25
100
AcDbLine
 10
88.9703545475
 20
100.5711909756
 30
0.0
 11
89.0820257121
 21
100.7711924985
 31
0.0
  0
LINE
  5
180
330
1F
100
AcDbEntity
  8
0
  6
Continuous
 62
     7
370
    25
100
AcDbLine
 10
89.0820257121
 20
100.7711924985
 30
0.0
 11
89.2735354358
 21
100.7711924985
 31
0.0
  0
LINE
  5
181
330
1F
100
AcDbEntity
  8
0
  6
Continuous
 62
     7
370
    25
100
AcDbLine
 10
106.5770115459
 20
87.4711908773
 30
0.0
 11
106.4653403812
 21
87.271191217
 31
0.0
  0
LINE
  5
182
330
1F
100
AcDbEntity
  8
0
  6
Continuous
 62
     7
370
    25
100
AcDbLine
 10
106.2738306576
 20
87.271191217
 30
0.0
 11
106.5770115459
 21
87.4711908773
 31
0.0
  0
LINE
  5
183
330
1F
100
AcDbEntity
  8
0
  6
Continuous
 62
     7
370
    25
100
AcDbLine
 10
106.4653403812
 20
87.271191217
 30
0.0
 11
106.2738306576
 21
87.271191217
 31
0.0
  0
LINE
  5
184
330
1F
100
AcDbEntity
  8
0
  6
Continuous
 62
     7
370
    25
100
AcDbLine
 10
106.5770115459
 20
87.4711908773
 30
0.0
 11
106.5770115459
 21
100.5711909756
 31
0.0
  0
LINE
  5
185
330
1F
100
AcDbEntity
  8
0
  6
Continuous
 62
     7
370
    25
100
AcDbLine
 10
106.5770115459
 20
100.5711909756
 30
0.0
 11
106.2738306576
 21
100.7711924985
 31
0.0
  0
LINE
  5
186
330
1F
100
AcDbEntity
  8
0
  6
Continuous
 62
     7
370
    25
100
AcDbLine
 10
106.4653403812
 20
100.7711924985
 30
0.0
 11
106.5770115459
 21
100.5711909756
 31
0.0
  0
LINE
  5
187
330
1F
100
AcDbEntity
  8
0
  6
Continuous
 62
     7
370
    25
100
AcDbLine
 10
106.2738306576
 20
100.7711924985
 30
0.0
 11
106.4653403812
 21
100.7711924985
 31
0.0
  0
LINE
  5
188
330
1F
100
AcDbEntity
  8
0
  6
Continuous
 62
     7
370
    25
100
AcDbLine
 10
88.8229857886
 20
87.4711908773
 30
0.0
 11
89.0820257121
 21
87.271191217
 31
0.0
  0
LINE
  5
189
330
1F
100
AcDbEntity
  8
0
  6
Continuous
 62
     7
370
    25
100
AcDbLine
 10
88.8229857886
 20
87.4711908773
 30
0.0
 11
88.8229857886
 21
100.5711909756
 31
0.0
  0
LINE
  5
18A
330
1F
100
AcDbEntity
  8
0
  6
Continuous
 62
     7
370
    25
100
AcDbLine
 10
89.0820257121
 20
100.7711924985
 30
0.0
 11
88.8229857886
 21
100.5711909756
 31
0.0
  0
LINE
  5
18B
330
1F
100
AcDbEntity
  8
0
  6
Continuous
 62
     7
370
    25
100
AcDbLine
 10
88.9857427904
 20
87.271191217
 30
0.0
 11
88.8229857886
 21
87.4711908773
 31
0.0
  0
LINE
  5
18C
330
1F
100
AcDbEntity
  8
0
  6
Continuous
 62
     7
370
    25
100
AcDbLine
 10
89.0820257121
 20
87.271191217
 30
0.0
 11
88.9857427904
 21
87.271191217
 31
0.0
  0
LINE
  5
18D
330
1F
100
AcDbEntity
  8
0
  6
Continuous
 62
     7
370
    25
100
AcDbLine
 10
88.8229857886
 20
100.5711909756
 30
0.0
 11
88.9857427904
 21
100.7711924985
 31
0.0
  0
LINE
  5
18E
330
1F
100
AcDbEntity
  8
0
  6
Continuous
 62
     7
370
    25
100
AcDbLine
 10
88.9857427904
 20
100.7711924985
 30
0.0
 11
89.0820257121
 21
100.7711924985
 31
0.0
  0
LINE
  5
18F
330
1F
100
AcDbEntity
  8
0
  6
Continuous
 62
     7
370
    25
100
AcDbLine
 10
106.7243803048
 20
87.4711908773
 30
0.0
 11
106.7243803048
 21
100.5711909756
 31
0.0
  0
LINE
  5
190
330
1F
100
AcDbEntity
  8
0
  6
Continuous
 62
     7
370
    25
100
AcDbLine
 10
106.4653403812
 20
87.271191217
 30
0.0
 11
106.7243803048
 21
87.4711908773
 31
0.0
  0
LINE
  5
191
330
1F
100
AcDbEntity
  8
0
  6
Continuous
 62
     7
370
    25
100
AcDbLine
 10
106.7243803048
 20
100.5711909756
 30
0.0
 11
106.4653403812
 21
100.7711924985
 31
0.0
  0
LINE
  5
192
330
1F
100
AcDbEntity
  8
0
  6
Continuous
 62
     7
370
    25
100
AcDbLine
 10
106.7243803048
 20
87.4711908773
 30
0.0
 11
106.561623303
 21
87.271191217
 31
0.0
  0
LINE
  5
193
330
1F
100
AcDbEntity
  8
0
  6
Continuous
 62
     7
370
    25
100
AcDbLine
 10
106.561623303
 20
87.271191217
 30
0.0
 11
106.4653403812
 21
87.271191217
 31
0.0
  0
LINE
  5
194
330
1F
100
AcDbEntity
  8
0
  6
Continuous
 62
     7
370
    25
100
AcDbLine
 10
106.561623303
 20
100.7711924985
 30
0.0
 11
106.7243803048
 21
100.5711909756
 31
0.0
  0
LINE
  5
195
330
1F
100
AcDbEntity
  8
0
  6
Continuous
 62
     7
370
    25
100
AcDbLine
 10
106.4653403812
 20
100.7711924985
 30
0.0
 11
106.561623303
 21
100.7711924985
 31
0.0
  0
LINE
  5
196
330
1F
100
AcDbEntity
  8
0
  6
Continuous
 62
     7
370
    25
100
AcDbLine
 10
88.7736834341
 20
87.4711908773
 30
0.0
 11
88.9857427904
 21
87.271191217
 31
0.0
  0
LINE
  5
197
330
1F
100
AcDbEntity
  8
0
  6
Continuous
 62
     7
370
    25
100
AcDbLine
 10
88.7736834341
 20
87.4711908773
 30
0.0
 11
88.7736834341
 21
100.5711909756
 31
0.0
  0
LINE
  5
198
330
1F
100
AcDbEntity
  8
0
  6
Continuous
 62
     7
370
    25
100
AcDbLine
 10
88.9857427904
 20
100.7711924985
 30
0.0
 11
88.7736834341
 21
100.5711909756
 31
0.0
  0
LINE
  5
199
330
1F
100
AcDbEntity
  8
0
  6
Continuous
 62
     7
370
    25
100
AcDbLine
 10
88.9736830944
 20
100.7711924985
 30
0.0
 11
88.9857427904
 21
100.7711924985
 31
0.0
  0
LINE
  5
19A
330
1F
100
AcDbEntity
  8
0
  6
Continuous
 62
     7
370
    25
100
AcDbLine
 10
88.9857427904
 20
87.271191217
 30
0.0
 11
88.9736830944
 21
87.271191217
 31
0.0
  0
LINE
  5
19B
330
1F
100
AcDbEntity
  8
0
  6
Continuous
 62
     7
370
    25
100
AcDbLine
 10
106.561623303
 20
87.271191217
 30
0.0
 11
106.7736826593
 21
87.4711908773
 31
0.0
  0
LINE
  5
19C
330
1F
100
AcDbEntity
  8
0
  6
Continuous
 62
     7
370
    25
100
AcDbLine
 10
106.573682999
 20
87.271191217
 30
0.0
 11
106.561623303
 21
87.271191217
 31
0.0
  0
LINE
  5
19D
330
1F
100
AcDbEntity
  8
0
  6
Continuous
 62
     7
370
    25
100
AcDbLine
 10
106.7736826593
 20
87.4711908773
 30
0.0
 11
106.7736826593
 21
100.5711909756
 31
0.0
  0
LINE
  5
19E
330
1F
100
AcDbEntity
  8
0
  6
Continuous
 62
     7
370
    25
100
AcDbLine
 10
106.7736826593
 20
100.5711909756
 30
0.0
 11
106.561623303
 21
100.7711924985
 31
0.0
  0
LINE
  5
19F
330
1F
100
AcDbEntity
  8
0
  6
Continuous
 62
     7
370
    25
100
AcDbLine
 10
106.561623303
 20
100.7711924985
 30
0.0
 11
106.573682999
 21
100.7711924985
 31
0.0
  0
LINE
  5
1A0
330
1F
100
AcDbEntity
  8
0
  6
Continuous
 62
     7
370
    25
100
AcDbLine
 10
84.7736827785
 20
70.5711916462
 30
0.0
 11
84.7736827785
 21
78.5711920262
 31
0.0
  0
LINE
  5
1A1
330
1F
100
AcDbEntity
  8
0
  6
Continuous
 62
     7
370
    25
100
AcDbLine
 10
84.7736827785
 20
62.5711912662
 30
0.0
 11
84.7736827785
 21
70.5711916462
 31
0.0
  0
LINE
  5
1A2
330
1F
100
AcDbEntity
  8
0
  6
Continuous
 62
     7
370
    25
100
AcDbLine
 10
80.8736838156
 20
77.1711916104
 30
0.0
 11
80.8736838156
 21
63.971191682
 31
0.0
  0
LINE
  5
1A3
330
1F
100
AcDbEntity
  8
0
  6
Continuous
 62
     7
370
    25
100
AcDbLine
 10
79.7236829752
 20
76.0211917013
 30
0.0
 11
79.7236829752
 21
65.1211915911
 31
0.0
  0
LINE
  5
1A4
330
1F
100
AcDbEntity
  8
0
  6
Continuous
 62
     7
370
    25
100
AcDbLine
 10
77.9236823076
 20
76.0211917013
 30
0.0
 11
77.9236823076
 21
65.1211915911
 31
0.0
  0
LINE
  5
1A5
330
1F
100
AcDbEntity
  8
0
  6
Continuous
 62
     7
370
    25
100
AcDbLine
 10
76.7736833298
 20
77.1711916104
 30
0.0
 11
76.7736833298
 21
63.971191682
 31
0.0
  0
LINE
  5
1A6
330
1F
100
AcDbEntity
  8
0
  6
Continuous
 62
     7
370
    25
100
AcDbLine
 10
74.5383061224
 20
77.1711916104
 30
0.0
 11
74.5383061224
 21
63.971191682
 31
0.0
  0
LINE
  5
1A7
330
1F
100
AcDbEntity
  8
0
  6
Continuous
 62
     7
370
    25
100
AcDbLine
 10
69.7736821824
 20
76.0711916164
 30
0.0
 11
69.7736821824
 21
65.071191676
 31
0.0
  0
LINE
  5
1A8
330
1F
100
AcDbEntity
  8
0
  6
Continuous
 62
     7
370
    25
100
AcDbLine
 10
64.7736832255
 20
70.5711916462
 30
0.0
 11
64.7736832255
 21
75.7711916603
 31
0.0
  0
LINE
  5
1A9
330
1F
100
AcDbEntity
  8
0
  6
Continuous
 62
     7
370
    25
100
AcDbLine
 10
64.7736832255
 20
65.371191632
 30
0.0
 11
64.7736832255
 21
70.5711916462
 31
0.0
  0
LINE
  5
1AA
330
1F
100
AcDbEntity
  8
0
  6
Continuous
 62
     7
370
    25
100
AcDbLine
 10
89.8917166272
 20
70.5711916462
 30
0.0
 11
89.8917166272
 21
60.5711918697
 31
0.0
  0
LINE
  5
1AB
330
1F
100
AcDbEntity
  8
0
  6
Continuous
 62
     7
370
    25
100
AcDbLine
 10
89.8917166272
 20
80.5711914227
 30
0.0
 11
89.8917166272
 21
70.5711916462
 31
0.0
  0
LINE
  5
1AC
330
1F
100
AcDbEntity
  8
0
  6
Continuous
 62
     7
370
    25
100
AcDbLine
 10
88.0236828455
 20
70.5711916462
 30
0.0
 11
88.0236828455
 21
60.5711918697
 31
0.0
  0
LINE
  5
1AD
330
1F
100
AcDbEntity
  8
0
  6
Continuous
 62
     7
370
    25
100
AcDbLine
 10
88.0236828455
 20
80.5711914227
 30
0.0
 11
88.0236828455
 21
70.5711916462
 31
0.0
  0
LINE
  5
1AE
330
1F
100
AcDbEntity
  8
0
  6
Continuous
 62
     7
370
    25
100
AcDbLine
 10
87.7736832702
 20
70.5711916462
 30
0.0
 11
87.7736832702
 21
80.3211918474
 31
0.0
  0
LINE
  5
1AF
330
1F
100
AcDbEntity
  8
0
  6
Continuous
 62
     7
370
    25
100
AcDbLine
 10
87.7736832702
 20
60.821191445
 30
0.0
 11
87.7736832702
 21
70.5711916462
 31
0.0
  0
LINE
  5
1B0
330
1F
100
AcDbEntity
  8
0
  6
Continuous
 62
     7
370
    25
100
AcDbLine
 10
90.2736832143
 20
79.5711912588
 30
0.0
 11
90.2736832143
 21
76.0711916164
 31
0.0
  0
SPLINE
  5
1B1
330
1F
100
AcDbEntity
  8
0
  6
Continuous
 62
     7
370
    25
100
AcDbSpline
210
0.0
220
0.0
230
1.0
 70
     8
 71
     3
 72
     8
 73
     4
 74
     0
 42
0.000000001
 43
0.00000001
 40
0.0
 40
0.0
 40
0.0
 40
0.0
 40
1.0
 40
1.0
 40
1.0
 40
1.0
 10
90.17648192202913
 20
75.97088149768756
 30
0.0
 10
90.24431833960519
 20
76.00224443869834
 30
0.0
 10
90.27368304668303
 20
76.0357125993479
 30
0.0
 10
90.27368304668303
 20
76.07119164619166
 30
0.0
  0
SPLINE
  5
1B2
330
1F
100
AcDbEntity
  8
0
  6
Continuous
 62
     7
370
    25
100
AcDbSpline
210
0.0
220
0.0
230
1.0
 70
     8
 71
     3
 72
    12
 73
     8
 74
     0
 42
0.000000001
 43
0.00000001
 40
0.0
 40
0.0
 40
0.0
 40
0.0
 40
0.4999999999999992
 40
0.4999999999999992
 40
0.7499999999999996
 40
0.7499999999999996
 40
1.0
 40
1.0
 40
1.0
 40
1.0
 10
90.17648192202913
 20
75.97088149768756
 30
0.0
 10
90.10861216201931
 20
75.93950314140547
 30
0.0
 10
90.03257761076559
 20
75.80579462090692
 30
0.0
 10
89.98593301238859
 20
75.52776851124113
 30
0.0
 10
89.98149401586593
 20
75.42092232723716
 30
0.0
 10
89.99722462965877
 20
75.19404085318143
 30
0.0
 10
90.01710505960115
 20
75.07387188087682
 30
0.0
 10
90.044596979581
 20
74.95242223606657
 30
0.0
  0
SPLINE
  5
1B3
330
1F
100
AcDbEntity
  8
0
  6
Continuous
 62
     7
370
    25
100
AcDbSpline
210
0.0
220
0.0
230
1.0
 70
     8
 71
     3
 72
    12
 73
     8
 74
     0
 42
0.000000001
 43
0.00000001
 40
0.0
 40
0.0
 40
0.0
 40
0.0
 40
0.4999999999999998
 40
0.4999999999999998
 40
0.7499999999999999
 40
0.7499999999999999
 40
1.0
 40
1.0
 40
1.0
 40
1.0
 10
90.27368304668303
 20
70.57119164619165
 30
0.0
 10
90.27368304668303
 20
71.30514866834886
 30
0.0
 10
90.27824044168227
 20
72.03812711271168
 30
0.0
 10
90.25105677730299
 20
73.1349512256581
 30
0.0
 10
90.2356071063858
 20
73.50009881422852
 30
0.0
 10
90.17274350485397
 20
74.22888682809257
 30
0.0
 10
90.12571358168564
 20
74.59407758349089
 30
0.0
 10
90.044596979581
 20
74.95242223606657
 30
0.0
  0
SPLINE
  5
1B4
330
1F
100
AcDbEntity
  8
0
  6
Continuous
 62
     7
370
    25
100
AcDbSpline
210
0.0
220
0.0
230
1.0
 70
     8
 71
     3
 72
    12
 73
     8
 74
     0
 42
0.000000001
 43
0.00000001
 40
0.0
 40
0.0
 40
0.0
 40
0.0
 40
0.2500000000000001
 40
0.2500000000000001
 40
0.5000000000000002
 40
0.5000000000000002
 40
1.0
 40
1.0
 40
1.0
 40
1.0
 10
90.044596979581
 20
66.18996105631676
 30
0.0
 10
90.12571358168564
 20
66.54830570889243
 30
0.0
 10
90.17274350485397
 20
66.91349646429076
 30
0.0
 10
90.2356071063858
 20
67.6422844781548
 30
0.0
 10
90.25105677730299
 20
68.00743206672524
 30
0.0
 10
90.27824044168227
 20
69.10425617967164
 30
0.0
 10
90.27368304668303
 20
69.83723462403445
 30
0.0
 10
90.27368304668303
 20
70.57119164619166
 30
0.0
  0
SPLINE
  5
1B5
330
1F
100
AcDbEntity
  8
0
  6
Continuous
 62
     7
370
    25
100
AcDbSpline
210
0.0
220
0.0
230
1.0
 70
     8
 71
     3
 72
    14
 73
    10
 74
     0
 42
0.000000001
 43
0.00000001
 40
0.0
 40
0.0
 40
0.0
 40
0.0
 40
0.25
 40
0.25
 40
0.5
 40
0.5
 40
0.75
 40
0.75
 40
1.0
 40
1.0
 40
1.0
 40
1.0
 10
90.044596979581
 20
66.18996105631676
 30
0.0
 10
90.01707599183592
 20
66.06838300033105
 30
0.0
 10
89.99715606999952
 20
65.94785826330592
 30
0.0
 10
89.98148902818146
 20
65.72088200419782
 30
0.0
 10
89.98598085999377
 20
65.61391202663164
 30
0.0
 10
90.01723720527735
 20
65.42844647485191
 30
0.0
 10
90.04360978865913
 20
65.34956121373307
 30
0.0
 10
90.10644633980341
 20
65.22892342255999
 30
0.0
 10
90.14248591866351
 20
65.18721923211737
 30
0.0
 10
90.17648192202913
 20
65.17150179469577
 30
0.0
  0
SPLINE
  5
1B6
330
1F
100
AcDbEntity
  8
0
  6
Continuous
 62
     7
370
    25
100
AcDbSpline
210
0.0
220
0.0
230
1.0
 70
     8
 71
     3
 72
     8
 73
     4
 74
     0
 42
0.000000001
 43
0.00000001
 40
0.0
 40
0.0
 40
0.0
 40
0.0
 40
1.0
 40
1.0
 40
1.0
 40
1.0
 10
90.27368304668303
 20
65.07119164619165
 30
0.0
 10
90.27368304668303
 20
65.10667069303544
 30
0.0
 10
90.24431833960519
 20
65.14013885368499
 30
0.0
 10
90.17648192202913
 20
65.17150179469577
 30
0.0
  0
LINE
  5
1B7
330
1F
100
AcDbEntity
  8
0
  6
Continuous
 62
     7
370
    25
100
AcDbLine
 10
90.2736832143
 20
65.071191676
 30
0.0
 11
90.2736832143
 21
61.5711920336
 31
0.0
  0
LINE
  5
1B8
330
1F
100
AcDbEntity
  8
0
  6
Continuous
 62
     7
370
    25
100
AcDbLine
 10
107.2736827412
 20
60.5711918697
 30
0.0
 11
107.2736827412
 21
80.5711914227
 31
0.0
  0
LINE
  5
1B9
330
1F
100
AcDbEntity
  8
0
  6
Continuous
 62
     7
370
    25
100
AcDbLine
 10
107.7736828232
 20
80.0711913407
 30
0.0
 11
107.7736828232
 21
61.0711919517
 31
0.0
  0
LINE
  5
1BA
330
1F
100
AcDbEntity
  8
0
  6
Continuous
 62
     7
370
    25
100
AcDbLine
 10
105.6556494662
 20
60.5711918697
 30
0.0
 11
105.6556494662
 21
80.5711914227
 31
0.0
  0
SPLINE
  5
1BB
330
1F
100
AcDbEntity
  8
0
  6
Continuous
 62
     7
370
    25
100
AcDbSpline
210
0.0
220
0.0
230
1.0
 70
     8
 71
     3
 72
     8
 73
     4
 74
     0
 42
0.000000001
 43
0.00000001
 40
0.0
 40
0.0
 40
0.0
 40
0.0
 40
1.0
 40
1.0
 40
1.0
 40
1.0
 10
105.370884171337
 20
65.17150179469577
 30
0.0
 10
105.3030477537609
 20
65.14013885368499
 30
0.0
 10
105.273683046683
 20
65.10667069303544
 30
0.0
 10
105.273683046683
 20
65.07119164619165
 30
0.0
  0
SPLINE
  5
1BC
330
1F
100
AcDbEntity
  8
0
  6
Continuous
 62
     7
370
    25
100
AcDbSpline
210
0.0
220
0.0
230
1.0
 70
     8
 71
     3
 72
    12
 73
     8
 74
     0
 42
0.000000001
 43
0.00000001
 40
0.0
 40
0.0
 40
0.0
 40
0.0
 40
0.5000000000000001
 40
0.5000000000000001
 40
0.75
 40
0.75
 40
1.0
 40
1.0
 40
1.0
 40
1.0
 10
105.370884171337
 20
65.17150179469577
 30
0.0
 10
105.4387539313468
 20
65.20288015097786
 30
0.0
 10
105.5147884826005
 20
65.33658867147642
 30
0.0
 10
105.5614330809775
 20
65.6146147811422
 30
0.0
 10
105.5658720775001
 20
65.72146096514615
 30
0.0
 10
105.5501414637073
 20
65.94834243920191
 30
0.0
 10
105.5302610337649
 20
66.06851141150652
 30
0.0
 10
105.5027691137851
 20
66.18996105631676
 30
0.0
  0
SPLINE
  5
1BD
330
1F
100
AcDbEntity
  8
0
  6
Continuous
 62
     7
370
    25
100
AcDbSpline
210
0.0
220
0.0
230
1.0
 70
     8
 71
     3
 72
    12
 73
     8
 74
     0
 42
0.000000001
 43
0.00000001
 40
0.0
 40
0.0
 40
0.0
 40
0.0
 40
0.5
 40
0.5
 40
0.75
 40
0.75
 40
1.0
 40
1.0
 40
1.0
 40
1.0
 10
105.273683046683
 20
70.57119164619168
 30
0.0
 10
105.273683046683
 20
69.83723462403445
 30
0.0
 10
105.2691256516838
 20
69.10425617967165
 30
0.0
 10
105.2963093160631
 20
68.00743206672524
 30
0.0
 10
105.3117589869803
 20
67.6422844781548
 30
0.0
 10
105.3746225885121
 20
66.91349646429076
 30
0.0
 10
105.4216525116804
 20
66.54830570889243
 30
0.0
 10
105.5027691137851
 20
66.18996105631676
 30
0.0
  0
SPLINE
  5
1BE
330
1F
100
AcDbEntity
  8
0
  6
Continuous
 62
     7
370
    25
100
AcDbSpline
210
0.0
220
0.0
230
1.0
 70
     8
 71
     3
 72
    12
 73
     8
 74
     0
 42
0.000000001
 43
0.00000001
 40
0.0
 40
0.0
 40
0.0
 40
0.0
 40
0.25
 40
0.25
 40
0.5
 40
0.5
 40
1.0
 40
1.0
 40
1.0
 40
1.0
 10
105.5027691137851
 20
74.95242223606657
 30
0.0
 10
105.4216525116804
 20
74.59407758349089
 30
0.0
 10
105.3746225885121
 20
74.22888682809257
 30
0.0
 10
105.3117589869803
 20
73.50009881422854
 30
0.0
 10
105.2963093160631
 20
73.1349512256581
 30
0.0
 10
105.2691256516838
 20
72.03812711271168
 30
0.0
 10
105.273683046683
 20
71.30514866834888
 30
0.0
 10
105.273683046683
 20
70.57119164619166
 30
0.0
  0
SPLINE
  5
1BF
330
1F
100
AcDbEntity
  8
0
  6
Continuous
 62
     7
370
    25
100
AcDbSpline
210
0.0
220
0.0
230
1.0
 70
     8
 71
     3
 72
    14
 73
    10
 74
     0
 42
0.000000001
 43
0.00000001
 40
0.0
 40
0.0
 40
0.0
 40
0.0
 40
0.25
 40
0.25
 40
0.5
 40
0.5
 40
0.75
 40
0.75
 40
1.0
 40
1.0
 40
1.0
 40
1.0
 10
105.5027691137851
 20
74.95242223606657
 30
0.0
 10
105.5302901015302
 20
75.07400029205229
 30
0.0
 10
105.5502100233666
 20
75.19452502907741
 30
0.0
 10
105.5658770651846
 20
75.42150128818552
 30
0.0
 10
105.5613852333723
 20
75.52847126575169
 30
0.0
 10
105.5301288880887
 20
75.71393681753142
 30
0.0
 10
105.503756304707
 20
75.79282207865025
 30
0.0
 10
105.4409197535627
 20
75.91345986982334
 30
0.0
 10
105.4048801747026
 20
75.95516406026596
 30
0.0
 10
105.370884171337
 20
75.97088149768756
 30
0.0
  0
SPLINE
  5
1C0
330
1F
100
AcDbEntity
  8
0
  6
Continuous
 62
     7
370
    25
100
AcDbSpline
210
0.0
220
0.0
230
1.0
 70
     8
 71
     3
 72
     8
 73
     4
 74
     0
 42
0.000000001
 43
0.00000001
 40
0.0
 40
0.0
 40
0.0
 40
0.0
 40
1.0
 40
1.0
 40
1.0
 40
1.0
 10
105.273683046683
 20
76.07119164619166
 30
0.0
 10
105.273683046683
 20
76.0357125993479
 30
0.0
 10
105.3030477537609
 20
76.00224443869834
 30
0.0
 10
105.370884171337
 20
75.97088149768756
 30
0.0
  0
LINE
  5
1C1
330
1F
100
AcDbEntity
  8
0
  6
Continuous
 62
     7
370
    25
100
AcDbLine
 10
105.273682879
 20
76.0711916164
 30
0.0
 11
105.273682879
 21
79.5711912588
 31
0.0
  0
LINE
  5
1C2
330
1F
100
AcDbEntity
  8
0
  6
Continuous
 62
     7
370
    25
100
AcDbLine
 10
105.273682879
 20
61.5711920336
 30
0.0
 11
105.273682879
 21
65.071191676
 31
0.0
  0
SPLINE
  5
1C3
330
1F
100
AcDbEntity
  8
0
  6
Continuous
 62
     7
370
    25
100
AcDbSpline
210
0.0
220
0.0
230
1.0
 70
     8
 71
     3
 72
    14
 73
    10
 74
     0
 42
0.000000001
 43
0.00000001
 40
0.0
 40
0.0
 40
0.0
 40
0.0
 40
0.2500000000000001
 40
0.2500000000000001
 40
0.5000000000000001
 40
0.5000000000000001
 40
0.7500000000000001
 40
0.7500000000000001
 40
1.0
 40
1.0
 40
1.0
 40
1.0
 10
90.77368304668305
 20
70.57119164619166
 30
0.0
 10
90.77368304668305
 20
70.1946749341047
 30
0.0
 10
90.77409230840269
 20
69.81813887647573
 30
0.0
 10
90.77078096029679
 20
69.06526197762713
 30
0.0
 10
90.76701747483214
 20
68.68892316311178
 30
0.0
 10
90.74124421905243
 20
67.93710802439665
 30
0.0
 10
90.71932612437392
 20
67.56162736674764
 30
0.0
 10
90.63410846118865
 20
66.81262212747897
 30
0.0
 10
90.57079547503776
 20
66.43701421203751
 30
0.0
 10
90.46823495721365
 20
66.07119164619165
 30
0.0
  0
LWPOLYLINE
  5
1C4
330
1F
100
AcDbEntity
  8
0
  6
Continuous
 62
     7
370
    25
100
AcDbPolyline
 90
        9
 70
   128
 43
0.0
 10
90.4682351032
 20
66.0711918399
 10
90.4036921204
 20
66.0892865062
 10
90.3403142223
 20
66.1070552096
 10
90.2792460041
 20
66.1241757125
 10
90.2215896861
 20
66.1403402128
 10
90.1683869527
 20
66.1552558095
 10
90.1205975318
 20
66.168653816
 10
90.0790842937
 20
66.1802925542
 10
90.0445969531
 20
66.1899610795
  0
LINE
  5
1C5
330
1F
100
AcDbEntity
  8
0
  6
Continuous
 62
     7
370
    25
100
AcDbLine
 10
90.7736828306
 20
70.5711916462
 30
0.0
 11
90.2736832143
 21
70.5711916462
 31
0.0
  0
LWPOLYLINE
  5
1C6
330
1F
100
AcDbEntity
  8
0
  6
Continuous
 62
     7
370
    25
100
AcDbPolyline
 90
        9
 70
   128
 43
0.0
 10
105.5027691403
 20
66.1899610795
 10
105.4682817997
 20
66.1802925542
 10
105.4267685616
 20
66.168653816
 10
105.3789791407
 20
66.1552558095
 10
105.3257764073
 20
66.1403402128
 10
105.2681200893
 20
66.1241757125
 10
105.2070518711
 20
66.1070552096
 10
105.1436739729
 20
66.0892865062
 10
105.0791309902
 20
66.0711918399
  0
SPLINE
  5
1C7
330
1F
100
AcDbEntity
  8
0
  6
Continuous
 62
     7
370
    25
100
AcDbSpline
210
0.0
220
0.0
230
1.0
 70
     8
 71
     3
 72
    14
 73
    10
 74
     0
 42
0.000000001
 43
0.00000001
 40
0.0
 40
0.0
 40
0.0
 40
0.0
 40
0.2500000000000002
 40
0.2500000000000002
 40
0.5000000000000003
 40
0.5000000000000003
 40
0.7500000000000002
 40
0.7500000000000002
 40
1.0
 40
1.0
 40
1.0
 40
1.0
 10
105.0791311361524
 20
66.07119164619165
 30
0.0
 10
104.9765706183283
 20
66.43701421203751
 30
0.0
 10
104.9132576321774
 20
66.81262212747897
 30
0.0
 10
104.8280399689922
 20
67.56162736674766
 30
0.0
 10
104.8061218743136
 20
67.93710802439666
 30
0.0
 10
104.7803486185339
 20
68.6889231631118
 30
0.0
 10
104.7765851330693
 20
69.06526197762715
 30
0.0
 10
104.7732737849634
 20
69.81813887647573
 30
0.0
 10
104.773683046683
 20
70.1946749341047
 30
0.0
 10
104.773683046683
 20
70.57119164619168
 30
0.0
  0
LINE
  5
1C8
330
1F
100
AcDbEntity
  8
0
  6
Continuous
 62
     7
370
    25
100
AcDbLine
 10
105.273682879
 20
70.5711916462
 30
0.0
 11
104.7736832627
 21
70.5711916462
 31
0.0
  0
SPLINE
  5
1C9
330
1F
100
AcDbEntity
  8
0
  6
Continuous
 62
     7
370
    25
100
AcDbSpline
210
0.0
220
0.0
230
1.0
 70
     8
 71
     3
 72
    14
 73
    10
 74
     0
 42
0.000000001
 43
0.00000001
 40
0.0
 40
0.0
 40
0.0
 40
0.0
 40
0.2499999999999999
 40
0.2499999999999999
 40
0.4999999999999999
 40
0.4999999999999999
 40
0.7499999999999999
 40
0.7499999999999999
 40
1.0
 40
1.0
 40
1.0
 40
1.0
 10
104.773683046683
 20
70.57119164619166
 30
0.0
 10
104.773683046683
 20
70.94770835827863
 30
0.0
 10
104.7732737849634
 20
71.3242444159076
 30
0.0
 10
104.7765851330693
 20
72.07712131475617
 30
0.0
 10
104.7803486185339
 20
72.45346012927152
 30
0.0
 10
104.8061218743136
 20
73.20527526798666
 30
0.0
 10
104.8280399689922
 20
73.58075592563567
 30
0.0
 10
104.9132576321774
 20
74.32976116490437
 30
0.0
 10
104.9765706183283
 20
74.7053690803458
 30
0.0
 10
105.0791311361524
 20
75.07119164619166
 30
0.0
  0
LWPOLYLINE
  5
1CA
330
1F
100
AcDbEntity
  8
0
  6
Continuous
 62
     7
370
    25
100
AcDbPolyline
 90
        9
 70
   128
 43
0.0
 10
105.5027691403
 20
74.9524222128
 10
105.4682817997
 20
74.9620907382
 10
105.4267685616
 20
74.9737294764
 10
105.3789791407
 20
74.9871274829
 10
105.3257764073
 20
75.0020430796
 10
105.2681200893
 20
75.0182075799
 10
105.2070518711
 20
75.0353280828
 10
105.1436739729
 20
75.0530967862
 10
105.0791309902
 20
75.0711914525
  0
SPLINE
  5
1CB
330
1F
100
AcDbEntity
  8
0
  6
Continuous
 62
     7
370
    25
100
AcDbSpline
210
0.0
220
0.0
230
1.0
 70
     8
 71
     3
 72
    14
 73
    10
 74
     0
 42
0.000000001
 43
0.00000001
 40
0.0
 40
0.0
 40
0.0
 40
0.0
 40
0.2500000000000001
 40
0.2500000000000001
 40
0.5000000000000001
 40
0.5000000000000001
 40
0.75
 40
0.75
 40
1.0
 40
1.0
 40
1.0
 40
1.0
 10
90.46823495721365
 20
75.07119164619166
 30
0.0
 10
90.57079547503776
 20
74.7053690803458
 30
0.0
 10
90.63410846118865
 20
74.32976116490435
 30
0.0
 10
90.71932612437392
 20
73.58075592563567
 30
0.0
 10
90.74124421905243
 20
73.20527526798666
 30
0.0
 10
90.76701747483214
 20
72.4534601292715
 30
0.0
 10
90.77078096029679
 20
72.07712131475616
 30
0.0
 10
90.77409230840269
 20
71.32424441590759
 30
0.0
 10
90.77368304668305
 20
70.94770835827863
 30
0.0
 10
90.77368304668305
 20
70.57119164619165
 30
0.0
  0
LWPOLYLINE
  5
1CC
330
1F
100
AcDbEntity
  8
0
  6
Continuous
 62
     7
370
    25
100
AcDbPolyline
 90
        9
 70
   128
 43
0.0
 10
90.4682351032
 20
75.0711914525
 10
90.4036921204
 20
75.0530967862
 10
90.3403142223
 20
75.0353280828
 10
90.2792460041
 20
75.0182075799
 10
90.2215896861
 20
75.0020430796
 10
90.1683869527
 20
74.9871274829
 10
90.1205975318
 20
74.9737294764
 10
90.0790842937
 20
74.9620907382
 10
90.0445969531
 20
74.9524222128
  0
SPLINE
  5
1CD
330
1F
100
AcDbEntity
  8
0
  6
Continuous
 62
     7
370
    25
100
AcDbSpline
210
0.0
220
0.0
230
1.0
 70
     8
 71
     3
 72
    14
 73
    10
 74
     0
 42
0.000000001
 43
0.00000001
 40
0.0
 40
0.0
 40
0.0
 40
0.0
 40
0.25
 40
0.25
 40
0.5
 40
0.5
 40
0.75
 40
0.75
 40
1.0
 40
1.0
 40
1.0
 40
1.0
 10
90.64408154714447
 20
65.57119164619165
 30
0.0
 10
90.60560606352288
 20
65.57119164619165
 30
0.0
 10
90.56451714205286
 20
65.58197821717489
 30
0.0
 10
90.4852342946123
 20
65.62491000424004
 30
0.0
 10
90.44795139350184
 20
65.6563275125449
 30
0.0
 10
90.39514563419007
 20
65.74764235812113
 30
0.0
 10
90.38317637409644
 20
65.80887284088539
 30
0.0
 10
90.40317816246859
 20
65.93973620154111
 30
0.0
 10
90.4326346180209
 20
66.0077003158787
 30
0.0
 10
90.46823495721365
 20
66.07119164619165
 30
0.0
  0
ARC
  5
1CE
330
1F
100
AcDbEntity
  8
0
  6
Continuous
 62
     7
370
    25
100
AcDbCircle
 10
90.6526302909
 20
65.087821923
 30
0.0
 40
0.48344542733809
100
AcDbArc
 50
91.0132315312
 51
170.0324555796
  0
SPLINE
  5
1CF
330
1F
100
AcDbEntity
  8
0
  6
Continuous
 62
     7
370
    25
100
AcDbSpline
210
0.0
220
0.0
230
1.0
 70
     8
 71
     3
 72
    14
 73
    10
 74
     0
 42
0.000000001
 43
0.00000001
 40
0.0
 40
0.0
 40
0.0
 40
0.0
 40
0.25
 40
0.25
 40
0.5
 40
0.5
 40
0.75
 40
0.75
 40
1.0
 40
1.0
 40
1.0
 40
1.0
 10
104.9032845462216
 20
75.57119164619166
 30
0.0
 10
104.9417600298432
 20
75.57119164619166
 30
0.0
 10
104.9828489513132
 20
75.56040507520845
 30
0.0
 10
105.0621317987538
 20
75.5174732881433
 30
0.0
 10
105.0994146998642
 20
75.48605577983841
 30
0.0
 10
105.152220459176
 20
75.3947409342622
 30
0.0
 10
105.1641897192696
 20
75.33351045149794
 30
0.0
 10
105.1441879308975
 20
75.20264709084222
 30
0.0
 10
105.1147314753452
 20
75.13468297650464
 30
0.0
 10
105.0791311361524
 20
75.07119164619166
 30
0.0
  0
ARC
  5
1D0
330
1F
100
AcDbEntity
  8
0
  6
Continuous
 62
     7
370
    25
100
AcDbCircle
 10
104.8947358025
 20
76.0545613693
 30
0.0
 40
0.4834454273381065
100
AcDbArc
 50
271.0132315313
 51
350.0324555796
  0
SPLINE
  5
1D1
330
1F
100
AcDbEntity
  8
0
  6
Continuous
 62
     7
370
    25
100
AcDbSpline
210
0.0
220
0.0
230
1.0
 70
     8
 71
     3
 72
    16
 73
    12
 74
     0
 42
0.000000001
 43
0.00000001
 40
0.0
 40
0.0
 40
0.0
 40
0.0
 40
0.2500000000000049
 40
0.2500000000000049
 40
0.3750000000000051
 40
0.3750000000000051
 40
0.5000000000000052
 40
0.5000000000000052
 40
0.7500000000000026
 40
0.7500000000000026
 40
1.0
 40
1.0
 40
1.0
 40
1.0
 10
90.46823495721365
 20
75.07119164619166
 30
0.0
 10
90.432681027765
 20
75.13460020716985
 30
0.0
 10
90.40340888653631
 20
75.20186750749068
 30
0.0
 10
90.38819633631543
 20
75.30030681863302
 30
0.0
 10
90.3881356681419
 20
75.3327822249883
 30
0.0
 10
90.39834625261922
 20
75.3914074321145
 30
0.0
 10
90.40812958214445
 20
75.41703024366748
 30
0.0
 10
90.4472941306764
 20
75.48523908736293
 30
0.0
 10
90.48516720394966
 20
75.51740184252871
 30
0.0
 10
90.56424017694124
 20
75.56029006164461
 30
0.0
 10
90.60562730953207
 20
75.57119164619166
 30
0.0
 10
90.64408154714447
 20
75.57119164619166
 30
0.0
  0
ARC
  5
1D2
330
1F
100
AcDbEntity
  8
0
  6
Continuous
 62
     7
370
    25
100
AcDbCircle
 10
90.6526302909
 20
76.0545613693
 30
0.0
 40
0.4834454273380953
100
AcDbArc
 50
189.9675444204
 51
268.9867684688
  0
ARC
  5
1D3
330
1F
100
AcDbEntity
  8
0
  6
Continuous
 62
     7
370
    25
100
AcDbCircle
 10
104.8947358025
 20
65.087821923
 30
0.0
 40
0.483445427338104
100
AcDbArc
 50
9.9675444204
 51
88.9867684687
  0
SPLINE
  5
1D4
330
1F
100
AcDbEntity
  8
0
  6
Continuous
 62
     7
370
    25
100
AcDbSpline
210
0.0
220
0.0
230
1.0
 70
     8
 71
     3
 72
    16
 73
    12
 74
     0
 42
0.000000001
 43
0.00000001
 40
0.0
 40
0.0
 40
0.0
 40
0.0
 40
0.2499999999999999
 40
0.2499999999999999
 40
0.3750000000000003
 40
0.3750000000000003
 40
0.5000000000000007
 40
0.5000000000000007
 40
0.7500000000000003
 40
0.7500000000000003
 40
1.0
 40
1.0
 40
1.0
 40
1.0
 10
105.0791311361524
 20
66.07119164619165
 30
0.0
 10
105.1146850656011
 20
66.00778308521346
 30
0.0
 10
105.1439572068298
 20
65.94051578489265
 30
0.0
 10
105.1591697570506
 20
65.84207647375031
 30
0.0
 10
105.1592304252242
 20
65.80960106739504
 30
0.0
 10
105.1490198407469
 20
65.75097586026882
 30
0.0
 10
105.1392365112216
 20
65.72535304871583
 30
0.0
 10
105.1000719626897
 20
65.65714420502039
 30
0.0
 10
105.0621988894164
 20
65.62498144985462
 30
0.0
 10
104.9831259164248
 20
65.58209323073872
 30
0.0
 10
104.941738783834
 20
65.57119164619165
 30
0.0
 10
104.9032845462216
 20
65.57119164619165
 30
0.0
  0
LINE
  5
1D5
330
1F
100
AcDbEntity
  8
0
  6
Continuous
 62
     7
370
    25
100
AcDbLine
 10
94.4797394553
 20
70.0160520291
 30
0.0
 11
94.9656183587
 21
70.0160520291
 31
0.0
  0
ELLIPSE
  5
1D6
330
1F
100
AcDbEntity
  8
0
  6
Continuous
 62
     7
370
    25
100
AcDbEllipse
 10
94.4797395657
 20
70.080725396
 30
0.0
 11
0.06784129479237322
 21
0.0
 31
0.0
210
0.0
220
0.0
230
1.0
 40
0.9533039403
 41
2.798568711307115
 42
4.712388980384703
  0
LINE
  5
1D7
330
1F
100
AcDbEntity
  8
0
  6
Continuous
 62
     7
370
    25
100
AcDbLine
 10
94.6587899455
 20
70.7509434951
 30
0.0
 11
94.4158504938
 21
70.1024773962
 31
0.0
  0
ELLIPSE
  5
1D8
330
1F
100
AcDbEntity
  8
0
  6
Continuous
 62
     7
370
    25
100
AcDbEllipse
 10
94.7226789106
 20
70.7291914896
 30
0.0
 11
0.06784129479271428
 21
0.0
 31
0.0
210
0.0
220
0.0
230
1.0
 40
0.9533039403
 41
0.3430239385580228
 42
2.798568711308874
  0
LINE
  5
1D9
330
1F
100
AcDbEntity
  8
0
  6
Continuous
 62
     7
370
    25
100
AcDbLine
 10
95.0295073201
 20
70.1024773962
 30
0.0
 11
94.7865678684
 21
70.7509434951
 31
0.0
  0
ELLIPSE
  5
1DA
330
1F
100
AcDbEntity
  8
0
  6
Continuous
 62
     7
370
    25
100
AcDbEllipse
 10
94.9656182527
 20
70.080725396
 30
0.0
 11
-0.06784129479237322
 21
0.0
 31
0.0
210
0.0
220
0.0
230
1.0
 40
0.9533039403
 41
1.570796326794897
 42
3.484616592149655
  0
LINE
  5
1DB
330
1F
100
AcDbEntity
  8
0
  6
Continuous
 62
     7
370
    25
100
AcDbLine
 10
104.9032847152
 20
65.571191758
 30
0.0
 11
90.6440813781
 21
65.571191758
 31
0.0
  0
LINE
  5
1DC
330
1F
100
AcDbEntity
  8
0
  6
Continuous
 62
     7
370
    25
100
AcDbLine
 10
90.4682351032
 20
66.0711918399
 30
0.0
 11
105.0791309902
 21
66.0711918399
 31
0.0
  0
LINE
  5
1DD
330
1F
100
AcDbEntity
  8
0
  6
Continuous
 62
     7
370
    25
100
AcDbLine
 10
105.0791309902
 20
75.0711914525
 30
0.0
 11
90.4682351032
 21
75.0711914525
 31
0.0
  0
LINE
  5
1DE
330
1F
100
AcDbEntity
  8
0
  6
Continuous
 62
     7
370
    25
100
AcDbLine
 10
90.6440813781
 20
75.5711915344
 30
0.0
 11
104.9032847152
 21
75.5711915344
 31
0.0
  0
ARC
  5
1DF
330
1F
100
AcDbEntity
  8
0
  6
Continuous
 62
     7
370
    25
100
AcDbCircle
 10
101.6370491326
 20
69.7661455057
 30
0.0
 40
0.7112000000000839
100
AcDbArc
 50
200.9248324276
 51
315.0
  0
LINE
  5
1E0
330
1F
100
AcDbEntity
  8
0
  6
Continuous
 62
     7
370
    25
100
AcDbLine
 10
100.9727530403
 20
69.5121455146
 30
0.0
 11
102.513231592
 21
69.5121455146
 31
0.0
  0
LINE
  5
1E1
330
1F
100
AcDbEntity
  8
0
  6
Continuous
 62
     7
370
    25
100
AcDbLine
 10
102.513231592
 20
69.5121455146
 30
0.0
 11
102.513231592
 21
70.0201454829
 31
0.0
  0
LINE
  5
1E2
330
1F
100
AcDbEntity
  8
0
  6
Continuous
 62
     7
370
    25
100
AcDbLine
 10
102.513231592
 20
70.0201454829
 30
0.0
 11
100.9727530403
 21
70.0201454829
 31
0.0
  0
ARC
  5
1E3
330
1F
100
AcDbEntity
  8
0
  6
Continuous
 62
     7
370
    25
100
AcDbCircle
 10
101.6370491326
 20
69.7661455057
 30
0.0
 40
1.239109388553836
100
AcDbArc
 50
45.0
 51
315.0
  0
LINE
  5
1E4
330
1F
100
AcDbEntity
  8
0
  6
Continuous
 62
     7
370
    25
100
AcDbLine
 10
102.513231592
 20
68.8899628958
 30
0.0
 11
102.1399435343
 21
69.2632511864
 31
0.0
  0
ELLIPSE
  5
1E5
330
1F
100
AcDbEntity
  8
0
  6
Continuous
 62
     7
370
    25
100
AcDbEllipse
 10
96.3315889056
 20
68.5717436586
 30
0.0
 11
0.06784129479237322
 21
0.0
 31
0.0
210
0.0
220
0.0
230
1.0
 40
0.9533039403
 41
3.962594650555142
 42
5.819537698174936
  0
LINE
  5
1E6
330
1F
100
AcDbEntity
  8
0
  6
Continuous
 62
     7
370
    25
100
AcDbLine
 10
97.0292829082
 20
69.7573584994
 30
0.0
 11
96.9959626894
 21
69.7383145825
 31
0.0
  0
ARC
  5
1E7
330
1F
100
AcDbEntity
  8
0
  6
Continuous
 62
     7
370
    25
100
AcDbCircle
 10
101.6370491326
 20
69.7661455057
 30
0.0
 40
0.7112000000000337
100
AcDbArc
 50
45.0
 51
159.0751675723
  0
LINE
  5
1E8
330
1F
100
AcDbEntity
  8
0
  6
Continuous
 62
     7
370
    25
100
AcDbLine
 10
96.3922679878
 20
68.5428209044
 30
0.0
 11
97.0292829082
 21
69.7573584994
 31
0.0
  0
ELLIPSE
  5
1E9
330
1F
100
AcDbEntity
  8
0
  6
Continuous
 62
     7
370
    25
100
AcDbEllipse
 10
94.722678909
 20
66.9246647622
 30
0.0
 11
2.293035763987604
 21
-1.065814103640150E-12
 31
0.0
210
0.0
220
0.0
230
1.0
 40
0.9533039403
 41
0.8210019969645947
 42
2.320590656625122
  0
LINE
  5
1EA
330
1F
100
AcDbEntity
  8
0
  6
Continuous
 62
     7
370
    25
100
AcDbLine
 10
99.466227832
 20
70.2690398402
 30
0.0
 11
99.8395160062
 21
70.6423281599
 31
0.0
  0
ELLIPSE
  5
1EB
330
1F
100
AcDbEntity
  8
0
  6
Continuous
 62
     7
370
    25
100
AcDbEllipse
 10
96.7168881329
 20
70.1820605609
 30
0.0
 11
0.5427303583402932
 21
3.410605131648481E-13
 31
0.0
210
0.0
220
0.0
230
1.0
 40
0.9533039404
 41
3.470145824142463
 42
5.252469180527901
  0
LINE
  5
1EC
330
1F
100
AcDbEntity
  8
0
  6
Continuous
 62
     7
370
    25
100
AcDbLine
 10
96.2031883176
 20
70.015113256
 30
0.0
 11
95.1954645791
 21
72.8330696375
 31
0.0
  0
LINE
  5
1ED
330
1F
100
AcDbEntity
  8
0
  6
Continuous
 62
     7
370
    25
100
AcDbLine
 10
102.1399435343
 20
70.2690398402
 30
0.0
 11
102.513231592
 21
70.6423281599
 31
0.0
  0
ARC
  5
1EE
330
1F
100
AcDbEntity
  8
0
  6
Continuous
 62
     7
370
    25
100
AcDbCircle
 10
98.9633334555
 20
69.7661455057
 30
0.0
 40
1.239109388553836
100
AcDbArc
 50
45.0
 51
315.0
  0
ELLIPSE
  5
1EF
330
1F
100
AcDbEntity
  8
0
  6
Continuous
 62
     7
370
    25
100
AcDbEllipse
 10
94.722678909
 20
72.6231973974
 30
0.0
 11
0.5215299537176605
 21
0.0
 31
0.0
210
0.0
220
0.0
230
1.0
 40
0.9533039403
 41
0.4357918987553238
 42
2.705800754834461
  0
ELLIPSE
  5
1F0
330
1F
100
AcDbEntity
  8
0
  6
Continuous
 62
     7
370
    25
100
AcDbEllipse
 10
93.1137689124
 20
68.5717436586
 30
0.0
 11
0.06784129479235901
 21
0.0
 31
0.0
210
0.0
220
0.0
230
1.0
 40
0.9533039403
 41
3.605240262580728
 42
5.462183310226817
  0
LINE
  5
1F1
330
1F
100
AcDbEntity
  8
0
  6
Continuous
 62
     7
370
    25
100
AcDbLine
 10
99.8395160062
 20
68.8899628958
 30
0.0
 11
99.466227832
 21
69.2632511864
 31
0.0
  0
LINE
  5
1F2
330
1F
100
AcDbEntity
  8
0
  6
Continuous
 62
     7
370
    25
100
AcDbLine
 10
92.4573394225
 20
69.734646976
 30
0.0
 11
92.4160748476
 21
69.7573584994
 31
0.0
  0
ARC
  5
1F3
330
1F
100
AcDbEntity
  8
0
  6
Continuous
 62
     7
370
    25
100
AcDbCircle
 10
98.9633334555
 20
69.7661455057
 30
0.0
 40
0.7111999999997624
100
AcDbArc
 50
45.0
 51
315.0
  0
LINE
  5
1F4
330
1F
100
AcDbEntity
  8
0
  6
Continuous
 62
     7
370
    25
100
AcDbLine
 10
94.2498932348
 20
72.8330696375
 30
0.0
 11
93.2424043061
 21
70.0157699548
 31
0.0
  0
LINE
  5
1F5
330
1F
100
AcDbEntity
  8
0
  6
Continuous
 62
     7
370
    25
100
AcDbLine
 10
92.4160748476
 20
69.7573584994
 30
0.0
 11
93.0530897097
 21
68.5428209044
 31
0.0
  0
ELLIPSE
  5
1F6
330
1F
100
AcDbEntity
  8
0
  6
Continuous
 62
     7
370
    25
100
AcDbEllipse
 10
92.7287045217
 20
70.182717248
 30
0.0
 11
-0.5427303583406342
 21
3.552713678800501E-13
 31
0.0
210
0.0
220
0.0
230
1.0
 40
0.9533039403
 41
1.04719755119658
 42
2.813039483039307
  0
ARC
  5
1F7
330
1F
100
AcDbEntity
  8
0
  6
Continuous
 62
     7
370
    25
100
AcDbCircle
 10
90.7736830467
 20
65.0711916462
 30
0.0
 40
0.5000000000000142
100
AcDbArc
 50
90.0
 51
180.0
  0
ARC
  5
1F8
330
1F
100
AcDbEntity
  8
0
  6
Continuous
 62
     7
370
    25
100
AcDbCircle
 10
104.7736830467
 20
65.0711916462
 30
0.0
 40
0.5
100
AcDbArc
 50
0.0
 51
90.0
  0
ARC
  5
1F9
330
1F
100
AcDbEntity
  8
0
  6
Continuous
 62
     7
370
    25
100
AcDbCircle
 10
90.7736830467
 20
76.0711916462
 30
0.0
 40
0.5000000000000142
100
AcDbArc
 50
180.0
 51
270.0
  0
ARC
  5
1FA
330
1F
100
AcDbEntity
  8
0
  6
Continuous
 62
     7
370
    25
100
AcDbCircle
 10
104.7736830467
 20
76.0711916462
 30
0.0
 40
0.5
100
AcDbArc
 50
270.0
 51
0.0
  0
LWPOLYLINE
  5
1FB
330
1F
100
AcDbEntity
  8
0
  6
Continuous
 62
     7
370
    25
100
AcDbPolyline
 90
        9
 70
   128
 43
0.0
 10
104.7736832627
 20
75.7656363212
 10
104.8712281266
 20
75.7715073787
 10
104.9650248827
 20
75.7888951712
 10
105.0514683814
 20
75.8171314746
 10
105.1272365951
 20
75.8551312983
 10
105.1894177438
 20
75.9014338628
 10
105.235622985
 20
75.9542608075
 10
105.264075821
 20
76.011580918
 10
105.273682879
 20
76.0711916164
  0
LINE
  5
1FC
330
1F
100
AcDbEntity
  8
0
  6
Continuous
 62
     7
370
    25
100
AcDbLine
 10
104.7736832627
 20
75.5711915344
 30
0.0
 11
104.7736832627
 21
75.7656363212
 31
0.0
  0
LWPOLYLINE
  5
1FD
330
1F
100
AcDbEntity
  8
0
  6
Continuous
 62
     7
370
    25
100
AcDbPolyline
 90
        9
 70
   128
 43
0.0
 10
90.7736828306
 20
65.3767469712
 10
90.6761379668
 20
65.3708759137
 10
90.5823412107
 20
65.3534881212
 10
90.4958977119
 20
65.3252518177
 10
90.4201294982
 20
65.287251994
 10
90.3579483495
 20
65.2409494296
 10
90.3117431083
 20
65.1881224849
 10
90.2832902723
 20
65.1308023744
 10
90.2736832143
 20
65.071191676
  0
LINE
  5
1FE
330
1F
100
AcDbEntity
  8
0
  6
Continuous
 62
     7
370
    25
100
AcDbLine
 10
90.7736828306
 20
65.3767469712
 30
0.0
 11
90.7736828306
 21
65.571191758
 31
0.0
  0
LWPOLYLINE
  5
1FF
330
1F
100
AcDbEntity
  8
0
  6
Continuous
 62
     7
370
    25
100
AcDbPolyline
 90
        9
 70
   128
 43
0.0
 10
90.2736832143
 20
76.0711916164
 10
90.2832902723
 20
76.011580918
 10
90.3117431083
 20
75.9542608075
 10
90.3579483495
 20
75.9014338628
 10
90.4201294982
 20
75.8551312983
 10
90.4958977119
 20
75.8171314746
 10
90.5823412107
 20
75.7888951712
 10
90.6761379668
 20
75.7715073787
 10
90.7736828306
 20
75.7656363212
  0
LINE
  5
200
330
1F
100
AcDbEntity
  8
0
  6
Continuous
 62
     7
370
    25
100
AcDbLine
 10
90.7736828306
 20
75.5711915344
 30
0.0
 11
90.7736828306
 21
75.7656363212
 31
0.0
  0
LINE
  5
201
330
1F
100
AcDbEntity
  8
0
  6
Continuous
 62
     7
370
    25
100
AcDbLine
 10
104.7736832627
 20
65.3767469712
 30
0.0
 11
90.7736828306
 21
65.3767469712
 31
0.0
  0
LINE
  5
202
330
1F
100
AcDbEntity
  8
0
  6
Continuous
 62
     7
370
    25
100
AcDbLine
 10
104.7736832627
 20
65.3767469712
 30
0.0
 11
104.7736832627
 21
65.571191758
 31
0.0
  0
LWPOLYLINE
  5
203
330
1F
100
AcDbEntity
  8
0
  6
Continuous
 62
     7
370
    25
100
AcDbPolyline
 90
        9
 70
   128
 43
0.0
 10
105.273682879
 20
65.071191676
 10
105.264075821
 20
65.1308023744
 10
105.235622985
 20
65.1881224849
 10
105.1894177438
 20
65.2409494296
 10
105.1272365951
 20
65.287251994
 10
105.0514683814
 20
65.3252518177
 10
104.9650248827
 20
65.3534881212
 10
104.8712281266
 20
65.3708759137
 10
104.7736832627
 20
65.3767469712
  0
LINE
  5
204
330
1F
100
AcDbEntity
  8
0
  6
Continuous
 62
     7
370
    25
100
AcDbLine
 10
90.7736828306
 20
75.7656363212
 30
0.0
 11
104.7736832627
 21
75.7656363212
 31
0.0
  0
LINE
  5
205
330
1F
100
AcDbEntity
  8
0
  6
Continuous
 62
     7
370
    25
100
AcDbLine
 10
115.6095571571
 20
70.5711916462
 30
0.0
 11
115.6095571571
 21
64.0717335418
 31
0.0
  0
LINE
  5
206
330
1F
100
AcDbEntity
  8
0
  6
Continuous
 62
     7
370
    25
100
AcDbLine
 10
115.6095571571
 20
77.0706497506
 30
0.0
 11
115.6095571571
 21
70.5711916462
 31
0.0
  0
LINE
  5
207
330
1F
100
AcDbEntity
  8
0
  6
Continuous
 62
     7
370
    25
100
AcDbLine
 10
117.7736825996
 20
75.8211915754
 30
0.0
 11
117.7736825996
 21
65.321191717
 31
0.0
  0
SPLINE
  5
208
330
1F
100
AcDbEntity
  8
0
  6
Continuous
 62
     7
370
    25
100
AcDbSpline
210
0.0
220
0.0
230
1.0
 70
    11
 71
     3
 72
    26
 73
    22
 74
     0
 42
0.000000001
 43
0.00000001
 40
0.0
 40
0.0
 40
0.0
 40
0.0
 40
0.125
 40
0.125
 40
0.1875
 40
0.1875
 40
0.25
 40
0.25
 40
0.3125
 40
0.3125
 40
0.375
 40
0.375
 40
0.5
 40
0.5
 40
0.625
 40
0.625
 40
0.75
 40
0.75
 40
0.875
 40
0.875
 40
1.0
 40
1.0
 40
1.0
 40
1.0
 10
98.28700201553143
 20
78.57119164619166
 30
0.0
 10
98.28700201553143
 20
78.71031067742048
 30
0.0
 10
98.23420604438246
 20
78.84603838039597
 30
0.0
 10
98.09275045450515
 20
78.99905711689175
 30
0.0
 10
98.03619651813328
 20
79.04056001791228
 30
0.0
 10
97.91065236668985
 20
79.09775991170595
 30
0.0
 10
97.84150075358184
 20
79.1130439004503
 30
0.0
 10
97.70434237883838
 20
79.11282302668666
 30
0.0
 10
97.63522779603224
 20
79.09726296539898
 30
0.0
 10
97.51046802740116
 20
79.04005713090498
 30
0.0
 10
97.45383693906669
 20
78.99830570363802
 30
0.0
 10
97.31372331254377
 20
78.84646483535458
 30
0.0
 10
97.26040277859714
 20
78.71041250808672
 30
0.0
 10
97.26032542002105
 20
78.43227981438336
 30
0.0
 10
97.31401380204271
 20
78.29547780436337
 30
0.0
 10
97.50070861635042
 20
78.0934090006983
 30
0.0
 10
97.636589825714
 20
78.02923924101276
 30
0.0
 10
97.91222095975247
 20
78.02966029381376
 30
0.0
 10
98.04719599816612
 20
78.09392897623708
 30
0.0
 10
98.23304347523215
 20
78.2952065274612
 30
0.0
 10
98.28700201553143
 20
78.43207261496285
 30
0.0
 10
98.28700201553143
 20
78.57119164619166
 30
0.0
  0
SPLINE
  5
209
330
1F
100
AcDbEntity
  8
0
  6
Continuous
 62
     7
370
    25
100
AcDbSpline
210
0.0
220
0.0
230
1.0
 70
    11
 71
     3
 72
    38
 73
    34
 74
     0
 42
0.000000001
 43
0.00000001
 40
0.0
 40
0.0
 40
0.0
 40
0.0
 40
0.0625
 40
0.0625
 40
0.125
 40
0.125
 40
0.1874999999999999
 40
0.1874999999999999
 40
0.2499999999999999
 40
0.2499999999999999
 40
0.3125
 40
0.3125
 40
0.375
 40
0.375
 40
0.4375000000000001
 40
0.4375000000000001
 40
0.5000000000000001
 40
0.5000000000000001
 40
0.5625000000000001
 40
0.5625000000000001
 40
0.6250000000000001
 40
0.6250000000000001
 40
0.6875000000000001
 40
0.6875000000000001
 40
0.75
 40
0.75
 40
0.8125
 40
0.8125
 40
0.875
 40
0.875
 40
0.9375
 40
0.9375
 40
1.0
 40
1.0
 40
1.0
 40
1.0
 10
96.77368304668306
 20
78.57119164619166
 30
0.0
 10
96.77368304668305
 20
78.43880573128135
 30
0.0
 10
96.79983159782587
 20
78.30891840480265
 30
0.0
 10
96.90029726728368
 20
78.06683941021677
 30
0.0
 10
96.97458213368024
 20
77.95605805616077
 30
0.0
 10
97.15873131341496
 20
77.771950776055
 30
0.0
 10
97.27010693600921
 20
77.697482104759
 30
0.0
 10
97.51065544054309
 20
77.5976549286303
 30
0.0
 10
97.64241333653051
 20
77.571267008557
 30
0.0
 10
97.90380202869439
 20
77.57111661487018
 30
0.0
 10
98.03497409928606
 20
77.59705643528021
 30
0.0
 10
98.27741178528578
 20
77.6974240677055
 30
0.0
 10
98.38746595343537
 20
77.77081297085071
 30
0.0
 10
98.57371927084625
 20
77.95696243768026
 30
0.0
 10
98.6471455987394
 20
78.06700095508026
 30
0.0
 10
98.7475103463683
 20
78.30888367216895
 30
0.0
 10
98.77363161066451
 20
78.44015819068026
 30
0.0
 10
98.77373432814973
 20
78.70143884005277
 30
0.0
 10
98.74749070005602
 20
78.8332542435657
 30
0.0
 10
98.64782234325787
 20
79.07404216164717
 30
0.0
 10
98.57354155128934
 20
79.18537436304517
 30
0.0
 10
98.38935481085575
 20
79.36990455824017
 30
0.0
 10
98.27893123679317
 20
79.44409088751395
 30
0.0
 10
98.0365465215532
 20
79.5449121464841
 30
0.0
 10
97.9066223419868
 20
79.57108637578914
 30
0.0
 10
97.64233223246988
 20
79.57129628577606
 30
0.0
 10
97.51209847380788
 20
79.54520856341288
 30
0.0
 10
97.27020580263718
 20
79.44506011943426
 30
0.0
 10
97.15918987723056
 20
79.37077382426912
 30
0.0
 10
96.97502214125053
 20
79.18688172483233
 30
0.0
 10
96.90042346974842
 20
79.0755515742783
 30
0.0
 10
96.80037265620331
 20
78.83506303446968
 30
0.0
 10
96.77368304668305
 20
78.70357756110197
 30
0.0
 10
96.77368304668305
 20
78.57119164619166
 30
0.0
  0
LINE
  5
20A
330
1F
100
AcDbEntity
  8
0
  6
Continuous
 62
     1
370
    25
100
AcDbLine
 10
65.0736845785
 20
70.5711916462
 30
0.0
 11
65.0736845785
 21
65.071191676
 31
0.0
  0
LINE
  5
20B
330
1F
100
AcDbEntity
  8
0
  6
Continuous
 62
     1
370
    25
100
AcDbLine
 10
65.0736845785
 20
76.0711916164
 30
0.0
 11
65.0736845785
 21
70.5711916462
 31
0.0
  0
LINE
  5
20C
330
1F
100
AcDbEntity
  8
0
  6
Continuous
 62
     1
370
    25
100
AcDbLine
 10
104.7736832627
 20
75.7656363212
 30
0.0
 11
104.7736832627
 21
79.0711921081
 31
0.0
  0
LINE
  5
20D
330
1F
100
AcDbEntity
  8
0
  6
Continuous
 62
     1
370
    25
100
AcDbLine
 10
90.7736828306
 20
65.3767469712
 30
0.0
 11
90.7736828306
 21
62.0711911843
 31
0.0
  0
LINE
  5
20E
330
1F
100
AcDbEntity
  8
0
  6
Continuous
 62
     1
370
    25
100
AcDbLine
 10
90.7736828306
 20
79.0711921081
 30
0.0
 11
90.7736828306
 21
75.7656363212
 31
0.0
  0
LINE
  5
20F
330
1F
100
AcDbEntity
  8
0
  6
Continuous
 62
     1
370
    25
100
AcDbLine
 10
104.7736832627
 20
62.0711911843
 30
0.0
 11
104.7736832627
 21
65.3767469712
 31
0.0
  0
SPLINE
  5
210
330
1F
100
AcDbEntity
  8
0
  6
Continuous
 62
     1
370
    25
100
AcDbSpline
210
0.0
220
0.0
230
1.0
 70
     8
 71
     3
 72
    32
 73
    28
 74
     0
 42
0.000000001
 43
0.00000001
 40
0.0
 40
0.0
 40
0.0
 40
0.0
 40
0.0401450221632395
 40
0.0814946536401461
 40
0.1230108409586373
 40
0.1655335799748644
 40
0.2131026898219141
 40
0.2616870022954625
 40
0.3186512825243805
 40
0.3479268726644023
 40
0.3771976361574257
 40
0.4187548088698845
 40
0.4612652034728578
 40
0.5031787625365712
 40
0.5464778243509152
 40
0.5837150066472543
 40
0.6216789014452945
 40
0.6496079967307147
 40
0.6775412832743115
 40
0.7348752080451525
 40
0.7907587104420757
 40
0.8195305303078511
 40
0.8482972711327345
 40
0.8930422563907552
 40
0.9390687309218955
 40
0.9835429324097366
 40
1.0
 40
1.0
 40
1.0
 40
1.0
 10
104.1736828850054
 20
79.07119210812766
 30
0.0
 10
104.1623642199414
 20
79.06357340478712
 30
0.0
 10
104.1393872569369
 20
79.04810738791954
 30
0.0
 10
103.9547105497354
 20
78.92488727543217
 30
0.0
 10
103.6641305593534
 20
78.7348642080528
 30
0.0
 10
103.2531905974527
 20
78.47432920305666
 30
0.0
 10
102.7205584699666
 20
78.15252469647257
 30
0.0
 10
102.0321138699778
 20
77.76666521779067
 30
0.0
 10
101.3401578756408
 20
77.42249623544201
 30
0.0
 10
100.6942392805175
 20
77.1484548904539
 30
0.0
 10
100.1040532470703
 20
76.9313684561259
 30
0.0
 10
99.39616049781826
 20
76.72581872461313
 30
0.0
 10
98.5660635103029
 20
76.57638153174237
 30
0.0
 10
97.69926861796662
 20
76.52879852945028
 30
0.0
 10
96.87019085726904
 20
76.59226703854424
 30
0.0
 10
96.09444855725171
 20
76.7424925118502
 30
0.0
 10
95.4511318513693
 20
76.92990134177019
 30
0.0
 10
94.89628025709939
 20
77.1318359096535
 30
0.0
 10
94.2595509334781
 20
77.39826744247915
 30
0.0
 10
93.52944983219429
 20
77.75769391619369
 30
0.0
 10
92.89057156910593
 20
78.11666059055334
 30
0.0
 10
92.44696211090559
 20
78.38180356738422
 30
0.0
 10
92.0920323531504
 20
78.60155201497427
 30
0.0
 10
91.74870965600505
 20
78.82210207271531
 30
0.0
 10
91.49205231720151
 20
78.99171874557956
 30
0.0
 10
91.36897453710063
 20
79.07434821212763
 30
0.0
 10
91.38660121017648
 20
79.06252285836032
 30
0.0
 10
91.39136203913328
 20
79.05932892117221
 30
0.0
  0
SPLINE
  5
211
330
1F
100
AcDbEntity
  8
0
  6
Continuous
 62
     1
370
    25
100
AcDbSpline
210
0.0
220
0.0
230
1.0
 70
     8
 71
     3
 72
    33
 73
    29
 74
     0
 42
0.000000001
 43
0.00000001
 40
0.0
 40
0.0
 40
0.0
 40
0.0
 40
0.0148211240469429
 40
0.061906063969509
 40
0.1074359711031479
 40
0.1543276768856095
 40
0.1825886223515991
 40
0.2108538897730015
 40
0.2399561671799298
 40
0.2690606064953306
 40
0.3246391278734068
 40
0.3531838695855392
 40
0.3817220214769791
 40
0.4180177569521428
 40
0.4550555140468025
 40
0.4953465722858043
 40
0.5372537212750658
 40
0.5776250139646001
 40
0.6191776771117481
 40
0.6475263589738919
 40
0.6758813295767765
 40
0.7341827319504398
 40
0.7823042633568378
 40
0.831370735690596
 40
0.8736529247897509
 40
0.9168721031320799
 40
0.9578509921635352
 40
1.0
 40
1.0
 40
1.0
 40
1.0
 10
91.88818817375537
 20
79.56001259389836
 30
0.0
 10
91.88424459604863
 20
79.56305172052689
 30
0.0
 10
91.8677727432385
 20
79.57574578926828
 30
0.0
 10
91.97854598948273
 20
79.49029267161457
 30
0.0
 10
92.21597740058083
 20
79.31005399727326
 30
0.0
 10
92.52880046317452
 20
79.07905480801223
 30
0.0
 10
92.85391054947708
 20
78.84776630068261
 30
0.0
 10
93.15715382841182
 20
78.63923041366454
 30
0.0
 10
93.49528926472577
 20
78.41629182024465
 30
0.0
 10
93.97996763580629
 20
78.11373584292525
 30
0.0
 10
94.51806708812578
 20
77.80867182952174
 30
0.0
 10
95.10458904117478
 20
77.52488760819587
 30
0.0
 10
95.61986162601846
 20
77.3087456514547
 30
0.0
 10
96.21735712336492
 20
77.10788011683842
 30
0.0
 10
96.92344733807909
 20
76.94939330020566
 30
0.0
 10
97.69482065114178
 20
76.87929678109518
 30
0.0
 10
98.49166983104232
 20
76.927597734664
 30
0.0
 10
99.26760977332002
 20
77.0872993959111
 30
0.0
 10
99.91650545585365
 20
77.30340147442286
 30
0.0
 10
100.4575529960408
 20
77.53166861464688
 30
0.0
 10
101.0552555974577
 20
77.82188392827605
 30
0.0
 10
101.6926015920604
 20
78.1857856695839
 30
0.0
 10
102.3319991475109
 20
78.59705225953218
 30
0.0
 10
102.8200418071388
 20
78.93564045629708
 30
0.0
 10
103.2018635699679
 20
79.21352375196166
 30
0.0
 10
103.4681826513509
 20
79.41353232660762
 30
0.0
 10
103.6409590465644
 20
79.54588867921312
 30
0.0
 10
103.662673310419
 20
79.5626782880253
 30
0.0
 10
103.6736832687103
 20
79.57119125876147
 30
0.0
  0
LINE
  5
212
330
1F
100
AcDbEntity
  8
0
  6
Continuous
 62
     7
370
     0
100
AcDbLine
 10
117.0734982785
 20
64.9169397818
 30
0.0
 11
108.2736830467
 21
64.6419455558
 31
0.0
  0
LINE
  5
213
330
1F
100
AcDbEntity
  8
0
  6
Continuous
 62
     7
370
     0
100
AcDbLine
 10
117.0734982785
 20
76.2254435106
 30
0.0
 11
108.2736830467
 21
76.5004377366
 31
0.0
  0
LINE
  5
214
330
1F
100
AcDbEntity
  8
0
  6
Continuous
 62
     7
370
     0
100
AcDbLine
 10
108.2736830467
 20
77.2998959498
 30
0.0
 11
108.2736830467
 21
63.8424873426
 31
0.0
  0
LINE
  5
215
330
1F
100
AcDbEntity
  8
0
  6
Continuous
 62
     7
370
    25
100
AcDbLine
 10
87.7736832702
 20
145.9797276527
 30
0.0
 11
84.7736827785
 21
145.9797276527
 31
0.0
  0
LINE
  5
216
330
1F
100
AcDbEntity
  8
0
  6
Continuous
 62
     7
370
    25
100
AcDbLine
 10
84.7736827785
 20
129.9797268927
 30
0.0
 11
87.7736832702
 21
129.9797268927
 31
0.0
  0
LINE
  5
217
330
1F
100
AcDbEntity
  8
0
  6
Continuous
 62
     7
370
    25
100
AcDbLine
 10
80.8736838156
 20
144.579727237
 30
0.0
 11
79.7236829752
 21
143.4297273279
 31
0.0
  0
LINE
  5
218
330
1F
100
AcDbEntity
  8
0
  6
Continuous
 62
     7
370
    25
100
AcDbLine
 10
79.7236829752
 20
132.5297272176
 30
0.0
 11
80.8736838156
 21
131.3797273085
 31
0.0
  0
LINE
  5
219
330
1F
100
AcDbEntity
  8
0
  6
Continuous
 62
     7
370
    25
100
AcDbLine
 10
84.7736827785
 20
144.579727237
 30
0.0
 11
80.8736838156
 21
144.579727237
 31
0.0
  0
LINE
  5
21A
330
1F
100
AcDbEntity
  8
0
  6
Continuous
 62
     7
370
    25
100
AcDbLine
 10
80.8736838156
 20
131.3797273085
 30
0.0
 11
84.7736827785
 21
131.3797273085
 31
0.0
  0
LINE
  5
21B
330
1F
100
AcDbEntity
  8
0
  6
Continuous
 62
     7
370
    25
100
AcDbLine
 10
76.7736833298
 20
131.3797273085
 30
0.0
 11
77.9236823076
 21
132.5297272176
 31
0.0
  0
LINE
  5
21C
330
1F
100
AcDbEntity
  8
0
  6
Continuous
 62
     7
370
    25
100
AcDbLine
 10
77.9236823076
 20
143.4297273279
 30
0.0
 11
76.7736833298
 21
144.579727237
 31
0.0
  0
LINE
  5
21D
330
1F
100
AcDbEntity
  8
0
  6
Continuous
 62
     7
370
    25
100
AcDbLine
 10
74.5383061224
 20
144.579727237
 30
0.0
 11
69.7736821824
 21
143.4797272429
 31
0.0
  0
LINE
  5
21E
330
1F
100
AcDbEntity
  8
0
  6
Continuous
 62
     7
370
    25
100
AcDbLine
 10
69.7736821824
 20
132.4797273025
 30
0.0
 11
74.5383061224
 21
131.3797273085
 31
0.0
  0
LINE
  5
21F
330
1F
100
AcDbEntity
  8
0
  6
Continuous
 62
     7
370
    25
100
AcDbLine
 10
76.7736833298
 20
144.579727237
 30
0.0
 11
74.5383061224
 21
144.579727237
 31
0.0
  0
LINE
  5
220
330
1F
100
AcDbEntity
  8
0
  6
Continuous
 62
     7
370
    25
100
AcDbLine
 10
74.5383061224
 20
131.3797273085
 30
0.0
 11
76.7736833298
 21
131.3797273085
 31
0.0
  0
ARC
  5
221
330
1F
100
AcDbEntity
  8
0
  6
Continuous
 62
     7
370
    25
100
AcDbCircle
 10
65.0736830467
 20
132.7797272727
 30
0.0
 40
0.2999999999999972
100
AcDbArc
 50
180.0
 51
270.0
  0
ARC
  5
222
330
1F
100
AcDbEntity
  8
0
  6
Continuous
 62
     7
370
    25
100
AcDbCircle
 10
65.0736830467
 20
143.1797272727
 30
0.0
 40
0.2999999999999972
100
AcDbArc
 50
90.0
 51
180.0
  0
LINE
  5
223
330
1F
100
AcDbEntity
  8
0
  6
Continuous
 62
     7
370
    25
100
AcDbLine
 10
69.7736821824
 20
143.4797272429
 30
0.0
 11
65.0736845785
 21
143.4797272429
 31
0.0
  0
LINE
  5
224
330
1F
100
AcDbEntity
  8
0
  6
Continuous
 62
     7
370
    25
100
AcDbLine
 10
65.0736845785
 20
132.4797273025
 30
0.0
 11
69.7736821824
 21
132.4797273025
 31
0.0
  0
LINE
  5
225
330
1F
100
AcDbEntity
  8
0
  6
Continuous
 62
     7
370
    25
100
AcDbLine
 10
79.7236829752
 20
143.4297273279
 30
0.0
 11
77.9236823076
 21
143.4297273279
 31
0.0
  0
LINE
  5
226
330
1F
100
AcDbEntity
  8
0
  6
Continuous
 62
     7
370
    25
100
AcDbLine
 10
77.9236823076
 20
132.5297272176
 30
0.0
 11
79.7236829752
 21
132.5297272176
 31
0.0
  0
ARC
  5
227
330
1F
100
AcDbEntity
  8
0
  6
Continuous
 62
     7
370
    25
100
AcDbCircle
 10
106.7736830467
 20
146.9797272727
 30
0.0
 40
1.500000000000014
100
AcDbArc
 50
138.1896851042
 51
180.0
  0
ARC
  5
228
330
1F
100
AcDbEntity
  8
0
  6
Continuous
 62
     7
370
    25
100
AcDbCircle
 10
106.7736830467
 20
128.9797272727
 30
0.0
 40
1.500000000000014
100
AcDbArc
 50
180.0
 51
221.8103148958
  0
LINE
  5
229
330
1F
100
AcDbEntity
  8
0
  6
Continuous
 62
     7
370
    25
100
AcDbLine
 10
107.2736827412
 20
127.9797274962
 30
0.0
 11
107.7736828232
 21
128.4797275782
 31
0.0
  0
LINE
  5
22A
330
1F
100
AcDbEntity
  8
0
  6
Continuous
 62
     7
370
    25
100
AcDbLine
 10
107.7736828232
 20
147.4797269673
 30
0.0
 11
107.2736827412
 21
147.9797270492
 31
0.0
  0
LINE
  5
22B
330
1F
100
AcDbEntity
  8
0
  6
Continuous
 62
     7
370
    25
100
AcDbLine
 10
88.0236828455
 20
147.9797270492
 30
0.0
 11
87.7736832702
 21
147.7297274739
 31
0.0
  0
LINE
  5
22C
330
1F
100
AcDbEntity
  8
0
  6
Continuous
 62
     7
370
    25
100
AcDbLine
 10
87.7736832702
 20
128.2297270716
 30
0.0
 11
88.0236828455
 21
127.9797274962
 31
0.0
  0
LINE
  5
22D
330
1F
100
AcDbEntity
  8
0
  6
Continuous
 62
     7
370
    25
100
AcDbLine
 10
88.0236828455
 20
127.9797274962
 30
0.0
 11
89.8917166272
 21
127.9797274962
 31
0.0
  0
LINE
  5
22E
330
1F
100
AcDbEntity
  8
0
  6
Continuous
 62
     7
370
    25
100
AcDbLine
 10
89.8917166272
 20
147.9797270492
 30
0.0
 11
88.0236828455
 21
147.9797270492
 31
0.0
  0
LINE
  5
22F
330
1F
100
AcDbEntity
  8
0
  6
Continuous
 62
     7
370
    25
100
AcDbLine
 10
107.2736827412
 20
147.9797270492
 30
0.0
 11
105.6556494662
 21
147.9797270492
 31
0.0
  0
LINE
  5
230
330
1F
100
AcDbEntity
  8
0
  6
Continuous
 62
     7
370
    25
100
AcDbLine
 10
105.6556494662
 20
127.9797274962
 30
0.0
 11
107.2736827412
 21
127.9797274962
 31
0.0
  0
ARC
  5
231
330
1F
100
AcDbEntity
  8
0
  6
Continuous
 62
     7
370
    25
100
AcDbCircle
 10
88.7736830467
 20
128.9797272727
 30
0.0
 40
1.500000000000004
100
AcDbArc
 50
318.1896851042
 51
0.0
  0
ARC
  5
232
330
1F
100
AcDbEntity
  8
0
  6
Continuous
 62
     7
370
    25
100
AcDbCircle
 10
88.7736830467
 20
146.9797272727
 30
0.0
 40
1.500000000000004
100
AcDbArc
 50
0.0
 51
41.8103148958
  0
LINE
  5
233
330
1F
100
AcDbEntity
  8
0
  6
Continuous
 62
     7
370
    25
100
AcDbLine
 10
107.7736828232
 20
131.2353979208
 30
0.0
 11
115.6095571571
 21
131.4802691684
 31
0.0
  0
LINE
  5
234
330
1F
100
AcDbEntity
  8
0
  6
Continuous
 62
     7
370
    25
100
AcDbLine
 10
115.6095571571
 20
144.4791853771
 30
0.0
 11
107.7736828232
 21
144.7240566247
 31
0.0
  0
LINE
  5
235
330
1F
100
AcDbEntity
  8
0
  6
Continuous
 62
     7
370
    25
100
AcDbLine
 10
115.6095571571
 20
131.4802691684
 30
0.0
 11
117.7736825996
 21
132.7297273435
 31
0.0
  0
LINE
  5
236
330
1F
100
AcDbEntity
  8
0
  6
Continuous
 62
     7
370
    25
100
AcDbLine
 10
117.7736825996
 20
143.2297272019
 30
0.0
 11
115.6095571571
 21
144.4791853771
 31
0.0
  0
LINE
  5
237
330
1F
100
AcDbEntity
  8
0
  6
Continuous
 62
     7
370
    25
100
AcDbLine
 10
99.7736831417
 20
138.4797272965
 30
0.0
 11
99.7736831417
 21
139.8547272308
 31
0.0
  0
LINE
  5
238
330
1F
100
AcDbEntity
  8
0
  6
Continuous
 62
     7
370
    25
100
AcDbLine
 10
99.7736831417
 20
139.8547272308
 30
0.0
 11
103.0236829759
 21
137.9797272727
 31
0.0
  0
LINE
  5
239
330
1F
100
AcDbEntity
  8
0
  6
Continuous
 62
     7
370
    25
100
AcDbLine
 10
103.0236829759
 20
137.9797272727
 30
0.0
 11
99.7736831417
 21
136.1047273146
 31
0.0
  0
LINE
  5
23A
330
1F
100
AcDbEntity
  8
0
  6
Continuous
 62
     7
370
    25
100
AcDbLine
 10
99.7736831417
 20
137.479727249
 30
0.0
 11
99.7736831417
 21
136.1047273146
 31
0.0
  0
LINE
  5
23B
330
1F
100
AcDbEntity
  8
0
  6
Continuous
 62
     7
370
    25
100
AcDbLine
 10
99.7736831417
 20
137.479727249
 30
0.0
 11
95.7736829517
 21
137.479727249
 31
0.0
  0
LINE
  5
23C
330
1F
100
AcDbEntity
  8
0
  6
Continuous
 62
     7
370
    25
100
AcDbLine
 10
95.7736829517
 20
136.1047273146
 30
0.0
 11
95.7736829517
 21
137.479727249
 31
0.0
  0
LINE
  5
23D
330
1F
100
AcDbEntity
  8
0
  6
Continuous
 62
     7
370
    25
100
AcDbLine
 10
92.5236831175
 20
137.9797272727
 30
0.0
 11
95.7736829517
 21
136.1047273146
 31
0.0
  0
LINE
  5
23E
330
1F
100
AcDbEntity
  8
0
  6
Continuous
 62
     7
370
    25
100
AcDbLine
 10
95.7736829517
 20
139.8547272308
 30
0.0
 11
92.5236831175
 21
137.9797272727
 31
0.0
  0
LINE
  5
23F
330
1F
100
AcDbEntity
  8
0
  6
Continuous
 62
     7
370
    25
100
AcDbLine
 10
95.7736829517
 20
138.4797272965
 30
0.0
 11
95.7736829517
 21
139.8547272308
 31
0.0
  0
LINE
  5
240
330
1F
100
AcDbEntity
  8
0
  6
Continuous
 62
     7
370
    25
100
AcDbLine
 10
99.7736831417
 20
138.4797272965
 30
0.0
 11
95.7736829517
 21
138.4797272965
 31
0.0
  0
SPLINE
  5
241
330
1F
100
AcDbEntity
  8
0
  6
Continuous
 62
     7
370
    25
100
AcDbSpline
210
0.0
220
0.0
230
1.0
 70
     8
 71
     3
 72
    15
 73
    11
 74
     0
 42
0.000000001
 43
0.00000001
 40
0.0
 40
0.0
 40
0.0
 40
0.0
 40
0.0081668383054952
 40
0.3321938761999904
 40
0.4756273228308269
 40
0.6866812823106717
 40
0.8457414751284381
 40
0.8967552665950478
 40
0.9909530123461384
 40
1.0
 40
1.0
 40
1.0
 40
1.0
 10
102.8727025480413
 20
139.2297272447876
 30
0.0
 10
102.8731901117293
 20
139.2311647191111
 30
0.0
 10
102.8930222261085
 20
139.2896353474735
 30
0.0
 10
102.9213013944214
 20
139.374060614723
 30
0.0
 10
102.9591314189165
 20
139.488639803754
 30
0.0
 10
102.9857147185429
 20
139.5700107795259
 30
0.0
 10
103.0028855692864
 20
139.6230300085981
 30
0.0
 10
103.0107017949232
 20
139.6472315119897
 30
0.0
 10
103.0126969337385
 20
139.6534211932526
 30
0.0
 10
103.0127625879337
 20
139.65362270967
 30
0.0
 10
103.0127683409893
 20
139.6536403678737
 30
0.0
  0
ARC
  5
242
330
1F
100
AcDbEntity
  8
0
  6
Continuous
 62
     7
370
    25
100
AcDbCircle
 10
97.7736830467
 20
137.9797272727
 30
0.0
 40
5.250000000000009
100
AcDbArc
 50
13.774146998
 51
166.225853002
  0
SPLINE
  5
243
330
1F
100
AcDbEntity
  8
0
  6
Continuous
 62
     7
370
    25
100
AcDbSpline
210
0.0
220
0.0
230
1.0
 70
     8
 71
     3
 72
    15
 73
    11
 74
     0
 42
0.000000001
 43
0.00000001
 40
0.0
 40
0.0
 40
0.0
 40
0.0
 40
0.0090469876538617
 40
0.1032447334049523
 40
0.154258524871562
 40
0.3133187176893285
 40
0.5243726771691732
 40
0.6678061238000097
 40
0.9918331616945046
 40
1.0
 40
1.0
 40
1.0
 40
1.0
 10
92.53459775237677
 20
139.6536403678737
 30
0.0
 10
92.53460350543237
 20
139.65362270967
 30
0.0
 10
92.53466915962754
 20
139.6534211932526
 30
0.0
 10
92.53666429844284
 20
139.6472315119897
 30
0.0
 10
92.54448052407965
 20
139.6230300085981
 30
0.0
 10
92.56165137482317
 20
139.5700107795259
 30
0.0
 10
92.58823467444955
 20
139.488639803754
 30
0.0
 10
92.6260646989447
 20
139.374060614723
 30
0.0
 10
92.65434386725762
 20
139.2896353474735
 30
0.0
 10
92.67417598163682
 20
139.2311647191111
 30
0.0
 10
92.67466354532478
 20
139.2297272447876
 30
0.0
  0
ARC
  5
244
330
1F
100
AcDbEntity
  8
0
  6
Continuous
 62
     7
370
    25
100
AcDbCircle
 10
97.7736830467
 20
137.9797272727
 30
0.0
 40
5.500000000000015
100
AcDbArc
 50
17.7189318734
 51
162.2810681266
  0
SPLINE
  5
245
330
1F
100
AcDbEntity
  8
0
  6
Continuous
 62
     7
370
    25
100
AcDbSpline
210
0.0
220
0.0
230
1.0
 70
     8
 71
     3
 72
    15
 73
    11
 74
     0
 42
0.000000001
 43
0.00000001
 40
0.0
 40
0.0
 40
0.0
 40
0.0
 40
0.0089567810710515
 40
0.0999015980187534
 40
0.153165158793145
 40
0.3125652609533296
 40
0.5249671449940028
 40
0.6689892329688039
 40
0.9919155004242751
 40
1.0
 40
1.0
 40
1.0
 40
1.0
 10
92.29645763872502
 20
136.4797272596888
 30
0.0
 10
92.29647329561371
 20
136.4797380408137
 30
0.0
 10
92.29664792846326
 20
136.4798582906666
 30
0.0
 10
92.30207874312329
 20
136.4835769801907
 30
0.0
 10
92.32361244072881
 20
136.4982875665517
 30
0.0
 10
92.37131910313883
 20
136.5307366796509
 30
0.0
 10
92.44370966801142
 20
136.5793206645604
 30
0.0
 10
92.54562895632107
 20
136.6466918047323
 30
0.0
 10
92.62098500926628
 20
136.6955031411343
 30
0.0
 10
92.67338377487462
 20
136.7289113494271
 30
0.0
 10
92.67466354532478
 20
136.729727300667
 30
0.0
  0
SPLINE
  5
246
330
1F
100
AcDbEntity
  8
0
  6
Continuous
 62
     7
370
    25
100
AcDbSpline
210
0.0
220
0.0
230
1.0
 70
     8
 71
     3
 72
    15
 73
    11
 74
     0
 42
0.000000001
 43
0.00000001
 40
0.0
 40
0.0
 40
0.0
 40
0.0
 40
0.0081668383054952
 40
0.3321938761999904
 40
0.4756273228308269
 40
0.6866812823106717
 40
0.8457414751284381
 40
0.8967552665950478
 40
0.9909530123461384
 40
1.0
 40
1.0
 40
1.0
 40
1.0
 10
92.67466354532478
 20
136.729727300667
 30
0.0
 10
92.67417598163682
 20
136.7282898263435
 30
0.0
 10
92.6543438672576
 20
136.6698191979812
 30
0.0
 10
92.62606469894472
 20
136.5853939307316
 30
0.0
 10
92.58823467444955
 20
136.4708147417007
 30
0.0
 10
92.56165137482317
 20
136.3894437659288
 30
0.0
 10
92.54448052407963
 20
136.3364245368566
 30
0.0
 10
92.53666429844284
 20
136.3122230334649
 30
0.0
 10
92.53466915962754
 20
136.306033352202
 30
0.0
 10
92.53460350543237
 20
136.3058318357847
 30
0.0
 10
92.53459775237677
 20
136.3058141775809
 30
0.0
  0
ARC
  5
247
330
1F
100
AcDbEntity
  8
0
  6
Continuous
 62
     7
370
    25
100
AcDbCircle
 10
92.2964574716
 20
136.2297272727
 30
0.0
 40
0.25
100
AcDbArc
 50
17.7189318734
 51
90.0
  0
SPLINE
  5
248
330
1F
100
AcDbEntity
  8
0
  6
Continuous
 62
     7
370
    25
100
AcDbSpline
210
0.0
220
0.0
230
1.0
 70
     8
 71
     3
 72
    15
 73
    11
 74
     0
 42
0.000000001
 43
0.00000001
 40
0.0
 40
0.0
 40
0.0
 40
0.0
 40
0.0090469876538617
 40
0.1032447334049523
 40
0.154258524871562
 40
0.3133187176893285
 40
0.5243726771691732
 40
0.6678061238000097
 40
0.9918331616945046
 40
1.0
 40
1.0
 40
1.0
 40
1.0
 10
103.0127683409893
 20
136.3058141775809
 30
0.0
 10
103.0127625879337
 20
136.3058318357847
 30
0.0
 10
103.0126969337385
 20
136.306033352202
 30
0.0
 10
103.0107017949232
 20
136.3122230334649
 30
0.0
 10
103.0028855692864
 20
136.3364245368566
 30
0.0
 10
102.9857147185429
 20
136.3894437659288
 30
0.0
 10
102.9591314189165
 20
136.4708147417007
 30
0.0
 10
102.9213013944214
 20
136.5853939307316
 30
0.0
 10
102.8930222261085
 20
136.6698191979812
 30
0.0
 10
102.8731901117293
 20
136.7282898263435
 30
0.0
 10
102.8727025480413
 20
136.729727300667
 30
0.0
  0
SPLINE
  5
249
330
1F
100
AcDbEntity
  8
0
  6
Continuous
 62
     7
370
    25
100
AcDbSpline
210
0.0
220
0.0
230
1.0
 70
     8
 71
     3
 72
    15
 73
    11
 74
     0
 42
0.000000001
 43
0.00000001
 40
0.0
 40
0.0
 40
0.0
 40
0.0
 40
0.0080844995757249
 40
0.3310107670311961
 40
0.4750328550059972
 40
0.6874347390466703
 40
0.846834841206855
 40
0.9000984019812466
 40
0.9910432189289485
 40
1.0
 40
1.0
 40
1.0
 40
1.0
 10
102.8727025480413
 20
136.729727300667
 30
0.0
 10
102.8739823184915
 20
136.7289113494271
 30
0.0
 10
102.9263810840998
 20
136.6955031411343
 30
0.0
 10
103.001737137045
 20
136.6466918047323
 30
0.0
 10
103.1036564253547
 20
136.5793206645604
 30
0.0
 10
103.1760469902272
 20
136.5307366796509
 30
0.0
 10
103.2237536526373
 20
136.4982875665517
 30
0.0
 10
103.2452873502428
 20
136.4835769801907
 30
0.0
 10
103.2507181649028
 20
136.4798582906666
 30
0.0
 10
103.2508927977524
 20
136.4797380408137
 30
0.0
 10
103.2509084546411
 20
136.4797272596888
 30
0.0
  0
ARC
  5
24A
330
1F
100
AcDbEntity
  8
0
  6
Continuous
 62
     7
370
    25
100
AcDbCircle
 10
103.2509086217
 20
136.2297272727
 30
0.0
 40
0.2500000000000077
100
AcDbArc
 50
90.0
 51
162.2810681266
  0
ARC
  5
24B
330
1F
100
AcDbEntity
  8
0
  6
Continuous
 62
     7
370
    25
100
AcDbCircle
 10
92.2964574716
 20
139.7297272727
 30
0.0
 40
0.25
100
AcDbArc
 50
270.0
 51
342.2810681266
  0
SPLINE
  5
24C
330
1F
100
AcDbEntity
  8
0
  6
Continuous
 62
     7
370
    25
100
AcDbSpline
210
0.0
220
0.0
230
1.0
 70
     8
 71
     3
 72
    15
 73
    11
 74
     0
 42
0.000000001
 43
0.00000001
 40
0.0
 40
0.0
 40
0.0
 40
0.0
 40
0.0080844995757249
 40
0.3310107670311961
 40
0.4750328550059972
 40
0.6874347390466703
 40
0.846834841206855
 40
0.9000984019812466
 40
0.9910432189289485
 40
1.0
 40
1.0
 40
1.0
 40
1.0
 10
92.67466354532478
 20
139.2297272447876
 30
0.0
 10
92.67338377487462
 20
139.2305431960275
 30
0.0
 10
92.62098500926628
 20
139.2639514043204
 30
0.0
 10
92.54562895632107
 20
139.3127627407223
 30
0.0
 10
92.44370966801142
 20
139.3801338808943
 30
0.0
 10
92.37131910313883
 20
139.4287178658037
 30
0.0
 10
92.32361244072882
 20
139.461166978903
 30
0.0
 10
92.30207874312329
 20
139.4758775652639
 30
0.0
 10
92.29664792846326
 20
139.4795962547881
 30
0.0
 10
92.29647329561371
 20
139.4797165046409
 30
0.0
 10
92.29645763872502
 20
139.4797272857658
 30
0.0
  0
ARC
  5
24D
330
1F
100
AcDbEntity
  8
0
  6
Continuous
 62
     7
370
    25
100
AcDbCircle
 10
103.2509086217
 20
139.7297272727
 30
0.0
 40
0.25
100
AcDbArc
 50
197.7189318734
 51
270.0
  0
SPLINE
  5
24E
330
1F
100
AcDbEntity
  8
0
  6
Continuous
 62
     7
370
    25
100
AcDbSpline
210
0.0
220
0.0
230
1.0
 70
     8
 71
     3
 72
    15
 73
    11
 74
     0
 42
0.000000001
 43
0.00000001
 40
0.0
 40
0.0
 40
0.0
 40
0.0
 40
0.0089567810710515
 40
0.0999015980187534
 40
0.153165158793145
 40
0.3125652609533296
 40
0.5249671449940028
 40
0.6689892329688039
 40
0.9919155004242751
 40
1.0
 40
1.0
 40
1.0
 40
1.0
 10
103.2509084546411
 20
139.4797272857658
 30
0.0
 10
103.2508927977524
 20
139.4797165046409
 30
0.0
 10
103.2507181649028
 20
139.4795962547881
 30
0.0
 10
103.2452873502428
 20
139.4758775652639
 30
0.0
 10
103.2237536526373
 20
139.461166978903
 30
0.0
 10
103.1760469902272
 20
139.4287178658037
 30
0.0
 10
103.1036564253547
 20
139.3801338808943
 30
0.0
 10
103.001737137045
 20
139.3127627407223
 30
0.0
 10
102.9263810840998
 20
139.2639514043204
 30
0.0
 10
102.8739823184915
 20
139.2305431960275
 30
0.0
 10
102.8727025480413
 20
139.2297272447876
 30
0.0
  0
ARC
  5
24F
330
1F
100
AcDbEntity
  8
0
  6
Continuous
 62
     7
370
    25
100
AcDbCircle
 10
97.7736830467
 20
137.9797272727
 30
0.0
 40
5.500000000000007
100
AcDbArc
 50
197.7189318734
 51
342.2810681266
  0
ARC
  5
250
330
1F
100
AcDbEntity
  8
0
  6
Continuous
 62
     7
370
    25
100
AcDbCircle
 10
97.7736830467
 20
137.9797272727
 30
0.0
 40
5.250000000000009
100
AcDbArc
 50
193.774146998
 51
346.225853002
  0
LINE
  5
251
330
1F
100
AcDbEntity
  8
0
  6
Continuous
 62
     7
370
    25
100
AcDbLine
 10
103.5236830579
 20
139.2297272448
 30
0.0
 11
102.872702548
 21
139.2297272448
 31
0.0
  0
LINE
  5
252
330
1F
100
AcDbEntity
  8
0
  6
Continuous
 62
     7
370
    25
100
AcDbLine
 10
103.5236830579
 20
136.7297273007
 30
0.0
 11
103.5236830579
 21
139.2297272448
 31
0.0
  0
LINE
  5
253
330
1F
100
AcDbEntity
  8
0
  6
Continuous
 62
     7
370
    25
100
AcDbLine
 10
102.872702548
 20
136.7297273007
 30
0.0
 11
103.5236830579
 21
136.7297273007
 31
0.0
  0
LINE
  5
254
330
1F
100
AcDbEntity
  8
0
  6
Continuous
 62
     7
370
    25
100
AcDbLine
 10
92.0236830355
 20
136.7297273007
 30
0.0
 11
92.6746635453
 21
136.7297273007
 31
0.0
  0
LINE
  5
255
330
1F
100
AcDbEntity
  8
0
  6
Continuous
 62
     7
370
    25
100
AcDbLine
 10
92.0236830355
 20
139.2297272448
 30
0.0
 11
92.0236830355
 21
136.7297273007
 31
0.0
  0
LINE
  5
256
330
1F
100
AcDbEntity
  8
0
  6
Continuous
 62
     7
370
    25
100
AcDbLine
 10
92.6746635453
 20
139.2297272448
 30
0.0
 11
92.0236830355
 21
139.2297272448
 31
0.0
  0
LINE
  5
257
330
1F
100
AcDbEntity
  8
0
  6
Continuous
 62
     7
370
    25
100
AcDbLine
 10
103.2509084546
 20
139.4797272858
 30
0.0
 11
103.4798200929
 21
139.4797272858
 31
0.0
  0
LINE
  5
258
330
1F
100
AcDbEntity
  8
0
  6
Continuous
 62
     7
370
    25
100
AcDbLine
 10
92.0675460005
 20
139.4797272858
 30
0.0
 11
92.2964576387
 21
139.4797272858
 31
0.0
  0
LINE
  5
259
330
1F
100
AcDbEntity
  8
0
  6
Continuous
 62
     7
370
    25
100
AcDbLine
 10
103.4798200929
 20
136.4797272597
 30
0.0
 11
103.2509084546
 21
136.4797272597
 31
0.0
  0
LINE
  5
25A
330
1F
100
AcDbEntity
  8
0
  6
Continuous
 62
     7
370
    25
100
AcDbLine
 10
92.2964576387
 20
136.4797272597
 30
0.0
 11
92.0675460005
 21
136.4797272597
 31
0.0
  0
ARC
  5
25B
330
1F
100
AcDbEntity
  8
0
  6
Continuous
 62
     7
370
    25
100
AcDbCircle
 10
97.7736830467
 20
137.9797272727
 30
0.0
 40
8.800000000000013
100
AcDbArc
 50
81.0
 51
87.0
  0
LINE
  5
25C
330
1F
100
AcDbEntity
  8
0
  6
Continuous
 62
     7
370
    25
100
AcDbLine
 10
98.2342394639
 20
146.767667529
 30
0.0
 11
98.7144392205
 21
146.9304245308
 31
0.0
  0
LINE
  5
25D
330
1F
100
AcDbEntity
  8
0
  6
Continuous
 62
     7
370
    25
100
AcDbLine
 10
98.7144392205
 20
146.9304245308
 30
0.0
 11
99.1503063345
 21
146.6713846073
 31
0.0
  0
ARC
  5
25E
330
1F
100
AcDbEntity
  8
0
  6
Continuous
 62
     7
370
    25
100
AcDbCircle
 10
97.7736830467
 20
137.9797272727
 30
0.0
 40
8.800000000000013
100
AcDbArc
 50
87.0
 51
93.0
  0
LINE
  5
25F
330
1F
100
AcDbEntity
  8
0
  6
Continuous
 62
     7
370
    25
100
AcDbLine
 10
97.7736830467
 20
146.9797268853
 30
0.0
 11
98.2342394639
 21
146.767667529
 31
0.0
  0
LINE
  5
260
330
1F
100
AcDbEntity
  8
0
  6
Continuous
 62
     7
370
    25
100
AcDbLine
 10
97.3131266294
 20
146.767667529
 30
0.0
 11
97.7736830467
 21
146.9797268853
 31
0.0
  0
ARC
  5
261
330
1F
100
AcDbEntity
  8
0
  6
Continuous
 62
     7
370
    25
100
AcDbCircle
 10
97.7736830467
 20
137.9797272727
 30
0.0
 40
8.800000000000011
100
AcDbArc
 50
93.0
 51
99.0
  0
LINE
  5
262
330
1F
100
AcDbEntity
  8
0
  6
Continuous
 62
     7
370
    25
100
AcDbLine
 10
96.3970597589
 20
146.6713846073
 30
0.0
 11
96.8329268729
 21
146.9304245308
 31
0.0
  0
LINE
  5
263
330
1F
100
AcDbEntity
  8
0
  6
Continuous
 62
     7
370
    25
100
AcDbLine
 10
96.8329268729
 20
146.9304245308
 30
0.0
 11
97.3131266294
 21
146.767667529
 31
0.0
  0
ARC
  5
264
330
1F
100
AcDbEntity
  8
0
  6
Continuous
 62
     7
370
    25
100
AcDbCircle
 10
97.7736830467
 20
137.9797272727
 30
0.0
 40
8.800000000000011
100
AcDbArc
 50
99.0
 51
105.0
  0
LINE
  5
265
330
1F
100
AcDbEntity
  8
0
  6
Continuous
 62
     7
370
    25
100
AcDbLine
 10
95.4960754828
 20
146.4798748836
 30
0.0
 11
95.9024778788
 21
146.7830557719
 31
0.0
  0
LINE
  5
266
330
1F
100
AcDbEntity
  8
0
  6
Continuous
 62
     7
370
    25
100
AcDbLine
 10
95.9024778788
 20
146.7830557719
 30
0.0
 11
96.3970597589
 21
146.6713846073
 31
0.0
  0
ARC
  5
267
330
1F
100
AcDbEntity
  8
0
  6
Continuous
 62
     7
370
    25
100
AcDbCircle
 10
97.7736830467
 20
137.9797272727
 30
0.0
 40
8.800000000000011
100
AcDbArc
 50
105.0
 51
111.0
  0
LINE
  5
268
330
1F
100
AcDbEntity
  8
0
  6
Continuous
 62
     7
370
    25
100
AcDbLine
 10
94.6200450638
 20
146.1952347652
 30
0.0
 11
94.9925300886
 21
146.5392355219
 31
0.0
  0
LINE
  5
269
330
1F
100
AcDbEntity
  8
0
  6
Continuous
 62
     7
370
    25
100
AcDbLine
 10
94.9925300886
 20
146.5392355219
 30
0.0
 11
95.4960754828
 21
146.4798748836
 31
0.0
  0
ARC
  5
26A
330
1F
100
AcDbEntity
  8
0
  6
Continuous
 62
     7
370
    25
100
AcDbCircle
 10
97.7736830467
 20
137.9797272727
 30
0.0
 40
8.80000000000001
100
AcDbArc
 50
69.0
 51
75.0
  0
LINE
  5
26B
330
1F
100
AcDbEntity
  8
0
  6
Continuous
 62
     7
370
    25
100
AcDbLine
 10
100.0512906106
 20
146.4798748836
 30
0.0
 11
100.5548360047
 21
146.5392355219
 31
0.0
  0
LINE
  5
26C
330
1F
100
AcDbEntity
  8
0
  6
Continuous
 62
     7
370
    25
100
AcDbLine
 10
100.5548360047
 20
146.5392355219
 30
0.0
 11
100.9273210296
 21
146.1952347652
 31
0.0
  0
ARC
  5
26D
330
1F
100
AcDbEntity
  8
0
  6
Continuous
 62
     7
370
    25
100
AcDbCircle
 10
97.7736830467
 20
137.9797272727
 30
0.0
 40
8.800000000000008
100
AcDbArc
 50
75.0
 51
81.0
  0
LINE
  5
26E
330
1F
100
AcDbEntity
  8
0
  6
Continuous
 62
     7
370
    25
100
AcDbLine
 10
99.1503063345
 20
146.6713846073
 30
0.0
 11
99.6448882145
 21
146.7830557719
 31
0.0
  0
LINE
  5
26F
330
1F
100
AcDbEntity
  8
0
  6
Continuous
 62
     7
370
    25
100
AcDbLine
 10
99.6448882145
 20
146.7830557719
 30
0.0
 11
100.0512906106
 21
146.4798748836
 31
0.0
  0
CIRCLE
  5
270
330
1F
100
AcDbEntity
  8
0
  6
Continuous
 62
     7
370
    25
100
AcDbCircle
 10
97.7736830467
 20
137.9797272727
 30
0.0
 40
6.099999999999994
  0
ARC
  5
271
330
1F
100
AcDbEntity
  8
0
  6
Continuous
 62
     7
370
    25
100
AcDbCircle
 10
97.7736830467
 20
137.9797272727
 30
0.0
 40
8.799999999999992
100
AcDbArc
 50
267.0
 51
273.0
  0
ARC
  5
272
330
1F
100
AcDbEntity
  8
0
  6
Continuous
 62
     7
370
    25
100
AcDbCircle
 10
97.7736830467
 20
137.9797272727
 30
0.0
 40
8.8
100
AcDbArc
 50
261.0
 51
267.0
  0
ARC
  5
273
330
1F
100
AcDbEntity
  8
0
  6
Continuous
 62
     7
370
    25
100
AcDbCircle
 10
97.7736830467
 20
137.9797272727
 30
0.0
 40
8.8
100
AcDbArc
 50
255.0
 51
261.0
  0
ARC
  5
274
330
1F
100
AcDbEntity
  8
0
  6
Continuous
 62
     7
370
    25
100
AcDbCircle
 10
97.7736830467
 20
137.9797272727
 30
0.0
 40
8.799999999999983
100
AcDbArc
 50
249.0
 51
255.0
  0
ARC
  5
275
330
1F
100
AcDbEntity
  8
0
  6
Continuous
 62
     7
370
    25
100
AcDbCircle
 10
97.7736830467
 20
137.9797272727
 30
0.0
 40
8.799999999999983
100
AcDbArc
 50
243.0
 51
249.0
  0
ARC
  5
276
330
1F
100
AcDbEntity
  8
0
  6
Continuous
 62
     7
370
    25
100
AcDbCircle
 10
97.7736830467
 20
137.9797272727
 30
0.0
 40
8.799999999999986
100
AcDbArc
 50
237.0
 51
243.0
  0
ARC
  5
277
330
1F
100
AcDbEntity
  8
0
  6
Continuous
 62
     7
370
    25
100
AcDbCircle
 10
97.7736830467
 20
137.9797272727
 30
0.0
 40
8.799999999999986
100
AcDbArc
 50
231.0
 51
237.0
  0
ARC
  5
278
330
1F
100
AcDbEntity
  8
0
  6
Continuous
 62
     7
370
    25
100
AcDbCircle
 10
97.7736830467
 20
137.9797272727
 30
0.0
 40
8.799999999999986
100
AcDbArc
 50
225.0
 51
231.0
  0
ARC
  5
279
330
1F
100
AcDbEntity
  8
0
  6
Continuous
 62
     7
370
    25
100
AcDbCircle
 10
97.7736830467
 20
137.9797272727
 30
0.0
 40
8.79999999999999
100
AcDbArc
 50
219.0
 51
225.0
  0
ARC
  5
27A
330
1F
100
AcDbEntity
  8
0
  6
Continuous
 62
     7
370
    25
100
AcDbCircle
 10
97.7736830467
 20
137.9797272727
 30
0.0
 40
8.79999999999999
100
AcDbArc
 50
213.0
 51
219.0
  0
ARC
  5
27B
330
1F
100
AcDbEntity
  8
0
  6
Continuous
 62
     7
370
    25
100
AcDbCircle
 10
97.7736830467
 20
137.9797272727
 30
0.0
 40
8.79999999999999
100
AcDbArc
 50
207.0
 51
213.0
  0
ARC
  5
27C
330
1F
100
AcDbEntity
  8
0
  6
Continuous
 62
     7
370
    25
100
AcDbCircle
 10
97.7736830467
 20
137.9797272727
 30
0.0
 40
8.799999999999992
100
AcDbArc
 50
201.0
 51
207.0
  0
ARC
  5
27D
330
1F
100
AcDbEntity
  8
0
  6
Continuous
 62
     7
370
    25
100
AcDbCircle
 10
97.7736830467
 20
137.9797272727
 30
0.0
 40
8.799999999999995
100
AcDbArc
 50
195.0
 51
201.0
  0
ARC
  5
27E
330
1F
100
AcDbEntity
  8
0
  6
Continuous
 62
     7
370
    25
100
AcDbCircle
 10
97.7736830467
 20
137.9797272727
 30
0.0
 40
8.8
100
AcDbArc
 50
189.0
 51
195.0
  0
ARC
  5
27F
330
1F
100
AcDbEntity
  8
0
  6
Continuous
 62
     7
370
    25
100
AcDbCircle
 10
97.7736830467
 20
137.9797272727
 30
0.0
 40
8.8
100
AcDbArc
 50
183.0
 51
189.0
  0
ARC
  5
280
330
1F
100
AcDbEntity
  8
0
  6
Continuous
 62
     7
370
    25
100
AcDbCircle
 10
97.7736830467
 20
137.9797272727
 30
0.0
 40
8.799999999999995
100
AcDbArc
 50
177.0
 51
183.0
  0
ARC
  5
281
330
1F
100
AcDbEntity
  8
0
  6
Continuous
 62
     7
370
    25
100
AcDbCircle
 10
97.7736830467
 20
137.9797272727
 30
0.0
 40
8.800000000000004
100
AcDbArc
 50
171.0
 51
177.0
  0
ARC
  5
282
330
1F
100
AcDbEntity
  8
0
  6
Continuous
 62
     7
370
    25
100
AcDbCircle
 10
97.7736830467
 20
137.9797272727
 30
0.0
 40
8.800000000000004
100
AcDbArc
 50
165.0
 51
171.0
  0
ARC
  5
283
330
1F
100
AcDbEntity
  8
0
  6
Continuous
 62
     7
370
    25
100
AcDbCircle
 10
97.7736830467
 20
137.9797272727
 30
0.0
 40
8.800000000000002
100
AcDbArc
 50
159.0
 51
165.0
  0
ARC
  5
284
330
1F
100
AcDbEntity
  8
0
  6
Continuous
 62
     7
370
    25
100
AcDbCircle
 10
97.7736830467
 20
137.9797272727
 30
0.0
 40
8.800000000000002
100
AcDbArc
 50
153.0
 51
159.0
  0
ARC
  5
285
330
1F
100
AcDbEntity
  8
0
  6
Continuous
 62
     7
370
    25
100
AcDbCircle
 10
97.7736830467
 20
137.9797272727
 30
0.0
 40
8.8
100
AcDbArc
 50
147.0
 51
153.0
  0
ARC
  5
286
330
1F
100
AcDbEntity
  8
0
  6
Continuous
 62
     7
370
    25
100
AcDbCircle
 10
97.7736830467
 20
137.9797272727
 30
0.0
 40
8.800000000000026
100
AcDbArc
 50
141.0
 51
147.0
  0
ARC
  5
287
330
1F
100
AcDbEntity
  8
0
  6
Continuous
 62
     7
370
    25
100
AcDbCircle
 10
97.7736830467
 20
137.9797272727
 30
0.0
 40
8.800000000000026
100
AcDbArc
 50
135.0
 51
141.0
  0
ARC
  5
288
330
1F
100
AcDbEntity
  8
0
  6
Continuous
 62
     7
370
    25
100
AcDbCircle
 10
97.7736830467
 20
137.9797272727
 30
0.0
 40
8.8
100
AcDbArc
 50
129.0
 51
135.0
  0
ARC
  5
289
330
1F
100
AcDbEntity
  8
0
  6
Continuous
 62
     7
370
    25
100
AcDbCircle
 10
97.7736830467
 20
137.9797272727
 30
0.0
 40
8.800000000000024
100
AcDbArc
 50
123.0
 51
129.0
  0
ARC
  5
28A
330
1F
100
AcDbEntity
  8
0
  6
Continuous
 62
     7
370
    25
100
AcDbCircle
 10
97.7736830467
 20
137.9797272727
 30
0.0
 40
8.800000000000024
100
AcDbArc
 50
117.0
 51
123.0
  0
ARC
  5
28B
330
1F
100
AcDbEntity
  8
0
  6
Continuous
 62
     7
370
    25
100
AcDbCircle
 10
97.7736830467
 20
137.9797272727
 30
0.0
 40
8.800000000000011
100
AcDbArc
 50
111.0
 51
117.0
  0
ARC
  5
28C
330
1F
100
AcDbEntity
  8
0
  6
Continuous
 62
     7
370
    25
100
AcDbCircle
 10
97.7736830467
 20
137.9797272727
 30
0.0
 40
8.80000000000001
100
AcDbArc
 50
63.0
 51
69.0
  0
ARC
  5
28D
330
1F
100
AcDbEntity
  8
0
  6
Continuous
 62
     7
370
    25
100
AcDbCircle
 10
97.7736830467
 20
137.9797272727
 30
0.0
 40
8.800000000000018
100
AcDbArc
 50
57.0
 51
63.0
  0
ARC
  5
28E
330
1F
100
AcDbEntity
  8
0
  6
Continuous
 62
     7
370
    25
100
AcDbCircle
 10
97.7736830467
 20
137.9797272727
 30
0.0
 40
8.800000000000018
100
AcDbArc
 50
51.0
 51
57.0
  0
ARC
  5
28F
330
1F
100
AcDbEntity
  8
0
  6
Continuous
 62
     7
370
    25
100
AcDbCircle
 10
97.7736830467
 20
137.9797272727
 30
0.0
 40
8.80000000000001
100
AcDbArc
 50
45.0
 51
51.0
  0
ARC
  5
290
330
1F
100
AcDbEntity
  8
0
  6
Continuous
 62
     7
370
    25
100
AcDbCircle
 10
97.7736830467
 20
137.9797272727
 30
0.0
 40
8.800000000000011
100
AcDbArc
 50
39.0
 51
45.0
  0
ARC
  5
291
330
1F
100
AcDbEntity
  8
0
  6
Continuous
 62
     7
370
    25
100
AcDbCircle
 10
97.7736830467
 20
137.9797272727
 30
0.0
 40
8.800000000000011
100
AcDbArc
 50
33.0
 51
39.0
  0
ARC
  5
292
330
1F
100
AcDbEntity
  8
0
  6
Continuous
 62
     7
370
    25
100
AcDbCircle
 10
97.7736830467
 20
137.9797272727
 30
0.0
 40
8.800000000000002
100
AcDbArc
 50
27.0
 51
33.0
  0
ARC
  5
293
330
1F
100
AcDbEntity
  8
0
  6
Continuous
 62
     7
370
    25
100
AcDbCircle
 10
97.7736830467
 20
137.9797272727
 30
0.0
 40
8.799999999999988
100
AcDbArc
 50
21.0
 51
27.0
  0
ARC
  5
294
330
1F
100
AcDbEntity
  8
0
  6
Continuous
 62
     7
370
    25
100
AcDbCircle
 10
97.7736830467
 20
137.9797272727
 30
0.0
 40
8.799999999999992
100
AcDbArc
 50
15.0
 51
21.0
  0
ARC
  5
295
330
1F
100
AcDbEntity
  8
0
  6
Continuous
 62
     7
370
    25
100
AcDbCircle
 10
97.7736830467
 20
137.9797272727
 30
0.0
 40
8.799999999999992
100
AcDbArc
 50
9.0
 51
15.0
  0
ARC
  5
296
330
1F
100
AcDbEntity
  8
0
  6
Continuous
 62
     7
370
    25
100
AcDbCircle
 10
97.7736830467
 20
137.9797272727
 30
0.0
 40
8.799999999999992
100
AcDbArc
 50
3.0
 51
9.0
  0
ARC
  5
297
330
1F
100
AcDbEntity
  8
0
  6
Continuous
 62
     7
370
    25
100
AcDbCircle
 10
97.7736830467
 20
137.9797272727
 30
0.0
 40
8.799999999999992
100
AcDbArc
 50
357.0
 51
3.0
  0
ARC
  5
298
330
1F
100
AcDbEntity
  8
0
  6
Continuous
 62
     7
370
    25
100
AcDbCircle
 10
97.7736830467
 20
137.9797272727
 30
0.0
 40
8.799999999999985
100
AcDbArc
 50
351.0
 51
357.0
  0
ARC
  5
299
330
1F
100
AcDbEntity
  8
0
  6
Continuous
 62
     7
370
    25
100
AcDbCircle
 10
97.7736830467
 20
137.9797272727
 30
0.0
 40
8.799999999999988
100
AcDbArc
 50
345.0
 51
351.0
  0
ARC
  5
29A
330
1F
100
AcDbEntity
  8
0
  6
Continuous
 62
     7
370
    25
100
AcDbCircle
 10
97.7736830467
 20
137.9797272727
 30
0.0
 40
8.799999999999988
100
AcDbArc
 50
339.0
 51
345.0
  0
ARC
  5
29B
330
1F
100
AcDbEntity
  8
0
  6
Continuous
 62
     7
370
    25
100
AcDbCircle
 10
97.7736830467
 20
137.9797272727
 30
0.0
 40
8.799999999999981
100
AcDbArc
 50
333.0
 51
339.0
  0
ARC
  5
29C
330
1F
100
AcDbEntity
  8
0
  6
Continuous
 62
     7
370
    25
100
AcDbCircle
 10
97.7736830467
 20
137.9797272727
 30
0.0
 40
8.799999999999986
100
AcDbArc
 50
327.0
 51
333.0
  0
ARC
  5
29D
330
1F
100
AcDbEntity
  8
0
  6
Continuous
 62
     7
370
    25
100
AcDbCircle
 10
97.7736830467
 20
137.9797272727
 30
0.0
 40
8.799999999999986
100
AcDbArc
 50
321.0
 51
327.0
  0
ARC
  5
29E
330
1F
100
AcDbEntity
  8
0
  6
Continuous
 62
     7
370
    25
100
AcDbCircle
 10
97.7736830467
 20
137.9797272727
 30
0.0
 40
8.799999999999992
100
AcDbArc
 50
315.0
 51
321.0
  0
ARC
  5
29F
330
1F
100
AcDbEntity
  8
0
  6
Continuous
 62
     7
370
    25
100
AcDbCircle
 10
97.7736830467
 20
137.9797272727
 30
0.0
 40
8.799999999999992
100
AcDbArc
 50
309.0
 51
315.0
  0
ARC
  5
2A0
330
1F
100
AcDbEntity
  8
0
  6
Continuous
 62
     7
370
    25
100
AcDbCircle
 10
97.7736830467
 20
137.9797272727
 30
0.0
 40
8.799999999999978
100
AcDbArc
 50
303.0
 51
309.0
  0
ARC
  5
2A1
330
1F
100
AcDbEntity
  8
0
  6
Continuous
 62
     7
370
    25
100
AcDbCircle
 10
97.7736830467
 20
137.9797272727
 30
0.0
 40
8.799999999999978
100
AcDbArc
 50
297.0
 51
303.0
  0
ARC
  5
2A2
330
1F
100
AcDbEntity
  8
0
  6
Continuous
 62
     7
370
    25
100
AcDbCircle
 10
97.7736830467
 20
137.9797272727
 30
0.0
 40
8.799999999999967
100
AcDbArc
 50
291.0
 51
297.0
  0
ARC
  5
2A3
330
1F
100
AcDbEntity
  8
0
  6
Continuous
 62
     7
370
    25
100
AcDbCircle
 10
97.7736830467
 20
137.9797272727
 30
0.0
 40
8.799999999999988
100
AcDbArc
 50
285.0
 51
291.0
  0
ARC
  5
2A4
330
1F
100
AcDbEntity
  8
0
  6
Continuous
 62
     7
370
    25
100
AcDbCircle
 10
97.7736830467
 20
137.9797272727
 30
0.0
 40
8.799999999999988
100
AcDbArc
 50
279.0
 51
285.0
  0
ARC
  5
2A5
330
1F
100
AcDbEntity
  8
0
  6
Continuous
 62
     7
370
    25
100
AcDbCircle
 10
97.7736830467
 20
137.9797272727
 30
0.0
 40
8.799999999999978
100
AcDbArc
 50
273.0
 51
279.0
  0
LINE
  5
2A6
330
1F
100
AcDbEntity
  8
0
  6
Continuous
 62
     7
370
    25
100
AcDbLine
 10
101.7687993811
 20
145.8205851138
 30
0.0
 11
102.273682853
 21
145.7739561208
 31
0.0
  0
LINE
  5
2A7
330
1F
100
AcDbEntity
  8
0
  6
Continuous
 62
     7
370
    25
100
AcDbLine
 10
102.273682853
 20
145.7739561208
 30
0.0
 11
102.5665065029
 21
145.3600284055
 31
0.0
  0
LINE
  5
2A8
330
1F
100
AcDbEntity
  8
0
  6
Continuous
 62
     7
370
    25
100
AcDbLine
 10
100.9273210296
 20
146.1952347652
 30
0.0
 11
101.4343127829
 21
146.2016366765
 31
0.0
  0
LINE
  5
2A9
330
1F
100
AcDbEntity
  8
0
  6
Continuous
 62
     7
370
    25
100
AcDbLine
 10
101.4343127829
 20
146.2016366765
 30
0.0
 11
101.7687993811
 21
145.8205851138
 31
0.0
  0
LINE
  5
2AA
330
1F
100
AcDbEntity
  8
0
  6
Continuous
 62
     7
370
    25
100
AcDbLine
 10
93.7785667123
 20
145.8205851138
 30
0.0
 11
94.1130533104
 21
146.2016366765
 31
0.0
  0
LINE
  5
2AB
330
1F
100
AcDbEntity
  8
0
  6
Continuous
 62
     7
370
    25
100
AcDbLine
 10
94.1130533104
 20
146.2016366765
 30
0.0
 11
94.6200450638
 21
146.1952347652
 31
0.0
  0
LINE
  5
2AC
330
1F
100
AcDbEntity
  8
0
  6
Continuous
 62
     7
370
    25
100
AcDbLine
 10
92.9808595905
 20
145.3600284055
 30
0.0
 11
93.2736832404
 21
145.7739561208
 31
0.0
  0
LINE
  5
2AD
330
1F
100
AcDbEntity
  8
0
  6
Continuous
 62
     7
370
    25
100
AcDbLine
 10
93.2736832404
 20
145.7739561208
 30
0.0
 11
93.7785667123
 21
145.8205851138
 31
0.0
  0
LINE
  5
2AE
330
1F
100
AcDbEntity
  8
0
  6
Continuous
 62
     7
370
    25
100
AcDbLine
 10
103.3117023983
 20
144.818611943
 30
0.0
 11
103.795858355
 21
144.6680305869
 31
0.0
  0
LINE
  5
2AF
330
1F
100
AcDbEntity
  8
0
  6
Continuous
 62
     7
370
    25
100
AcDbLine
 10
103.795858355
 20
144.6680305869
 30
0.0
 11
103.996222628
 21
144.2022668541
 31
0.0
  0
LINE
  5
2B0
330
1F
100
AcDbEntity
  8
0
  6
Continuous
 62
     7
370
    25
100
AcDbLine
 10
103.0637503357
 20
145.2608802699
 30
0.0
 11
103.3117023983
 21
144.818611943
 31
0.0
  0
LINE
  5
2B1
330
1F
100
AcDbEntity
  8
0
  6
Continuous
 62
     7
370
    25
100
AcDbLine
 10
102.5665065029
 20
145.3600284055
 30
0.0
 11
103.0637503357
 21
145.2608802699
 31
0.0
  0
LINE
  5
2B2
330
1F
100
AcDbEntity
  8
0
  6
Continuous
 62
     7
370
    25
100
AcDbLine
 10
92.4836157577
 20
145.2608802699
 30
0.0
 11
92.9808595905
 21
145.3600284055
 31
0.0
  0
LINE
  5
2B3
330
1F
100
AcDbEntity
  8
0
  6
Continuous
 62
     7
370
    25
100
AcDbLine
 10
92.235663695
 20
144.818611943
 30
0.0
 11
92.4836157577
 21
145.2608802699
 31
0.0
  0
LINE
  5
2B4
330
1F
100
AcDbEntity
  8
0
  6
Continuous
 62
     7
370
    25
100
AcDbLine
 10
91.7515077384
 20
144.6680305869
 30
0.0
 11
92.235663695
 21
144.818611943
 31
0.0
  0
LINE
  5
2B5
330
1F
100
AcDbEntity
  8
0
  6
Continuous
 62
     7
370
    25
100
AcDbLine
 10
91.5511434653
 20
144.2022668541
 30
0.0
 11
91.7515077384
 21
144.6680305869
 31
0.0
  0
LINE
  5
2B6
330
1F
100
AcDbEntity
  8
0
  6
Continuous
 62
     7
370
    25
100
AcDbLine
 10
105.0548360438
 20
143.2697945618
 30
0.0
 11
105.1539841795
 21
142.772550729
 31
0.0
  0
LINE
  5
2B7
330
1F
100
AcDbEntity
  8
0
  6
Continuous
 62
     7
370
    25
100
AcDbLine
 10
104.612567717
 20
143.5177466244
 30
0.0
 11
105.0548360438
 21
143.2697945618
 31
0.0
  0
LINE
  5
2B8
330
1F
100
AcDbEntity
  8
0
  6
Continuous
 62
     7
370
    25
100
AcDbLine
 10
104.4619863608
 20
144.001902581
 30
0.0
 11
104.612567717
 21
143.5177466244
 31
0.0
  0
LINE
  5
2B9
330
1F
100
AcDbEntity
  8
0
  6
Continuous
 62
     7
370
    25
100
AcDbLine
 10
103.996222628
 20
144.2022668541
 30
0.0
 11
104.4619863608
 21
144.001902581
 31
0.0
  0
LINE
  5
2BA
330
1F
100
AcDbEntity
  8
0
  6
Continuous
 62
     7
370
    25
100
AcDbLine
 10
90.9347983764
 20
143.5177466244
 30
0.0
 11
91.0853797325
 21
144.001902581
 31
0.0
  0
LINE
  5
2BB
330
1F
100
AcDbEntity
  8
0
  6
Continuous
 62
     7
370
    25
100
AcDbLine
 10
91.0853797325
 20
144.001902581
 30
0.0
 11
91.5511434653
 21
144.2022668541
 31
0.0
  0
ARC
  5
2BC
330
1F
100
AcDbEntity
  8
0
  6
Continuous
 62
     7
370
    25
100
AcDbCircle
 10
97.7736830467
 20
137.9797272727
 30
0.0
 40
5.900000000000005
100
AcDbArc
 50
270.0
 51
345.2716043991
  0
ARC
  5
2BD
330
1F
100
AcDbEntity
  8
0
  6
Continuous
 62
     7
370
    25
100
AcDbCircle
 10
97.7736830467
 20
137.9797272727
 30
0.0
 40
5.900000000000005
100
AcDbArc
 50
14.7283956009
 51
165.2716043991
  0
ARC
  5
2BE
330
1F
100
AcDbEntity
  8
0
  6
Continuous
 62
     7
370
    25
100
AcDbCircle
 10
97.7736830467
 20
137.9797272727
 30
0.0
 40
5.900000000000005
100
AcDbArc
 50
194.7283956009
 51
270.0
  0
LINE
  5
2BF
330
1F
100
AcDbEntity
  8
0
  6
Continuous
 62
     7
370
    25
100
AcDbLine
 10
90.3933819139
 20
142.772550729
 30
0.0
 11
90.4925300495
 21
143.2697945618
 31
0.0
  0
LINE
  5
2C0
330
1F
100
AcDbEntity
  8
0
  6
Continuous
 62
     7
370
    25
100
AcDbLine
 10
90.4925300495
 20
143.2697945618
 30
0.0
 11
90.9347983764
 21
143.5177466244
 31
0.0
  0
LINE
  5
2C1
330
1F
100
AcDbEntity
  8
0
  6
Continuous
 62
     7
370
    25
100
AcDbLine
 10
105.1539841795
 20
142.772550729
 30
0.0
 11
105.5679118948
 21
142.479727079
 31
0.0
  0
LINE
  5
2C2
330
1F
100
AcDbEntity
  8
0
  6
Continuous
 62
     7
370
    25
100
AcDbLine
 10
105.5679118948
 20
142.479727079
 30
0.0
 11
105.6145408878
 21
141.9748436071
 31
0.0
  0
LINE
  5
2C3
330
1F
100
AcDbEntity
  8
0
  6
Continuous
 62
     7
370
    25
100
AcDbLine
 10
89.9328252056
 20
141.9748436071
 30
0.0
 11
89.9794541986
 21
142.479727079
 31
0.0
  0
LINE
  5
2C4
330
1F
100
AcDbEntity
  8
0
  6
Continuous
 62
     7
370
    25
100
AcDbLine
 10
89.9794541986
 20
142.479727079
 30
0.0
 11
90.3933819139
 21
142.772550729
 31
0.0
  0
LINE
  5
2C5
330
1F
100
AcDbEntity
  8
0
  6
Continuous
 62
     7
370
    25
100
AcDbLine
 10
105.6145408878
 20
141.9748436071
 30
0.0
 11
105.9955924505
 21
141.640357009
 31
0.0
  0
LINE
  5
2C6
330
1F
100
AcDbEntity
  8
0
  6
Continuous
 62
     7
370
    25
100
AcDbLine
 10
105.9955924505
 20
141.640357009
 30
0.0
 11
105.9891905391
 21
141.1333652556
 31
0.0
  0
LINE
  5
2C7
330
1F
100
AcDbEntity
  8
0
  6
Continuous
 62
     7
370
    25
100
AcDbLine
 10
89.5581755543
 20
141.1333652556
 30
0.0
 11
89.5517736429
 21
141.640357009
 31
0.0
  0
LINE
  5
2C8
330
1F
100
AcDbEntity
  8
0
  6
Continuous
 62
     7
370
    25
100
AcDbLine
 10
89.5517736429
 20
141.640357009
 30
0.0
 11
89.9328252056
 21
141.9748436071
 31
0.0
  0
LINE
  5
2C9
330
1F
100
AcDbEntity
  8
0
  6
Continuous
 62
     7
370
    25
100
AcDbLine
 10
105.9891905391
 20
141.1333652556
 30
0.0
 11
106.3331912958
 21
140.7608802308
 31
0.0
  0
LINE
  5
2CA
330
1F
100
AcDbEntity
  8
0
  6
Continuous
 62
     7
370
    25
100
AcDbLine
 10
106.3331912958
 20
140.7608802308
 30
0.0
 11
106.2738306576
 21
140.2573348366
 31
0.0
  0
LINE
  5
2CB
330
1F
100
AcDbEntity
  8
0
  6
Continuous
 62
     7
370
    25
100
AcDbLine
 10
89.2735354358
 20
140.2573348366
 30
0.0
 11
89.2141747975
 21
140.7608802308
 31
0.0
  0
LINE
  5
2CC
330
1F
100
AcDbEntity
  8
0
  6
Continuous
 62
     7
370
    25
100
AcDbLine
 10
89.2141747975
 20
140.7608802308
 30
0.0
 11
89.5581755543
 21
141.1333652556
 31
0.0
  0
LINE
  5
2CD
330
1F
100
AcDbEntity
  8
0
  6
Continuous
 62
     7
370
    25
100
AcDbLine
 10
106.2738306576
 20
140.2573348366
 30
0.0
 11
106.5770115459
 21
139.8509324406
 31
0.0
  0
LINE
  5
2CE
330
1F
100
AcDbEntity
  8
0
  6
Continuous
 62
     7
370
    25
100
AcDbLine
 10
106.5770115459
 20
139.8509324406
 30
0.0
 11
106.4653403812
 21
139.3563505605
 31
0.0
  0
LINE
  5
2CF
330
1F
100
AcDbEntity
  8
0
  6
Continuous
 62
     7
370
    25
100
AcDbLine
 10
89.0820257121
 20
139.3563505605
 30
0.0
 11
88.9703545475
 21
139.8509324406
 31
0.0
  0
LINE
  5
2D0
330
1F
100
AcDbEntity
  8
0
  6
Continuous
 62
     7
370
    25
100
AcDbLine
 10
88.9703545475
 20
139.8509324406
 30
0.0
 11
89.2735354358
 21
140.2573348366
 31
0.0
  0
LINE
  5
2D1
330
1F
100
AcDbEntity
  8
0
  6
Continuous
 62
     7
370
    25
100
AcDbLine
 10
88.9857427904
 20
138.44028369
 30
0.0
 11
88.8229857886
 21
138.9204834465
 31
0.0
  0
LINE
  5
2D2
330
1F
100
AcDbEntity
  8
0
  6
Continuous
 62
     7
370
    25
100
AcDbLine
 10
88.8229857886
 20
138.9204834465
 30
0.0
 11
89.0820257121
 21
139.3563505605
 31
0.0
  0
LINE
  5
2D3
330
1F
100
AcDbEntity
  8
0
  6
Continuous
 62
     7
370
    25
100
AcDbLine
 10
106.4653403812
 20
139.3563505605
 30
0.0
 11
106.7243803048
 21
138.9204834465
 31
0.0
  0
LINE
  5
2D4
330
1F
100
AcDbEntity
  8
0
  6
Continuous
 62
     7
370
    25
100
AcDbLine
 10
106.7243803048
 20
138.9204834465
 30
0.0
 11
106.561623303
 21
138.44028369
 31
0.0
  0
LINE
  5
2D5
330
1F
100
AcDbEntity
  8
0
  6
Continuous
 62
     7
370
    25
100
AcDbLine
 10
88.9857427904
 20
137.5191708555
 30
0.0
 11
88.7736834341
 21
137.9797272727
 31
0.0
  0
LINE
  5
2D6
330
1F
100
AcDbEntity
  8
0
  6
Continuous
 62
     7
370
    25
100
AcDbLine
 10
88.7736834341
 20
137.9797272727
 30
0.0
 11
88.9857427904
 21
138.44028369
 31
0.0
  0
LINE
  5
2D7
330
1F
100
AcDbEntity
  8
0
  6
Continuous
 62
     7
370
    25
100
AcDbLine
 10
106.561623303
 20
137.5191708555
 30
0.0
 11
106.7243803048
 21
137.0389710989
 31
0.0
  0
LINE
  5
2D8
330
1F
100
AcDbEntity
  8
0
  6
Continuous
 62
     7
370
    25
100
AcDbLine
 10
106.7243803048
 20
137.0389710989
 30
0.0
 11
106.4653403812
 21
136.6031039849
 31
0.0
  0
LINE
  5
2D9
330
1F
100
AcDbEntity
  8
0
  6
Continuous
 62
     7
370
    25
100
AcDbLine
 10
89.0820257121
 20
136.6031039849
 30
0.0
 11
88.8229857886
 21
137.0389710989
 31
0.0
  0
LINE
  5
2DA
330
1F
100
AcDbEntity
  8
0
  6
Continuous
 62
     7
370
    25
100
AcDbLine
 10
88.8229857886
 20
137.0389710989
 30
0.0
 11
88.9857427904
 21
137.5191708555
 31
0.0
  0
LINE
  5
2DB
330
1F
100
AcDbEntity
  8
0
  6
Continuous
 62
     7
370
    25
100
AcDbLine
 10
106.7736826593
 20
137.9797272727
 30
0.0
 11
106.561623303
 21
137.5191708555
 31
0.0
  0
LINE
  5
2DC
330
1F
100
AcDbEntity
  8
0
  6
Continuous
 62
     7
370
    25
100
AcDbLine
 10
106.561623303
 20
138.44028369
 30
0.0
 11
106.7736826593
 21
137.9797272727
 31
0.0
  0
LINE
  5
2DD
330
1F
100
AcDbEntity
  8
0
  6
Continuous
 62
     7
370
    25
100
AcDbLine
 10
89.2735354358
 20
135.7021197088
 30
0.0
 11
88.9703545475
 21
136.1085221049
 31
0.0
  0
LINE
  5
2DE
330
1F
100
AcDbEntity
  8
0
  6
Continuous
 62
     7
370
    25
100
AcDbLine
 10
88.9703545475
 20
136.1085221049
 30
0.0
 11
89.0820257121
 21
136.6031039849
 31
0.0
  0
LINE
  5
2DF
330
1F
100
AcDbEntity
  8
0
  6
Continuous
 62
     7
370
    25
100
AcDbLine
 10
106.4653403812
 20
136.6031039849
 30
0.0
 11
106.5770115459
 21
136.1085221049
 31
0.0
  0
LINE
  5
2E0
330
1F
100
AcDbEntity
  8
0
  6
Continuous
 62
     7
370
    25
100
AcDbLine
 10
106.5770115459
 20
136.1085221049
 30
0.0
 11
106.2738306576
 21
135.7021197088
 31
0.0
  0
LINE
  5
2E1
330
1F
100
AcDbEntity
  8
0
  6
Continuous
 62
     7
370
    25
100
AcDbLine
 10
89.5581755543
 20
134.8260892898
 30
0.0
 11
89.2141747975
 21
135.1985743147
 31
0.0
  0
LINE
  5
2E2
330
1F
100
AcDbEntity
  8
0
  6
Continuous
 62
     7
370
    25
100
AcDbLine
 10
89.2141747975
 20
135.1985743147
 30
0.0
 11
89.2735354358
 21
135.7021197088
 31
0.0
  0
LINE
  5
2E3
330
1F
100
AcDbEntity
  8
0
  6
Continuous
 62
     7
370
    25
100
AcDbLine
 10
106.3331912958
 20
135.1985743147
 30
0.0
 11
105.9891905391
 21
134.8260892898
 31
0.0
  0
LINE
  5
2E4
330
1F
100
AcDbEntity
  8
0
  6
Continuous
 62
     7
370
    25
100
AcDbLine
 10
106.2738306576
 20
135.7021197088
 30
0.0
 11
106.3331912958
 21
135.1985743147
 31
0.0
  0
LINE
  5
2E5
330
1F
100
AcDbEntity
  8
0
  6
Continuous
 62
     7
370
    25
100
AcDbLine
 10
89.9328252056
 20
133.9846109383
 30
0.0
 11
89.5517736429
 21
134.3190975365
 31
0.0
  0
LINE
  5
2E6
330
1F
100
AcDbEntity
  8
0
  6
Continuous
 62
     7
370
    25
100
AcDbLine
 10
89.5517736429
 20
134.3190975365
 30
0.0
 11
89.5581755543
 21
134.8260892898
 31
0.0
  0
LINE
  5
2E7
330
1F
100
AcDbEntity
  8
0
  6
Continuous
 62
     7
370
    25
100
AcDbLine
 10
105.9955924505
 20
134.3190975365
 30
0.0
 11
105.6145408878
 21
133.9846109383
 31
0.0
  0
LINE
  5
2E8
330
1F
100
AcDbEntity
  8
0
  6
Continuous
 62
     7
370
    25
100
AcDbLine
 10
105.9891905391
 20
134.8260892898
 30
0.0
 11
105.9955924505
 21
134.3190975365
 31
0.0
  0
LINE
  5
2E9
330
1F
100
AcDbEntity
  8
0
  6
Continuous
 62
     7
370
    25
100
AcDbLine
 10
105.6145408878
 20
133.9846109383
 30
0.0
 11
105.5679118948
 21
133.4797274664
 31
0.0
  0
LINE
  5
2EA
330
1F
100
AcDbEntity
  8
0
  6
Continuous
 62
     7
370
    25
100
AcDbLine
 10
105.5679118948
 20
133.4797274664
 30
0.0
 11
105.1539841795
 21
133.1869038165
 31
0.0
  0
LINE
  5
2EB
330
1F
100
AcDbEntity
  8
0
  6
Continuous
 62
     7
370
    25
100
AcDbLine
 10
90.3933819139
 20
133.1869038165
 30
0.0
 11
89.9794541986
 21
133.4797274664
 31
0.0
  0
LINE
  5
2EC
330
1F
100
AcDbEntity
  8
0
  6
Continuous
 62
     7
370
    25
100
AcDbLine
 10
89.9794541986
 20
133.4797274664
 30
0.0
 11
89.9328252056
 21
133.9846109383
 31
0.0
  0
LINE
  5
2ED
330
1F
100
AcDbEntity
  8
0
  6
Continuous
 62
     7
370
    25
100
AcDbLine
 10
105.1539841795
 20
133.1869038165
 30
0.0
 11
105.0548360438
 21
132.6896599837
 31
0.0
  0
LINE
  5
2EE
330
1F
100
AcDbEntity
  8
0
  6
Continuous
 62
     7
370
    25
100
AcDbLine
 10
105.0548360438
 20
132.6896599837
 30
0.0
 11
104.612567717
 21
132.4417079211
 31
0.0
  0
LINE
  5
2EF
330
1F
100
AcDbEntity
  8
0
  6
Continuous
 62
     7
370
    25
100
AcDbLine
 10
90.9347983764
 20
132.4417079211
 30
0.0
 11
90.4925300495
 21
132.6896599837
 31
0.0
  0
LINE
  5
2F0
330
1F
100
AcDbEntity
  8
0
  6
Continuous
 62
     7
370
    25
100
AcDbLine
 10
90.4925300495
 20
132.6896599837
 30
0.0
 11
90.3933819139
 21
133.1869038165
 31
0.0
  0
LINE
  5
2F1
330
1F
100
AcDbEntity
  8
0
  6
Continuous
 62
     7
370
    25
100
AcDbLine
 10
92.235663695
 20
131.1408426024
 30
0.0
 11
91.7515077384
 21
131.2914239586
 31
0.0
  0
LINE
  5
2F2
330
1F
100
AcDbEntity
  8
0
  6
Continuous
 62
     7
370
    25
100
AcDbLine
 10
91.7515077384
 20
131.2914239586
 30
0.0
 11
91.5511434653
 21
131.7571876914
 31
0.0
  0
LINE
  5
2F3
330
1F
100
AcDbEntity
  8
0
  6
Continuous
 62
     7
370
    25
100
AcDbLine
 10
103.795858355
 20
131.2914239586
 30
0.0
 11
103.3117023983
 21
131.1408426024
 31
0.0
  0
LINE
  5
2F4
330
1F
100
AcDbEntity
  8
0
  6
Continuous
 62
     7
370
    25
100
AcDbLine
 10
103.996222628
 20
131.7571876914
 30
0.0
 11
103.795858355
 21
131.2914239586
 31
0.0
  0
LINE
  5
2F5
330
1F
100
AcDbEntity
  8
0
  6
Continuous
 62
     7
370
    25
100
AcDbLine
 10
91.0853797325
 20
131.9575519644
 30
0.0
 11
90.9347983764
 21
132.4417079211
 31
0.0
  0
LINE
  5
2F6
330
1F
100
AcDbEntity
  8
0
  6
Continuous
 62
     7
370
    25
100
AcDbLine
 10
91.5511434653
 20
131.7571876914
 30
0.0
 11
91.0853797325
 21
131.9575519644
 31
0.0
  0
LINE
  5
2F7
330
1F
100
AcDbEntity
  8
0
  6
Continuous
 62
     7
370
    25
100
AcDbLine
 10
104.4619863608
 20
131.9575519644
 30
0.0
 11
103.996222628
 21
131.7571876914
 31
0.0
  0
LINE
  5
2F8
330
1F
100
AcDbEntity
  8
0
  6
Continuous
 62
     7
370
    25
100
AcDbLine
 10
104.612567717
 20
132.4417079211
 30
0.0
 11
104.4619863608
 21
131.9575519644
 31
0.0
  0
LINE
  5
2F9
330
1F
100
AcDbEntity
  8
0
  6
Continuous
 62
     7
370
    25
100
AcDbLine
 10
103.3117023983
 20
131.1408426024
 30
0.0
 11
103.0637503357
 21
130.6985742756
 31
0.0
  0
LINE
  5
2FA
330
1F
100
AcDbEntity
  8
0
  6
Continuous
 62
     7
370
    25
100
AcDbLine
 10
103.0637503357
 20
130.6985742756
 30
0.0
 11
102.5665065029
 21
130.5994261399
 31
0.0
  0
LINE
  5
2FB
330
1F
100
AcDbEntity
  8
0
  6
Continuous
 62
     7
370
    25
100
AcDbLine
 10
102.5665065029
 20
130.5994261399
 30
0.0
 11
102.273682853
 21
130.1854984247
 31
0.0
  0
LINE
  5
2FC
330
1F
100
AcDbEntity
  8
0
  6
Continuous
 62
     7
370
    25
100
AcDbLine
 10
102.273682853
 20
130.1854984247
 30
0.0
 11
101.7687993811
 21
130.1388694317
 31
0.0
  0
LINE
  5
2FD
330
1F
100
AcDbEntity
  8
0
  6
Continuous
 62
     7
370
    25
100
AcDbLine
 10
93.7785667123
 20
130.1388694317
 30
0.0
 11
93.2736832404
 21
130.1854984247
 31
0.0
  0
LINE
  5
2FE
330
1F
100
AcDbEntity
  8
0
  6
Continuous
 62
     7
370
    25
100
AcDbLine
 10
93.2736832404
 20
130.1854984247
 30
0.0
 11
92.9808595905
 21
130.5994261399
 31
0.0
  0
LINE
  5
2FF
330
1F
100
AcDbEntity
  8
0
  6
Continuous
 62
     7
370
    25
100
AcDbLine
 10
92.4836157577
 20
130.6985742756
 30
0.0
 11
92.235663695
 21
131.1408426024
 31
0.0
  0
LINE
  5
300
330
1F
100
AcDbEntity
  8
0
  6
Continuous
 62
     7
370
    25
100
AcDbLine
 10
92.9808595905
 20
130.5994261399
 30
0.0
 11
92.4836157577
 21
130.6985742756
 31
0.0
  0
LINE
  5
301
330
1F
100
AcDbEntity
  8
0
  6
Continuous
 62
     7
370
    25
100
AcDbLine
 10
100.9273210296
 20
129.7642197803
 30
0.0
 11
100.5548360047
 21
129.4202190236
 31
0.0
  0
LINE
  5
302
330
1F
100
AcDbEntity
  8
0
  6
Continuous
 62
     7
370
    25
100
AcDbLine
 10
100.5548360047
 20
129.4202190236
 30
0.0
 11
100.0512906106
 21
129.4795796618
 31
0.0
  0
LINE
  5
303
330
1F
100
AcDbEntity
  8
0
  6
Continuous
 62
     7
370
    25
100
AcDbLine
 10
101.7687993811
 20
130.1388694317
 30
0.0
 11
101.4343127829
 21
129.7578178689
 31
0.0
  0
LINE
  5
304
330
1F
100
AcDbEntity
  8
0
  6
Continuous
 62
     7
370
    25
100
AcDbLine
 10
101.4343127829
 20
129.7578178689
 30
0.0
 11
100.9273210296
 21
129.7642197803
 31
0.0
  0
LINE
  5
305
330
1F
100
AcDbEntity
  8
0
  6
Continuous
 62
     7
370
    25
100
AcDbLine
 10
95.4960754828
 20
129.4795796618
 30
0.0
 11
94.9925300886
 21
129.4202190236
 31
0.0
  0
LINE
  5
306
330
1F
100
AcDbEntity
  8
0
  6
Continuous
 62
     7
370
    25
100
AcDbLine
 10
94.9925300886
 20
129.4202190236
 30
0.0
 11
94.6200450638
 21
129.7642197803
 31
0.0
  0
LINE
  5
307
330
1F
100
AcDbEntity
  8
0
  6
Continuous
 62
     7
370
    25
100
AcDbLine
 10
94.1130533104
 20
129.7578178689
 30
0.0
 11
93.7785667123
 21
130.1388694317
 31
0.0
  0
LINE
  5
308
330
1F
100
AcDbEntity
  8
0
  6
Continuous
 62
     7
370
    25
100
AcDbLine
 10
94.6200450638
 20
129.7642197803
 30
0.0
 11
94.1130533104
 21
129.7578178689
 31
0.0
  0
LINE
  5
309
330
1F
100
AcDbEntity
  8
0
  6
Continuous
 62
     7
370
    25
100
AcDbLine
 10
100.0512906106
 20
129.4795796618
 30
0.0
 11
99.6448882145
 21
129.1763987735
 31
0.0
  0
LINE
  5
30A
330
1F
100
AcDbEntity
  8
0
  6
Continuous
 62
     7
370
    25
100
AcDbLine
 10
99.6448882145
 20
129.1763987735
 30
0.0
 11
99.1503063345
 21
129.2880699382
 31
0.0
  0
LINE
  5
30B
330
1F
100
AcDbEntity
  8
0
  6
Continuous
 62
     7
370
    25
100
AcDbLine
 10
99.1503063345
 20
129.2880699382
 30
0.0
 11
98.7144392205
 21
129.0290300146
 31
0.0
  0
LINE
  5
30C
330
1F
100
AcDbEntity
  8
0
  6
Continuous
 62
     7
370
    25
100
AcDbLine
 10
98.7144392205
 20
129.0290300146
 30
0.0
 11
98.2342394639
 21
129.1917870164
 31
0.0
  0
LINE
  5
30D
330
1F
100
AcDbEntity
  8
0
  6
Continuous
 62
     7
370
    25
100
AcDbLine
 10
98.2342394639
 20
129.1917870164
 30
0.0
 11
97.7736830467
 21
128.9797276602
 31
0.0
  0
LINE
  5
30E
330
1F
100
AcDbEntity
  8
0
  6
Continuous
 62
     7
370
    25
100
AcDbLine
 10
97.7736830467
 20
128.9797276602
 30
0.0
 11
97.3131266294
 21
129.1917870164
 31
0.0
  0
LINE
  5
30F
330
1F
100
AcDbEntity
  8
0
  6
Continuous
 62
     7
370
    25
100
AcDbLine
 10
97.3131266294
 20
129.1917870164
 30
0.0
 11
96.8329268729
 21
129.0290300146
 31
0.0
  0
LINE
  5
310
330
1F
100
AcDbEntity
  8
0
  6
Continuous
 62
     7
370
    25
100
AcDbLine
 10
96.8329268729
 20
129.0290300146
 30
0.0
 11
96.3970597589
 21
129.2880699382
 31
0.0
  0
LINE
  5
311
330
1F
100
AcDbEntity
  8
0
  6
Continuous
 62
     7
370
    25
100
AcDbLine
 10
96.3970597589
 20
129.2880699382
 30
0.0
 11
95.9024778788
 21
129.1763987735
 31
0.0
  0
LINE
  5
312
330
1F
100
AcDbEntity
  8
0
  6
Continuous
 62
     7
370
    25
100
AcDbLine
 10
95.9024778788
 20
129.1763987735
 30
0.0
 11
95.4960754828
 21
129.4795796618
 31
0.0
  0
LINE
  5
313
330
1F
100
AcDbEntity
  8
0
  6
Continuous
 62
     7
370
    25
100
AcDbLine
 10
84.7736827785
 20
129.9797268927
 30
0.0
 11
84.7736827785
 21
145.9797276527
 31
0.0
  0
LINE
  5
314
330
1F
100
AcDbEntity
  8
0
  6
Continuous
 62
     7
370
    25
100
AcDbLine
 10
80.8736838156
 20
144.579727237
 30
0.0
 11
80.8736838156
 21
131.3797273085
 31
0.0
  0
LINE
  5
315
330
1F
100
AcDbEntity
  8
0
  6
Continuous
 62
     7
370
    25
100
AcDbLine
 10
79.7236829752
 20
143.4297273279
 30
0.0
 11
79.7236829752
 21
132.5297272176
 31
0.0
  0
LINE
  5
316
330
1F
100
AcDbEntity
  8
0
  6
Continuous
 62
     7
370
    25
100
AcDbLine
 10
77.9236823076
 20
143.4297273279
 30
0.0
 11
77.9236823076
 21
132.5297272176
 31
0.0
  0
LINE
  5
317
330
1F
100
AcDbEntity
  8
0
  6
Continuous
 62
     7
370
    25
100
AcDbLine
 10
76.7736833298
 20
144.579727237
 30
0.0
 11
76.7736833298
 21
131.3797273085
 31
0.0
  0
LINE
  5
318
330
1F
100
AcDbEntity
  8
0
  6
Continuous
 62
     7
370
    25
100
AcDbLine
 10
74.5383061224
 20
144.579727237
 30
0.0
 11
74.5383061224
 21
131.3797273085
 31
0.0
  0
LINE
  5
319
330
1F
100
AcDbEntity
  8
0
  6
Continuous
 62
     7
370
    25
100
AcDbLine
 10
69.7736821824
 20
143.4797272429
 30
0.0
 11
69.7736821824
 21
132.4797273025
 31
0.0
  0
LINE
  5
31A
330
1F
100
AcDbEntity
  8
0
  6
Continuous
 62
     7
370
    25
100
AcDbLine
 10
64.7736832255
 20
132.7797272586
 30
0.0
 11
64.7736832255
 21
143.1797272869
 31
0.0
  0
LINE
  5
31B
330
1F
100
AcDbEntity
  8
0
  6
Continuous
 62
     7
370
    25
100
AcDbLine
 10
105.6556494662
 20
127.9797274962
 30
0.0
 11
105.6556494662
 21
134.0151555248
 31
0.0
  0
LINE
  5
31C
330
1F
100
AcDbEntity
  8
0
  6
Continuous
 62
     7
370
    25
100
AcDbLine
 10
105.6556494662
 20
141.9425076217
 30
0.0
 11
105.6556494662
 21
147.9797270492
 31
0.0
  0
SPLINE
  5
31D
330
1F
100
AcDbEntity
  8
0
  6
Continuous
 62
     7
370
    25
100
AcDbSpline
210
0.0
220
0.0
230
1.0
 70
     8
 71
     3
 72
    12
 73
     8
 74
     0
 42
0.000000001
 43
0.00000001
 40
0.0
 40
0.0
 40
0.0
 40
0.0
 40
0.25
 40
0.25
 40
0.5
 40
0.5
 40
1.0
 40
1.0
 40
1.0
 40
1.0
 10
105.5027691137851
 20
129.2172660929775
 30
0.0
 10
105.4216525116804
 20
129.1827609551174
 30
0.0
 10
105.3746225885121
 20
129.149915883817
 30
0.0
 10
105.3117589869803
 20
129.0915633555703
 30
0.0
 10
105.2963093160631
 20
129.0659089919417
 30
0.0
 10
105.2691256516838
 20
129.0028097392019
 30
0.0
 10
105.273683046683
 20
128.9797272727273
 30
0.0
 10
105.273683046683
 20
128.9797272727273
 30
0.0
  0
SPLINE
  5
31E
330
1F
100
AcDbEntity
  8
0
  6
Continuous
 62
     7
370
    25
100
AcDbSpline
210
0.0
220
0.0
230
1.0
 70
     8
 71
     3
 72
    14
 73
    10
 74
     0
 42
0.000000001
 43
0.00000001
 40
0.0
 40
0.0
 40
0.0
 40
0.0
 40
0.25
 40
0.25
 40
0.5
 40
0.5
 40
0.75
 40
0.75
 40
1.0
 40
1.0
 40
1.0
 40
1.0
 10
105.5027691137851
 20
129.2172660929775
 30
0.0
 10
105.5302901015302
 20
129.2289728885231
 30
0.0
 10
105.5502100233666
 20
129.2610148416046
 30
0.0
 10
105.5658770651846
 20
129.3603385922696
 30
0.0
 10
105.5613852333723
 20
129.4281620350504
 30
0.0
 10
105.5301288880887
 20
129.5906036524632
 30
0.0
 10
105.503756304707
 20
129.685049049199
 30
0.0
 10
105.4409197535627
 20
129.8932781567955
 30
0.0
 10
105.4048801747026
 20
130.0058765496786
 30
0.0
 10
105.370884171337
 20
130.1256329432788
 30
0.0
  0
SPLINE
  5
31F
330
1F
100
AcDbEntity
  8
0
  6
Continuous
 62
     7
370
    25
100
AcDbSpline
210
0.0
220
0.0
230
1.0
 70
     8
 71
     3
 72
     8
 73
     4
 74
     0
 42
0.000000001
 43
0.00000001
 40
0.0
 40
0.0
 40
0.0
 40
0.0
 40
1.0
 40
1.0
 40
1.0
 40
1.0
 10
105.273683046683
 20
130.8558238483398
 30
0.0
 10
105.273683046683
 20
130.6083943915448
 30
0.0
 10
105.3030477537609
 20
130.3645976426375
 30
0.0
 10
105.370884171337
 20
130.1256329432788
 30
0.0
  0
LINE
  5
320
330
1F
100
AcDbEntity
  8
0
  6
Continuous
 62
     7
370
    25
100
AcDbLine
 10
105.273682879
 20
130.8558239013
 30
0.0
 11
105.273682879
 21
133.2591497682
 31
0.0
  0
LINE
  5
321
330
1F
100
AcDbEntity
  8
0
  6
Continuous
 62
     7
370
    25
100
AcDbLine
 10
105.273682879
 20
142.6911726937
 30
0.0
 11
105.273682879
 21
145.1036306441
 31
0.0
  0
SPLINE
  5
322
330
1F
100
AcDbEntity
  8
0
  6
Continuous
 62
     7
370
    25
100
AcDbSpline
210
0.0
220
0.0
230
1.0
 70
     8
 71
     3
 72
     8
 73
     4
 74
     0
 42
0.000000001
 43
0.00000001
 40
0.0
 40
0.0
 40
0.0
 40
0.0
 40
1.0
 40
1.0
 40
1.0
 40
1.0
 10
105.370884171337
 20
145.8338216021759
 30
0.0
 10
105.3030477537609
 20
145.5948569028172
 30
0.0
 10
105.273683046683
 20
145.3510601539098
 30
0.0
 10
105.273683046683
 20
145.1036306971148
 30
0.0
  0
SPLINE
  5
323
330
1F
100
AcDbEntity
  8
0
  6
Continuous
 62
     7
370
    25
100
AcDbSpline
210
0.0
220
0.0
230
1.0
 70
     8
 71
     3
 72
    12
 73
     8
 74
     0
 42
0.000000001
 43
0.00000001
 40
0.0
 40
0.0
 40
0.0
 40
0.0
 40
0.4999999999999992
 40
0.4999999999999992
 40
0.7499999999999996
 40
0.7499999999999996
 40
1.0
 40
1.0
 40
1.0
 40
1.0
 10
105.370884171337
 20
145.8338216021759
 30
0.0
 10
105.4387539313468
 20
146.072903755624
 30
0.0
 10
105.5147884826005
 20
146.2886738628008
 30
0.0
 10
105.5614330809775
 20
146.5317684555047
 30
0.0
 10
105.5658720775001
 20
146.5994337309808
 30
0.0
 10
105.5501414637073
 20
146.6985868471375
 30
0.0
 10
105.5302610337649
 20
146.7304940216907
 30
0.0
 10
105.5027691137851
 20
146.7421884524771
 30
0.0
  0
SPLINE
  5
324
330
1F
100
AcDbEntity
  8
0
  6
Continuous
 62
     7
370
    25
100
AcDbSpline
210
0.0
220
0.0
230
1.0
 70
     8
 71
     3
 72
    12
 73
     8
 74
     0
 42
0.000000001
 43
0.00000001
 40
0.0
 40
0.0
 40
0.0
 40
0.0
 40
0.5000000000000002
 40
0.5000000000000002
 40
0.7500000000000001
 40
0.7500000000000001
 40
1.0
 40
1.0
 40
1.0
 40
1.0
 10
105.273683046683
 20
146.9797272727273
 30
0.0
 10
105.273683046683
 20
146.9797272727273
 30
0.0
 10
105.2691256516838
 20
146.9566448062527
 30
0.0
 10
105.2963093160631
 20
146.893545553513
 30
0.0
 10
105.3117589869803
 20
146.8678911898843
 30
0.0
 10
105.3746225885121
 20
146.8095386616377
 30
0.0
 10
105.4216525116804
 20
146.7766935903372
 30
0.0
 10
105.5027691137851
 20
146.7421884524771
 30
0.0
  0
LINE
  5
325
330
1F
100
AcDbEntity
  8
0
  6
Continuous
 62
     7
370
    25
100
AcDbLine
 10
107.2736827412
 20
127.9797274962
 30
0.0
 11
107.2736827412
 21
147.9797270492
 31
0.0
  0
LINE
  5
326
330
1F
100
AcDbEntity
  8
0
  6
Continuous
 62
     7
370
    25
100
AcDbLine
 10
107.7736828232
 20
147.4797269673
 30
0.0
 11
107.7736828232
 21
128.4797275782
 31
0.0
  0
LINE
  5
327
330
1F
100
AcDbEntity
  8
0
  6
Continuous
 62
     7
370
    25
100
AcDbLine
 10
87.7736832702
 20
128.2297270716
 30
0.0
 11
87.7736832702
 21
147.7297274739
 31
0.0
  0
LINE
  5
328
330
1F
100
AcDbEntity
  8
0
  6
Continuous
 62
     7
370
    25
100
AcDbLine
 10
88.0236828455
 20
147.9797270492
 30
0.0
 11
88.0236828455
 21
127.9797274962
 31
0.0
  0
LINE
  5
329
330
1F
100
AcDbEntity
  8
0
  6
Continuous
 62
     7
370
    25
100
AcDbLine
 10
89.8917166272
 20
147.9797270492
 30
0.0
 11
89.8917166272
 21
141.9442990207
 31
0.0
  0
LINE
  5
32A
330
1F
100
AcDbEntity
  8
0
  6
Continuous
 62
     7
370
    25
100
AcDbLine
 10
89.8917166272
 20
134.0169469238
 30
0.0
 11
89.8917166272
 21
127.9797274962
 31
0.0
  0
SPLINE
  5
32B
330
1F
100
AcDbEntity
  8
0
  6
Continuous
 62
     7
370
    25
100
AcDbSpline
210
0.0
220
0.0
230
1.0
 70
     8
 71
     3
 72
    12
 73
     8
 74
     0
 42
0.000000001
 43
0.00000001
 40
0.0
 40
0.0
 40
0.0
 40
0.0
 40
0.2500000000000001
 40
0.2500000000000001
 40
0.5000000000000001
 40
0.5000000000000001
 40
1.0
 40
1.0
 40
1.0
 40
1.0
 10
90.044596979581
 20
146.7421884524771
 30
0.0
 10
90.12571358168564
 20
146.7766935903372
 30
0.0
 10
90.17274350485397
 20
146.8095386616377
 30
0.0
 10
90.2356071063858
 20
146.8678911898843
 30
0.0
 10
90.25105677730299
 20
146.893545553513
 30
0.0
 10
90.27824044168227
 20
146.9566448062527
 30
0.0
 10
90.27368304668303
 20
146.9797272727273
 30
0.0
 10
90.27368304668303
 20
146.9797272727273
 30
0.0
  0
SPLINE
  5
32C
330
1F
100
AcDbEntity
  8
0
  6
Continuous
 62
     7
370
    25
100
AcDbSpline
210
0.0
220
0.0
230
1.0
 70
     8
 71
     3
 72
    14
 73
    10
 74
     0
 42
0.000000001
 43
0.00000001
 40
0.0
 40
0.0
 40
0.0
 40
0.0
 40
0.25
 40
0.25
 40
0.5
 40
0.5
 40
0.75
 40
0.75
 40
1.0
 40
1.0
 40
1.0
 40
1.0
 10
90.044596979581
 20
146.7421884524771
 30
0.0
 10
90.01707599183592
 20
146.7304816569316
 30
0.0
 10
89.99715606999952
 20
146.69843970385
 30
0.0
 10
89.98148902818146
 20
146.599115953185
 30
0.0
 10
89.98598085999377
 20
146.5312925104043
 30
0.0
 10
90.01723720527735
 20
146.3688508929914
 30
0.0
 10
90.04360978865913
 20
146.2744054962557
 30
0.0
 10
90.10644633980341
 20
146.0661763886592
 30
0.0
 10
90.14248591866351
 20
145.953577995776
 30
0.0
 10
90.17648192202913
 20
145.8338216021759
 30
0.0
  0
SPLINE
  5
32D
330
1F
100
AcDbEntity
  8
0
  6
Continuous
 62
     7
370
    25
100
AcDbSpline
210
0.0
220
0.0
230
1.0
 70
     8
 71
     3
 72
     8
 73
     4
 74
     0
 42
0.000000001
 43
0.00000001
 40
0.0
 40
0.0
 40
0.0
 40
0.0
 40
1.0
 40
1.0
 40
1.0
 40
1.0
 10
90.27368304668303
 20
145.1036306971148
 30
0.0
 10
90.27368304668303
 20
145.3510601539098
 30
0.0
 10
90.24431833960519
 20
145.5948569028172
 30
0.0
 10
90.17648192202913
 20
145.8338216021759
 30
0.0
  0
LINE
  5
32E
330
1F
100
AcDbEntity
  8
0
  6
Continuous
 62
     7
370
    25
100
AcDbLine
 10
90.2736832143
 20
145.1036306441
 30
0.0
 11
90.2736832143
 21
142.7003047772
 31
0.0
  0
LINE
  5
32F
330
1F
100
AcDbEntity
  8
0
  6
Continuous
 62
     7
370
    25
100
AcDbLine
 10
90.2736832143
 20
133.2682818517
 30
0.0
 11
90.2736832143
 21
130.8558239013
 31
0.0
  0
SPLINE
  5
330
330
1F
100
AcDbEntity
  8
0
  6
Continuous
 62
     7
370
    25
100
AcDbSpline
210
0.0
220
0.0
230
1.0
 70
     8
 71
     3
 72
     8
 73
     4
 74
     0
 42
0.000000001
 43
0.00000001
 40
0.0
 40
0.0
 40
0.0
 40
0.0
 40
1.0
 40
1.0
 40
1.0
 40
1.0
 10
90.17648192202913
 20
130.1256329432788
 30
0.0
 10
90.24431833960519
 20
130.3645976426375
 30
0.0
 10
90.27368304668303
 20
130.6083943915448
 30
0.0
 10
90.27368304668303
 20
130.8558238483398
 30
0.0
  0
SPLINE
  5
331
330
1F
100
AcDbEntity
  8
0
  6
Continuous
 62
     7
370
    25
100
AcDbSpline
210
0.0
220
0.0
230
1.0
 70
     8
 71
     3
 72
    12
 73
     8
 74
     0
 42
0.000000001
 43
0.00000001
 40
0.0
 40
0.0
 40
0.0
 40
0.0
 40
0.4999999999999992
 40
0.4999999999999992
 40
0.7499999999999996
 40
0.7499999999999996
 40
1.0
 40
1.0
 40
1.0
 40
1.0
 10
90.17648192202913
 20
130.1256329432788
 30
0.0
 10
90.10861216201931
 20
129.8865507898306
 30
0.0
 10
90.03257761076559
 20
129.6707806826538
 30
0.0
 10
89.98593301238859
 20
129.4276860899499
 30
0.0
 10
89.98149401586593
 20
129.3600208144738
 30
0.0
 10
89.99722462965877
 20
129.2608676983172
 30
0.0
 10
90.01710505960115
 20
129.228960523764
 30
0.0
 10
90.044596979581
 20
129.2172660929775
 30
0.0
  0
SPLINE
  5
332
330
1F
100
AcDbEntity
  8
0
  6
Continuous
 62
     7
370
    25
100
AcDbSpline
210
0.0
220
0.0
230
1.0
 70
     8
 71
     3
 72
    12
 73
     8
 74
     0
 42
0.000000001
 43
0.00000001
 40
0.0
 40
0.0
 40
0.0
 40
0.0
 40
0.4999999999999998
 40
0.4999999999999998
 40
0.7499999999999999
 40
0.7499999999999999
 40
1.0
 40
1.0
 40
1.0
 40
1.0
 10
90.27368304668303
 20
128.9797272727273
 30
0.0
 10
90.27368304668303
 20
128.9797272727273
 30
0.0
 10
90.27824044168227
 20
129.0028097392019
 30
0.0
 10
90.25105677730299
 20
129.0659089919417
 30
0.0
 10
90.2356071063858
 20
129.0915633555703
 30
0.0
 10
90.17274350485397
 20
129.149915883817
 30
0.0
 10
90.12571358168564
 20
129.1827609551174
 30
0.0
 10
90.044596979581
 20
129.2172660929775
 30
0.0
  0
ARC
  5
333
330
1F
100
AcDbEntity
  8
0
  6
Continuous
 62
     7
370
    25
100
AcDbCircle
 10
90.727000812
 20
145.1626061287
 30
0.0
 40
0.4571377824698555
100
AcDbArc
 50
187.4124053607
 51
275.8611502695
  0
ARC
  5
334
330
1F
100
AcDbEntity
  8
0
  6
Continuous
 62
     7
370
    25
100
AcDbCircle
 10
90.727000812
 20
130.7968484168
 30
0.0
 40
0.4571377824698555
100
AcDbArc
 50
84.1388497305
 51
172.5875946393
  0
ARC
  5
335
330
1F
100
AcDbEntity
  8
0
  6
Continuous
 62
     7
370
    25
100
AcDbCircle
 10
104.8203652813
 20
145.1626061287
 30
0.0
 40
0.4571377824698478
100
AcDbArc
 50
264.1388497305
 51
352.5875946393
  0
ARC
  5
336
330
1F
100
AcDbEntity
  8
0
  6
Continuous
 62
     7
370
    25
100
AcDbCircle
 10
104.8203652813
 20
130.7968484168
 30
0.0
 40
0.4571377824698478
100
AcDbArc
 50
7.4124053607
 51
95.8611502695
  0
LINE
  5
337
330
1F
100
AcDbEntity
  8
0
  6
Continuous
 62
     7
370
    25
100
AcDbLine
 10
115.6095571571
 20
144.4791853771
 30
0.0
 11
115.6095571571
 21
131.4802691684
 31
0.0
  0
LINE
  5
338
330
1F
100
AcDbEntity
  8
0
  6
Continuous
 62
     7
370
    25
100
AcDbLine
 10
117.7736825996
 20
143.2297272019
 30
0.0
 11
117.7736825996
 21
132.7297273435
 31
0.0
  0
LWPOLYLINE
  5
339
330
1F
100
AcDbEntity
  8
0
  6
Continuous
 62
     7
370
    25
100
AcDbPolyline
 90
        9
 70
   128
 43
0.0
 10
90.1764820085
 20
145.8338220016
 10
90.1996141986
 20
145.8410397515
 10
90.2357262315
 20
145.8523078233
 10
90.2837643155
 20
145.8672974602
 10
90.3423254134
 20
145.8855700091
 10
90.4096986854
 20
145.9065927536
 10
90.4839167127
 20
145.9297510207
 10
90.5628123076
 20
145.9543686703
 10
90.6440813781
 20
145.9797276527
  0
SPLINE
  5
33A
330
1F
100
AcDbEntity
  8
0
  6
Continuous
 62
     7
370
    25
100
AcDbSpline
210
0.0
220
0.0
230
1.0
 70
     8
 71
     3
 72
     8
 73
     4
 74
     0
 42
0.000000001
 43
0.00000001
 40
0.0
 40
0.0
 40
0.0
 40
0.0
 40
1.0
 40
1.0
 40
1.0
 40
1.0
 10
90.64408154714447
 20
145.9797272727273
 30
0.0
 10
90.7330902425329
 20
145.6944715150975
 30
0.0
 10
90.77368304668305
 20
145.4020535652156
 30
0.0
 10
90.77368304668305
 20
145.1036306971148
 30
0.0
  0
LINE
  5
33B
330
1F
100
AcDbEntity
  8
0
  6
Continuous
 62
     7
370
    25
100
AcDbLine
 10
90.2736832143
 20
145.1036306441
 30
0.0
 11
90.7736828306
 21
145.1036306441
 31
0.0
  0
SPLINE
  5
33C
330
1F
100
AcDbEntity
  8
0
  6
Continuous
 62
     7
370
    25
100
AcDbSpline
210
0.0
220
0.0
230
1.0
 70
     8
 71
     3
 72
     8
 73
     4
 74
     0
 42
0.000000001
 43
0.00000001
 40
0.0
 40
0.0
 40
0.0
 40
0.0
 40
1.0
 40
1.0
 40
1.0
 40
1.0
 10
104.773683046683
 20
145.1036306971148
 30
0.0
 10
104.773683046683
 20
145.4020535652156
 30
0.0
 10
104.8142758508332
 20
145.6944715150975
 30
0.0
 10
104.9032845462216
 20
145.9797272727273
 30
0.0
  0
LWPOLYLINE
  5
33D
330
1F
100
AcDbEntity
  8
0
  6
Continuous
 62
     7
370
    25
100
AcDbPolyline
 90
        9
 70
   128
 43
0.0
 10
104.9032847152
 20
145.9797276527
 10
104.9845537858
 20
145.9543686703
 10
105.0634493807
 20
145.9297510207
 10
105.137667408
 20
145.9065927536
 10
105.20504068
 20
145.8855700091
 10
105.2636017778
 20
145.8672974602
 10
105.3116398619
 20
145.8523078233
 10
105.3477518947
 20
145.8410397515
 10
105.3708840848
 20
145.8338220016
  0
LINE
  5
33E
330
1F
100
AcDbEntity
  8
0
  6
Continuous
 62
     7
370
    25
100
AcDbLine
 10
104.7736832627
 20
145.1036306441
 30
0.0
 11
105.273682879
 21
145.1036306441
 31
0.0
  0
SPLINE
  5
33F
330
1F
100
AcDbEntity
  8
0
  6
Continuous
 62
     7
370
    25
100
AcDbSpline
210
0.0
220
0.0
230
1.0
 70
     8
 71
     3
 72
     8
 73
     4
 74
     0
 42
0.000000001
 43
0.00000001
 40
0.0
 40
0.0
 40
0.0
 40
0.0
 40
1.0
 40
1.0
 40
1.0
 40
1.0
 10
90.77368304668305
 20
130.8558238483398
 30
0.0
 10
90.77368304668305
 20
130.5574009802391
 30
0.0
 10
90.7330902425329
 20
130.2649830303571
 30
0.0
 10
90.64408154714448
 20
129.9797272727273
 30
0.0
  0
LWPOLYLINE
  5
340
330
1F
100
AcDbEntity
  8
0
  6
Continuous
 62
     7
370
    25
100
AcDbPolyline
 90
        9
 70
   128
 43
0.0
 10
90.6440813781
 20
129.9797268927
 10
90.5628123076
 20
130.0050858751
 10
90.4839167127
 20
130.0297035247
 10
90.4096986854
 20
130.0528617919
 10
90.3423254134
 20
130.0738845364
 10
90.2837643155
 20
130.0921570853
 10
90.2357262315
 20
130.1071467221
 10
90.1996141986
 20
130.1184147939
 10
90.1764820085
 20
130.1256325439
  0
LINE
  5
341
330
1F
100
AcDbEntity
  8
0
  6
Continuous
 62
     7
370
    25
100
AcDbLine
 10
90.2736832143
 20
130.8558239013
 30
0.0
 11
90.7736828306
 21
130.8558239013
 31
0.0
  0
LWPOLYLINE
  5
342
330
1F
100
AcDbEntity
  8
0
  6
Continuous
 62
     7
370
    25
100
AcDbPolyline
 90
        9
 70
   128
 43
0.0
 10
105.3708840848
 20
130.1256325439
 10
105.3477518947
 20
130.1184147939
 10
105.3116398619
 20
130.1071467221
 10
105.2636017778
 20
130.0921570853
 10
105.20504068
 20
130.0738845364
 10
105.137667408
 20
130.0528617919
 10
105.0634493807
 20
130.0297035247
 10
104.9845537858
 20
130.0050858751
 10
104.9032847152
 20
129.9797268927
  0
SPLINE
  5
343
330
1F
100
AcDbEntity
  8
0
  6
Continuous
 62
     7
370
    25
100
AcDbSpline
210
0.0
220
0.0
230
1.0
 70
     8
 71
     3
 72
     8
 73
     4
 74
     0
 42
0.000000001
 43
0.00000001
 40
0.0
 40
0.0
 40
0.0
 40
0.0
 40
1.0
 40
1.0
 40
1.0
 40
1.0
 10
104.9032845462216
 20
129.9797272727273
 30
0.0
 10
104.8142758508332
 20
130.2649830303571
 30
0.0
 10
104.773683046683
 20
130.5574009802391
 30
0.0
 10
104.773683046683
 20
130.8558238483398
 30
0.0
  0
LINE
  5
344
330
1F
100
AcDbEntity
  8
0
  6
Continuous
 62
     7
370
    25
100
AcDbLine
 10
105.273682879
 20
130.8558239013
 30
0.0
 11
104.7736832627
 21
130.8558239013
 31
0.0
  0
LINE
  5
345
330
1F
100
AcDbEntity
  8
0
  6
Continuous
 62
     7
370
    25
100
AcDbLine
 10
104.7736832627
 20
144.7078581311
 30
0.0
 11
104.7736832627
 21
145.1036306441
 31
0.0
  0
LINE
  5
346
330
1F
100
AcDbEntity
  8
0
  6
Continuous
 62
     7
370
    25
100
AcDbLine
 10
90.7736828306
 20
144.7078581311
 30
0.0
 11
90.7736828306
 21
145.1036306441
 31
0.0
  0
LINE
  5
347
330
1F
100
AcDbEntity
  8
0
  6
Continuous
 62
     7
370
    25
100
AcDbLine
 10
90.7736828306
 20
130.8558239013
 30
0.0
 11
90.7736828306
 21
131.2515964143
 31
0.0
  0
LINE
  5
348
330
1F
100
AcDbEntity
  8
0
  6
Continuous
 62
     7
370
    25
100
AcDbLine
 10
104.7736832627
 20
130.8558239013
 30
0.0
 11
104.7736832627
 21
131.2515964143
 31
0.0
  0
ARC
  5
349
330
1F
100
AcDbEntity
  8
0
  6
Continuous
 62
     7
370
    25
100
AcDbCircle
 10
90.4720631799
 20
146.9590344506
 30
0.0
 40
0.4793220025378494
100
AcDbArc
 50
206.8978733264
 51
269.5424057934
  0
SPLINE
  5
34A
330
1F
100
AcDbEntity
  8
0
  6
Continuous
 62
     7
370
    25
100
AcDbSpline
210
0.0
220
0.0
230
1.0
 70
     8
 71
     3
 72
    14
 73
    10
 74
     0
 42
0.000000001
 43
0.00000001
 40
0.0
 40
0.0
 40
0.0
 40
0.0
 40
0.25
 40
0.25
 40
0.5
 40
0.5
 40
0.75
 40
0.75
 40
1.0
 40
1.0
 40
1.0
 40
1.0
 10
90.64408154714447
 20
145.9797272727273
 30
0.0
 10
90.60560606352288
 20
146.0413805369548
 30
0.0
 10
90.56451714205286
 20
146.0995644822277
 30
0.0
 10
90.4852342946123
 20
146.2132298036947
 30
0.0
 10
90.44795139350184
 20
146.2669064023944
 30
0.0
 10
90.39514563419007
 20
146.3668964348411
 30
0.0
 10
90.38317637409644
 20
146.411300935064
 30
0.0
 10
90.40317816246859
 20
146.4673607905578
 30
0.0
 10
90.4326346180209
 20
146.4797272727273
 30
0.0
 10
90.46823495721365
 20
146.4797272727273
 30
0.0
  0
ARC
  5
34B
330
1F
100
AcDbEntity
  8
0
  6
Continuous
 62
     7
370
    25
100
AcDbCircle
 10
105.0753029135
 20
129.0004200949
 30
0.0
 40
0.4793220025378209
100
AcDbArc
 50
26.8978733264
 51
89.5424057934
  0
SPLINE
  5
34C
330
1F
100
AcDbEntity
  8
0
  6
Continuous
 62
     7
370
    25
100
AcDbSpline
210
0.0
220
0.0
230
1.0
 70
     8
 71
     3
 72
    14
 73
    10
 74
     0
 42
0.000000001
 43
0.00000001
 40
0.0
 40
0.0
 40
0.0
 40
0.0
 40
0.25
 40
0.25
 40
0.5
 40
0.5
 40
0.75
 40
0.75
 40
1.0
 40
1.0
 40
1.0
 40
1.0
 10
104.9032845462216
 20
129.9797272727273
 30
0.0
 10
104.9417600298432
 20
129.9180740084998
 30
0.0
 10
104.9828489513132
 20
129.8598900632269
 30
0.0
 10
105.0621317987538
 20
129.74622474176
 30
0.0
 10
105.0994146998642
 20
129.6925481430602
 30
0.0
 10
105.152220459176
 20
129.5925581106135
 30
0.0
 10
105.1641897192696
 20
129.5481536103906
 30
0.0
 10
105.1441879308975
 20
129.4920937548968
 30
0.0
 10
105.1147314753452
 20
129.4797272727273
 30
0.0
 10
105.0791311361524
 20
129.4797272727273
 30
0.0
  0
SPLINE
  5
34D
330
1F
100
AcDbEntity
  8
0
  6
Continuous
 62
     7
370
    25
100
AcDbSpline
210
0.0
220
0.0
230
1.0
 70
     8
 71
     3
 72
    16
 73
    12
 74
     0
 42
0.000000001
 43
0.00000001
 40
0.0
 40
0.0
 40
0.0
 40
0.0
 40
0.2500000000000011
 40
0.2500000000000011
 40
0.3749999999999992
 40
0.3749999999999992
 40
0.4999999999999974
 40
0.4999999999999974
 40
0.7499999999999987
 40
0.7499999999999987
 40
1.0
 40
1.0
 40
1.0
 40
1.0
 10
105.0791311361524
 20
146.4797272727273
 30
0.0
 10
105.1146850656011
 20
146.4797272727273
 30
0.0
 10
105.1439572068298
 20
146.4675955223115
 30
0.0
 10
105.1591697570506
 20
146.4255738160321
 30
0.0
 10
105.1592304252242
 20
146.4073594465256
 30
0.0
 10
105.1490198407469
 20
146.365422433999
 30
0.0
 10
105.1392365112216
 20
146.3423948705047
 30
0.0
 10
105.1000719626897
 20
146.2679861917327
 30
0.0
 10
105.0621988894164
 20
146.2133283155502
 30
0.0
 10
104.9831259164248
 20
146.0999592423715
 30
0.0
 10
104.941738783834
 20
146.0413464922673
 30
0.0
 10
104.9032845462216
 20
145.9797272727273
 30
0.0
  0
ARC
  5
34E
330
1F
100
AcDbEntity
  8
0
  6
Continuous
 62
     7
370
    25
100
AcDbCircle
 10
105.0753029135
 20
146.9590344506
 30
0.0
 40
0.4793220025378209
100
AcDbArc
 50
270.4575942066
 51
333.1021266736
  0
SPLINE
  5
34F
330
1F
100
AcDbEntity
  8
0
  6
Continuous
 62
     7
370
    25
100
AcDbSpline
210
0.0
220
0.0
230
1.0
 70
     8
 71
     3
 72
    16
 73
    12
 74
     0
 42
0.000000001
 43
0.00000001
 40
0.0
 40
0.0
 40
0.0
 40
0.0
 40
0.2500000000000049
 40
0.2500000000000049
 40
0.3750000000000051
 40
0.3750000000000051
 40
0.5000000000000052
 40
0.5000000000000052
 40
0.7500000000000026
 40
0.7500000000000026
 40
1.0
 40
1.0
 40
1.0
 40
1.0
 10
90.46823495721365
 20
129.4797272727273
 30
0.0
 10
90.432681027765
 20
129.4797272727273
 30
0.0
 10
90.40340888653631
 20
129.4918590231431
 30
0.0
 10
90.38819633631543
 20
129.5338807294225
 30
0.0
 10
90.3881356681419
 20
129.5520950989291
 30
0.0
 10
90.39834625261922
 20
129.5940321114556
 30
0.0
 10
90.40812958214445
 20
129.6170596749499
 30
0.0
 10
90.4472941306764
 20
129.6914683537219
 30
0.0
 10
90.48516720394966
 20
129.7461262299044
 30
0.0
 10
90.56424017694124
 20
129.8594953030832
 30
0.0
 10
90.60562730953207
 20
129.9181080531874
 30
0.0
 10
90.64408154714447
 20
129.9797272727273
 30
0.0
  0
ARC
  5
350
330
1F
100
AcDbEntity
  8
0
  6
Continuous
 62
     7
370
    25
100
AcDbCircle
 10
90.4720631799
 20
129.0004200949
 30
0.0
 40
0.4793220025378055
100
AcDbArc
 50
90.4575942066
 51
153.1021266736
  0
LINE
  5
351
330
1F
100
AcDbEntity
  8
0
  6
Continuous
 62
     7
370
    25
100
AcDbLine
 10
90.4682351032
 20
146.4797277347
 30
0.0
 11
94.9280939752
 21
146.4797277347
 31
0.0
  0
LINE
  5
352
330
1F
100
AcDbEntity
  8
0
  6
Continuous
 62
     7
370
    25
100
AcDbLine
 10
100.6192721182
 20
146.4797277347
 30
0.0
 11
105.0791309902
 21
146.4797277347
 31
0.0
  0
LINE
  5
353
330
1F
100
AcDbEntity
  8
0
  6
Continuous
 62
     7
370
    25
100
AcDbLine
 10
105.0791309902
 20
129.4797268108
 30
0.0
 11
100.6192721182
 21
129.4797268108
 31
0.0
  0
LINE
  5
354
330
1F
100
AcDbEntity
  8
0
  6
Continuous
 62
     7
370
    25
100
AcDbLine
 10
94.9280939752
 20
129.4797268108
 30
0.0
 11
90.4682351032
 21
129.4797268108
 31
0.0
  0
ARC
  5
355
330
1F
100
AcDbEntity
  8
0
  6
Continuous
 62
     7
370
    25
100
AcDbCircle
 10
90.7736830467
 20
146.9797272727
 30
0.0
 40
0.5000000000000142
100
AcDbArc
 50
180.0
 51
270.0
  0
ARC
  5
356
330
1F
100
AcDbEntity
  8
0
  6
Continuous
 62
     7
370
    25
100
AcDbCircle
 10
104.7736830467
 20
146.9797272727
 30
0.0
 40
0.5
100
AcDbArc
 50
270.0
 51
0.0
  0
ARC
  5
357
330
1F
100
AcDbEntity
  8
0
  6
Continuous
 62
     7
370
    25
100
AcDbCircle
 10
90.7736830467
 20
128.9797272727
 30
0.0
 40
0.5000000000000142
100
AcDbArc
 50
90.0
 51
180.0
  0
ARC
  5
358
330
1F
100
AcDbEntity
  8
0
  6
Continuous
 62
     7
370
    25
100
AcDbCircle
 10
104.7736830467
 20
128.9797272727
 30
0.0
 40
0.5
100
AcDbArc
 50
0.0
 51
90.0
  0
LINE
  5
359
330
1F
100
AcDbEntity
  8
0
  6
Continuous
 62
     1
370
    25
100
AcDbLine
 10
92.0236830355
 20
139.4414804288
 30
0.0
 11
92.0236830355
 21
139.2297272448
 31
0.0
  0
LINE
  5
35A
330
1F
100
AcDbEntity
  8
0
  6
Continuous
 62
     1
370
    25
100
AcDbLine
 10
92.0236830355
 20
139.2297272448
 30
0.0
 11
91.8923358188
 21
139.2297272448
 31
0.0
  0
LINE
  5
35B
330
1F
100
AcDbEntity
  8
0
  6
Continuous
 62
     1
370
    25
100
AcDbLine
 10
103.6550302745
 20
139.2297272448
 30
0.0
 11
103.5236830579
 21
139.2297272448
 31
0.0
  0
LINE
  5
35C
330
1F
100
AcDbEntity
  8
0
  6
Continuous
 62
     1
370
    25
100
AcDbLine
 10
103.5236830579
 20
139.2297272448
 30
0.0
 11
103.5236830579
 21
139.4414804288
 31
0.0
  0
LINE
  5
35D
330
1F
100
AcDbEntity
  8
0
  6
Continuous
 62
     1
370
    25
100
AcDbLine
 10
91.8923358188
 20
136.7297273007
 30
0.0
 11
92.0236830355
 21
136.7297273007
 31
0.0
  0
LINE
  5
35E
330
1F
100
AcDbEntity
  8
0
  6
Continuous
 62
     1
370
    25
100
AcDbLine
 10
103.5236830579
 20
136.7297273007
 30
0.0
 11
103.6550302745
 21
136.7297273007
 31
0.0
  0
LINE
  5
35F
330
1F
100
AcDbEntity
  8
0
  6
Continuous
 62
     1
370
    25
100
AcDbLine
 10
103.5236830579
 20
136.5179741167
 30
0.0
 11
103.5236830579
 21
136.7297273007
 31
0.0
  0
LINE
  5
360
330
1F
100
AcDbEntity
  8
0
  6
Continuous
 62
     1
370
    25
100
AcDbLine
 10
92.0236830355
 20
136.7297273007
 30
0.0
 11
92.0236830355
 21
136.5179741167
 31
0.0
  0
LINE
  5
361
330
1F
100
AcDbEntity
  8
0
  6
Continuous
 62
     1
370
    25
100
AcDbLine
 10
65.0736845785
 20
143.4797272429
 30
0.0
 11
65.0736845785
 21
132.4797273025
 31
0.0
  0
LINE
  5
362
330
1F
100
AcDbEntity
  8
0
  6
Continuous
 62
     1
370
    25
100
AcDbLine
 10
90.7736828306
 20
144.7078581311
 30
0.0
 11
90.7736828306
 21
143.4423714288
 31
0.0
  0
LINE
  5
363
330
1F
100
AcDbEntity
  8
0
  6
Continuous
 62
     1
370
    25
100
AcDbLine
 10
90.7736828306
 20
132.5212591671
 30
0.0
 11
90.7736828306
 21
131.2515964143
 31
0.0
  0
LINE
  5
364
330
1F
100
AcDbEntity
  8
0
  6
Continuous
 62
     1
370
    25
100
AcDbLine
 10
104.7736832627
 20
131.2515964143
 30
0.0
 11
104.7736832627
 21
132.5170831167
 31
0.0
  0
LINE
  5
365
330
1F
100
AcDbEntity
  8
0
  6
Continuous
 62
     1
370
    25
100
AcDbLine
 10
104.7736832627
 20
143.4381953784
 30
0.0
 11
104.7736832627
 21
144.7078581311
 31
0.0
  0
LINE
  5
366
330
1F
100
AcDbEntity
  8
0
  6
Continuous
 62
     1
370
    25
100
AcDbLine
 10
104.7736832627
 20
144.7078581311
 30
0.0
 11
103.667802898
 21
144.7078581311
 31
0.0
  0
LINE
  5
367
330
1F
100
AcDbEntity
  8
0
  6
Continuous
 62
     1
370
    25
100
AcDbLine
 10
91.8795631954
 20
144.7078581311
 30
0.0
 11
90.7736828306
 21
144.7078581311
 31
0.0
  0
LINE
  5
368
330
1F
100
AcDbEntity
  8
0
  6
Continuous
 62
     1
370
    25
100
AcDbLine
 10
90.7736828306
 20
131.2515964143
 30
0.0
 11
91.8795631954
 21
131.2515964143
 31
0.0
  0
LINE
  5
369
330
1F
100
AcDbEntity
  8
0
  6
Continuous
 62
     1
370
    25
100
AcDbLine
 10
103.667802898
 20
131.2515964143
 30
0.0
 11
104.7736832627
 21
131.2515964143
 31
0.0
  0
LINE
  5
36A
330
1F
100
AcDbEntity
  8
0
  6
Continuous
 62
     1
370
    25
100
AcDbLine
 10
90.7736828306
 20
145.1036306441
 30
0.0
 11
92.3954558314
 21
145.1036306441
 31
0.0
  0
LINE
  5
36B
330
1F
100
AcDbEntity
  8
0
  6
Continuous
 62
     1
370
    25
100
AcDbLine
 10
103.1519102619
 20
145.1036306441
 30
0.0
 11
104.7736832627
 21
145.1036306441
 31
0.0
  0
LINE
  5
36C
330
1F
100
AcDbEntity
  8
0
  6
Continuous
 62
     1
370
    25
100
AcDbLine
 10
104.7736832627
 20
130.8558239013
 30
0.0
 11
103.1519102619
 21
130.8558239013
 31
0.0
  0
LINE
  5
36D
330
1F
100
AcDbEntity
  8
0
  6
Continuous
 62
     1
370
    25
100
AcDbLine
 10
92.3954558314
 20
130.8558239013
 30
0.0
 11
90.7736828306
 21
130.8558239013
 31
0.0
  0
LINE
  5
36E
330
1F
100
AcDbEntity
  8
0
  6
Continuous
 62
     1
370
    25
100
AcDbLine
 10
104.9032847152
 20
145.9797276527
 30
0.0
 11
101.6291042545
 21
145.9797276527
 31
0.0
  0
LINE
  5
36F
330
1F
100
AcDbEntity
  8
0
  6
Continuous
 62
     1
370
    25
100
AcDbLine
 10
93.9182618388
 20
145.9797276527
 30
0.0
 11
90.6440813781
 21
145.9797276527
 31
0.0
  0
LINE
  5
370
330
1F
100
AcDbEntity
  8
0
  6
Continuous
 62
     1
370
    25
100
AcDbLine
 10
90.6440813781
 20
129.9797268927
 30
0.0
 11
93.9182618388
 21
129.9797268927
 31
0.0
  0
LINE
  5
371
330
1F
100
AcDbEntity
  8
0
  6
Continuous
 62
     1
370
    25
100
AcDbLine
 10
101.6291042545
 20
129.9797268927
 30
0.0
 11
104.9032847152
 21
129.9797268927
 31
0.0
  0
LINE
  5
372
330
1F
100
AcDbEntity
  8
0
  6
Continuous
 62
     7
370
     0
100
AcDbLine
 10
117.0734982785
 20
132.3254754083
 30
0.0
 11
108.2736830467
 21
132.0504811823
 31
0.0
  0
LINE
  5
373
330
1F
100
AcDbEntity
  8
0
  6
Continuous
 62
     7
370
     0
100
AcDbLine
 10
117.0734982785
 20
143.6339791371
 30
0.0
 11
108.2736830467
 21
143.9089733631
 31
0.0
  0
LINE
  5
374
330
1F
100
AcDbEntity
  8
0
  6
Continuous
 62
     7
370
     0
100
AcDbLine
 10
108.2736830467
 20
144.7084315763
 30
0.0
 11
108.2736830467
 21
131.2510229692
 31
0.0
  0
LINE
  5
375
330
1F
100
AcDbEntity
  8
0
  6
Continuous
 62
     7
370
    25
100
AcDbLine
 10
151.1376660153
 20
87.271191217
 30
0.0
 11
151.1376660153
 21
82.4711919204
 31
0.0
  0
LINE
  5
376
330
1F
100
AcDbEntity
  8
0
  6
Continuous
 62
     7
370
    25
100
AcDbLine
 10
166.13766568
 20
82.4711919204
 30
0.0
 11
166.13766568
 21
87.271191217
 31
0.0
  0
LINE
  5
377
330
1F
100
AcDbEntity
  8
0
  6
Continuous
 62
     7
370
    25
100
AcDbLine
 10
151.1376660153
 20
82.4711919204
 30
0.0
 11
151.3376656756
 21
82.2711913288
 31
0.0
  0
LINE
  5
378
330
1F
100
AcDbEntity
  8
0
  6
Continuous
 62
     7
370
    25
100
AcDbLine
 10
165.9376660198
 20
82.2711913288
 30
0.0
 11
166.13766568
 21
82.4711919204
 31
0.0
  0
LINE
  5
379
330
1F
100
AcDbEntity
  8
0
  6
Continuous
 62
     7
370
    25
100
AcDbLine
 10
149.8376658953
 20
100.7711924985
 30
0.0
 11
149.6376662351
 21
100.5711909756
 31
0.0
  0
LINE
  5
37A
330
1F
100
AcDbEntity
  8
0
  6
Continuous
 62
     7
370
    25
100
AcDbLine
 10
149.6376662351
 20
87.4711908773
 30
0.0
 11
149.8376658953
 21
87.271191217
 31
0.0
  0
LINE
  5
37B
330
1F
100
AcDbEntity
  8
0
  6
Continuous
 62
     7
370
    25
100
AcDbLine
 10
167.6376654602
 20
100.5711909756
 30
0.0
 11
167.4376658
 21
100.7711924985
 31
0.0
  0
LINE
  5
37C
330
1F
100
AcDbEntity
  8
0
  6
Continuous
 62
     7
370
    25
100
AcDbLine
 10
167.4376658
 20
87.271191217
 30
0.0
 11
167.6376654602
 21
87.4711908773
 31
0.0
  0
LINE
  5
37D
330
1F
100
AcDbEntity
  8
0
  6
Continuous
 62
     7
370
    25
100
AcDbLine
 10
164.5376660697
 20
78.645223789
 30
0.0
 11
164.5376660697
 21
82.2711913288
 31
0.0
  0
LINE
  5
37E
330
1F
100
AcDbEntity
  8
0
  6
Continuous
 62
     7
370
    25
100
AcDbLine
 10
152.7376656256
 20
82.2711913288
 30
0.0
 11
152.7376656256
 21
79.5692857728
 31
0.0
  0
ARC
  5
37F
330
1F
100
AcDbEntity
  8
0
  6
Continuous
 62
     7
370
    25
100
AcDbCircle
 10
152.9376658477
 20
79.1129340765
 30
0.0
 40
0.500000000000042
100
AcDbArc
 50
113.64497808
 51
180.007858636
  0
LINE
  5
380
330
1F
100
AcDbEntity
  8
0
  6
Continuous
 62
     7
370
    25
100
AcDbLine
 10
158.6376658477
 20
101.2211908028
 30
0.0
 11
158.6376658477
 21
100.7711924985
 31
0.0
  0
LINE
  5
381
330
1F
100
AcDbEntity
  8
0
  6
Continuous
 62
     7
370
    25
100
AcDbLine
 10
160.5126658058
 20
101.2211908028
 30
0.0
 11
158.6376658477
 21
101.2211908028
 31
0.0
  0
LINE
  5
382
330
1F
100
AcDbEntity
  8
0
  6
Continuous
 62
     7
370
    25
100
AcDbLine
 10
160.5126658058
 20
101.2211908028
 30
0.0
 11
160.5126658058
 21
100.7711924985
 31
0.0
  0
LINE
  5
383
330
1F
100
AcDbEntity
  8
0
  6
Continuous
 62
     7
370
    25
100
AcDbLine
 10
156.7626658896
 20
101.2211908028
 30
0.0
 11
156.7626658896
 21
100.7711924985
 31
0.0
  0
LINE
  5
384
330
1F
100
AcDbEntity
  8
0
  6
Continuous
 62
     7
370
    25
100
AcDbLine
 10
158.6376658477
 20
101.2211908028
 30
0.0
 11
156.7626658896
 21
101.2211908028
 31
0.0
  0
LINE
  5
385
330
1F
100
AcDbEntity
  8
0
  6
Continuous
 62
     7
370
    25
100
AcDbLine
 10
159.0982222649
 20
87.271191217
 30
0.0
 11
159.0982222649
 21
100.7711924985
 31
0.0
  0
LINE
  5
386
330
1F
100
AcDbEntity
  8
0
  6
Continuous
 62
     7
370
    25
100
AcDbLine
 10
158.6376658477
 20
87.4711908773
 30
0.0
 11
159.0982222649
 21
87.271191217
 31
0.0
  0
LINE
  5
387
330
1F
100
AcDbEntity
  8
0
  6
Continuous
 62
     7
370
    25
100
AcDbLine
 10
158.6376658477
 20
87.4711908773
 30
0.0
 11
158.6376658477
 21
100.5711909756
 31
0.0
  0
LINE
  5
388
330
1F
100
AcDbEntity
  8
0
  6
Continuous
 62
     7
370
    25
100
AcDbLine
 10
159.0982222649
 20
100.7711924985
 30
0.0
 11
158.6376658477
 21
100.5711909756
 31
0.0
  0
LINE
  5
389
330
1F
100
AcDbEntity
  8
0
  6
Continuous
 62
     7
370
    25
100
AcDbLine
 10
158.1771094304
 20
100.7711924985
 30
0.0
 11
159.0982222649
 21
100.7711924985
 31
0.0
  0
LINE
  5
38A
330
1F
100
AcDbEntity
  8
0
  6
Continuous
 62
     7
370
    25
100
AcDbLine
 10
158.6376658477
 20
100.5711909756
 30
0.0
 11
158.1771094304
 21
100.7711924985
 31
0.0
  0
LINE
  5
38B
330
1F
100
AcDbEntity
  8
0
  6
Continuous
 62
     7
370
    25
100
AcDbLine
 10
159.0982222649
 20
87.271191217
 30
0.0
 11
158.1771094304
 21
87.271191217
 31
0.0
  0
LINE
  5
38C
330
1F
100
AcDbEntity
  8
0
  6
Continuous
 62
     7
370
    25
100
AcDbLine
 10
158.1771094304
 20
87.271191217
 30
0.0
 11
158.6376658477
 21
87.4711908773
 31
0.0
  0
LINE
  5
38D
330
1F
100
AcDbEntity
  8
0
  6
Continuous
 62
     7
370
    25
100
AcDbLine
 10
158.1771094304
 20
87.271191217
 30
0.0
 11
158.1771094304
 21
100.7711924985
 31
0.0
  0
LINE
  5
38E
330
1F
100
AcDbEntity
  8
0
  6
Continuous
 62
     7
370
    25
100
AcDbLine
 10
157.6969096739
 20
87.4711908773
 30
0.0
 11
158.1771094304
 21
87.271191217
 31
0.0
  0
LINE
  5
38F
330
1F
100
AcDbEntity
  8
0
  6
Continuous
 62
     7
370
    25
100
AcDbLine
 10
157.6969096739
 20
87.4711908773
 30
0.0
 11
157.6969096739
 21
100.5711909756
 31
0.0
  0
LINE
  5
390
330
1F
100
AcDbEntity
  8
0
  6
Continuous
 62
     7
370
    25
100
AcDbLine
 10
158.1771094304
 20
100.7711924985
 30
0.0
 11
157.6969096739
 21
100.5711909756
 31
0.0
  0
LINE
  5
391
330
1F
100
AcDbEntity
  8
0
  6
Continuous
 62
     7
370
    25
100
AcDbLine
 10
157.2610425599
 20
100.7711924985
 30
0.0
 11
158.1771094304
 21
100.7711924985
 31
0.0
  0
LINE
  5
392
330
1F
100
AcDbEntity
  8
0
  6
Continuous
 62
     7
370
    25
100
AcDbLine
 10
157.6969096739
 20
100.5711909756
 30
0.0
 11
157.2610425599
 21
100.7711924985
 31
0.0
  0
LINE
  5
393
330
1F
100
AcDbEntity
  8
0
  6
Continuous
 62
     7
370
    25
100
AcDbLine
 10
157.2610425599
 20
87.271191217
 30
0.0
 11
157.6969096739
 21
87.4711908773
 31
0.0
  0
LINE
  5
394
330
1F
100
AcDbEntity
  8
0
  6
Continuous
 62
     7
370
    25
100
AcDbLine
 10
157.2610425599
 20
87.271191217
 30
0.0
 11
157.2610425599
 21
100.7711924985
 31
0.0
  0
LINE
  5
395
330
1F
100
AcDbEntity
  8
0
  6
Continuous
 62
     7
370
    25
100
AcDbLine
 10
158.1771094304
 20
87.271191217
 30
0.0
 11
157.2610425599
 21
87.271191217
 31
0.0
  0
LINE
  5
396
330
1F
100
AcDbEntity
  8
0
  6
Continuous
 62
     7
370
    25
100
AcDbLine
 10
160.0142891355
 20
87.271191217
 30
0.0
 11
160.0142891355
 21
100.7711924985
 31
0.0
  0
LINE
  5
397
330
1F
100
AcDbEntity
  8
0
  6
Continuous
 62
     7
370
    25
100
AcDbLine
 10
159.5784220215
 20
87.4711908773
 30
0.0
 11
160.0142891355
 21
87.271191217
 31
0.0
  0
LINE
  5
398
330
1F
100
AcDbEntity
  8
0
  6
Continuous
 62
     7
370
    25
100
AcDbLine
 10
159.5784220215
 20
87.4711908773
 30
0.0
 11
159.5784220215
 21
100.5711909756
 31
0.0
  0
LINE
  5
399
330
1F
100
AcDbEntity
  8
0
  6
Continuous
 62
     7
370
    25
100
AcDbLine
 10
160.0142891355
 20
100.7711924985
 30
0.0
 11
159.5784220215
 21
100.5711909756
 31
0.0
  0
LINE
  5
39A
330
1F
100
AcDbEntity
  8
0
  6
Continuous
 62
     7
370
    25
100
AcDbLine
 10
159.0982222649
 20
100.7711924985
 30
0.0
 11
160.0142891355
 21
100.7711924985
 31
0.0
  0
LINE
  5
39B
330
1F
100
AcDbEntity
  8
0
  6
Continuous
 62
     7
370
    25
100
AcDbLine
 10
159.5784220215
 20
100.5711909756
 30
0.0
 11
159.0982222649
 21
100.7711924985
 31
0.0
  0
LINE
  5
39C
330
1F
100
AcDbEntity
  8
0
  6
Continuous
 62
     7
370
    25
100
AcDbLine
 10
159.0982222649
 20
87.271191217
 30
0.0
 11
159.5784220215
 21
87.4711908773
 31
0.0
  0
LINE
  5
39D
330
1F
100
AcDbEntity
  8
0
  6
Continuous
 62
     7
370
    25
100
AcDbLine
 10
160.0142891355
 20
87.271191217
 30
0.0
 11
159.0982222649
 21
87.271191217
 31
0.0
  0
LINE
  5
39E
330
1F
100
AcDbEntity
  8
0
  6
Continuous
 62
     7
370
    25
100
AcDbLine
 10
156.7664606798
 20
87.4711908773
 30
0.0
 11
157.2610425599
 21
87.271191217
 31
0.0
  0
LINE
  5
39F
330
1F
100
AcDbEntity
  8
0
  6
Continuous
 62
     7
370
    25
100
AcDbLine
 10
156.7664606798
 20
87.4711908773
 30
0.0
 11
156.7664606798
 21
100.5711909756
 31
0.0
  0
LINE
  5
3A0
330
1F
100
AcDbEntity
  8
0
  6
Continuous
 62
     7
370
    25
100
AcDbLine
 10
157.2610425599
 20
100.7711924985
 30
0.0
 11
156.7664606798
 21
100.5711909756
 31
0.0
  0
LINE
  5
3A1
330
1F
100
AcDbEntity
  8
0
  6
Continuous
 62
     7
370
    25
100
AcDbLine
 10
156.3600582838
 20
100.7711924985
 30
0.0
 11
157.2610425599
 21
100.7711924985
 31
0.0
  0
LINE
  5
3A2
330
1F
100
AcDbEntity
  8
0
  6
Continuous
 62
     7
370
    25
100
AcDbLine
 10
156.7664606798
 20
100.5711909756
 30
0.0
 11
156.3600582838
 21
100.7711924985
 31
0.0
  0
LINE
  5
3A3
330
1F
100
AcDbEntity
  8
0
  6
Continuous
 62
     7
370
    25
100
AcDbLine
 10
157.2610425599
 20
87.271191217
 30
0.0
 11
156.3600582838
 21
87.271191217
 31
0.0
  0
LINE
  5
3A4
330
1F
100
AcDbEntity
  8
0
  6
Continuous
 62
     7
370
    25
100
AcDbLine
 10
156.3600582838
 20
87.271191217
 30
0.0
 11
156.7664606798
 21
87.4711908773
 31
0.0
  0
LINE
  5
3A5
330
1F
100
AcDbEntity
  8
0
  6
Continuous
 62
     7
370
    25
100
AcDbLine
 10
156.3600582838
 20
87.271191217
 30
0.0
 11
156.3600582838
 21
100.7711924985
 31
0.0
  0
LINE
  5
3A6
330
1F
100
AcDbEntity
  8
0
  6
Continuous
 62
     7
370
    25
100
AcDbLine
 10
160.9152734115
 20
87.271191217
 30
0.0
 11
160.9152734115
 21
100.7711924985
 31
0.0
  0
LINE
  5
3A7
330
1F
100
AcDbEntity
  8
0
  6
Continuous
 62
     7
370
    25
100
AcDbLine
 10
160.5088710155
 20
87.4711908773
 30
0.0
 11
160.9152734115
 21
87.271191217
 31
0.0
  0
LINE
  5
3A8
330
1F
100
AcDbEntity
  8
0
  6
Continuous
 62
     7
370
    25
100
AcDbLine
 10
160.5088710155
 20
87.4711908773
 30
0.0
 11
160.5088710155
 21
100.5711909756
 31
0.0
  0
LINE
  5
3A9
330
1F
100
AcDbEntity
  8
0
  6
Continuous
 62
     7
370
    25
100
AcDbLine
 10
160.9152734115
 20
100.7711924985
 30
0.0
 11
160.5088710155
 21
100.5711909756
 31
0.0
  0
LINE
  5
3AA
330
1F
100
AcDbEntity
  8
0
  6
Continuous
 62
     7
370
    25
100
AcDbLine
 10
160.0142891355
 20
100.7711924985
 30
0.0
 11
160.9152734115
 21
100.7711924985
 31
0.0
  0
LINE
  5
3AB
330
1F
100
AcDbEntity
  8
0
  6
Continuous
 62
     7
370
    25
100
AcDbLine
 10
160.5088710155
 20
100.5711909756
 30
0.0
 11
160.0142891355
 21
100.7711924985
 31
0.0
  0
LINE
  5
3AC
330
1F
100
AcDbEntity
  8
0
  6
Continuous
 62
     7
370
    25
100
AcDbLine
 10
160.0142891355
 20
87.271191217
 30
0.0
 11
160.5088710155
 21
87.4711908773
 31
0.0
  0
LINE
  5
3AD
330
1F
100
AcDbEntity
  8
0
  6
Continuous
 62
     7
370
    25
100
AcDbLine
 10
160.9152734115
 20
87.271191217
 30
0.0
 11
160.0142891355
 21
87.271191217
 31
0.0
  0
LINE
  5
3AE
330
1F
100
AcDbEntity
  8
0
  6
Continuous
 62
     7
370
    25
100
AcDbLine
 10
155.8565128896
 20
87.4711908773
 30
0.0
 11
156.3600582838
 21
87.271191217
 31
0.0
  0
LINE
  5
3AF
330
1F
100
AcDbEntity
  8
0
  6
Continuous
 62
     7
370
    25
100
AcDbLine
 10
155.8565128896
 20
87.4711908773
 30
0.0
 11
155.8565128896
 21
100.5711909756
 31
0.0
  0
LINE
  5
3B0
330
1F
100
AcDbEntity
  8
0
  6
Continuous
 62
     7
370
    25
100
AcDbLine
 10
156.3600582838
 20
100.7711924985
 30
0.0
 11
155.8565128896
 21
100.5711909756
 31
0.0
  0
LINE
  5
3B1
330
1F
100
AcDbEntity
  8
0
  6
Continuous
 62
     7
370
    25
100
AcDbLine
 10
155.8565128896
 20
100.5711909756
 30
0.0
 11
155.4840278648
 21
100.7711924985
 31
0.0
  0
LINE
  5
3B2
330
1F
100
AcDbEntity
  8
0
  6
Continuous
 62
     7
370
    25
100
AcDbLine
 10
155.4840278648
 20
100.7711924985
 30
0.0
 11
156.3600582838
 21
100.7711924985
 31
0.0
  0
LINE
  5
3B3
330
1F
100
AcDbEntity
  8
0
  6
Continuous
 62
     7
370
    25
100
AcDbLine
 10
155.4840278648
 20
87.271191217
 30
0.0
 11
155.8565128896
 21
87.4711908773
 31
0.0
  0
LINE
  5
3B4
330
1F
100
AcDbEntity
  8
0
  6
Continuous
 62
     7
370
    25
100
AcDbLine
 10
155.4840278648
 20
87.271191217
 30
0.0
 11
155.4840278648
 21
100.7711924985
 31
0.0
  0
LINE
  5
3B5
330
1F
100
AcDbEntity
  8
0
  6
Continuous
 62
     7
370
    25
100
AcDbLine
 10
156.3600582838
 20
87.271191217
 30
0.0
 11
155.4840278648
 21
87.271191217
 31
0.0
  0
LINE
  5
3B6
330
1F
100
AcDbEntity
  8
0
  6
Continuous
 62
     7
370
    25
100
AcDbLine
 10
161.4188188057
 20
87.4711908773
 30
0.0
 11
161.4188188057
 21
100.5711909756
 31
0.0
  0
LINE
  5
3B7
330
1F
100
AcDbEntity
  8
0
  6
Continuous
 62
     7
370
    25
100
AcDbLine
 10
160.9152734115
 20
87.271191217
 30
0.0
 11
161.4188188057
 21
87.4711908773
 31
0.0
  0
LINE
  5
3B8
330
1F
100
AcDbEntity
  8
0
  6
Continuous
 62
     7
370
    25
100
AcDbLine
 10
161.4188188057
 20
100.5711909756
 30
0.0
 11
160.9152734115
 21
100.7711924985
 31
0.0
  0
LINE
  5
3B9
330
1F
100
AcDbEntity
  8
0
  6
Continuous
 62
     7
370
    25
100
AcDbLine
 10
161.7913038306
 20
87.271191217
 30
0.0
 11
161.7913038306
 21
100.7711924985
 31
0.0
  0
LINE
  5
3BA
330
1F
100
AcDbEntity
  8
0
  6
Continuous
 62
     7
370
    25
100
AcDbLine
 10
161.4188188057
 20
87.4711908773
 30
0.0
 11
161.7913038306
 21
87.271191217
 31
0.0
  0
LINE
  5
3BB
330
1F
100
AcDbEntity
  8
0
  6
Continuous
 62
     7
370
    25
100
AcDbLine
 10
161.7913038306
 20
100.7711924985
 30
0.0
 11
161.4188188057
 21
100.5711909756
 31
0.0
  0
LINE
  5
3BC
330
1F
100
AcDbEntity
  8
0
  6
Continuous
 62
     7
370
    25
100
AcDbLine
 10
160.9152734115
 20
100.7711924985
 30
0.0
 11
161.7913038306
 21
100.7711924985
 31
0.0
  0
LINE
  5
3BD
330
1F
100
AcDbEntity
  8
0
  6
Continuous
 62
     7
370
    25
100
AcDbLine
 10
161.7913038306
 20
87.271191217
 30
0.0
 11
160.9152734115
 21
87.271191217
 31
0.0
  0
LINE
  5
3BE
330
1F
100
AcDbEntity
  8
0
  6
Continuous
 62
     7
370
    25
100
AcDbLine
 10
154.9770361114
 20
87.4711908773
 30
0.0
 11
155.4840278648
 21
87.271191217
 31
0.0
  0
LINE
  5
3BF
330
1F
100
AcDbEntity
  8
0
  6
Continuous
 62
     7
370
    25
100
AcDbLine
 10
154.9770361114
 20
87.4711908773
 30
0.0
 11
154.9770361114
 21
100.5711909756
 31
0.0
  0
LINE
  5
3C0
330
1F
100
AcDbEntity
  8
0
  6
Continuous
 62
     7
370
    25
100
AcDbLine
 10
155.4840278648
 20
100.7711924985
 30
0.0
 11
154.9770361114
 21
100.5711909756
 31
0.0
  0
LINE
  5
3C1
330
1F
100
AcDbEntity
  8
0
  6
Continuous
 62
     7
370
    25
100
AcDbLine
 10
154.9770361114
 20
100.5711909756
 30
0.0
 11
154.6425495133
 21
100.7711924985
 31
0.0
  0
LINE
  5
3C2
330
1F
100
AcDbEntity
  8
0
  6
Continuous
 62
     7
370
    25
100
AcDbLine
 10
154.6425495133
 20
100.7711924985
 30
0.0
 11
155.4840278648
 21
100.7711924985
 31
0.0
  0
LINE
  5
3C3
330
1F
100
AcDbEntity
  8
0
  6
Continuous
 62
     7
370
    25
100
AcDbLine
 10
154.6425495133
 20
87.271191217
 30
0.0
 11
154.9770361114
 21
87.4711908773
 31
0.0
  0
LINE
  5
3C4
330
1F
100
AcDbEntity
  8
0
  6
Continuous
 62
     7
370
    25
100
AcDbLine
 10
155.4840278648
 20
87.271191217
 30
0.0
 11
154.6425495133
 21
87.271191217
 31
0.0
  0
LINE
  5
3C5
330
1F
100
AcDbEntity
  8
0
  6
Continuous
 62
     7
370
    25
100
AcDbLine
 10
162.2982955839
 20
87.4711908773
 30
0.0
 11
162.6327821821
 21
87.271191217
 31
0.0
  0
LINE
  5
3C6
330
1F
100
AcDbEntity
  8
0
  6
Continuous
 62
     7
370
    25
100
AcDbLine
 10
161.7913038306
 20
87.271191217
 30
0.0
 11
162.2982955839
 21
87.4711908773
 31
0.0
  0
LINE
  5
3C7
330
1F
100
AcDbEntity
  8
0
  6
Continuous
 62
     7
370
    25
100
AcDbLine
 10
162.6327821821
 20
87.271191217
 30
0.0
 11
161.7913038306
 21
87.271191217
 31
0.0
  0
LINE
  5
3C8
330
1F
100
AcDbEntity
  8
0
  6
Continuous
 62
     7
370
    25
100
AcDbLine
 10
162.2982955839
 20
87.4711908773
 30
0.0
 11
162.2982955839
 21
100.5711909756
 31
0.0
  0
LINE
  5
3C9
330
1F
100
AcDbEntity
  8
0
  6
Continuous
 62
     7
370
    25
100
AcDbLine
 10
162.2982955839
 20
100.5711909756
 30
0.0
 11
161.7913038306
 21
100.7711924985
 31
0.0
  0
LINE
  5
3CA
330
1F
100
AcDbEntity
  8
0
  6
Continuous
 62
     7
370
    25
100
AcDbLine
 10
162.6327821821
 20
100.7711924985
 30
0.0
 11
162.2982955839
 21
100.5711909756
 31
0.0
  0
LINE
  5
3CB
330
1F
100
AcDbEntity
  8
0
  6
Continuous
 62
     7
370
    25
100
AcDbLine
 10
161.7913038306
 20
100.7711924985
 30
0.0
 11
162.6327821821
 21
100.7711924985
 31
0.0
  0
LINE
  5
3CC
330
1F
100
AcDbEntity
  8
0
  6
Continuous
 62
     7
370
    25
100
AcDbLine
 10
154.6425495133
 20
87.271191217
 30
0.0
 11
154.6425495133
 21
100.7711924985
 31
0.0
  0
LINE
  5
3CD
330
1F
100
AcDbEntity
  8
0
  6
Continuous
 62
     7
370
    25
100
AcDbLine
 10
162.6327821821
 20
87.271191217
 30
0.0
 11
162.6327821821
 21
100.7711924985
 31
0.0
  0
LINE
  5
3CE
330
1F
100
AcDbEntity
  8
0
  6
Continuous
 62
     7
370
    25
100
AcDbLine
 10
154.1376660414
 20
87.4711908773
 30
0.0
 11
154.6425495133
 21
87.271191217
 31
0.0
  0
LINE
  5
3CF
330
1F
100
AcDbEntity
  8
0
  6
Continuous
 62
     7
370
    25
100
AcDbLine
 10
154.1376660414
 20
87.4711908773
 30
0.0
 11
154.1376660414
 21
100.5711909756
 31
0.0
  0
LINE
  5
3D0
330
1F
100
AcDbEntity
  8
0
  6
Continuous
 62
     7
370
    25
100
AcDbLine
 10
154.6425495133
 20
100.7711924985
 30
0.0
 11
154.1376660414
 21
100.5711909756
 31
0.0
  0
LINE
  5
3D1
330
1F
100
AcDbEntity
  8
0
  6
Continuous
 62
     7
370
    25
100
AcDbLine
 10
154.1376660414
 20
100.5711909756
 30
0.0
 11
153.8448423914
 21
100.7711924985
 31
0.0
  0
LINE
  5
3D2
330
1F
100
AcDbEntity
  8
0
  6
Continuous
 62
     7
370
    25
100
AcDbLine
 10
153.8448423914
 20
100.7711924985
 30
0.0
 11
154.6425495133
 21
100.7711924985
 31
0.0
  0
LINE
  5
3D3
330
1F
100
AcDbEntity
  8
0
  6
Continuous
 62
     7
370
    25
100
AcDbLine
 10
153.8448423914
 20
87.271191217
 30
0.0
 11
154.1376660414
 21
87.4711908773
 31
0.0
  0
LINE
  5
3D4
330
1F
100
AcDbEntity
  8
0
  6
Continuous
 62
     7
370
    25
100
AcDbLine
 10
154.6425495133
 20
87.271191217
 30
0.0
 11
153.8448423914
 21
87.271191217
 31
0.0
  0
LINE
  5
3D5
330
1F
100
AcDbEntity
  8
0
  6
Continuous
 62
     7
370
    25
100
AcDbLine
 10
163.4304893039
 20
100.7711924985
 30
0.0
 11
163.137665654
 21
100.5711909756
 31
0.0
  0
LINE
  5
3D6
330
1F
100
AcDbEntity
  8
0
  6
Continuous
 62
     7
370
    25
100
AcDbLine
 10
163.137665654
 20
100.5711909756
 30
0.0
 11
162.6327821821
 21
100.7711924985
 31
0.0
  0
LINE
  5
3D7
330
1F
100
AcDbEntity
  8
0
  6
Continuous
 62
     7
370
    25
100
AcDbLine
 10
162.6327821821
 20
100.7711924985
 30
0.0
 11
163.4304893039
 21
100.7711924985
 31
0.0
  0
LINE
  5
3D8
330
1F
100
AcDbEntity
  8
0
  6
Continuous
 62
     7
370
    25
100
AcDbLine
 10
163.137665654
 20
87.4711908773
 30
0.0
 11
163.4304893039
 21
87.271191217
 31
0.0
  0
LINE
  5
3D9
330
1F
100
AcDbEntity
  8
0
  6
Continuous
 62
     7
370
    25
100
AcDbLine
 10
162.6327821821
 20
87.271191217
 30
0.0
 11
163.137665654
 21
87.4711908773
 31
0.0
  0
LINE
  5
3DA
330
1F
100
AcDbEntity
  8
0
  6
Continuous
 62
     7
370
    25
100
AcDbLine
 10
163.4304893039
 20
87.271191217
 30
0.0
 11
162.6327821821
 21
87.271191217
 31
0.0
  0
LINE
  5
3DB
330
1F
100
AcDbEntity
  8
0
  6
Continuous
 62
     7
370
    25
100
AcDbLine
 10
163.137665654
 20
87.4711908773
 30
0.0
 11
163.137665654
 21
100.5711909756
 31
0.0
  0
LINE
  5
3DC
330
1F
100
AcDbEntity
  8
0
  6
Continuous
 62
     7
370
    25
100
AcDbLine
 10
153.8448423914
 20
87.271191217
 30
0.0
 11
153.8448423914
 21
100.7711924985
 31
0.0
  0
LINE
  5
3DD
330
1F
100
AcDbEntity
  8
0
  6
Continuous
 62
     7
370
    25
100
AcDbLine
 10
163.4304893039
 20
87.271191217
 30
0.0
 11
163.4304893039
 21
100.7711924985
 31
0.0
  0
LINE
  5
3DE
330
1F
100
AcDbEntity
  8
0
  6
Continuous
 62
     7
370
    25
100
AcDbLine
 10
151.1376660153
 20
82.4711919204
 30
0.0
 11
166.13766568
 21
82.4711919204
 31
0.0
  0
LINE
  5
3DF
330
1F
100
AcDbEntity
  8
0
  6
Continuous
 62
     7
370
    25
100
AcDbLine
 10
165.9376660198
 20
82.2711913288
 30
0.0
 11
151.3376656756
 21
82.2711913288
 31
0.0
  0
LINE
  5
3E0
330
1F
100
AcDbEntity
  8
0
  6
Continuous
 62
     7
370
    25
100
AcDbLine
 10
153.8448423914
 20
100.7711924985
 30
0.0
 11
153.3475985586
 21
100.5711909756
 31
0.0
  0
LINE
  5
3E1
330
1F
100
AcDbEntity
  8
0
  6
Continuous
 62
     7
370
    25
100
AcDbLine
 10
153.3475985586
 20
100.5711909756
 30
0.0
 11
153.099646496
 21
100.7711924985
 31
0.0
  0
LINE
  5
3E2
330
1F
100
AcDbEntity
  8
0
  6
Continuous
 62
     7
370
    25
100
AcDbLine
 10
153.099646496
 20
100.7711924985
 30
0.0
 11
153.8448423914
 21
100.7711924985
 31
0.0
  0
LINE
  5
3E3
330
1F
100
AcDbEntity
  8
0
  6
Continuous
 62
     7
370
    25
100
AcDbLine
 10
153.3475985586
 20
87.4711908773
 30
0.0
 11
153.8448423914
 21
87.271191217
 31
0.0
  0
LINE
  5
3E4
330
1F
100
AcDbEntity
  8
0
  6
Continuous
 62
     7
370
    25
100
AcDbLine
 10
153.3475985586
 20
87.4711908773
 30
0.0
 11
153.3475985586
 21
100.5711909756
 31
0.0
  0
LINE
  5
3E5
330
1F
100
AcDbEntity
  8
0
  6
Continuous
 62
     7
370
    25
100
AcDbLine
 10
153.099646496
 20
87.271191217
 30
0.0
 11
153.3475985586
 21
87.4711908773
 31
0.0
  0
LINE
  5
3E6
330
1F
100
AcDbEntity
  8
0
  6
Continuous
 62
     7
370
    25
100
AcDbLine
 10
153.8448423914
 20
87.271191217
 30
0.0
 11
153.099646496
 21
87.271191217
 31
0.0
  0
LINE
  5
3E7
330
1F
100
AcDbEntity
  8
0
  6
Continuous
 62
     7
370
    25
100
AcDbLine
 10
164.1756851993
 20
100.7711924985
 30
0.0
 11
163.9277331367
 21
100.5711909756
 31
0.0
  0
LINE
  5
3E8
330
1F
100
AcDbEntity
  8
0
  6
Continuous
 62
     7
370
    25
100
AcDbLine
 10
163.9277331367
 20
100.5711909756
 30
0.0
 11
163.4304893039
 21
100.7711924985
 31
0.0
  0
LINE
  5
3E9
330
1F
100
AcDbEntity
  8
0
  6
Continuous
 62
     7
370
    25
100
AcDbLine
 10
163.4304893039
 20
100.7711924985
 30
0.0
 11
164.1756851993
 21
100.7711924985
 31
0.0
  0
LINE
  5
3EA
330
1F
100
AcDbEntity
  8
0
  6
Continuous
 62
     7
370
    25
100
AcDbLine
 10
163.9277331367
 20
87.4711908773
 30
0.0
 11
163.9277331367
 21
100.5711909756
 31
0.0
  0
LINE
  5
3EB
330
1F
100
AcDbEntity
  8
0
  6
Continuous
 62
     7
370
    25
100
AcDbLine
 10
163.4304893039
 20
87.271191217
 30
0.0
 11
163.9277331367
 21
87.4711908773
 31
0.0
  0
LINE
  5
3EC
330
1F
100
AcDbEntity
  8
0
  6
Continuous
 62
     7
370
    25
100
AcDbLine
 10
163.9277331367
 20
87.4711908773
 30
0.0
 11
164.1756851993
 21
87.271191217
 31
0.0
  0
LINE
  5
3ED
330
1F
100
AcDbEntity
  8
0
  6
Continuous
 62
     7
370
    25
100
AcDbLine
 10
164.1756851993
 20
87.271191217
 30
0.0
 11
163.4304893039
 21
87.271191217
 31
0.0
  0
LINE
  5
3EE
330
1F
100
AcDbEntity
  8
0
  6
Continuous
 62
     7
370
    25
100
AcDbLine
 10
153.099646496
 20
87.271191217
 30
0.0
 11
153.099646496
 21
100.7711924985
 31
0.0
  0
LINE
  5
3EF
330
1F
100
AcDbEntity
  8
0
  6
Continuous
 62
     7
370
    25
100
AcDbLine
 10
164.1756851993
 20
87.271191217
 30
0.0
 11
164.1756851993
 21
100.7711924985
 31
0.0
  0
LINE
  5
3F0
330
1F
100
AcDbEntity
  8
0
  6
Continuous
 62
     7
370
    25
100
AcDbLine
 10
152.6154905393
 20
87.4711908773
 30
0.0
 11
153.099646496
 21
87.271191217
 31
0.0
  0
LINE
  5
3F1
330
1F
100
AcDbEntity
  8
0
  6
Continuous
 62
     7
370
    25
100
AcDbLine
 10
152.6154905393
 20
87.4711908773
 30
0.0
 11
152.6154905393
 21
100.5711909756
 31
0.0
  0
LINE
  5
3F2
330
1F
100
AcDbEntity
  8
0
  6
Continuous
 62
     7
370
    25
100
AcDbLine
 10
153.099646496
 20
100.7711924985
 30
0.0
 11
152.6154905393
 21
100.5711909756
 31
0.0
  0
LINE
  5
3F3
330
1F
100
AcDbEntity
  8
0
  6
Continuous
 62
     7
370
    25
100
AcDbLine
 10
152.6154905393
 20
100.5711909756
 30
0.0
 11
152.4151262663
 21
100.7711924985
 31
0.0
  0
LINE
  5
3F4
330
1F
100
AcDbEntity
  8
0
  6
Continuous
 62
     7
370
    25
100
AcDbLine
 10
152.4151262663
 20
100.7711924985
 30
0.0
 11
153.099646496
 21
100.7711924985
 31
0.0
  0
LINE
  5
3F5
330
1F
100
AcDbEntity
  8
0
  6
Continuous
 62
     7
370
    25
100
AcDbLine
 10
152.4151262663
 20
87.271191217
 30
0.0
 11
152.6154905393
 21
87.4711908773
 31
0.0
  0
LINE
  5
3F6
330
1F
100
AcDbEntity
  8
0
  6
Continuous
 62
     7
370
    25
100
AcDbLine
 10
153.099646496
 20
87.271191217
 30
0.0
 11
152.4151262663
 21
87.271191217
 31
0.0
  0
LINE
  5
3F7
330
1F
100
AcDbEntity
  8
0
  6
Continuous
 62
     7
370
    25
100
AcDbLine
 10
164.860205429
 20
100.7711924985
 30
0.0
 11
164.659841156
 21
100.5711909756
 31
0.0
  0
LINE
  5
3F8
330
1F
100
AcDbEntity
  8
0
  6
Continuous
 62
     7
370
    25
100
AcDbLine
 10
164.659841156
 20
100.5711909756
 30
0.0
 11
164.1756851993
 21
100.7711924985
 31
0.0
  0
LINE
  5
3F9
330
1F
100
AcDbEntity
  8
0
  6
Continuous
 62
     7
370
    25
100
AcDbLine
 10
164.1756851993
 20
100.7711924985
 30
0.0
 11
164.860205429
 21
100.7711924985
 31
0.0
  0
LINE
  5
3FA
330
1F
100
AcDbEntity
  8
0
  6
Continuous
 62
     7
370
    25
100
AcDbLine
 10
164.659841156
 20
87.4711908773
 30
0.0
 11
164.659841156
 21
100.5711909756
 31
0.0
  0
LINE
  5
3FB
330
1F
100
AcDbEntity
  8
0
  6
Continuous
 62
     7
370
    25
100
AcDbLine
 10
164.1756851993
 20
87.271191217
 30
0.0
 11
164.659841156
 21
87.4711908773
 31
0.0
  0
LINE
  5
3FC
330
1F
100
AcDbEntity
  8
0
  6
Continuous
 62
     7
370
    25
100
AcDbLine
 10
164.659841156
 20
87.4711908773
 30
0.0
 11
164.860205429
 21
87.271191217
 31
0.0
  0
LINE
  5
3FD
330
1F
100
AcDbEntity
  8
0
  6
Continuous
 62
     7
370
    25
100
AcDbLine
 10
164.860205429
 20
87.271191217
 30
0.0
 11
164.1756851993
 21
87.271191217
 31
0.0
  0
LINE
  5
3FE
330
1F
100
AcDbEntity
  8
0
  6
Continuous
 62
     7
370
    25
100
AcDbLine
 10
152.4151262663
 20
87.271191217
 30
0.0
 11
152.4151262663
 21
100.7711924985
 31
0.0
  0
LINE
  5
3FF
330
1F
100
AcDbEntity
  8
0
  6
Continuous
 62
     7
370
    25
100
AcDbLine
 10
164.860205429
 20
87.271191217
 30
0.0
 11
164.860205429
 21
100.7711924985
 31
0.0
  0
LINE
  5
400
330
1F
100
AcDbEntity
  8
0
  6
Continuous
 62
     7
370
    25
100
AcDbLine
 10
152.4151262663
 20
100.7711924985
 30
0.0
 11
151.9493625335
 21
100.5711909756
 31
0.0
  0
LINE
  5
401
330
1F
100
AcDbEntity
  8
0
  6
Continuous
 62
     7
370
    25
100
AcDbLine
 10
151.9493625335
 20
100.5711909756
 30
0.0
 11
151.7987811774
 21
100.7711924985
 31
0.0
  0
LINE
  5
402
330
1F
100
AcDbEntity
  8
0
  6
Continuous
 62
     7
370
    25
100
AcDbLine
 10
151.7987811774
 20
100.7711924985
 30
0.0
 11
152.4151262663
 21
100.7711924985
 31
0.0
  0
LINE
  5
403
330
1F
100
AcDbEntity
  8
0
  6
Continuous
 62
     7
370
    25
100
AcDbLine
 10
151.9493625335
 20
87.4711908773
 30
0.0
 11
152.4151262663
 21
87.271191217
 31
0.0
  0
LINE
  5
404
330
1F
100
AcDbEntity
  8
0
  6
Continuous
 62
     7
370
    25
100
AcDbLine
 10
151.9493625335
 20
87.4711908773
 30
0.0
 11
151.9493625335
 21
100.5711909756
 31
0.0
  0
LINE
  5
405
330
1F
100
AcDbEntity
  8
0
  6
Continuous
 62
     7
370
    25
100
AcDbLine
 10
151.7987811774
 20
87.271191217
 30
0.0
 11
151.9493625335
 21
87.4711908773
 31
0.0
  0
LINE
  5
406
330
1F
100
AcDbEntity
  8
0
  6
Continuous
 62
     7
370
    25
100
AcDbLine
 10
152.4151262663
 20
87.271191217
 30
0.0
 11
151.7987811774
 21
87.271191217
 31
0.0
  0
LINE
  5
407
330
1F
100
AcDbEntity
  8
0
  6
Continuous
 62
     7
370
    25
100
AcDbLine
 10
165.476550518
 20
100.7711924985
 30
0.0
 11
165.3259691618
 21
100.5711909756
 31
0.0
  0
LINE
  5
408
330
1F
100
AcDbEntity
  8
0
  6
Continuous
 62
     7
370
    25
100
AcDbLine
 10
165.3259691618
 20
100.5711909756
 30
0.0
 11
164.860205429
 21
100.7711924985
 31
0.0
  0
LINE
  5
409
330
1F
100
AcDbEntity
  8
0
  6
Continuous
 62
     7
370
    25
100
AcDbLine
 10
164.860205429
 20
100.7711924985
 30
0.0
 11
165.476550518
 21
100.7711924985
 31
0.0
  0
LINE
  5
40A
330
1F
100
AcDbEntity
  8
0
  6
Continuous
 62
     7
370
    25
100
AcDbLine
 10
165.3259691618
 20
87.4711908773
 30
0.0
 11
165.3259691618
 21
100.5711909756
 31
0.0
  0
LINE
  5
40B
330
1F
100
AcDbEntity
  8
0
  6
Continuous
 62
     7
370
    25
100
AcDbLine
 10
164.860205429
 20
87.271191217
 30
0.0
 11
165.3259691618
 21
87.4711908773
 31
0.0
  0
LINE
  5
40C
330
1F
100
AcDbEntity
  8
0
  6
Continuous
 62
     7
370
    25
100
AcDbLine
 10
165.3259691618
 20
87.4711908773
 30
0.0
 11
165.476550518
 21
87.271191217
 31
0.0
  0
LINE
  5
40D
330
1F
100
AcDbEntity
  8
0
  6
Continuous
 62
     7
370
    25
100
AcDbLine
 10
165.476550518
 20
87.271191217
 30
0.0
 11
164.860205429
 21
87.271191217
 31
0.0
  0
LINE
  5
40E
330
1F
100
AcDbEntity
  8
0
  6
Continuous
 62
     7
370
    25
100
AcDbLine
 10
151.7987811774
 20
87.271191217
 30
0.0
 11
151.7987811774
 21
100.7711924985
 31
0.0
  0
LINE
  5
40F
330
1F
100
AcDbEntity
  8
0
  6
Continuous
 62
     7
370
    25
100
AcDbLine
 10
165.476550518
 20
87.271191217
 30
0.0
 11
165.476550518
 21
100.7711924985
 31
0.0
  0
LINE
  5
410
330
1F
100
AcDbEntity
  8
0
  6
Continuous
 62
     7
370
    25
100
AcDbLine
 10
151.7987811774
 20
100.7711924985
 30
0.0
 11
151.3565128505
 21
100.5711909756
 31
0.0
  0
LINE
  5
411
330
1F
100
AcDbEntity
  8
0
  6
Continuous
 62
     7
370
    25
100
AcDbLine
 10
151.3565128505
 20
100.5711909756
 30
0.0
 11
151.2573647149
 21
100.7711924985
 31
0.0
  0
LINE
  5
412
330
1F
100
AcDbEntity
  8
0
  6
Continuous
 62
     7
370
    25
100
AcDbLine
 10
151.2573647149
 20
100.7711924985
 30
0.0
 11
151.7987811774
 21
100.7711924985
 31
0.0
  0
LINE
  5
413
330
1F
100
AcDbEntity
  8
0
  6
Continuous
 62
     7
370
    25
100
AcDbLine
 10
151.3565128505
 20
87.4711908773
 30
0.0
 11
151.7987811774
 21
87.271191217
 31
0.0
  0
LINE
  5
414
330
1F
100
AcDbEntity
  8
0
  6
Continuous
 62
     7
370
    25
100
AcDbLine
 10
151.3565128505
 20
87.4711908773
 30
0.0
 11
151.3565128505
 21
100.5711909756
 31
0.0
  0
LINE
  5
415
330
1F
100
AcDbEntity
  8
0
  6
Continuous
 62
     7
370
    25
100
AcDbLine
 10
151.2573647149
 20
87.271191217
 30
0.0
 11
151.3565128505
 21
87.4711908773
 31
0.0
  0
LINE
  5
416
330
1F
100
AcDbEntity
  8
0
  6
Continuous
 62
     7
370
    25
100
AcDbLine
 10
151.7987811774
 20
87.271191217
 30
0.0
 11
151.2573647149
 21
87.271191217
 31
0.0
  0
LINE
  5
417
330
1F
100
AcDbEntity
  8
0
  6
Continuous
 62
     7
370
    25
100
AcDbLine
 10
166.0179669805
 20
100.7711924985
 30
0.0
 11
165.9188188448
 21
100.5711909756
 31
0.0
  0
LINE
  5
418
330
1F
100
AcDbEntity
  8
0
  6
Continuous
 62
     7
370
    25
100
AcDbLine
 10
165.9188188448
 20
100.5711909756
 30
0.0
 11
165.476550518
 21
100.7711924985
 31
0.0
  0
LINE
  5
419
330
1F
100
AcDbEntity
  8
0
  6
Continuous
 62
     7
370
    25
100
AcDbLine
 10
165.476550518
 20
100.7711924985
 30
0.0
 11
166.0179669805
 21
100.7711924985
 31
0.0
  0
LINE
  5
41A
330
1F
100
AcDbEntity
  8
0
  6
Continuous
 62
     7
370
    25
100
AcDbLine
 10
165.9188188448
 20
87.4711908773
 30
0.0
 11
165.9188188448
 21
100.5711909756
 31
0.0
  0
LINE
  5
41B
330
1F
100
AcDbEntity
  8
0
  6
Continuous
 62
     7
370
    25
100
AcDbLine
 10
165.476550518
 20
87.271191217
 30
0.0
 11
165.9188188448
 21
87.4711908773
 31
0.0
  0
LINE
  5
41C
330
1F
100
AcDbEntity
  8
0
  6
Continuous
 62
     7
370
    25
100
AcDbLine
 10
165.9188188448
 20
87.4711908773
 30
0.0
 11
166.0179669805
 21
87.271191217
 31
0.0
  0
LINE
  5
41D
330
1F
100
AcDbEntity
  8
0
  6
Continuous
 62
     7
370
    25
100
AcDbLine
 10
166.0179669805
 20
87.271191217
 30
0.0
 11
165.476550518
 21
87.271191217
 31
0.0
  0
LINE
  5
41E
330
1F
100
AcDbEntity
  8
0
  6
Continuous
 62
     7
370
    25
100
AcDbLine
 10
151.2573647149
 20
87.271191217
 30
0.0
 11
151.2573647149
 21
100.7711924985
 31
0.0
  0
LINE
  5
41F
330
1F
100
AcDbEntity
  8
0
  6
Continuous
 62
     7
370
    25
100
AcDbLine
 10
166.0179669805
 20
87.271191217
 30
0.0
 11
166.0179669805
 21
100.7711924985
 31
0.0
  0
LINE
  5
420
330
1F
100
AcDbEntity
  8
0
  6
Continuous
 62
     7
370
    25
100
AcDbLine
 10
150.8434369996
 20
87.4711908773
 30
0.0
 11
151.2573647149
 21
87.271191217
 31
0.0
  0
LINE
  5
421
330
1F
100
AcDbEntity
  8
0
  6
Continuous
 62
     7
370
    25
100
AcDbLine
 10
150.8434369996
 20
87.4711908773
 30
0.0
 11
150.8434369996
 21
100.5711909756
 31
0.0
  0
LINE
  5
422
330
1F
100
AcDbEntity
  8
0
  6
Continuous
 62
     7
370
    25
100
AcDbLine
 10
151.2573647149
 20
100.7711924985
 30
0.0
 11
150.8434369996
 21
100.5711909756
 31
0.0
  0
LINE
  5
423
330
1F
100
AcDbEntity
  8
0
  6
Continuous
 62
     7
370
    25
100
AcDbLine
 10
150.8434369996
 20
100.5711909756
 30
0.0
 11
150.7968080066
 21
100.7711924985
 31
0.0
  0
LINE
  5
424
330
1F
100
AcDbEntity
  8
0
  6
Continuous
 62
     7
370
    25
100
AcDbLine
 10
150.7968080066
 20
100.7711924985
 30
0.0
 11
151.2573647149
 21
100.7711924985
 31
0.0
  0
LINE
  5
425
330
1F
100
AcDbEntity
  8
0
  6
Continuous
 62
     7
370
    25
100
AcDbLine
 10
150.7968080066
 20
87.271191217
 30
0.0
 11
150.8434369996
 21
87.4711908773
 31
0.0
  0
LINE
  5
426
330
1F
100
AcDbEntity
  8
0
  6
Continuous
 62
     7
370
    25
100
AcDbLine
 10
151.2573647149
 20
87.271191217
 30
0.0
 11
150.7968080066
 21
87.271191217
 31
0.0
  0
LINE
  5
427
330
1F
100
AcDbEntity
  8
0
  6
Continuous
 62
     7
370
    25
100
AcDbLine
 10
166.4785236887
 20
100.7711924985
 30
0.0
 11
166.4318946957
 21
100.5711909756
 31
0.0
  0
LINE
  5
428
330
1F
100
AcDbEntity
  8
0
  6
Continuous
 62
     7
370
    25
100
AcDbLine
 10
166.4318946957
 20
100.5711909756
 30
0.0
 11
166.0179669805
 21
100.7711924985
 31
0.0
  0
LINE
  5
429
330
1F
100
AcDbEntity
  8
0
  6
Continuous
 62
     7
370
    25
100
AcDbLine
 10
166.0179669805
 20
100.7711924985
 30
0.0
 11
166.4785236887
 21
100.7711924985
 31
0.0
  0
LINE
  5
42A
330
1F
100
AcDbEntity
  8
0
  6
Continuous
 62
     7
370
    25
100
AcDbLine
 10
166.4318946957
 20
87.4711908773
 30
0.0
 11
166.4318946957
 21
100.5711909756
 31
0.0
  0
LINE
  5
42B
330
1F
100
AcDbEntity
  8
0
  6
Continuous
 62
     7
370
    25
100
AcDbLine
 10
166.0179669805
 20
87.271191217
 30
0.0
 11
166.4318946957
 21
87.4711908773
 31
0.0
  0
LINE
  5
42C
330
1F
100
AcDbEntity
  8
0
  6
Continuous
 62
     7
370
    25
100
AcDbLine
 10
166.4318946957
 20
87.4711908773
 30
0.0
 11
166.4785236887
 21
87.271191217
 31
0.0
  0
LINE
  5
42D
330
1F
100
AcDbEntity
  8
0
  6
Continuous
 62
     7
370
    25
100
AcDbLine
 10
166.4785236887
 20
87.271191217
 30
0.0
 11
166.0179669805
 21
87.271191217
 31
0.0
  0
LINE
  5
42E
330
1F
100
AcDbEntity
  8
0
  6
Continuous
 62
     7
370
    25
100
AcDbLine
 10
150.7968080066
 20
87.271191217
 30
0.0
 11
150.7968080066
 21
100.7711924985
 31
0.0
  0
LINE
  5
42F
330
1F
100
AcDbEntity
  8
0
  6
Continuous
 62
     7
370
    25
100
AcDbLine
 10
166.4785236887
 20
87.271191217
 30
0.0
 11
166.4785236887
 21
100.7711924985
 31
0.0
  0
LINE
  5
430
330
1F
100
AcDbEntity
  8
0
  6
Continuous
 62
     7
370
    25
100
AcDbLine
 10
150.7968080066
 20
100.7711924985
 30
0.0
 11
150.4157564439
 21
100.5711909756
 31
0.0
  0
LINE
  5
431
330
1F
100
AcDbEntity
  8
0
  6
Continuous
 62
     7
370
    25
100
AcDbLine
 10
150.4157564439
 20
100.5711909756
 30
0.0
 11
150.4221583552
 21
100.7711924985
 31
0.0
  0
LINE
  5
432
330
1F
100
AcDbEntity
  8
0
  6
Continuous
 62
     7
370
    25
100
AcDbLine
 10
150.4221583552
 20
100.7711924985
 30
0.0
 11
150.7968080066
 21
100.7711924985
 31
0.0
  0
LINE
  5
433
330
1F
100
AcDbEntity
  8
0
  6
Continuous
 62
     7
370
    25
100
AcDbLine
 10
150.4157564439
 20
87.4711908773
 30
0.0
 11
150.7968080066
 21
87.271191217
 31
0.0
  0
LINE
  5
434
330
1F
100
AcDbEntity
  8
0
  6
Continuous
 62
     7
370
    25
100
AcDbLine
 10
150.4157564439
 20
87.4711908773
 30
0.0
 11
150.4157564439
 21
100.5711909756
 31
0.0
  0
LINE
  5
435
330
1F
100
AcDbEntity
  8
0
  6
Continuous
 62
     7
370
    25
100
AcDbLine
 10
150.4221583552
 20
87.271191217
 30
0.0
 11
150.4157564439
 21
87.4711908773
 31
0.0
  0
LINE
  5
436
330
1F
100
AcDbEntity
  8
0
  6
Continuous
 62
     7
370
    25
100
AcDbLine
 10
150.7968080066
 20
87.271191217
 30
0.0
 11
150.4221583552
 21
87.271191217
 31
0.0
  0
LINE
  5
437
330
1F
100
AcDbEntity
  8
0
  6
Continuous
 62
     7
370
    25
100
AcDbLine
 10
166.8531733401
 20
100.7711924985
 30
0.0
 11
166.8595752515
 21
100.5711909756
 31
0.0
  0
LINE
  5
438
330
1F
100
AcDbEntity
  8
0
  6
Continuous
 62
     7
370
    25
100
AcDbLine
 10
166.8595752515
 20
100.5711909756
 30
0.0
 11
166.4785236887
 21
100.7711924985
 31
0.0
  0
LINE
  5
439
330
1F
100
AcDbEntity
  8
0
  6
Continuous
 62
     7
370
    25
100
AcDbLine
 10
166.4785236887
 20
100.7711924985
 30
0.0
 11
166.8531733401
 21
100.7711924985
 31
0.0
  0
LINE
  5
43A
330
1F
100
AcDbEntity
  8
0
  6
Continuous
 62
     7
370
    25
100
AcDbLine
 10
166.8595752515
 20
87.4711908773
 30
0.0
 11
166.8595752515
 21
100.5711909756
 31
0.0
  0
LINE
  5
43B
330
1F
100
AcDbEntity
  8
0
  6
Continuous
 62
     7
370
    25
100
AcDbLine
 10
166.4785236887
 20
87.271191217
 30
0.0
 11
166.8595752515
 21
87.4711908773
 31
0.0
  0
LINE
  5
43C
330
1F
100
AcDbEntity
  8
0
  6
Continuous
 62
     7
370
    25
100
AcDbLine
 10
166.8595752515
 20
87.4711908773
 30
0.0
 11
166.8531733401
 21
87.271191217
 31
0.0
  0
LINE
  5
43D
330
1F
100
AcDbEntity
  8
0
  6
Continuous
 62
     7
370
    25
100
AcDbLine
 10
166.8531733401
 20
87.271191217
 30
0.0
 11
166.4785236887
 21
87.271191217
 31
0.0
  0
LINE
  5
43E
330
1F
100
AcDbEntity
  8
0
  6
Continuous
 62
     7
370
    25
100
AcDbLine
 10
150.0781575985
 20
87.4711908773
 30
0.0
 11
150.4221583552
 21
87.271191217
 31
0.0
  0
LINE
  5
43F
330
1F
100
AcDbEntity
  8
0
  6
Continuous
 62
     7
370
    25
100
AcDbLine
 10
150.0781575985
 20
87.4711908773
 30
0.0
 11
150.0781575985
 21
100.5711909756
 31
0.0
  0
LINE
  5
440
330
1F
100
AcDbEntity
  8
0
  6
Continuous
 62
     7
370
    25
100
AcDbLine
 10
150.4221583552
 20
100.7711924985
 30
0.0
 11
150.0781575985
 21
100.5711909756
 31
0.0
  0
LINE
  5
441
330
1F
100
AcDbEntity
  8
0
  6
Continuous
 62
     7
370
    25
100
AcDbLine
 10
150.0781575985
 20
100.5711909756
 30
0.0
 11
150.1375182368
 21
100.7711924985
 31
0.0
  0
LINE
  5
442
330
1F
100
AcDbEntity
  8
0
  6
Continuous
 62
     7
370
    25
100
AcDbLine
 10
150.1375182368
 20
100.7711924985
 30
0.0
 11
150.4221583552
 21
100.7711924985
 31
0.0
  0
LINE
  5
443
330
1F
100
AcDbEntity
  8
0
  6
Continuous
 62
     7
370
    25
100
AcDbLine
 10
150.1375182368
 20
87.271191217
 30
0.0
 11
150.0781575985
 21
87.4711908773
 31
0.0
  0
LINE
  5
444
330
1F
100
AcDbEntity
  8
0
  6
Continuous
 62
     7
370
    25
100
AcDbLine
 10
150.4221583552
 20
87.271191217
 30
0.0
 11
150.1375182368
 21
87.271191217
 31
0.0
  0
LINE
  5
445
330
1F
100
AcDbEntity
  8
0
  6
Continuous
 62
     7
370
    25
100
AcDbLine
 10
167.1971740968
 20
87.4711908773
 30
0.0
 11
167.1971740968
 21
100.5711909756
 31
0.0
  0
LINE
  5
446
330
1F
100
AcDbEntity
  8
0
  6
Continuous
 62
     7
370
    25
100
AcDbLine
 10
166.8531733401
 20
87.271191217
 30
0.0
 11
167.1971740968
 21
87.4711908773
 31
0.0
  0
LINE
  5
447
330
1F
100
AcDbEntity
  8
0
  6
Continuous
 62
     7
370
    25
100
AcDbLine
 10
167.1971740968
 20
100.5711909756
 30
0.0
 11
166.8531733401
 21
100.7711924985
 31
0.0
  0
LINE
  5
448
330
1F
100
AcDbEntity
  8
0
  6
Continuous
 62
     7
370
    25
100
AcDbLine
 10
167.1378134586
 20
100.7711924985
 30
0.0
 11
167.1971740968
 21
100.5711909756
 31
0.0
  0
LINE
  5
449
330
1F
100
AcDbEntity
  8
0
  6
Continuous
 62
     7
370
    25
100
AcDbLine
 10
166.8531733401
 20
100.7711924985
 30
0.0
 11
167.1378134586
 21
100.7711924985
 31
0.0
  0
LINE
  5
44A
330
1F
100
AcDbEntity
  8
0
  6
Continuous
 62
     7
370
    25
100
AcDbLine
 10
167.1971740968
 20
87.4711908773
 30
0.0
 11
167.1378134586
 21
87.271191217
 31
0.0
  0
LINE
  5
44B
330
1F
100
AcDbEntity
  8
0
  6
Continuous
 62
     7
370
    25
100
AcDbLine
 10
167.1378134586
 20
87.271191217
 30
0.0
 11
166.8531733401
 21
87.271191217
 31
0.0
  0
LINE
  5
44C
330
1F
100
AcDbEntity
  8
0
  6
Continuous
 62
     7
370
    25
100
AcDbLine
 10
149.8343373485
 20
87.4711908773
 30
0.0
 11
150.1375182368
 21
87.271191217
 31
0.0
  0
LINE
  5
44D
330
1F
100
AcDbEntity
  8
0
  6
Continuous
 62
     7
370
    25
100
AcDbLine
 10
149.8343373485
 20
87.4711908773
 30
0.0
 11
149.8343373485
 21
100.5711909756
 31
0.0
  0
LINE
  5
44E
330
1F
100
AcDbEntity
  8
0
  6
Continuous
 62
     7
370
    25
100
AcDbLine
 10
150.1375182368
 20
100.7711924985
 30
0.0
 11
149.8343373485
 21
100.5711909756
 31
0.0
  0
LINE
  5
44F
330
1F
100
AcDbEntity
  8
0
  6
Continuous
 62
     7
370
    25
100
AcDbLine
 10
149.8343373485
 20
100.5711909756
 30
0.0
 11
149.9460085131
 21
100.7711924985
 31
0.0
  0
LINE
  5
450
330
1F
100
AcDbEntity
  8
0
  6
Continuous
 62
     7
370
    25
100
AcDbLine
 10
149.9460085131
 20
100.7711924985
 30
0.0
 11
150.1375182368
 21
100.7711924985
 31
0.0
  0
LINE
  5
451
330
1F
100
AcDbEntity
  8
0
  6
Continuous
 62
     7
370
    25
100
AcDbLine
 10
149.9460085131
 20
87.271191217
 30
0.0
 11
149.8343373485
 21
87.4711908773
 31
0.0
  0
LINE
  5
452
330
1F
100
AcDbEntity
  8
0
  6
Continuous
 62
     7
370
    25
100
AcDbLine
 10
150.1375182368
 20
87.271191217
 30
0.0
 11
149.9460085131
 21
87.271191217
 31
0.0
  0
LINE
  5
453
330
1F
100
AcDbEntity
  8
0
  6
Continuous
 62
     7
370
    25
100
AcDbLine
 10
167.4409943469
 20
87.4711908773
 30
0.0
 11
167.4409943469
 21
100.5711909756
 31
0.0
  0
LINE
  5
454
330
1F
100
AcDbEntity
  8
0
  6
Continuous
 62
     7
370
    25
100
AcDbLine
 10
167.1378134586
 20
87.271191217
 30
0.0
 11
167.4409943469
 21
87.4711908773
 31
0.0
  0
LINE
  5
455
330
1F
100
AcDbEntity
  8
0
  6
Continuous
 62
     7
370
    25
100
AcDbLine
 10
167.4409943469
 20
100.5711909756
 30
0.0
 11
167.1378134586
 21
100.7711924985
 31
0.0
  0
LINE
  5
456
330
1F
100
AcDbEntity
  8
0
  6
Continuous
 62
     7
370
    25
100
AcDbLine
 10
167.3293231822
 20
100.7711924985
 30
0.0
 11
167.4409943469
 21
100.5711909756
 31
0.0
  0
LINE
  5
457
330
1F
100
AcDbEntity
  8
0
  6
Continuous
 62
     7
370
    25
100
AcDbLine
 10
167.1378134586
 20
100.7711924985
 30
0.0
 11
167.3293231822
 21
100.7711924985
 31
0.0
  0
LINE
  5
458
330
1F
100
AcDbEntity
  8
0
  6
Continuous
 62
     7
370
    25
100
AcDbLine
 10
167.4409943469
 20
87.4711908773
 30
0.0
 11
167.3293231822
 21
87.271191217
 31
0.0
  0
LINE
  5
459
330
1F
100
AcDbEntity
  8
0
  6
Continuous
 62
     7
370
    25
100
AcDbLine
 10
167.3293231822
 20
87.271191217
 30
0.0
 11
167.1378134586
 21
87.271191217
 31
0.0
  0
LINE
  5
45A
330
1F
100
AcDbEntity
  8
0
  6
Continuous
 62
     7
370
    25
100
AcDbLine
 10
149.9460085131
 20
100.7711924985
 30
0.0
 11
149.6869685896
 21
100.5711909756
 31
0.0
  0
LINE
  5
45B
330
1F
100
AcDbEntity
  8
0
  6
Continuous
 62
     7
370
    25
100
AcDbLine
 10
149.6869685896
 20
100.5711909756
 30
0.0
 11
149.8497255914
 21
100.7711924985
 31
0.0
  0
LINE
  5
45C
330
1F
100
AcDbEntity
  8
0
  6
Continuous
 62
     7
370
    25
100
AcDbLine
 10
149.8497255914
 20
100.7711924985
 30
0.0
 11
149.9460085131
 21
100.7711924985
 31
0.0
  0
LINE
  5
45D
330
1F
100
AcDbEntity
  8
0
  6
Continuous
 62
     7
370
    25
100
AcDbLine
 10
149.6869685896
 20
87.4711908773
 30
0.0
 11
149.9460085131
 21
87.271191217
 31
0.0
  0
LINE
  5
45E
330
1F
100
AcDbEntity
  8
0
  6
Continuous
 62
     7
370
    25
100
AcDbLine
 10
149.6869685896
 20
87.4711908773
 30
0.0
 11
149.6869685896
 21
100.5711909756
 31
0.0
  0
LINE
  5
45F
330
1F
100
AcDbEntity
  8
0
  6
Continuous
 62
     7
370
    25
100
AcDbLine
 10
149.8497255914
 20
87.271191217
 30
0.0
 11
149.6869685896
 21
87.4711908773
 31
0.0
  0
LINE
  5
460
330
1F
100
AcDbEntity
  8
0
  6
Continuous
 62
     7
370
    25
100
AcDbLine
 10
149.9460085131
 20
87.271191217
 30
0.0
 11
149.8497255914
 21
87.271191217
 31
0.0
  0
LINE
  5
461
330
1F
100
AcDbEntity
  8
0
  6
Continuous
 62
     7
370
    25
100
AcDbLine
 10
167.425606104
 20
100.7711924985
 30
0.0
 11
167.5883631058
 21
100.5711909756
 31
0.0
  0
LINE
  5
462
330
1F
100
AcDbEntity
  8
0
  6
Continuous
 62
     7
370
    25
100
AcDbLine
 10
167.5883631058
 20
100.5711909756
 30
0.0
 11
167.3293231822
 21
100.7711924985
 31
0.0
  0
LINE
  5
463
330
1F
100
AcDbEntity
  8
0
  6
Continuous
 62
     7
370
    25
100
AcDbLine
 10
167.3293231822
 20
100.7711924985
 30
0.0
 11
167.425606104
 21
100.7711924985
 31
0.0
  0
LINE
  5
464
330
1F
100
AcDbEntity
  8
0
  6
Continuous
 62
     7
370
    25
100
AcDbLine
 10
167.5883631058
 20
87.4711908773
 30
0.0
 11
167.5883631058
 21
100.5711909756
 31
0.0
  0
LINE
  5
465
330
1F
100
AcDbEntity
  8
0
  6
Continuous
 62
     7
370
    25
100
AcDbLine
 10
167.3293231822
 20
87.271191217
 30
0.0
 11
167.5883631058
 21
87.4711908773
 31
0.0
  0
LINE
  5
466
330
1F
100
AcDbEntity
  8
0
  6
Continuous
 62
     7
370
    25
100
AcDbLine
 10
167.5883631058
 20
87.4711908773
 30
0.0
 11
167.425606104
 21
87.271191217
 31
0.0
  0
LINE
  5
467
330
1F
100
AcDbEntity
  8
0
  6
Continuous
 62
     7
370
    25
100
AcDbLine
 10
167.425606104
 20
87.271191217
 30
0.0
 11
167.3293231822
 21
87.271191217
 31
0.0
  0
LINE
  5
468
330
1F
100
AcDbEntity
  8
0
  6
Continuous
 62
     7
370
    25
100
AcDbLine
 10
149.8497255914
 20
100.7711924985
 30
0.0
 11
149.6376662351
 21
100.5711909756
 31
0.0
  0
LINE
  5
469
330
1F
100
AcDbEntity
  8
0
  6
Continuous
 62
     7
370
    25
100
AcDbLine
 10
149.8376658953
 20
100.7711924985
 30
0.0
 11
149.8497255914
 21
100.7711924985
 31
0.0
  0
LINE
  5
46A
330
1F
100
AcDbEntity
  8
0
  6
Continuous
 62
     7
370
    25
100
AcDbLine
 10
149.6376662351
 20
87.4711908773
 30
0.0
 11
149.8497255914
 21
87.271191217
 31
0.0
  0
LINE
  5
46B
330
1F
100
AcDbEntity
  8
0
  6
Continuous
 62
     7
370
    25
100
AcDbLine
 10
149.6376662351
 20
87.4711908773
 30
0.0
 11
149.6376662351
 21
100.5711909756
 31
0.0
  0
LINE
  5
46C
330
1F
100
AcDbEntity
  8
0
  6
Continuous
 62
     7
370
    25
100
AcDbLine
 10
149.8497255914
 20
87.271191217
 30
0.0
 11
149.8376658953
 21
87.271191217
 31
0.0
  0
LINE
  5
46D
330
1F
100
AcDbEntity
  8
0
  6
Continuous
 62
     7
370
    25
100
AcDbLine
 10
167.6376654602
 20
87.4711908773
 30
0.0
 11
167.6376654602
 21
100.5711909756
 31
0.0
  0
LINE
  5
46E
330
1F
100
AcDbEntity
  8
0
  6
Continuous
 62
     7
370
    25
100
AcDbLine
 10
167.425606104
 20
87.271191217
 30
0.0
 11
167.6376654602
 21
87.4711908773
 31
0.0
  0
LINE
  5
46F
330
1F
100
AcDbEntity
  8
0
  6
Continuous
 62
     7
370
    25
100
AcDbLine
 10
167.6376654602
 20
100.5711909756
 30
0.0
 11
167.425606104
 21
100.7711924985
 31
0.0
  0
LINE
  5
470
330
1F
100
AcDbEntity
  8
0
  6
Continuous
 62
     7
370
    25
100
AcDbLine
 10
167.425606104
 20
100.7711924985
 30
0.0
 11
167.4376658
 21
100.7711924985
 31
0.0
  0
LINE
  5
471
330
1F
100
AcDbEntity
  8
0
  6
Continuous
 62
     7
370
    25
100
AcDbLine
 10
167.4376658
 20
87.271191217
 30
0.0
 11
167.425606104
 21
87.271191217
 31
0.0
  0
CIRCLE
  5
472
330
1F
100
AcDbEntity
  8
0
  6
Continuous
 62
     7
370
    25
100
AcDbCircle
 10
158.6376658477
 20
70.5711916462
 30
0.0
 40
6.499458213160011
  0
CIRCLE
  5
473
330
1F
100
AcDbEntity
  8
0
  6
Continuous
 62
     7
370
    25
100
AcDbCircle
 10
158.6376658477
 20
70.5711916462
 30
0.0
 40
5.25
  0
CIRCLE
  5
474
330
1F
100
AcDbEntity
  8
0
  6
Continuous
 62
     7
370
    25
100
AcDbCircle
 10
158.6376658477
 20
70.5711916462
 30
0.0
 40
4.5
  0
CIRCLE
  5
475
330
1F
100
AcDbEntity
  8
0
  6
Continuous
 62
     7
370
    25
100
AcDbCircle
 10
158.6376658477
 20
70.5711916462
 30
0.0
 40
3.999999999999972
  0
CIRCLE
  5
476
330
1F
100
AcDbEntity
  8
0
  6
Continuous
 62
     7
370
    25
100
AcDbCircle
 10
158.6376658477
 20
70.5711916462
 30
0.0
 40
6.744329303562296
  0
CIRCLE
  5
477
330
1F
100
AcDbEntity
  8
0
  6
Continuous
 62
     7
370
    25
100
AcDbCircle
 10
158.6376658477
 20
70.5711916462
 30
0.0
 40
10.00000000000003
  0
CIRCLE
  5
478
330
1F
100
AcDbEntity
  8
0
  6
Continuous
 62
     7
370
    25
100
AcDbCircle
 10
158.6376658477
 20
70.5711916462
 30
0.0
 40
9.500000000000028
  0
CIRCLE
  5
479
330
1F
100
AcDbEntity
  8
0
  6
Continuous
 62
     7
370
    25
100
AcDbCircle
 10
158.6376658477
 20
70.5711916462
 30
0.0
 40
3.0
  0
SPLINE
  5
47A
330
1F
100
AcDbEntity
  8
0
  6
Continuous
 62
     7
370
    25
100
AcDbSpline
210
0.0
220
0.0
230
1.0
 70
     8
 71
     3
 72
    13
 73
     9
 74
     0
 42
0.000000001
 43
0.00000001
 40
0.0
 40
0.0
 40
0.0
 40
0.0
 40
0.0737597927454939
 40
0.3006919187459112
 40
0.5298019228134139
 40
0.7613598368541584
 40
0.9918446264450032
 40
1.0
 40
1.0
 40
1.0
 40
1.0
 10
152.8199707925089
 20
78.67769900712688
 30
0.0
 10
152.8198889727447
 20
78.71373769198384
 30
0.0
 10
152.8195554232464
 20
78.86065433715542
 30
0.0
 10
152.8004116609995
 20
79.10179447146157
 30
0.0
 10
152.771060321752
 20
79.36124257847007
 30
0.0
 10
152.7463534692688
 20
79.52039068777412
 30
0.0
 10
152.7348136644636
 20
79.5884366791983
 30
0.0
 10
152.7378766678282
 20
79.56991861564406
 30
0.0
 10
152.7379813439913
 20
79.56928577277381
 30
0.0
  0
SPLINE
  5
47B
330
1F
100
AcDbEntity
  8
0
  6
Continuous
 62
     7
370
    25
100
AcDbSpline
210
0.0
220
0.0
230
1.0
 70
    24
 71
     3
 72
    14
 73
    10
 74
     0
 42
0.000000001
 43
0.00000001
 40
0.0
 40
0.0
 40
0.0
 40
0.0
 40
0.0686783537768138
 40
0.2932170497282056
 40
0.2935200239703272
 40
0.5073355948525435
 40
0.7069536501822122
 40
0.9001970470938867
 40
1.0
 40
1.0
 40
1.0
 40
1.0
 10
152.4376656695969
 20
78.57119202617127
 30
0.0
 10
152.4376656695969
 20
78.59004422215423
 30
0.0
 10
152.4376656695969
 20
78.67053225052173
 30
0.0
 10
152.4376656695971
 20
78.75021681886037
 30
0.0
 10
152.4376656695968
 20
78.85943619637621
 30
0.0
 10
152.437665669597
 20
78.95612632541382
 30
0.0
 10
152.4376656695969
 20
79.05771116179739
 30
0.0
 10
152.4376656695969
 20
79.11126247356717
 30
0.0
 10
152.4376656695969
 20
79.10705577970235
 30
0.0
 10
152.4376656695969
 20
79.1056231037112
 30
0.0
  0
SPLINE
  5
47C
330
1F
100
AcDbEntity
  8
0
  6
Continuous
 62
     7
370
    25
100
AcDbSpline
210
0.0
220
0.0
230
1.0
 70
    24
 71
     3
 72
     9
 73
     5
 74
     0
 42
0.000000001
 43
0.00000001
 40
0.0
 40
0.0
 40
0.0
 40
0.0
 40
0.2886514344077302
 40
1.0
 40
1.0
 40
1.0
 40
1.0
 10
152.4376656695969
 20
78.39211359623391
 30
0.0
 10
152.4376656695969
 20
78.4082255801346
 30
0.0
 10
152.4376656695969
 20
78.46404371224871
 30
0.0
 10
152.4376656695969
 20
78.5266541681645
 30
0.0
 10
152.4376656695969
 20
78.57119202617127
 30
0.0
  0
ENDSEC
  0
SECTION
  2
OBJECTS
  0
DICTIONARY
  5
C
330
0
100
AcDbDictionary
281
     1
  3
ACAD_GROUP
350
D
  3
ACAD_LAYOUT
350
1A
  3
ACAD_MLINESTYLE
350
17
  3
ACAD_PLOTSETTINGS
350
19
  3
ACAD_PLOTSTYLENAME
350
E
  3
ACAD_SCALELIST
350
47
  0
DICTIONARY
  5
D
102
{ACAD_REACTORS
330
C
102
}
330
C
100
AcDbDictionary
281
     1
  0
DICTIONARY
  5
1A
102
{ACAD_REACTORS
330
C
102
}
330
C
100
AcDbDictionary
281
     1
  3
Layout1
350
1E
  3
Layout2
350
26
  3
Model
350
22
  0
DICTIONARY
  5
17
102
{ACAD_REACTORS
330
C
102
}
330
C
100
AcDbDictionary
281
     1
  3
Standard
350
18
  0
DICTIONARY
  5
19
102
{ACAD_REACTORS
330
C
102
}
330
C
100
AcDbDictionary
281
     1
  0
ACDBDICTIONARYWDFLT
  5
E
102
{ACAD_REACTORS
330
C
102
}
330
C
100
AcDbDictionary
281
     1
  3
Normal
350
F
100
AcDbDictionaryWithDefault
340
F
  0
DICTIONARY
  5
47
102
{ACAD_REACTORS
330
C
102
}
330
C
100
AcDbDictionary
281
     1
  3
A0
350
48
  3
A1
350
49
  3
A2
350
4A
  3
A3
350
4B
  3
A4
350
4C
  3
A5
350
4D
  3
A6
350
4E
  3
A7
350
4F
  3
A8
350
50
  3
A9
350
51
  3
B0
350
52
  3
B1
350
53
  3
B2
350
54
  3
B3
350
55
  3
B4
350
56
  3
B5
350
57
  3
B6
350
58
  3
B7
350
59
  3
B8
350
5A
  3
B9
350
5B
  3
C0
350
5C
  3
C1
350
5D
  3
C2
350
5E
  3
C3
350
5F
  3
C4
350
60
  3
C5
350
61
  3
C6
350
62
  3
C7
350
63
  3
C8
350
64
  3
C9
350
65
  3
D0
350
66
  3
D1
350
67
  3
D2
350
68
  0
LAYOUT
  5
1E
102
{ACAD_REACTORS
330
1A
102
}
330
1A
100
AcDbPlotSettings
  1

  2
none_device
  4

  6

 40
0.0
 41
0.0
 42
0.0
 43
0.0
 44
0.0
 45
0.0
 46
0.0
 47
0.0
 48
0.0
 49
0.0
140
0.0
141
0.0
142
1.0
143
1.0
 70
   688
 72
     1
 73
     0
 74
     5
  7

 75
    16
147
1.0
148
0.0
149
0.0
100
AcDbLayout
  1
Layout1
 70
     1
 71
     1
 10
0.0
 20
0.0
 11
420.0
 21
297.0
 12
0.0
 22
0.0
 32
0.0
 14
1.0000000000E+20
 24
1.0000000000E+20
 34
1.0000000000E+20
 15
-1.0000000000E+20
 25
-1.0000000000E+20
 35
-1.0000000000E+20
146
0.0
 13
0.0
 23
0.0
 33
0.0
 16
1.0
 26
0.0
 36
0.0
 17
0.0
 27
1.0
 37
0.0
 76
     0
330
1B
  0
LAYOUT
  5
26
102
{ACAD_REACTORS
330
1A
102
}
330
1A
100
AcDbPlotSettings
  1

  2
none_device
  4

  6

 40
0.0
 41
0.0
 42
0.0
 43
0.0
 44
0.0
 45
0.0
 46
0.0
 47
0.0
 48
0.0
 49
0.0
140
0.0
141
0.0
142
1.0
143
1.0
 70
   688
 72
     1
 73
     0
 74
     5
  7

 75
    16
147
1.0
148
0.0
149
0.0
100
AcDbLayout
  1
Layout2
 70
     1
 71
     2
 10
0.0
 20
0.0
 11
0.0
 21
0.0
 12
0.0
 22
0.0
 32
0.0
 14
0.0
 24
0.0
 34
0.0
 15
0.0
 25
0.0
 35
0.0
146
0.0
 13
0.0
 23
0.0
 33
0.0
 16
1.0
 26
0.0
 36
0.0
 17
0.0
 27
1.0
 37
0.0
 76
     0
330
23
  0
LAYOUT
  5
22
102
{ACAD_REACTORS
330
1A
102
}
330
1A
100
AcDbPlotSettings
  1

  2
none_device
  4
Letter_(8.50_x_11.00_Inches)
  6

 40
6.35
 41
6.35
 42
6.35000508
 43
6.35000508
 44
215.9
 45
279.4
 46
0.0
 47
0.0
 48
0.0
 49
0.0
140
0.0
141
0.0
142
1.0
143
1.0
 70
  1712
 72
     1
 73
     0
 74
     0
  7

 75
     0
147
1.0
148
0.0
149
0.0
100
AcDbLayout
  1
Model
 70
     1
 71
     0
 10
0.0
 20
0.0
 11
279.4
 21
215.9
 12
0.0
 22
0.0
 32
0.0
 14
0.0
 24
0.0
 34
0.0
 15
279.4
 25
215.9
 35
0.0
146
0.0
 13
0.0
 23
0.0
 33
0.0
 16
1.0
 26
0.0
 36
0.0
 17
0.0
 27
1.0
 37
0.0
 76
     0
330
1F
331
29
  0
MLINESTYLE
  5
18
102
{ACAD_REACTORS
330
17
102
}
330
17
100
AcDbMlineStyle
  2
Standard
 70
     0
  3

 62
   256
 51
90.0
 52
90.0
 71
     2
 49
0.5
 62
   256
  6
BYLAYER
 49
-0.5
 62
   256
  6
BYLAYER
  0
ACDBPLACEHOLDER
  5
F
102
{ACAD_REACTORS
330
E
102
}
330
E
  0
SCALE
  5
48
102
{ACAD_REACTORS
330
47
102
}
330
47
100
AcDbScale
 70
     0
300
1:1
140
1.0
141
1.0
290
     1
  0
SCALE
  5
49
102
{ACAD_REACTORS
330
47
102
}
330
47
100
AcDbScale
 70
     0
300
1:2
140
1.0
141
2.0
290
     0
  0
SCALE
  5
4A
102
{ACAD_REACTORS
330
47
102
}
330
47
100
AcDbScale
 70
     0
300
1:4
140
1.0
141
4.0
290
     0
  0
SCALE
  5
4B
102
{ACAD_REACTORS
330
47
102
}
330
47
100
AcDbScale
 70
     0
300
1:5
140
1.0
141
5.0
290
     0
  0
SCALE
  5
4C
102
{ACAD_REACTORS
330
47
102
}
330
47
100
AcDbScale
 70
     0
300
1:8
140
1.0
141
8.0
290
     0
  0
SCALE
  5
4D
102
{ACAD_REACTORS
330
47
102
}
330
47
100
AcDbScale
 70
     0
300
1:10
140
1.0
141
10.0
290
     0
  0
SCALE
  5
4E
102
{ACAD_REACTORS
330
47
102
}
330
47
100
AcDbScale
 70
     0
300
1:16
140
1.0
141
16.0
290
     0
  0
SCALE
  5
4F
102
{ACAD_REACTORS
330
47
102
}
330
47
100
AcDbScale
 70
     0
300
1:20
140
1.0
141
20.0
290
     0
  0
SCALE
  5
50
102
{ACAD_REACTORS
330
47
102
}
330
47
100
AcDbScale
 70
     0
300
1:30
140
1.0
141
30.0
290
     0
  0
SCALE
  5
51
102
{ACAD_REACTORS
330
47
102
}
330
47
100
AcDbScale
 70
     0
300
1:40
140
1.0
141
40.0
290
     0
  0
SCALE
  5
52
102
{ACAD_REACTORS
330
47
102
}
330
47
100
AcDbScale
 70
     0
300
1:50
140
1.0
141
50.0
290
     0
  0
SCALE
  5
53
102
{ACAD_REACTORS
330
47
102
}
330
47
100
AcDbScale
 70
     0
300
1:100
140
1.0
141
100.0
290
     0
  0
SCALE
  5
54
102
{ACAD_REACTORS
330
47
102
}
330
47
100
AcDbScale
 70
     0
300
2:1
140
2.0
141
1.0
290
     0
  0
SCALE
  5
55
102
{ACAD_REACTORS
330
47
102
}
330
47
100
AcDbScale
 70
     0
300
4:1
140
4.0
141
1.0
290
     0
  0
SCALE
  5
56
102
{ACAD_REACTORS
330
47
102
}
330
47
100
AcDbScale
 70
     0
300
8:1
140
8.0
141
1.0
290
     0
  0
SCALE
  5
57
102
{ACAD_REACTORS
330
47
102
}
330
47
100
AcDbScale
 70
     0
300
10:1
140
10.0
141
1.0
290
     0
  0
SCALE
  5
58
102
{ACAD_REACTORS
330
47
102
}
330
47
100
AcDbScale
 70
     0
300
100:1
140
100.0
141
1.0
290
     0
  0
SCALE
  5
59
102
{ACAD_REACTORS
330
47
102
}
330
47
100
AcDbScale
 70
     0
300
1/128" = 1'-0"
140
0.0078125
141
12.0
290
     0
  0
SCALE
  5
5A
102
{ACAD_REACTORS
330
47
102
}
330
47
100
AcDbScale
 70
     0
300
1/64" = 1'-0"
140
0.015625
141
12.0
290
     0
  0
SCALE
  5
5B
102
{ACAD_REACTORS
330
47
102
}
330
47
100
AcDbScale
 70
     0
300
1/32" = 1'-0"
140
0.03125
141
12.0
290
     0
  0
SCALE
  5
5C
102
{ACAD_REACTORS
330
47
102
}
330
47
100
AcDbScale
 70
     0
300
1/16" = 1'-0"
140
0.0625
141
12.0
290
     0
  0
SCALE
  5
5D
102
{ACAD_REACTORS
330
47
102
}
330
47
100
AcDbScale
 70
     0
300
3/32" = 1'-0"
140
0.09375
141
12.0
290
     0
  0
SCALE
  5
5E
102
{ACAD_REACTORS
330
47
102
}
330
47
100
AcDbScale
 70
     0
300
1/8" = 1'-0"
140
0.125
141
12.0
290
     0
  0
SCALE
  5
5F
102
{ACAD_REACTORS
330
47
102
}
330
47
100
AcDbScale
 70
     0
300
3/16" = 1'-0"
140
0.1875
141
12.0
290
     0
  0
SCALE
  5
60
102
{ACAD_REACTORS
330
47
102
}
330
47
100
AcDbScale
 70
     0
300
1/4" = 1'-0"
140
0.25
141
12.0
290
     0
  0
SCALE
  5
61
102
{ACAD_REACTORS
330
47
102
}
330
47
100
AcDbScale
 70
     0
300
3/8" = 1'-0"
140
0.375
141
12.0
290
     0
  0
SCALE
  5
62
102
{ACAD_REACTORS
330
47
102
}
330
47
100
AcDbScale
 70
     0
300
1/2" = 1'-0"
140
0.5
141
12.0
290
     0
  0
SCALE
  5
63
102
{ACAD_REACTORS
330
47
102
}
330
47
100
AcDbScale
 70
     0
300
3/4" = 1'-0"
140
0.75
141
12.0
290
     0
  0
SCALE
  5
64
102
{ACAD_REACTORS
330
47
102
}
330
47
100
AcDbScale
 70
     0
300
1" = 1'-0"
140
1.0
141
12.0
290
     0
  0
SCALE
  5
65
102
{ACAD_REACTORS
330
47
102
}
330
47
100
AcDbScale
 70
     0
300
1-1/2" = 1'-0"
140
1.5
141
12.0
290
     0
  0
SCALE
  5
66
102
{ACAD_REACTORS
330
47
102
}
330
47
100
AcDbScale
 70
     0
300
3" = 1'-0"
140
3.0
141
12.0
290
     0
  0
SCALE
  5
67
102
{ACAD_REACTORS
330
47
102
}
330
47
100
AcDbScale
 70
     0
300
6" = 1'-0"
140
6.0
141
12.0
290
     0
  0
SCALE
  5
68
102
{ACAD_REACTORS
330
47
102
}
330
47
100
AcDbScale
 70
     0
300
1'-0" = 1'-0"
140
12.0
141
12.0
290
     0
  0
ENDSEC
  0
EOF
