  0
SECTION
  2
HEADER
  9
$ACADVER
  1
AC1015
  9
$ACADMAINTVER
 70
     6
  9
$DWGCODEPAGE
  3
DOS932
  9
$INSBASE
 10
0.0
 20
0.0
 30
0.0
  9
$EXTMIN
 10
0.0
 20
0.0
 30
0.0
  9
$EXTMAX
 10
279.4
 20
215.9
 30
0.0
  9
$LIMMIN
 10
0.0
 20
0.0
  9
$LIMMAX
 10
279.4
 20
215.9
  9
$ORTHOMODE
 70
     0
  9
$REGENMODE
 70
     1
  9
$FILLMODE
 70
     1
  9
$QTEXTMODE
 70
     0
  9
$MIRRTEXT
 70
     1
  9
$LTSCALE
 40
1.0
  9
$ATTMODE
 70
     1
  9
$TEXTSIZE
 40
3.5
  9
$TRACEWID
 40
1.0
  9
$TEXTSTYLE
  7
Standard
  9
$CLAYER
  8
0
  9
$CELTYPE
  6
ByLayer
  9
$CECOLOR
 62
   256
  9
$CELTSCALE
 40
1.0
  9
$DISPSILH
 70
     0
  9
$DIMSCALE
 40
1.0
  9
$DIMASZ
 40
3.556
  9
$DIMEXO
 40
1.0
  9
$DIMDLI
 40
3.75
  9
$DIMRND
 40
0.0
  9
$DIMDLE
 40
0.0
  9
$DIMEXE
 40
1.0
  9
$DIMTP
 40
0.0
  9
$DIMTM
 40
0.0
  9
$DIMTXT
 40
3.5
  9
$DIMCEN
 40
2.5
  9
$DIMTSZ
 40
0.0
  9
$DIMTOL
 70
     0
  9
$DIMLIM
 70
     0
  9
$DIMTIH
 70
     1
  9
$DIMTOH
 70
     1
  9
$DIMSE1
 70
     0
  9
$DIMSE2
 70
     0
  9
$DIMTAD
 70
     1
  9
$DIMZIN
 70
     1
  9
$DIMBLK
  1

  9
$DIMASO
 70
     1
  9
$DIMSHO
 70
     1
  9
$DIMPOST
  1

  9
$DIMAPOST
  1

  9
$DIMALT
 70
     0
  9
$DIMALTD
 70
     3
  9
$DIMALTF
 40
0.0393700787
  9
$DIMLFAC
 40
1.0
  9
$DIMTOFL
 70
     1
  9
$DIMTVP
 40
0.0
  9
$DIMTIX
 70
     0
  9
$DIMSOXD
 70
     0
  9
$DIMSAH
 70
     0
  9
$DIMBLK1
  1

  9
$DIMBLK2
  1

  9
$DIMSTYLE
  2
ISO-25
  9
$DIMCLRD
 70
     0
  9
$DIMCLRE
 70
     0
  9
$DIMCLRT
 70
     0
  9
$DIMTFAC
 40
1.0
  9
$DIMGAP
 40
1.524
  9
$DIMJUST
 70
     0
  9
$DIMSD1
 70
     0
  9
$DIMSD2
 70
     0
  9
$DIMTOLJ
 70
     0
  9
$DIMTZIN
 70
     1
  9
$DIMALTZ
 70
     0
  9
$DIMALTTZ
 70
     0
  9
$DIMUPT
 70
     0
  9
$DIMDEC
 70
     2
  9
$DIMTDEC
 70
     2
  9
$DIMALTU
 70
     2
  9
$DIMALTTD
 70
     3
  9
$DIMTXSTY
  7
Standard
  9
$DIMAUNIT
 70
     0
  9
$DIMADEC
 70
     2
  9
$DIMALTRND
 40
0.0
  9
$DIMAZIN
 70
     0
  9
$DIMDSEP
 70
    44
  9
$DIMATFIT
 70
     3
  9
$DIMFRAC
 70
     0
  9
$DIMLDRBLK
  1

  9
$DIMLUNIT
 70
     2
  9
$DIMLWD
 70
    -2
  9
$DIMLWE
 70
    -2
  9
$DIMTMOVE
 70
     0
  9
$LUNITS
 70
     2
  9
$LUPREC
 70
     2
  9
$SKETCHINC
 40
1.0
  9
$FILLETRAD
 40
10.0
  9
$AUNITS
 70
     0
  9
$AUPREC
 70
     2
  9
$MENU
  1
.
  9
$ELEVATION
 40
0.0
  9
$PELEVATION
 40
0.0
  9
$THICKNESS
 40
0.0
  9
$LIMCHECK
 70
     0
  9
$CHAMFERA
 40
0.0
  9
$CHAMFERB
 40
0.0
  9
$CHAMFERC
 40
0.0
  9
$CHAMFERD
 40
0.0
  9
$SKPOLY
 70
     0
  9
$TDCREATE
 40
2459223.459690996
  9
$TDUCREATE
 40
2459223.084690996
  9
$TDUPDATE
 40
2459223.45969206
  9
$TDUUPDATE
 40
2459223.08469206
  9
$TDINDWG
 40
0.0000000116
  9
$TDUSRTIMER
 40
0.0000000116
  9
$USRTIMER
 70
     1
  9
$ANGBASE
 50
0.0
  9
$ANGDIR
 70
     0
  9
$PDMODE
 70
     0
  9
$PDSIZE
 40
-1.0
  9
$PLINEWID
 40
0.0
  9
$SPLFRAME
 70
     0
  9
$SPLINETYPE
 70
     6
  9
$SPLINESEGS
 70
     8
  9
$HANDSEED
  5
47C
  9
$SURFTAB1
 70
     6
  9
$SURFTAB2
 70
     6
  9
$SURFTYPE
 70
     6
  9
$SURFU
 70
     6
  9
$SURFV
 70
     6
  9
$UCSBASE
  2

  9
$UCSNAME
  2

  9
$UCSORG
 10
0.0
 20
0.0
 30
0.0
  9
$UCSXDIR
 10
1.0
 20
0.0
 30
0.0
  9
$UCSYDIR
 10
0.0
 20
1.0
 30
0.0
  9
$UCSORTHOREF
  2

  9
$UCSORTHOVIEW
 70
     0
  9
$UCSORGTOP
 10
0.0
 20
0.0
 30
0.0
  9
$UCSORGBOTTOM
 10
0.0
 20
0.0
 30
0.0
  9
$UCSORGLEFT
 10
0.0
 20
0.0
 30
0.0
  9
$UCSORGRIGHT
 10
0.0
 20
0.0
 30
0.0
  9
$UCSORGFRONT
 10
0.0
 20
0.0
 30
0.0
  9
$UCSORGBACK
 10
0.0
 20
0.0
 30
0.0
  9
$PUCSBASE
  2

  9
$PUCSNAME
  2

  9
$PUCSORG
 10
0.0
 20
0.0
 30
0.0
  9
$PUCSXDIR
 10
1.0
 20
0.0
 30
0.0
  9
$PUCSYDIR
 10
0.0
 20
1.0
 30
0.0
  9
$PUCSORTHOREF
  2

  9
$PUCSORTHOVIEW
 70
     0
  9
$PUCSORGTOP
 10
0.0
 20
0.0
 30
0.0
  9
$PUCSORGBOTTOM
 10
0.0
 20
0.0
 30
0.0
  9
$PUCSORGLEFT
 10
0.0
 20
0.0
 30
0.0
  9
$PUCSORGRIGHT
 10
0.0
 20
0.0
 30
0.0
  9
$PUCSORGFRONT
 10
0.0
 20
0.0
 30
0.0
  9
$PUCSORGBACK
 10
0.0
 20
0.0
 30
0.0
  9
$USERI1
 70
     0
  9
$USERI2
 70
     0
  9
$USERI3
 70
     0
  9
$USERI4
 70
     0
  9
$USERI5
 70
     0
  9
$USERR1
 40
0.0
  9
$USERR2
 40
0.0
  9
$USERR3
 40
0.0
  9
$USERR4
 40
0.0
  9
$USERR5
 40
0.0
  9
$WORLDVIEW
 70
     1
  9
$SHADEDGE
 70
     3
  9
$SHADEDIF
 70
    70
  9
$TILEMODE
 70
     1
  9
$MAXACTVP
 70
    64
  9
$PINSBASE
 10
0.0
 20
0.0
 30
0.0
  9
$PLIMCHECK
 70
     0
  9
$PEXTMIN
 10
1.0000000000E+20
 20
1.0000000000E+20
 30
1.0000000000E+20
  9
$PEXTMAX
 10
-1.0000000000E+20
 20
-1.0000000000E+20
 30
-1.0000000000E+20
  9
$PLIMMIN
 10
0.0
 20
0.0
  9
$PLIMMAX
 10
420.0
 20
297.0
  9
$UNITMODE
 70
     0
  9
$VISRETAIN
 70
     1
  9
$PLINEGEN
 70
     0
  9
$PSLTSCALE
 70
     1
  9
$TREEDEPTH
 70
  3020
  9
$CMLSTYLE
  2
Standard
  9
$CMLJUST
 70
     0
  9
$CMLSCALE
 40
20.0
  9
$PROXYGRAPHICS
 70
     1
  9
$MEASUREMENT
 70
     1
  9
$CELWEIGHT
370
    -1
  9
$ENDCAPS
280
     0
  9
$JOINSTYLE
280
     0
  9
$LWDISPLAY
290
     1
  9
$INSUNITS
 70
     4
  9
$HYPERLINKBASE
  1

  9
$STYLESHEET
  1

  9
$XEDIT
290
     1
  9
$CEPSNTYPE
380
     0
  9
$PSTYLEMODE
290
     1
  9
$FINGERPRINTGUID
  2
{8D808D30-1754-42E9-BD32-54AA6EFD6B8C}
  9
$VERSIONGUID
  2
{FAEB1C32-E019-11D5-929B-00C0DF256EC4}
  9
$EXTNAMES
290
     1
  9
$PSVPSCALE
 40
0.0
  9
$OLESTARTUP
290
     0
  0
ENDSEC
  0
SECTION
  2
CLASSES
  0
CLASS
  1
ACDBDICTIONARYWDFLT
  2
AcDbDictionaryWithDefault
  3
ObjectDBX Classes
 90
        0
280
     0
281
     0
  0
CLASS
  1
VISUALSTYLE
  2
AcDbVisualStyle
  3
ObjectDBX Classes
 90
     4095
280
     0
281
     0
  0
CLASS
  1
MATERIAL
  2
AcDbMaterial
  3
ObjectDBX Classes
 90
     1153
280
     0
281
     0
  0
CLASS
  1
SCALE
  2
AcDbScale
  3
ObjectDBX Classes
 90
     1153
280
     0
281
     0
  0
CLASS
  1
TABLESTYLE
  2
AcDbTableStyle
  3
ObjectDBX Classes
 90
     4095
280
     0
281
     0
  0
CLASS
  1
MLEADERSTYLE
  2
AcDbMLeaderStyle
  3
ACDB_MLEADERSTYLE_CLASS
 90
     4095
280
     0
281
     0
  0
CLASS
  1
SUN
  2
AcDbSun
  3
SCENEOE
 90
     1153
280
     0
281
     0
  0
CLASS
  1
ACDBPLACEHOLDER
  2
AcDbPlaceHolder
  3
ObjectDBX Classes
 90
        0
280
     0
281
     0
  0
CLASS
  1
LAYOUT
  2
AcDbLayout
  3
ObjectDBX Classes
 90
        0
280
     0
281
     0
  0
ENDSEC
  0
SECTION
  2
TABLES
  0
TABLE
  2
VPORT
  5
8
330
0
100
AcDbSymbolTable
 70
     1
  0
VPORT
  5
29
330
8
100
AcDbSymbolTableRecord
100
AcDbViewportTableRecord
  2
*Active
 70
     0
 10
0.0
 20
0.0
 11
1.0
 21
1.0
 12
139.7
 22
107.95
 13
0.0
 23
0.0
 14
10.0
 24
10.0
 15
10.0
 25
10.0
 16
0.0
 26
0.0
 36
1.0
 17
0.0
 27
0.0
 37
0.0
 40
215.9
 41
1.2941176471
 42
50.0
 43
0.0
 44
0.0
 50
0.0
 51
0.0
 71
     0
 72
  2000
 73
     1
 74
     3
 75
     0
 76
     0
 77
     0
 78
     0
281
     0
 65
     1
110
0.0
120
0.0
130
0.0
111
1.0
121
0.0
131
0.0
112
0.0
122
1.0
132
0.0
 79
     0
146
0.0
  0
ENDTAB
  0
TABLE
  2
LTYPE
  5
5
330
0
100
AcDbSymbolTable
 70
     6
  0
LTYPE
  5
14
330
5
100
AcDbSymbolTableRecord
100
AcDbLinetypeTableRecord
  2
ByBlock
 70
     0
  3

 72
    65
 73
     0
 40
0.0
  0
LTYPE
  5
15
330
5
100
AcDbSymbolTableRecord
100
AcDbLinetypeTableRecord
  2
ByLayer
 70
     0
  3

 72
    65
 73
     0
 40
0.0
  0
LTYPE
  5
16
330
5
100
AcDbSymbolTableRecord
100
AcDbLinetypeTableRecord
  2
Continuous
 70
     0
  3
Solid line
 72
    65
 73
     0
 40
0.0
  0
LTYPE
  5
6E
330
5
100
AcDbSymbolTableRecord
100
AcDbLinetypeTableRecord
  2
HIDDEN
 70
     0
  3
Hidden __ __ __ __ __ __ __ __ __ __ __ __ __ __
 72
    65
 73
     2
 40
1.905
 49
1.27
 74
     0
 49
-0.635
 74
     0
  0
LTYPE
  5
6F
330
5
100
AcDbSymbolTableRecord
100
AcDbLinetypeTableRecord
  2
PHANTOM
 70
     0
  3
Phantom ______  __  __  ______  __  __  ______
 72
    65
 73
     6
 40
12.7
 49
6.35
 74
     0
 49
-1.27
 74
     0
 49
1.27
 74
     0
 49
-1.27
 74
     0
 49
1.27
 74
     0
 49
-1.27
 74
     0
  0
LTYPE
  5
70
330
5
100
AcDbSymbolTableRecord
100
AcDbLinetypeTableRecord
  2
CENTER
 70
     0
  3
Center ____ _ ____ _ ____ _ ____ _ ____ _ ____
 72
    65
 73
     4
 40
10.16
 49
6.35
 74
     0
 49
-1.27
 74
     0
 49
1.27
 74
     0
 49
-1.27
 74
     0
  0
LTYPE
  5
71
330
5
100
AcDbSymbolTableRecord
100
AcDbLinetypeTableRecord
  2
CENTERX2
 70
     0
  3
Center (2x) ________  __  ________  __  _____
 72
    65
 73
     4
 40
20.32
 49
12.7
 74
     0
 49
-2.54
 74
     0
 49
2.54
 74
     0
 49
-2.54
 74
     0
  0
LTYPE
  5
72
330
5
100
AcDbSymbolTableRecord
100
AcDbLinetypeTableRecord
  2
DOT2
 70
     0
  3
Dot (.5x) ........................................
 72
    65
 73
     2
 40
0.635
 49
0.0
 74
     0
 49
-0.635
 74
     0
  0
ENDTAB
  0
TABLE
  2
LAYER
  5
2
330
0
100
AcDbSymbolTable
 70
     1
  0
LAYER
  5
10
330
2
100
AcDbSymbolTableRecord
100
AcDbLayerTableRecord
  2
0
 70
     0
 62
     7
  6
Continuous
370
    -3
390
F
  0
ENDTAB
  0
TABLE
  2
STYLE
  5
3
330
0
100
AcDbSymbolTable
 70
     2
  0
STYLE
  5
11
330
3
100
AcDbSymbolTableRecord
100
AcDbTextStyleTableRecord
  2
Standard
 70
     0
 40
0.0
 41
1.0
 50
0.0
 71
     0
 42
3.5
  3
txt
  4
bigfont
  0
STYLE
  5
370
330
3
100
AcDbSymbolTableRecord
100
AcDbTextStyleTableRecord
  2
SLDTEXTSTYLE0
 70
     0
 40
0.0
 41
0.75
 50
0.0
 71
     0
 42
3.5
  3
TXT
  4
bigfont
  0
ENDTAB
  0
TABLE
  2
VIEW
  5
6
330
0
100
AcDbSymbolTable
 70
     0
  0
ENDTAB
  0
TABLE
  2
UCS
  5
7
330
0
100
AcDbSymbolTable
 70
     0
  0
ENDTAB
  0
TABLE
  2
APPID
  5
9
330
0
100
AcDbSymbolTable
 70
     1
  0
APPID
  5
12
330
9
100
AcDbSymbolTableRecord
100
AcDbRegAppTableRecord
  2
ACAD
 70
     0
  0
ENDTAB
  0
TABLE
  2
DIMSTYLE
  5
A
330
0
100
AcDbSymbolTable
 70
     1
100
AcDbDimStyleTable
  0
DIMSTYLE
105
27
330
A
100
AcDbSymbolTableRecord
100
AcDbDimStyleTableRecord
  2
ISO-25
 70
     0
 41
2.5
 42
0.625
 43
3.75
 44
1.25
 73
     0
 74
     0
 77
     1
 78
     8
140
2.5
141
2.5
143
0.0393700787
147
0.625
171
     3
172
     1
178
     0
271
     2
272
     2
274
     3
278
    44
283
     0
284
     8
340
11
  0
ENDTAB
  0
TABLE
  2
BLOCK_RECORD
  5
1
330
0
100
AcDbSymbolTable
 70
     1
  0
BLOCK_RECORD
  5
1F
330
1
100
AcDbSymbolTableRecord
100
AcDbBlockTableRecord
  2
*Model_Space
340
22
  0
BLOCK_RECORD
  5
1B
330
1
100
AcDbSymbolTableRecord
100
AcDbBlockTableRecord
  2
*Paper_Space
340
1E
  0
BLOCK_RECORD
  5
23
330
1
100
AcDbSymbolTableRecord
100
AcDbBlockTableRecord
  2
*Paper_Space0
340
26
  0
ENDTAB
  0
ENDSEC
  0
SECTION
  2
BLOCKS
  0
BLOCK
  5
20
330
1F
100
AcDbEntity
  8
0
100
AcDbBlockBegin
  2
*Model_Space
 70
     0
 10
0.0
 20
0.0
 30
0.0
  3
*Model_Space
  1

  0
ENDBLK
  5
21
330
1F
100
AcDbEntity
  8
0
100
AcDbBlockEnd
  0
BLOCK
  5
1C
330
1B
100
AcDbEntity
 67
     1
  8
0
100
AcDbBlockBegin
  2
*Paper_Space
 70
     0
 10
0.0
 20
0.0
 30
0.0
  3
*Paper_Space
  1

  0
ENDBLK
  5
1D
330
1B
100
AcDbEntity
 67
     1
  8
0
100
AcDbBlockEnd
  0
BLOCK
  5
24
330
23
100
AcDbEntity
  8
0
100
AcDbBlockBegin
  2
*Paper_Space0
 70
     0
 10
0.0
 20
0.0
 30
0.0
  3
*Paper_Space0
  1

  0
ENDBLK
  5
25
330
23
100
AcDbEntity
  8
0
100
AcDbBlockEnd
  0
ENDSEC
  0
SECTION
  2
ENTITIES
  0
LINE
  5
73
330
1F
100
AcDbEntity
  8
0
  6
Continuous
 62
     7
370
    25
100
AcDbLine
 10
101.0952065558
 20
78.6836587508
 30
0.0
 11
101.2952062161
 21
78.4836581593
 31
0.0
  0
LINE
  5
74
330
1F
100
AcDbEntity
  8
0
  6
Continuous
 62
     7
370
    25
100
AcDbLine
 10
115.8952065603
 20
78.4836581593
 30
0.0
 11
116.0952062206
 21
78.6836587508
 31
0.0
  0
LINE
  5
75
330
1F
100
AcDbEntity
  8
0
  6
Continuous
 62
     7
370
    25
100
AcDbLine
 10
101.0952065558
 20
83.4836580475
 30
0.0
 11
101.0952065558
 21
78.6836587508
 31
0.0
  0
LINE
  5
76
330
1F
100
AcDbEntity
  8
0
  6
Continuous
 62
     7
370
    25
100
AcDbLine
 10
116.0952062206
 20
78.6836587508
 30
0.0
 11
116.0952062206
 21
83.4836580475
 31
0.0
  0
LINE
  5
77
330
1F
100
AcDbEntity
  8
0
  6
Continuous
 62
     7
370
    25
100
AcDbLine
 10
99.7952064359
 20
96.983659329
 30
0.0
 11
99.5952067756
 21
96.7836578061
 31
0.0
  0
LINE
  5
78
330
1F
100
AcDbEntity
  8
0
  6
Continuous
 62
     7
370
    25
100
AcDbLine
 10
99.5952067756
 20
83.6836577078
 30
0.0
 11
99.7952064359
 21
83.4836580475
 31
0.0
  0
LINE
  5
79
330
1F
100
AcDbEntity
  8
0
  6
Continuous
 62
     7
370
    25
100
AcDbLine
 10
117.3952063405
 20
83.4836580475
 30
0.0
 11
117.5952060008
 21
83.6836577078
 31
0.0
  0
LINE
  5
7A
330
1F
100
AcDbEntity
  8
0
  6
Continuous
 62
     7
370
    25
100
AcDbLine
 10
117.5952060008
 20
96.7836578061
 30
0.0
 11
117.3952063405
 21
96.983659329
 31
0.0
  0
LINE
  5
7B
330
1F
100
AcDbEntity
  8
0
  6
Continuous
 62
     7
370
    25
100
AcDbLine
 10
98.5952066117
 20
74.7836588566
 30
0.0
 11
95.59520612
 21
74.7836588566
 31
0.0
  0
LINE
  5
7C
330
1F
100
AcDbEntity
  8
0
  6
Continuous
 62
     7
370
    25
100
AcDbLine
 10
95.59520612
 20
58.7836580967
 30
0.0
 11
98.5952066117
 21
58.7836580967
 31
0.0
  0
LINE
  5
7D
330
1F
100
AcDbEntity
  8
0
  6
Continuous
 62
     7
370
    25
100
AcDbLine
 10
87.5952066713
 20
60.1836585124
 30
0.0
 11
88.7452056491
 21
61.3336584215
 31
0.0
  0
LINE
  5
7E
330
1F
100
AcDbEntity
  8
0
  6
Continuous
 62
     7
370
    25
100
AcDbLine
 10
88.7452056491
 20
72.2336585318
 30
0.0
 11
87.5952066713
 21
73.3836584409
 31
0.0
  0
LINE
  5
7F
330
1F
100
AcDbEntity
  8
0
  6
Continuous
 62
     7
370
    25
100
AcDbLine
 10
87.5952066713
 20
73.3836584409
 30
0.0
 11
85.3598294639
 21
73.3836584409
 31
0.0
  0
LINE
  5
80
330
1F
100
AcDbEntity
  8
0
  6
Continuous
 62
     7
370
    25
100
AcDbLine
 10
85.3598294639
 20
60.1836585124
 30
0.0
 11
87.5952066713
 21
60.1836585124
 31
0.0
  0
LINE
  5
81
330
1F
100
AcDbEntity
  8
0
  6
Continuous
 62
     7
370
    25
100
AcDbLine
 10
85.3598294639
 20
73.3836584409
 30
0.0
 11
80.5952055239
 21
72.2836584469
 31
0.0
  0
LINE
  5
82
330
1F
100
AcDbEntity
  8
0
  6
Continuous
 62
     7
370
    25
100
AcDbLine
 10
80.5952055239
 20
61.2836585065
 30
0.0
 11
85.3598294639
 21
60.1836585124
 31
0.0
  0
LINE
  5
83
330
1F
100
AcDbEntity
  8
0
  6
Continuous
 62
     7
370
    25
100
AcDbLine
 10
91.6952071571
 20
73.3836584409
 30
0.0
 11
90.5452063167
 21
72.2336585318
 31
0.0
  0
LINE
  5
84
330
1F
100
AcDbEntity
  8
0
  6
Continuous
 62
     7
370
    25
100
AcDbLine
 10
90.5452063167
 20
61.3336584215
 30
0.0
 11
91.6952071571
 21
60.1836585124
 31
0.0
  0
LINE
  5
85
330
1F
100
AcDbEntity
  8
0
  6
Continuous
 62
     7
370
    25
100
AcDbLine
 10
95.59520612
 20
73.3836584409
 30
0.0
 11
91.6952071571
 21
73.3836584409
 31
0.0
  0
LINE
  5
86
330
1F
100
AcDbEntity
  8
0
  6
Continuous
 62
     7
370
    25
100
AcDbLine
 10
91.6952071571
 20
60.1836585124
 30
0.0
 11
95.59520612
 21
60.1836585124
 31
0.0
  0
LINE
  5
87
330
1F
100
AcDbEntity
  8
0
  6
Continuous
 62
     7
370
    25
100
AcDbLine
 10
80.5952055239
 20
72.2836584469
 30
0.0
 11
75.89520792
 21
72.2836584469
 31
0.0
  0
LINE
  5
88
330
1F
100
AcDbEntity
  8
0
  6
Continuous
 62
     7
370
    25
100
AcDbLine
 10
75.89520792
 20
61.2836585065
 30
0.0
 11
80.5952055239
 21
61.2836585065
 31
0.0
  0
ARC
  5
89
330
1F
100
AcDbEntity
  8
0
  6
Continuous
 62
     7
370
    25
100
AcDbCircle
 10
75.8952063882
 20
61.5836584767
 30
0.0
 40
0.2999999999999972
100
AcDbArc
 50
180.0
 51
270.0
  0
ARC
  5
8A
330
1F
100
AcDbEntity
  8
0
  6
Continuous
 62
     7
370
    25
100
AcDbCircle
 10
75.8952063882
 20
71.9836584767
 30
0.0
 40
0.3000000000000114
100
AcDbArc
 50
90.0
 51
180.0
  0
LINE
  5
8B
330
1F
100
AcDbEntity
  8
0
  6
Continuous
 62
     7
370
    25
100
AcDbLine
 10
90.5452063167
 20
72.2336585318
 30
0.0
 11
88.7452056491
 21
72.2336585318
 31
0.0
  0
LINE
  5
8C
330
1F
100
AcDbEntity
  8
0
  6
Continuous
 62
     7
370
    25
100
AcDbLine
 10
88.7452056491
 20
61.3336584215
 30
0.0
 11
90.5452063167
 21
61.3336584215
 31
0.0
  0
LINE
  5
8D
330
1F
100
AcDbEntity
  8
0
  6
Continuous
 62
     7
370
    25
100
AcDbLine
 10
118.0952060827
 20
56.7836587002
 30
0.0
 11
118.5952061647
 21
57.2836587821
 31
0.0
  0
LINE
  5
8E
330
1F
100
AcDbEntity
  8
0
  6
Continuous
 62
     7
370
    25
100
AcDbLine
 10
118.5952061647
 20
76.2836581712
 30
0.0
 11
118.0952060827
 21
76.7836582531
 31
0.0
  0
ARC
  5
8F
330
1F
100
AcDbEntity
  8
0
  6
Continuous
 62
     7
370
    25
100
AcDbCircle
 10
117.5952063882
 20
75.7836584767
 30
0.0
 40
1.500000000000003
100
AcDbArc
 50
138.1896851042
 51
180.0
  0
ARC
  5
90
330
1F
100
AcDbEntity
  8
0
  6
Continuous
 62
     7
370
    25
100
AcDbCircle
 10
117.5952063882
 20
57.7836584767
 30
0.0
 40
1.5
100
AcDbArc
 50
180.0
 51
221.8103148958
  0
LINE
  5
91
330
1F
100
AcDbEntity
  8
0
  6
Continuous
 62
     7
370
    25
100
AcDbLine
 10
98.845206187
 20
56.7836587002
 30
0.0
 11
100.7132399687
 21
56.7836587002
 31
0.0
  0
LINE
  5
92
330
1F
100
AcDbEntity
  8
0
  6
Continuous
 62
     7
370
    25
100
AcDbLine
 10
100.7132399687
 20
76.7836582531
 30
0.0
 11
98.845206187
 21
76.7836582531
 31
0.0
  0
LINE
  5
93
330
1F
100
AcDbEntity
  8
0
  6
Continuous
 62
     7
370
    25
100
AcDbLine
 10
98.845206187
 20
76.7836582531
 30
0.0
 11
98.5952066117
 21
76.5336586778
 31
0.0
  0
LINE
  5
94
330
1F
100
AcDbEntity
  8
0
  6
Continuous
 62
     7
370
    25
100
AcDbLine
 10
98.5952066117
 20
57.0336582755
 30
0.0
 11
98.845206187
 21
56.7836587002
 31
0.0
  0
ARC
  5
95
330
1F
100
AcDbEntity
  8
0
  6
Continuous
 62
     7
370
    25
100
AcDbCircle
 10
99.5952063882
 20
57.7836584767
 30
0.0
 40
1.5
100
AcDbArc
 50
318.1896851042
 51
0.0
  0
ARC
  5
96
330
1F
100
AcDbEntity
  8
0
  6
Continuous
 62
     7
370
    25
100
AcDbCircle
 10
99.5952063882
 20
75.7836584767
 30
0.0
 40
1.500000000000003
100
AcDbArc
 50
0.0
 51
41.8103148958
  0
LINE
  5
97
330
1F
100
AcDbEntity
  8
0
  6
Continuous
 62
     7
370
    25
100
AcDbLine
 10
118.0952060827
 20
76.7836582531
 30
0.0
 11
116.4771728077
 21
76.7836582531
 31
0.0
  0
LINE
  5
98
330
1F
100
AcDbEntity
  8
0
  6
Continuous
 62
     7
370
    25
100
AcDbLine
 10
116.4771728077
 20
56.7836587002
 30
0.0
 11
118.0952060827
 21
56.7836587002
 31
0.0
  0
ARC
  5
99
330
1F
100
AcDbEntity
  8
0
  6
Continuous
 62
     7
370
    25
100
AcDbCircle
 10
115.5952063882
 20
75.7836584767
 30
0.0
 40
0.5
100
AcDbArc
 50
270.0
 51
0.0
  0
ARC
  5
9A
330
1F
100
AcDbEntity
  8
0
  6
Continuous
 62
     7
370
    25
100
AcDbCircle
 10
101.5952063882
 20
57.7836584767
 30
0.0
 40
0.5
100
AcDbArc
 50
90.0
 51
180.0
  0
ARC
  5
9B
330
1F
100
AcDbEntity
  8
0
  6
Continuous
 62
     7
370
    25
100
AcDbCircle
 10
101.5952063882
 20
75.7836584767
 30
0.0
 40
0.5
100
AcDbArc
 50
180.0
 51
270.0
  0
ARC
  5
9C
330
1F
100
AcDbEntity
  8
0
  6
Continuous
 62
     7
370
    25
100
AcDbCircle
 10
115.5952063882
 20
57.7836584767
 30
0.0
 40
0.5
100
AcDbArc
 50
0.0
 51
90.0
  0
LINE
  5
9D
330
1F
100
AcDbEntity
  8
0
  6
Continuous
 62
     7
370
    25
100
AcDbLine
 10
102.2128853807
 20
75.2836589386
 30
0.0
 11
101.5952061721
 21
75.2836589386
 31
0.0
  0
LINE
  5
9E
330
1F
100
AcDbEntity
  8
0
  6
Continuous
 62
     7
370
    25
100
AcDbLine
 10
115.5952066043
 20
75.2836589386
 30
0.0
 11
114.9952062265
 21
75.2836589386
 31
0.0
  0
LINE
  5
9F
330
1F
100
AcDbEntity
  8
0
  6
Continuous
 62
     7
370
    25
100
AcDbLine
 10
101.5952061721
 20
58.2836580147
 30
0.0
 11
115.5952066043
 21
58.2836580147
 31
0.0
  0
SPLINE
  5
A0
330
1F
100
AcDbEntity
  8
0
  6
Continuous
 62
     7
370
    25
100
AcDbSpline
210
0.0
220
0.0
230
1.0
 70
     8
 71
     3
 72
    14
 73
    10
 74
     0
 42
0.000000001
 43
0.00000001
 40
0.0
 40
0.0
 40
0.0
 40
0.0
 40
0.0798015173962998
 40
0.2384112633795968
 40
0.4074467509627531
 40
0.5840678704495411
 40
0.7712060161804928
 40
0.9313116937975251
 40
1.0
 40
1.0
 40
1.0
 40
1.0
 10
114.9951713019322
 20
75.28737584698978
 30
0.0
 10
114.9742835782657
 20
75.2866913094505
 30
0.0
 10
114.9118803965851
 20
75.28464621726566
 30
0.0
 10
114.8077269945344
 20
75.31516129503905
 30
0.0
 10
114.6913733164045
 20
75.37851903784606
 30
0.0
 10
114.5907025932964
 20
75.47785861061695
 30
0.0
 10
114.5248741865342
 20
75.59916707613003
 30
0.0
 10
114.4956502474833
 20
75.70596530920706
 30
0.0
 10
114.4976527179665
 20
75.76580773780344
 30
0.0
 10
114.4982538976978
 20
75.78377357322755
 30
0.0
  0
SPLINE
  5
A1
330
1F
100
AcDbEntity
  8
0
  6
Continuous
 62
     7
370
    25
100
AcDbSpline
210
0.0
220
0.0
230
1.0
 70
     8
 71
     3
 72
    14
 73
    10
 74
     0
 42
0.000000001
 43
0.00000001
 40
0.0
 40
0.0
 40
0.0
 40
0.0
 40
0.1330271211849526
 40
0.3130778778851796
 40
0.4972460868228206
 40
0.6777796887357747
 40
0.8344004547400194
 40
0.9733802331997967
 40
1.0
 40
1.0
 40
1.0
 40
1.0
 10
102.6927209318887
 20
75.77411296416106
 30
0.0
 10
102.6910620306453
 20
75.74048252169933
 30
0.0
 10
102.6871578246737
 20
75.66133364239961
 30
0.0
 10
102.6399074868135
 20
75.54254224735664
 30
0.0
 10
102.5584027377162
 20
75.4305843548439
 30
0.0
 10
102.4530973349518
 20
75.3484748439437
 30
0.0
 10
102.341820744397
 20
75.30238396716078
 30
0.0
 10
102.2613459776479
 20
75.28387007546284
 30
0.0
 10
102.2196041381515
 20
75.28518214836286
 30
0.0
 10
102.2128942282211
 20
75.28539306122842
 30
0.0
  0
LINE
  5
A2
330
1F
100
AcDbEntity
  8
0
  6
Continuous
 62
     7
370
    25
100
AcDbLine
 10
114.4952066102
 20
75.7836580892
 30
0.0
 11
114.4952066102
 21
78.4836581593
 31
0.0
  0
LINE
  5
A3
330
1F
100
AcDbEntity
  8
0
  6
Continuous
 62
     7
370
    25
100
AcDbLine
 10
102.6952061662
 20
78.4836581593
 30
0.0
 11
102.6952061662
 21
75.7723881548
 31
0.0
  0
LINE
  5
A4
330
1F
100
AcDbEntity
  8
0
  6
Continuous
 62
     7
370
    25
100
AcDbLine
 10
118.5952061647
 20
61.7312209365
 30
0.0
 11
127.240258255
 21
62.001378989
 31
0.0
  0
LINE
  5
A5
330
1F
100
AcDbEntity
  8
0
  6
Continuous
 62
     7
370
    25
100
AcDbLine
 10
127.240258255
 20
71.5659379644
 30
0.0
 11
118.5952061647
 21
71.8360960168
 31
0.0
  0
LINE
  5
A6
330
1F
100
AcDbEntity
  8
0
  6
Continuous
 62
     7
370
    25
100
AcDbLine
 10
127.240258255
 20
62.001378989
 30
0.0
 11
128.5952059412
 21
62.7836582867
 31
0.0
  0
LINE
  5
A7
330
1F
100
AcDbEntity
  8
0
  6
Continuous
 62
     7
370
    25
100
AcDbLine
 10
128.5952059412
 20
70.7836586666
 30
0.0
 11
127.240258255
 21
71.5659379644
 31
0.0
  0
LINE
  5
A8
330
1F
100
AcDbEntity
  8
0
  6
Continuous
 62
     7
370
    25
100
AcDbLine
 10
103.345206459
 20
97.4336576333
 30
0.0
 11
103.345206459
 21
96.983659329
 31
0.0
  0
LINE
  5
A9
330
1F
100
AcDbEntity
  8
0
  6
Continuous
 62
     7
370
    25
100
AcDbLine
 10
103.345206459
 20
97.4336576333
 30
0.0
 11
106.5952062932
 21
97.4336576333
 31
0.0
  0
LINE
  5
AA
330
1F
100
AcDbEntity
  8
0
  6
Continuous
 62
     7
370
    25
100
AcDbLine
 10
106.5952062932
 20
97.4336576333
 30
0.0
 11
106.5952062932
 21
96.983659329
 31
0.0
  0
LINE
  5
AB
330
1F
100
AcDbEntity
  8
0
  6
Continuous
 62
     7
370
    25
100
AcDbLine
 10
113.8452063174
 20
97.4336576333
 30
0.0
 11
113.8452063174
 21
96.983659329
 31
0.0
  0
LINE
  5
AC
330
1F
100
AcDbEntity
  8
0
  6
Continuous
 62
     7
370
    25
100
AcDbLine
 10
110.5952064832
 20
97.4336576333
 30
0.0
 11
110.5952064832
 21
96.983659329
 31
0.0
  0
LINE
  5
AD
330
1F
100
AcDbEntity
  8
0
  6
Continuous
 62
     7
370
    25
100
AcDbLine
 10
113.8452063174
 20
97.4336576333
 30
0.0
 11
110.5952064832
 21
97.4336576333
 31
0.0
  0
LINE
  5
AE
330
1F
100
AcDbEntity
  8
0
  6
Continuous
 62
     7
370
    25
100
AcDbLine
 10
110.5952064832
 20
97.4336576333
 30
0.0
 11
106.5952062932
 21
97.4336576333
 31
0.0
  0
LINE
  5
AF
330
1F
100
AcDbEntity
  8
0
  6
Continuous
 62
     7
370
    25
100
AcDbLine
 10
108.5952063882
 20
83.6836577078
 30
0.0
 11
109.0557628054
 21
83.4836580475
 31
0.0
  0
LINE
  5
B0
330
1F
100
AcDbEntity
  8
0
  6
Continuous
 62
     7
370
    25
100
AcDbLine
 10
109.0557628054
 20
83.4836580475
 30
0.0
 11
108.134649971
 21
83.4836580475
 31
0.0
  0
LINE
  5
B1
330
1F
100
AcDbEntity
  8
0
  6
Continuous
 62
     7
370
    25
100
AcDbLine
 10
108.134649971
 20
83.4836580475
 30
0.0
 11
108.5952063882
 21
83.6836577078
 31
0.0
  0
LINE
  5
B2
330
1F
100
AcDbEntity
  8
0
  6
Continuous
 62
     7
370
    25
100
AcDbLine
 10
109.0557628054
 20
83.4836580475
 30
0.0
 11
109.0557628054
 21
96.983659329
 31
0.0
  0
LINE
  5
B3
330
1F
100
AcDbEntity
  8
0
  6
Continuous
 62
     7
370
    25
100
AcDbLine
 10
108.5952063882
 20
83.6836577078
 30
0.0
 11
108.5952063882
 21
96.7836578061
 31
0.0
  0
LINE
  5
B4
330
1F
100
AcDbEntity
  8
0
  6
Continuous
 62
     7
370
    25
100
AcDbLine
 10
109.0557628054
 20
96.983659329
 30
0.0
 11
108.5952063882
 21
96.7836578061
 31
0.0
  0
LINE
  5
B5
330
1F
100
AcDbEntity
  8
0
  6
Continuous
 62
     7
370
    25
100
AcDbLine
 10
108.134649971
 20
83.4836580475
 30
0.0
 11
108.134649971
 21
96.983659329
 31
0.0
  0
LINE
  5
B6
330
1F
100
AcDbEntity
  8
0
  6
Continuous
 62
     7
370
    25
100
AcDbLine
 10
108.5952063882
 20
96.7836578061
 30
0.0
 11
108.134649971
 21
96.983659329
 31
0.0
  0
LINE
  5
B7
330
1F
100
AcDbEntity
  8
0
  6
Continuous
 62
     7
370
    25
100
AcDbLine
 10
108.134649971
 20
96.983659329
 30
0.0
 11
109.0557628054
 21
96.983659329
 31
0.0
  0
LINE
  5
B8
330
1F
100
AcDbEntity
  8
0
  6
Continuous
 62
     7
370
    25
100
AcDbLine
 10
109.535962562
 20
83.6836577078
 30
0.0
 11
109.535962562
 21
96.7836578061
 31
0.0
  0
LINE
  5
B9
330
1F
100
AcDbEntity
  8
0
  6
Continuous
 62
     7
370
    25
100
AcDbLine
 10
109.0557628054
 20
83.4836580475
 30
0.0
 11
109.535962562
 21
83.6836577078
 31
0.0
  0
LINE
  5
BA
330
1F
100
AcDbEntity
  8
0
  6
Continuous
 62
     7
370
    25
100
AcDbLine
 10
109.535962562
 20
96.7836578061
 30
0.0
 11
109.0557628054
 21
96.983659329
 31
0.0
  0
LINE
  5
BB
330
1F
100
AcDbEntity
  8
0
  6
Continuous
 62
     7
370
    25
100
AcDbLine
 10
109.971829676
 20
83.4836580475
 30
0.0
 11
109.971829676
 21
96.983659329
 31
0.0
  0
LINE
  5
BC
330
1F
100
AcDbEntity
  8
0
  6
Continuous
 62
     7
370
    25
100
AcDbLine
 10
109.535962562
 20
83.6836577078
 30
0.0
 11
109.971829676
 21
83.4836580475
 31
0.0
  0
LINE
  5
BD
330
1F
100
AcDbEntity
  8
0
  6
Continuous
 62
     7
370
    25
100
AcDbLine
 10
109.971829676
 20
96.983659329
 30
0.0
 11
109.535962562
 21
96.7836578061
 31
0.0
  0
LINE
  5
BE
330
1F
100
AcDbEntity
  8
0
  6
Continuous
 62
     7
370
    25
100
AcDbLine
 10
109.971829676
 20
83.4836580475
 30
0.0
 11
109.0557628054
 21
83.4836580475
 31
0.0
  0
LINE
  5
BF
330
1F
100
AcDbEntity
  8
0
  6
Continuous
 62
     7
370
    25
100
AcDbLine
 10
109.0557628054
 20
96.983659329
 30
0.0
 11
109.971829676
 21
96.983659329
 31
0.0
  0
LINE
  5
C0
330
1F
100
AcDbEntity
  8
0
  6
Continuous
 62
     7
370
    25
100
AcDbLine
 10
107.6544502144
 20
83.6836577078
 30
0.0
 11
108.134649971
 21
83.4836580475
 31
0.0
  0
LINE
  5
C1
330
1F
100
AcDbEntity
  8
0
  6
Continuous
 62
     7
370
    25
100
AcDbLine
 10
108.134649971
 20
83.4836580475
 30
0.0
 11
107.2185831004
 21
83.4836580475
 31
0.0
  0
LINE
  5
C2
330
1F
100
AcDbEntity
  8
0
  6
Continuous
 62
     7
370
    25
100
AcDbLine
 10
107.2185831004
 20
83.4836580475
 30
0.0
 11
107.6544502144
 21
83.6836577078
 31
0.0
  0
LINE
  5
C3
330
1F
100
AcDbEntity
  8
0
  6
Continuous
 62
     7
370
    25
100
AcDbLine
 10
107.6544502144
 20
83.6836577078
 30
0.0
 11
107.6544502144
 21
96.7836578061
 31
0.0
  0
LINE
  5
C4
330
1F
100
AcDbEntity
  8
0
  6
Continuous
 62
     7
370
    25
100
AcDbLine
 10
107.2185831004
 20
83.4836580475
 30
0.0
 11
107.2185831004
 21
96.983659329
 31
0.0
  0
LINE
  5
C5
330
1F
100
AcDbEntity
  8
0
  6
Continuous
 62
     7
370
    25
100
AcDbLine
 10
107.6544502144
 20
96.7836578061
 30
0.0
 11
107.2185831004
 21
96.983659329
 31
0.0
  0
LINE
  5
C6
330
1F
100
AcDbEntity
  8
0
  6
Continuous
 62
     7
370
    25
100
AcDbLine
 10
108.134649971
 20
96.983659329
 30
0.0
 11
107.6544502144
 21
96.7836578061
 31
0.0
  0
LINE
  5
C7
330
1F
100
AcDbEntity
  8
0
  6
Continuous
 62
     7
370
    25
100
AcDbLine
 10
107.2185831004
 20
96.983659329
 30
0.0
 11
108.134649971
 21
96.983659329
 31
0.0
  0
LINE
  5
C8
330
1F
100
AcDbEntity
  8
0
  6
Continuous
 62
     7
370
    25
100
AcDbLine
 10
110.8728139521
 20
83.4836580475
 30
0.0
 11
110.8728139521
 21
96.983659329
 31
0.0
  0
LINE
  5
C9
330
1F
100
AcDbEntity
  8
0
  6
Continuous
 62
     7
370
    25
100
AcDbLine
 10
110.4664115561
 20
83.6836577078
 30
0.0
 11
110.8728139521
 21
83.4836580475
 31
0.0
  0
LINE
  5
CA
330
1F
100
AcDbEntity
  8
0
  6
Continuous
 62
     7
370
    25
100
AcDbLine
 10
110.4664115561
 20
83.6836577078
 30
0.0
 11
110.4664115561
 21
96.7836578061
 31
0.0
  0
LINE
  5
CB
330
1F
100
AcDbEntity
  8
0
  6
Continuous
 62
     7
370
    25
100
AcDbLine
 10
110.8728139521
 20
96.983659329
 30
0.0
 11
110.4664115561
 21
96.7836578061
 31
0.0
  0
LINE
  5
CC
330
1F
100
AcDbEntity
  8
0
  6
Continuous
 62
     7
370
    25
100
AcDbLine
 10
110.8728139521
 20
83.4836580475
 30
0.0
 11
109.971829676
 21
83.4836580475
 31
0.0
  0
LINE
  5
CD
330
1F
100
AcDbEntity
  8
0
  6
Continuous
 62
     7
370
    25
100
AcDbLine
 10
109.971829676
 20
83.4836580475
 30
0.0
 11
110.4664115561
 21
83.6836577078
 31
0.0
  0
LINE
  5
CE
330
1F
100
AcDbEntity
  8
0
  6
Continuous
 62
     7
370
    25
100
AcDbLine
 10
110.4664115561
 20
96.7836578061
 30
0.0
 11
109.971829676
 21
96.983659329
 31
0.0
  0
LINE
  5
CF
330
1F
100
AcDbEntity
  8
0
  6
Continuous
 62
     7
370
    25
100
AcDbLine
 10
109.971829676
 20
96.983659329
 30
0.0
 11
110.8728139521
 21
96.983659329
 31
0.0
  0
LINE
  5
D0
330
1F
100
AcDbEntity
  8
0
  6
Continuous
 62
     7
370
    25
100
AcDbLine
 10
106.7240012204
 20
83.6836577078
 30
0.0
 11
106.7240012204
 21
96.7836578061
 31
0.0
  0
LINE
  5
D1
330
1F
100
AcDbEntity
  8
0
  6
Continuous
 62
     7
370
    25
100
AcDbLine
 10
106.3175988243
 20
83.4836580475
 30
0.0
 11
106.7240012204
 21
83.6836577078
 31
0.0
  0
LINE
  5
D2
330
1F
100
AcDbEntity
  8
0
  6
Continuous
 62
     7
370
    25
100
AcDbLine
 10
106.3175988243
 20
83.4836580475
 30
0.0
 11
106.3175988243
 21
96.983659329
 31
0.0
  0
LINE
  5
D3
330
1F
100
AcDbEntity
  8
0
  6
Continuous
 62
     7
370
    25
100
AcDbLine
 10
106.7240012204
 20
96.7836578061
 30
0.0
 11
106.3175988243
 21
96.983659329
 31
0.0
  0
LINE
  5
D4
330
1F
100
AcDbEntity
  8
0
  6
Continuous
 62
     7
370
    25
100
AcDbLine
 10
106.7240012204
 20
83.6836577078
 30
0.0
 11
107.2185831004
 21
83.4836580475
 31
0.0
  0
LINE
  5
D5
330
1F
100
AcDbEntity
  8
0
  6
Continuous
 62
     7
370
    25
100
AcDbLine
 10
107.2185831004
 20
96.983659329
 30
0.0
 11
106.7240012204
 21
96.7836578061
 31
0.0
  0
LINE
  5
D6
330
1F
100
AcDbEntity
  8
0
  6
Continuous
 62
     7
370
    25
100
AcDbLine
 10
107.2185831004
 20
83.4836580475
 30
0.0
 11
106.3175988243
 21
83.4836580475
 31
0.0
  0
LINE
  5
D7
330
1F
100
AcDbEntity
  8
0
  6
Continuous
 62
     7
370
    25
100
AcDbLine
 10
106.3175988243
 20
96.983659329
 30
0.0
 11
107.2185831004
 21
96.983659329
 31
0.0
  0
LINE
  5
D8
330
1F
100
AcDbEntity
  8
0
  6
Continuous
 62
     7
370
    25
100
AcDbLine
 10
105.8140534302
 20
83.6836577078
 30
0.0
 11
105.8140534302
 21
96.7836578061
 31
0.0
  0
LINE
  5
D9
330
1F
100
AcDbEntity
  8
0
  6
Continuous
 62
     7
370
    25
100
AcDbLine
 10
105.4415684053
 20
83.4836580475
 30
0.0
 11
105.8140534302
 21
83.6836577078
 31
0.0
  0
LINE
  5
DA
330
1F
100
AcDbEntity
  8
0
  6
Continuous
 62
     7
370
    25
100
AcDbLine
 10
105.4415684053
 20
83.4836580475
 30
0.0
 11
105.4415684053
 21
96.983659329
 31
0.0
  0
LINE
  5
DB
330
1F
100
AcDbEntity
  8
0
  6
Continuous
 62
     7
370
    25
100
AcDbLine
 10
105.8140534302
 20
96.7836578061
 30
0.0
 11
105.4415684053
 21
96.983659329
 31
0.0
  0
LINE
  5
DC
330
1F
100
AcDbEntity
  8
0
  6
Continuous
 62
     7
370
    25
100
AcDbLine
 10
105.8140534302
 20
83.6836577078
 30
0.0
 11
106.3175988243
 21
83.4836580475
 31
0.0
  0
LINE
  5
DD
330
1F
100
AcDbEntity
  8
0
  6
Continuous
 62
     7
370
    25
100
AcDbLine
 10
106.3175988243
 20
96.983659329
 30
0.0
 11
105.8140534302
 21
96.7836578061
 31
0.0
  0
LINE
  5
DE
330
1F
100
AcDbEntity
  8
0
  6
Continuous
 62
     7
370
    25
100
AcDbLine
 10
106.3175988243
 20
83.4836580475
 30
0.0
 11
105.4415684053
 21
83.4836580475
 31
0.0
  0
LINE
  5
DF
330
1F
100
AcDbEntity
  8
0
  6
Continuous
 62
     7
370
    25
100
AcDbLine
 10
105.4415684053
 20
96.983659329
 30
0.0
 11
106.3175988243
 21
96.983659329
 31
0.0
  0
LINE
  5
E0
330
1F
100
AcDbEntity
  8
0
  6
Continuous
 62
     7
370
    25
100
AcDbLine
 10
111.7488443711
 20
83.4836580475
 30
0.0
 11
111.7488443711
 21
96.983659329
 31
0.0
  0
LINE
  5
E1
330
1F
100
AcDbEntity
  8
0
  6
Continuous
 62
     7
370
    25
100
AcDbLine
 10
111.3763593463
 20
83.6836577078
 30
0.0
 11
111.7488443711
 21
83.4836580475
 31
0.0
  0
LINE
  5
E2
330
1F
100
AcDbEntity
  8
0
  6
Continuous
 62
     7
370
    25
100
AcDbLine
 10
111.3763593463
 20
83.6836577078
 30
0.0
 11
111.3763593463
 21
96.7836578061
 31
0.0
  0
LINE
  5
E3
330
1F
100
AcDbEntity
  8
0
  6
Continuous
 62
     7
370
    25
100
AcDbLine
 10
111.7488443711
 20
96.983659329
 30
0.0
 11
111.3763593463
 21
96.7836578061
 31
0.0
  0
LINE
  5
E4
330
1F
100
AcDbEntity
  8
0
  6
Continuous
 62
     7
370
    25
100
AcDbLine
 10
110.8728139521
 20
83.4836580475
 30
0.0
 11
111.3763593463
 21
83.6836577078
 31
0.0
  0
LINE
  5
E5
330
1F
100
AcDbEntity
  8
0
  6
Continuous
 62
     7
370
    25
100
AcDbLine
 10
111.3763593463
 20
96.7836578061
 30
0.0
 11
110.8728139521
 21
96.983659329
 31
0.0
  0
LINE
  5
E6
330
1F
100
AcDbEntity
  8
0
  6
Continuous
 62
     7
370
    25
100
AcDbLine
 10
111.7488443711
 20
83.4836580475
 30
0.0
 11
110.8728139521
 21
83.4836580475
 31
0.0
  0
LINE
  5
E7
330
1F
100
AcDbEntity
  8
0
  6
Continuous
 62
     7
370
    25
100
AcDbLine
 10
110.8728139521
 20
96.983659329
 30
0.0
 11
111.7488443711
 21
96.983659329
 31
0.0
  0
LINE
  5
E8
330
1F
100
AcDbEntity
  8
0
  6
Continuous
 62
     7
370
    25
100
AcDbLine
 10
112.2558361245
 20
83.6836577078
 30
0.0
 11
112.2558361245
 21
96.7836578061
 31
0.0
  0
LINE
  5
E9
330
1F
100
AcDbEntity
  8
0
  6
Continuous
 62
     7
370
    25
100
AcDbLine
 10
111.7488443711
 20
83.4836580475
 30
0.0
 11
112.2558361245
 21
83.6836577078
 31
0.0
  0
LINE
  5
EA
330
1F
100
AcDbEntity
  8
0
  6
Continuous
 62
     7
370
    25
100
AcDbLine
 10
112.2558361245
 20
96.7836578061
 30
0.0
 11
111.7488443711
 21
96.983659329
 31
0.0
  0
LINE
  5
EB
330
1F
100
AcDbEntity
  8
0
  6
Continuous
 62
     7
370
    25
100
AcDbLine
 10
112.2558361245
 20
83.6836577078
 30
0.0
 11
112.5903227226
 21
83.4836580475
 31
0.0
  0
LINE
  5
EC
330
1F
100
AcDbEntity
  8
0
  6
Continuous
 62
     7
370
    25
100
AcDbLine
 10
112.5903227226
 20
83.4836580475
 30
0.0
 11
111.7488443711
 21
83.4836580475
 31
0.0
  0
LINE
  5
ED
330
1F
100
AcDbEntity
  8
0
  6
Continuous
 62
     7
370
    25
100
AcDbLine
 10
112.5903227226
 20
96.983659329
 30
0.0
 11
112.2558361245
 21
96.7836578061
 31
0.0
  0
LINE
  5
EE
330
1F
100
AcDbEntity
  8
0
  6
Continuous
 62
     7
370
    25
100
AcDbLine
 10
111.7488443711
 20
96.983659329
 30
0.0
 11
112.5903227226
 21
96.983659329
 31
0.0
  0
LINE
  5
EF
330
1F
100
AcDbEntity
  8
0
  6
Continuous
 62
     7
370
    25
100
AcDbLine
 10
104.9345766519
 20
83.6836577078
 30
0.0
 11
105.4415684053
 21
83.4836580475
 31
0.0
  0
LINE
  5
F0
330
1F
100
AcDbEntity
  8
0
  6
Continuous
 62
     7
370
    25
100
AcDbLine
 10
104.9345766519
 20
83.6836577078
 30
0.0
 11
104.9345766519
 21
96.7836578061
 31
0.0
  0
LINE
  5
F1
330
1F
100
AcDbEntity
  8
0
  6
Continuous
 62
     7
370
    25
100
AcDbLine
 10
105.4415684053
 20
96.983659329
 30
0.0
 11
104.9345766519
 21
96.7836578061
 31
0.0
  0
LINE
  5
F2
330
1F
100
AcDbEntity
  8
0
  6
Continuous
 62
     7
370
    25
100
AcDbLine
 10
104.6000900538
 20
83.4836580475
 30
0.0
 11
104.9345766519
 21
83.6836577078
 31
0.0
  0
LINE
  5
F3
330
1F
100
AcDbEntity
  8
0
  6
Continuous
 62
     7
370
    25
100
AcDbLine
 10
105.4415684053
 20
83.4836580475
 30
0.0
 11
104.6000900538
 21
83.4836580475
 31
0.0
  0
LINE
  5
F4
330
1F
100
AcDbEntity
  8
0
  6
Continuous
 62
     7
370
    25
100
AcDbLine
 10
104.9345766519
 20
96.7836578061
 30
0.0
 11
104.6000900538
 21
96.983659329
 31
0.0
  0
LINE
  5
F5
330
1F
100
AcDbEntity
  8
0
  6
Continuous
 62
     7
370
    25
100
AcDbLine
 10
104.6000900538
 20
96.983659329
 30
0.0
 11
105.4415684053
 21
96.983659329
 31
0.0
  0
LINE
  5
F6
330
1F
100
AcDbEntity
  8
0
  6
Continuous
 62
     7
370
    25
100
AcDbLine
 10
104.6000900538
 20
83.4836580475
 30
0.0
 11
104.6000900538
 21
96.983659329
 31
0.0
  0
LINE
  5
F7
330
1F
100
AcDbEntity
  8
0
  6
Continuous
 62
     7
370
    25
100
AcDbLine
 10
112.5903227226
 20
83.4836580475
 30
0.0
 11
112.5903227226
 21
96.983659329
 31
0.0
  0
LINE
  5
F8
330
1F
100
AcDbEntity
  8
0
  6
Continuous
 62
     7
370
    25
100
AcDbLine
 10
104.0952065819
 20
83.6836577078
 30
0.0
 11
104.6000900538
 21
83.4836580475
 31
0.0
  0
LINE
  5
F9
330
1F
100
AcDbEntity
  8
0
  6
Continuous
 62
     7
370
    25
100
AcDbLine
 10
104.0952065819
 20
83.6836577078
 30
0.0
 11
104.0952065819
 21
96.7836578061
 31
0.0
  0
LINE
  5
FA
330
1F
100
AcDbEntity
  8
0
  6
Continuous
 62
     7
370
    25
100
AcDbLine
 10
104.6000900538
 20
96.983659329
 30
0.0
 11
104.0952065819
 21
96.7836578061
 31
0.0
  0
LINE
  5
FB
330
1F
100
AcDbEntity
  8
0
  6
Continuous
 62
     7
370
    25
100
AcDbLine
 10
103.802382932
 20
83.4836580475
 30
0.0
 11
104.0952065819
 21
83.6836577078
 31
0.0
  0
LINE
  5
FC
330
1F
100
AcDbEntity
  8
0
  6
Continuous
 62
     7
370
    25
100
AcDbLine
 10
104.6000900538
 20
83.4836580475
 30
0.0
 11
103.802382932
 21
83.4836580475
 31
0.0
  0
LINE
  5
FD
330
1F
100
AcDbEntity
  8
0
  6
Continuous
 62
     7
370
    25
100
AcDbLine
 10
104.0952065819
 20
96.7836578061
 30
0.0
 11
103.802382932
 21
96.983659329
 31
0.0
  0
LINE
  5
FE
330
1F
100
AcDbEntity
  8
0
  6
Continuous
 62
     7
370
    25
100
AcDbLine
 10
103.802382932
 20
96.983659329
 30
0.0
 11
104.6000900538
 21
96.983659329
 31
0.0
  0
LINE
  5
FF
330
1F
100
AcDbEntity
  8
0
  6
Continuous
 62
     7
370
    25
100
AcDbLine
 10
113.0952061945
 20
83.6836577078
 30
0.0
 11
113.0952061945
 21
96.7836578061
 31
0.0
  0
LINE
  5
100
330
1F
100
AcDbEntity
  8
0
  6
Continuous
 62
     7
370
    25
100
AcDbLine
 10
112.5903227226
 20
83.4836580475
 30
0.0
 11
113.0952061945
 21
83.6836577078
 31
0.0
  0
LINE
  5
101
330
1F
100
AcDbEntity
  8
0
  6
Continuous
 62
     7
370
    25
100
AcDbLine
 10
113.0952061945
 20
96.7836578061
 30
0.0
 11
112.5903227226
 21
96.983659329
 31
0.0
  0
LINE
  5
102
330
1F
100
AcDbEntity
  8
0
  6
Continuous
 62
     7
370
    25
100
AcDbLine
 10
113.0952061945
 20
83.6836577078
 30
0.0
 11
113.3880298444
 21
83.4836580475
 31
0.0
  0
LINE
  5
103
330
1F
100
AcDbEntity
  8
0
  6
Continuous
 62
     7
370
    25
100
AcDbLine
 10
113.3880298444
 20
83.4836580475
 30
0.0
 11
112.5903227226
 21
83.4836580475
 31
0.0
  0
LINE
  5
104
330
1F
100
AcDbEntity
  8
0
  6
Continuous
 62
     7
370
    25
100
AcDbLine
 10
113.3880298444
 20
96.983659329
 30
0.0
 11
113.0952061945
 21
96.7836578061
 31
0.0
  0
LINE
  5
105
330
1F
100
AcDbEntity
  8
0
  6
Continuous
 62
     7
370
    25
100
AcDbLine
 10
112.5903227226
 20
96.983659329
 30
0.0
 11
113.3880298444
 21
96.983659329
 31
0.0
  0
LINE
  5
106
330
1F
100
AcDbEntity
  8
0
  6
Continuous
 62
     7
370
    25
100
AcDbLine
 10
103.802382932
 20
83.4836580475
 30
0.0
 11
103.802382932
 21
96.983659329
 31
0.0
  0
LINE
  5
107
330
1F
100
AcDbEntity
  8
0
  6
Continuous
 62
     7
370
    25
100
AcDbLine
 10
113.3880298444
 20
83.4836580475
 30
0.0
 11
113.3880298444
 21
96.983659329
 31
0.0
  0
LINE
  5
108
330
1F
100
AcDbEntity
  8
0
  6
Continuous
 62
     7
370
    25
100
AcDbLine
 10
108.5952063882
 20
78.4836581593
 30
0.0
 11
101.2952062161
 21
78.4836581593
 31
0.0
  0
LINE
  5
109
330
1F
100
AcDbEntity
  8
0
  6
Continuous
 62
     7
370
    25
100
AcDbLine
 10
115.8952065603
 20
78.4836581593
 30
0.0
 11
108.5952063882
 21
78.4836581593
 31
0.0
  0
LINE
  5
10A
330
1F
100
AcDbEntity
  8
0
  6
Continuous
 62
     7
370
    25
100
AcDbLine
 10
108.5952063882
 20
78.6836587508
 30
0.0
 11
116.0952062206
 21
78.6836587508
 31
0.0
  0
LINE
  5
10B
330
1F
100
AcDbEntity
  8
0
  6
Continuous
 62
     7
370
    25
100
AcDbLine
 10
101.0952065558
 20
78.6836587508
 30
0.0
 11
108.5952063882
 21
78.6836587508
 31
0.0
  0
LINE
  5
10C
330
1F
100
AcDbEntity
  8
0
  6
Continuous
 62
     7
370
    25
100
AcDbLine
 10
103.3051390992
 20
83.6836577078
 30
0.0
 11
103.802382932
 21
83.4836580475
 31
0.0
  0
LINE
  5
10D
330
1F
100
AcDbEntity
  8
0
  6
Continuous
 62
     7
370
    25
100
AcDbLine
 10
103.3051390992
 20
83.6836577078
 30
0.0
 11
103.3051390992
 21
96.7836578061
 31
0.0
  0
LINE
  5
10E
330
1F
100
AcDbEntity
  8
0
  6
Continuous
 62
     7
370
    25
100
AcDbLine
 10
103.802382932
 20
96.983659329
 30
0.0
 11
103.3051390992
 21
96.7836578061
 31
0.0
  0
LINE
  5
10F
330
1F
100
AcDbEntity
  8
0
  6
Continuous
 62
     7
370
    25
100
AcDbLine
 10
103.0571870365
 20
83.4836580475
 30
0.0
 11
103.3051390992
 21
83.6836577078
 31
0.0
  0
LINE
  5
110
330
1F
100
AcDbEntity
  8
0
  6
Continuous
 62
     7
370
    25
100
AcDbLine
 10
103.802382932
 20
83.4836580475
 30
0.0
 11
103.0571870365
 21
83.4836580475
 31
0.0
  0
LINE
  5
111
330
1F
100
AcDbEntity
  8
0
  6
Continuous
 62
     7
370
    25
100
AcDbLine
 10
103.3051390992
 20
96.7836578061
 30
0.0
 11
103.0571870365
 21
96.983659329
 31
0.0
  0
LINE
  5
112
330
1F
100
AcDbEntity
  8
0
  6
Continuous
 62
     7
370
    25
100
AcDbLine
 10
103.0571870365
 20
96.983659329
 30
0.0
 11
103.802382932
 21
96.983659329
 31
0.0
  0
LINE
  5
113
330
1F
100
AcDbEntity
  8
0
  6
Continuous
 62
     7
370
    25
100
AcDbLine
 10
113.8852736772
 20
83.6836577078
 30
0.0
 11
114.1332257399
 21
83.4836580475
 31
0.0
  0
LINE
  5
114
330
1F
100
AcDbEntity
  8
0
  6
Continuous
 62
     7
370
    25
100
AcDbLine
 10
113.3880298444
 20
83.4836580475
 30
0.0
 11
113.8852736772
 21
83.6836577078
 31
0.0
  0
LINE
  5
115
330
1F
100
AcDbEntity
  8
0
  6
Continuous
 62
     7
370
    25
100
AcDbLine
 10
114.1332257399
 20
83.4836580475
 30
0.0
 11
113.3880298444
 21
83.4836580475
 31
0.0
  0
LINE
  5
116
330
1F
100
AcDbEntity
  8
0
  6
Continuous
 62
     7
370
    25
100
AcDbLine
 10
113.8852736772
 20
83.6836577078
 30
0.0
 11
113.8852736772
 21
96.7836578061
 31
0.0
  0
LINE
  5
117
330
1F
100
AcDbEntity
  8
0
  6
Continuous
 62
     7
370
    25
100
AcDbLine
 10
113.8852736772
 20
96.7836578061
 30
0.0
 11
113.3880298444
 21
96.983659329
 31
0.0
  0
LINE
  5
118
330
1F
100
AcDbEntity
  8
0
  6
Continuous
 62
     7
370
    25
100
AcDbLine
 10
114.1332257399
 20
96.983659329
 30
0.0
 11
113.8852736772
 21
96.7836578061
 31
0.0
  0
LINE
  5
119
330
1F
100
AcDbEntity
  8
0
  6
Continuous
 62
     7
370
    25
100
AcDbLine
 10
113.3880298444
 20
96.983659329
 30
0.0
 11
114.1332257399
 21
96.983659329
 31
0.0
  0
LINE
  5
11A
330
1F
100
AcDbEntity
  8
0
  6
Continuous
 62
     7
370
    25
100
AcDbLine
 10
103.0571870365
 20
83.4836580475
 30
0.0
 11
103.0571870365
 21
96.983659329
 31
0.0
  0
LINE
  5
11B
330
1F
100
AcDbEntity
  8
0
  6
Continuous
 62
     7
370
    25
100
AcDbLine
 10
114.1332257399
 20
83.4836580475
 30
0.0
 11
114.1332257399
 21
96.983659329
 31
0.0
  0
LINE
  5
11C
330
1F
100
AcDbEntity
  8
0
  6
Continuous
 62
     7
370
    25
100
AcDbLine
 10
102.5730310799
 20
83.6836577078
 30
0.0
 11
103.0571870365
 21
83.4836580475
 31
0.0
  0
LINE
  5
11D
330
1F
100
AcDbEntity
  8
0
  6
Continuous
 62
     7
370
    25
100
AcDbLine
 10
102.3726668068
 20
83.4836580475
 30
0.0
 11
102.5730310799
 21
83.6836577078
 31
0.0
  0
LINE
  5
11E
330
1F
100
AcDbEntity
  8
0
  6
Continuous
 62
     7
370
    25
100
AcDbLine
 10
103.0571870365
 20
83.4836580475
 30
0.0
 11
102.3726668068
 21
83.4836580475
 31
0.0
  0
LINE
  5
11F
330
1F
100
AcDbEntity
  8
0
  6
Continuous
 62
     7
370
    25
100
AcDbLine
 10
102.5730310799
 20
83.6836577078
 30
0.0
 11
102.5730310799
 21
96.7836578061
 31
0.0
  0
LINE
  5
120
330
1F
100
AcDbEntity
  8
0
  6
Continuous
 62
     7
370
    25
100
AcDbLine
 10
103.0571870365
 20
96.983659329
 30
0.0
 11
102.5730310799
 21
96.7836578061
 31
0.0
  0
LINE
  5
121
330
1F
100
AcDbEntity
  8
0
  6
Continuous
 62
     7
370
    25
100
AcDbLine
 10
102.5730310799
 20
96.7836578061
 30
0.0
 11
102.3726668068
 21
96.983659329
 31
0.0
  0
LINE
  5
122
330
1F
100
AcDbEntity
  8
0
  6
Continuous
 62
     7
370
    25
100
AcDbLine
 10
102.3726668068
 20
96.983659329
 30
0.0
 11
103.0571870365
 21
96.983659329
 31
0.0
  0
LINE
  5
123
330
1F
100
AcDbEntity
  8
0
  6
Continuous
 62
     7
370
    25
100
AcDbLine
 10
114.6173816965
 20
83.6836577078
 30
0.0
 11
114.6173816965
 21
96.7836578061
 31
0.0
  0
LINE
  5
124
330
1F
100
AcDbEntity
  8
0
  6
Continuous
 62
     7
370
    25
100
AcDbLine
 10
114.1332257399
 20
83.4836580475
 30
0.0
 11
114.6173816965
 21
83.6836577078
 31
0.0
  0
LINE
  5
125
330
1F
100
AcDbEntity
  8
0
  6
Continuous
 62
     7
370
    25
100
AcDbLine
 10
114.6173816965
 20
96.7836578061
 30
0.0
 11
114.1332257399
 21
96.983659329
 31
0.0
  0
LINE
  5
126
330
1F
100
AcDbEntity
  8
0
  6
Continuous
 62
     7
370
    25
100
AcDbLine
 10
114.6173816965
 20
83.6836577078
 30
0.0
 11
114.8177459696
 21
83.4836580475
 31
0.0
  0
LINE
  5
127
330
1F
100
AcDbEntity
  8
0
  6
Continuous
 62
     7
370
    25
100
AcDbLine
 10
114.8177459696
 20
83.4836580475
 30
0.0
 11
114.1332257399
 21
83.4836580475
 31
0.0
  0
LINE
  5
128
330
1F
100
AcDbEntity
  8
0
  6
Continuous
 62
     7
370
    25
100
AcDbLine
 10
114.8177459696
 20
96.983659329
 30
0.0
 11
114.6173816965
 21
96.7836578061
 31
0.0
  0
LINE
  5
129
330
1F
100
AcDbEntity
  8
0
  6
Continuous
 62
     7
370
    25
100
AcDbLine
 10
114.1332257399
 20
96.983659329
 30
0.0
 11
114.8177459696
 21
96.983659329
 31
0.0
  0
LINE
  5
12A
330
1F
100
AcDbEntity
  8
0
  6
Continuous
 62
     7
370
    25
100
AcDbLine
 10
102.3726668068
 20
83.4836580475
 30
0.0
 11
102.3726668068
 21
96.983659329
 31
0.0
  0
LINE
  5
12B
330
1F
100
AcDbEntity
  8
0
  6
Continuous
 62
     7
370
    25
100
AcDbLine
 10
114.8177459696
 20
83.4836580475
 30
0.0
 11
114.8177459696
 21
96.983659329
 31
0.0
  0
LINE
  5
12C
330
1F
100
AcDbEntity
  8
0
  6
Continuous
 62
     7
370
    25
100
AcDbLine
 10
101.9069030741
 20
83.6836577078
 30
0.0
 11
102.3726668068
 21
83.4836580475
 31
0.0
  0
LINE
  5
12D
330
1F
100
AcDbEntity
  8
0
  6
Continuous
 62
     7
370
    25
100
AcDbLine
 10
101.7563217179
 20
83.4836580475
 30
0.0
 11
101.9069030741
 21
83.6836577078
 31
0.0
  0
LINE
  5
12E
330
1F
100
AcDbEntity
  8
0
  6
Continuous
 62
     7
370
    25
100
AcDbLine
 10
102.3726668068
 20
83.4836580475
 30
0.0
 11
101.7563217179
 21
83.4836580475
 31
0.0
  0
LINE
  5
12F
330
1F
100
AcDbEntity
  8
0
  6
Continuous
 62
     7
370
    25
100
AcDbLine
 10
101.9069030741
 20
83.6836577078
 30
0.0
 11
101.9069030741
 21
96.7836578061
 31
0.0
  0
LINE
  5
130
330
1F
100
AcDbEntity
  8
0
  6
Continuous
 62
     7
370
    25
100
AcDbLine
 10
102.3726668068
 20
96.983659329
 30
0.0
 11
101.9069030741
 21
96.7836578061
 31
0.0
  0
LINE
  5
131
330
1F
100
AcDbEntity
  8
0
  6
Continuous
 62
     7
370
    25
100
AcDbLine
 10
101.9069030741
 20
96.7836578061
 30
0.0
 11
101.7563217179
 21
96.983659329
 31
0.0
  0
LINE
  5
132
330
1F
100
AcDbEntity
  8
0
  6
Continuous
 62
     7
370
    25
100
AcDbLine
 10
101.7563217179
 20
96.983659329
 30
0.0
 11
102.3726668068
 21
96.983659329
 31
0.0
  0
LINE
  5
133
330
1F
100
AcDbEntity
  8
0
  6
Continuous
 62
     7
370
    25
100
AcDbLine
 10
115.2835097024
 20
83.6836577078
 30
0.0
 11
115.4340910585
 21
83.4836580475
 31
0.0
  0
LINE
  5
134
330
1F
100
AcDbEntity
  8
0
  6
Continuous
 62
     7
370
    25
100
AcDbLine
 10
114.8177459696
 20
83.4836580475
 30
0.0
 11
115.2835097024
 21
83.6836577078
 31
0.0
  0
LINE
  5
135
330
1F
100
AcDbEntity
  8
0
  6
Continuous
 62
     7
370
    25
100
AcDbLine
 10
115.4340910585
 20
83.4836580475
 30
0.0
 11
114.8177459696
 21
83.4836580475
 31
0.0
  0
LINE
  5
136
330
1F
100
AcDbEntity
  8
0
  6
Continuous
 62
     7
370
    25
100
AcDbLine
 10
115.2835097024
 20
83.6836577078
 30
0.0
 11
115.2835097024
 21
96.7836578061
 31
0.0
  0
LINE
  5
137
330
1F
100
AcDbEntity
  8
0
  6
Continuous
 62
     7
370
    25
100
AcDbLine
 10
115.2835097024
 20
96.7836578061
 30
0.0
 11
114.8177459696
 21
96.983659329
 31
0.0
  0
LINE
  5
138
330
1F
100
AcDbEntity
  8
0
  6
Continuous
 62
     7
370
    25
100
AcDbLine
 10
115.4340910585
 20
96.983659329
 30
0.0
 11
115.2835097024
 21
96.7836578061
 31
0.0
  0
LINE
  5
139
330
1F
100
AcDbEntity
  8
0
  6
Continuous
 62
     7
370
    25
100
AcDbLine
 10
114.8177459696
 20
96.983659329
 30
0.0
 11
115.4340910585
 21
96.983659329
 31
0.0
  0
LINE
  5
13A
330
1F
100
AcDbEntity
  8
0
  6
Continuous
 62
     7
370
    25
100
AcDbLine
 10
101.7563217179
 20
83.4836580475
 30
0.0
 11
101.7563217179
 21
96.983659329
 31
0.0
  0
LINE
  5
13B
330
1F
100
AcDbEntity
  8
0
  6
Continuous
 62
     7
370
    25
100
AcDbLine
 10
115.4340910585
 20
83.4836580475
 30
0.0
 11
115.4340910585
 21
96.983659329
 31
0.0
  0
LINE
  5
13C
330
1F
100
AcDbEntity
  8
0
  6
Continuous
 62
     7
370
    25
100
AcDbLine
 10
101.314053391
 20
83.6836577078
 30
0.0
 11
101.7563217179
 21
83.4836580475
 31
0.0
  0
LINE
  5
13D
330
1F
100
AcDbEntity
  8
0
  6
Continuous
 62
     7
370
    25
100
AcDbLine
 10
101.2149052554
 20
83.4836580475
 30
0.0
 11
101.314053391
 21
83.6836577078
 31
0.0
  0
LINE
  5
13E
330
1F
100
AcDbEntity
  8
0
  6
Continuous
 62
     7
370
    25
100
AcDbLine
 10
101.7563217179
 20
83.4836580475
 30
0.0
 11
101.2149052554
 21
83.4836580475
 31
0.0
  0
LINE
  5
13F
330
1F
100
AcDbEntity
  8
0
  6
Continuous
 62
     7
370
    25
100
AcDbLine
 10
101.314053391
 20
83.6836577078
 30
0.0
 11
101.314053391
 21
96.7836578061
 31
0.0
  0
LINE
  5
140
330
1F
100
AcDbEntity
  8
0
  6
Continuous
 62
     7
370
    25
100
AcDbLine
 10
101.7563217179
 20
96.983659329
 30
0.0
 11
101.314053391
 21
96.7836578061
 31
0.0
  0
LINE
  5
141
330
1F
100
AcDbEntity
  8
0
  6
Continuous
 62
     7
370
    25
100
AcDbLine
 10
101.314053391
 20
96.7836578061
 30
0.0
 11
101.2149052554
 21
96.983659329
 31
0.0
  0
LINE
  5
142
330
1F
100
AcDbEntity
  8
0
  6
Continuous
 62
     7
370
    25
100
AcDbLine
 10
101.2149052554
 20
96.983659329
 30
0.0
 11
101.7563217179
 21
96.983659329
 31
0.0
  0
LINE
  5
143
330
1F
100
AcDbEntity
  8
0
  6
Continuous
 62
     7
370
    25
100
AcDbLine
 10
115.8763593854
 20
83.6836577078
 30
0.0
 11
115.975507521
 21
83.4836580475
 31
0.0
  0
LINE
  5
144
330
1F
100
AcDbEntity
  8
0
  6
Continuous
 62
     7
370
    25
100
AcDbLine
 10
115.4340910585
 20
83.4836580475
 30
0.0
 11
115.8763593854
 21
83.6836577078
 31
0.0
  0
LINE
  5
145
330
1F
100
AcDbEntity
  8
0
  6
Continuous
 62
     7
370
    25
100
AcDbLine
 10
115.975507521
 20
83.4836580475
 30
0.0
 11
115.4340910585
 21
83.4836580475
 31
0.0
  0
LINE
  5
146
330
1F
100
AcDbEntity
  8
0
  6
Continuous
 62
     7
370
    25
100
AcDbLine
 10
115.8763593854
 20
83.6836577078
 30
0.0
 11
115.8763593854
 21
96.7836578061
 31
0.0
  0
LINE
  5
147
330
1F
100
AcDbEntity
  8
0
  6
Continuous
 62
     7
370
    25
100
AcDbLine
 10
115.8763593854
 20
96.7836578061
 30
0.0
 11
115.4340910585
 21
96.983659329
 31
0.0
  0
LINE
  5
148
330
1F
100
AcDbEntity
  8
0
  6
Continuous
 62
     7
370
    25
100
AcDbLine
 10
115.975507521
 20
96.983659329
 30
0.0
 11
115.8763593854
 21
96.7836578061
 31
0.0
  0
LINE
  5
149
330
1F
100
AcDbEntity
  8
0
  6
Continuous
 62
     7
370
    25
100
AcDbLine
 10
115.4340910585
 20
96.983659329
 30
0.0
 11
115.975507521
 21
96.983659329
 31
0.0
  0
LINE
  5
14A
330
1F
100
AcDbEntity
  8
0
  6
Continuous
 62
     7
370
    25
100
AcDbLine
 10
101.2149052554
 20
83.4836580475
 30
0.0
 11
101.2149052554
 21
96.983659329
 31
0.0
  0
LINE
  5
14B
330
1F
100
AcDbEntity
  8
0
  6
Continuous
 62
     7
370
    25
100
AcDbLine
 10
115.975507521
 20
83.4836580475
 30
0.0
 11
115.975507521
 21
96.983659329
 31
0.0
  0
LINE
  5
14C
330
1F
100
AcDbEntity
  8
0
  6
Continuous
 62
     7
370
    25
100
AcDbLine
 10
100.8009775401
 20
83.6836577078
 30
0.0
 11
101.2149052554
 21
83.4836580475
 31
0.0
  0
LINE
  5
14D
330
1F
100
AcDbEntity
  8
0
  6
Continuous
 62
     7
370
    25
100
AcDbLine
 10
100.7543485471
 20
83.4836580475
 30
0.0
 11
100.8009775401
 21
83.6836577078
 31
0.0
  0
LINE
  5
14E
330
1F
100
AcDbEntity
  8
0
  6
Continuous
 62
     7
370
    25
100
AcDbLine
 10
101.2149052554
 20
83.4836580475
 30
0.0
 11
100.7543485471
 21
83.4836580475
 31
0.0
  0
LINE
  5
14F
330
1F
100
AcDbEntity
  8
0
  6
Continuous
 62
     7
370
    25
100
AcDbLine
 10
100.8009775401
 20
83.6836577078
 30
0.0
 11
100.8009775401
 21
96.7836578061
 31
0.0
  0
LINE
  5
150
330
1F
100
AcDbEntity
  8
0
  6
Continuous
 62
     7
370
    25
100
AcDbLine
 10
101.2149052554
 20
96.983659329
 30
0.0
 11
100.8009775401
 21
96.7836578061
 31
0.0
  0
LINE
  5
151
330
1F
100
AcDbEntity
  8
0
  6
Continuous
 62
     7
370
    25
100
AcDbLine
 10
100.8009775401
 20
96.7836578061
 30
0.0
 11
100.7543485471
 21
96.983659329
 31
0.0
  0
LINE
  5
152
330
1F
100
AcDbEntity
  8
0
  6
Continuous
 62
     7
370
    25
100
AcDbLine
 10
100.7543485471
 20
96.983659329
 30
0.0
 11
101.2149052554
 21
96.983659329
 31
0.0
  0
LINE
  5
153
330
1F
100
AcDbEntity
  8
0
  6
Continuous
 62
     7
370
    25
100
AcDbLine
 10
116.3894352363
 20
83.6836577078
 30
0.0
 11
116.3894352363
 21
96.7836578061
 31
0.0
  0
LINE
  5
154
330
1F
100
AcDbEntity
  8
0
  6
Continuous
 62
     7
370
    25
100
AcDbLine
 10
115.975507521
 20
83.4836580475
 30
0.0
 11
116.3894352363
 21
83.6836577078
 31
0.0
  0
LINE
  5
155
330
1F
100
AcDbEntity
  8
0
  6
Continuous
 62
     7
370
    25
100
AcDbLine
 10
116.3894352363
 20
96.7836578061
 30
0.0
 11
115.975507521
 21
96.983659329
 31
0.0
  0
LINE
  5
156
330
1F
100
AcDbEntity
  8
0
  6
Continuous
 62
     7
370
    25
100
AcDbLine
 10
116.3894352363
 20
83.6836577078
 30
0.0
 11
116.4360642293
 21
83.4836580475
 31
0.0
  0
LINE
  5
157
330
1F
100
AcDbEntity
  8
0
  6
Continuous
 62
     7
370
    25
100
AcDbLine
 10
116.4360642293
 20
83.4836580475
 30
0.0
 11
115.975507521
 21
83.4836580475
 31
0.0
  0
LINE
  5
158
330
1F
100
AcDbEntity
  8
0
  6
Continuous
 62
     7
370
    25
100
AcDbLine
 10
116.4360642293
 20
96.983659329
 30
0.0
 11
116.3894352363
 21
96.7836578061
 31
0.0
  0
LINE
  5
159
330
1F
100
AcDbEntity
  8
0
  6
Continuous
 62
     7
370
    25
100
AcDbLine
 10
115.975507521
 20
96.983659329
 30
0.0
 11
116.4360642293
 21
96.983659329
 31
0.0
  0
LINE
  5
15A
330
1F
100
AcDbEntity
  8
0
  6
Continuous
 62
     7
370
    25
100
AcDbLine
 10
100.7543485471
 20
83.4836580475
 30
0.0
 11
100.7543485471
 21
96.983659329
 31
0.0
  0
LINE
  5
15B
330
1F
100
AcDbEntity
  8
0
  6
Continuous
 62
     7
370
    25
100
AcDbLine
 10
116.4360642293
 20
83.4836580475
 30
0.0
 11
116.4360642293
 21
96.983659329
 31
0.0
  0
LINE
  5
15C
330
1F
100
AcDbEntity
  8
0
  6
Continuous
 62
     7
370
    25
100
AcDbLine
 10
100.3732969844
 20
83.6836577078
 30
0.0
 11
100.7543485471
 21
83.4836580475
 31
0.0
  0
LINE
  5
15D
330
1F
100
AcDbEntity
  8
0
  6
Continuous
 62
     7
370
    25
100
AcDbLine
 10
100.3732969844
 20
83.6836577078
 30
0.0
 11
100.3732969844
 21
96.7836578061
 31
0.0
  0
LINE
  5
15E
330
1F
100
AcDbEntity
  8
0
  6
Continuous
 62
     7
370
    25
100
AcDbLine
 10
100.7543485471
 20
96.983659329
 30
0.0
 11
100.3732969844
 21
96.7836578061
 31
0.0
  0
LINE
  5
15F
330
1F
100
AcDbEntity
  8
0
  6
Continuous
 62
     7
370
    25
100
AcDbLine
 10
100.3796988958
 20
83.4836580475
 30
0.0
 11
100.3732969844
 21
83.6836577078
 31
0.0
  0
LINE
  5
160
330
1F
100
AcDbEntity
  8
0
  6
Continuous
 62
     7
370
    25
100
AcDbLine
 10
100.7543485471
 20
83.4836580475
 30
0.0
 11
100.3796988958
 21
83.4836580475
 31
0.0
  0
LINE
  5
161
330
1F
100
AcDbEntity
  8
0
  6
Continuous
 62
     7
370
    25
100
AcDbLine
 10
100.3732969844
 20
96.7836578061
 30
0.0
 11
100.3796988958
 21
96.983659329
 31
0.0
  0
LINE
  5
162
330
1F
100
AcDbEntity
  8
0
  6
Continuous
 62
     7
370
    25
100
AcDbLine
 10
100.3796988958
 20
96.983659329
 30
0.0
 11
100.7543485471
 21
96.983659329
 31
0.0
  0
LINE
  5
163
330
1F
100
AcDbEntity
  8
0
  6
Continuous
 62
     7
370
    25
100
AcDbLine
 10
116.817115792
 20
83.6836577078
 30
0.0
 11
116.8107138806
 21
83.4836580475
 31
0.0
  0
LINE
  5
164
330
1F
100
AcDbEntity
  8
0
  6
Continuous
 62
     7
370
    25
100
AcDbLine
 10
116.4360642293
 20
83.4836580475
 30
0.0
 11
116.817115792
 21
83.6836577078
 31
0.0
  0
LINE
  5
165
330
1F
100
AcDbEntity
  8
0
  6
Continuous
 62
     7
370
    25
100
AcDbLine
 10
116.8107138806
 20
83.4836580475
 30
0.0
 11
116.4360642293
 21
83.4836580475
 31
0.0
  0
LINE
  5
166
330
1F
100
AcDbEntity
  8
0
  6
Continuous
 62
     7
370
    25
100
AcDbLine
 10
116.817115792
 20
83.6836577078
 30
0.0
 11
116.817115792
 21
96.7836578061
 31
0.0
  0
LINE
  5
167
330
1F
100
AcDbEntity
  8
0
  6
Continuous
 62
     7
370
    25
100
AcDbLine
 10
116.817115792
 20
96.7836578061
 30
0.0
 11
116.4360642293
 21
96.983659329
 31
0.0
  0
LINE
  5
168
330
1F
100
AcDbEntity
  8
0
  6
Continuous
 62
     7
370
    25
100
AcDbLine
 10
116.8107138806
 20
96.983659329
 30
0.0
 11
116.817115792
 21
96.7836578061
 31
0.0
  0
LINE
  5
169
330
1F
100
AcDbEntity
  8
0
  6
Continuous
 62
     7
370
    25
100
AcDbLine
 10
116.4360642293
 20
96.983659329
 30
0.0
 11
116.8107138806
 21
96.983659329
 31
0.0
  0
LINE
  5
16A
330
1F
100
AcDbEntity
  8
0
  6
Continuous
 62
     7
370
    25
100
AcDbLine
 10
100.035698139
 20
83.6836577078
 30
0.0
 11
100.3796988958
 21
83.4836580475
 31
0.0
  0
LINE
  5
16B
330
1F
100
AcDbEntity
  8
0
  6
Continuous
 62
     7
370
    25
100
AcDbLine
 10
100.035698139
 20
83.6836577078
 30
0.0
 11
100.035698139
 21
96.7836578061
 31
0.0
  0
LINE
  5
16C
330
1F
100
AcDbEntity
  8
0
  6
Continuous
 62
     7
370
    25
100
AcDbLine
 10
100.3796988958
 20
96.983659329
 30
0.0
 11
100.035698139
 21
96.7836578061
 31
0.0
  0
LINE
  5
16D
330
1F
100
AcDbEntity
  8
0
  6
Continuous
 62
     7
370
    25
100
AcDbLine
 10
100.0950587773
 20
83.4836580475
 30
0.0
 11
100.035698139
 21
83.6836577078
 31
0.0
  0
LINE
  5
16E
330
1F
100
AcDbEntity
  8
0
  6
Continuous
 62
     7
370
    25
100
AcDbLine
 10
100.3796988958
 20
83.4836580475
 30
0.0
 11
100.0950587773
 21
83.4836580475
 31
0.0
  0
LINE
  5
16F
330
1F
100
AcDbEntity
  8
0
  6
Continuous
 62
     7
370
    25
100
AcDbLine
 10
100.035698139
 20
96.7836578061
 30
0.0
 11
100.0950587773
 21
96.983659329
 31
0.0
  0
LINE
  5
170
330
1F
100
AcDbEntity
  8
0
  6
Continuous
 62
     7
370
    25
100
AcDbLine
 10
100.0950587773
 20
96.983659329
 30
0.0
 11
100.3796988958
 21
96.983659329
 31
0.0
  0
LINE
  5
171
330
1F
100
AcDbEntity
  8
0
  6
Continuous
 62
     7
370
    25
100
AcDbLine
 10
117.1547146374
 20
83.6836577078
 30
0.0
 11
117.0953539991
 21
83.4836580475
 31
0.0
  0
LINE
  5
172
330
1F
100
AcDbEntity
  8
0
  6
Continuous
 62
     7
370
    25
100
AcDbLine
 10
116.8107138806
 20
83.4836580475
 30
0.0
 11
117.1547146374
 21
83.6836577078
 31
0.0
  0
LINE
  5
173
330
1F
100
AcDbEntity
  8
0
  6
Continuous
 62
     7
370
    25
100
AcDbLine
 10
117.0953539991
 20
83.4836580475
 30
0.0
 11
116.8107138806
 21
83.4836580475
 31
0.0
  0
LINE
  5
174
330
1F
100
AcDbEntity
  8
0
  6
Continuous
 62
     7
370
    25
100
AcDbLine
 10
117.1547146374
 20
83.6836577078
 30
0.0
 11
117.1547146374
 21
96.7836578061
 31
0.0
  0
LINE
  5
175
330
1F
100
AcDbEntity
  8
0
  6
Continuous
 62
     7
370
    25
100
AcDbLine
 10
117.1547146374
 20
96.7836578061
 30
0.0
 11
116.8107138806
 21
96.983659329
 31
0.0
  0
LINE
  5
176
330
1F
100
AcDbEntity
  8
0
  6
Continuous
 62
     7
370
    25
100
AcDbLine
 10
117.0953539991
 20
96.983659329
 30
0.0
 11
117.1547146374
 21
96.7836578061
 31
0.0
  0
LINE
  5
177
330
1F
100
AcDbEntity
  8
0
  6
Continuous
 62
     7
370
    25
100
AcDbLine
 10
116.8107138806
 20
96.983659329
 30
0.0
 11
117.0953539991
 21
96.983659329
 31
0.0
  0
LINE
  5
178
330
1F
100
AcDbEntity
  8
0
  6
Continuous
 62
     7
370
    25
100
AcDbLine
 10
99.791877889
 20
83.6836577078
 30
0.0
 11
100.0950587773
 21
83.4836580475
 31
0.0
  0
LINE
  5
179
330
1F
100
AcDbEntity
  8
0
  6
Continuous
 62
     7
370
    25
100
AcDbLine
 10
99.791877889
 20
83.6836577078
 30
0.0
 11
99.791877889
 21
96.7836578061
 31
0.0
  0
LINE
  5
17A
330
1F
100
AcDbEntity
  8
0
  6
Continuous
 62
     7
370
    25
100
AcDbLine
 10
100.0950587773
 20
96.983659329
 30
0.0
 11
99.791877889
 21
96.7836578061
 31
0.0
  0
LINE
  5
17B
330
1F
100
AcDbEntity
  8
0
  6
Continuous
 62
     7
370
    25
100
AcDbLine
 10
99.9035490536
 20
83.4836580475
 30
0.0
 11
99.791877889
 21
83.6836577078
 31
0.0
  0
LINE
  5
17C
330
1F
100
AcDbEntity
  8
0
  6
Continuous
 62
     7
370
    25
100
AcDbLine
 10
100.0950587773
 20
83.4836580475
 30
0.0
 11
99.9035490536
 21
83.4836580475
 31
0.0
  0
LINE
  5
17D
330
1F
100
AcDbEntity
  8
0
  6
Continuous
 62
     7
370
    25
100
AcDbLine
 10
99.791877889
 20
96.7836578061
 30
0.0
 11
99.9035490536
 21
96.983659329
 31
0.0
  0
LINE
  5
17E
330
1F
100
AcDbEntity
  8
0
  6
Continuous
 62
     7
370
    25
100
AcDbLine
 10
99.9035490536
 20
96.983659329
 30
0.0
 11
100.0950587773
 21
96.983659329
 31
0.0
  0
LINE
  5
17F
330
1F
100
AcDbEntity
  8
0
  6
Continuous
 62
     7
370
    25
100
AcDbLine
 10
117.3985348874
 20
83.6836577078
 30
0.0
 11
117.2868637228
 21
83.4836580475
 31
0.0
  0
LINE
  5
180
330
1F
100
AcDbEntity
  8
0
  6
Continuous
 62
     7
370
    25
100
AcDbLine
 10
117.0953539991
 20
83.4836580475
 30
0.0
 11
117.3985348874
 21
83.6836577078
 31
0.0
  0
LINE
  5
181
330
1F
100
AcDbEntity
  8
0
  6
Continuous
 62
     7
370
    25
100
AcDbLine
 10
117.2868637228
 20
83.4836580475
 30
0.0
 11
117.0953539991
 21
83.4836580475
 31
0.0
  0
LINE
  5
182
330
1F
100
AcDbEntity
  8
0
  6
Continuous
 62
     7
370
    25
100
AcDbLine
 10
117.3985348874
 20
83.6836577078
 30
0.0
 11
117.3985348874
 21
96.7836578061
 31
0.0
  0
LINE
  5
183
330
1F
100
AcDbEntity
  8
0
  6
Continuous
 62
     7
370
    25
100
AcDbLine
 10
117.3985348874
 20
96.7836578061
 30
0.0
 11
117.0953539991
 21
96.983659329
 31
0.0
  0
LINE
  5
184
330
1F
100
AcDbEntity
  8
0
  6
Continuous
 62
     7
370
    25
100
AcDbLine
 10
117.2868637228
 20
96.983659329
 30
0.0
 11
117.3985348874
 21
96.7836578061
 31
0.0
  0
LINE
  5
185
330
1F
100
AcDbEntity
  8
0
  6
Continuous
 62
     7
370
    25
100
AcDbLine
 10
117.0953539991
 20
96.983659329
 30
0.0
 11
117.2868637228
 21
96.983659329
 31
0.0
  0
LINE
  5
186
330
1F
100
AcDbEntity
  8
0
  6
Continuous
 62
     7
370
    25
100
AcDbLine
 10
99.6445091301
 20
83.6836577078
 30
0.0
 11
99.9035490536
 21
83.4836580475
 31
0.0
  0
LINE
  5
187
330
1F
100
AcDbEntity
  8
0
  6
Continuous
 62
     7
370
    25
100
AcDbLine
 10
99.6445091301
 20
83.6836577078
 30
0.0
 11
99.6445091301
 21
96.7836578061
 31
0.0
  0
LINE
  5
188
330
1F
100
AcDbEntity
  8
0
  6
Continuous
 62
     7
370
    25
100
AcDbLine
 10
99.9035490536
 20
96.983659329
 30
0.0
 11
99.6445091301
 21
96.7836578061
 31
0.0
  0
LINE
  5
189
330
1F
100
AcDbEntity
  8
0
  6
Continuous
 62
     7
370
    25
100
AcDbLine
 10
99.8072661319
 20
83.4836580475
 30
0.0
 11
99.6445091301
 21
83.6836577078
 31
0.0
  0
LINE
  5
18A
330
1F
100
AcDbEntity
  8
0
  6
Continuous
 62
     7
370
    25
100
AcDbLine
 10
99.9035490536
 20
83.4836580475
 30
0.0
 11
99.8072661319
 21
83.4836580475
 31
0.0
  0
LINE
  5
18B
330
1F
100
AcDbEntity
  8
0
  6
Continuous
 62
     7
370
    25
100
AcDbLine
 10
99.6445091301
 20
96.7836578061
 30
0.0
 11
99.8072661319
 21
96.983659329
 31
0.0
  0
LINE
  5
18C
330
1F
100
AcDbEntity
  8
0
  6
Continuous
 62
     7
370
    25
100
AcDbLine
 10
99.8072661319
 20
96.983659329
 30
0.0
 11
99.9035490536
 21
96.983659329
 31
0.0
  0
LINE
  5
18D
330
1F
100
AcDbEntity
  8
0
  6
Continuous
 62
     7
370
    25
100
AcDbLine
 10
117.5459036463
 20
83.6836577078
 30
0.0
 11
117.5459036463
 21
96.7836578061
 31
0.0
  0
LINE
  5
18E
330
1F
100
AcDbEntity
  8
0
  6
Continuous
 62
     7
370
    25
100
AcDbLine
 10
117.2868637228
 20
83.4836580475
 30
0.0
 11
117.5459036463
 21
83.6836577078
 31
0.0
  0
LINE
  5
18F
330
1F
100
AcDbEntity
  8
0
  6
Continuous
 62
     7
370
    25
100
AcDbLine
 10
117.5459036463
 20
96.7836578061
 30
0.0
 11
117.2868637228
 21
96.983659329
 31
0.0
  0
LINE
  5
190
330
1F
100
AcDbEntity
  8
0
  6
Continuous
 62
     7
370
    25
100
AcDbLine
 10
117.5459036463
 20
83.6836577078
 30
0.0
 11
117.3831466445
 21
83.4836580475
 31
0.0
  0
LINE
  5
191
330
1F
100
AcDbEntity
  8
0
  6
Continuous
 62
     7
370
    25
100
AcDbLine
 10
117.3831466445
 20
83.4836580475
 30
0.0
 11
117.2868637228
 21
83.4836580475
 31
0.0
  0
LINE
  5
192
330
1F
100
AcDbEntity
  8
0
  6
Continuous
 62
     7
370
    25
100
AcDbLine
 10
117.3831466445
 20
96.983659329
 30
0.0
 11
117.5459036463
 21
96.7836578061
 31
0.0
  0
LINE
  5
193
330
1F
100
AcDbEntity
  8
0
  6
Continuous
 62
     7
370
    25
100
AcDbLine
 10
117.2868637228
 20
96.983659329
 30
0.0
 11
117.3831466445
 21
96.983659329
 31
0.0
  0
LINE
  5
194
330
1F
100
AcDbEntity
  8
0
  6
Continuous
 62
     7
370
    25
100
AcDbLine
 10
99.5952067756
 20
83.6836577078
 30
0.0
 11
99.8072661319
 21
83.4836580475
 31
0.0
  0
LINE
  5
195
330
1F
100
AcDbEntity
  8
0
  6
Continuous
 62
     7
370
    25
100
AcDbLine
 10
99.5952067756
 20
83.6836577078
 30
0.0
 11
99.5952067756
 21
96.7836578061
 31
0.0
  0
LINE
  5
196
330
1F
100
AcDbEntity
  8
0
  6
Continuous
 62
     7
370
    25
100
AcDbLine
 10
99.8072661319
 20
96.983659329
 30
0.0
 11
99.5952067756
 21
96.7836578061
 31
0.0
  0
LINE
  5
197
330
1F
100
AcDbEntity
  8
0
  6
Continuous
 62
     7
370
    25
100
AcDbLine
 10
99.7952064359
 20
96.983659329
 30
0.0
 11
99.8072661319
 21
96.983659329
 31
0.0
  0
LINE
  5
198
330
1F
100
AcDbEntity
  8
0
  6
Continuous
 62
     7
370
    25
100
AcDbLine
 10
99.8072661319
 20
83.4836580475
 30
0.0
 11
99.7952064359
 21
83.4836580475
 31
0.0
  0
LINE
  5
199
330
1F
100
AcDbEntity
  8
0
  6
Continuous
 62
     7
370
    25
100
AcDbLine
 10
117.3831466445
 20
83.4836580475
 30
0.0
 11
117.5952060008
 21
83.6836577078
 31
0.0
  0
LINE
  5
19A
330
1F
100
AcDbEntity
  8
0
  6
Continuous
 62
     7
370
    25
100
AcDbLine
 10
117.3952063405
 20
83.4836580475
 30
0.0
 11
117.3831466445
 21
83.4836580475
 31
0.0
  0
LINE
  5
19B
330
1F
100
AcDbEntity
  8
0
  6
Continuous
 62
     7
370
    25
100
AcDbLine
 10
117.5952060008
 20
83.6836577078
 30
0.0
 11
117.5952060008
 21
96.7836578061
 31
0.0
  0
LINE
  5
19C
330
1F
100
AcDbEntity
  8
0
  6
Continuous
 62
     7
370
    25
100
AcDbLine
 10
117.5952060008
 20
96.7836578061
 30
0.0
 11
117.3831466445
 21
96.983659329
 31
0.0
  0
LINE
  5
19D
330
1F
100
AcDbEntity
  8
0
  6
Continuous
 62
     7
370
    25
100
AcDbLine
 10
117.3831466445
 20
96.983659329
 30
0.0
 11
117.3952063405
 21
96.983659329
 31
0.0
  0
LINE
  5
19E
330
1F
100
AcDbEntity
  8
0
  6
Continuous
 62
     7
370
    25
100
AcDbLine
 10
95.59520612
 20
66.7836584767
 30
0.0
 11
95.59520612
 21
74.7836588566
 31
0.0
  0
LINE
  5
19F
330
1F
100
AcDbEntity
  8
0
  6
Continuous
 62
     7
370
    25
100
AcDbLine
 10
95.59520612
 20
58.7836580967
 30
0.0
 11
95.59520612
 21
66.7836584767
 31
0.0
  0
LINE
  5
1A0
330
1F
100
AcDbEntity
  8
0
  6
Continuous
 62
     7
370
    25
100
AcDbLine
 10
88.7452056491
 20
72.2336585318
 30
0.0
 11
88.7452056491
 21
61.3336584215
 31
0.0
  0
LINE
  5
1A1
330
1F
100
AcDbEntity
  8
0
  6
Continuous
 62
     7
370
    25
100
AcDbLine
 10
87.5952066713
 20
73.3836584409
 30
0.0
 11
87.5952066713
 21
60.1836585124
 31
0.0
  0
LINE
  5
1A2
330
1F
100
AcDbEntity
  8
0
  6
Continuous
 62
     7
370
    25
100
AcDbLine
 10
85.3598294639
 20
73.3836584409
 30
0.0
 11
85.3598294639
 21
60.1836585124
 31
0.0
  0
LINE
  5
1A3
330
1F
100
AcDbEntity
  8
0
  6
Continuous
 62
     7
370
    25
100
AcDbLine
 10
80.5952055239
 20
72.2836584469
 30
0.0
 11
80.5952055239
 21
61.2836585065
 31
0.0
  0
LINE
  5
1A4
330
1F
100
AcDbEntity
  8
0
  6
Continuous
 62
     7
370
    25
100
AcDbLine
 10
91.6952071571
 20
73.3836584409
 30
0.0
 11
91.6952071571
 21
60.1836585124
 31
0.0
  0
LINE
  5
1A5
330
1F
100
AcDbEntity
  8
0
  6
Continuous
 62
     7
370
    25
100
AcDbLine
 10
90.5452063167
 20
72.2336585318
 30
0.0
 11
90.5452063167
 21
61.3336584215
 31
0.0
  0
LINE
  5
1A6
330
1F
100
AcDbEntity
  8
0
  6
Continuous
 62
     7
370
    25
100
AcDbLine
 10
75.595206567
 20
66.7836584767
 30
0.0
 11
75.595206567
 21
71.9836584908
 31
0.0
  0
LINE
  5
1A7
330
1F
100
AcDbEntity
  8
0
  6
Continuous
 62
     7
370
    25
100
AcDbLine
 10
75.595206567
 20
61.5836584625
 30
0.0
 11
75.595206567
 21
66.7836584767
 31
0.0
  0
LINE
  5
1A8
330
1F
100
AcDbEntity
  8
0
  6
Continuous
 62
     7
370
    25
100
AcDbLine
 10
118.0952060827
 20
56.7836587002
 30
0.0
 11
118.0952060827
 21
76.7836582531
 31
0.0
  0
LINE
  5
1A9
330
1F
100
AcDbEntity
  8
0
  6
Continuous
 62
     7
370
    25
100
AcDbLine
 10
118.5952061647
 20
76.2836581712
 30
0.0
 11
118.5952061647
 21
57.2836587821
 31
0.0
  0
LINE
  5
1AA
330
1F
100
AcDbEntity
  8
0
  6
Continuous
 62
     7
370
    25
100
AcDbLine
 10
116.4771728077
 20
56.7836587002
 30
0.0
 11
116.4771728077
 21
76.7836582531
 31
0.0
  0
SPLINE
  5
1AB
330
1F
100
AcDbEntity
  8
0
  6
Continuous
 62
     7
370
    25
100
AcDbSpline
210
0.0
220
0.0
230
1.0
 70
     8
 71
     3
 72
     8
 73
     4
 74
     0
 42
0.000000001
 43
0.00000001
 40
0.0
 40
0.0
 40
0.0
 40
0.0
 40
1.0
 40
1.0
 40
1.0
 40
1.0
 10
116.1924075128603
 20
61.38396862516259
 30
0.0
 10
116.1245710952842
 20
61.35260568415181
 30
0.0
 10
116.0952063882064
 20
61.31913752350226
 30
0.0
 10
116.0952063882064
 20
61.28365847665849
 30
0.0
  0
SPLINE
  5
1AC
330
1F
100
AcDbEntity
  8
0
  6
Continuous
 62
     7
370
    25
100
AcDbSpline
210
0.0
220
0.0
230
1.0
 70
     8
 71
     3
 72
    12
 73
     8
 74
     0
 42
0.000000001
 43
0.00000001
 40
0.0
 40
0.0
 40
0.0
 40
0.0
 40
0.5000000000000001
 40
0.5000000000000001
 40
0.75
 40
0.75
 40
1.0
 40
1.0
 40
1.0
 40
1.0
 10
116.1924075128603
 20
61.38396862516259
 30
0.0
 10
116.2602772728701
 20
61.41534698144469
 30
0.0
 10
116.3363118241238
 20
61.54905550194324
 30
0.0
 10
116.3829564225008
 20
61.82708161160902
 30
0.0
 10
116.3873954190235
 20
61.93392779561298
 30
0.0
 10
116.3716648052307
 20
62.16080926966873
 30
0.0
 10
116.3517843752883
 20
62.28097824197334
 30
0.0
 10
116.3242924553084
 20
62.40242788678358
 30
0.0
  0
SPLINE
  5
1AD
330
1F
100
AcDbEntity
  8
0
  6
Continuous
 62
     7
370
    25
100
AcDbSpline
210
0.0
220
0.0
230
1.0
 70
     8
 71
     3
 72
    12
 73
     8
 74
     0
 42
0.000000001
 43
0.00000001
 40
0.0
 40
0.0
 40
0.0
 40
0.0
 40
0.5
 40
0.5
 40
0.75
 40
0.75
 40
1.0
 40
1.0
 40
1.0
 40
1.0
 10
116.0952063882064
 20
66.7836584766585
 30
0.0
 10
116.0952063882064
 20
66.04970145450127
 30
0.0
 10
116.0906489932071
 20
65.31672301013847
 30
0.0
 10
116.1178326575864
 20
64.21989889719207
 30
0.0
 10
116.1332823285036
 20
63.85475130862163
 30
0.0
 10
116.1961459300355
 20
63.12596329475759
 30
0.0
 10
116.2431758532038
 20
62.76077253935926
 30
0.0
 10
116.3242924553084
 20
62.40242788678358
 30
0.0
  0
SPLINE
  5
1AE
330
1F
100
AcDbEntity
  8
0
  6
Continuous
 62
     7
370
    25
100
AcDbSpline
210
0.0
220
0.0
230
1.0
 70
     8
 71
     3
 72
    12
 73
     8
 74
     0
 42
0.000000001
 43
0.00000001
 40
0.0
 40
0.0
 40
0.0
 40
0.0
 40
0.25
 40
0.25
 40
0.5
 40
0.5
 40
1.0
 40
1.0
 40
1.0
 40
1.0
 10
116.3242924553084
 20
71.1648890665334
 30
0.0
 10
116.2431758532038
 20
70.80654441395771
 30
0.0
 10
116.1961459300355
 20
70.4413536585594
 30
0.0
 10
116.1332823285036
 20
69.71256564469536
 30
0.0
 10
116.1178326575864
 20
69.34741805612492
 30
0.0
 10
116.0906489932071
 20
68.2505939431785
 30
0.0
 10
116.0952063882064
 20
67.5176154988157
 30
0.0
 10
116.0952063882064
 20
66.78365847665849
 30
0.0
  0
SPLINE
  5
1AF
330
1F
100
AcDbEntity
  8
0
  6
Continuous
 62
     7
370
    25
100
AcDbSpline
210
0.0
220
0.0
230
1.0
 70
     8
 71
     3
 72
    14
 73
    10
 74
     0
 42
0.000000001
 43
0.00000001
 40
0.0
 40
0.0
 40
0.0
 40
0.0
 40
0.25
 40
0.25
 40
0.5
 40
0.5
 40
0.75
 40
0.75
 40
1.0
 40
1.0
 40
1.0
 40
1.0
 10
116.3242924553084
 20
71.1648890665334
 30
0.0
 10
116.3518134430535
 20
71.28646712251911
 30
0.0
 10
116.3717333648899
 20
71.40699185954423
 30
0.0
 10
116.387400406708
 20
71.63396811865235
 30
0.0
 10
116.3829085748956
 20
71.74093809621851
 30
0.0
 10
116.3516522296121
 20
71.92640364799824
 30
0.0
 10
116.3252796462303
 20
72.00528890911707
 30
0.0
 10
116.262443095086
 20
72.12592670029017
 30
0.0
 10
116.2264035162259
 20
72.16763089073278
 30
0.0
 10
116.1924075128603
 20
72.18334832815438
 30
0.0
  0
SPLINE
  5
1B0
330
1F
100
AcDbEntity
  8
0
  6
Continuous
 62
     7
370
    25
100
AcDbSpline
210
0.0
220
0.0
230
1.0
 70
     8
 71
     3
 72
     8
 73
     4
 74
     0
 42
0.000000001
 43
0.00000001
 40
0.0
 40
0.0
 40
0.0
 40
0.0
 40
1.0
 40
1.0
 40
1.0
 40
1.0
 10
116.0952063882064
 20
72.28365847665849
 30
0.0
 10
116.0952063882064
 20
72.24817942981473
 30
0.0
 10
116.1245710952842
 20
72.21471126916516
 30
0.0
 10
116.1924075128603
 20
72.18334832815438
 30
0.0
  0
LINE
  5
1B1
330
1F
100
AcDbEntity
  8
0
  6
Continuous
 62
     7
370
    25
100
AcDbLine
 10
116.0952062206
 20
72.2836584469
 30
0.0
 11
116.0952062206
 21
75.7836580892
 31
0.0
  0
LINE
  5
1B2
330
1F
100
AcDbEntity
  8
0
  6
Continuous
 62
     7
370
    25
100
AcDbLine
 10
116.0952062206
 20
57.7836588641
 30
0.0
 11
116.0952062206
 21
61.2836585065
 31
0.0
  0
LINE
  5
1B3
330
1F
100
AcDbEntity
  8
0
  6
Continuous
 62
     7
370
    25
100
AcDbLine
 10
100.7132399687
 20
66.7836584767
 30
0.0
 11
100.7132399687
 21
56.7836587002
 31
0.0
  0
LINE
  5
1B4
330
1F
100
AcDbEntity
  8
0
  6
Continuous
 62
     7
370
    25
100
AcDbLine
 10
100.7132399687
 20
76.7836582531
 30
0.0
 11
100.7132399687
 21
66.7836584767
 31
0.0
  0
LINE
  5
1B5
330
1F
100
AcDbEntity
  8
0
  6
Continuous
 62
     7
370
    25
100
AcDbLine
 10
98.845206187
 20
66.7836584767
 30
0.0
 11
98.845206187
 21
56.7836587002
 31
0.0
  0
LINE
  5
1B6
330
1F
100
AcDbEntity
  8
0
  6
Continuous
 62
     7
370
    25
100
AcDbLine
 10
98.845206187
 20
76.7836582531
 30
0.0
 11
98.845206187
 21
66.7836584767
 31
0.0
  0
LINE
  5
1B7
330
1F
100
AcDbEntity
  8
0
  6
Continuous
 62
     7
370
    25
100
AcDbLine
 10
98.5952066117
 20
66.7836584767
 30
0.0
 11
98.5952066117
 21
76.5336586778
 31
0.0
  0
LINE
  5
1B8
330
1F
100
AcDbEntity
  8
0
  6
Continuous
 62
     7
370
    25
100
AcDbLine
 10
98.5952066117
 20
57.0336582755
 30
0.0
 11
98.5952066117
 21
66.7836584767
 31
0.0
  0
LINE
  5
1B9
330
1F
100
AcDbEntity
  8
0
  6
Continuous
 62
     7
370
    25
100
AcDbLine
 10
101.0952065558
 20
75.7836580892
 30
0.0
 11
101.0952065558
 21
72.2836584469
 31
0.0
  0
SPLINE
  5
1BA
330
1F
100
AcDbEntity
  8
0
  6
Continuous
 62
     7
370
    25
100
AcDbSpline
210
0.0
220
0.0
230
1.0
 70
     8
 71
     3
 72
     8
 73
     4
 74
     0
 42
0.000000001
 43
0.00000001
 40
0.0
 40
0.0
 40
0.0
 40
0.0
 40
1.0
 40
1.0
 40
1.0
 40
1.0
 10
100.9980052635525
 20
72.18334832815438
 30
0.0
 10
101.0658416811285
 20
72.21471126916516
 30
0.0
 10
101.0952063882064
 20
72.24817942981473
 30
0.0
 10
101.0952063882064
 20
72.28365847665849
 30
0.0
  0
SPLINE
  5
1BB
330
1F
100
AcDbEntity
  8
0
  6
Continuous
 62
     7
370
    25
100
AcDbSpline
210
0.0
220
0.0
230
1.0
 70
     8
 71
     3
 72
    12
 73
     8
 74
     0
 42
0.000000001
 43
0.00000001
 40
0.0
 40
0.0
 40
0.0
 40
0.0
 40
0.4999999999999992
 40
0.4999999999999992
 40
0.7499999999999996
 40
0.7499999999999996
 40
1.0
 40
1.0
 40
1.0
 40
1.0
 10
100.9980052635525
 20
72.18334832815438
 30
0.0
 10
100.9301355035427
 20
72.15196997187229
 30
0.0
 10
100.8541009522889
 20
72.01826145137375
 30
0.0
 10
100.8074563539119
 20
71.74023534170796
 30
0.0
 10
100.8030173573893
 20
71.63338915770399
 30
0.0
 10
100.8187479711821
 20
71.40650768364826
 30
0.0
 10
100.8386284011245
 20
71.28633871134365
 30
0.0
 10
100.8661203211043
 20
71.1648890665334
 30
0.0
  0
SPLINE
  5
1BC
330
1F
100
AcDbEntity
  8
0
  6
Continuous
 62
     7
370
    25
100
AcDbSpline
210
0.0
220
0.0
230
1.0
 70
     8
 71
     3
 72
    12
 73
     8
 74
     0
 42
0.000000001
 43
0.00000001
 40
0.0
 40
0.0
 40
0.0
 40
0.0
 40
0.4999999999999998
 40
0.4999999999999998
 40
0.7499999999999999
 40
0.7499999999999999
 40
1.0
 40
1.0
 40
1.0
 40
1.0
 10
101.0952063882064
 20
66.78365847665847
 30
0.0
 10
101.0952063882064
 20
67.51761549881569
 30
0.0
 10
101.0997637832056
 20
68.2505939431785
 30
0.0
 10
101.0725801188263
 20
69.34741805612492
 30
0.0
 10
101.0571304479091
 20
69.71256564469535
 30
0.0
 10
100.9942668463773
 20
70.4413536585594
 30
0.0
 10
100.947236923209
 20
70.80654441395771
 30
0.0
 10
100.8661203211043
 20
71.1648890665334
 30
0.0
  0
SPLINE
  5
1BD
330
1F
100
AcDbEntity
  8
0
  6
Continuous
 62
     7
370
    25
100
AcDbSpline
210
0.0
220
0.0
230
1.0
 70
     8
 71
     3
 72
    12
 73
     8
 74
     0
 42
0.000000001
 43
0.00000001
 40
0.0
 40
0.0
 40
0.0
 40
0.0
 40
0.2500000000000001
 40
0.2500000000000001
 40
0.5000000000000002
 40
0.5000000000000002
 40
1.0
 40
1.0
 40
1.0
 40
1.0
 10
100.8661203211043
 20
62.40242788678358
 30
0.0
 10
100.947236923209
 20
62.76077253935926
 30
0.0
 10
100.9942668463773
 20
63.12596329475759
 30
0.0
 10
101.0571304479091
 20
63.85475130862163
 30
0.0
 10
101.0725801188263
 20
64.21989889719207
 30
0.0
 10
101.0997637832056
 20
65.31672301013846
 30
0.0
 10
101.0952063882064
 20
66.04970145450127
 30
0.0
 10
101.0952063882064
 20
66.78365847665849
 30
0.0
  0
SPLINE
  5
1BE
330
1F
100
AcDbEntity
  8
0
  6
Continuous
 62
     7
370
    25
100
AcDbSpline
210
0.0
220
0.0
230
1.0
 70
     8
 71
     3
 72
    14
 73
    10
 74
     0
 42
0.000000001
 43
0.00000001
 40
0.0
 40
0.0
 40
0.0
 40
0.0
 40
0.25
 40
0.25
 40
0.5
 40
0.5
 40
0.75
 40
0.75
 40
1.0
 40
1.0
 40
1.0
 40
1.0
 10
100.8661203211043
 20
62.40242788678358
 30
0.0
 10
100.8385993333593
 20
62.28084983079787
 30
0.0
 10
100.8186794115229
 20
62.16032509377274
 30
0.0
 10
100.8030123697048
 20
61.93334883466463
 30
0.0
 10
100.8075042015171
 20
61.82637885709846
 30
0.0
 10
100.8387605468007
 20
61.64091330531873
 30
0.0
 10
100.8651331301825
 20
61.5620280441999
 30
0.0
 10
100.9279696813268
 20
61.4413902530268
 30
0.0
 10
100.9640092601869
 20
61.39968606258419
 30
0.0
 10
100.9980052635525
 20
61.38396862516259
 30
0.0
  0
SPLINE
  5
1BF
330
1F
100
AcDbEntity
  8
0
  6
Continuous
 62
     7
370
    25
100
AcDbSpline
210
0.0
220
0.0
230
1.0
 70
     8
 71
     3
 72
     8
 73
     4
 74
     0
 42
0.000000001
 43
0.00000001
 40
0.0
 40
0.0
 40
0.0
 40
0.0
 40
1.0
 40
1.0
 40
1.0
 40
1.0
 10
101.0952063882064
 20
61.28365847665849
 30
0.0
 10
101.0952063882064
 20
61.31913752350226
 30
0.0
 10
101.0658416811285
 20
61.35260568415181
 30
0.0
 10
100.9980052635525
 20
61.38396862516259
 30
0.0
  0
LINE
  5
1C0
330
1F
100
AcDbEntity
  8
0
  6
Continuous
 62
     7
370
    25
100
AcDbLine
 10
101.0952065558
 20
61.2836585065
 30
0.0
 11
101.0952065558
 21
57.7836588641
 31
0.0
  0
LINE
  5
1C1
330
1F
100
AcDbEntity
  8
0
  6
Continuous
 62
     7
370
    25
100
AcDbLine
 10
116.0952062206
 20
66.7836584767
 30
0.0
 11
115.5952066043
 21
66.7836584767
 31
0.0
  0
SPLINE
  5
1C2
330
1F
100
AcDbEntity
  8
0
  6
Continuous
 62
     7
370
    25
100
AcDbSpline
210
0.0
220
0.0
230
1.0
 70
     8
 71
     3
 72
    14
 73
    10
 74
     0
 42
0.000000001
 43
0.00000001
 40
0.0
 40
0.0
 40
0.0
 40
0.0
 40
0.2499999999999999
 40
0.2499999999999999
 40
0.4999999999999999
 40
0.4999999999999999
 40
0.7499999999999999
 40
0.7499999999999999
 40
1.0
 40
1.0
 40
1.0
 40
1.0
 10
115.5952063882064
 20
66.78365847665849
 30
0.0
 10
115.5952063882064
 20
67.16017518874546
 30
0.0
 10
115.5947971264867
 20
67.53671124637442
 30
0.0
 10
115.5981084745926
 20
68.289588145223
 30
0.0
 10
115.6018719600573
 20
68.66592695973834
 30
0.0
 10
115.627645215837
 20
69.41774209845349
 30
0.0
 10
115.6495633105155
 20
69.79322275610251
 30
0.0
 10
115.7347809737008
 20
70.54222799537119
 30
0.0
 10
115.7980939598517
 20
70.91783591081263
 30
0.0
 10
115.9006544776758
 20
71.28365847665849
 30
0.0
  0
LWPOLYLINE
  5
1C3
330
1F
100
AcDbEntity
  8
0
  6
Continuous
 62
     7
370
    25
100
AcDbPolyline
 90
        9
 70
   128
 43
0.0
 10
116.3242924818
 20
71.1648890433
 10
116.2898051412
 20
71.1745575686
 10
116.2482919031
 20
71.1861963068
 10
116.2005024822
 20
71.1995943134
 10
116.1472997488
 20
71.2145099101
 10
116.0896434308
 20
71.2306744104
 10
116.0285752126
 20
71.2477949132
 10
115.9651973144
 20
71.2655636166
 10
115.9006543317
 20
71.2836582829
  0
LWPOLYLINE
  5
1C4
330
1F
100
AcDbEntity
  8
0
  6
Continuous
 62
     7
370
    25
100
AcDbPolyline
 90
        9
 70
   128
 43
0.0
 10
116.3242924818
 20
62.40242791
 10
116.2898051412
 20
62.3927593847
 10
116.2482919031
 20
62.3811206465
 10
116.2005024822
 20
62.3677226399
 10
116.1472997488
 20
62.3528070432
 10
116.0896434308
 20
62.336642543
 10
116.0285752126
 20
62.3195220401
 10
115.9651973144
 20
62.3017533367
 10
115.9006543317
 20
62.2836586704
  0
SPLINE
  5
1C5
330
1F
100
AcDbEntity
  8
0
  6
Continuous
 62
     7
370
    25
100
AcDbSpline
210
0.0
220
0.0
230
1.0
 70
     8
 71
     3
 72
    14
 73
    10
 74
     0
 42
0.000000001
 43
0.00000001
 40
0.0
 40
0.0
 40
0.0
 40
0.0
 40
0.2500000000000002
 40
0.2500000000000002
 40
0.5000000000000003
 40
0.5000000000000003
 40
0.7500000000000002
 40
0.7500000000000002
 40
1.0
 40
1.0
 40
1.0
 40
1.0
 10
115.9006544776758
 20
62.28365847665849
 30
0.0
 10
115.7980939598517
 20
62.64948104250434
 30
0.0
 10
115.7347809737008
 20
63.0250889579458
 30
0.0
 10
115.6495633105155
 20
63.77409419721448
 30
0.0
 10
115.627645215837
 20
64.14957485486349
 30
0.0
 10
115.6018719600573
 20
64.90138999357863
 30
0.0
 10
115.5981084745926
 20
65.27772880809397
 30
0.0
 10
115.5947971264867
 20
66.03060570694255
 30
0.0
 10
115.5952063882064
 20
66.40714176457152
 30
0.0
 10
115.5952063882064
 20
66.7836584766585
 30
0.0
  0
SPLINE
  5
1C6
330
1F
100
AcDbEntity
  8
0
  6
Continuous
 62
     7
370
    25
100
AcDbSpline
210
0.0
220
0.0
230
1.0
 70
     8
 71
     3
 72
    14
 73
    10
 74
     0
 42
0.000000001
 43
0.00000001
 40
0.0
 40
0.0
 40
0.0
 40
0.0
 40
0.2500000000000001
 40
0.2500000000000001
 40
0.5000000000000001
 40
0.5000000000000001
 40
0.7500000000000001
 40
0.7500000000000001
 40
1.0
 40
1.0
 40
1.0
 40
1.0
 10
101.5952063882064
 20
66.78365847665849
 30
0.0
 10
101.5952063882064
 20
66.40714176457152
 30
0.0
 10
101.595615649926
 20
66.03060570694255
 30
0.0
 10
101.5923043018201
 20
65.27772880809395
 30
0.0
 10
101.5885408163555
 20
64.90138999357862
 30
0.0
 10
101.5627675605758
 20
64.14957485486347
 30
0.0
 10
101.5408494658973
 20
63.77409419721447
 30
0.0
 10
101.455631802712
 20
63.0250889579458
 30
0.0
 10
101.3923188165611
 20
62.64948104250434
 30
0.0
 10
101.289758298737
 20
62.28365847665849
 30
0.0
  0
LWPOLYLINE
  5
1C7
330
1F
100
AcDbEntity
  8
0
  6
Continuous
 62
     7
370
    25
100
AcDbPolyline
 90
        9
 70
   128
 43
0.0
 10
101.2897584447
 20
62.2836586704
 10
101.225215462
 20
62.3017533367
 10
101.1618375638
 20
62.3195220401
 10
101.1007693456
 20
62.336642543
 10
101.0431130276
 20
62.3528070432
 10
100.9899102942
 20
62.3677226399
 10
100.9421208733
 20
62.3811206465
 10
100.9006076352
 20
62.3927593847
 10
100.8661202946
 20
62.40242791
  0
LINE
  5
1C8
330
1F
100
AcDbEntity
  8
0
  6
Continuous
 62
     7
370
    25
100
AcDbLine
 10
101.5952061721
 20
66.7836584767
 30
0.0
 11
101.0952065558
 21
66.7836584767
 31
0.0
  0
SPLINE
  5
1C9
330
1F
100
AcDbEntity
  8
0
  6
Continuous
 62
     7
370
    25
100
AcDbSpline
210
0.0
220
0.0
230
1.0
 70
     8
 71
     3
 72
    14
 73
    10
 74
     0
 42
0.000000001
 43
0.00000001
 40
0.0
 40
0.0
 40
0.0
 40
0.0
 40
0.2500000000000001
 40
0.2500000000000001
 40
0.5000000000000001
 40
0.5000000000000001
 40
0.75
 40
0.75
 40
1.0
 40
1.0
 40
1.0
 40
1.0
 10
101.289758298737
 20
71.28365847665849
 30
0.0
 10
101.3923188165611
 20
70.91783591081263
 30
0.0
 10
101.455631802712
 20
70.54222799537118
 30
0.0
 10
101.5408494658973
 20
69.79322275610251
 30
0.0
 10
101.5627675605758
 20
69.41774209845349
 30
0.0
 10
101.5885408163555
 20
68.66592695973833
 30
0.0
 10
101.5923043018201
 20
68.28958814522298
 30
0.0
 10
101.595615649926
 20
67.53671124637441
 30
0.0
 10
101.5952063882064
 20
67.16017518874546
 30
0.0
 10
101.5952063882064
 20
66.78365847665847
 30
0.0
  0
LWPOLYLINE
  5
1CA
330
1F
100
AcDbEntity
  8
0
  6
Continuous
 62
     7
370
    25
100
AcDbPolyline
 90
        9
 70
   128
 43
0.0
 10
101.2897584447
 20
71.2836582829
 10
101.225215462
 20
71.2655636166
 10
101.1618375638
 20
71.2477949132
 10
101.1007693456
 20
71.2306744104
 10
101.0431130276
 20
71.2145099101
 10
100.9899102942
 20
71.1995943134
 10
100.9421208733
 20
71.1861963068
 10
100.9006076352
 20
71.1745575686
 10
100.8661202946
 20
71.1648890433
  0
SPLINE
  5
1CB
330
1F
100
AcDbEntity
  8
0
  6
Continuous
 62
     7
370
    25
100
AcDbSpline
210
0.0
220
0.0
230
1.0
 70
     8
 71
     3
 72
    14
 73
    10
 74
     0
 42
0.000000001
 43
0.00000001
 40
0.0
 40
0.0
 40
0.0
 40
0.0
 40
0.25
 40
0.25
 40
0.5
 40
0.5
 40
0.75
 40
0.75
 40
1.0
 40
1.0
 40
1.0
 40
1.0
 10
101.4656048886678
 20
61.78365847665849
 30
0.0
 10
101.4271294050462
 20
61.78365847665849
 30
0.0
 10
101.3860404835762
 20
61.79444504764171
 30
0.0
 10
101.3067576361356
 20
61.83737683470686
 30
0.0
 10
101.2694747350252
 20
61.86879434301174
 30
0.0
 10
101.2166689757134
 20
61.96010918858796
 30
0.0
 10
101.2046997156198
 20
62.02133967135221
 30
0.0
 10
101.2247015039919
 20
62.15220303200794
 30
0.0
 10
101.2541579595442
 20
62.22016714634552
 30
0.0
 10
101.289758298737
 20
62.28365847665849
 30
0.0
  0
ARC
  5
1CC
330
1F
100
AcDbEntity
  8
0
  6
Continuous
 62
     7
370
    25
100
AcDbCircle
 10
101.4741536324
 20
61.3002887535
 30
0.0
 40
0.4834454273381205
100
AcDbArc
 50
91.0132315313
 51
170.0324555796
  0
SPLINE
  5
1CD
330
1F
100
AcDbEntity
  8
0
  6
Continuous
 62
     7
370
    25
100
AcDbSpline
210
0.0
220
0.0
230
1.0
 70
     8
 71
     3
 72
    14
 73
    10
 74
     0
 42
0.000000001
 43
0.00000001
 40
0.0
 40
0.0
 40
0.0
 40
0.0
 40
0.25
 40
0.25
 40
0.5
 40
0.5
 40
0.75
 40
0.75
 40
1.0
 40
1.0
 40
1.0
 40
1.0
 10
115.7248078877449
 20
71.78365847665849
 30
0.0
 10
115.7632833713665
 20
71.78365847665849
 30
0.0
 10
115.8043722928365
 20
71.77287190567527
 30
0.0
 10
115.8836551402771
 20
71.72994011861012
 30
0.0
 10
115.9209380413876
 20
71.69852261030523
 30
0.0
 10
115.9737438006993
 20
71.60720776472903
 30
0.0
 10
115.985713060793
 20
71.54597728196477
 30
0.0
 10
115.9657112724208
 20
71.41511392130904
 30
0.0
 10
115.9362548168685
 20
71.34714980697146
 30
0.0
 10
115.9006544776758
 20
71.28365847665849
 30
0.0
  0
ARC
  5
1CE
330
1F
100
AcDbEntity
  8
0
  6
Continuous
 62
     7
370
    25
100
AcDbCircle
 10
115.716259144
 20
72.2670281998
 30
0.0
 40
0.4834454273381095
100
AcDbArc
 50
271.0132315313
 51
350.0324555796
  0
ARC
  5
1CF
330
1F
100
AcDbEntity
  8
0
  6
Continuous
 62
     7
370
    25
100
AcDbCircle
 10
115.716259144
 20
61.3002887535
 30
0.0
 40
0.4834454273380953
100
AcDbArc
 50
9.9675444204
 51
88.9867684688
  0
SPLINE
  5
1D0
330
1F
100
AcDbEntity
  8
0
  6
Continuous
 62
     7
370
    25
100
AcDbSpline
210
0.0
220
0.0
230
1.0
 70
     8
 71
     3
 72
    16
 73
    12
 74
     0
 42
0.000000001
 43
0.00000001
 40
0.0
 40
0.0
 40
0.0
 40
0.0
 40
0.2499999999999999
 40
0.2499999999999999
 40
0.3750000000000003
 40
0.3750000000000003
 40
0.5000000000000007
 40
0.5000000000000007
 40
0.7500000000000003
 40
0.7500000000000003
 40
1.0
 40
1.0
 40
1.0
 40
1.0
 10
115.9006544776758
 20
62.28365847665849
 30
0.0
 10
115.9362084071244
 20
62.22024991568029
 30
0.0
 10
115.9654805483531
 20
62.15298261535948
 30
0.0
 10
115.980693098574
 20
62.05454330421713
 30
0.0
 10
115.9807537667475
 20
62.02206789786185
 30
0.0
 10
115.9705431822702
 20
61.96344269073564
 30
0.0
 10
115.960759852745
 20
61.93781987918266
 30
0.0
 10
115.921595304213
 20
61.86961103548722
 30
0.0
 10
115.8837222309398
 20
61.83744828032144
 30
0.0
 10
115.8046492579482
 20
61.79456006120555
 30
0.0
 10
115.7632621253574
 20
61.78365847665849
 30
0.0
 10
115.7248078877449
 20
61.78365847665849
 30
0.0
  0
SPLINE
  5
1D1
330
1F
100
AcDbEntity
  8
0
  6
Continuous
 62
     7
370
    25
100
AcDbSpline
210
0.0
220
0.0
230
1.0
 70
     8
 71
     3
 72
    16
 73
    12
 74
     0
 42
0.000000001
 43
0.00000001
 40
0.0
 40
0.0
 40
0.0
 40
0.0
 40
0.2500000000000049
 40
0.2500000000000049
 40
0.3750000000000051
 40
0.3750000000000051
 40
0.5000000000000052
 40
0.5000000000000052
 40
0.7500000000000026
 40
0.7500000000000026
 40
1.0
 40
1.0
 40
1.0
 40
1.0
 10
101.289758298737
 20
71.28365847665849
 30
0.0
 10
101.2542043692883
 20
71.34706703763669
 30
0.0
 10
101.2249322280596
 20
71.4143343379575
 30
0.0
 10
101.2097196778388
 20
71.51277364909984
 30
0.0
 10
101.2096590096652
 20
71.54524905545513
 30
0.0
 10
101.2198695941426
 20
71.60387426258133
 30
0.0
 10
101.2296529236678
 20
71.6294970741343
 30
0.0
 10
101.2688174721997
 20
71.69770591782975
 30
0.0
 10
101.306690545473
 20
71.72986867299554
 30
0.0
 10
101.3857635184646
 20
71.77275689211143
 30
0.0
 10
101.4271506510554
 20
71.78365847665849
 30
0.0
 10
101.4656048886678
 20
71.78365847665849
 30
0.0
  0
ARC
  5
1D2
330
1F
100
AcDbEntity
  8
0
  6
Continuous
 62
     7
370
    25
100
AcDbCircle
 10
101.4741536324
 20
72.2670281998
 30
0.0
 40
0.4834454273381229
100
AcDbArc
 50
189.9675444204
 51
268.9867684687
  0
ARC
  5
1D3
330
1F
100
AcDbEntity
  8
0
  6
Continuous
 62
     7
370
    25
100
AcDbCircle
 10
109.784856797
 20
65.9786123361
 30
0.0
 40
0.7111999999997624
100
AcDbArc
 50
45.0
 51
315.0
  0
LINE
  5
1D4
330
1F
100
AcDbEntity
  8
0
  6
Continuous
 62
     7
370
    25
100
AcDbLine
 10
110.2877511735
 20
66.4815066707
 30
0.0
 11
110.6610393477
 21
66.8547949904
 31
0.0
  0
ARC
  5
1D5
330
1F
100
AcDbEntity
  8
0
  6
Continuous
 62
     7
370
    25
100
AcDbCircle
 10
112.4585724741
 20
65.9786123361
 30
0.0
 40
0.7112000000000946
100
AcDbArc
 50
200.9248324276
 51
315.0
  0
LINE
  5
1D6
330
1F
100
AcDbEntity
  8
0
  6
Continuous
 62
     7
370
    25
100
AcDbLine
 10
111.7942763818
 20
65.7246123451
 30
0.0
 11
113.3347549335
 21
65.7246123451
 31
0.0
  0
LINE
  5
1D7
330
1F
100
AcDbEntity
  8
0
  6
Continuous
 62
     7
370
    25
100
AcDbLine
 10
113.3347549335
 20
65.7246123451
 30
0.0
 11
113.3347549335
 21
66.2326123133
 31
0.0
  0
ARC
  5
1D8
330
1F
100
AcDbEntity
  8
0
  6
Continuous
 62
     7
370
    25
100
AcDbCircle
 10
112.4585724741
 20
65.9786123361
 30
0.0
 40
0.7112000000000337
100
AcDbArc
 50
45.0
 51
159.0751675723
  0
LINE
  5
1D9
330
1F
100
AcDbEntity
  8
0
  6
Continuous
 62
     7
370
    25
100
AcDbLine
 10
112.9614668758
 20
66.4815066707
 30
0.0
 11
113.3347549335
 21
66.8547949904
 31
0.0
  0
ARC
  5
1DA
330
1F
100
AcDbEntity
  8
0
  6
Continuous
 62
     7
370
    25
100
AcDbCircle
 10
112.4585724741
 20
65.9786123361
 30
0.0
 40
1.239109388553836
100
AcDbArc
 50
45.0
 51
315.0
  0
LINE
  5
1DB
330
1F
100
AcDbEntity
  8
0
  6
Continuous
 62
     7
370
    25
100
AcDbLine
 10
113.3347549335
 20
65.1024297263
 30
0.0
 11
112.9614668758
 21
65.4757180168
 31
0.0
  0
ELLIPSE
  5
1DC
330
1F
100
AcDbEntity
  8
0
  6
Continuous
 62
     7
370
    25
100
AcDbEllipse
 10
105.5442022505
 20
63.1371315927
 30
0.0
 11
2.293035763987604
 21
-1.065814103640150E-12
 31
0.0
210
0.0
220
0.0
230
1.0
 40
0.9533039403
 41
0.8210019969645919
 42
2.320590656625116
  0
ELLIPSE
  5
1DD
330
1F
100
AcDbEntity
  8
0
  6
Continuous
 62
     7
370
    25
100
AcDbEllipse
 10
107.1531122471
 20
64.7842104891
 30
0.0
 11
0.06784129479237322
 21
0.0
 31
0.0
210
0.0
220
0.0
230
1.0
 40
0.9533039403
 41
3.962594650555296
 42
5.819537698174936
  0
LINE
  5
1DE
330
1F
100
AcDbEntity
  8
0
  6
Continuous
 62
     7
370
    25
100
AcDbLine
 10
107.2137913293
 20
64.7552877349
 30
0.0
 11
107.8508062497
 21
65.9698253298
 31
0.0
  0
LINE
  5
1DF
330
1F
100
AcDbEntity
  8
0
  6
Continuous
 62
     7
370
    25
100
AcDbLine
 10
107.8508062497
 20
65.9698253298
 30
0.0
 11
107.8174860309
 21
65.950781413
 31
0.0
  0
LINE
  5
1E0
330
1F
100
AcDbEntity
  8
0
  6
Continuous
 62
     7
370
    25
100
AcDbLine
 10
107.0247116591
 20
66.2275800864
 30
0.0
 11
106.0169879207
 21
69.0455364679
 31
0.0
  0
LINE
  5
1E1
330
1F
100
AcDbEntity
  8
0
  6
Continuous
 62
     7
370
    25
100
AcDbLine
 10
103.2788627641
 20
65.9471138065
 30
0.0
 11
103.2375981891
 21
65.9698253298
 31
0.0
  0
LINE
  5
1E2
330
1F
100
AcDbEntity
  8
0
  6
Continuous
 62
     7
370
    25
100
AcDbLine
 10
115.9006543317
 20
71.2836582829
 30
0.0
 11
101.2897584447
 21
71.2836582829
 31
0.0
  0
LINE
  5
1E3
330
1F
100
AcDbEntity
  8
0
  6
Continuous
 62
     7
370
    25
100
AcDbLine
 10
101.2897584447
 20
62.2836586704
 30
0.0
 11
115.9006543317
 21
62.2836586704
 31
0.0
  0
LINE
  5
1E4
330
1F
100
AcDbEntity
  8
0
  6
Continuous
 62
     7
370
    25
100
AcDbLine
 10
110.6610393477
 20
65.1024297263
 30
0.0
 11
110.2877511735
 21
65.4757180168
 31
0.0
  0
ARC
  5
1E5
330
1F
100
AcDbEntity
  8
0
  6
Continuous
 62
     7
370
    25
100
AcDbCircle
 10
109.784856797
 20
65.9786123361
 30
0.0
 40
1.239109388553836
100
AcDbArc
 50
45.0
 51
315.0
  0
ELLIPSE
  5
1E6
330
1F
100
AcDbEntity
  8
0
  6
Continuous
 62
     7
370
    25
100
AcDbEllipse
 10
103.9352922539
 20
64.7842104891
 30
0.0
 11
0.0678412947923448
 21
0.0
 31
0.0
210
0.0
220
0.0
230
1.0
 40
0.9533039403
 41
3.605240262580551
 42
5.462183310226921
  0
LINE
  5
1E7
330
1F
100
AcDbEntity
  8
0
  6
Continuous
 62
     7
370
    25
100
AcDbLine
 10
103.2375981891
 20
65.9698253298
 30
0.0
 11
103.8746130512
 21
64.7552877349
 31
0.0
  0
LINE
  5
1E8
330
1F
100
AcDbEntity
  8
0
  6
Continuous
 62
     7
370
    25
100
AcDbLine
 10
113.3347549335
 20
66.2326123133
 30
0.0
 11
111.7942763818
 21
66.2326123133
 31
0.0
  0
ELLIPSE
  5
1E9
330
1F
100
AcDbEntity
  8
0
  6
Continuous
 62
     7
370
    25
100
AcDbEllipse
 10
107.5384114744
 20
66.3945273914
 30
0.0
 11
0.5427303583402932
 21
3.410605131648481E-13
 31
0.0
210
0.0
220
0.0
230
1.0
 40
0.9533039404
 41
3.470145824142437
 42
5.252469180527923
  0
ELLIPSE
  5
1EA
330
1F
100
AcDbEntity
  8
0
  6
Continuous
 62
     7
370
    25
100
AcDbEllipse
 10
103.5502278632
 20
66.3951840785
 30
0.0
 11
-0.5427303583406484
 21
3.552713678800501E-13
 31
0.0
210
0.0
220
0.0
230
1.0
 40
0.9533039403
 41
1.047197551196591
 42
2.81303948303929
  0
ELLIPSE
  5
1EB
330
1F
100
AcDbEntity
  8
0
  6
Continuous
 62
     7
370
    25
100
AcDbEllipse
 10
105.5442022505
 20
68.8356642279
 30
0.0
 11
0.5215299537176463
 21
0.0
 31
0.0
210
0.0
220
0.0
230
1.0
 40
0.9533039403
 41
0.4357918987553248
 42
2.705800754834483
  0
LINE
  5
1EC
330
1F
100
AcDbEntity
  8
0
  6
Continuous
 62
     7
370
    25
100
AcDbLine
 10
105.0714165763
 20
69.0455364679
 30
0.0
 11
104.0639276476
 21
66.2282367853
 31
0.0
  0
LINE
  5
1ED
330
1F
100
AcDbEntity
  8
0
  6
Continuous
 62
     7
370
    25
100
AcDbLine
 10
101.4656047196
 20
71.7836583649
 30
0.0
 11
115.7248080568
 21
71.7836583649
 31
0.0
  0
LINE
  5
1EE
330
1F
100
AcDbEntity
  8
0
  6
Continuous
 62
     7
370
    25
100
AcDbLine
 10
105.3012627968
 20
66.2285188596
 30
0.0
 11
105.7871417002
 21
66.2285188596
 31
0.0
  0
ELLIPSE
  5
1EF
330
1F
100
AcDbEntity
  8
0
  6
Continuous
 62
     7
370
    25
100
AcDbEllipse
 10
105.3012629072
 20
66.2931922265
 30
0.0
 11
0.06784129479235901
 21
0.0
 31
0.0
210
0.0
220
0.0
230
1.0
 40
0.9533039403
 41
2.798568711307252
 42
4.712388980384703
  0
LINE
  5
1F0
330
1F
100
AcDbEntity
  8
0
  6
Continuous
 62
     7
370
    25
100
AcDbLine
 10
105.4803132871
 20
66.9634103256
 30
0.0
 11
105.2373738353
 21
66.3149442266
 31
0.0
  0
ELLIPSE
  5
1F1
330
1F
100
AcDbEntity
  8
0
  6
Continuous
 62
     7
370
    25
100
AcDbEllipse
 10
105.5442022521
 20
66.9416583201
 30
0.0
 11
0.06784129479272849
 21
0.0
 31
0.0
210
0.0
220
0.0
230
1.0
 40
0.9533039403
 41
0.3430239385580195
 42
2.798568711308806
  0
LINE
  5
1F2
330
1F
100
AcDbEntity
  8
0
  6
Continuous
 62
     7
370
    25
100
AcDbLine
 10
105.8510306617
 20
66.3149442266
 30
0.0
 11
105.6080912099
 21
66.9634103256
 31
0.0
  0
ELLIPSE
  5
1F3
330
1F
100
AcDbEntity
  8
0
  6
Continuous
 62
     7
370
    25
100
AcDbEllipse
 10
105.7871415942
 20
66.2931922265
 30
0.0
 11
-0.06784129479237322
 21
0.0
 31
0.0
210
0.0
220
0.0
230
1.0
 40
0.9533039403
 41
1.570796326794897
 42
3.484616592149655
  0
LINE
  5
1F4
330
1F
100
AcDbEntity
  8
0
  6
Continuous
 62
     7
370
    25
100
AcDbLine
 10
115.7248080568
 20
61.7836585884
 30
0.0
 11
101.4656047196
 21
61.7836585884
 31
0.0
  0
ARC
  5
1F5
330
1F
100
AcDbEntity
  8
0
  6
Continuous
 62
     7
370
    25
100
AcDbCircle
 10
115.5952063882
 20
61.2836584767
 30
0.0
 40
0.5
100
AcDbArc
 50
0.0
 51
90.0
  0
ARC
  5
1F6
330
1F
100
AcDbEntity
  8
0
  6
Continuous
 62
     7
370
    25
100
AcDbCircle
 10
101.5952063882
 20
61.2836584767
 30
0.0
 40
0.5
100
AcDbArc
 50
90.0
 51
180.0
  0
ARC
  5
1F7
330
1F
100
AcDbEntity
  8
0
  6
Continuous
 62
     7
370
    25
100
AcDbCircle
 10
101.5952063882
 20
72.2836584767
 30
0.0
 40
0.5
100
AcDbArc
 50
180.0
 51
270.0
  0
ARC
  5
1F8
330
1F
100
AcDbEntity
  8
0
  6
Continuous
 62
     7
370
    25
100
AcDbCircle
 10
115.5952063882
 20
72.2836584767
 30
0.0
 40
0.5
100
AcDbArc
 50
270.0
 51
0.0
  0
LWPOLYLINE
  5
1F9
330
1F
100
AcDbEntity
  8
0
  6
Continuous
 62
     7
370
    25
100
AcDbPolyline
 90
        9
 70
   128
 43
0.0
 10
115.5952066043
 20
71.9781031517
 10
115.6927514681
 20
71.9839742092
 10
115.7865482242
 20
72.0013620016
 10
115.8729917229
 20
72.0295983051
 10
115.9487599367
 20
72.0675981288
 10
116.0109410853
 20
72.1139006932
 10
116.0571463266
 20
72.166727638
 10
116.0855991625
 20
72.2240477485
 10
116.0952062206
 20
72.2836584469
  0
LINE
  5
1FA
330
1F
100
AcDbEntity
  8
0
  6
Continuous
 62
     7
370
    25
100
AcDbLine
 10
115.5952066043
 20
71.7836583649
 30
0.0
 11
115.5952066043
 21
71.9781031517
 31
0.0
  0
LWPOLYLINE
  5
1FB
330
1F
100
AcDbEntity
  8
0
  6
Continuous
 62
     7
370
    25
100
AcDbPolyline
 90
        9
 70
   128
 43
0.0
 10
101.5952061721
 20
61.5892138017
 10
101.4976613083
 20
61.5833427441
 10
101.4038645522
 20
61.5659549517
 10
101.3174210535
 20
61.5377186482
 10
101.2416528398
 20
61.4997188245
 10
101.1794716911
 20
61.4534162601
 10
101.1332664498
 20
61.4005893153
 10
101.1048136139
 20
61.3432692048
 10
101.0952065558
 20
61.2836585065
  0
LINE
  5
1FC
330
1F
100
AcDbEntity
  8
0
  6
Continuous
 62
     7
370
    25
100
AcDbLine
 10
101.5952061721
 20
61.5892138017
 30
0.0
 11
101.5952061721
 21
61.7836585884
 31
0.0
  0
LWPOLYLINE
  5
1FD
330
1F
100
AcDbEntity
  8
0
  6
Continuous
 62
     7
370
    25
100
AcDbPolyline
 90
        9
 70
   128
 43
0.0
 10
101.0952065558
 20
72.2836584469
 10
101.1048136139
 20
72.2240477485
 10
101.1332664498
 20
72.166727638
 10
101.1794716911
 20
72.1139006932
 10
101.2416528398
 20
72.0675981288
 10
101.3174210535
 20
72.0295983051
 10
101.4038645522
 20
72.0013620016
 10
101.4976613083
 20
71.9839742092
 10
101.5952061721
 20
71.9781031517
  0
LINE
  5
1FE
330
1F
100
AcDbEntity
  8
0
  6
Continuous
 62
     7
370
    25
100
AcDbLine
 10
101.5952061721
 20
71.7836583649
 30
0.0
 11
101.5952061721
 21
71.9781031517
 31
0.0
  0
LINE
  5
1FF
330
1F
100
AcDbEntity
  8
0
  6
Continuous
 62
     7
370
    25
100
AcDbLine
 10
115.5952066043
 20
61.5892138017
 30
0.0
 11
101.5952061721
 21
61.5892138017
 31
0.0
  0
LINE
  5
200
330
1F
100
AcDbEntity
  8
0
  6
Continuous
 62
     7
370
    25
100
AcDbLine
 10
115.5952066043
 20
61.5892138017
 30
0.0
 11
115.5952066043
 21
61.7836585884
 31
0.0
  0
LWPOLYLINE
  5
201
330
1F
100
AcDbEntity
  8
0
  6
Continuous
 62
     7
370
    25
100
AcDbPolyline
 90
        9
 70
   128
 43
0.0
 10
116.0952062206
 20
61.2836585065
 10
116.0855991625
 20
61.3432692048
 10
116.0571463266
 20
61.4005893153
 10
116.0109410853
 20
61.4534162601
 10
115.9487599367
 20
61.4997188245
 10
115.8729917229
 20
61.5377186482
 10
115.7865482242
 20
61.5659549517
 10
115.6927514681
 20
61.5833427441
 10
115.5952066043
 20
61.5892138017
  0
LINE
  5
202
330
1F
100
AcDbEntity
  8
0
  6
Continuous
 62
     7
370
    25
100
AcDbLine
 10
101.5952061721
 20
71.9781031517
 30
0.0
 11
115.5952066043
 21
71.9781031517
 31
0.0
  0
SPLINE
  5
203
330
1F
100
AcDbEntity
  8
0
  6
Continuous
 62
     7
370
    25
100
AcDbSpline
210
0.0
220
0.0
230
1.0
 70
    11
 71
     3
 72
    26
 73
    22
 74
     0
 42
0.000000001
 43
0.00000001
 40
0.0
 40
0.0
 40
0.0
 40
0.0
 40
0.125
 40
0.125
 40
0.1875
 40
0.1875
 40
0.25
 40
0.25
 40
0.3125
 40
0.3125
 40
0.375
 40
0.375
 40
0.5
 40
0.5
 40
0.625
 40
0.625
 40
0.75
 40
0.75
 40
0.875
 40
0.875
 40
1.0
 40
1.0
 40
1.0
 40
1.0
 10
109.1085253570548
 20
74.7836584766585
 30
0.0
 10
109.1085253570548
 20
74.92277750788732
 30
0.0
 10
109.0557293859058
 20
75.05850521086279
 30
0.0
 10
108.9142737960285
 20
75.21152394735857
 30
0.0
 10
108.8577198596566
 20
75.25302684837911
 30
0.0
 10
108.7321757082132
 20
75.31022674217277
 30
0.0
 10
108.6630240951052
 20
75.32551073091712
 30
0.0
 10
108.5258657203617
 20
75.32528985715348
 30
0.0
 10
108.4567511375556
 20
75.3097297958658
 30
0.0
 10
108.3319913689245
 20
75.2525239613718
 30
0.0
 10
108.27536028059
 20
75.21077253410485
 30
0.0
 10
108.1352466540671
 20
75.0589316658214
 30
0.0
 10
108.0819261201205
 20
74.92287933855354
 30
0.0
 10
108.0818487615444
 20
74.64474664485019
 30
0.0
 10
108.1355371435661
 20
74.5079446348302
 30
0.0
 10
108.3222319578738
 20
74.30587583116512
 30
0.0
 10
108.4581131672373
 20
74.24170607147958
 30
0.0
 10
108.7337443012758
 20
74.24212712428059
 30
0.0
 10
108.8687193396895
 20
74.3063958067039
 30
0.0
 10
109.0545668167555
 20
74.50767335792803
 30
0.0
 10
109.1085253570548
 20
74.64453944542967
 30
0.0
 10
109.1085253570548
 20
74.7836584766585
 30
0.0
  0
SPLINE
  5
204
330
1F
100
AcDbEntity
  8
0
  6
Continuous
 62
     7
370
    25
100
AcDbSpline
210
0.0
220
0.0
230
1.0
 70
    11
 71
     3
 72
    38
 73
    34
 74
     0
 42
0.000000001
 43
0.00000001
 40
0.0
 40
0.0
 40
0.0
 40
0.0
 40
0.0625
 40
0.0625
 40
0.125
 40
0.125
 40
0.1874999999999999
 40
0.1874999999999999
 40
0.2499999999999999
 40
0.2499999999999999
 40
0.3125
 40
0.3125
 40
0.375
 40
0.375
 40
0.4375000000000001
 40
0.4375000000000001
 40
0.5000000000000001
 40
0.5000000000000001
 40
0.5625000000000001
 40
0.5625000000000001
 40
0.6250000000000001
 40
0.6250000000000001
 40
0.6875000000000001
 40
0.6875000000000001
 40
0.75
 40
0.75
 40
0.8125
 40
0.8125
 40
0.875
 40
0.875
 40
0.9375
 40
0.9375
 40
1.0
 40
1.0
 40
1.0
 40
1.0
 10
107.5952063882064
 20
74.7836584766585
 30
0.0
 10
107.5952063882064
 20
74.65127256174819
 30
0.0
 10
107.6213549393492
 20
74.52138523526948
 30
0.0
 10
107.721820608807
 20
74.2793062406836
 30
0.0
 10
107.7961054752036
 20
74.1685248866276
 30
0.0
 10
107.9802546549383
 20
73.98441760652182
 30
0.0
 10
108.0916302775325
 20
73.90994893522583
 30
0.0
 10
108.3321787820664
 20
73.81012175909713
 30
0.0
 10
108.4639366780538
 20
73.78373383902382
 30
0.0
 10
108.7253253702177
 20
73.783583445337
 30
0.0
 10
108.8564974408094
 20
73.80952326574703
 30
0.0
 10
109.0989351268091
 20
73.90989089817232
 30
0.0
 10
109.2089892949587
 20
73.98327980131754
 30
0.0
 10
109.3952426123696
 20
74.16942926814708
 30
0.0
 10
109.4686689402627
 20
74.27946778554708
 30
0.0
 10
109.5690336878916
 20
74.52135050263577
 30
0.0
 10
109.5951549521878
 20
74.65262502114709
 30
0.0
 10
109.5952576696731
 20
74.9139056705196
 30
0.0
 10
109.5690140415794
 20
75.04572107403253
 30
0.0
 10
109.4693456847812
 20
75.286508992114
 30
0.0
 10
109.3950648928127
 20
75.397841193512
 30
0.0
 10
109.2108781523791
 20
75.58237138870699
 30
0.0
 10
109.1004545783165
 20
75.65655771798077
 30
0.0
 10
108.8580698630765
 20
75.75737897695092
 30
0.0
 10
108.7281456835101
 20
75.78355320625596
 30
0.0
 10
108.4638555739932
 20
75.78376311624288
 30
0.0
 10
108.3336218153312
 20
75.75767539387971
 30
0.0
 10
108.0917291441605
 20
75.6575269499011
 30
0.0
 10
107.9807132187539
 20
75.58324065473595
 30
0.0
 10
107.7965454827739
 20
75.39934855529916
 30
0.0
 10
107.7219468112718
 20
75.28801840474513
 30
0.0
 10
107.6218959977267
 20
75.04752986493651
 30
0.0
 10
107.5952063882064
 20
74.91604439156879
 30
0.0
 10
107.5952063882064
 20
74.78365847665849
 30
0.0
  0
LINE
  5
205
330
1F
100
AcDbEntity
  8
0
  6
Continuous
 62
     7
370
    25
100
AcDbLine
 10
127.240258255
 20
66.7836584767
 30
0.0
 11
127.240258255
 21
62.001378989
 31
0.0
  0
LINE
  5
206
330
1F
100
AcDbEntity
  8
0
  6
Continuous
 62
     7
370
    25
100
AcDbLine
 10
127.240258255
 20
71.5659379644
 30
0.0
 11
127.240258255
 21
66.7836584767
 31
0.0
  0
LINE
  5
207
330
1F
100
AcDbEntity
  8
0
  6
Continuous
 62
     7
370
    25
100
AcDbLine
 10
128.5952059412
 20
70.7836586666
 30
0.0
 11
128.5952059412
 21
62.7836582867
 31
0.0
  0
LINE
  5
208
330
1F
100
AcDbEntity
  8
0
  6
Continuous
 62
     1
370
    25
100
AcDbLine
 10
75.89520792
 20
66.7836584767
 30
0.0
 11
75.89520792
 21
61.2836585065
 31
0.0
  0
LINE
  5
209
330
1F
100
AcDbEntity
  8
0
  6
Continuous
 62
     1
370
    25
100
AcDbLine
 10
75.89520792
 20
72.2836584469
 30
0.0
 11
75.89520792
 21
66.7836584767
 31
0.0
  0
LINE
  5
20A
330
1F
100
AcDbEntity
  8
0
  6
Continuous
 62
     1
370
    25
100
AcDbLine
 10
115.5952066043
 20
71.9781031517
 30
0.0
 11
115.5952066043
 21
75.2836589386
 31
0.0
  0
LINE
  5
20B
330
1F
100
AcDbEntity
  8
0
  6
Continuous
 62
     1
370
    25
100
AcDbLine
 10
101.5952061721
 20
61.5892138017
 30
0.0
 11
101.5952061721
 21
58.2836580147
 31
0.0
  0
LINE
  5
20C
330
1F
100
AcDbEntity
  8
0
  6
Continuous
 62
     1
370
    25
100
AcDbLine
 10
101.5952061721
 20
75.2836589386
 30
0.0
 11
101.5952061721
 21
71.9781031517
 31
0.0
  0
LINE
  5
20D
330
1F
100
AcDbEntity
  8
0
  6
Continuous
 62
     1
370
    25
100
AcDbLine
 10
115.5952066043
 20
58.2836580147
 30
0.0
 11
115.5952066043
 21
61.5892138017
 31
0.0
  0
SPLINE
  5
20E
330
1F
100
AcDbEntity
  8
0
  6
Continuous
 62
     1
370
    25
100
AcDbSpline
210
0.0
220
0.0
230
1.0
 70
     8
 71
     3
 72
    32
 73
    28
 74
     0
 42
0.000000001
 43
0.00000001
 40
0.0
 40
0.0
 40
0.0
 40
0.0
 40
0.0401450221632395
 40
0.0814946536401461
 40
0.1230108409586373
 40
0.1655335799748644
 40
0.2131026898219141
 40
0.2616870022954625
 40
0.3186512825243805
 40
0.3479268726644023
 40
0.3771976361574257
 40
0.4187548088698845
 40
0.4612652034728578
 40
0.5031787625365712
 40
0.5464778243509152
 40
0.5837150066472543
 40
0.6216789014452945
 40
0.6496079967307147
 40
0.6775412832743115
 40
0.7348752080451525
 40
0.7907587104420757
 40
0.8195305303078511
 40
0.8482972711327345
 40
0.8930422563907552
 40
0.9390687309218955
 40
0.9835429324097366
 40
1.0
 40
1.0
 40
1.0
 40
1.0
 10
114.9952062265288
 20
75.28365893859448
 30
0.0
 10
114.9838875614647
 20
75.27604023525394
 30
0.0
 10
114.9609105984602
 20
75.26057421838638
 30
0.0
 10
114.7762338912587
 20
75.137354105899
 30
0.0
 10
114.4856539008767
 20
74.94733103851962
 30
0.0
 10
114.0747139389761
 20
74.68679603352348
 30
0.0
 10
113.54208181149
 20
74.3649915269394
 30
0.0
 10
112.8536372115012
 20
73.9791320482575
 30
0.0
 10
112.1616812171641
 20
73.63496306590883
 30
0.0
 10
111.5157626220408
 20
73.36092172092073
 30
0.0
 10
110.9255765885937
 20
73.14383528659273
 30
0.0
 10
110.2176838393416
 20
72.93828555507996
 30
0.0
 10
109.3875868518262
 20
72.7888483622092
 30
0.0
 10
108.52079195949
 20
72.74126535991711
 30
0.0
 10
107.6917141987924
 20
72.80473386901106
 30
0.0
 10
106.9159718987751
 20
72.95495934231703
 30
0.0
 10
106.2726551928926
 20
73.14236817223701
 30
0.0
 10
105.7178035986227
 20
73.34430274012033
 30
0.0
 10
105.0810742750014
 20
73.61073427294598
 30
0.0
 10
104.3509731737176
 20
73.97016074666053
 30
0.0
 10
103.7120949106293
 20
74.32912742102016
 30
0.0
 10
103.2684854524289
 20
74.59427039785105
 30
0.0
 10
102.9135556946737
 20
74.8140188454411
 30
0.0
 10
102.5702329975284
 20
75.03456890318213
 30
0.0
 10
102.3135756587248
 20
75.20418557604638
 30
0.0
 10
102.190497878624
 20
75.28681504259447
 30
0.0
 10
102.2081245516998
 20
75.27498968882715
 30
0.0
 10
102.2128853806566
 20
75.27179575163903
 30
0.0
  0
SPLINE
  5
20F
330
1F
100
AcDbEntity
  8
0
  6
Continuous
 62
     1
370
    25
100
AcDbSpline
210
0.0
220
0.0
230
1.0
 70
     8
 71
     3
 72
    33
 73
    29
 74
     0
 42
0.000000001
 43
0.00000001
 40
0.0
 40
0.0
 40
0.0
 40
0.0
 40
0.0148211240469429
 40
0.061906063969509
 40
0.1074359711031479
 40
0.1543276768856095
 40
0.1825886223515991
 40
0.2108538897730015
 40
0.2399561671799298
 40
0.2690606064953306
 40
0.3246391278734068
 40
0.3531838695855392
 40
0.3817220214769791
 40
0.4180177569521428
 40
0.4550555140468025
 40
0.4953465722858043
 40
0.5372537212750658
 40
0.5776250139646001
 40
0.6191776771117481
 40
0.6475263589738919
 40
0.6758813295767765
 40
0.7341827319504398
 40
0.7823042633568378
 40
0.831370735690596
 40
0.8736529247897509
 40
0.9168721031320799
 40
0.9578509921635352
 40
1.0
 40
1.0
 40
1.0
 40
1.0
 10
102.7097115152787
 20
75.77247942436519
 30
0.0
 10
102.705767937572
 20
75.77551855099371
 30
0.0
 10
102.6892960847618
 20
75.7882126197351
 30
0.0
 10
102.8000693310061
 20
75.70275950208139
 30
0.0
 10
103.0375007421042
 20
75.52252082774008
 30
0.0
 10
103.3503238046979
 20
75.29152163847907
 30
0.0
 10
103.6754338910004
 20
75.06023313114943
 30
0.0
 10
103.9786771699352
 20
74.85169724413136
 30
0.0
 10
104.3168126062491
 20
74.62875865071148
 30
0.0
 10
104.8014909773296
 20
74.32620267339207
 30
0.0
 10
105.3395904296491
 20
74.02113865998857
 30
0.0
 10
105.9261123826981
 20
73.73735443866269
 30
0.0
 10
106.4413849675418
 20
73.52121248192152
 30
0.0
 10
107.0388804648883
 20
73.32034694730524
 30
0.0
 10
107.7449706796024
 20
73.16186013067248
 30
0.0
 10
108.5163439926651
 20
73.091763611562
 30
0.0
 10
109.3131931725657
 20
73.14006456513084
 30
0.0
 10
110.0891331148433
 20
73.29976622637793
 30
0.0
 10
110.738028797377
 20
73.51586830488968
 30
0.0
 10
111.2790763375641
 20
73.7441354451137
 30
0.0
 10
111.876778938981
 20
74.03435075874287
 30
0.0
 10
112.5141249335837
 20
74.39825250005072
 30
0.0
 10
113.1535224890342
 20
74.809519089999
 30
0.0
 10
113.6415651486621
 20
75.14810728676392
 30
0.0
 10
114.0233869114913
 20
75.42599058242848
 30
0.0
 10
114.2897059928742
 20
75.62599915707445
 30
0.0
 10
114.4624823880878
 20
75.75835550967994
 30
0.0
 10
114.4841966519423
 20
75.77514511849212
 30
0.0
 10
114.4952066102337
 20
75.7836580892283
 30
0.0
  0
LINE
  5
210
330
1F
100
AcDbEntity
  8
0
  6
Continuous
 62
     7
370
     0
100
AcDbLine
 10
128.1374150006
 20
62.5193524958
 30
0.0
 11
118.5952063882
 21
62.2211584767
 31
0.0
  0
LINE
  5
211
330
1F
100
AcDbEntity
  8
0
  6
Continuous
 62
     7
370
     0
100
AcDbLine
 10
128.1374150006
 20
71.0479644575
 30
0.0
 11
118.5952063882
 21
71.3461584767
 31
0.0
  0
LINE
  5
212
330
1F
100
AcDbEntity
  8
0
  6
Continuous
 62
     7
370
     0
100
AcDbLine
 10
118.5952063882
 20
71.8360959767
 30
0.0
 11
118.5952063882
 21
61.7312209767
 31
0.0
  0
LINE
  5
213
330
1F
100
AcDbEntity
  8
0
  6
Continuous
 62
     7
370
    25
100
AcDbLine
 10
98.5952066117
 20
129.7474426404
 30
0.0
 11
95.59520612
 21
129.7474426404
 31
0.0
  0
LINE
  5
214
330
1F
100
AcDbEntity
  8
0
  6
Continuous
 62
     7
370
    25
100
AcDbLine
 10
95.59520612
 20
113.7474418805
 30
0.0
 11
98.5952066117
 21
113.7474418805
 31
0.0
  0
LINE
  5
215
330
1F
100
AcDbEntity
  8
0
  6
Continuous
 62
     7
370
    25
100
AcDbLine
 10
85.3598294639
 20
128.3474422247
 30
0.0
 11
80.5952055239
 21
127.2474422306
 31
0.0
  0
LINE
  5
216
330
1F
100
AcDbEntity
  8
0
  6
Continuous
 62
     7
370
    25
100
AcDbLine
 10
80.5952055239
 20
116.2474422902
 30
0.0
 11
85.3598294639
 21
115.1474422962
 31
0.0
  0
LINE
  5
217
330
1F
100
AcDbEntity
  8
0
  6
Continuous
 62
     7
370
    25
100
AcDbLine
 10
87.5952066713
 20
115.1474422962
 30
0.0
 11
88.7452056491
 21
116.2974422053
 31
0.0
  0
LINE
  5
218
330
1F
100
AcDbEntity
  8
0
  6
Continuous
 62
     7
370
    25
100
AcDbLine
 10
88.7452056491
 20
127.1974423156
 30
0.0
 11
87.5952066713
 21
128.3474422247
 31
0.0
  0
LINE
  5
219
330
1F
100
AcDbEntity
  8
0
  6
Continuous
 62
     7
370
    25
100
AcDbLine
 10
87.5952066713
 20
128.3474422247
 30
0.0
 11
85.3598294639
 21
128.3474422247
 31
0.0
  0
LINE
  5
21A
330
1F
100
AcDbEntity
  8
0
  6
Continuous
 62
     7
370
    25
100
AcDbLine
 10
85.3598294639
 20
115.1474422962
 30
0.0
 11
87.5952066713
 21
115.1474422962
 31
0.0
  0
LINE
  5
21B
330
1F
100
AcDbEntity
  8
0
  6
Continuous
 62
     7
370
    25
100
AcDbLine
 10
95.59520612
 20
128.3474422247
 30
0.0
 11
91.6952071571
 21
128.3474422247
 31
0.0
  0
LINE
  5
21C
330
1F
100
AcDbEntity
  8
0
  6
Continuous
 62
     7
370
    25
100
AcDbLine
 10
91.6952071571
 20
115.1474422962
 30
0.0
 11
95.59520612
 21
115.1474422962
 31
0.0
  0
LINE
  5
21D
330
1F
100
AcDbEntity
  8
0
  6
Continuous
 62
     7
370
    25
100
AcDbLine
 10
91.6952071571
 20
128.3474422247
 30
0.0
 11
90.5452063167
 21
127.1974423156
 31
0.0
  0
LINE
  5
21E
330
1F
100
AcDbEntity
  8
0
  6
Continuous
 62
     7
370
    25
100
AcDbLine
 10
90.5452063167
 20
116.2974422053
 30
0.0
 11
91.6952071571
 21
115.1474422962
 31
0.0
  0
LINE
  5
21F
330
1F
100
AcDbEntity
  8
0
  6
Continuous
 62
     7
370
    25
100
AcDbLine
 10
80.5952055239
 20
127.2474422306
 30
0.0
 11
75.89520792
 21
127.2474422306
 31
0.0
  0
LINE
  5
220
330
1F
100
AcDbEntity
  8
0
  6
Continuous
 62
     7
370
    25
100
AcDbLine
 10
75.89520792
 20
116.2474422902
 30
0.0
 11
80.5952055239
 21
116.2474422902
 31
0.0
  0
ARC
  5
221
330
1F
100
AcDbEntity
  8
0
  6
Continuous
 62
     7
370
    25
100
AcDbCircle
 10
75.8952063882
 20
116.5474422604
 30
0.0
 40
0.3000000000000114
100
AcDbArc
 50
180.0
 51
270.0
  0
ARC
  5
222
330
1F
100
AcDbEntity
  8
0
  6
Continuous
 62
     7
370
    25
100
AcDbCircle
 10
75.8952063882
 20
126.9474422604
 30
0.0
 40
0.2999999999999972
100
AcDbArc
 50
90.0
 51
180.0
  0
LINE
  5
223
330
1F
100
AcDbEntity
  8
0
  6
Continuous
 62
     7
370
    25
100
AcDbLine
 10
90.5452063167
 20
127.1974423156
 30
0.0
 11
88.7452056491
 21
127.1974423156
 31
0.0
  0
LINE
  5
224
330
1F
100
AcDbEntity
  8
0
  6
Continuous
 62
     7
370
    25
100
AcDbLine
 10
88.7452056491
 20
116.2974422053
 30
0.0
 11
90.5452063167
 21
116.2974422053
 31
0.0
  0
LINE
  5
225
330
1F
100
AcDbEntity
  8
0
  6
Continuous
 62
     7
370
    25
100
AcDbLine
 10
118.0952060827
 20
131.7474420369
 30
0.0
 11
116.4771728077
 21
131.7474420369
 31
0.0
  0
LINE
  5
226
330
1F
100
AcDbEntity
  8
0
  6
Continuous
 62
     7
370
    25
100
AcDbLine
 10
116.4771728077
 20
111.747442484
 30
0.0
 11
118.0952060827
 21
111.747442484
 31
0.0
  0
ARC
  5
227
330
1F
100
AcDbEntity
  8
0
  6
Continuous
 62
     7
370
    25
100
AcDbCircle
 10
117.5952063882
 20
130.7474422604
 30
0.0
 40
1.500000000000012
100
AcDbArc
 50
138.1896851042
 51
180.0
  0
ARC
  5
228
330
1F
100
AcDbEntity
  8
0
  6
Continuous
 62
     7
370
    25
100
AcDbCircle
 10
117.5952063882
 20
112.7474422604
 30
0.0
 40
1.5
100
AcDbArc
 50
180.0
 51
221.8103148958
  0
LINE
  5
229
330
1F
100
AcDbEntity
  8
0
  6
Continuous
 62
     7
370
    25
100
AcDbLine
 10
98.845206187
 20
131.7474420369
 30
0.0
 11
98.5952066117
 21
131.4974424616
 31
0.0
  0
LINE
  5
22A
330
1F
100
AcDbEntity
  8
0
  6
Continuous
 62
     7
370
    25
100
AcDbLine
 10
98.5952066117
 20
111.9974420593
 30
0.0
 11
98.845206187
 21
111.747442484
 31
0.0
  0
LINE
  5
22B
330
1F
100
AcDbEntity
  8
0
  6
Continuous
 62
     7
370
    25
100
AcDbLine
 10
118.0952060827
 20
111.747442484
 30
0.0
 11
118.5952061647
 21
112.2474425659
 31
0.0
  0
LINE
  5
22C
330
1F
100
AcDbEntity
  8
0
  6
Continuous
 62
     7
370
    25
100
AcDbLine
 10
118.5952061647
 20
131.247441955
 30
0.0
 11
118.0952060827
 21
131.7474420369
 31
0.0
  0
LINE
  5
22D
330
1F
100
AcDbEntity
  8
0
  6
Continuous
 62
     7
370
    25
100
AcDbLine
 10
98.845206187
 20
111.747442484
 30
0.0
 11
100.7132399687
 21
111.747442484
 31
0.0
  0
LINE
  5
22E
330
1F
100
AcDbEntity
  8
0
  6
Continuous
 62
     7
370
    25
100
AcDbLine
 10
100.7132399687
 20
131.7474420369
 30
0.0
 11
98.845206187
 21
131.7474420369
 31
0.0
  0
ARC
  5
22F
330
1F
100
AcDbEntity
  8
0
  6
Continuous
 62
     7
370
    25
100
AcDbCircle
 10
99.5952063882
 20
112.7474422604
 30
0.0
 40
1.5
100
AcDbArc
 50
318.1896851042
 51
0.0
  0
ARC
  5
230
330
1F
100
AcDbEntity
  8
0
  6
Continuous
 62
     7
370
    25
100
AcDbCircle
 10
99.5952063882
 20
130.7474422604
 30
0.0
 40
1.500000000000012
100
AcDbArc
 50
0.0
 51
41.8103148958
  0
LINE
  5
231
330
1F
100
AcDbEntity
  8
0
  6
Continuous
 62
     7
370
    25
100
AcDbLine
 10
118.5952061647
 20
116.6950047203
 30
0.0
 11
127.240258255
 21
116.9651627727
 31
0.0
  0
LINE
  5
232
330
1F
100
AcDbEntity
  8
0
  6
Continuous
 62
     7
370
    25
100
AcDbLine
 10
127.240258255
 20
126.5297217481
 30
0.0
 11
118.5952061647
 21
126.7998798006
 31
0.0
  0
LINE
  5
233
330
1F
100
AcDbEntity
  8
0
  6
Continuous
 62
     7
370
    25
100
AcDbLine
 10
127.240258255
 20
116.9651627727
 30
0.0
 11
128.5952059412
 21
117.7474420705
 31
0.0
  0
LINE
  5
234
330
1F
100
AcDbEntity
  8
0
  6
Continuous
 62
     7
370
    25
100
AcDbLine
 10
128.5952059412
 20
125.7474424504
 30
0.0
 11
127.240258255
 21
126.5297217481
 31
0.0
  0
LINE
  5
235
330
1F
100
AcDbEntity
  8
0
  6
Continuous
 62
     7
370
    25
100
AcDbLine
 10
110.5952064832
 20
123.6224422185
 30
0.0
 11
113.8452063174
 21
121.7474422604
 31
0.0
  0
LINE
  5
236
330
1F
100
AcDbEntity
  8
0
  6
Continuous
 62
     7
370
    25
100
AcDbLine
 10
113.8452063174
 20
121.7474422604
 30
0.0
 11
110.5952064832
 21
119.8724423024
 31
0.0
  0
LINE
  5
237
330
1F
100
AcDbEntity
  8
0
  6
Continuous
 62
     7
370
    25
100
AcDbLine
 10
110.5952064832
 20
121.2474422367
 30
0.0
 11
110.5952064832
 21
119.8724423024
 31
0.0
  0
LINE
  5
238
330
1F
100
AcDbEntity
  8
0
  6
Continuous
 62
     7
370
    25
100
AcDbLine
 10
110.5952064832
 20
121.2474422367
 30
0.0
 11
106.5952062932
 21
121.2474422367
 31
0.0
  0
LINE
  5
239
330
1F
100
AcDbEntity
  8
0
  6
Continuous
 62
     7
370
    25
100
AcDbLine
 10
106.5952062932
 20
119.8724423024
 30
0.0
 11
106.5952062932
 21
121.2474422367
 31
0.0
  0
LINE
  5
23A
330
1F
100
AcDbEntity
  8
0
  6
Continuous
 62
     7
370
    25
100
AcDbLine
 10
103.345206459
 20
121.7474422604
 30
0.0
 11
106.5952062932
 21
119.8724423024
 31
0.0
  0
LINE
  5
23B
330
1F
100
AcDbEntity
  8
0
  6
Continuous
 62
     7
370
    25
100
AcDbLine
 10
106.5952062932
 20
123.6224422185
 30
0.0
 11
103.345206459
 21
121.7474422604
 31
0.0
  0
LINE
  5
23C
330
1F
100
AcDbEntity
  8
0
  6
Continuous
 62
     7
370
    25
100
AcDbLine
 10
106.5952062932
 20
122.2474422842
 30
0.0
 11
106.5952062932
 21
123.6224422185
 31
0.0
  0
LINE
  5
23D
330
1F
100
AcDbEntity
  8
0
  6
Continuous
 62
     7
370
    25
100
AcDbLine
 10
110.5952064832
 20
122.2474422842
 30
0.0
 11
106.5952062932
 21
122.2474422842
 31
0.0
  0
LINE
  5
23E
330
1F
100
AcDbEntity
  8
0
  6
Continuous
 62
     7
370
    25
100
AcDbLine
 10
110.5952064832
 20
122.2474422842
 30
0.0
 11
110.5952064832
 21
123.6224422185
 31
0.0
  0
SPLINE
  5
23F
330
1F
100
AcDbEntity
  8
0
  6
Continuous
 62
     7
370
    25
100
AcDbSpline
210
0.0
220
0.0
230
1.0
 70
     8
 71
     3
 72
    15
 73
    11
 74
     0
 42
0.000000001
 43
0.00000001
 40
0.0
 40
0.0
 40
0.0
 40
0.0
 40
0.0081668383054952
 40
0.3321938761999904
 40
0.4756273228308269
 40
0.6866812823106717
 40
0.8457414751284381
 40
0.8967552665950478
 40
0.9909530123461384
 40
1.0
 40
1.0
 40
1.0
 40
1.0
 10
113.6942258895646
 20
122.9974422325026
 30
0.0
 10
113.6947134532526
 20
122.9988797068261
 30
0.0
 10
113.7145455676318
 20
123.0573503351885
 30
0.0
 10
113.7428247359447
 20
123.141775602438
 30
0.0
 10
113.7806547604399
 20
123.256354791469
 30
0.0
 10
113.8072380600663
 20
123.3377257672408
 30
0.0
 10
113.8244089108098
 20
123.3907449963131
 30
0.0
 10
113.8322251364466
 20
123.4149464997047
 30
0.0
 10
113.8342202752619
 20
123.4211361809676
 30
0.0
 10
113.8342859294571
 20
123.421337697385
 30
0.0
 10
113.8342916825127
 20
123.4213553555887
 30
0.0
  0
ARC
  5
240
330
1F
100
AcDbEntity
  8
0
  6
Continuous
 62
     7
370
    25
100
AcDbCircle
 10
108.5952063882
 20
121.7474422604
 30
0.0
 40
5.250000000000009
100
AcDbArc
 50
13.774146998
 51
166.225853002
  0
SPLINE
  5
241
330
1F
100
AcDbEntity
  8
0
  6
Continuous
 62
     7
370
    25
100
AcDbSpline
210
0.0
220
0.0
230
1.0
 70
     8
 71
     3
 72
    15
 73
    11
 74
     0
 42
0.000000001
 43
0.00000001
 40
0.0
 40
0.0
 40
0.0
 40
0.0
 40
0.0090469876538617
 40
0.1032447334049523
 40
0.154258524871562
 40
0.3133187176893285
 40
0.5243726771691732
 40
0.6678061238000097
 40
0.9918331616945046
 40
1.0
 40
1.0
 40
1.0
 40
1.0
 10
103.3561210939001
 20
123.4213553555887
 30
0.0
 10
103.3561268469557
 20
123.421337697385
 30
0.0
 10
103.3561925011509
 20
123.4211361809676
 30
0.0
 10
103.3581876399662
 20
123.4149464997047
 30
0.0
 10
103.366003865603
 20
123.3907449963131
 30
0.0
 10
103.3831747163465
 20
123.3377257672408
 30
0.0
 10
103.4097580159729
 20
123.256354791469
 30
0.0
 10
103.447588040468
 20
123.141775602438
 30
0.0
 10
103.475867208781
 20
123.0573503351885
 30
0.0
 10
103.4956993231602
 20
122.9988797068261
 30
0.0
 10
103.4961868868481
 20
122.9974422325026
 30
0.0
  0
ARC
  5
242
330
1F
100
AcDbEntity
  8
0
  6
Continuous
 62
     7
370
    25
100
AcDbCircle
 10
108.5952063882
 20
121.7474422604
 30
0.0
 40
5.500000000000011
100
AcDbArc
 50
17.7189318734
 51
162.2810681266
  0
ARC
  5
243
330
1F
100
AcDbEntity
  8
0
  6
Continuous
 62
     7
370
    25
100
AcDbCircle
 10
103.1179808132
 20
123.4974422604
 30
0.0
 40
0.2500000000000142
100
AcDbArc
 50
270.0
 51
342.2810681266
  0
SPLINE
  5
244
330
1F
100
AcDbEntity
  8
0
  6
Continuous
 62
     7
370
    25
100
AcDbSpline
210
0.0
220
0.0
230
1.0
 70
     8
 71
     3
 72
    15
 73
    11
 74
     0
 42
0.000000001
 43
0.00000001
 40
0.0
 40
0.0
 40
0.0
 40
0.0
 40
0.0080844995757249
 40
0.3310107670311961
 40
0.4750328550059972
 40
0.6874347390466703
 40
0.846834841206855
 40
0.9000984019812466
 40
0.9910432189289485
 40
1.0
 40
1.0
 40
1.0
 40
1.0
 10
103.4961868868481
 20
122.9974422325026
 30
0.0
 10
103.494907116398
 20
122.9982581837425
 30
0.0
 10
103.4425083507896
 20
123.0316663920354
 30
0.0
 10
103.3671522978444
 20
123.0804777284373
 30
0.0
 10
103.2652330095348
 20
123.1478488686092
 30
0.0
 10
103.1928424446622
 20
123.1964328535187
 30
0.0
 10
103.1451357822522
 20
123.2288819666179
 30
0.0
 10
103.1236020846466
 20
123.2435925529789
 30
0.0
 10
103.1181712699866
 20
123.2473112425031
 30
0.0
 10
103.117996637137
 20
123.2474314923559
 30
0.0
 10
103.1179809802483
 20
123.2474422734808
 30
0.0
  0
ARC
  5
245
330
1F
100
AcDbEntity
  8
0
  6
Continuous
 62
     7
370
    25
100
AcDbCircle
 10
114.0724319633
 20
123.4974422604
 30
0.0
 40
0.2500000000000142
100
AcDbArc
 50
197.7189318734
 51
270.0
  0
SPLINE
  5
246
330
1F
100
AcDbEntity
  8
0
  6
Continuous
 62
     7
370
    25
100
AcDbSpline
210
0.0
220
0.0
230
1.0
 70
     8
 71
     3
 72
    15
 73
    11
 74
     0
 42
0.000000001
 43
0.00000001
 40
0.0
 40
0.0
 40
0.0
 40
0.0
 40
0.0089567810710515
 40
0.0999015980187534
 40
0.153165158793145
 40
0.3125652609533296
 40
0.5249671449940028
 40
0.6689892329688039
 40
0.9919155004242751
 40
1.0
 40
1.0
 40
1.0
 40
1.0
 10
114.0724317961644
 20
123.2474422734808
 30
0.0
 10
114.0724161392757
 20
123.2474314923559
 30
0.0
 10
114.0722415064262
 20
123.2473112425031
 30
0.0
 10
114.0668106917661
 20
123.2435925529789
 30
0.0
 10
114.0452769941606
 20
123.2288819666179
 30
0.0
 10
113.9975703317506
 20
123.1964328535187
 30
0.0
 10
113.925179766878
 20
123.1478488686092
 30
0.0
 10
113.8232604785683
 20
123.0804777284373
 30
0.0
 10
113.7479044256231
 20
123.0316663920354
 30
0.0
 10
113.6955056600148
 20
122.9982581837425
 30
0.0
 10
113.6942258895646
 20
122.9974422325026
 30
0.0
  0
SPLINE
  5
247
330
1F
100
AcDbEntity
  8
0
  6
Continuous
 62
     7
370
    25
100
AcDbSpline
210
0.0
220
0.0
230
1.0
 70
     8
 71
     3
 72
    15
 73
    11
 74
     0
 42
0.000000001
 43
0.00000001
 40
0.0
 40
0.0
 40
0.0
 40
0.0
 40
0.0090469876538617
 40
0.1032447334049523
 40
0.154258524871562
 40
0.3133187176893285
 40
0.5243726771691732
 40
0.6678061238000097
 40
0.9918331616945046
 40
1.0
 40
1.0
 40
1.0
 40
1.0
 10
113.8342916825127
 20
120.0735291652959
 30
0.0
 10
113.8342859294571
 20
120.0735468234996
 30
0.0
 10
113.8342202752619
 20
120.073748339917
 30
0.0
 10
113.8322251364466
 20
120.0799380211799
 30
0.0
 10
113.8244089108098
 20
120.1041395245715
 30
0.0
 10
113.8072380600663
 20
120.1571587536438
 30
0.0
 10
113.7806547604399
 20
120.2385297294156
 30
0.0
 10
113.7428247359447
 20
120.3531089184466
 30
0.0
 10
113.7145455676318
 20
120.4375341856961
 30
0.0
 10
113.6947134532526
 20
120.4960048140585
 30
0.0
 10
113.6942258895646
 20
120.497442288382
 30
0.0
  0
ARC
  5
248
330
1F
100
AcDbEntity
  8
0
  6
Continuous
 62
     7
370
    25
100
AcDbCircle
 10
108.5952063882
 20
121.7474422604
 30
0.0
 40
5.500000000000007
100
AcDbArc
 50
197.7189318734
 51
342.2810681266
  0
SPLINE
  5
249
330
1F
100
AcDbEntity
  8
0
  6
Continuous
 62
     7
370
    25
100
AcDbSpline
210
0.0
220
0.0
230
1.0
 70
     8
 71
     3
 72
    15
 73
    11
 74
     0
 42
0.000000001
 43
0.00000001
 40
0.0
 40
0.0
 40
0.0
 40
0.0
 40
0.0081668383054952
 40
0.3321938761999904
 40
0.4756273228308269
 40
0.6866812823106717
 40
0.8457414751284381
 40
0.8967552665950478
 40
0.9909530123461384
 40
1.0
 40
1.0
 40
1.0
 40
1.0
 10
103.4961868868481
 20
120.497442288382
 30
0.0
 10
103.4956993231602
 20
120.4960048140585
 30
0.0
 10
103.4758672087809
 20
120.4375341856961
 30
0.0
 10
103.447588040468
 20
120.3531089184466
 30
0.0
 10
103.4097580159729
 20
120.2385297294156
 30
0.0
 10
103.3831747163465
 20
120.1571587536438
 30
0.0
 10
103.366003865603
 20
120.1041395245715
 30
0.0
 10
103.3581876399662
 20
120.0799380211799
 30
0.0
 10
103.3561925011509
 20
120.073748339917
 30
0.0
 10
103.3561268469557
 20
120.0735468234996
 30
0.0
 10
103.3561210939001
 20
120.0735291652959
 30
0.0
  0
ARC
  5
24A
330
1F
100
AcDbEntity
  8
0
  6
Continuous
 62
     7
370
    25
100
AcDbCircle
 10
108.5952063882
 20
121.7474422604
 30
0.0
 40
5.250000000000009
100
AcDbArc
 50
193.774146998
 51
346.225853002
  0
SPLINE
  5
24B
330
1F
100
AcDbEntity
  8
0
  6
Continuous
 62
     7
370
    25
100
AcDbSpline
210
0.0
220
0.0
230
1.0
 70
     8
 71
     3
 72
    15
 73
    11
 74
     0
 42
0.000000001
 43
0.00000001
 40
0.0
 40
0.0
 40
0.0
 40
0.0
 40
0.0080844995757249
 40
0.3310107670311961
 40
0.4750328550059972
 40
0.6874347390466703
 40
0.846834841206855
 40
0.9000984019812466
 40
0.9910432189289485
 40
1.0
 40
1.0
 40
1.0
 40
1.0
 10
113.6942258895646
 20
120.497442288382
 30
0.0
 10
113.6955056600148
 20
120.4966263371421
 30
0.0
 10
113.7479044256231
 20
120.4632181288492
 30
0.0
 10
113.8232604785683
 20
120.4144067924473
 30
0.0
 10
113.925179766878
 20
120.3470356522754
 30
0.0
 10
113.9975703317506
 20
120.2984516673659
 30
0.0
 10
114.0452769941606
 20
120.2660025542666
 30
0.0
 10
114.0668106917661
 20
120.2512919679057
 30
0.0
 10
114.0722415064262
 20
120.2475732783815
 30
0.0
 10
114.0724161392757
 20
120.2474530285287
 30
0.0
 10
114.0724317961644
 20
120.2474422474038
 30
0.0
  0
ARC
  5
24C
330
1F
100
AcDbEntity
  8
0
  6
Continuous
 62
     7
370
    25
100
AcDbCircle
 10
114.0724319633
 20
119.9974422604
 30
0.0
 40
0.25
100
AcDbArc
 50
90.0
 51
162.2810681266
  0
SPLINE
  5
24D
330
1F
100
AcDbEntity
  8
0
  6
Continuous
 62
     7
370
    25
100
AcDbSpline
210
0.0
220
0.0
230
1.0
 70
     8
 71
     3
 72
    15
 73
    11
 74
     0
 42
0.000000001
 43
0.00000001
 40
0.0
 40
0.0
 40
0.0
 40
0.0
 40
0.0089567810710515
 40
0.0999015980187534
 40
0.153165158793145
 40
0.3125652609533296
 40
0.5249671449940028
 40
0.6689892329688039
 40
0.9919155004242751
 40
1.0
 40
1.0
 40
1.0
 40
1.0
 10
103.1179809802483
 20
120.2474422474038
 30
0.0
 10
103.117996637137
 20
120.2474530285287
 30
0.0
 10
103.1181712699866
 20
120.2475732783815
 30
0.0
 10
103.1236020846466
 20
120.2512919679057
 30
0.0
 10
103.1451357822522
 20
120.2660025542666
 30
0.0
 10
103.1928424446622
 20
120.2984516673659
 30
0.0
 10
103.2652330095348
 20
120.3470356522754
 30
0.0
 10
103.3671522978444
 20
120.4144067924473
 30
0.0
 10
103.4425083507896
 20
120.4632181288492
 30
0.0
 10
103.494907116398
 20
120.4966263371421
 30
0.0
 10
103.4961868868481
 20
120.497442288382
 30
0.0
  0
ARC
  5
24E
330
1F
100
AcDbEntity
  8
0
  6
Continuous
 62
     7
370
    25
100
AcDbCircle
 10
103.1179808132
 20
119.9974422604
 30
0.0
 40
0.2500000000000077
100
AcDbArc
 50
17.7189318734
 51
90.0
  0
LINE
  5
24F
330
1F
100
AcDbEntity
  8
0
  6
Continuous
 62
     7
370
    25
100
AcDbLine
 10
114.3452063994
 20
122.9974422325
 30
0.0
 11
113.6942258896
 21
122.9974422325
 31
0.0
  0
LINE
  5
250
330
1F
100
AcDbEntity
  8
0
  6
Continuous
 62
     7
370
    25
100
AcDbLine
 10
114.3452063994
 20
120.4974422884
 30
0.0
 11
114.3452063994
 21
122.9974422325
 31
0.0
  0
LINE
  5
251
330
1F
100
AcDbEntity
  8
0
  6
Continuous
 62
     7
370
    25
100
AcDbLine
 10
113.6942258896
 20
120.4974422884
 30
0.0
 11
114.3452063994
 21
120.4974422884
 31
0.0
  0
LINE
  5
252
330
1F
100
AcDbEntity
  8
0
  6
Continuous
 62
     7
370
    25
100
AcDbLine
 10
102.845206377
 20
120.4974422884
 30
0.0
 11
103.4961868868
 21
120.4974422884
 31
0.0
  0
LINE
  5
253
330
1F
100
AcDbEntity
  8
0
  6
Continuous
 62
     7
370
    25
100
AcDbLine
 10
102.845206377
 20
122.9974422325
 30
0.0
 11
102.845206377
 21
120.4974422884
 31
0.0
  0
LINE
  5
254
330
1F
100
AcDbEntity
  8
0
  6
Continuous
 62
     7
370
    25
100
AcDbLine
 10
103.4961868868
 20
122.9974422325
 30
0.0
 11
102.845206377
 21
122.9974422325
 31
0.0
  0
LINE
  5
255
330
1F
100
AcDbEntity
  8
0
  6
Continuous
 62
     7
370
    25
100
AcDbLine
 10
102.889069342
 20
123.2474422735
 30
0.0
 11
103.1179809802
 21
123.2474422735
 31
0.0
  0
LINE
  5
256
330
1F
100
AcDbEntity
  8
0
  6
Continuous
 62
     7
370
    25
100
AcDbLine
 10
114.0724317962
 20
123.2474422735
 30
0.0
 11
114.3013434344
 21
123.2474422735
 31
0.0
  0
LINE
  5
257
330
1F
100
AcDbEntity
  8
0
  6
Continuous
 62
     7
370
    25
100
AcDbLine
 10
103.1179809802
 20
120.2474422474
 30
0.0
 11
102.889069342
 21
120.2474422474
 31
0.0
  0
LINE
  5
258
330
1F
100
AcDbEntity
  8
0
  6
Continuous
 62
     7
370
    25
100
AcDbLine
 10
114.3013434344
 20
120.2474422474
 30
0.0
 11
114.0724317962
 21
120.2474422474
 31
0.0
  0
ARC
  5
259
330
1F
100
AcDbEntity
  8
0
  6
Continuous
 62
     7
370
    25
100
AcDbCircle
 10
108.5952063882
 20
121.7474422604
 30
0.0
 40
8.799999999999997
100
AcDbArc
 50
75.0
 51
81.0
  0
LINE
  5
25A
330
1F
100
AcDbEntity
  8
0
  6
Continuous
 62
     7
370
    25
100
AcDbLine
 10
109.971829676
 20
130.439099595
 30
0.0
 11
110.4664115561
 21
130.5507707596
 31
0.0
  0
LINE
  5
25B
330
1F
100
AcDbEntity
  8
0
  6
Continuous
 62
     7
370
    25
100
AcDbLine
 10
110.4664115561
 20
130.5507707596
 30
0.0
 11
110.8728139521
 21
130.2475898713
 31
0.0
  0
ARC
  5
25C
330
1F
100
AcDbEntity
  8
0
  6
Continuous
 62
     7
370
    25
100
AcDbCircle
 10
108.5952063882
 20
121.7474422604
 30
0.0
 40
8.799999999999999
100
AcDbArc
 50
81.0
 51
87.0
  0
LINE
  5
25D
330
1F
100
AcDbEntity
  8
0
  6
Continuous
 62
     7
370
    25
100
AcDbLine
 10
109.535962562
 20
130.6981395186
 30
0.0
 11
109.971829676
 21
130.439099595
 31
0.0
  0
LINE
  5
25E
330
1F
100
AcDbEntity
  8
0
  6
Continuous
 62
     7
370
    25
100
AcDbLine
 10
109.0557628054
 20
130.5353825167
 30
0.0
 11
109.535962562
 21
130.6981395186
 31
0.0
  0
ARC
  5
25F
330
1F
100
AcDbEntity
  8
0
  6
Continuous
 62
     7
370
    25
100
AcDbCircle
 10
108.5952063882
 20
121.7474422604
 30
0.0
 40
8.799999999999999
100
AcDbArc
 50
87.0
 51
93.0
  0
LINE
  5
260
330
1F
100
AcDbEntity
  8
0
  6
Continuous
 62
     7
370
    25
100
AcDbLine
 10
108.134649971
 20
130.5353825167
 30
0.0
 11
108.5952063882
 21
130.747441873
 31
0.0
  0
LINE
  5
261
330
1F
100
AcDbEntity
  8
0
  6
Continuous
 62
     7
370
    25
100
AcDbLine
 10
108.5952063882
 20
130.747441873
 30
0.0
 11
109.0557628054
 21
130.5353825167
 31
0.0
  0
ARC
  5
262
330
1F
100
AcDbEntity
  8
0
  6
Continuous
 62
     7
370
    25
100
AcDbCircle
 10
108.5952063882
 20
121.7474422604
 30
0.0
 40
8.799999999999995
100
AcDbArc
 50
93.0
 51
99.0
  0
LINE
  5
263
330
1F
100
AcDbEntity
  8
0
  6
Continuous
 62
     7
370
    25
100
AcDbLine
 10
107.2185831004
 20
130.439099595
 30
0.0
 11
107.6544502144
 21
130.6981395186
 31
0.0
  0
LINE
  5
264
330
1F
100
AcDbEntity
  8
0
  6
Continuous
 62
     7
370
    25
100
AcDbLine
 10
107.6544502144
 20
130.6981395186
 30
0.0
 11
108.134649971
 21
130.5353825167
 31
0.0
  0
ARC
  5
265
330
1F
100
AcDbEntity
  8
0
  6
Continuous
 62
     7
370
    25
100
AcDbCircle
 10
108.5952063882
 20
121.7474422604
 30
0.0
 40
8.799999999999995
100
AcDbArc
 50
99.0
 51
105.0
  0
LINE
  5
266
330
1F
100
AcDbEntity
  8
0
  6
Continuous
 62
     7
370
    25
100
AcDbLine
 10
106.3175988243
 20
130.2475898713
 30
0.0
 11
106.7240012204
 21
130.5507707596
 31
0.0
  0
LINE
  5
267
330
1F
100
AcDbEntity
  8
0
  6
Continuous
 62
     7
370
    25
100
AcDbLine
 10
106.7240012204
 20
130.5507707596
 30
0.0
 11
107.2185831004
 21
130.439099595
 31
0.0
  0
ARC
  5
268
330
1F
100
AcDbEntity
  8
0
  6
Continuous
 62
     7
370
    25
100
AcDbCircle
 10
108.5952063882
 20
121.7474422604
 30
0.0
 40
8.799999999999994
100
AcDbArc
 50
105.0
 51
111.0
  0
LINE
  5
269
330
1F
100
AcDbEntity
  8
0
  6
Continuous
 62
     7
370
    25
100
AcDbLine
 10
105.4415684053
 20
129.9629497529
 30
0.0
 11
105.8140534302
 21
130.3069505096
 31
0.0
  0
LINE
  5
26A
330
1F
100
AcDbEntity
  8
0
  6
Continuous
 62
     7
370
    25
100
AcDbLine
 10
105.8140534302
 20
130.3069505096
 30
0.0
 11
106.3175988243
 21
130.2475898713
 31
0.0
  0
CIRCLE
  5
26B
330
1F
100
AcDbEntity
  8
0
  6
Continuous
 62
     7
370
    25
100
AcDbCircle
 10
108.5952063882
 20
121.7474422604
 30
0.0
 40
6.100000000000009
  0
ARC
  5
26C
330
1F
100
AcDbEntity
  8
0
  6
Continuous
 62
     7
370
    25
100
AcDbCircle
 10
108.5952063882
 20
121.7474422604
 30
0.0
 40
8.799999999999992
100
AcDbArc
 50
267.0
 51
273.0
  0
ARC
  5
26D
330
1F
100
AcDbEntity
  8
0
  6
Continuous
 62
     7
370
    25
100
AcDbCircle
 10
108.5952063882
 20
121.7474422604
 30
0.0
 40
8.799999999999992
100
AcDbArc
 50
261.0
 51
267.0
  0
ARC
  5
26E
330
1F
100
AcDbEntity
  8
0
  6
Continuous
 62
     7
370
    25
100
AcDbCircle
 10
108.5952063882
 20
121.7474422604
 30
0.0
 40
8.799999999999994
100
AcDbArc
 50
255.0
 51
261.0
  0
ARC
  5
26F
330
1F
100
AcDbEntity
  8
0
  6
Continuous
 62
     7
370
    25
100
AcDbCircle
 10
108.5952063882
 20
121.7474422604
 30
0.0
 40
8.799999999999994
100
AcDbArc
 50
249.0
 51
255.0
  0
ARC
  5
270
330
1F
100
AcDbEntity
  8
0
  6
Continuous
 62
     7
370
    25
100
AcDbCircle
 10
108.5952063882
 20
121.7474422604
 30
0.0
 40
8.799999999999994
100
AcDbArc
 50
243.0
 51
249.0
  0
ARC
  5
271
330
1F
100
AcDbEntity
  8
0
  6
Continuous
 62
     7
370
    25
100
AcDbCircle
 10
108.5952063882
 20
121.7474422604
 30
0.0
 40
8.799999999999994
100
AcDbArc
 50
237.0
 51
243.0
  0
ARC
  5
272
330
1F
100
AcDbEntity
  8
0
  6
Continuous
 62
     7
370
    25
100
AcDbCircle
 10
108.5952063882
 20
121.7474422604
 30
0.0
 40
8.799999999999997
100
AcDbArc
 50
231.0
 51
237.0
  0
ARC
  5
273
330
1F
100
AcDbEntity
  8
0
  6
Continuous
 62
     7
370
    25
100
AcDbCircle
 10
108.5952063882
 20
121.7474422604
 30
0.0
 40
8.799999999999997
100
AcDbArc
 50
225.0
 51
231.0
  0
ARC
  5
274
330
1F
100
AcDbEntity
  8
0
  6
Continuous
 62
     7
370
    25
100
AcDbCircle
 10
108.5952063882
 20
121.7474422604
 30
0.0
 40
8.799999999999992
100
AcDbArc
 50
219.0
 51
225.0
  0
ARC
  5
275
330
1F
100
AcDbEntity
  8
0
  6
Continuous
 62
     7
370
    25
100
AcDbCircle
 10
108.5952063882
 20
121.7474422604
 30
0.0
 40
8.79999999999999
100
AcDbArc
 50
213.0
 51
219.0
  0
ARC
  5
276
330
1F
100
AcDbEntity
  8
0
  6
Continuous
 62
     7
370
    25
100
AcDbCircle
 10
108.5952063882
 20
121.7474422604
 30
0.0
 40
8.799999999999992
100
AcDbArc
 50
207.0
 51
213.0
  0
ARC
  5
277
330
1F
100
AcDbEntity
  8
0
  6
Continuous
 62
     7
370
    25
100
AcDbCircle
 10
108.5952063882
 20
121.7474422604
 30
0.0
 40
8.799999999999997
100
AcDbArc
 50
201.0
 51
207.0
  0
ARC
  5
278
330
1F
100
AcDbEntity
  8
0
  6
Continuous
 62
     7
370
    25
100
AcDbCircle
 10
108.5952063882
 20
121.7474422604
 30
0.0
 40
8.799999999999997
100
AcDbArc
 50
195.0
 51
201.0
  0
ARC
  5
279
330
1F
100
AcDbEntity
  8
0
  6
Continuous
 62
     7
370
    25
100
AcDbCircle
 10
108.5952063882
 20
121.7474422604
 30
0.0
 40
8.800000000000002
100
AcDbArc
 50
189.0
 51
195.0
  0
ARC
  5
27A
330
1F
100
AcDbEntity
  8
0
  6
Continuous
 62
     7
370
    25
100
AcDbCircle
 10
108.5952063882
 20
121.7474422604
 30
0.0
 40
8.800000000000002
100
AcDbArc
 50
183.0
 51
189.0
  0
ARC
  5
27B
330
1F
100
AcDbEntity
  8
0
  6
Continuous
 62
     7
370
    25
100
AcDbCircle
 10
108.5952063882
 20
121.7474422604
 30
0.0
 40
8.799999999999981
100
AcDbArc
 50
177.0
 51
183.0
  0
ARC
  5
27C
330
1F
100
AcDbEntity
  8
0
  6
Continuous
 62
     7
370
    25
100
AcDbCircle
 10
108.5952063882
 20
121.7474422604
 30
0.0
 40
8.8
100
AcDbArc
 50
171.0
 51
177.0
  0
ARC
  5
27D
330
1F
100
AcDbEntity
  8
0
  6
Continuous
 62
     7
370
    25
100
AcDbCircle
 10
108.5952063882
 20
121.7474422604
 30
0.0
 40
8.8
100
AcDbArc
 50
165.0
 51
171.0
  0
ARC
  5
27E
330
1F
100
AcDbEntity
  8
0
  6
Continuous
 62
     7
370
    25
100
AcDbCircle
 10
108.5952063882
 20
121.7474422604
 30
0.0
 40
8.799999999999999
100
AcDbArc
 50
159.0
 51
165.0
  0
ARC
  5
27F
330
1F
100
AcDbEntity
  8
0
  6
Continuous
 62
     7
370
    25
100
AcDbCircle
 10
108.5952063882
 20
121.7474422604
 30
0.0
 40
8.799999999999999
100
AcDbArc
 50
153.0
 51
159.0
  0
ARC
  5
280
330
1F
100
AcDbEntity
  8
0
  6
Continuous
 62
     7
370
    25
100
AcDbCircle
 10
108.5952063882
 20
121.7474422604
 30
0.0
 40
8.8
100
AcDbArc
 50
147.0
 51
153.0
  0
ARC
  5
281
330
1F
100
AcDbEntity
  8
0
  6
Continuous
 62
     7
370
    25
100
AcDbCircle
 10
108.5952063882
 20
121.7474422604
 30
0.0
 40
8.800000000000008
100
AcDbArc
 50
141.0
 51
147.0
  0
ARC
  5
282
330
1F
100
AcDbEntity
  8
0
  6
Continuous
 62
     7
370
    25
100
AcDbCircle
 10
108.5952063882
 20
121.7474422604
 30
0.0
 40
8.800000000000008
100
AcDbArc
 50
135.0
 51
141.0
  0
ARC
  5
283
330
1F
100
AcDbEntity
  8
0
  6
Continuous
 62
     7
370
    25
100
AcDbCircle
 10
108.5952063882
 20
121.7474422604
 30
0.0
 40
8.799999999999983
100
AcDbArc
 50
129.0
 51
135.0
  0
ARC
  5
284
330
1F
100
AcDbEntity
  8
0
  6
Continuous
 62
     7
370
    25
100
AcDbCircle
 10
108.5952063882
 20
121.7474422604
 30
0.0
 40
8.800000000000004
100
AcDbArc
 50
123.0
 51
129.0
  0
ARC
  5
285
330
1F
100
AcDbEntity
  8
0
  6
Continuous
 62
     7
370
    25
100
AcDbCircle
 10
108.5952063882
 20
121.7474422604
 30
0.0
 40
8.800000000000004
100
AcDbArc
 50
117.0
 51
123.0
  0
ARC
  5
286
330
1F
100
AcDbEntity
  8
0
  6
Continuous
 62
     7
370
    25
100
AcDbCircle
 10
108.5952063882
 20
121.7474422604
 30
0.0
 40
8.799999999999994
100
AcDbArc
 50
111.0
 51
117.0
  0
ARC
  5
287
330
1F
100
AcDbEntity
  8
0
  6
Continuous
 62
     7
370
    25
100
AcDbCircle
 10
108.5952063882
 20
121.7474422604
 30
0.0
 40
8.800000000000002
100
AcDbArc
 50
69.0
 51
75.0
  0
ARC
  5
288
330
1F
100
AcDbEntity
  8
0
  6
Continuous
 62
     7
370
    25
100
AcDbCircle
 10
108.5952063882
 20
121.7474422604
 30
0.0
 40
8.800000000000002
100
AcDbArc
 50
63.0
 51
69.0
  0
ARC
  5
289
330
1F
100
AcDbEntity
  8
0
  6
Continuous
 62
     7
370
    25
100
AcDbCircle
 10
108.5952063882
 20
121.7474422604
 30
0.0
 40
8.800000000000006
100
AcDbArc
 50
57.0
 51
63.0
  0
ARC
  5
28A
330
1F
100
AcDbEntity
  8
0
  6
Continuous
 62
     7
370
    25
100
AcDbCircle
 10
108.5952063882
 20
121.7474422604
 30
0.0
 40
8.800000000000006
100
AcDbArc
 50
51.0
 51
57.0
  0
ARC
  5
28B
330
1F
100
AcDbEntity
  8
0
  6
Continuous
 62
     7
370
    25
100
AcDbCircle
 10
108.5952063882
 20
121.7474422604
 30
0.0
 40
8.800000000000006
100
AcDbArc
 50
45.0
 51
51.0
  0
ARC
  5
28C
330
1F
100
AcDbEntity
  8
0
  6
Continuous
 62
     7
370
    25
100
AcDbCircle
 10
108.5952063882
 20
121.7474422604
 30
0.0
 40
8.800000000000002
100
AcDbArc
 50
39.0
 51
45.0
  0
ARC
  5
28D
330
1F
100
AcDbEntity
  8
0
  6
Continuous
 62
     7
370
    25
100
AcDbCircle
 10
108.5952063882
 20
121.7474422604
 30
0.0
 40
8.800000000000002
100
AcDbArc
 50
33.0
 51
39.0
  0
ARC
  5
28E
330
1F
100
AcDbEntity
  8
0
  6
Continuous
 62
     7
370
    25
100
AcDbCircle
 10
108.5952063882
 20
121.7474422604
 30
0.0
 40
8.799999999999988
100
AcDbArc
 50
27.0
 51
33.0
  0
ARC
  5
28F
330
1F
100
AcDbEntity
  8
0
  6
Continuous
 62
     7
370
    25
100
AcDbCircle
 10
108.5952063882
 20
121.7474422604
 30
0.0
 40
8.799999999999988
100
AcDbArc
 50
21.0
 51
27.0
  0
ARC
  5
290
330
1F
100
AcDbEntity
  8
0
  6
Continuous
 62
     7
370
    25
100
AcDbCircle
 10
108.5952063882
 20
121.7474422604
 30
0.0
 40
8.8
100
AcDbArc
 50
15.0
 51
21.0
  0
ARC
  5
291
330
1F
100
AcDbEntity
  8
0
  6
Continuous
 62
     7
370
    25
100
AcDbCircle
 10
108.5952063882
 20
121.7474422604
 30
0.0
 40
8.8
100
AcDbArc
 50
9.0
 51
15.0
  0
ARC
  5
292
330
1F
100
AcDbEntity
  8
0
  6
Continuous
 62
     7
370
    25
100
AcDbCircle
 10
108.5952063882
 20
121.7474422604
 30
0.0
 40
8.799999999999992
100
AcDbArc
 50
3.0
 51
9.0
  0
ARC
  5
293
330
1F
100
AcDbEntity
  8
0
  6
Continuous
 62
     7
370
    25
100
AcDbCircle
 10
108.5952063882
 20
121.7474422604
 30
0.0
 40
8.799999999999992
100
AcDbArc
 50
357.0
 51
3.0
  0
ARC
  5
294
330
1F
100
AcDbEntity
  8
0
  6
Continuous
 62
     7
370
    25
100
AcDbCircle
 10
108.5952063882
 20
121.7474422604
 30
0.0
 40
8.799999999999988
100
AcDbArc
 50
351.0
 51
357.0
  0
ARC
  5
295
330
1F
100
AcDbEntity
  8
0
  6
Continuous
 62
     7
370
    25
100
AcDbCircle
 10
108.5952063882
 20
121.7474422604
 30
0.0
 40
8.799999999999992
100
AcDbArc
 50
345.0
 51
351.0
  0
ARC
  5
296
330
1F
100
AcDbEntity
  8
0
  6
Continuous
 62
     7
370
    25
100
AcDbCircle
 10
108.5952063882
 20
121.7474422604
 30
0.0
 40
8.799999999999992
100
AcDbArc
 50
339.0
 51
345.0
  0
ARC
  5
297
330
1F
100
AcDbEntity
  8
0
  6
Continuous
 62
     7
370
    25
100
AcDbCircle
 10
108.5952063882
 20
121.7474422604
 30
0.0
 40
8.79999999999999
100
AcDbArc
 50
333.0
 51
339.0
  0
ARC
  5
298
330
1F
100
AcDbEntity
  8
0
  6
Continuous
 62
     7
370
    25
100
AcDbCircle
 10
108.5952063882
 20
121.7474422604
 30
0.0
 40
8.799999999999994
100
AcDbArc
 50
327.0
 51
333.0
  0
ARC
  5
299
330
1F
100
AcDbEntity
  8
0
  6
Continuous
 62
     7
370
    25
100
AcDbCircle
 10
108.5952063882
 20
121.7474422604
 30
0.0
 40
8.799999999999994
100
AcDbArc
 50
321.0
 51
327.0
  0
ARC
  5
29A
330
1F
100
AcDbEntity
  8
0
  6
Continuous
 62
     7
370
    25
100
AcDbCircle
 10
108.5952063882
 20
121.7474422604
 30
0.0
 40
8.799999999999994
100
AcDbArc
 50
315.0
 51
321.0
  0
ARC
  5
29B
330
1F
100
AcDbEntity
  8
0
  6
Continuous
 62
     7
370
    25
100
AcDbCircle
 10
108.5952063882
 20
121.7474422604
 30
0.0
 40
8.799999999999994
100
AcDbArc
 50
309.0
 51
315.0
  0
ARC
  5
29C
330
1F
100
AcDbEntity
  8
0
  6
Continuous
 62
     7
370
    25
100
AcDbCircle
 10
108.5952063882
 20
121.7474422604
 30
0.0
 40
8.79999999999999
100
AcDbArc
 50
303.0
 51
309.0
  0
ARC
  5
29D
330
1F
100
AcDbEntity
  8
0
  6
Continuous
 62
     7
370
    25
100
AcDbCircle
 10
108.5952063882
 20
121.7474422604
 30
0.0
 40
8.799999999999988
100
AcDbArc
 50
297.0
 51
303.0
  0
ARC
  5
29E
330
1F
100
AcDbEntity
  8
0
  6
Continuous
 62
     7
370
    25
100
AcDbCircle
 10
108.5952063882
 20
121.7474422604
 30
0.0
 40
8.799999999999994
100
AcDbArc
 50
291.0
 51
297.0
  0
ARC
  5
29F
330
1F
100
AcDbEntity
  8
0
  6
Continuous
 62
     7
370
    25
100
AcDbCircle
 10
108.5952063882
 20
121.7474422604
 30
0.0
 40
8.799999999999994
100
AcDbArc
 50
285.0
 51
291.0
  0
ARC
  5
2A0
330
1F
100
AcDbEntity
  8
0
  6
Continuous
 62
     7
370
    25
100
AcDbCircle
 10
108.5952063882
 20
121.7474422604
 30
0.0
 40
8.799999999999994
100
AcDbArc
 50
279.0
 51
285.0
  0
ARC
  5
2A1
330
1F
100
AcDbEntity
  8
0
  6
Continuous
 62
     7
370
    25
100
AcDbCircle
 10
108.5952063882
 20
121.7474422604
 30
0.0
 40
8.799999999999994
100
AcDbArc
 50
273.0
 51
279.0
  0
LINE
  5
2A2
330
1F
100
AcDbEntity
  8
0
  6
Continuous
 62
     7
370
    25
100
AcDbLine
 10
110.8728139521
 20
130.2475898713
 30
0.0
 11
111.3763593463
 21
130.3069505096
 31
0.0
  0
LINE
  5
2A3
330
1F
100
AcDbEntity
  8
0
  6
Continuous
 62
     7
370
    25
100
AcDbLine
 10
111.3763593463
 20
130.3069505096
 30
0.0
 11
111.7488443711
 21
129.9629497529
 31
0.0
  0
LINE
  5
2A4
330
1F
100
AcDbEntity
  8
0
  6
Continuous
 62
     7
370
    25
100
AcDbLine
 10
112.5903227226
 20
129.5883001015
 30
0.0
 11
113.0952061945
 21
129.5416711085
 31
0.0
  0
LINE
  5
2A5
330
1F
100
AcDbEntity
  8
0
  6
Continuous
 62
     7
370
    25
100
AcDbLine
 10
113.0952061945
 20
129.5416711085
 30
0.0
 11
113.3880298444
 21
129.1277433932
 31
0.0
  0
LINE
  5
2A6
330
1F
100
AcDbEntity
  8
0
  6
Continuous
 62
     7
370
    25
100
AcDbLine
 10
103.802382932
 20
129.1277433932
 30
0.0
 11
104.0952065819
 21
129.5416711085
 31
0.0
  0
LINE
  5
2A7
330
1F
100
AcDbEntity
  8
0
  6
Continuous
 62
     7
370
    25
100
AcDbLine
 10
104.0952065819
 20
129.5416711085
 30
0.0
 11
104.6000900538
 21
129.5883001015
 31
0.0
  0
LINE
  5
2A8
330
1F
100
AcDbEntity
  8
0
  6
Continuous
 62
     7
370
    25
100
AcDbLine
 10
111.7488443711
 20
129.9629497529
 30
0.0
 11
112.2558361245
 21
129.9693516642
 31
0.0
  0
LINE
  5
2A9
330
1F
100
AcDbEntity
  8
0
  6
Continuous
 62
     7
370
    25
100
AcDbLine
 10
112.2558361245
 20
129.9693516642
 30
0.0
 11
112.5903227226
 21
129.5883001015
 31
0.0
  0
LINE
  5
2AA
330
1F
100
AcDbEntity
  8
0
  6
Continuous
 62
     7
370
    25
100
AcDbLine
 10
104.9345766519
 20
129.9693516642
 30
0.0
 11
105.4415684053
 21
129.9629497529
 31
0.0
  0
LINE
  5
2AB
330
1F
100
AcDbEntity
  8
0
  6
Continuous
 62
     7
370
    25
100
AcDbLine
 10
104.6000900538
 20
129.5883001015
 30
0.0
 11
104.9345766519
 21
129.9693516642
 31
0.0
  0
LINE
  5
2AC
330
1F
100
AcDbEntity
  8
0
  6
Continuous
 62
     7
370
    25
100
AcDbLine
 10
103.0571870365
 20
128.5863269307
 30
0.0
 11
103.3051390992
 21
129.0285952576
 31
0.0
  0
LINE
  5
2AD
330
1F
100
AcDbEntity
  8
0
  6
Continuous
 62
     7
370
    25
100
AcDbLine
 10
103.3051390992
 20
129.0285952576
 30
0.0
 11
103.802382932
 21
129.1277433932
 31
0.0
  0
LINE
  5
2AE
330
1F
100
AcDbEntity
  8
0
  6
Continuous
 62
     7
370
    25
100
AcDbLine
 10
113.3880298444
 20
129.1277433932
 30
0.0
 11
113.8852736772
 21
129.0285952576
 31
0.0
  0
LINE
  5
2AF
330
1F
100
AcDbEntity
  8
0
  6
Continuous
 62
     7
370
    25
100
AcDbLine
 10
113.8852736772
 20
129.0285952576
 30
0.0
 11
114.1332257399
 21
128.5863269307
 31
0.0
  0
LINE
  5
2B0
330
1F
100
AcDbEntity
  8
0
  6
Continuous
 62
     7
370
    25
100
AcDbLine
 10
114.1332257399
 20
128.5863269307
 30
0.0
 11
114.6173816965
 21
128.4357455746
 31
0.0
  0
LINE
  5
2B1
330
1F
100
AcDbEntity
  8
0
  6
Continuous
 62
     7
370
    25
100
AcDbLine
 10
114.6173816965
 20
128.4357455746
 30
0.0
 11
114.8177459696
 21
127.9699818418
 31
0.0
  0
LINE
  5
2B2
330
1F
100
AcDbEntity
  8
0
  6
Continuous
 62
     7
370
    25
100
AcDbLine
 10
102.3726668068
 20
127.9699818418
 30
0.0
 11
102.5730310799
 21
128.4357455746
 31
0.0
  0
LINE
  5
2B3
330
1F
100
AcDbEntity
  8
0
  6
Continuous
 62
     7
370
    25
100
AcDbLine
 10
102.5730310799
 20
128.4357455746
 30
0.0
 11
103.0571870365
 21
128.5863269307
 31
0.0
  0
LINE
  5
2B4
330
1F
100
AcDbEntity
  8
0
  6
Continuous
 62
     7
370
    25
100
AcDbLine
 10
101.7563217179
 20
127.2854616121
 30
0.0
 11
101.9069030741
 21
127.7696175688
 31
0.0
  0
LINE
  5
2B5
330
1F
100
AcDbEntity
  8
0
  6
Continuous
 62
     7
370
    25
100
AcDbLine
 10
101.9069030741
 20
127.7696175688
 30
0.0
 11
102.3726668068
 21
127.9699818418
 31
0.0
  0
LINE
  5
2B6
330
1F
100
AcDbEntity
  8
0
  6
Continuous
 62
     7
370
    25
100
AcDbLine
 10
115.4340910585
 20
127.2854616121
 30
0.0
 11
115.8763593854
 21
127.0375095495
 31
0.0
  0
LINE
  5
2B7
330
1F
100
AcDbEntity
  8
0
  6
Continuous
 62
     7
370
    25
100
AcDbLine
 10
115.8763593854
 20
127.0375095495
 30
0.0
 11
115.975507521
 21
126.5402657167
 31
0.0
  0
LINE
  5
2B8
330
1F
100
AcDbEntity
  8
0
  6
Continuous
 62
     7
370
    25
100
AcDbLine
 10
115.2835097024
 20
127.7696175688
 30
0.0
 11
115.4340910585
 21
127.2854616121
 31
0.0
  0
LINE
  5
2B9
330
1F
100
AcDbEntity
  8
0
  6
Continuous
 62
     7
370
    25
100
AcDbLine
 10
114.8177459696
 20
127.9699818418
 30
0.0
 11
115.2835097024
 21
127.7696175688
 31
0.0
  0
LINE
  5
2BA
330
1F
100
AcDbEntity
  8
0
  6
Continuous
 62
     7
370
    25
100
AcDbLine
 10
101.2149052554
 20
126.5402657167
 30
0.0
 11
101.314053391
 21
127.0375095495
 31
0.0
  0
LINE
  5
2BB
330
1F
100
AcDbEntity
  8
0
  6
Continuous
 62
     7
370
    25
100
AcDbLine
 10
101.314053391
 20
127.0375095495
 30
0.0
 11
101.7563217179
 21
127.2854616121
 31
0.0
  0
ARC
  5
2BC
330
1F
100
AcDbEntity
  8
0
  6
Continuous
 62
     7
370
    25
100
AcDbCircle
 10
108.5952063882
 20
121.7474422604
 30
0.0
 40
5.900000000000005
100
AcDbArc
 50
270.0
 51
345.2716043991
  0
ARC
  5
2BD
330
1F
100
AcDbEntity
  8
0
  6
Continuous
 62
     7
370
    25
100
AcDbCircle
 10
108.5952063882
 20
121.7474422604
 30
0.0
 40
5.900000000000005
100
AcDbArc
 50
14.7283956009
 51
165.2716043991
  0
ARC
  5
2BE
330
1F
100
AcDbEntity
  8
0
  6
Continuous
 62
     7
370
    25
100
AcDbCircle
 10
108.5952063882
 20
121.7474422604
 30
0.0
 40
5.899999999999991
100
AcDbArc
 50
194.7283956009
 51
270.0
  0
LINE
  5
2BF
330
1F
100
AcDbEntity
  8
0
  6
Continuous
 62
     7
370
    25
100
AcDbLine
 10
116.3894352363
 20
126.2474420667
 30
0.0
 11
116.4360642293
 21
125.7425585949
 31
0.0
  0
LINE
  5
2C0
330
1F
100
AcDbEntity
  8
0
  6
Continuous
 62
     7
370
    25
100
AcDbLine
 10
115.975507521
 20
126.5402657167
 30
0.0
 11
116.3894352363
 21
126.2474420667
 31
0.0
  0
LINE
  5
2C1
330
1F
100
AcDbEntity
  8
0
  6
Continuous
 62
     7
370
    25
100
AcDbLine
 10
100.7543485471
 20
125.7425585949
 30
0.0
 11
100.8009775401
 21
126.2474420667
 31
0.0
  0
LINE
  5
2C2
330
1F
100
AcDbEntity
  8
0
  6
Continuous
 62
     7
370
    25
100
AcDbLine
 10
100.8009775401
 20
126.2474420667
 30
0.0
 11
101.2149052554
 21
126.5402657167
 31
0.0
  0
LINE
  5
2C3
330
1F
100
AcDbEntity
  8
0
  6
Continuous
 62
     7
370
    25
100
AcDbLine
 10
116.4360642293
 20
125.7425585949
 30
0.0
 11
116.817115792
 21
125.4080719967
 31
0.0
  0
LINE
  5
2C4
330
1F
100
AcDbEntity
  8
0
  6
Continuous
 62
     7
370
    25
100
AcDbLine
 10
116.817115792
 20
125.4080719967
 30
0.0
 11
116.8107138806
 21
124.9010802433
 31
0.0
  0
LINE
  5
2C5
330
1F
100
AcDbEntity
  8
0
  6
Continuous
 62
     7
370
    25
100
AcDbLine
 10
100.3732969844
 20
125.4080719967
 30
0.0
 11
100.7543485471
 21
125.7425585949
 31
0.0
  0
LINE
  5
2C6
330
1F
100
AcDbEntity
  8
0
  6
Continuous
 62
     7
370
    25
100
AcDbLine
 10
100.3796988958
 20
124.9010802433
 30
0.0
 11
100.3732969844
 21
125.4080719967
 31
0.0
  0
LINE
  5
2C7
330
1F
100
AcDbEntity
  8
0
  6
Continuous
 62
     7
370
    25
100
AcDbLine
 10
100.0950587773
 20
124.0250498243
 30
0.0
 11
100.035698139
 21
124.5285952185
 31
0.0
  0
LINE
  5
2C8
330
1F
100
AcDbEntity
  8
0
  6
Continuous
 62
     7
370
    25
100
AcDbLine
 10
100.035698139
 20
124.5285952185
 30
0.0
 11
100.3796988958
 21
124.9010802433
 31
0.0
  0
LINE
  5
2C9
330
1F
100
AcDbEntity
  8
0
  6
Continuous
 62
     7
370
    25
100
AcDbLine
 10
116.8107138806
 20
124.9010802433
 30
0.0
 11
117.1547146374
 21
124.5285952185
 31
0.0
  0
LINE
  5
2CA
330
1F
100
AcDbEntity
  8
0
  6
Continuous
 62
     7
370
    25
100
AcDbLine
 10
117.1547146374
 20
124.5285952185
 30
0.0
 11
117.0953539991
 21
124.0250498243
 31
0.0
  0
LINE
  5
2CB
330
1F
100
AcDbEntity
  8
0
  6
Continuous
 62
     7
370
    25
100
AcDbLine
 10
117.0953539991
 20
124.0250498243
 30
0.0
 11
117.3985348874
 21
123.6186474283
 31
0.0
  0
LINE
  5
2CC
330
1F
100
AcDbEntity
  8
0
  6
Continuous
 62
     7
370
    25
100
AcDbLine
 10
117.3985348874
 20
123.6186474283
 30
0.0
 11
117.2868637228
 21
123.1240655482
 31
0.0
  0
LINE
  5
2CD
330
1F
100
AcDbEntity
  8
0
  6
Continuous
 62
     7
370
    25
100
AcDbLine
 10
99.9035490536
 20
123.1240655482
 30
0.0
 11
99.791877889
 21
123.6186474283
 31
0.0
  0
LINE
  5
2CE
330
1F
100
AcDbEntity
  8
0
  6
Continuous
 62
     7
370
    25
100
AcDbLine
 10
99.791877889
 20
123.6186474283
 30
0.0
 11
100.0950587773
 21
124.0250498243
 31
0.0
  0
LINE
  5
2CF
330
1F
100
AcDbEntity
  8
0
  6
Continuous
 62
     7
370
    25
100
AcDbLine
 10
99.8072661319
 20
122.2079986777
 30
0.0
 11
99.6445091301
 21
122.6881984342
 31
0.0
  0
LINE
  5
2D0
330
1F
100
AcDbEntity
  8
0
  6
Continuous
 62
     7
370
    25
100
AcDbLine
 10
99.6445091301
 20
122.6881984342
 30
0.0
 11
99.9035490536
 21
123.1240655482
 31
0.0
  0
LINE
  5
2D1
330
1F
100
AcDbEntity
  8
0
  6
Continuous
 62
     7
370
    25
100
AcDbLine
 10
117.5459036463
 20
122.6881984342
 30
0.0
 11
117.3831466445
 21
122.2079986777
 31
0.0
  0
LINE
  5
2D2
330
1F
100
AcDbEntity
  8
0
  6
Continuous
 62
     7
370
    25
100
AcDbLine
 10
117.2868637228
 20
123.1240655482
 30
0.0
 11
117.5459036463
 21
122.6881984342
 31
0.0
  0
LINE
  5
2D3
330
1F
100
AcDbEntity
  8
0
  6
Continuous
 62
     7
370
    25
100
AcDbLine
 10
117.5459036463
 20
120.8066860866
 30
0.0
 11
117.2868637228
 21
120.3708189726
 31
0.0
  0
LINE
  5
2D4
330
1F
100
AcDbEntity
  8
0
  6
Continuous
 62
     7
370
    25
100
AcDbLine
 10
117.3831466445
 20
121.2868858432
 30
0.0
 11
117.5459036463
 21
120.8066860866
 31
0.0
  0
LINE
  5
2D5
330
1F
100
AcDbEntity
  8
0
  6
Continuous
 62
     7
370
    25
100
AcDbLine
 10
99.8072661319
 20
121.2868858432
 30
0.0
 11
99.5952067756
 21
121.7474422604
 31
0.0
  0
LINE
  5
2D6
330
1F
100
AcDbEntity
  8
0
  6
Continuous
 62
     7
370
    25
100
AcDbLine
 10
99.5952067756
 20
121.7474422604
 30
0.0
 11
99.8072661319
 21
122.2079986777
 31
0.0
  0
LINE
  5
2D7
330
1F
100
AcDbEntity
  8
0
  6
Continuous
 62
     7
370
    25
100
AcDbLine
 10
99.9035490536
 20
120.3708189726
 30
0.0
 11
99.6445091301
 21
120.8066860866
 31
0.0
  0
LINE
  5
2D8
330
1F
100
AcDbEntity
  8
0
  6
Continuous
 62
     7
370
    25
100
AcDbLine
 10
99.6445091301
 20
120.8066860866
 30
0.0
 11
99.8072661319
 21
121.2868858432
 31
0.0
  0
LINE
  5
2D9
330
1F
100
AcDbEntity
  8
0
  6
Continuous
 62
     7
370
    25
100
AcDbLine
 10
117.5952060008
 20
121.7474422604
 30
0.0
 11
117.3831466445
 21
121.2868858432
 31
0.0
  0
LINE
  5
2DA
330
1F
100
AcDbEntity
  8
0
  6
Continuous
 62
     7
370
    25
100
AcDbLine
 10
117.3831466445
 20
122.2079986777
 30
0.0
 11
117.5952060008
 21
121.7474422604
 31
0.0
  0
LINE
  5
2DB
330
1F
100
AcDbEntity
  8
0
  6
Continuous
 62
     7
370
    25
100
AcDbLine
 10
117.3985348874
 20
119.8762370926
 30
0.0
 11
117.0953539991
 21
119.4698346966
 31
0.0
  0
LINE
  5
2DC
330
1F
100
AcDbEntity
  8
0
  6
Continuous
 62
     7
370
    25
100
AcDbLine
 10
117.2868637228
 20
120.3708189726
 30
0.0
 11
117.3985348874
 21
119.8762370926
 31
0.0
  0
LINE
  5
2DD
330
1F
100
AcDbEntity
  8
0
  6
Continuous
 62
     7
370
    25
100
AcDbLine
 10
100.0950587773
 20
119.4698346966
 30
0.0
 11
99.791877889
 21
119.8762370926
 31
0.0
  0
LINE
  5
2DE
330
1F
100
AcDbEntity
  8
0
  6
Continuous
 62
     7
370
    25
100
AcDbLine
 10
99.791877889
 20
119.8762370926
 30
0.0
 11
99.9035490536
 21
120.3708189726
 31
0.0
  0
LINE
  5
2DF
330
1F
100
AcDbEntity
  8
0
  6
Continuous
 62
     7
370
    25
100
AcDbLine
 10
117.0953539991
 20
119.4698346966
 30
0.0
 11
117.1547146374
 21
118.9662893024
 31
0.0
  0
LINE
  5
2E0
330
1F
100
AcDbEntity
  8
0
  6
Continuous
 62
     7
370
    25
100
AcDbLine
 10
117.1547146374
 20
118.9662893024
 30
0.0
 11
116.8107138806
 21
118.5938042775
 31
0.0
  0
LINE
  5
2E1
330
1F
100
AcDbEntity
  8
0
  6
Continuous
 62
     7
370
    25
100
AcDbLine
 10
100.3796988958
 20
118.5938042775
 30
0.0
 11
100.035698139
 21
118.9662893024
 31
0.0
  0
LINE
  5
2E2
330
1F
100
AcDbEntity
  8
0
  6
Continuous
 62
     7
370
    25
100
AcDbLine
 10
100.035698139
 20
118.9662893024
 30
0.0
 11
100.0950587773
 21
119.4698346966
 31
0.0
  0
LINE
  5
2E3
330
1F
100
AcDbEntity
  8
0
  6
Continuous
 62
     7
370
    25
100
AcDbLine
 10
100.7543485471
 20
117.752325926
 30
0.0
 11
100.3732969844
 21
118.0868125242
 31
0.0
  0
LINE
  5
2E4
330
1F
100
AcDbEntity
  8
0
  6
Continuous
 62
     7
370
    25
100
AcDbLine
 10
100.3732969844
 20
118.0868125242
 30
0.0
 11
100.3796988958
 21
118.5938042775
 31
0.0
  0
LINE
  5
2E5
330
1F
100
AcDbEntity
  8
0
  6
Continuous
 62
     7
370
    25
100
AcDbLine
 10
116.8107138806
 20
118.5938042775
 30
0.0
 11
116.817115792
 21
118.0868125242
 31
0.0
  0
LINE
  5
2E6
330
1F
100
AcDbEntity
  8
0
  6
Continuous
 62
     7
370
    25
100
AcDbLine
 10
116.817115792
 20
118.0868125242
 30
0.0
 11
116.4360642293
 21
117.752325926
 31
0.0
  0
LINE
  5
2E7
330
1F
100
AcDbEntity
  8
0
  6
Continuous
 62
     7
370
    25
100
AcDbLine
 10
116.4360642293
 20
117.752325926
 30
0.0
 11
116.3894352363
 21
117.2474424542
 31
0.0
  0
LINE
  5
2E8
330
1F
100
AcDbEntity
  8
0
  6
Continuous
 62
     7
370
    25
100
AcDbLine
 10
116.3894352363
 20
117.2474424542
 30
0.0
 11
115.975507521
 21
116.9546188042
 31
0.0
  0
LINE
  5
2E9
330
1F
100
AcDbEntity
  8
0
  6
Continuous
 62
     7
370
    25
100
AcDbLine
 10
101.2149052554
 20
116.9546188042
 30
0.0
 11
100.8009775401
 21
117.2474424542
 31
0.0
  0
LINE
  5
2EA
330
1F
100
AcDbEntity
  8
0
  6
Continuous
 62
     7
370
    25
100
AcDbLine
 10
100.8009775401
 20
117.2474424542
 30
0.0
 11
100.7543485471
 21
117.752325926
 31
0.0
  0
LINE
  5
2EB
330
1F
100
AcDbEntity
  8
0
  6
Continuous
 62
     7
370
    25
100
AcDbLine
 10
115.8763593854
 20
116.4573749714
 30
0.0
 11
115.4340910585
 21
116.2094229088
 31
0.0
  0
LINE
  5
2EC
330
1F
100
AcDbEntity
  8
0
  6
Continuous
 62
     7
370
    25
100
AcDbLine
 10
115.975507521
 20
116.9546188042
 30
0.0
 11
115.8763593854
 21
116.4573749714
 31
0.0
  0
LINE
  5
2ED
330
1F
100
AcDbEntity
  8
0
  6
Continuous
 62
     7
370
    25
100
AcDbLine
 10
101.314053391
 20
116.4573749714
 30
0.0
 11
101.2149052554
 21
116.9546188042
 31
0.0
  0
LINE
  5
2EE
330
1F
100
AcDbEntity
  8
0
  6
Continuous
 62
     7
370
    25
100
AcDbLine
 10
101.7563217179
 20
116.2094229088
 30
0.0
 11
101.314053391
 21
116.4573749714
 31
0.0
  0
LINE
  5
2EF
330
1F
100
AcDbEntity
  8
0
  6
Continuous
 62
     7
370
    25
100
AcDbLine
 10
114.8177459696
 20
115.5249026791
 30
0.0
 11
114.6173816965
 21
115.0591389463
 31
0.0
  0
LINE
  5
2F0
330
1F
100
AcDbEntity
  8
0
  6
Continuous
 62
     7
370
    25
100
AcDbLine
 10
114.6173816965
 20
115.0591389463
 30
0.0
 11
114.1332257399
 21
114.9085575902
 31
0.0
  0
LINE
  5
2F1
330
1F
100
AcDbEntity
  8
0
  6
Continuous
 62
     7
370
    25
100
AcDbLine
 10
115.4340910585
 20
116.2094229088
 30
0.0
 11
115.2835097024
 21
115.7252669521
 31
0.0
  0
LINE
  5
2F2
330
1F
100
AcDbEntity
  8
0
  6
Continuous
 62
     7
370
    25
100
AcDbLine
 10
115.2835097024
 20
115.7252669521
 30
0.0
 11
114.8177459696
 21
115.5249026791
 31
0.0
  0
LINE
  5
2F3
330
1F
100
AcDbEntity
  8
0
  6
Continuous
 62
     7
370
    25
100
AcDbLine
 10
101.9069030741
 20
115.7252669521
 30
0.0
 11
101.7563217179
 21
116.2094229088
 31
0.0
  0
LINE
  5
2F4
330
1F
100
AcDbEntity
  8
0
  6
Continuous
 62
     7
370
    25
100
AcDbLine
 10
102.3726668068
 20
115.5249026791
 30
0.0
 11
101.9069030741
 21
115.7252669521
 31
0.0
  0
LINE
  5
2F5
330
1F
100
AcDbEntity
  8
0
  6
Continuous
 62
     7
370
    25
100
AcDbLine
 10
103.0571870365
 20
114.9085575902
 30
0.0
 11
102.5730310799
 21
115.0591389463
 31
0.0
  0
LINE
  5
2F6
330
1F
100
AcDbEntity
  8
0
  6
Continuous
 62
     7
370
    25
100
AcDbLine
 10
102.5730310799
 20
115.0591389463
 30
0.0
 11
102.3726668068
 21
115.5249026791
 31
0.0
  0
LINE
  5
2F7
330
1F
100
AcDbEntity
  8
0
  6
Continuous
 62
     7
370
    25
100
AcDbLine
 10
113.0952061945
 20
113.9532134124
 30
0.0
 11
112.5903227226
 21
113.9065844194
 31
0.0
  0
LINE
  5
2F8
330
1F
100
AcDbEntity
  8
0
  6
Continuous
 62
     7
370
    25
100
AcDbLine
 10
113.3880298444
 20
114.3671411276
 30
0.0
 11
113.0952061945
 21
113.9532134124
 31
0.0
  0
LINE
  5
2F9
330
1F
100
AcDbEntity
  8
0
  6
Continuous
 62
     7
370
    25
100
AcDbLine
 10
114.1332257399
 20
114.9085575902
 30
0.0
 11
113.8852736772
 21
114.4662892633
 31
0.0
  0
LINE
  5
2FA
330
1F
100
AcDbEntity
  8
0
  6
Continuous
 62
     7
370
    25
100
AcDbLine
 10
113.8852736772
 20
114.4662892633
 30
0.0
 11
113.3880298444
 21
114.3671411276
 31
0.0
  0
LINE
  5
2FB
330
1F
100
AcDbEntity
  8
0
  6
Continuous
 62
     7
370
    25
100
AcDbLine
 10
103.802382932
 20
114.3671411276
 30
0.0
 11
103.3051390992
 21
114.4662892633
 31
0.0
  0
LINE
  5
2FC
330
1F
100
AcDbEntity
  8
0
  6
Continuous
 62
     7
370
    25
100
AcDbLine
 10
103.3051390992
 20
114.4662892633
 30
0.0
 11
103.0571870365
 21
114.9085575902
 31
0.0
  0
LINE
  5
2FD
330
1F
100
AcDbEntity
  8
0
  6
Continuous
 62
     7
370
    25
100
AcDbLine
 10
104.6000900538
 20
113.9065844194
 30
0.0
 11
104.0952065819
 21
113.9532134124
 31
0.0
  0
LINE
  5
2FE
330
1F
100
AcDbEntity
  8
0
  6
Continuous
 62
     7
370
    25
100
AcDbLine
 10
104.0952065819
 20
113.9532134124
 30
0.0
 11
103.802382932
 21
114.3671411276
 31
0.0
  0
LINE
  5
2FF
330
1F
100
AcDbEntity
  8
0
  6
Continuous
 62
     7
370
    25
100
AcDbLine
 10
105.4415684053
 20
113.531934768
 30
0.0
 11
104.9345766519
 21
113.5255328566
 31
0.0
  0
LINE
  5
300
330
1F
100
AcDbEntity
  8
0
  6
Continuous
 62
     7
370
    25
100
AcDbLine
 10
104.9345766519
 20
113.5255328566
 30
0.0
 11
104.6000900538
 21
113.9065844194
 31
0.0
  0
LINE
  5
301
330
1F
100
AcDbEntity
  8
0
  6
Continuous
 62
     7
370
    25
100
AcDbLine
 10
112.5903227226
 20
113.9065844194
 30
0.0
 11
112.2558361245
 21
113.5255328566
 31
0.0
  0
LINE
  5
302
330
1F
100
AcDbEntity
  8
0
  6
Continuous
 62
     7
370
    25
100
AcDbLine
 10
112.2558361245
 20
113.5255328566
 30
0.0
 11
111.7488443711
 21
113.531934768
 31
0.0
  0
LINE
  5
303
330
1F
100
AcDbEntity
  8
0
  6
Continuous
 62
     7
370
    25
100
AcDbLine
 10
106.3175988243
 20
113.2472946495
 30
0.0
 11
105.8140534302
 21
113.1879340113
 31
0.0
  0
LINE
  5
304
330
1F
100
AcDbEntity
  8
0
  6
Continuous
 62
     7
370
    25
100
AcDbLine
 10
105.8140534302
 20
113.1879340113
 30
0.0
 11
105.4415684053
 21
113.531934768
 31
0.0
  0
LINE
  5
305
330
1F
100
AcDbEntity
  8
0
  6
Continuous
 62
     7
370
    25
100
AcDbLine
 10
111.3763593463
 20
113.1879340113
 30
0.0
 11
110.8728139521
 21
113.2472946495
 31
0.0
  0
LINE
  5
306
330
1F
100
AcDbEntity
  8
0
  6
Continuous
 62
     7
370
    25
100
AcDbLine
 10
111.7488443711
 20
113.531934768
 30
0.0
 11
111.3763593463
 21
113.1879340113
 31
0.0
  0
LINE
  5
307
330
1F
100
AcDbEntity
  8
0
  6
Continuous
 62
     7
370
    25
100
AcDbLine
 10
110.8728139521
 20
113.2472946495
 30
0.0
 11
110.4664115561
 21
112.9441137612
 31
0.0
  0
LINE
  5
308
330
1F
100
AcDbEntity
  8
0
  6
Continuous
 62
     7
370
    25
100
AcDbLine
 10
110.4664115561
 20
112.9441137612
 30
0.0
 11
109.971829676
 21
113.0557849259
 31
0.0
  0
LINE
  5
309
330
1F
100
AcDbEntity
  8
0
  6
Continuous
 62
     7
370
    25
100
AcDbLine
 10
109.0557628054
 20
112.9595020041
 30
0.0
 11
108.5952063882
 21
112.7474426479
 31
0.0
  0
LINE
  5
30A
330
1F
100
AcDbEntity
  8
0
  6
Continuous
 62
     7
370
    25
100
AcDbLine
 10
108.5952063882
 20
112.7474426479
 30
0.0
 11
108.134649971
 21
112.9595020041
 31
0.0
  0
LINE
  5
30B
330
1F
100
AcDbEntity
  8
0
  6
Continuous
 62
     7
370
    25
100
AcDbLine
 10
107.2185831004
 20
113.0557849259
 30
0.0
 11
106.7240012204
 21
112.9441137612
 31
0.0
  0
LINE
  5
30C
330
1F
100
AcDbEntity
  8
0
  6
Continuous
 62
     7
370
    25
100
AcDbLine
 10
106.7240012204
 20
112.9441137612
 30
0.0
 11
106.3175988243
 21
113.2472946495
 31
0.0
  0
LINE
  5
30D
330
1F
100
AcDbEntity
  8
0
  6
Continuous
 62
     7
370
    25
100
AcDbLine
 10
109.971829676
 20
113.0557849259
 30
0.0
 11
109.535962562
 21
112.7967450023
 31
0.0
  0
LINE
  5
30E
330
1F
100
AcDbEntity
  8
0
  6
Continuous
 62
     7
370
    25
100
AcDbLine
 10
109.535962562
 20
112.7967450023
 30
0.0
 11
109.0557628054
 21
112.9595020041
 31
0.0
  0
LINE
  5
30F
330
1F
100
AcDbEntity
  8
0
  6
Continuous
 62
     7
370
    25
100
AcDbLine
 10
108.134649971
 20
112.9595020041
 30
0.0
 11
107.6544502144
 21
112.7967450023
 31
0.0
  0
LINE
  5
310
330
1F
100
AcDbEntity
  8
0
  6
Continuous
 62
     7
370
    25
100
AcDbLine
 10
107.6544502144
 20
112.7967450023
 30
0.0
 11
107.2185831004
 21
113.0557849259
 31
0.0
  0
LINE
  5
311
330
1F
100
AcDbEntity
  8
0
  6
Continuous
 62
     7
370
    25
100
AcDbLine
 10
95.59520612
 20
113.7474418805
 30
0.0
 11
95.59520612
 21
129.7474426404
 31
0.0
  0
LINE
  5
312
330
1F
100
AcDbEntity
  8
0
  6
Continuous
 62
     7
370
    25
100
AcDbLine
 10
85.3598294639
 20
128.3474422247
 30
0.0
 11
85.3598294639
 21
115.1474422962
 31
0.0
  0
LINE
  5
313
330
1F
100
AcDbEntity
  8
0
  6
Continuous
 62
     7
370
    25
100
AcDbLine
 10
80.5952055239
 20
127.2474422306
 30
0.0
 11
80.5952055239
 21
116.2474422902
 31
0.0
  0
LINE
  5
314
330
1F
100
AcDbEntity
  8
0
  6
Continuous
 62
     7
370
    25
100
AcDbLine
 10
88.7452056491
 20
127.1974423156
 30
0.0
 11
88.7452056491
 21
116.2974422053
 31
0.0
  0
LINE
  5
315
330
1F
100
AcDbEntity
  8
0
  6
Continuous
 62
     7
370
    25
100
AcDbLine
 10
87.5952066713
 20
128.3474422247
 30
0.0
 11
87.5952066713
 21
115.1474422962
 31
0.0
  0
LINE
  5
316
330
1F
100
AcDbEntity
  8
0
  6
Continuous
 62
     7
370
    25
100
AcDbLine
 10
91.6952071571
 20
128.3474422247
 30
0.0
 11
91.6952071571
 21
115.1474422962
 31
0.0
  0
LINE
  5
317
330
1F
100
AcDbEntity
  8
0
  6
Continuous
 62
     7
370
    25
100
AcDbLine
 10
90.5452063167
 20
127.1974423156
 30
0.0
 11
90.5452063167
 21
116.2974422053
 31
0.0
  0
LINE
  5
318
330
1F
100
AcDbEntity
  8
0
  6
Continuous
 62
     7
370
    25
100
AcDbLine
 10
75.595206567
 20
116.5474422463
 30
0.0
 11
75.595206567
 21
126.9474422746
 31
0.0
  0
LINE
  5
319
330
1F
100
AcDbEntity
  8
0
  6
Continuous
 62
     7
370
    25
100
AcDbLine
 10
116.4771728077
 20
111.747442484
 30
0.0
 11
116.4771728077
 21
117.7828705125
 31
0.0
  0
LINE
  5
31A
330
1F
100
AcDbEntity
  8
0
  6
Continuous
 62
     7
370
    25
100
AcDbLine
 10
116.4771728077
 20
125.7102226094
 30
0.0
 11
116.4771728077
 21
131.7474420369
 31
0.0
  0
LINE
  5
31B
330
1F
100
AcDbEntity
  8
0
  6
Continuous
 62
     7
370
    25
100
AcDbLine
 10
118.0952060827
 20
111.747442484
 30
0.0
 11
118.0952060827
 21
131.7474420369
 31
0.0
  0
SPLINE
  5
31C
330
1F
100
AcDbEntity
  8
0
  6
Continuous
 62
     7
370
    25
100
AcDbSpline
210
0.0
220
0.0
230
1.0
 70
     8
 71
     3
 72
    12
 73
     8
 74
     0
 42
0.000000001
 43
0.00000001
 40
0.0
 40
0.0
 40
0.0
 40
0.0
 40
0.25
 40
0.25
 40
0.5
 40
0.5
 40
1.0
 40
1.0
 40
1.0
 40
1.0
 10
116.3242924553084
 20
112.9849810806925
 30
0.0
 10
116.2431758532038
 20
112.9504759428324
 30
0.0
 10
116.1961459300355
 20
112.917630871532
 30
0.0
 10
116.1332823285036
 20
112.8592783432853
 30
0.0
 10
116.1178326575864
 20
112.8336239796567
 30
0.0
 10
116.0906489932071
 20
112.7705247269169
 30
0.0
 10
116.0952063882064
 20
112.7474422604423
 30
0.0
 10
116.0952063882064
 20
112.7474422604423
 30
0.0
  0
SPLINE
  5
31D
330
1F
100
AcDbEntity
  8
0
  6
Continuous
 62
     7
370
    25
100
AcDbSpline
210
0.0
220
0.0
230
1.0
 70
     8
 71
     3
 72
    14
 73
    10
 74
     0
 42
0.000000001
 43
0.00000001
 40
0.0
 40
0.0
 40
0.0
 40
0.0
 40
0.25
 40
0.25
 40
0.5
 40
0.5
 40
0.75
 40
0.75
 40
1.0
 40
1.0
 40
1.0
 40
1.0
 10
116.3242924553084
 20
112.9849810806925
 30
0.0
 10
116.3518134430535
 20
112.996687876238
 30
0.0
 10
116.3717333648899
 20
113.0287298293196
 30
0.0
 10
116.387400406708
 20
113.1280535799846
 30
0.0
 10
116.3829085748956
 20
113.1958770227654
 30
0.0
 10
116.3516522296121
 20
113.3583186401782
 30
0.0
 10
116.3252796462303
 20
113.4527640369139
 30
0.0
 10
116.262443095086
 20
113.6609931445105
 30
0.0
 10
116.2264035162259
 20
113.7735915373936
 30
0.0
 10
116.1924075128603
 20
113.8933479309937
 30
0.0
  0
SPLINE
  5
31E
330
1F
100
AcDbEntity
  8
0
  6
Continuous
 62
     7
370
    25
100
AcDbSpline
210
0.0
220
0.0
230
1.0
 70
     8
 71
     3
 72
     8
 73
     4
 74
     0
 42
0.000000001
 43
0.00000001
 40
0.0
 40
0.0
 40
0.0
 40
0.0
 40
1.0
 40
1.0
 40
1.0
 40
1.0
 10
116.0952063882064
 20
114.6235388360548
 30
0.0
 10
116.0952063882064
 20
114.3761093792598
 30
0.0
 10
116.1245710952842
 20
114.1323126303524
 30
0.0
 10
116.1924075128603
 20
113.8933479309937
 30
0.0
  0
LINE
  5
31F
330
1F
100
AcDbEntity
  8
0
  6
Continuous
 62
     7
370
    25
100
AcDbLine
 10
116.0952062206
 20
114.623538889
 30
0.0
 11
116.0952062206
 21
117.026864756
 31
0.0
  0
LINE
  5
320
330
1F
100
AcDbEntity
  8
0
  6
Continuous
 62
     7
370
    25
100
AcDbLine
 10
116.0952062206
 20
126.4588876814
 30
0.0
 11
116.0952062206
 21
128.8713456318
 31
0.0
  0
SPLINE
  5
321
330
1F
100
AcDbEntity
  8
0
  6
Continuous
 62
     7
370
    25
100
AcDbSpline
210
0.0
220
0.0
230
1.0
 70
     8
 71
     3
 72
     8
 73
     4
 74
     0
 42
0.000000001
 43
0.00000001
 40
0.0
 40
0.0
 40
0.0
 40
0.0
 40
1.0
 40
1.0
 40
1.0
 40
1.0
 10
116.1924075128603
 20
129.6015365898909
 30
0.0
 10
116.1245710952842
 20
129.3625718905321
 30
0.0
 10
116.0952063882064
 20
129.1187751416248
 30
0.0
 10
116.0952063882064
 20
128.8713456848298
 30
0.0
  0
SPLINE
  5
322
330
1F
100
AcDbEntity
  8
0
  6
Continuous
 62
     7
370
    25
100
AcDbSpline
210
0.0
220
0.0
230
1.0
 70
     8
 71
     3
 72
    12
 73
     8
 74
     0
 42
0.000000001
 43
0.00000001
 40
0.0
 40
0.0
 40
0.0
 40
0.0
 40
0.4999999999999992
 40
0.4999999999999992
 40
0.7499999999999996
 40
0.7499999999999996
 40
1.0
 40
1.0
 40
1.0
 40
1.0
 10
116.1924075128603
 20
129.6015365898909
 30
0.0
 10
116.2602772728701
 20
129.840618743339
 30
0.0
 10
116.3363118241238
 20
130.0563888505158
 30
0.0
 10
116.3829564225009
 20
130.2994834432197
 30
0.0
 10
116.3873954190235
 20
130.3671487186958
 30
0.0
 10
116.3716648052307
 20
130.4663018348524
 30
0.0
 10
116.3517843752883
 20
130.4982090094057
 30
0.0
 10
116.3242924553084
 20
130.5099034401921
 30
0.0
  0
SPLINE
  5
323
330
1F
100
AcDbEntity
  8
0
  6
Continuous
 62
     7
370
    25
100
AcDbSpline
210
0.0
220
0.0
230
1.0
 70
     8
 71
     3
 72
    12
 73
     8
 74
     0
 42
0.000000001
 43
0.00000001
 40
0.0
 40
0.0
 40
0.0
 40
0.0
 40
0.5000000000000002
 40
0.5000000000000002
 40
0.7500000000000001
 40
0.7500000000000001
 40
1.0
 40
1.0
 40
1.0
 40
1.0
 10
116.0952063882064
 20
130.7474422604423
 30
0.0
 10
116.0952063882064
 20
130.7474422604423
 30
0.0
 10
116.0906489932071
 20
130.7243597939677
 30
0.0
 10
116.1178326575864
 20
130.6612605412279
 30
0.0
 10
116.1332823285036
 20
130.6356061775993
 30
0.0
 10
116.1961459300355
 20
130.5772536493527
 30
0.0
 10
116.2431758532038
 20
130.5444085780522
 30
0.0
 10
116.3242924553084
 20
130.5099034401921
 30
0.0
  0
LINE
  5
324
330
1F
100
AcDbEntity
  8
0
  6
Continuous
 62
     7
370
    25
100
AcDbLine
 10
98.5952066117
 20
111.9974420593
 30
0.0
 11
98.5952066117
 21
131.4974424616
 31
0.0
  0
LINE
  5
325
330
1F
100
AcDbEntity
  8
0
  6
Continuous
 62
     7
370
    25
100
AcDbLine
 10
98.845206187
 20
131.7474420369
 30
0.0
 11
98.845206187
 21
111.747442484
 31
0.0
  0
LINE
  5
326
330
1F
100
AcDbEntity
  8
0
  6
Continuous
 62
     7
370
    25
100
AcDbLine
 10
118.5952061647
 20
131.247441955
 30
0.0
 11
118.5952061647
 21
112.2474425659
 31
0.0
  0
LINE
  5
327
330
1F
100
AcDbEntity
  8
0
  6
Continuous
 62
     7
370
    25
100
AcDbLine
 10
100.7132399687
 20
131.7474420369
 30
0.0
 11
100.7132399687
 21
125.7120140084
 31
0.0
  0
LINE
  5
328
330
1F
100
AcDbEntity
  8
0
  6
Continuous
 62
     7
370
    25
100
AcDbLine
 10
100.7132399687
 20
117.7846619115
 30
0.0
 11
100.7132399687
 21
111.747442484
 31
0.0
  0
SPLINE
  5
329
330
1F
100
AcDbEntity
  8
0
  6
Continuous
 62
     7
370
    25
100
AcDbSpline
210
0.0
220
0.0
230
1.0
 70
     8
 71
     3
 72
    12
 73
     8
 74
     0
 42
0.000000001
 43
0.00000001
 40
0.0
 40
0.0
 40
0.0
 40
0.0
 40
0.2500000000000001
 40
0.2500000000000001
 40
0.5000000000000001
 40
0.5000000000000001
 40
1.0
 40
1.0
 40
1.0
 40
1.0
 10
100.8661203211043
 20
130.5099034401921
 30
0.0
 10
100.947236923209
 20
130.5444085780522
 30
0.0
 10
100.9942668463773
 20
130.5772536493527
 30
0.0
 10
101.0571304479091
 20
130.6356061775993
 30
0.0
 10
101.0725801188263
 20
130.6612605412279
 30
0.0
 10
101.0997637832056
 20
130.7243597939677
 30
0.0
 10
101.0952063882064
 20
130.7474422604423
 30
0.0
 10
101.0952063882064
 20
130.7474422604423
 30
0.0
  0
SPLINE
  5
32A
330
1F
100
AcDbEntity
  8
0
  6
Continuous
 62
     7
370
    25
100
AcDbSpline
210
0.0
220
0.0
230
1.0
 70
     8
 71
     3
 72
    14
 73
    10
 74
     0
 42
0.000000001
 43
0.00000001
 40
0.0
 40
0.0
 40
0.0
 40
0.0
 40
0.25
 40
0.25
 40
0.5
 40
0.5
 40
0.75
 40
0.75
 40
1.0
 40
1.0
 40
1.0
 40
1.0
 10
100.8661203211043
 20
130.5099034401921
 30
0.0
 10
100.8385993333593
 20
130.4981966446466
 30
0.0
 10
100.8186794115229
 20
130.466154691565
 30
0.0
 10
100.8030123697048
 20
130.3668309409
 30
0.0
 10
100.8075042015171
 20
130.2990074981192
 30
0.0
 10
100.8387605468007
 20
130.1365658807064
 30
0.0
 10
100.8651331301825
 20
130.0421204839706
 30
0.0
 10
100.9279696813268
 20
129.8338913763741
 30
0.0
 10
100.9640092601869
 20
129.721292983491
 30
0.0
 10
100.9980052635525
 20
129.6015365898909
 30
0.0
  0
SPLINE
  5
32B
330
1F
100
AcDbEntity
  8
0
  6
Continuous
 62
     7
370
    25
100
AcDbSpline
210
0.0
220
0.0
230
1.0
 70
     8
 71
     3
 72
     8
 73
     4
 74
     0
 42
0.000000001
 43
0.00000001
 40
0.0
 40
0.0
 40
0.0
 40
0.0
 40
1.0
 40
1.0
 40
1.0
 40
1.0
 10
101.0952063882064
 20
128.8713456848298
 30
0.0
 10
101.0952063882064
 20
129.1187751416248
 30
0.0
 10
101.0658416811285
 20
129.3625718905322
 30
0.0
 10
100.9980052635525
 20
129.6015365898909
 30
0.0
  0
LINE
  5
32C
330
1F
100
AcDbEntity
  8
0
  6
Continuous
 62
     7
370
    25
100
AcDbLine
 10
101.0952065558
 20
128.8713456318
 30
0.0
 11
101.0952065558
 21
126.4680197649
 31
0.0
  0
LINE
  5
32D
330
1F
100
AcDbEntity
  8
0
  6
Continuous
 62
     7
370
    25
100
AcDbLine
 10
101.0952065558
 20
117.0359968395
 30
0.0
 11
101.0952065558
 21
114.623538889
 31
0.0
  0
SPLINE
  5
32E
330
1F
100
AcDbEntity
  8
0
  6
Continuous
 62
     7
370
    25
100
AcDbSpline
210
0.0
220
0.0
230
1.0
 70
     8
 71
     3
 72
     8
 73
     4
 74
     0
 42
0.000000001
 43
0.00000001
 40
0.0
 40
0.0
 40
0.0
 40
0.0
 40
1.0
 40
1.0
 40
1.0
 40
1.0
 10
100.9980052635525
 20
113.8933479309937
 30
0.0
 10
101.0658416811285
 20
114.1323126303524
 30
0.0
 10
101.0952063882064
 20
114.3761093792598
 30
0.0
 10
101.0952063882064
 20
114.6235388360548
 30
0.0
  0
SPLINE
  5
32F
330
1F
100
AcDbEntity
  8
0
  6
Continuous
 62
     7
370
    25
100
AcDbSpline
210
0.0
220
0.0
230
1.0
 70
     8
 71
     3
 72
    12
 73
     8
 74
     0
 42
0.000000001
 43
0.00000001
 40
0.0
 40
0.0
 40
0.0
 40
0.0
 40
0.4999999999999992
 40
0.4999999999999992
 40
0.7499999999999996
 40
0.7499999999999996
 40
1.0
 40
1.0
 40
1.0
 40
1.0
 10
100.9980052635525
 20
113.8933479309937
 30
0.0
 10
100.9301355035427
 20
113.6542657775456
 30
0.0
 10
100.8541009522889
 20
113.4384956703688
 30
0.0
 10
100.8074563539119
 20
113.1954010776649
 30
0.0
 10
100.8030173573893
 20
113.1277358021888
 30
0.0
 10
100.8187479711821
 20
113.0285826860322
 30
0.0
 10
100.8386284011245
 20
112.9966755114789
 30
0.0
 10
100.8661203211043
 20
112.9849810806925
 30
0.0
  0
SPLINE
  5
330
330
1F
100
AcDbEntity
  8
0
  6
Continuous
 62
     7
370
    25
100
AcDbSpline
210
0.0
220
0.0
230
1.0
 70
     8
 71
     3
 72
    12
 73
     8
 74
     0
 42
0.000000001
 43
0.00000001
 40
0.0
 40
0.0
 40
0.0
 40
0.0
 40
0.4999999999999998
 40
0.4999999999999998
 40
0.7499999999999999
 40
0.7499999999999999
 40
1.0
 40
1.0
 40
1.0
 40
1.0
 10
101.0952063882064
 20
112.7474422604423
 30
0.0
 10
101.0952063882064
 20
112.7474422604423
 30
0.0
 10
101.0997637832056
 20
112.7705247269169
 30
0.0
 10
101.0725801188263
 20
112.8336239796567
 30
0.0
 10
101.0571304479091
 20
112.8592783432853
 30
0.0
 10
100.9942668463773
 20
112.917630871532
 30
0.0
 10
100.947236923209
 20
112.9504759428324
 30
0.0
 10
100.8661203211043
 20
112.9849810806925
 30
0.0
  0
ARC
  5
331
330
1F
100
AcDbEntity
  8
0
  6
Continuous
 62
     7
370
    25
100
AcDbCircle
 10
115.6418886229
 20
128.9303211164
 30
0.0
 40
0.4571377824698478
100
AcDbArc
 50
264.1388497305
 51
352.5875946393
  0
ARC
  5
332
330
1F
100
AcDbEntity
  8
0
  6
Continuous
 62
     7
370
    25
100
AcDbCircle
 10
115.6418886229
 20
114.5645634045
 30
0.0
 40
0.4571377824698478
100
AcDbArc
 50
7.4124053607
 51
95.8611502695
  0
ARC
  5
333
330
1F
100
AcDbEntity
  8
0
  6
Continuous
 62
     7
370
    25
100
AcDbCircle
 10
101.5485241535
 20
128.9303211164
 30
0.0
 40
0.4571377824698237
100
AcDbArc
 50
187.4124053607
 51
275.8611502695
  0
ARC
  5
334
330
1F
100
AcDbEntity
  8
0
  6
Continuous
 62
     7
370
    25
100
AcDbCircle
 10
101.5485241535
 20
114.5645634045
 30
0.0
 40
0.4571377824698478
100
AcDbArc
 50
84.1388497305
 51
172.5875946393
  0
LWPOLYLINE
  5
335
330
1F
100
AcDbEntity
  8
0
  6
Continuous
 62
     7
370
    25
100
AcDbPolyline
 90
        9
 70
   128
 43
0.0
 10
100.9980053501
 20
129.6015369893
 10
101.0211375402
 20
129.6087547392
 10
101.057249573
 20
129.6200228111
 10
101.1052876571
 20
129.6350124479
 10
101.1638487549
 20
129.6532849968
 10
101.2312220269
 20
129.6743077413
 10
101.3054400542
 20
129.6974660084
 10
101.3843356491
 20
129.722083658
 10
101.4656047196
 20
129.7474426404
  0
SPLINE
  5
336
330
1F
100
AcDbEntity
  8
0
  6
Continuous
 62
     7
370
    25
100
AcDbSpline
210
0.0
220
0.0
230
1.0
 70
     8
 71
     3
 72
     8
 73
     4
 74
     0
 42
0.000000001
 43
0.00000001
 40
0.0
 40
0.0
 40
0.0
 40
0.0
 40
1.0
 40
1.0
 40
1.0
 40
1.0
 10
101.4656048886678
 20
129.7474422604423
 30
0.0
 10
101.5546135840562
 20
129.4621865028125
 30
0.0
 10
101.5952063882064
 20
129.1697685529305
 30
0.0
 10
101.5952063882064
 20
128.8713456848298
 30
0.0
  0
LINE
  5
337
330
1F
100
AcDbEntity
  8
0
  6
Continuous
 62
     7
370
    25
100
AcDbLine
 10
101.0952065558
 20
128.8713456318
 30
0.0
 11
101.5952061721
 21
128.8713456318
 31
0.0
  0
SPLINE
  5
338
330
1F
100
AcDbEntity
  8
0
  6
Continuous
 62
     7
370
    25
100
AcDbSpline
210
0.0
220
0.0
230
1.0
 70
     8
 71
     3
 72
     8
 73
     4
 74
     0
 42
0.000000001
 43
0.00000001
 40
0.0
 40
0.0
 40
0.0
 40
0.0
 40
1.0
 40
1.0
 40
1.0
 40
1.0
 10
115.5952063882064
 20
128.8713456848298
 30
0.0
 10
115.5952063882064
 20
129.1697685529305
 30
0.0
 10
115.6357991923565
 20
129.4621865028125
 30
0.0
 10
115.7248078877449
 20
129.7474422604423
 30
0.0
  0
LWPOLYLINE
  5
339
330
1F
100
AcDbEntity
  8
0
  6
Continuous
 62
     7
370
    25
100
AcDbPolyline
 90
        9
 70
   128
 43
0.0
 10
115.7248080568
 20
129.7474426404
 10
115.8060771273
 20
129.722083658
 10
115.8849727222
 20
129.6974660084
 10
115.9591907495
 20
129.6743077413
 10
116.0265640215
 20
129.6532849968
 10
116.0851251194
 20
129.6350124479
 10
116.1331632034
 20
129.6200228111
 10
116.1692752363
 20
129.6087547392
 10
116.1924074264
 20
129.6015369893
  0
LINE
  5
33A
330
1F
100
AcDbEntity
  8
0
  6
Continuous
 62
     7
370
    25
100
AcDbLine
 10
115.5952066043
 20
128.8713456318
 30
0.0
 11
116.0952062206
 21
128.8713456318
 31
0.0
  0
SPLINE
  5
33B
330
1F
100
AcDbEntity
  8
0
  6
Continuous
 62
     7
370
    25
100
AcDbSpline
210
0.0
220
0.0
230
1.0
 70
     8
 71
     3
 72
     8
 73
     4
 74
     0
 42
0.000000001
 43
0.00000001
 40
0.0
 40
0.0
 40
0.0
 40
0.0
 40
1.0
 40
1.0
 40
1.0
 40
1.0
 10
101.5952063882064
 20
114.6235388360548
 30
0.0
 10
101.5952063882064
 20
114.325115967954
 30
0.0
 10
101.5546135840562
 20
114.0326980180721
 30
0.0
 10
101.4656048886678
 20
113.7474422604423
 30
0.0
  0
LWPOLYLINE
  5
33C
330
1F
100
AcDbEntity
  8
0
  6
Continuous
 62
     7
370
    25
100
AcDbPolyline
 90
        9
 70
   128
 43
0.0
 10
101.4656047196
 20
113.7474418805
 10
101.3843356491
 20
113.7728008628
 10
101.3054400542
 20
113.7974185125
 10
101.2312220269
 20
113.8205767796
 10
101.1638487549
 20
113.8415995241
 10
101.1052876571
 20
113.859872073
 10
101.057249573
 20
113.8748617098
 10
101.0211375402
 20
113.8861297817
 10
100.9980053501
 20
113.8933475316
  0
LINE
  5
33D
330
1F
100
AcDbEntity
  8
0
  6
Continuous
 62
     7
370
    25
100
AcDbLine
 10
101.0952065558
 20
114.623538889
 30
0.0
 11
101.5952061721
 21
114.623538889
 31
0.0
  0
LWPOLYLINE
  5
33E
330
1F
100
AcDbEntity
  8
0
  6
Continuous
 62
     7
370
    25
100
AcDbPolyline
 90
        9
 70
   128
 43
0.0
 10
116.1924074264
 20
113.8933475316
 10
116.1692752363
 20
113.8861297817
 10
116.1331632034
 20
113.8748617098
 10
116.0851251194
 20
113.859872073
 10
116.0265640215
 20
113.8415995241
 10
115.9591907495
 20
113.8205767796
 10
115.8849727222
 20
113.7974185125
 10
115.8060771273
 20
113.7728008628
 10
115.7248080568
 20
113.7474418805
  0
SPLINE
  5
33F
330
1F
100
AcDbEntity
  8
0
  6
Continuous
 62
     7
370
    25
100
AcDbSpline
210
0.0
220
0.0
230
1.0
 70
     8
 71
     3
 72
     8
 73
     4
 74
     0
 42
0.000000001
 43
0.00000001
 40
0.0
 40
0.0
 40
0.0
 40
0.0
 40
1.0
 40
1.0
 40
1.0
 40
1.0
 10
115.7248078877449
 20
113.7474422604423
 30
0.0
 10
115.6357991923565
 20
114.0326980180721
 30
0.0
 10
115.5952063882064
 20
114.325115967954
 30
0.0
 10
115.5952063882064
 20
114.6235388360548
 30
0.0
  0
LINE
  5
340
330
1F
100
AcDbEntity
  8
0
  6
Continuous
 62
     7
370
    25
100
AcDbLine
 10
116.0952062206
 20
114.623538889
 30
0.0
 11
115.5952066043
 21
114.623538889
 31
0.0
  0
LINE
  5
341
330
1F
100
AcDbEntity
  8
0
  6
Continuous
 62
     7
370
    25
100
AcDbLine
 10
115.5952066043
 20
128.4755731188
 30
0.0
 11
115.5952066043
 21
128.8713456318
 31
0.0
  0
LINE
  5
342
330
1F
100
AcDbEntity
  8
0
  6
Continuous
 62
     7
370
    25
100
AcDbLine
 10
101.5952061721
 20
128.4755731188
 30
0.0
 11
101.5952061721
 21
128.8713456318
 31
0.0
  0
LINE
  5
343
330
1F
100
AcDbEntity
  8
0
  6
Continuous
 62
     7
370
    25
100
AcDbLine
 10
101.5952061721
 20
114.623538889
 30
0.0
 11
101.5952061721
 21
115.0193114021
 31
0.0
  0
LINE
  5
344
330
1F
100
AcDbEntity
  8
0
  6
Continuous
 62
     7
370
    25
100
AcDbLine
 10
115.5952066043
 20
114.623538889
 30
0.0
 11
115.5952066043
 21
115.0193114021
 31
0.0
  0
ARC
  5
345
330
1F
100
AcDbEntity
  8
0
  6
Continuous
 62
     7
370
    25
100
AcDbCircle
 10
101.2935865214
 20
130.7267494383
 30
0.0
 40
0.4793220025378495
100
AcDbArc
 50
206.8978733264
 51
269.5424057934
  0
SPLINE
  5
346
330
1F
100
AcDbEntity
  8
0
  6
Continuous
 62
     7
370
    25
100
AcDbSpline
210
0.0
220
0.0
230
1.0
 70
     8
 71
     3
 72
    14
 73
    10
 74
     0
 42
0.000000001
 43
0.00000001
 40
0.0
 40
0.0
 40
0.0
 40
0.0
 40
0.25
 40
0.25
 40
0.5
 40
0.5
 40
0.75
 40
0.75
 40
1.0
 40
1.0
 40
1.0
 40
1.0
 10
101.4656048886678
 20
129.7474422604423
 30
0.0
 10
101.4271294050462
 20
129.8090955246698
 30
0.0
 10
101.3860404835762
 20
129.8672794699427
 30
0.0
 10
101.3067576361356
 20
129.9809447914097
 30
0.0
 10
101.2694747350252
 20
130.0346213901094
 30
0.0
 10
101.2166689757134
 20
130.134611422556
 30
0.0
 10
101.2046997156198
 20
130.179015922779
 30
0.0
 10
101.2247015039919
 20
130.2350757782728
 30
0.0
 10
101.2541579595442
 20
130.2474422604423
 30
0.0
 10
101.289758298737
 20
130.2474422604423
 30
0.0
  0
ARC
  5
347
330
1F
100
AcDbEntity
  8
0
  6
Continuous
 62
     7
370
    25
100
AcDbCircle
 10
115.896826255
 20
112.7681350826
 30
0.0
 40
0.4793220025378494
100
AcDbArc
 50
26.8978733264
 51
89.5424057934
  0
SPLINE
  5
348
330
1F
100
AcDbEntity
  8
0
  6
Continuous
 62
     7
370
    25
100
AcDbSpline
210
0.0
220
0.0
230
1.0
 70
     8
 71
     3
 72
    14
 73
    10
 74
     0
 42
0.000000001
 43
0.00000001
 40
0.0
 40
0.0
 40
0.0
 40
0.0
 40
0.25
 40
0.25
 40
0.5
 40
0.5
 40
0.75
 40
0.75
 40
1.0
 40
1.0
 40
1.0
 40
1.0
 10
115.7248078877449
 20
113.7474422604423
 30
0.0
 10
115.7632833713665
 20
113.6857889962148
 30
0.0
 10
115.8043722928365
 20
113.6276050509419
 30
0.0
 10
115.8836551402771
 20
113.513939729475
 30
0.0
 10
115.9209380413876
 20
113.4602631307752
 30
0.0
 10
115.9737438006993
 20
113.3602730983285
 30
0.0
 10
115.985713060793
 20
113.3158685981056
 30
0.0
 10
115.9657112724208
 20
113.2598087426118
 30
0.0
 10
115.9362548168685
 20
113.2474422604423
 30
0.0
 10
115.9006544776758
 20
113.2474422604423
 30
0.0
  0
SPLINE
  5
349
330
1F
100
AcDbEntity
  8
0
  6
Continuous
 62
     7
370
    25
100
AcDbSpline
210
0.0
220
0.0
230
1.0
 70
     8
 71
     3
 72
    16
 73
    12
 74
     0
 42
0.000000001
 43
0.00000001
 40
0.0
 40
0.0
 40
0.0
 40
0.0
 40
0.2500000000000011
 40
0.2500000000000011
 40
0.3749999999999992
 40
0.3749999999999992
 40
0.4999999999999974
 40
0.4999999999999974
 40
0.7499999999999987
 40
0.7499999999999987
 40
1.0
 40
1.0
 40
1.0
 40
1.0
 10
115.9006544776758
 20
130.2474422604423
 30
0.0
 10
115.9362084071244
 20
130.2474422604423
 30
0.0
 10
115.9654805483531
 20
130.2353105100265
 30
0.0
 10
115.980693098574
 20
130.1932888037471
 30
0.0
 10
115.9807537667475
 20
130.1750744342405
 30
0.0
 10
115.9705431822702
 20
130.133137421714
 30
0.0
 10
115.960759852745
 20
130.1101098582197
 30
0.0
 10
115.921595304213
 20
130.0357011794477
 30
0.0
 10
115.8837222309398
 20
129.9810433032652
 30
0.0
 10
115.8046492579482
 20
129.8676742300864
 30
0.0
 10
115.7632621253574
 20
129.8090614799823
 30
0.0
 10
115.7248078877449
 20
129.7474422604423
 30
0.0
  0
ARC
  5
34A
330
1F
100
AcDbEntity
  8
0
  6
Continuous
 62
     7
370
    25
100
AcDbCircle
 10
115.896826255
 20
130.7267494383
 30
0.0
 40
0.4793220025378494
100
AcDbArc
 50
270.4575942066
 51
333.1021266736
  0
SPLINE
  5
34B
330
1F
100
AcDbEntity
  8
0
  6
Continuous
 62
     7
370
    25
100
AcDbSpline
210
0.0
220
0.0
230
1.0
 70
     8
 71
     3
 72
    16
 73
    12
 74
     0
 42
0.000000001
 43
0.00000001
 40
0.0
 40
0.0
 40
0.0
 40
0.0
 40
0.2500000000000049
 40
0.2500000000000049
 40
0.3750000000000051
 40
0.3750000000000051
 40
0.5000000000000052
 40
0.5000000000000052
 40
0.7500000000000026
 40
0.7500000000000026
 40
1.0
 40
1.0
 40
1.0
 40
1.0
 10
101.289758298737
 20
113.2474422604423
 30
0.0
 10
101.2542043692883
 20
113.2474422604423
 30
0.0
 10
101.2249322280596
 20
113.2595740108581
 30
0.0
 10
101.2097196778388
 20
113.3015957171375
 30
0.0
 10
101.2096590096652
 20
113.3198100866441
 30
0.0
 10
101.2198695941426
 20
113.3617470991706
 30
0.0
 10
101.2296529236678
 20
113.3847746626649
 30
0.0
 10
101.2688174721997
 20
113.4591833414369
 30
0.0
 10
101.306690545473
 20
113.5138412176194
 30
0.0
 10
101.3857635184646
 20
113.6272102907982
 30
0.0
 10
101.4271506510554
 20
113.6858230409024
 30
0.0
 10
101.4656048886678
 20
113.7474422604423
 30
0.0
  0
ARC
  5
34C
330
1F
100
AcDbEntity
  8
0
  6
Continuous
 62
     7
370
    25
100
AcDbCircle
 10
101.2935865214
 20
112.7681350826
 30
0.0
 40
0.4793220025378311
100
AcDbArc
 50
90.4575942066
 51
153.1021266736
  0
LINE
  5
34D
330
1F
100
AcDbEntity
  8
0
  6
Continuous
 62
     7
370
    25
100
AcDbLine
 10
127.240258255
 20
126.5297217481
 30
0.0
 11
127.240258255
 21
116.9651627727
 31
0.0
  0
LINE
  5
34E
330
1F
100
AcDbEntity
  8
0
  6
Continuous
 62
     7
370
    25
100
AcDbLine
 10
101.2897584447
 20
130.2474427224
 30
0.0
 11
105.7496173167
 21
130.2474427224
 31
0.0
  0
LINE
  5
34F
330
1F
100
AcDbEntity
  8
0
  6
Continuous
 62
     7
370
    25
100
AcDbLine
 10
111.4407954597
 20
130.2474427224
 30
0.0
 11
115.9006543317
 21
130.2474427224
 31
0.0
  0
LINE
  5
350
330
1F
100
AcDbEntity
  8
0
  6
Continuous
 62
     7
370
    25
100
AcDbLine
 10
115.9006543317
 20
113.2474417985
 30
0.0
 11
111.4407954597
 21
113.2474417985
 31
0.0
  0
LINE
  5
351
330
1F
100
AcDbEntity
  8
0
  6
Continuous
 62
     7
370
    25
100
AcDbLine
 10
105.7496173167
 20
113.2474417985
 30
0.0
 11
101.2897584447
 21
113.2474417985
 31
0.0
  0
LINE
  5
352
330
1F
100
AcDbEntity
  8
0
  6
Continuous
 62
     7
370
    25
100
AcDbLine
 10
128.5952059412
 20
125.7474424504
 30
0.0
 11
128.5952059412
 21
117.7474420705
 31
0.0
  0
ARC
  5
353
330
1F
100
AcDbEntity
  8
0
  6
Continuous
 62
     7
370
    25
100
AcDbCircle
 10
115.5952063882
 20
130.7474422604
 30
0.0
 40
0.5
100
AcDbArc
 50
270.0
 51
0.0
  0
ARC
  5
354
330
1F
100
AcDbEntity
  8
0
  6
Continuous
 62
     7
370
    25
100
AcDbCircle
 10
101.5952063882
 20
130.7474422604
 30
0.0
 40
0.5
100
AcDbArc
 50
180.0
 51
270.0
  0
ARC
  5
355
330
1F
100
AcDbEntity
  8
0
  6
Continuous
 62
     7
370
    25
100
AcDbCircle
 10
115.5952063882
 20
112.7474422604
 30
0.0
 40
0.5
100
AcDbArc
 50
0.0
 51
90.0
  0
ARC
  5
356
330
1F
100
AcDbEntity
  8
0
  6
Continuous
 62
     7
370
    25
100
AcDbCircle
 10
101.5952063882
 20
112.7474422604
 30
0.0
 40
0.5
100
AcDbArc
 50
90.0
 51
180.0
  0
LINE
  5
357
330
1F
100
AcDbEntity
  8
0
  6
Continuous
 62
     1
370
    25
100
AcDbLine
 10
114.476553616
 20
122.9974422325
 30
0.0
 11
114.3452063994
 21
122.9974422325
 31
0.0
  0
LINE
  5
358
330
1F
100
AcDbEntity
  8
0
  6
Continuous
 62
     1
370
    25
100
AcDbLine
 10
114.3452063994
 20
122.9974422325
 30
0.0
 11
114.3452063994
 21
123.2091954165
 31
0.0
  0
LINE
  5
359
330
1F
100
AcDbEntity
  8
0
  6
Continuous
 62
     1
370
    25
100
AcDbLine
 10
102.845206377
 20
123.2091954165
 30
0.0
 11
102.845206377
 21
122.9974422325
 31
0.0
  0
LINE
  5
35A
330
1F
100
AcDbEntity
  8
0
  6
Continuous
 62
     1
370
    25
100
AcDbLine
 10
102.845206377
 20
122.9974422325
 30
0.0
 11
102.7138591604
 21
122.9974422325
 31
0.0
  0
LINE
  5
35B
330
1F
100
AcDbEntity
  8
0
  6
Continuous
 62
     1
370
    25
100
AcDbLine
 10
114.3452063994
 20
120.4974422884
 30
0.0
 11
114.476553616
 21
120.4974422884
 31
0.0
  0
LINE
  5
35C
330
1F
100
AcDbEntity
  8
0
  6
Continuous
 62
     1
370
    25
100
AcDbLine
 10
102.7138591604
 20
120.4974422884
 30
0.0
 11
102.845206377
 21
120.4974422884
 31
0.0
  0
LINE
  5
35D
330
1F
100
AcDbEntity
  8
0
  6
Continuous
 62
     1
370
    25
100
AcDbLine
 10
114.3452063994
 20
120.2856891044
 30
0.0
 11
114.3452063994
 21
120.4974422884
 31
0.0
  0
LINE
  5
35E
330
1F
100
AcDbEntity
  8
0
  6
Continuous
 62
     1
370
    25
100
AcDbLine
 10
102.845206377
 20
120.4974422884
 30
0.0
 11
102.845206377
 21
120.2856891044
 31
0.0
  0
LINE
  5
35F
330
1F
100
AcDbEntity
  8
0
  6
Continuous
 62
     1
370
    25
100
AcDbLine
 10
75.89520792
 20
127.2474422306
 30
0.0
 11
75.89520792
 21
116.2474422902
 31
0.0
  0
LINE
  5
360
330
1F
100
AcDbEntity
  8
0
  6
Continuous
 62
     1
370
    25
100
AcDbLine
 10
115.5952066043
 20
115.0193114021
 30
0.0
 11
115.5952066043
 21
116.2847981044
 31
0.0
  0
LINE
  5
361
330
1F
100
AcDbEntity
  8
0
  6
Continuous
 62
     1
370
    25
100
AcDbLine
 10
115.5952066043
 20
127.2059103661
 30
0.0
 11
115.5952066043
 21
128.4755731188
 31
0.0
  0
LINE
  5
362
330
1F
100
AcDbEntity
  8
0
  6
Continuous
 62
     1
370
    25
100
AcDbLine
 10
101.5952061721
 20
128.4755731188
 30
0.0
 11
101.5952061721
 21
127.2100864165
 31
0.0
  0
LINE
  5
363
330
1F
100
AcDbEntity
  8
0
  6
Continuous
 62
     1
370
    25
100
AcDbLine
 10
101.5952061721
 20
116.2889741548
 30
0.0
 11
101.5952061721
 21
115.0193114021
 31
0.0
  0
LINE
  5
364
330
1F
100
AcDbEntity
  8
0
  6
Continuous
 62
     1
370
    25
100
AcDbLine
 10
115.5952066043
 20
128.4755731188
 30
0.0
 11
114.4893262395
 21
128.4755731188
 31
0.0
  0
LINE
  5
365
330
1F
100
AcDbEntity
  8
0
  6
Continuous
 62
     1
370
    25
100
AcDbLine
 10
102.7010865369
 20
128.4755731188
 30
0.0
 11
101.5952061721
 21
128.4755731188
 31
0.0
  0
LINE
  5
366
330
1F
100
AcDbEntity
  8
0
  6
Continuous
 62
     1
370
    25
100
AcDbLine
 10
101.5952061721
 20
115.0193114021
 30
0.0
 11
102.7010865369
 21
115.0193114021
 31
0.0
  0
LINE
  5
367
330
1F
100
AcDbEntity
  8
0
  6
Continuous
 62
     1
370
    25
100
AcDbLine
 10
114.4893262395
 20
115.0193114021
 30
0.0
 11
115.5952066043
 21
115.0193114021
 31
0.0
  0
LINE
  5
368
330
1F
100
AcDbEntity
  8
0
  6
Continuous
 62
     1
370
    25
100
AcDbLine
 10
101.5952061721
 20
128.8713456318
 30
0.0
 11
103.2169791729
 21
128.8713456318
 31
0.0
  0
LINE
  5
369
330
1F
100
AcDbEntity
  8
0
  6
Continuous
 62
     1
370
    25
100
AcDbLine
 10
113.9734336035
 20
128.8713456318
 30
0.0
 11
115.5952066043
 21
128.8713456318
 31
0.0
  0
LINE
  5
36A
330
1F
100
AcDbEntity
  8
0
  6
Continuous
 62
     1
370
    25
100
AcDbLine
 10
115.5952066043
 20
114.623538889
 30
0.0
 11
113.9734336035
 21
114.623538889
 31
0.0
  0
LINE
  5
36B
330
1F
100
AcDbEntity
  8
0
  6
Continuous
 62
     1
370
    25
100
AcDbLine
 10
103.2169791729
 20
114.623538889
 30
0.0
 11
101.5952061721
 21
114.623538889
 31
0.0
  0
LINE
  5
36C
330
1F
100
AcDbEntity
  8
0
  6
Continuous
 62
     1
370
    25
100
AcDbLine
 10
115.7248080568
 20
129.7474426404
 30
0.0
 11
112.4506275961
 21
129.7474426404
 31
0.0
  0
LINE
  5
36D
330
1F
100
AcDbEntity
  8
0
  6
Continuous
 62
     1
370
    25
100
AcDbLine
 10
104.7397851804
 20
129.7474426404
 30
0.0
 11
101.4656047196
 21
129.7474426404
 31
0.0
  0
LINE
  5
36E
330
1F
100
AcDbEntity
  8
0
  6
Continuous
 62
     1
370
    25
100
AcDbLine
 10
101.4656047196
 20
113.7474418805
 30
0.0
 11
104.7397851804
 21
113.7474418805
 31
0.0
  0
LINE
  5
36F
330
1F
100
AcDbEntity
  8
0
  6
Continuous
 62
     1
370
    25
100
AcDbLine
 10
112.4506275961
 20
113.7474418805
 30
0.0
 11
115.7248080568
 21
113.7474418805
 31
0.0
  0
MTEXT
  5
371
330
1F
100
AcDbEntity
  8
0
  6
Continuous
 62
     7
370
     0
100
AcDbMText
 10
123.1971769042
 20
107.6655044752
 30
0.0
 40
3.5
 41
0.0
 71
     1
 72
     1
  1
1R-BO1100
  7
SLDTEXTSTYLE0
 73
     1
 44
1.0
  0
LINE
  5
372
330
1F
100
AcDbEntity
  8
0
  6
Continuous
 62
     7
370
     0
100
AcDbLine
 10
128.1374150006
 20
117.4831362796
 30
0.0
 11
118.5952063882
 21
117.1849422604
 31
0.0
  0
LINE
  5
373
330
1F
100
AcDbEntity
  8
0
  6
Continuous
 62
     7
370
     0
100
AcDbLine
 10
128.1374150006
 20
126.0117482413
 30
0.0
 11
118.5952063882
 21
126.3099422604
 31
0.0
  0
LINE
  5
374
330
1F
100
AcDbEntity
  8
0
  6
Continuous
 62
     7
370
     0
100
AcDbLine
 10
118.5952063882
 20
126.7998797604
 30
0.0
 11
118.5952063882
 21
116.6950047604
 31
0.0
  0
LINE
  5
375
330
1F
100
AcDbEntity
  8
0
  6
Continuous
 62
     7
370
    25
100
AcDbLine
 10
151.1376660153
 20
83.4836580475
 30
0.0
 11
151.1376660153
 21
78.6836587508
 31
0.0
  0
LINE
  5
376
330
1F
100
AcDbEntity
  8
0
  6
Continuous
 62
     7
370
    25
100
AcDbLine
 10
166.13766568
 20
78.6836587508
 30
0.0
 11
166.13766568
 21
83.4836580475
 31
0.0
  0
LINE
  5
377
330
1F
100
AcDbEntity
  8
0
  6
Continuous
 62
     7
370
    25
100
AcDbLine
 10
151.1376660153
 20
78.6836587508
 30
0.0
 11
151.3376656756
 21
78.4836581593
 31
0.0
  0
LINE
  5
378
330
1F
100
AcDbEntity
  8
0
  6
Continuous
 62
     7
370
    25
100
AcDbLine
 10
165.9376660198
 20
78.4836581593
 30
0.0
 11
166.13766568
 21
78.6836587508
 31
0.0
  0
LINE
  5
379
330
1F
100
AcDbEntity
  8
0
  6
Continuous
 62
     7
370
    25
100
AcDbLine
 10
149.8376658953
 20
96.983659329
 30
0.0
 11
149.6376662351
 21
96.7836578061
 31
0.0
  0
LINE
  5
37A
330
1F
100
AcDbEntity
  8
0
  6
Continuous
 62
     7
370
    25
100
AcDbLine
 10
149.6376662351
 20
83.6836577078
 30
0.0
 11
149.8376658953
 21
83.4836580475
 31
0.0
  0
LINE
  5
37B
330
1F
100
AcDbEntity
  8
0
  6
Continuous
 62
     7
370
    25
100
AcDbLine
 10
167.6376654602
 20
96.7836578061
 30
0.0
 11
167.4376658
 21
96.983659329
 31
0.0
  0
LINE
  5
37C
330
1F
100
AcDbEntity
  8
0
  6
Continuous
 62
     7
370
    25
100
AcDbLine
 10
167.4376658
 20
83.4836580475
 30
0.0
 11
167.6376654602
 21
83.6836577078
 31
0.0
  0
LINE
  5
37D
330
1F
100
AcDbEntity
  8
0
  6
Continuous
 62
     7
370
    25
100
AcDbLine
 10
164.5376660697
 20
74.8576906194
 30
0.0
 11
164.5376660697
 21
78.4836581593
 31
0.0
  0
LINE
  5
37E
330
1F
100
AcDbEntity
  8
0
  6
Continuous
 62
     7
370
    25
100
AcDbLine
 10
152.7376656256
 20
78.4836581593
 30
0.0
 11
152.7376656256
 21
75.7817526032
 31
0.0
  0
ARC
  5
37F
330
1F
100
AcDbEntity
  8
0
  6
Continuous
 62
     7
370
    25
100
AcDbCircle
 10
152.9376658477
 20
75.325400907
 30
0.0
 40
0.500000000000042
100
AcDbArc
 50
113.64497808
 51
180.007858636
  0
LINE
  5
380
330
1F
100
AcDbEntity
  8
0
  6
Continuous
 62
     7
370
    25
100
AcDbLine
 10
158.6376658477
 20
97.4336576333
 30
0.0
 11
158.6376658477
 21
96.983659329
 31
0.0
  0
LINE
  5
381
330
1F
100
AcDbEntity
  8
0
  6
Continuous
 62
     7
370
    25
100
AcDbLine
 10
160.5126658058
 20
97.4336576333
 30
0.0
 11
160.5126658058
 21
96.983659329
 31
0.0
  0
LINE
  5
382
330
1F
100
AcDbEntity
  8
0
  6
Continuous
 62
     7
370
    25
100
AcDbLine
 10
160.5126658058
 20
97.4336576333
 30
0.0
 11
158.6376658477
 21
97.4336576333
 31
0.0
  0
LINE
  5
383
330
1F
100
AcDbEntity
  8
0
  6
Continuous
 62
     7
370
    25
100
AcDbLine
 10
156.7626658896
 20
97.4336576333
 30
0.0
 11
156.7626658896
 21
96.983659329
 31
0.0
  0
LINE
  5
384
330
1F
100
AcDbEntity
  8
0
  6
Continuous
 62
     7
370
    25
100
AcDbLine
 10
158.6376658477
 20
97.4336576333
 30
0.0
 11
156.7626658896
 21
97.4336576333
 31
0.0
  0
LINE
  5
385
330
1F
100
AcDbEntity
  8
0
  6
Continuous
 62
     7
370
    25
100
AcDbLine
 10
158.1771094304
 20
96.983659329
 30
0.0
 11
159.0982222649
 21
96.983659329
 31
0.0
  0
LINE
  5
386
330
1F
100
AcDbEntity
  8
0
  6
Continuous
 62
     7
370
    25
100
AcDbLine
 10
159.0982222649
 20
96.983659329
 30
0.0
 11
158.6376658477
 21
96.7836578061
 31
0.0
  0
LINE
  5
387
330
1F
100
AcDbEntity
  8
0
  6
Continuous
 62
     7
370
    25
100
AcDbLine
 10
158.6376658477
 20
96.7836578061
 30
0.0
 11
158.1771094304
 21
96.983659329
 31
0.0
  0
LINE
  5
388
330
1F
100
AcDbEntity
  8
0
  6
Continuous
 62
     7
370
    25
100
AcDbLine
 10
159.0982222649
 20
83.4836580475
 30
0.0
 11
159.0982222649
 21
96.983659329
 31
0.0
  0
LINE
  5
389
330
1F
100
AcDbEntity
  8
0
  6
Continuous
 62
     7
370
    25
100
AcDbLine
 10
158.6376658477
 20
83.6836577078
 30
0.0
 11
159.0982222649
 21
83.4836580475
 31
0.0
  0
LINE
  5
38A
330
1F
100
AcDbEntity
  8
0
  6
Continuous
 62
     7
370
    25
100
AcDbLine
 10
158.6376658477
 20
83.6836577078
 30
0.0
 11
158.6376658477
 21
96.7836578061
 31
0.0
  0
LINE
  5
38B
330
1F
100
AcDbEntity
  8
0
  6
Continuous
 62
     7
370
    25
100
AcDbLine
 10
159.0982222649
 20
83.4836580475
 30
0.0
 11
158.1771094304
 21
83.4836580475
 31
0.0
  0
LINE
  5
38C
330
1F
100
AcDbEntity
  8
0
  6
Continuous
 62
     7
370
    25
100
AcDbLine
 10
158.1771094304
 20
83.4836580475
 30
0.0
 11
158.6376658477
 21
83.6836577078
 31
0.0
  0
LINE
  5
38D
330
1F
100
AcDbEntity
  8
0
  6
Continuous
 62
     7
370
    25
100
AcDbLine
 10
158.1771094304
 20
83.4836580475
 30
0.0
 11
158.1771094304
 21
96.983659329
 31
0.0
  0
LINE
  5
38E
330
1F
100
AcDbEntity
  8
0
  6
Continuous
 62
     7
370
    25
100
AcDbLine
 10
157.2610425599
 20
96.983659329
 30
0.0
 11
158.1771094304
 21
96.983659329
 31
0.0
  0
LINE
  5
38F
330
1F
100
AcDbEntity
  8
0
  6
Continuous
 62
     7
370
    25
100
AcDbLine
 10
158.1771094304
 20
96.983659329
 30
0.0
 11
157.6969096739
 21
96.7836578061
 31
0.0
  0
LINE
  5
390
330
1F
100
AcDbEntity
  8
0
  6
Continuous
 62
     7
370
    25
100
AcDbLine
 10
157.6969096739
 20
96.7836578061
 30
0.0
 11
157.2610425599
 21
96.983659329
 31
0.0
  0
LINE
  5
391
330
1F
100
AcDbEntity
  8
0
  6
Continuous
 62
     7
370
    25
100
AcDbLine
 10
157.6969096739
 20
83.6836577078
 30
0.0
 11
158.1771094304
 21
83.4836580475
 31
0.0
  0
LINE
  5
392
330
1F
100
AcDbEntity
  8
0
  6
Continuous
 62
     7
370
    25
100
AcDbLine
 10
157.6969096739
 20
83.6836577078
 30
0.0
 11
157.6969096739
 21
96.7836578061
 31
0.0
  0
LINE
  5
393
330
1F
100
AcDbEntity
  8
0
  6
Continuous
 62
     7
370
    25
100
AcDbLine
 10
157.2610425599
 20
83.4836580475
 30
0.0
 11
157.6969096739
 21
83.6836577078
 31
0.0
  0
LINE
  5
394
330
1F
100
AcDbEntity
  8
0
  6
Continuous
 62
     7
370
    25
100
AcDbLine
 10
157.2610425599
 20
83.4836580475
 30
0.0
 11
157.2610425599
 21
96.983659329
 31
0.0
  0
LINE
  5
395
330
1F
100
AcDbEntity
  8
0
  6
Continuous
 62
     7
370
    25
100
AcDbLine
 10
158.1771094304
 20
83.4836580475
 30
0.0
 11
157.2610425599
 21
83.4836580475
 31
0.0
  0
LINE
  5
396
330
1F
100
AcDbEntity
  8
0
  6
Continuous
 62
     7
370
    25
100
AcDbLine
 10
160.0142891355
 20
83.4836580475
 30
0.0
 11
160.0142891355
 21
96.983659329
 31
0.0
  0
LINE
  5
397
330
1F
100
AcDbEntity
  8
0
  6
Continuous
 62
     7
370
    25
100
AcDbLine
 10
159.5784220215
 20
83.6836577078
 30
0.0
 11
160.0142891355
 21
83.4836580475
 31
0.0
  0
LINE
  5
398
330
1F
100
AcDbEntity
  8
0
  6
Continuous
 62
     7
370
    25
100
AcDbLine
 10
159.5784220215
 20
83.6836577078
 30
0.0
 11
159.5784220215
 21
96.7836578061
 31
0.0
  0
LINE
  5
399
330
1F
100
AcDbEntity
  8
0
  6
Continuous
 62
     7
370
    25
100
AcDbLine
 10
160.0142891355
 20
96.983659329
 30
0.0
 11
159.5784220215
 21
96.7836578061
 31
0.0
  0
LINE
  5
39A
330
1F
100
AcDbEntity
  8
0
  6
Continuous
 62
     7
370
    25
100
AcDbLine
 10
159.0982222649
 20
96.983659329
 30
0.0
 11
160.0142891355
 21
96.983659329
 31
0.0
  0
LINE
  5
39B
330
1F
100
AcDbEntity
  8
0
  6
Continuous
 62
     7
370
    25
100
AcDbLine
 10
159.5784220215
 20
96.7836578061
 30
0.0
 11
159.0982222649
 21
96.983659329
 31
0.0
  0
LINE
  5
39C
330
1F
100
AcDbEntity
  8
0
  6
Continuous
 62
     7
370
    25
100
AcDbLine
 10
160.0142891355
 20
83.4836580475
 30
0.0
 11
159.0982222649
 21
83.4836580475
 31
0.0
  0
LINE
  5
39D
330
1F
100
AcDbEntity
  8
0
  6
Continuous
 62
     7
370
    25
100
AcDbLine
 10
159.0982222649
 20
83.4836580475
 30
0.0
 11
159.5784220215
 21
83.6836577078
 31
0.0
  0
LINE
  5
39E
330
1F
100
AcDbEntity
  8
0
  6
Continuous
 62
     7
370
    25
100
AcDbLine
 10
156.3600582838
 20
96.983659329
 30
0.0
 11
157.2610425599
 21
96.983659329
 31
0.0
  0
LINE
  5
39F
330
1F
100
AcDbEntity
  8
0
  6
Continuous
 62
     7
370
    25
100
AcDbLine
 10
157.2610425599
 20
96.983659329
 30
0.0
 11
156.7664606798
 21
96.7836578061
 31
0.0
  0
LINE
  5
3A0
330
1F
100
AcDbEntity
  8
0
  6
Continuous
 62
     7
370
    25
100
AcDbLine
 10
156.7664606798
 20
96.7836578061
 30
0.0
 11
156.3600582838
 21
96.983659329
 31
0.0
  0
LINE
  5
3A1
330
1F
100
AcDbEntity
  8
0
  6
Continuous
 62
     7
370
    25
100
AcDbLine
 10
156.7664606798
 20
83.6836577078
 30
0.0
 11
157.2610425599
 21
83.4836580475
 31
0.0
  0
LINE
  5
3A2
330
1F
100
AcDbEntity
  8
0
  6
Continuous
 62
     7
370
    25
100
AcDbLine
 10
156.7664606798
 20
83.6836577078
 30
0.0
 11
156.7664606798
 21
96.7836578061
 31
0.0
  0
LINE
  5
3A3
330
1F
100
AcDbEntity
  8
0
  6
Continuous
 62
     7
370
    25
100
AcDbLine
 10
157.2610425599
 20
83.4836580475
 30
0.0
 11
156.3600582838
 21
83.4836580475
 31
0.0
  0
LINE
  5
3A4
330
1F
100
AcDbEntity
  8
0
  6
Continuous
 62
     7
370
    25
100
AcDbLine
 10
156.3600582838
 20
83.4836580475
 30
0.0
 11
156.7664606798
 21
83.6836577078
 31
0.0
  0
LINE
  5
3A5
330
1F
100
AcDbEntity
  8
0
  6
Continuous
 62
     7
370
    25
100
AcDbLine
 10
156.3600582838
 20
83.4836580475
 30
0.0
 11
156.3600582838
 21
96.983659329
 31
0.0
  0
LINE
  5
3A6
330
1F
100
AcDbEntity
  8
0
  6
Continuous
 62
     7
370
    25
100
AcDbLine
 10
160.9152734115
 20
83.4836580475
 30
0.0
 11
160.9152734115
 21
96.983659329
 31
0.0
  0
LINE
  5
3A7
330
1F
100
AcDbEntity
  8
0
  6
Continuous
 62
     7
370
    25
100
AcDbLine
 10
160.5088710155
 20
83.6836577078
 30
0.0
 11
160.9152734115
 21
83.4836580475
 31
0.0
  0
LINE
  5
3A8
330
1F
100
AcDbEntity
  8
0
  6
Continuous
 62
     7
370
    25
100
AcDbLine
 10
160.5088710155
 20
83.6836577078
 30
0.0
 11
160.5088710155
 21
96.7836578061
 31
0.0
  0
LINE
  5
3A9
330
1F
100
AcDbEntity
  8
0
  6
Continuous
 62
     7
370
    25
100
AcDbLine
 10
160.9152734115
 20
96.983659329
 30
0.0
 11
160.5088710155
 21
96.7836578061
 31
0.0
  0
LINE
  5
3AA
330
1F
100
AcDbEntity
  8
0
  6
Continuous
 62
     7
370
    25
100
AcDbLine
 10
160.0142891355
 20
96.983659329
 30
0.0
 11
160.9152734115
 21
96.983659329
 31
0.0
  0
LINE
  5
3AB
330
1F
100
AcDbEntity
  8
0
  6
Continuous
 62
     7
370
    25
100
AcDbLine
 10
160.5088710155
 20
96.7836578061
 30
0.0
 11
160.0142891355
 21
96.983659329
 31
0.0
  0
LINE
  5
3AC
330
1F
100
AcDbEntity
  8
0
  6
Continuous
 62
     7
370
    25
100
AcDbLine
 10
160.0142891355
 20
83.4836580475
 30
0.0
 11
160.5088710155
 21
83.6836577078
 31
0.0
  0
LINE
  5
3AD
330
1F
100
AcDbEntity
  8
0
  6
Continuous
 62
     7
370
    25
100
AcDbLine
 10
160.9152734115
 20
83.4836580475
 30
0.0
 11
160.0142891355
 21
83.4836580475
 31
0.0
  0
LINE
  5
3AE
330
1F
100
AcDbEntity
  8
0
  6
Continuous
 62
     7
370
    25
100
AcDbLine
 10
156.3600582838
 20
96.983659329
 30
0.0
 11
155.8565128896
 21
96.7836578061
 31
0.0
  0
LINE
  5
3AF
330
1F
100
AcDbEntity
  8
0
  6
Continuous
 62
     7
370
    25
100
AcDbLine
 10
155.8565128896
 20
96.7836578061
 30
0.0
 11
155.4840278648
 21
96.983659329
 31
0.0
  0
LINE
  5
3B0
330
1F
100
AcDbEntity
  8
0
  6
Continuous
 62
     7
370
    25
100
AcDbLine
 10
155.4840278648
 20
96.983659329
 30
0.0
 11
156.3600582838
 21
96.983659329
 31
0.0
  0
LINE
  5
3B1
330
1F
100
AcDbEntity
  8
0
  6
Continuous
 62
     7
370
    25
100
AcDbLine
 10
155.8565128896
 20
83.6836577078
 30
0.0
 11
156.3600582838
 21
83.4836580475
 31
0.0
  0
LINE
  5
3B2
330
1F
100
AcDbEntity
  8
0
  6
Continuous
 62
     7
370
    25
100
AcDbLine
 10
155.8565128896
 20
83.6836577078
 30
0.0
 11
155.8565128896
 21
96.7836578061
 31
0.0
  0
LINE
  5
3B3
330
1F
100
AcDbEntity
  8
0
  6
Continuous
 62
     7
370
    25
100
AcDbLine
 10
155.4840278648
 20
83.4836580475
 30
0.0
 11
155.8565128896
 21
83.6836577078
 31
0.0
  0
LINE
  5
3B4
330
1F
100
AcDbEntity
  8
0
  6
Continuous
 62
     7
370
    25
100
AcDbLine
 10
155.4840278648
 20
83.4836580475
 30
0.0
 11
155.4840278648
 21
96.983659329
 31
0.0
  0
LINE
  5
3B5
330
1F
100
AcDbEntity
  8
0
  6
Continuous
 62
     7
370
    25
100
AcDbLine
 10
156.3600582838
 20
83.4836580475
 30
0.0
 11
155.4840278648
 21
83.4836580475
 31
0.0
  0
LINE
  5
3B6
330
1F
100
AcDbEntity
  8
0
  6
Continuous
 62
     7
370
    25
100
AcDbLine
 10
161.4188188057
 20
83.6836577078
 30
0.0
 11
161.4188188057
 21
96.7836578061
 31
0.0
  0
LINE
  5
3B7
330
1F
100
AcDbEntity
  8
0
  6
Continuous
 62
     7
370
    25
100
AcDbLine
 10
160.9152734115
 20
83.4836580475
 30
0.0
 11
161.4188188057
 21
83.6836577078
 31
0.0
  0
LINE
  5
3B8
330
1F
100
AcDbEntity
  8
0
  6
Continuous
 62
     7
370
    25
100
AcDbLine
 10
161.4188188057
 20
96.7836578061
 30
0.0
 11
160.9152734115
 21
96.983659329
 31
0.0
  0
LINE
  5
3B9
330
1F
100
AcDbEntity
  8
0
  6
Continuous
 62
     7
370
    25
100
AcDbLine
 10
161.7913038306
 20
83.4836580475
 30
0.0
 11
161.7913038306
 21
96.983659329
 31
0.0
  0
LINE
  5
3BA
330
1F
100
AcDbEntity
  8
0
  6
Continuous
 62
     7
370
    25
100
AcDbLine
 10
161.4188188057
 20
83.6836577078
 30
0.0
 11
161.7913038306
 21
83.4836580475
 31
0.0
  0
LINE
  5
3BB
330
1F
100
AcDbEntity
  8
0
  6
Continuous
 62
     7
370
    25
100
AcDbLine
 10
161.7913038306
 20
96.983659329
 30
0.0
 11
161.4188188057
 21
96.7836578061
 31
0.0
  0
LINE
  5
3BC
330
1F
100
AcDbEntity
  8
0
  6
Continuous
 62
     7
370
    25
100
AcDbLine
 10
160.9152734115
 20
96.983659329
 30
0.0
 11
161.7913038306
 21
96.983659329
 31
0.0
  0
LINE
  5
3BD
330
1F
100
AcDbEntity
  8
0
  6
Continuous
 62
     7
370
    25
100
AcDbLine
 10
161.7913038306
 20
83.4836580475
 30
0.0
 11
160.9152734115
 21
83.4836580475
 31
0.0
  0
LINE
  5
3BE
330
1F
100
AcDbEntity
  8
0
  6
Continuous
 62
     7
370
    25
100
AcDbLine
 10
154.9770361114
 20
83.6836577078
 30
0.0
 11
155.4840278648
 21
83.4836580475
 31
0.0
  0
LINE
  5
3BF
330
1F
100
AcDbEntity
  8
0
  6
Continuous
 62
     7
370
    25
100
AcDbLine
 10
154.9770361114
 20
83.6836577078
 30
0.0
 11
154.9770361114
 21
96.7836578061
 31
0.0
  0
LINE
  5
3C0
330
1F
100
AcDbEntity
  8
0
  6
Continuous
 62
     7
370
    25
100
AcDbLine
 10
155.4840278648
 20
96.983659329
 30
0.0
 11
154.9770361114
 21
96.7836578061
 31
0.0
  0
LINE
  5
3C1
330
1F
100
AcDbEntity
  8
0
  6
Continuous
 62
     7
370
    25
100
AcDbLine
 10
154.9770361114
 20
96.7836578061
 30
0.0
 11
154.6425495133
 21
96.983659329
 31
0.0
  0
LINE
  5
3C2
330
1F
100
AcDbEntity
  8
0
  6
Continuous
 62
     7
370
    25
100
AcDbLine
 10
154.6425495133
 20
96.983659329
 30
0.0
 11
155.4840278648
 21
96.983659329
 31
0.0
  0
LINE
  5
3C3
330
1F
100
AcDbEntity
  8
0
  6
Continuous
 62
     7
370
    25
100
AcDbLine
 10
154.6425495133
 20
83.4836580475
 30
0.0
 11
154.9770361114
 21
83.6836577078
 31
0.0
  0
LINE
  5
3C4
330
1F
100
AcDbEntity
  8
0
  6
Continuous
 62
     7
370
    25
100
AcDbLine
 10
155.4840278648
 20
83.4836580475
 30
0.0
 11
154.6425495133
 21
83.4836580475
 31
0.0
  0
LINE
  5
3C5
330
1F
100
AcDbEntity
  8
0
  6
Continuous
 62
     7
370
    25
100
AcDbLine
 10
162.6327821821
 20
96.983659329
 30
0.0
 11
162.2982955839
 21
96.7836578061
 31
0.0
  0
LINE
  5
3C6
330
1F
100
AcDbEntity
  8
0
  6
Continuous
 62
     7
370
    25
100
AcDbLine
 10
162.2982955839
 20
96.7836578061
 30
0.0
 11
161.7913038306
 21
96.983659329
 31
0.0
  0
LINE
  5
3C7
330
1F
100
AcDbEntity
  8
0
  6
Continuous
 62
     7
370
    25
100
AcDbLine
 10
161.7913038306
 20
96.983659329
 30
0.0
 11
162.6327821821
 21
96.983659329
 31
0.0
  0
LINE
  5
3C8
330
1F
100
AcDbEntity
  8
0
  6
Continuous
 62
     7
370
    25
100
AcDbLine
 10
162.2982955839
 20
83.6836577078
 30
0.0
 11
162.6327821821
 21
83.4836580475
 31
0.0
  0
LINE
  5
3C9
330
1F
100
AcDbEntity
  8
0
  6
Continuous
 62
     7
370
    25
100
AcDbLine
 10
161.7913038306
 20
83.4836580475
 30
0.0
 11
162.2982955839
 21
83.6836577078
 31
0.0
  0
LINE
  5
3CA
330
1F
100
AcDbEntity
  8
0
  6
Continuous
 62
     7
370
    25
100
AcDbLine
 10
162.6327821821
 20
83.4836580475
 30
0.0
 11
161.7913038306
 21
83.4836580475
 31
0.0
  0
LINE
  5
3CB
330
1F
100
AcDbEntity
  8
0
  6
Continuous
 62
     7
370
    25
100
AcDbLine
 10
162.2982955839
 20
83.6836577078
 30
0.0
 11
162.2982955839
 21
96.7836578061
 31
0.0
  0
LINE
  5
3CC
330
1F
100
AcDbEntity
  8
0
  6
Continuous
 62
     7
370
    25
100
AcDbLine
 10
154.6425495133
 20
83.4836580475
 30
0.0
 11
154.6425495133
 21
96.983659329
 31
0.0
  0
LINE
  5
3CD
330
1F
100
AcDbEntity
  8
0
  6
Continuous
 62
     7
370
    25
100
AcDbLine
 10
162.6327821821
 20
83.4836580475
 30
0.0
 11
162.6327821821
 21
96.983659329
 31
0.0
  0
LINE
  5
3CE
330
1F
100
AcDbEntity
  8
0
  6
Continuous
 62
     7
370
    25
100
AcDbLine
 10
154.6425495133
 20
96.983659329
 30
0.0
 11
154.1376660414
 21
96.7836578061
 31
0.0
  0
LINE
  5
3CF
330
1F
100
AcDbEntity
  8
0
  6
Continuous
 62
     7
370
    25
100
AcDbLine
 10
154.1376660414
 20
96.7836578061
 30
0.0
 11
153.8448423914
 21
96.983659329
 31
0.0
  0
LINE
  5
3D0
330
1F
100
AcDbEntity
  8
0
  6
Continuous
 62
     7
370
    25
100
AcDbLine
 10
153.8448423914
 20
96.983659329
 30
0.0
 11
154.6425495133
 21
96.983659329
 31
0.0
  0
LINE
  5
3D1
330
1F
100
AcDbEntity
  8
0
  6
Continuous
 62
     7
370
    25
100
AcDbLine
 10
154.1376660414
 20
83.6836577078
 30
0.0
 11
154.6425495133
 21
83.4836580475
 31
0.0
  0
LINE
  5
3D2
330
1F
100
AcDbEntity
  8
0
  6
Continuous
 62
     7
370
    25
100
AcDbLine
 10
154.1376660414
 20
83.6836577078
 30
0.0
 11
154.1376660414
 21
96.7836578061
 31
0.0
  0
LINE
  5
3D3
330
1F
100
AcDbEntity
  8
0
  6
Continuous
 62
     7
370
    25
100
AcDbLine
 10
153.8448423914
 20
83.4836580475
 30
0.0
 11
154.1376660414
 21
83.6836577078
 31
0.0
  0
LINE
  5
3D4
330
1F
100
AcDbEntity
  8
0
  6
Continuous
 62
     7
370
    25
100
AcDbLine
 10
154.6425495133
 20
83.4836580475
 30
0.0
 11
153.8448423914
 21
83.4836580475
 31
0.0
  0
LINE
  5
3D5
330
1F
100
AcDbEntity
  8
0
  6
Continuous
 62
     7
370
    25
100
AcDbLine
 10
163.4304893039
 20
96.983659329
 30
0.0
 11
163.137665654
 21
96.7836578061
 31
0.0
  0
LINE
  5
3D6
330
1F
100
AcDbEntity
  8
0
  6
Continuous
 62
     7
370
    25
100
AcDbLine
 10
163.137665654
 20
96.7836578061
 30
0.0
 11
162.6327821821
 21
96.983659329
 31
0.0
  0
LINE
  5
3D7
330
1F
100
AcDbEntity
  8
0
  6
Continuous
 62
     7
370
    25
100
AcDbLine
 10
162.6327821821
 20
96.983659329
 30
0.0
 11
163.4304893039
 21
96.983659329
 31
0.0
  0
LINE
  5
3D8
330
1F
100
AcDbEntity
  8
0
  6
Continuous
 62
     7
370
    25
100
AcDbLine
 10
163.137665654
 20
83.6836577078
 30
0.0
 11
163.137665654
 21
96.7836578061
 31
0.0
  0
LINE
  5
3D9
330
1F
100
AcDbEntity
  8
0
  6
Continuous
 62
     7
370
    25
100
AcDbLine
 10
162.6327821821
 20
83.4836580475
 30
0.0
 11
163.137665654
 21
83.6836577078
 31
0.0
  0
LINE
  5
3DA
330
1F
100
AcDbEntity
  8
0
  6
Continuous
 62
     7
370
    25
100
AcDbLine
 10
163.137665654
 20
83.6836577078
 30
0.0
 11
163.4304893039
 21
83.4836580475
 31
0.0
  0
LINE
  5
3DB
330
1F
100
AcDbEntity
  8
0
  6
Continuous
 62
     7
370
    25
100
AcDbLine
 10
163.4304893039
 20
83.4836580475
 30
0.0
 11
162.6327821821
 21
83.4836580475
 31
0.0
  0
LINE
  5
3DC
330
1F
100
AcDbEntity
  8
0
  6
Continuous
 62
     7
370
    25
100
AcDbLine
 10
153.8448423914
 20
83.4836580475
 30
0.0
 11
153.8448423914
 21
96.983659329
 31
0.0
  0
LINE
  5
3DD
330
1F
100
AcDbEntity
  8
0
  6
Continuous
 62
     7
370
    25
100
AcDbLine
 10
163.4304893039
 20
83.4836580475
 30
0.0
 11
163.4304893039
 21
96.983659329
 31
0.0
  0
LINE
  5
3DE
330
1F
100
AcDbEntity
  8
0
  6
Continuous
 62
     7
370
    25
100
AcDbLine
 10
151.1376660153
 20
78.6836587508
 30
0.0
 11
166.13766568
 21
78.6836587508
 31
0.0
  0
LINE
  5
3DF
330
1F
100
AcDbEntity
  8
0
  6
Continuous
 62
     7
370
    25
100
AcDbLine
 10
165.9376660198
 20
78.4836581593
 30
0.0
 11
151.3376656756
 21
78.4836581593
 31
0.0
  0
LINE
  5
3E0
330
1F
100
AcDbEntity
  8
0
  6
Continuous
 62
     7
370
    25
100
AcDbLine
 10
153.3475985586
 20
83.6836577078
 30
0.0
 11
153.8448423914
 21
83.4836580475
 31
0.0
  0
LINE
  5
3E1
330
1F
100
AcDbEntity
  8
0
  6
Continuous
 62
     7
370
    25
100
AcDbLine
 10
153.3475985586
 20
83.6836577078
 30
0.0
 11
153.3475985586
 21
96.7836578061
 31
0.0
  0
LINE
  5
3E2
330
1F
100
AcDbEntity
  8
0
  6
Continuous
 62
     7
370
    25
100
AcDbLine
 10
153.8448423914
 20
96.983659329
 30
0.0
 11
153.3475985586
 21
96.7836578061
 31
0.0
  0
LINE
  5
3E3
330
1F
100
AcDbEntity
  8
0
  6
Continuous
 62
     7
370
    25
100
AcDbLine
 10
153.3475985586
 20
96.7836578061
 30
0.0
 11
153.099646496
 21
96.983659329
 31
0.0
  0
LINE
  5
3E4
330
1F
100
AcDbEntity
  8
0
  6
Continuous
 62
     7
370
    25
100
AcDbLine
 10
153.099646496
 20
96.983659329
 30
0.0
 11
153.8448423914
 21
96.983659329
 31
0.0
  0
LINE
  5
3E5
330
1F
100
AcDbEntity
  8
0
  6
Continuous
 62
     7
370
    25
100
AcDbLine
 10
153.099646496
 20
83.4836580475
 30
0.0
 11
153.3475985586
 21
83.6836577078
 31
0.0
  0
LINE
  5
3E6
330
1F
100
AcDbEntity
  8
0
  6
Continuous
 62
     7
370
    25
100
AcDbLine
 10
153.8448423914
 20
83.4836580475
 30
0.0
 11
153.099646496
 21
83.4836580475
 31
0.0
  0
LINE
  5
3E7
330
1F
100
AcDbEntity
  8
0
  6
Continuous
 62
     7
370
    25
100
AcDbLine
 10
164.1756851993
 20
96.983659329
 30
0.0
 11
163.9277331367
 21
96.7836578061
 31
0.0
  0
LINE
  5
3E8
330
1F
100
AcDbEntity
  8
0
  6
Continuous
 62
     7
370
    25
100
AcDbLine
 10
163.9277331367
 20
96.7836578061
 30
0.0
 11
163.4304893039
 21
96.983659329
 31
0.0
  0
LINE
  5
3E9
330
1F
100
AcDbEntity
  8
0
  6
Continuous
 62
     7
370
    25
100
AcDbLine
 10
163.4304893039
 20
96.983659329
 30
0.0
 11
164.1756851993
 21
96.983659329
 31
0.0
  0
LINE
  5
3EA
330
1F
100
AcDbEntity
  8
0
  6
Continuous
 62
     7
370
    25
100
AcDbLine
 10
163.9277331367
 20
83.6836577078
 30
0.0
 11
163.9277331367
 21
96.7836578061
 31
0.0
  0
LINE
  5
3EB
330
1F
100
AcDbEntity
  8
0
  6
Continuous
 62
     7
370
    25
100
AcDbLine
 10
163.4304893039
 20
83.4836580475
 30
0.0
 11
163.9277331367
 21
83.6836577078
 31
0.0
  0
LINE
  5
3EC
330
1F
100
AcDbEntity
  8
0
  6
Continuous
 62
     7
370
    25
100
AcDbLine
 10
163.9277331367
 20
83.6836577078
 30
0.0
 11
164.1756851993
 21
83.4836580475
 31
0.0
  0
LINE
  5
3ED
330
1F
100
AcDbEntity
  8
0
  6
Continuous
 62
     7
370
    25
100
AcDbLine
 10
164.1756851993
 20
83.4836580475
 30
0.0
 11
163.4304893039
 21
83.4836580475
 31
0.0
  0
LINE
  5
3EE
330
1F
100
AcDbEntity
  8
0
  6
Continuous
 62
     7
370
    25
100
AcDbLine
 10
153.099646496
 20
83.4836580475
 30
0.0
 11
153.099646496
 21
96.983659329
 31
0.0
  0
LINE
  5
3EF
330
1F
100
AcDbEntity
  8
0
  6
Continuous
 62
     7
370
    25
100
AcDbLine
 10
164.1756851993
 20
83.4836580475
 30
0.0
 11
164.1756851993
 21
96.983659329
 31
0.0
  0
LINE
  5
3F0
330
1F
100
AcDbEntity
  8
0
  6
Continuous
 62
     7
370
    25
100
AcDbLine
 10
152.6154905393
 20
83.6836577078
 30
0.0
 11
153.099646496
 21
83.4836580475
 31
0.0
  0
LINE
  5
3F1
330
1F
100
AcDbEntity
  8
0
  6
Continuous
 62
     7
370
    25
100
AcDbLine
 10
152.6154905393
 20
83.6836577078
 30
0.0
 11
152.6154905393
 21
96.7836578061
 31
0.0
  0
LINE
  5
3F2
330
1F
100
AcDbEntity
  8
0
  6
Continuous
 62
     7
370
    25
100
AcDbLine
 10
153.099646496
 20
96.983659329
 30
0.0
 11
152.6154905393
 21
96.7836578061
 31
0.0
  0
LINE
  5
3F3
330
1F
100
AcDbEntity
  8
0
  6
Continuous
 62
     7
370
    25
100
AcDbLine
 10
152.6154905393
 20
96.7836578061
 30
0.0
 11
152.4151262663
 21
96.983659329
 31
0.0
  0
LINE
  5
3F4
330
1F
100
AcDbEntity
  8
0
  6
Continuous
 62
     7
370
    25
100
AcDbLine
 10
152.4151262663
 20
96.983659329
 30
0.0
 11
153.099646496
 21
96.983659329
 31
0.0
  0
LINE
  5
3F5
330
1F
100
AcDbEntity
  8
0
  6
Continuous
 62
     7
370
    25
100
AcDbLine
 10
152.4151262663
 20
83.4836580475
 30
0.0
 11
152.6154905393
 21
83.6836577078
 31
0.0
  0
LINE
  5
3F6
330
1F
100
AcDbEntity
  8
0
  6
Continuous
 62
     7
370
    25
100
AcDbLine
 10
153.099646496
 20
83.4836580475
 30
0.0
 11
152.4151262663
 21
83.4836580475
 31
0.0
  0
LINE
  5
3F7
330
1F
100
AcDbEntity
  8
0
  6
Continuous
 62
     7
370
    25
100
AcDbLine
 10
164.860205429
 20
96.983659329
 30
0.0
 11
164.659841156
 21
96.7836578061
 31
0.0
  0
LINE
  5
3F8
330
1F
100
AcDbEntity
  8
0
  6
Continuous
 62
     7
370
    25
100
AcDbLine
 10
164.659841156
 20
96.7836578061
 30
0.0
 11
164.1756851993
 21
96.983659329
 31
0.0
  0
LINE
  5
3F9
330
1F
100
AcDbEntity
  8
0
  6
Continuous
 62
     7
370
    25
100
AcDbLine
 10
164.1756851993
 20
96.983659329
 30
0.0
 11
164.860205429
 21
96.983659329
 31
0.0
  0
LINE
  5
3FA
330
1F
100
AcDbEntity
  8
0
  6
Continuous
 62
     7
370
    25
100
AcDbLine
 10
164.659841156
 20
83.6836577078
 30
0.0
 11
164.659841156
 21
96.7836578061
 31
0.0
  0
LINE
  5
3FB
330
1F
100
AcDbEntity
  8
0
  6
Continuous
 62
     7
370
    25
100
AcDbLine
 10
164.1756851993
 20
83.4836580475
 30
0.0
 11
164.659841156
 21
83.6836577078
 31
0.0
  0
LINE
  5
3FC
330
1F
100
AcDbEntity
  8
0
  6
Continuous
 62
     7
370
    25
100
AcDbLine
 10
164.659841156
 20
83.6836577078
 30
0.0
 11
164.860205429
 21
83.4836580475
 31
0.0
  0
LINE
  5
3FD
330
1F
100
AcDbEntity
  8
0
  6
Continuous
 62
     7
370
    25
100
AcDbLine
 10
164.860205429
 20
83.4836580475
 30
0.0
 11
164.1756851993
 21
83.4836580475
 31
0.0
  0
LINE
  5
3FE
330
1F
100
AcDbEntity
  8
0
  6
Continuous
 62
     7
370
    25
100
AcDbLine
 10
152.4151262663
 20
83.4836580475
 30
0.0
 11
152.4151262663
 21
96.983659329
 31
0.0
  0
LINE
  5
3FF
330
1F
100
AcDbEntity
  8
0
  6
Continuous
 62
     7
370
    25
100
AcDbLine
 10
164.860205429
 20
83.4836580475
 30
0.0
 11
164.860205429
 21
96.983659329
 31
0.0
  0
LINE
  5
400
330
1F
100
AcDbEntity
  8
0
  6
Continuous
 62
     7
370
    25
100
AcDbLine
 10
151.9493625335
 20
83.6836577078
 30
0.0
 11
152.4151262663
 21
83.4836580475
 31
0.0
  0
LINE
  5
401
330
1F
100
AcDbEntity
  8
0
  6
Continuous
 62
     7
370
    25
100
AcDbLine
 10
151.9493625335
 20
83.6836577078
 30
0.0
 11
151.9493625335
 21
96.7836578061
 31
0.0
  0
LINE
  5
402
330
1F
100
AcDbEntity
  8
0
  6
Continuous
 62
     7
370
    25
100
AcDbLine
 10
152.4151262663
 20
96.983659329
 30
0.0
 11
151.9493625335
 21
96.7836578061
 31
0.0
  0
LINE
  5
403
330
1F
100
AcDbEntity
  8
0
  6
Continuous
 62
     7
370
    25
100
AcDbLine
 10
151.9493625335
 20
96.7836578061
 30
0.0
 11
151.7987811774
 21
96.983659329
 31
0.0
  0
LINE
  5
404
330
1F
100
AcDbEntity
  8
0
  6
Continuous
 62
     7
370
    25
100
AcDbLine
 10
151.7987811774
 20
96.983659329
 30
0.0
 11
152.4151262663
 21
96.983659329
 31
0.0
  0
LINE
  5
405
330
1F
100
AcDbEntity
  8
0
  6
Continuous
 62
     7
370
    25
100
AcDbLine
 10
151.7987811774
 20
83.4836580475
 30
0.0
 11
151.9493625335
 21
83.6836577078
 31
0.0
  0
LINE
  5
406
330
1F
100
AcDbEntity
  8
0
  6
Continuous
 62
     7
370
    25
100
AcDbLine
 10
152.4151262663
 20
83.4836580475
 30
0.0
 11
151.7987811774
 21
83.4836580475
 31
0.0
  0
LINE
  5
407
330
1F
100
AcDbEntity
  8
0
  6
Continuous
 62
     7
370
    25
100
AcDbLine
 10
165.476550518
 20
96.983659329
 30
0.0
 11
165.3259691618
 21
96.7836578061
 31
0.0
  0
LINE
  5
408
330
1F
100
AcDbEntity
  8
0
  6
Continuous
 62
     7
370
    25
100
AcDbLine
 10
165.3259691618
 20
96.7836578061
 30
0.0
 11
164.860205429
 21
96.983659329
 31
0.0
  0
LINE
  5
409
330
1F
100
AcDbEntity
  8
0
  6
Continuous
 62
     7
370
    25
100
AcDbLine
 10
164.860205429
 20
96.983659329
 30
0.0
 11
165.476550518
 21
96.983659329
 31
0.0
  0
LINE
  5
40A
330
1F
100
AcDbEntity
  8
0
  6
Continuous
 62
     7
370
    25
100
AcDbLine
 10
165.3259691618
 20
83.6836577078
 30
0.0
 11
165.3259691618
 21
96.7836578061
 31
0.0
  0
LINE
  5
40B
330
1F
100
AcDbEntity
  8
0
  6
Continuous
 62
     7
370
    25
100
AcDbLine
 10
164.860205429
 20
83.4836580475
 30
0.0
 11
165.3259691618
 21
83.6836577078
 31
0.0
  0
LINE
  5
40C
330
1F
100
AcDbEntity
  8
0
  6
Continuous
 62
     7
370
    25
100
AcDbLine
 10
165.3259691618
 20
83.6836577078
 30
0.0
 11
165.476550518
 21
83.4836580475
 31
0.0
  0
LINE
  5
40D
330
1F
100
AcDbEntity
  8
0
  6
Continuous
 62
     7
370
    25
100
AcDbLine
 10
165.476550518
 20
83.4836580475
 30
0.0
 11
164.860205429
 21
83.4836580475
 31
0.0
  0
LINE
  5
40E
330
1F
100
AcDbEntity
  8
0
  6
Continuous
 62
     7
370
    25
100
AcDbLine
 10
151.7987811774
 20
83.4836580475
 30
0.0
 11
151.7987811774
 21
96.983659329
 31
0.0
  0
LINE
  5
40F
330
1F
100
AcDbEntity
  8
0
  6
Continuous
 62
     7
370
    25
100
AcDbLine
 10
165.476550518
 20
83.4836580475
 30
0.0
 11
165.476550518
 21
96.983659329
 31
0.0
  0
LINE
  5
410
330
1F
100
AcDbEntity
  8
0
  6
Continuous
 62
     7
370
    25
100
AcDbLine
 10
151.7987811774
 20
96.983659329
 30
0.0
 11
151.3565128505
 21
96.7836578061
 31
0.0
  0
LINE
  5
411
330
1F
100
AcDbEntity
  8
0
  6
Continuous
 62
     7
370
    25
100
AcDbLine
 10
151.3565128505
 20
96.7836578061
 30
0.0
 11
151.2573647149
 21
96.983659329
 31
0.0
  0
LINE
  5
412
330
1F
100
AcDbEntity
  8
0
  6
Continuous
 62
     7
370
    25
100
AcDbLine
 10
151.2573647149
 20
96.983659329
 30
0.0
 11
151.7987811774
 21
96.983659329
 31
0.0
  0
LINE
  5
413
330
1F
100
AcDbEntity
  8
0
  6
Continuous
 62
     7
370
    25
100
AcDbLine
 10
151.3565128505
 20
83.6836577078
 30
0.0
 11
151.7987811774
 21
83.4836580475
 31
0.0
  0
LINE
  5
414
330
1F
100
AcDbEntity
  8
0
  6
Continuous
 62
     7
370
    25
100
AcDbLine
 10
151.3565128505
 20
83.6836577078
 30
0.0
 11
151.3565128505
 21
96.7836578061
 31
0.0
  0
LINE
  5
415
330
1F
100
AcDbEntity
  8
0
  6
Continuous
 62
     7
370
    25
100
AcDbLine
 10
151.2573647149
 20
83.4836580475
 30
0.0
 11
151.3565128505
 21
83.6836577078
 31
0.0
  0
LINE
  5
416
330
1F
100
AcDbEntity
  8
0
  6
Continuous
 62
     7
370
    25
100
AcDbLine
 10
151.7987811774
 20
83.4836580475
 30
0.0
 11
151.2573647149
 21
83.4836580475
 31
0.0
  0
LINE
  5
417
330
1F
100
AcDbEntity
  8
0
  6
Continuous
 62
     7
370
    25
100
AcDbLine
 10
166.0179669805
 20
96.983659329
 30
0.0
 11
165.9188188448
 21
96.7836578061
 31
0.0
  0
LINE
  5
418
330
1F
100
AcDbEntity
  8
0
  6
Continuous
 62
     7
370
    25
100
AcDbLine
 10
165.9188188448
 20
96.7836578061
 30
0.0
 11
165.476550518
 21
96.983659329
 31
0.0
  0
LINE
  5
419
330
1F
100
AcDbEntity
  8
0
  6
Continuous
 62
     7
370
    25
100
AcDbLine
 10
165.476550518
 20
96.983659329
 30
0.0
 11
166.0179669805
 21
96.983659329
 31
0.0
  0
LINE
  5
41A
330
1F
100
AcDbEntity
  8
0
  6
Continuous
 62
     7
370
    25
100
AcDbLine
 10
165.9188188448
 20
83.6836577078
 30
0.0
 11
165.9188188448
 21
96.7836578061
 31
0.0
  0
LINE
  5
41B
330
1F
100
AcDbEntity
  8
0
  6
Continuous
 62
     7
370
    25
100
AcDbLine
 10
165.476550518
 20
83.4836580475
 30
0.0
 11
165.9188188448
 21
83.6836577078
 31
0.0
  0
LINE
  5
41C
330
1F
100
AcDbEntity
  8
0
  6
Continuous
 62
     7
370
    25
100
AcDbLine
 10
165.9188188448
 20
83.6836577078
 30
0.0
 11
166.0179669805
 21
83.4836580475
 31
0.0
  0
LINE
  5
41D
330
1F
100
AcDbEntity
  8
0
  6
Continuous
 62
     7
370
    25
100
AcDbLine
 10
166.0179669805
 20
83.4836580475
 30
0.0
 11
165.476550518
 21
83.4836580475
 31
0.0
  0
LINE
  5
41E
330
1F
100
AcDbEntity
  8
0
  6
Continuous
 62
     7
370
    25
100
AcDbLine
 10
151.2573647149
 20
83.4836580475
 30
0.0
 11
151.2573647149
 21
96.983659329
 31
0.0
  0
LINE
  5
41F
330
1F
100
AcDbEntity
  8
0
  6
Continuous
 62
     7
370
    25
100
AcDbLine
 10
166.0179669805
 20
83.4836580475
 30
0.0
 11
166.0179669805
 21
96.983659329
 31
0.0
  0
LINE
  5
420
330
1F
100
AcDbEntity
  8
0
  6
Continuous
 62
     7
370
    25
100
AcDbLine
 10
151.2573647149
 20
96.983659329
 30
0.0
 11
150.8434369996
 21
96.7836578061
 31
0.0
  0
LINE
  5
421
330
1F
100
AcDbEntity
  8
0
  6
Continuous
 62
     7
370
    25
100
AcDbLine
 10
150.8434369996
 20
96.7836578061
 30
0.0
 11
150.7968080066
 21
96.983659329
 31
0.0
  0
LINE
  5
422
330
1F
100
AcDbEntity
  8
0
  6
Continuous
 62
     7
370
    25
100
AcDbLine
 10
150.7968080066
 20
96.983659329
 30
0.0
 11
151.2573647149
 21
96.983659329
 31
0.0
  0
LINE
  5
423
330
1F
100
AcDbEntity
  8
0
  6
Continuous
 62
     7
370
    25
100
AcDbLine
 10
150.8434369996
 20
83.6836577078
 30
0.0
 11
151.2573647149
 21
83.4836580475
 31
0.0
  0
LINE
  5
424
330
1F
100
AcDbEntity
  8
0
  6
Continuous
 62
     7
370
    25
100
AcDbLine
 10
150.8434369996
 20
83.6836577078
 30
0.0
 11
150.8434369996
 21
96.7836578061
 31
0.0
  0
LINE
  5
425
330
1F
100
AcDbEntity
  8
0
  6
Continuous
 62
     7
370
    25
100
AcDbLine
 10
150.7968080066
 20
83.4836580475
 30
0.0
 11
150.8434369996
 21
83.6836577078
 31
0.0
  0
LINE
  5
426
330
1F
100
AcDbEntity
  8
0
  6
Continuous
 62
     7
370
    25
100
AcDbLine
 10
151.2573647149
 20
83.4836580475
 30
0.0
 11
150.7968080066
 21
83.4836580475
 31
0.0
  0
LINE
  5
427
330
1F
100
AcDbEntity
  8
0
  6
Continuous
 62
     7
370
    25
100
AcDbLine
 10
166.4785236887
 20
96.983659329
 30
0.0
 11
166.4318946957
 21
96.7836578061
 31
0.0
  0
LINE
  5
428
330
1F
100
AcDbEntity
  8
0
  6
Continuous
 62
     7
370
    25
100
AcDbLine
 10
166.4318946957
 20
96.7836578061
 30
0.0
 11
166.0179669805
 21
96.983659329
 31
0.0
  0
LINE
  5
429
330
1F
100
AcDbEntity
  8
0
  6
Continuous
 62
     7
370
    25
100
AcDbLine
 10
166.0179669805
 20
96.983659329
 30
0.0
 11
166.4785236887
 21
96.983659329
 31
0.0
  0
LINE
  5
42A
330
1F
100
AcDbEntity
  8
0
  6
Continuous
 62
     7
370
    25
100
AcDbLine
 10
166.4318946957
 20
83.6836577078
 30
0.0
 11
166.4318946957
 21
96.7836578061
 31
0.0
  0
LINE
  5
42B
330
1F
100
AcDbEntity
  8
0
  6
Continuous
 62
     7
370
    25
100
AcDbLine
 10
166.0179669805
 20
83.4836580475
 30
0.0
 11
166.4318946957
 21
83.6836577078
 31
0.0
  0
LINE
  5
42C
330
1F
100
AcDbEntity
  8
0
  6
Continuous
 62
     7
370
    25
100
AcDbLine
 10
166.4318946957
 20
83.6836577078
 30
0.0
 11
166.4785236887
 21
83.4836580475
 31
0.0
  0
LINE
  5
42D
330
1F
100
AcDbEntity
  8
0
  6
Continuous
 62
     7
370
    25
100
AcDbLine
 10
166.4785236887
 20
83.4836580475
 30
0.0
 11
166.0179669805
 21
83.4836580475
 31
0.0
  0
LINE
  5
42E
330
1F
100
AcDbEntity
  8
0
  6
Continuous
 62
     7
370
    25
100
AcDbLine
 10
150.7968080066
 20
83.4836580475
 30
0.0
 11
150.7968080066
 21
96.983659329
 31
0.0
  0
LINE
  5
42F
330
1F
100
AcDbEntity
  8
0
  6
Continuous
 62
     7
370
    25
100
AcDbLine
 10
166.4785236887
 20
83.4836580475
 30
0.0
 11
166.4785236887
 21
96.983659329
 31
0.0
  0
LINE
  5
430
330
1F
100
AcDbEntity
  8
0
  6
Continuous
 62
     7
370
    25
100
AcDbLine
 10
150.4157564439
 20
83.6836577078
 30
0.0
 11
150.7968080066
 21
83.4836580475
 31
0.0
  0
LINE
  5
431
330
1F
100
AcDbEntity
  8
0
  6
Continuous
 62
     7
370
    25
100
AcDbLine
 10
150.4157564439
 20
83.6836577078
 30
0.0
 11
150.4157564439
 21
96.7836578061
 31
0.0
  0
LINE
  5
432
330
1F
100
AcDbEntity
  8
0
  6
Continuous
 62
     7
370
    25
100
AcDbLine
 10
150.7968080066
 20
96.983659329
 30
0.0
 11
150.4157564439
 21
96.7836578061
 31
0.0
  0
LINE
  5
433
330
1F
100
AcDbEntity
  8
0
  6
Continuous
 62
     7
370
    25
100
AcDbLine
 10
150.4157564439
 20
96.7836578061
 30
0.0
 11
150.4221583552
 21
96.983659329
 31
0.0
  0
LINE
  5
434
330
1F
100
AcDbEntity
  8
0
  6
Continuous
 62
     7
370
    25
100
AcDbLine
 10
150.4221583552
 20
96.983659329
 30
0.0
 11
150.7968080066
 21
96.983659329
 31
0.0
  0
LINE
  5
435
330
1F
100
AcDbEntity
  8
0
  6
Continuous
 62
     7
370
    25
100
AcDbLine
 10
150.4221583552
 20
83.4836580475
 30
0.0
 11
150.4157564439
 21
83.6836577078
 31
0.0
  0
LINE
  5
436
330
1F
100
AcDbEntity
  8
0
  6
Continuous
 62
     7
370
    25
100
AcDbLine
 10
150.7968080066
 20
83.4836580475
 30
0.0
 11
150.4221583552
 21
83.4836580475
 31
0.0
  0
LINE
  5
437
330
1F
100
AcDbEntity
  8
0
  6
Continuous
 62
     7
370
    25
100
AcDbLine
 10
166.8531733401
 20
96.983659329
 30
0.0
 11
166.8595752515
 21
96.7836578061
 31
0.0
  0
LINE
  5
438
330
1F
100
AcDbEntity
  8
0
  6
Continuous
 62
     7
370
    25
100
AcDbLine
 10
166.8595752515
 20
96.7836578061
 30
0.0
 11
166.4785236887
 21
96.983659329
 31
0.0
  0
LINE
  5
439
330
1F
100
AcDbEntity
  8
0
  6
Continuous
 62
     7
370
    25
100
AcDbLine
 10
166.4785236887
 20
96.983659329
 30
0.0
 11
166.8531733401
 21
96.983659329
 31
0.0
  0
LINE
  5
43A
330
1F
100
AcDbEntity
  8
0
  6
Continuous
 62
     7
370
    25
100
AcDbLine
 10
166.8595752515
 20
83.6836577078
 30
0.0
 11
166.8595752515
 21
96.7836578061
 31
0.0
  0
LINE
  5
43B
330
1F
100
AcDbEntity
  8
0
  6
Continuous
 62
     7
370
    25
100
AcDbLine
 10
166.4785236887
 20
83.4836580475
 30
0.0
 11
166.8595752515
 21
83.6836577078
 31
0.0
  0
LINE
  5
43C
330
1F
100
AcDbEntity
  8
0
  6
Continuous
 62
     7
370
    25
100
AcDbLine
 10
166.8595752515
 20
83.6836577078
 30
0.0
 11
166.8531733401
 21
83.4836580475
 31
0.0
  0
LINE
  5
43D
330
1F
100
AcDbEntity
  8
0
  6
Continuous
 62
     7
370
    25
100
AcDbLine
 10
166.8531733401
 20
83.4836580475
 30
0.0
 11
166.4785236887
 21
83.4836580475
 31
0.0
  0
LINE
  5
43E
330
1F
100
AcDbEntity
  8
0
  6
Continuous
 62
     7
370
    25
100
AcDbLine
 10
150.0781575985
 20
83.6836577078
 30
0.0
 11
150.4221583552
 21
83.4836580475
 31
0.0
  0
LINE
  5
43F
330
1F
100
AcDbEntity
  8
0
  6
Continuous
 62
     7
370
    25
100
AcDbLine
 10
150.0781575985
 20
83.6836577078
 30
0.0
 11
150.0781575985
 21
96.7836578061
 31
0.0
  0
LINE
  5
440
330
1F
100
AcDbEntity
  8
0
  6
Continuous
 62
     7
370
    25
100
AcDbLine
 10
150.4221583552
 20
96.983659329
 30
0.0
 11
150.0781575985
 21
96.7836578061
 31
0.0
  0
LINE
  5
441
330
1F
100
AcDbEntity
  8
0
  6
Continuous
 62
     7
370
    25
100
AcDbLine
 10
150.0781575985
 20
96.7836578061
 30
0.0
 11
150.1375182368
 21
96.983659329
 31
0.0
  0
LINE
  5
442
330
1F
100
AcDbEntity
  8
0
  6
Continuous
 62
     7
370
    25
100
AcDbLine
 10
150.1375182368
 20
96.983659329
 30
0.0
 11
150.4221583552
 21
96.983659329
 31
0.0
  0
LINE
  5
443
330
1F
100
AcDbEntity
  8
0
  6
Continuous
 62
     7
370
    25
100
AcDbLine
 10
150.1375182368
 20
83.4836580475
 30
0.0
 11
150.0781575985
 21
83.6836577078
 31
0.0
  0
LINE
  5
444
330
1F
100
AcDbEntity
  8
0
  6
Continuous
 62
     7
370
    25
100
AcDbLine
 10
150.4221583552
 20
83.4836580475
 30
0.0
 11
150.1375182368
 21
83.4836580475
 31
0.0
  0
LINE
  5
445
330
1F
100
AcDbEntity
  8
0
  6
Continuous
 62
     7
370
    25
100
AcDbLine
 10
167.1378134586
 20
96.983659329
 30
0.0
 11
167.1971740968
 21
96.7836578061
 31
0.0
  0
LINE
  5
446
330
1F
100
AcDbEntity
  8
0
  6
Continuous
 62
     7
370
    25
100
AcDbLine
 10
167.1971740968
 20
96.7836578061
 30
0.0
 11
166.8531733401
 21
96.983659329
 31
0.0
  0
LINE
  5
447
330
1F
100
AcDbEntity
  8
0
  6
Continuous
 62
     7
370
    25
100
AcDbLine
 10
166.8531733401
 20
96.983659329
 30
0.0
 11
167.1378134586
 21
96.983659329
 31
0.0
  0
LINE
  5
448
330
1F
100
AcDbEntity
  8
0
  6
Continuous
 62
     7
370
    25
100
AcDbLine
 10
167.1971740968
 20
83.6836577078
 30
0.0
 11
167.1971740968
 21
96.7836578061
 31
0.0
  0
LINE
  5
449
330
1F
100
AcDbEntity
  8
0
  6
Continuous
 62
     7
370
    25
100
AcDbLine
 10
166.8531733401
 20
83.4836580475
 30
0.0
 11
167.1971740968
 21
83.6836577078
 31
0.0
  0
LINE
  5
44A
330
1F
100
AcDbEntity
  8
0
  6
Continuous
 62
     7
370
    25
100
AcDbLine
 10
167.1971740968
 20
83.6836577078
 30
0.0
 11
167.1378134586
 21
83.4836580475
 31
0.0
  0
LINE
  5
44B
330
1F
100
AcDbEntity
  8
0
  6
Continuous
 62
     7
370
    25
100
AcDbLine
 10
167.1378134586
 20
83.4836580475
 30
0.0
 11
166.8531733401
 21
83.4836580475
 31
0.0
  0
LINE
  5
44C
330
1F
100
AcDbEntity
  8
0
  6
Continuous
 62
     7
370
    25
100
AcDbLine
 10
149.8343373485
 20
83.6836577078
 30
0.0
 11
150.1375182368
 21
83.4836580475
 31
0.0
  0
LINE
  5
44D
330
1F
100
AcDbEntity
  8
0
  6
Continuous
 62
     7
370
    25
100
AcDbLine
 10
149.8343373485
 20
83.6836577078
 30
0.0
 11
149.8343373485
 21
96.7836578061
 31
0.0
  0
LINE
  5
44E
330
1F
100
AcDbEntity
  8
0
  6
Continuous
 62
     7
370
    25
100
AcDbLine
 10
150.1375182368
 20
96.983659329
 30
0.0
 11
149.8343373485
 21
96.7836578061
 31
0.0
  0
LINE
  5
44F
330
1F
100
AcDbEntity
  8
0
  6
Continuous
 62
     7
370
    25
100
AcDbLine
 10
149.8343373485
 20
96.7836578061
 30
0.0
 11
149.9460085131
 21
96.983659329
 31
0.0
  0
LINE
  5
450
330
1F
100
AcDbEntity
  8
0
  6
Continuous
 62
     7
370
    25
100
AcDbLine
 10
149.9460085131
 20
96.983659329
 30
0.0
 11
150.1375182368
 21
96.983659329
 31
0.0
  0
LINE
  5
451
330
1F
100
AcDbEntity
  8
0
  6
Continuous
 62
     7
370
    25
100
AcDbLine
 10
149.9460085131
 20
83.4836580475
 30
0.0
 11
149.8343373485
 21
83.6836577078
 31
0.0
  0
LINE
  5
452
330
1F
100
AcDbEntity
  8
0
  6
Continuous
 62
     7
370
    25
100
AcDbLine
 10
150.1375182368
 20
83.4836580475
 30
0.0
 11
149.9460085131
 21
83.4836580475
 31
0.0
  0
LINE
  5
453
330
1F
100
AcDbEntity
  8
0
  6
Continuous
 62
     7
370
    25
100
AcDbLine
 10
167.4409943469
 20
83.6836577078
 30
0.0
 11
167.4409943469
 21
96.7836578061
 31
0.0
  0
LINE
  5
454
330
1F
100
AcDbEntity
  8
0
  6
Continuous
 62
     7
370
    25
100
AcDbLine
 10
167.1378134586
 20
83.4836580475
 30
0.0
 11
167.4409943469
 21
83.6836577078
 31
0.0
  0
LINE
  5
455
330
1F
100
AcDbEntity
  8
0
  6
Continuous
 62
     7
370
    25
100
AcDbLine
 10
167.4409943469
 20
96.7836578061
 30
0.0
 11
167.1378134586
 21
96.983659329
 31
0.0
  0
LINE
  5
456
330
1F
100
AcDbEntity
  8
0
  6
Continuous
 62
     7
370
    25
100
AcDbLine
 10
167.3293231822
 20
96.983659329
 30
0.0
 11
167.4409943469
 21
96.7836578061
 31
0.0
  0
LINE
  5
457
330
1F
100
AcDbEntity
  8
0
  6
Continuous
 62
     7
370
    25
100
AcDbLine
 10
167.1378134586
 20
96.983659329
 30
0.0
 11
167.3293231822
 21
96.983659329
 31
0.0
  0
LINE
  5
458
330
1F
100
AcDbEntity
  8
0
  6
Continuous
 62
     7
370
    25
100
AcDbLine
 10
167.4409943469
 20
83.6836577078
 30
0.0
 11
167.3293231822
 21
83.4836580475
 31
0.0
  0
LINE
  5
459
330
1F
100
AcDbEntity
  8
0
  6
Continuous
 62
     7
370
    25
100
AcDbLine
 10
167.3293231822
 20
83.4836580475
 30
0.0
 11
167.1378134586
 21
83.4836580475
 31
0.0
  0
LINE
  5
45A
330
1F
100
AcDbEntity
  8
0
  6
Continuous
 62
     7
370
    25
100
AcDbLine
 10
149.9460085131
 20
96.983659329
 30
0.0
 11
149.6869685896
 21
96.7836578061
 31
0.0
  0
LINE
  5
45B
330
1F
100
AcDbEntity
  8
0
  6
Continuous
 62
     7
370
    25
100
AcDbLine
 10
149.6869685896
 20
96.7836578061
 30
0.0
 11
149.8497255914
 21
96.983659329
 31
0.0
  0
LINE
  5
45C
330
1F
100
AcDbEntity
  8
0
  6
Continuous
 62
     7
370
    25
100
AcDbLine
 10
149.8497255914
 20
96.983659329
 30
0.0
 11
149.9460085131
 21
96.983659329
 31
0.0
  0
LINE
  5
45D
330
1F
100
AcDbEntity
  8
0
  6
Continuous
 62
     7
370
    25
100
AcDbLine
 10
149.6869685896
 20
83.6836577078
 30
0.0
 11
149.9460085131
 21
83.4836580475
 31
0.0
  0
LINE
  5
45E
330
1F
100
AcDbEntity
  8
0
  6
Continuous
 62
     7
370
    25
100
AcDbLine
 10
149.6869685896
 20
83.6836577078
 30
0.0
 11
149.6869685896
 21
96.7836578061
 31
0.0
  0
LINE
  5
45F
330
1F
100
AcDbEntity
  8
0
  6
Continuous
 62
     7
370
    25
100
AcDbLine
 10
149.8497255914
 20
83.4836580475
 30
0.0
 11
149.6869685896
 21
83.6836577078
 31
0.0
  0
LINE
  5
460
330
1F
100
AcDbEntity
  8
0
  6
Continuous
 62
     7
370
    25
100
AcDbLine
 10
149.9460085131
 20
83.4836580475
 30
0.0
 11
149.8497255914
 21
83.4836580475
 31
0.0
  0
LINE
  5
461
330
1F
100
AcDbEntity
  8
0
  6
Continuous
 62
     7
370
    25
100
AcDbLine
 10
167.425606104
 20
96.983659329
 30
0.0
 11
167.5883631058
 21
96.7836578061
 31
0.0
  0
LINE
  5
462
330
1F
100
AcDbEntity
  8
0
  6
Continuous
 62
     7
370
    25
100
AcDbLine
 10
167.5883631058
 20
96.7836578061
 30
0.0
 11
167.3293231822
 21
96.983659329
 31
0.0
  0
LINE
  5
463
330
1F
100
AcDbEntity
  8
0
  6
Continuous
 62
     7
370
    25
100
AcDbLine
 10
167.3293231822
 20
96.983659329
 30
0.0
 11
167.425606104
 21
96.983659329
 31
0.0
  0
LINE
  5
464
330
1F
100
AcDbEntity
  8
0
  6
Continuous
 62
     7
370
    25
100
AcDbLine
 10
167.5883631058
 20
83.6836577078
 30
0.0
 11
167.5883631058
 21
96.7836578061
 31
0.0
  0
LINE
  5
465
330
1F
100
AcDbEntity
  8
0
  6
Continuous
 62
     7
370
    25
100
AcDbLine
 10
167.3293231822
 20
83.4836580475
 30
0.0
 11
167.5883631058
 21
83.6836577078
 31
0.0
  0
LINE
  5
466
330
1F
100
AcDbEntity
  8
0
  6
Continuous
 62
     7
370
    25
100
AcDbLine
 10
167.5883631058
 20
83.6836577078
 30
0.0
 11
167.425606104
 21
83.4836580475
 31
0.0
  0
LINE
  5
467
330
1F
100
AcDbEntity
  8
0
  6
Continuous
 62
     7
370
    25
100
AcDbLine
 10
167.425606104
 20
83.4836580475
 30
0.0
 11
167.3293231822
 21
83.4836580475
 31
0.0
  0
LINE
  5
468
330
1F
100
AcDbEntity
  8
0
  6
Continuous
 62
     7
370
    25
100
AcDbLine
 10
149.6376662351
 20
83.6836577078
 30
0.0
 11
149.8497255914
 21
83.4836580475
 31
0.0
  0
LINE
  5
469
330
1F
100
AcDbEntity
  8
0
  6
Continuous
 62
     7
370
    25
100
AcDbLine
 10
149.6376662351
 20
83.6836577078
 30
0.0
 11
149.6376662351
 21
96.7836578061
 31
0.0
  0
LINE
  5
46A
330
1F
100
AcDbEntity
  8
0
  6
Continuous
 62
     7
370
    25
100
AcDbLine
 10
149.8497255914
 20
96.983659329
 30
0.0
 11
149.6376662351
 21
96.7836578061
 31
0.0
  0
LINE
  5
46B
330
1F
100
AcDbEntity
  8
0
  6
Continuous
 62
     7
370
    25
100
AcDbLine
 10
149.8376658953
 20
96.983659329
 30
0.0
 11
149.8497255914
 21
96.983659329
 31
0.0
  0
LINE
  5
46C
330
1F
100
AcDbEntity
  8
0
  6
Continuous
 62
     7
370
    25
100
AcDbLine
 10
149.8497255914
 20
83.4836580475
 30
0.0
 11
149.8376658953
 21
83.4836580475
 31
0.0
  0
LINE
  5
46D
330
1F
100
AcDbEntity
  8
0
  6
Continuous
 62
     7
370
    25
100
AcDbLine
 10
167.6376654602
 20
96.7836578061
 30
0.0
 11
167.425606104
 21
96.983659329
 31
0.0
  0
LINE
  5
46E
330
1F
100
AcDbEntity
  8
0
  6
Continuous
 62
     7
370
    25
100
AcDbLine
 10
167.425606104
 20
96.983659329
 30
0.0
 11
167.4376658
 21
96.983659329
 31
0.0
  0
LINE
  5
46F
330
1F
100
AcDbEntity
  8
0
  6
Continuous
 62
     7
370
    25
100
AcDbLine
 10
167.6376654602
 20
83.6836577078
 30
0.0
 11
167.6376654602
 21
96.7836578061
 31
0.0
  0
LINE
  5
470
330
1F
100
AcDbEntity
  8
0
  6
Continuous
 62
     7
370
    25
100
AcDbLine
 10
167.425606104
 20
83.4836580475
 30
0.0
 11
167.6376654602
 21
83.6836577078
 31
0.0
  0
LINE
  5
471
330
1F
100
AcDbEntity
  8
0
  6
Continuous
 62
     7
370
    25
100
AcDbLine
 10
167.4376658
 20
83.4836580475
 30
0.0
 11
167.425606104
 21
83.4836580475
 31
0.0
  0
CIRCLE
  5
472
330
1F
100
AcDbEntity
  8
0
  6
Continuous
 62
     7
370
    25
100
AcDbCircle
 10
158.6376658477
 20
66.7836584767
 30
0.0
 40
4.782279626857587
  0
CIRCLE
  5
473
330
1F
100
AcDbEntity
  8
0
  6
Continuous
 62
     7
370
    25
100
AcDbCircle
 10
158.6376658477
 20
66.7836584767
 30
0.0
 40
4.0
  0
CIRCLE
  5
474
330
1F
100
AcDbEntity
  8
0
  6
Continuous
 62
     7
370
    25
100
AcDbCircle
 10
158.6376658477
 20
66.7836584767
 30
0.0
 40
3.19999999999996
  0
CIRCLE
  5
475
330
1F
100
AcDbEntity
  8
0
  6
Continuous
 62
     7
370
    25
100
AcDbCircle
 10
158.6376658477
 20
66.7836584767
 30
0.0
 40
2.999999999999972
  0
CIRCLE
  5
476
330
1F
100
AcDbEntity
  8
0
  6
Continuous
 62
     7
370
    25
100
AcDbCircle
 10
158.6376658477
 20
66.7836584767
 30
0.0
 40
5.052437499999996
  0
CIRCLE
  5
477
330
1F
100
AcDbEntity
  8
0
  6
Continuous
 62
     7
370
    25
100
AcDbCircle
 10
158.6376658477
 20
66.7836584767
 30
0.0
 40
10.00000000000003
  0
CIRCLE
  5
478
330
1F
100
AcDbEntity
  8
0
  6
Continuous
 62
     7
370
    25
100
AcDbCircle
 10
158.6376658477
 20
66.7836584767
 30
0.0
 40
9.500000000000028
  0
SPLINE
  5
479
330
1F
100
AcDbEntity
  8
0
  6
Continuous
 62
     7
370
    25
100
AcDbSpline
210
0.0
220
0.0
230
1.0
 70
     8
 71
     3
 72
    13
 73
     9
 74
     0
 42
0.000000001
 43
0.00000001
 40
0.0
 40
0.0
 40
0.0
 40
0.0
 40
0.0737597927454939
 40
0.3006919187459112
 40
0.5298019228134139
 40
0.7613598368541584
 40
0.9918446264450032
 40
1.0
 40
1.0
 40
1.0
 40
1.0
 10
152.8199707925089
 20
74.8901658375937
 30
0.0
 10
152.8198889727447
 20
74.92620452245066
 30
0.0
 10
152.8195554232464
 20
75.07312116762225
 30
0.0
 10
152.8004116609995
 20
75.3142613019284
 30
0.0
 10
152.771060321752
 20
75.5737094089369
 30
0.0
 10
152.7463534692688
 20
75.73285751824095
 30
0.0
 10
152.7348136644636
 20
75.80090350966512
 30
0.0
 10
152.7378766678282
 20
75.78238544611088
 30
0.0
 10
152.7379813439913
 20
75.78175260324063
 30
0.0
  0
SPLINE
  5
47A
330
1F
100
AcDbEntity
  8
0
  6
Continuous
 62
     7
370
    25
100
AcDbSpline
210
0.0
220
0.0
230
1.0
 70
    24
 71
     3
 72
    14
 73
    10
 74
     0
 42
0.000000001
 43
0.00000001
 40
0.0
 40
0.0
 40
0.0
 40
0.0
 40
0.0686783537768138
 40
0.2932170497282056
 40
0.2935200239703272
 40
0.5073355948525435
 40
0.7069536501822122
 40
0.9001970470938867
 40
1.0
 40
1.0
 40
1.0
 40
1.0
 10
152.4376656695969
 20
74.7836588566381
 30
0.0
 10
152.4376656695969
 20
74.80251105262106
 30
0.0
 10
152.4376656695969
 20
74.88299908098855
 30
0.0
 10
152.4376656695971
 20
74.96268364932719
 30
0.0
 10
152.4376656695968
 20
75.07190302684303
 30
0.0
 10
152.437665669597
 20
75.16859315588064
 30
0.0
 10
152.4376656695969
 20
75.27017799226421
 30
0.0
 10
152.4376656695969
 20
75.32372930403399
 30
0.0
 10
152.4376656695969
 20
75.31952261016917
 30
0.0
 10
152.4376656695969
 20
75.31808993417802
 30
0.0
  0
SPLINE
  5
47B
330
1F
100
AcDbEntity
  8
0
  6
Continuous
 62
     7
370
    25
100
AcDbSpline
210
0.0
220
0.0
230
1.0
 70
    24
 71
     3
 72
     9
 73
     5
 74
     0
 42
0.000000001
 43
0.00000001
 40
0.0
 40
0.0
 40
0.0
 40
0.0
 40
0.2886514344077302
 40
1.0
 40
1.0
 40
1.0
 40
1.0
 10
152.4376656695969
 20
74.60458042670074
 30
0.0
 10
152.4376656695969
 20
74.62069241060144
 30
0.0
 10
152.4376656695969
 20
74.67651054271555
 30
0.0
 10
152.4376656695969
 20
74.73912099863132
 30
0.0
 10
152.4376656695969
 20
74.7836588566381
 30
0.0
  0
ENDSEC
  0
SECTION
  2
OBJECTS
  0
DICTIONARY
  5
C
330
0
100
AcDbDictionary
281
     1
  3
ACAD_GROUP
350
D
  3
ACAD_LAYOUT
350
1A
  3
ACAD_MLINESTYLE
350
17
  3
ACAD_PLOTSETTINGS
350
19
  3
ACAD_PLOTSTYLENAME
350
E
  3
ACAD_SCALELIST
350
47
  0
DICTIONARY
  5
D
102
{ACAD_REACTORS
330
C
102
}
330
C
100
AcDbDictionary
281
     1
  0
DICTIONARY
  5
1A
102
{ACAD_REACTORS
330
C
102
}
330
C
100
AcDbDictionary
281
     1
  3
Layout1
350
1E
  3
Layout2
350
26
  3
Model
350
22
  0
DICTIONARY
  5
17
102
{ACAD_REACTORS
330
C
102
}
330
C
100
AcDbDictionary
281
     1
  3
Standard
350
18
  0
DICTIONARY
  5
19
102
{ACAD_REACTORS
330
C
102
}
330
C
100
AcDbDictionary
281
     1
  0
ACDBDICTIONARYWDFLT
  5
E
102
{ACAD_REACTORS
330
C
102
}
330
C
100
AcDbDictionary
281
     1
  3
Normal
350
F
100
AcDbDictionaryWithDefault
340
F
  0
DICTIONARY
  5
47
102
{ACAD_REACTORS
330
C
102
}
330
C
100
AcDbDictionary
281
     1
  3
A0
350
48
  3
A1
350
49
  3
A2
350
4A
  3
A3
350
4B
  3
A4
350
4C
  3
A5
350
4D
  3
A6
350
4E
  3
A7
350
4F
  3
A8
350
50
  3
A9
350
51
  3
B0
350
52
  3
B1
350
53
  3
B2
350
54
  3
B3
350
55
  3
B4
350
56
  3
B5
350
57
  3
B6
350
58
  3
B7
350
59
  3
B8
350
5A
  3
B9
350
5B
  3
C0
350
5C
  3
C1
350
5D
  3
C2
350
5E
  3
C3
350
5F
  3
C4
350
60
  3
C5
350
61
  3
C6
350
62
  3
C7
350
63
  3
C8
350
64
  3
C9
350
65
  3
D0
350
66
  3
D1
350
67
  3
D2
350
68
  0
LAYOUT
  5
1E
102
{ACAD_REACTORS
330
1A
102
}
330
1A
100
AcDbPlotSettings
  1

  2
none_device
  4

  6

 40
0.0
 41
0.0
 42
0.0
 43
0.0
 44
0.0
 45
0.0
 46
0.0
 47
0.0
 48
0.0
 49
0.0
140
0.0
141
0.0
142
1.0
143
1.0
 70
   688
 72
     1
 73
     0
 74
     5
  7

 75
    16
147
1.0
148
0.0
149
0.0
100
AcDbLayout
  1
Layout1
 70
     1
 71
     1
 10
0.0
 20
0.0
 11
420.0
 21
297.0
 12
0.0
 22
0.0
 32
0.0
 14
1.0000000000E+20
 24
1.0000000000E+20
 34
1.0000000000E+20
 15
-1.0000000000E+20
 25
-1.0000000000E+20
 35
-1.0000000000E+20
146
0.0
 13
0.0
 23
0.0
 33
0.0
 16
1.0
 26
0.0
 36
0.0
 17
0.0
 27
1.0
 37
0.0
 76
     0
330
1B
  0
LAYOUT
  5
26
102
{ACAD_REACTORS
330
1A
102
}
330
1A
100
AcDbPlotSettings
  1

  2
none_device
  4

  6

 40
0.0
 41
0.0
 42
0.0
 43
0.0
 44
0.0
 45
0.0
 46
0.0
 47
0.0
 48
0.0
 49
0.0
140
0.0
141
0.0
142
1.0
143
1.0
 70
   688
 72
     1
 73
     0
 74
     5
  7

 75
    16
147
1.0
148
0.0
149
0.0
100
AcDbLayout
  1
Layout2
 70
     1
 71
     2
 10
0.0
 20
0.0
 11
0.0
 21
0.0
 12
0.0
 22
0.0
 32
0.0
 14
0.0
 24
0.0
 34
0.0
 15
0.0
 25
0.0
 35
0.0
146
0.0
 13
0.0
 23
0.0
 33
0.0
 16
1.0
 26
0.0
 36
0.0
 17
0.0
 27
1.0
 37
0.0
 76
     0
330
23
  0
LAYOUT
  5
22
102
{ACAD_REACTORS
330
1A
102
}
330
1A
100
AcDbPlotSettings
  1

  2
none_device
  4
Letter_(8.50_x_11.00_Inches)
  6

 40
6.35
 41
6.35
 42
6.35000508
 43
6.35000508
 44
215.9
 45
279.4
 46
0.0
 47
0.0
 48
0.0
 49
0.0
140
0.0
141
0.0
142
1.0
143
1.0
 70
  1712
 72
     1
 73
     0
 74
     0
  7

 75
     0
147
1.0
148
0.0
149
0.0
100
AcDbLayout
  1
Model
 70
     1
 71
     0
 10
0.0
 20
0.0
 11
279.4
 21
215.9
 12
0.0
 22
0.0
 32
0.0
 14
0.0
 24
0.0
 34
0.0
 15
279.4
 25
215.9
 35
0.0
146
0.0
 13
0.0
 23
0.0
 33
0.0
 16
1.0
 26
0.0
 36
0.0
 17
0.0
 27
1.0
 37
0.0
 76
     0
330
1F
331
29
  0
MLINESTYLE
  5
18
102
{ACAD_REACTORS
330
17
102
}
330
17
100
AcDbMlineStyle
  2
Standard
 70
     0
  3

 62
   256
 51
90.0
 52
90.0
 71
     2
 49
0.5
 62
   256
  6
BYLAYER
 49
-0.5
 62
   256
  6
BYLAYER
  0
ACDBPLACEHOLDER
  5
F
102
{ACAD_REACTORS
330
E
102
}
330
E
  0
SCALE
  5
48
102
{ACAD_REACTORS
330
47
102
}
330
47
100
AcDbScale
 70
     0
300
1:1
140
1.0
141
1.0
290
     1
  0
SCALE
  5
49
102
{ACAD_REACTORS
330
47
102
}
330
47
100
AcDbScale
 70
     0
300
1:2
140
1.0
141
2.0
290
     0
  0
SCALE
  5
4A
102
{ACAD_REACTORS
330
47
102
}
330
47
100
AcDbScale
 70
     0
300
1:4
140
1.0
141
4.0
290
     0
  0
SCALE
  5
4B
102
{ACAD_REACTORS
330
47
102
}
330
47
100
AcDbScale
 70
     0
300
1:5
140
1.0
141
5.0
290
     0
  0
SCALE
  5
4C
102
{ACAD_REACTORS
330
47
102
}
330
47
100
AcDbScale
 70
     0
300
1:8
140
1.0
141
8.0
290
     0
  0
SCALE
  5
4D
102
{ACAD_REACTORS
330
47
102
}
330
47
100
AcDbScale
 70
     0
300
1:10
140
1.0
141
10.0
290
     0
  0
SCALE
  5
4E
102
{ACAD_REACTORS
330
47
102
}
330
47
100
AcDbScale
 70
     0
300
1:16
140
1.0
141
16.0
290
     0
  0
SCALE
  5
4F
102
{ACAD_REACTORS
330
47
102
}
330
47
100
AcDbScale
 70
     0
300
1:20
140
1.0
141
20.0
290
     0
  0
SCALE
  5
50
102
{ACAD_REACTORS
330
47
102
}
330
47
100
AcDbScale
 70
     0
300
1:30
140
1.0
141
30.0
290
     0
  0
SCALE
  5
51
102
{ACAD_REACTORS
330
47
102
}
330
47
100
AcDbScale
 70
     0
300
1:40
140
1.0
141
40.0
290
     0
  0
SCALE
  5
52
102
{ACAD_REACTORS
330
47
102
}
330
47
100
AcDbScale
 70
     0
300
1:50
140
1.0
141
50.0
290
     0
  0
SCALE
  5
53
102
{ACAD_REACTORS
330
47
102
}
330
47
100
AcDbScale
 70
     0
300
1:100
140
1.0
141
100.0
290
     0
  0
SCALE
  5
54
102
{ACAD_REACTORS
330
47
102
}
330
47
100
AcDbScale
 70
     0
300
2:1
140
2.0
141
1.0
290
     0
  0
SCALE
  5
55
102
{ACAD_REACTORS
330
47
102
}
330
47
100
AcDbScale
 70
     0
300
4:1
140
4.0
141
1.0
290
     0
  0
SCALE
  5
56
102
{ACAD_REACTORS
330
47
102
}
330
47
100
AcDbScale
 70
     0
300
8:1
140
8.0
141
1.0
290
     0
  0
SCALE
  5
57
102
{ACAD_REACTORS
330
47
102
}
330
47
100
AcDbScale
 70
     0
300
10:1
140
10.0
141
1.0
290
     0
  0
SCALE
  5
58
102
{ACAD_REACTORS
330
47
102
}
330
47
100
AcDbScale
 70
     0
300
100:1
140
100.0
141
1.0
290
     0
  0
SCALE
  5
59
102
{ACAD_REACTORS
330
47
102
}
330
47
100
AcDbScale
 70
     0
300
1/128" = 1'-0"
140
0.0078125
141
12.0
290
     0
  0
SCALE
  5
5A
102
{ACAD_REACTORS
330
47
102
}
330
47
100
AcDbScale
 70
     0
300
1/64" = 1'-0"
140
0.015625
141
12.0
290
     0
  0
SCALE
  5
5B
102
{ACAD_REACTORS
330
47
102
}
330
47
100
AcDbScale
 70
     0
300
1/32" = 1'-0"
140
0.03125
141
12.0
290
     0
  0
SCALE
  5
5C
102
{ACAD_REACTORS
330
47
102
}
330
47
100
AcDbScale
 70
     0
300
1/16" = 1'-0"
140
0.0625
141
12.0
290
     0
  0
SCALE
  5
5D
102
{ACAD_REACTORS
330
47
102
}
330
47
100
AcDbScale
 70
     0
300
3/32" = 1'-0"
140
0.09375
141
12.0
290
     0
  0
SCALE
  5
5E
102
{ACAD_REACTORS
330
47
102
}
330
47
100
AcDbScale
 70
     0
300
1/8" = 1'-0"
140
0.125
141
12.0
290
     0
  0
SCALE
  5
5F
102
{ACAD_REACTORS
330
47
102
}
330
47
100
AcDbScale
 70
     0
300
3/16" = 1'-0"
140
0.1875
141
12.0
290
     0
  0
SCALE
  5
60
102
{ACAD_REACTORS
330
47
102
}
330
47
100
AcDbScale
 70
     0
300
1/4" = 1'-0"
140
0.25
141
12.0
290
     0
  0
SCALE
  5
61
102
{ACAD_REACTORS
330
47
102
}
330
47
100
AcDbScale
 70
     0
300
3/8" = 1'-0"
140
0.375
141
12.0
290
     0
  0
SCALE
  5
62
102
{ACAD_REACTORS
330
47
102
}
330
47
100
AcDbScale
 70
     0
300
1/2" = 1'-0"
140
0.5
141
12.0
290
     0
  0
SCALE
  5
63
102
{ACAD_REACTORS
330
47
102
}
330
47
100
AcDbScale
 70
     0
300
3/4" = 1'-0"
140
0.75
141
12.0
290
     0
  0
SCALE
  5
64
102
{ACAD_REACTORS
330
47
102
}
330
47
100
AcDbScale
 70
     0
300
1" = 1'-0"
140
1.0
141
12.0
290
     0
  0
SCALE
  5
65
102
{ACAD_REACTORS
330
47
102
}
330
47
100
AcDbScale
 70
     0
300
1-1/2" = 1'-0"
140
1.5
141
12.0
290
     0
  0
SCALE
  5
66
102
{ACAD_REACTORS
330
47
102
}
330
47
100
AcDbScale
 70
     0
300
3" = 1'-0"
140
3.0
141
12.0
290
     0
  0
SCALE
  5
67
102
{ACAD_REACTORS
330
47
102
}
330
47
100
AcDbScale
 70
     0
300
6" = 1'-0"
140
6.0
141
12.0
290
     0
  0
SCALE
  5
68
102
{ACAD_REACTORS
330
47
102
}
330
47
100
AcDbScale
 70
     0
300
1'-0" = 1'-0"
140
12.0
141
12.0
290
     0
  0
ENDSEC
  0
EOF
