  0
SECTION
  2
HEADER
  9
$ACADVER
  1
AC1015
  9
$ACADMAINTVER
 70
     6
  9
$DWGCODEPAGE
  3
DOS932
  9
$INSBASE
 10
0.0
 20
0.0
 30
0.0
  9
$EXTMIN
 10
0.0
 20
0.0
 30
0.0
  9
$EXTMAX
 10
297.0
 20
210.0
 30
0.0
  9
$LIMMIN
 10
0.0
 20
0.0
  9
$LIMMAX
 10
297.0
 20
210.0
  9
$ORTHOMODE
 70
     0
  9
$REGENMODE
 70
     1
  9
$FILLMODE
 70
     1
  9
$QTEXTMODE
 70
     0
  9
$MIRRTEXT
 70
     1
  9
$LTSCALE
 40
1.0
  9
$ATTMODE
 70
     1
  9
$TEXTSIZE
 40
3.5277777778
  9
$TRACEWID
 40
1.0
  9
$TEXTSTYLE
  7
Standard
  9
$CLAYER
  8
0
  9
$CELTYPE
  6
ByLayer
  9
$CECOLOR
 62
   256
  9
$CELTSCALE
 40
1.0
  9
$DISPSILH
 70
     0
  9
$DIMSCALE
 40
1.0
  9
$DIMASZ
 40
2.728515625
  9
$DIMEXO
 40
1.0
  9
$DIMDLI
 40
3.75
  9
$DIMRND
 40
0.0
  9
$DIMDLE
 40
0.0
  9
$DIMEXE
 40
1.0
  9
$DIMTP
 40
0.0
  9
$DIMTM
 40
0.0
  9
$DIMTXT
 40
3.5277777778
  9
$DIMCEN
 40
2.5
  9
$DIMTSZ
 40
0.0
  9
$DIMTOL
 70
     0
  9
$DIMLIM
 70
     0
  9
$DIMTIH
 70
     1
  9
$DIMTOH
 70
     1
  9
$DIMSE1
 70
     0
  9
$DIMSE2
 70
     0
  9
$DIMTAD
 70
     1
  9
$DIMZIN
 70
     0
  9
$DIMBLK
  1

  9
$DIMASO
 70
     1
  9
$DIMSHO
 70
     1
  9
$DIMPOST
  1

  9
$DIMAPOST
  1

  9
$DIMALT
 70
     0
  9
$DIMALTD
 70
     3
  9
$DIMALTF
 40
0.0393700787
  9
$DIMLFAC
 40
1.0
  9
$DIMTOFL
 70
     1
  9
$DIMTVP
 40
0.0
  9
$DIMTIX
 70
     0
  9
$DIMSOXD
 70
     0
  9
$DIMSAH
 70
     0
  9
$DIMBLK1
  1

  9
$DIMBLK2
  1

  9
$DIMSTYLE
  2
ISO-25
  9
$DIMCLRD
 70
     0
  9
$DIMCLRE
 70
     0
  9
$DIMCLRT
 70
     0
  9
$DIMTFAC
 40
1.0
  9
$DIMGAP
 40
1.524
  9
$DIMJUST
 70
     0
  9
$DIMSD1
 70
     0
  9
$DIMSD2
 70
     0
  9
$DIMTOLJ
 70
     0
  9
$DIMTZIN
 70
     0
  9
$DIMALTZ
 70
     0
  9
$DIMALTTZ
 70
     0
  9
$DIMUPT
 70
     0
  9
$DIMDEC
 70
     2
  9
$DIMTDEC
 70
     2
  9
$DIMALTU
 70
     2
  9
$DIMALTTD
 70
     3
  9
$DIMTXSTY
  7
Standard
  9
$DIMAUNIT
 70
     0
  9
$DIMADEC
 70
     2
  9
$DIMALTRND
 40
0.0
  9
$DIMAZIN
 70
     0
  9
$DIMDSEP
 70
    44
  9
$DIMATFIT
 70
     3
  9
$DIMFRAC
 70
     0
  9
$DIMLDRBLK
  1

  9
$DIMLUNIT
 70
     2
  9
$DIMLWD
 70
    -2
  9
$DIMLWE
 70
    -2
  9
$DIMTMOVE
 70
     0
  9
$LUNITS
 70
     2
  9
$LUPREC
 70
     2
  9
$SKETCHINC
 40
1.0
  9
$FILLETRAD
 40
0.0
  9
$AUNITS
 70
     0
  9
$AUPREC
 70
     2
  9
$MENU
  1
.
  9
$ELEVATION
 40
0.0
  9
$PELEVATION
 40
0.0
  9
$THICKNESS
 40
0.0
  9
$LIMCHECK
 70
     0
  9
$CHAMFERA
 40
0.0
  9
$CHAMFERB
 40
0.0
  9
$CHAMFERC
 40
0.0
  9
$CHAMFERD
 40
0.0
  9
$SKPOLY
 70
     0
  9
$TDCREATE
 40
2460426.719677905
  9
$TDUCREATE
 40
2460426.344677905
  9
$TDUPDATE
 40
2460426.71967912
  9
$TDUUPDATE
 40
2460426.34467912
  9
$TDINDWG
 40
0.0000000116
  9
$TDUSRTIMER
 40
0.0000000116
  9
$USRTIMER
 70
     1
  9
$ANGBASE
 50
0.0
  9
$ANGDIR
 70
     0
  9
$PDMODE
 70
     0
  9
$PDSIZE
 40
-1.0
  9
$PLINEWID
 40
0.0
  9
$SPLFRAME
 70
     0
  9
$SPLINETYPE
 70
     6
  9
$SPLINESEGS
 70
     8
  9
$HANDSEED
  5
2DC
  9
$SURFTAB1
 70
     6
  9
$SURFTAB2
 70
     6
  9
$SURFTYPE
 70
     6
  9
$SURFU
 70
     6
  9
$SURFV
 70
     6
  9
$UCSBASE
  2

  9
$UCSNAME
  2

  9
$UCSORG
 10
0.0
 20
0.0
 30
0.0
  9
$UCSXDIR
 10
1.0
 20
0.0
 30
0.0
  9
$UCSYDIR
 10
0.0
 20
1.0
 30
0.0
  9
$UCSORTHOREF
  2

  9
$UCSORTHOVIEW
 70
     0
  9
$UCSORGTOP
 10
0.0
 20
0.0
 30
0.0
  9
$UCSORGBOTTOM
 10
0.0
 20
0.0
 30
0.0
  9
$UCSORGLEFT
 10
0.0
 20
0.0
 30
0.0
  9
$UCSORGRIGHT
 10
0.0
 20
0.0
 30
0.0
  9
$UCSORGFRONT
 10
0.0
 20
0.0
 30
0.0
  9
$UCSORGBACK
 10
0.0
 20
0.0
 30
0.0
  9
$PUCSBASE
  2

  9
$PUCSNAME
  2

  9
$PUCSORG
 10
0.0
 20
0.0
 30
0.0
  9
$PUCSXDIR
 10
1.0
 20
0.0
 30
0.0
  9
$PUCSYDIR
 10
0.0
 20
1.0
 30
0.0
  9
$PUCSORTHOREF
  2

  9
$PUCSORTHOVIEW
 70
     0
  9
$PUCSORGTOP
 10
0.0
 20
0.0
 30
0.0
  9
$PUCSORGBOTTOM
 10
0.0
 20
0.0
 30
0.0
  9
$PUCSORGLEFT
 10
0.0
 20
0.0
 30
0.0
  9
$PUCSORGRIGHT
 10
0.0
 20
0.0
 30
0.0
  9
$PUCSORGFRONT
 10
0.0
 20
0.0
 30
0.0
  9
$PUCSORGBACK
 10
0.0
 20
0.0
 30
0.0
  9
$USERI1
 70
     0
  9
$USERI2
 70
     0
  9
$USERI3
 70
     0
  9
$USERI4
 70
     0
  9
$USERI5
 70
     0
  9
$USERR1
 40
0.0
  9
$USERR2
 40
0.0
  9
$USERR3
 40
0.0
  9
$USERR4
 40
0.0
  9
$USERR5
 40
0.0
  9
$WORLDVIEW
 70
     1
  9
$SHADEDGE
 70
     3
  9
$SHADEDIF
 70
    70
  9
$TILEMODE
 70
     1
  9
$MAXACTVP
 70
    64
  9
$PINSBASE
 10
0.0
 20
0.0
 30
0.0
  9
$PLIMCHECK
 70
     0
  9
$PEXTMIN
 10
1.0000000000E+20
 20
1.0000000000E+20
 30
1.0000000000E+20
  9
$PEXTMAX
 10
-1.0000000000E+20
 20
-1.0000000000E+20
 30
-1.0000000000E+20
  9
$PLIMMIN
 10
0.0
 20
0.0
  9
$PLIMMAX
 10
420.0
 20
297.0
  9
$UNITMODE
 70
     0
  9
$VISRETAIN
 70
     1
  9
$PLINEGEN
 70
     0
  9
$PSLTSCALE
 70
     1
  9
$TREEDEPTH
 70
  3020
  9
$CMLSTYLE
  2
Standard
  9
$CMLJUST
 70
     0
  9
$CMLSCALE
 40
20.0
  9
$PROXYGRAPHICS
 70
     1
  9
$MEASUREMENT
 70
     1
  9
$CELWEIGHT
370
    -1
  9
$ENDCAPS
280
     0
  9
$JOINSTYLE
280
     0
  9
$LWDISPLAY
290
     1
  9
$INSUNITS
 70
     4
  9
$HYPERLINKBASE
  1

  9
$STYLESHEET
  1

  9
$XEDIT
290
     1
  9
$CEPSNTYPE
380
     0
  9
$PSTYLEMODE
290
     1
  9
$FINGERPRINTGUID
  2
{7f5bdaaa-c145-4cc8-9baf-147a12926691}
  9
$VERSIONGUID
  2
{FAEB1C32-E019-11D5-929B-00C0DF256EC4}
  9
$EXTNAMES
290
     1
  9
$PSVPSCALE
 40
0.0
  9
$OLESTARTUP
290
     0
  0
ENDSEC
  0
SECTION
  2
CLASSES
  0
CLASS
  1
ACDBDICTIONARYWDFLT
  2
AcDbDictionaryWithDefault
  3
ObjectDBX Classes
 90
        0
280
     0
281
     0
  0
CLASS
  1
VISUALSTYLE
  2
AcDbVisualStyle
  3
ObjectDBX Classes
 90
     4095
280
     0
281
     0
  0
CLASS
  1
MATERIAL
  2
AcDbMaterial
  3
ObjectDBX Classes
 90
     1153
280
     0
281
     0
  0
CLASS
  1
SCALE
  2
AcDbScale
  3
ObjectDBX Classes
 90
     1153
280
     0
281
     0
  0
CLASS
  1
TABLESTYLE
  2
AcDbTableStyle
  3
ObjectDBX Classes
 90
     4095
280
     0
281
     0
  0
CLASS
  1
MLEADERSTYLE
  2
AcDbMLeaderStyle
  3
ACDB_MLEADERSTYLE_CLASS
 90
     4095
280
     0
281
     0
  0
CLASS
  1
SUN
  2
AcDbSun
  3
SCENEOE
 90
     1153
280
     0
281
     0
  0
CLASS
  1
ACDBPLACEHOLDER
  2
AcDbPlaceHolder
  3
ObjectDBX Classes
 90
        0
280
     0
281
     0
  0
CLASS
  1
LAYOUT
  2
AcDbLayout
  3
ObjectDBX Classes
 90
        0
280
     0
281
     0
  0
ENDSEC
  0
SECTION
  2
TABLES
  0
TABLE
  2
VPORT
  5
8
330
0
100
AcDbSymbolTable
 70
     1
  0
VPORT
  5
29
330
8
100
AcDbSymbolTableRecord
100
AcDbViewportTableRecord
  2
*Active
 70
     0
 10
0.0
 20
0.0
 11
1.0
 21
1.0
 12
148.5
 22
105.0
 13
0.0
 23
0.0
 14
10.0
 24
10.0
 15
10.0
 25
10.0
 16
0.0
 26
0.0
 36
1.0
 17
0.0
 27
0.0
 37
0.0
 40
210.0
 41
1.4142857143
 42
50.0
 43
0.0
 44
0.0
 50
0.0
 51
0.0
 71
     0
 72
  2000
 73
     1
 74
     3
 75
     0
 76
     0
 77
     0
 78
     0
281
     0
 65
     1
110
0.0
120
0.0
130
0.0
111
1.0
121
0.0
131
0.0
112
0.0
122
1.0
132
0.0
 79
     0
146
0.0
  0
ENDTAB
  0
TABLE
  2
LTYPE
  5
5
330
0
100
AcDbSymbolTable
 70
     6
  0
LTYPE
  5
14
330
5
100
AcDbSymbolTableRecord
100
AcDbLinetypeTableRecord
  2
ByBlock
 70
     0
  3

 72
    65
 73
     0
 40
0.0
  0
LTYPE
  5
15
330
5
100
AcDbSymbolTableRecord
100
AcDbLinetypeTableRecord
  2
ByLayer
 70
     0
  3

 72
    65
 73
     0
 40
0.0
  0
LTYPE
  5
16
330
5
100
AcDbSymbolTableRecord
100
AcDbLinetypeTableRecord
  2
Continuous
 70
     0
  3
Solid line
 72
    65
 73
     0
 40
0.0
  0
LTYPE
  5
5E
330
5
100
AcDbSymbolTableRecord
100
AcDbLinetypeTableRecord
  2
HIDDEN
 70
     0
  3
Hidden __ __ __ __ __ __ __ __ __ __ __ __ __ __
 72
    65
 73
     2
 40
1.905
 49
1.27
 74
     0
 49
-0.635
 74
     0
  0
LTYPE
  5
5F
330
5
100
AcDbSymbolTableRecord
100
AcDbLinetypeTableRecord
  2
PHANTOM
 70
     0
  3
Phantom ______  __  __  ______  __  __  ______
 72
    65
 73
     6
 40
12.7
 49
6.35
 74
     0
 49
-1.27
 74
     0
 49
1.27
 74
     0
 49
-1.27
 74
     0
 49
1.27
 74
     0
 49
-1.27
 74
     0
  0
LTYPE
  5
60
330
5
100
AcDbSymbolTableRecord
100
AcDbLinetypeTableRecord
  2
CENTER
 70
     0
  3
Center ____ _ ____ _ ____ _ ____ _ ____ _ ____
 72
    65
 73
     4
 40
10.16
 49
6.35
 74
     0
 49
-1.27
 74
     0
 49
1.27
 74
     0
 49
-1.27
 74
     0
  0
LTYPE
  5
61
330
5
100
AcDbSymbolTableRecord
100
AcDbLinetypeTableRecord
  2
CENTERX2
 70
     0
  3
Center (2x) ________  __  ________  __  _____
 72
    65
 73
     4
 40
20.32
 49
12.7
 74
     0
 49
-2.54
 74
     0
 49
2.54
 74
     0
 49
-2.54
 74
     0
  0
LTYPE
  5
62
330
5
100
AcDbSymbolTableRecord
100
AcDbLinetypeTableRecord
  2
DOT2
 70
     0
  3
Dot (.5x) ........................................
 72
    65
 73
     2
 40
0.635
 49
0.0
 74
     0
 49
-0.635
 74
     0
  0
ENDTAB
  0
TABLE
  2
LAYER
  5
2
330
0
100
AcDbSymbolTable
 70
     2
  0
LAYER
  5
10
330
2
100
AcDbSymbolTableRecord
100
AcDbLayerTableRecord
  2
0
 70
     0
 62
     7
  6
Continuous
370
    -3
390
F
  0
LAYER
  5
63
330
2
100
AcDbSymbolTableRecord
100
AcDbLayerTableRecord
  2
FORMAT
 70
     0
 62
     7
  6
Continuous
370
    -3
390
F
  0
ENDTAB
  0
TABLE
  2
STYLE
  5
3
330
0
100
AcDbSymbolTable
 70
     2
  0
STYLE
  5
11
330
3
100
AcDbSymbolTableRecord
100
AcDbTextStyleTableRecord
  2
Standard
 70
     0
 40
0.0
 41
1.0
 50
0.0
 71
     0
 42
3.5277777778
  3
txt
  4
bigfont
  0
STYLE
  5
64
330
3
100
AcDbSymbolTableRecord
100
AcDbTextStyleTableRecord
  2
SLDTEXTSTYLE0
 70
     0
 40
0.0
 41
0.7
 50
0.0
 71
     0
 42
3.5277777778
  3
TXT
  4
bigfont
  0
ENDTAB
  0
TABLE
  2
VIEW
  5
6
330
0
100
AcDbSymbolTable
 70
     0
  0
ENDTAB
  0
TABLE
  2
UCS
  5
7
330
0
100
AcDbSymbolTable
 70
     0
  0
ENDTAB
  0
TABLE
  2
APPID
  5
9
330
0
100
AcDbSymbolTable
 70
     1
  0
APPID
  5
12
330
9
100
AcDbSymbolTableRecord
100
AcDbRegAppTableRecord
  2
ACAD
 70
     0
  0
ENDTAB
  0
TABLE
  2
DIMSTYLE
  5
A
330
0
100
AcDbSymbolTable
 70
     1
100
AcDbDimStyleTable
  0
DIMSTYLE
105
27
330
A
100
AcDbSymbolTableRecord
100
AcDbDimStyleTableRecord
  2
ISO-25
 70
     0
 41
2.5
 42
0.625
 43
3.75
 44
1.25
 73
     0
 74
     0
 77
     1
 78
     8
140
2.5
141
2.5
143
0.0393700787
147
0.625
171
     3
172
     1
178
     0
271
     2
272
     2
274
     3
278
    44
283
     0
284
     8
340
11
  0
ENDTAB
  0
TABLE
  2
BLOCK_RECORD
  5
1
330
0
100
AcDbSymbolTable
 70
     3
  0
BLOCK_RECORD
  5
1F
330
1
100
AcDbSymbolTableRecord
100
AcDbBlockTableRecord
  2
*Model_Space
340
22
  0
BLOCK_RECORD
  5
1B
330
1
100
AcDbSymbolTableRecord
100
AcDbBlockTableRecord
  2
*Paper_Space
340
1E
  0
BLOCK_RECORD
  5
23
330
1
100
AcDbSymbolTableRecord
100
AcDbBlockTableRecord
  2
*Paper_Space0
340
26
  0
BLOCK_RECORD
  5
1D6
330
1
100
AcDbSymbolTableRecord
100
AcDbBlockTableRecord
  2
SW_CENTERMARKSYMBOL_0
340
0
102
{BLKREFS
331
1E1
102
}
  0
BLOCK_RECORD
  5
2CC
330
1
100
AcDbSymbolTableRecord
100
AcDbBlockTableRecord
  2
SW_CENTERMARKSYMBOL_1
340
0
102
{BLKREFS
331
2D7
102
}
  0
ENDTAB
  0
ENDSEC
  0
SECTION
  2
BLOCKS
  0
BLOCK
  5
20
330
1F
100
AcDbEntity
  8
0
100
AcDbBlockBegin
  2
*Model_Space
 70
     0
 10
0.0
 20
0.0
 30
0.0
  3
*Model_Space
  1

  0
ENDBLK
  5
21
330
1F
100
AcDbEntity
  8
0
100
AcDbBlockEnd
  0
BLOCK
  5
1C
330
1B
100
AcDbEntity
 67
     1
  8
0
100
AcDbBlockBegin
  2
*Paper_Space
 70
     0
 10
0.0
 20
0.0
 30
0.0
  3
*Paper_Space
  1

  0
ENDBLK
  5
1D
330
1B
100
AcDbEntity
 67
     1
  8
0
100
AcDbBlockEnd
  0
BLOCK
  5
24
330
23
100
AcDbEntity
  8
0
100
AcDbBlockBegin
  2
*Paper_Space0
 70
     0
 10
0.0
 20
0.0
 30
0.0
  3
*Paper_Space0
  1

  0
ENDBLK
  5
25
330
23
100
AcDbEntity
  8
0
100
AcDbBlockEnd
  0
BLOCK
  5
1D7
330
1D6
100
AcDbEntity
  8
0
100
AcDbBlockBegin
  2
SW_CENTERMARKSYMBOL_0
 70
     0
 10
0.0
 20
0.0
 30
0.0
  3
SW_CENTERMARKSYMBOL_0
  1

  0
LINE
  5
1D9
330
1D6
100
AcDbEntity
  8
FORMAT
 62
     0
100
AcDbLine
 10
0.0
 20
0.0
 30
0.0
 11
0.0
 21
2.5
 31
0.0
  0
LINE
  5
1DA
330
1D6
100
AcDbEntity
  8
FORMAT
 62
     0
100
AcDbLine
 10
0.0
 20
0.0
 30
0.0
 11
-2.5
 21
0.0
 31
0.0
  0
LINE
  5
1DB
330
1D6
100
AcDbEntity
  8
FORMAT
 62
     0
100
AcDbLine
 10
0.0
 20
0.0
 30
0.0
 11
0.0
 21
-2.5
 31
0.0
  0
LINE
  5
1DC
330
1D6
100
AcDbEntity
  8
FORMAT
 62
     0
100
AcDbLine
 10
0.0
 20
0.0
 30
0.0
 11
2.5
 21
0.0
 31
0.0
  0
LINE
  5
1DD
330
1D6
100
AcDbEntity
  8
FORMAT
 62
     0
100
AcDbLine
 10
0.0
 20
5.0
 30
0.0
 11
0.0
 21
32.1201343368
 31
0.0
  0
LINE
  5
1DE
330
1D6
100
AcDbEntity
  8
FORMAT
 62
     0
100
AcDbLine
 10
-5.0
 20
0.0
 30
0.0
 11
-14.5
 21
0.0
 31
0.0
  0
LINE
  5
1DF
330
1D6
100
AcDbEntity
  8
FORMAT
 62
     0
100
AcDbLine
 10
0.0
 20
-5.0
 30
0.0
 11
0.0
 21
-14.5
 31
0.0
  0
LINE
  5
1E0
330
1D6
100
AcDbEntity
  8
FORMAT
 62
     0
100
AcDbLine
 10
5.0
 20
0.0
 30
0.0
 11
14.5
 21
0.0
 31
0.0
  0
ENDBLK
  5
1D8
330
1D6
100
AcDbEntity
  8
0
100
AcDbBlockEnd
  0
BLOCK
  5
2CD
330
2CC
100
AcDbEntity
  8
0
100
AcDbBlockBegin
  2
SW_CENTERMARKSYMBOL_1
 70
     0
 10
0.0
 20
0.0
 30
0.0
  3
SW_CENTERMARKSYMBOL_1
  1

  0
LINE
  5
2CF
330
2CC
100
AcDbEntity
  8
FORMAT
 62
     0
100
AcDbLine
 10
0.0
 20
0.0
 30
0.0
 11
0.0
 21
2.5
 31
0.0
  0
LINE
  5
2D0
330
2CC
100
AcDbEntity
  8
FORMAT
 62
     0
100
AcDbLine
 10
0.0
 20
0.0
 30
0.0
 11
-2.5
 21
0.0
 31
0.0
  0
LINE
  5
2D1
330
2CC
100
AcDbEntity
  8
FORMAT
 62
     0
100
AcDbLine
 10
0.0
 20
0.0
 30
0.0
 11
0.0
 21
-2.5
 31
0.0
  0
LINE
  5
2D2
330
2CC
100
AcDbEntity
  8
FORMAT
 62
     0
100
AcDbLine
 10
0.0
 20
0.0
 30
0.0
 11
2.5
 21
0.0
 31
0.0
  0
LINE
  5
2D3
330
2CC
100
AcDbEntity
  8
FORMAT
 62
     0
100
AcDbLine
 10
0.0
 20
5.0
 30
0.0
 11
0.0
 21
13.6403002309
 31
0.0
  0
LINE
  5
2D4
330
2CC
100
AcDbEntity
  8
FORMAT
 62
     0
100
AcDbLine
 10
-5.0
 20
0.0
 30
0.0
 11
-42.1872113164
 21
0.0
 31
0.0
  0
LINE
  5
2D5
330
2CC
100
AcDbEntity
  8
FORMAT
 62
     0
100
AcDbLine
 10
0.0
 20
-5.0
 30
0.0
 11
0.0
 21
-13.9650692841
 31
0.0
  0
LINE
  5
2D6
330
2CC
100
AcDbEntity
  8
FORMAT
 62
     0
100
AcDbLine
 10
5.0
 20
0.0
 30
0.0
 11
28.6124422633
 21
0.0
 31
0.0
  0
ENDBLK
  5
2CE
330
2CC
100
AcDbEntity
  8
0
100
AcDbBlockEnd
  0
ENDSEC
  0
SECTION
  2
ENTITIES
  0
MTEXT
  5
65
330
1F
100
AcDbEntity
  8
FORMAT
100
AcDbMText
 10
127.9704387991
 20
94.4475803841
 30
0.0
 40
3.7041666667
 41
0.0
 71
     1
 72
     1
  1
エースボール　BM-9033R
  7
SLDTEXTSTYLE0
 73
     1
 44
1.0
  0
LINE
  5
66
330
1F
100
AcDbEntity
  8
0
  6
Continuous
 62
     7
370
    25
100
AcDbLine
 10
86.978694383
 20
62.178258941
 30
0.0
 11
85.8518764434
 21
60.2265530188
 31
0.0
  0
LINE
  5
67
330
1F
100
AcDbEntity
  8
0
  6
Continuous
 62
     7
370
    25
100
AcDbLine
 10
85.8518764434
 20
38.7265530188
 30
0.0
 11
86.978694383
 21
36.7748470967
 31
0.0
  0
LINE
  5
68
330
1F
100
AcDbEntity
  8
0
  6
Continuous
 62
     7
370
    25
100
AcDbLine
 10
100.7250585039
 20
36.7748470967
 30
0.0
 11
101.8518764434
 21
38.7265530188
 31
0.0
  0
LINE
  5
69
330
1F
100
AcDbEntity
  8
0
  6
Continuous
 62
     7
370
    25
100
AcDbLine
 10
101.8518764434
 20
60.2265530188
 30
0.0
 11
100.7250585039
 21
62.178258941
 31
0.0
  0
LINE
  5
6A
330
1F
100
AcDbEntity
  8
0
  6
Continuous
 62
     7
370
    25
100
AcDbLine
 10
102.1018764434
 20
37.4765530188
 30
0.0
 11
104.8589832246
 21
37.4765530188
 31
0.0
  0
LINE
  5
6B
330
1F
100
AcDbEntity
  8
0
  6
Continuous
 62
     7
370
    25
100
AcDbLine
 10
104.8589832246
 20
61.4765530188
 30
0.0
 11
102.1018764434
 21
61.4765530188
 31
0.0
  0
LINE
  5
6C
330
1F
100
AcDbEntity
  8
0
  6
Continuous
 62
     7
370
    25
100
AcDbLine
 10
127.3518764434
 20
61.4765530188
 30
0.0
 11
124.3447696622
 21
61.4765530188
 31
0.0
  0
LINE
  5
6D
330
1F
100
AcDbEntity
  8
0
  6
Continuous
 62
     7
370
    25
100
AcDbLine
 10
124.3447696622
 20
37.4765530188
 30
0.0
 11
127.3518764434
 21
37.4765530188
 31
0.0
  0
LINE
  5
6E
330
1F
100
AcDbEntity
  8
0
  6
Continuous
 62
     7
370
    25
100
AcDbLine
 10
102.1018764434
 20
61.4765530188
 30
0.0
 11
101.8518764434
 21
61.2265530188
 31
0.0
  0
LINE
  5
6F
330
1F
100
AcDbEntity
  8
0
  6
Continuous
 62
     7
370
    25
100
AcDbLine
 10
101.8518764434
 20
37.7265530188
 30
0.0
 11
102.1018764434
 21
37.4765530188
 31
0.0
  0
LINE
  5
70
330
1F
100
AcDbEntity
  8
0
  6
Continuous
 62
     7
370
    25
100
AcDbLine
 10
124.3447696622
 20
61.4765530188
 30
0.0
 11
124.101910438
 21
61.2336937946
 31
0.0
  0
LINE
  5
71
330
1F
100
AcDbEntity
  8
0
  6
Continuous
 62
     7
370
    25
100
AcDbLine
 10
104.8589832246
 20
37.4765530188
 30
0.0
 11
105.1018424489
 21
37.7194122431
 31
0.0
  0
LINE
  5
72
330
1F
100
AcDbEntity
  8
0
  6
Continuous
 62
     7
370
    25
100
AcDbLine
 10
105.1018424489
 20
61.2336937946
 30
0.0
 11
104.8589832246
 21
61.4765530188
 31
0.0
  0
LINE
  5
73
330
1F
100
AcDbEntity
  8
0
  6
Continuous
 62
     7
370
    25
100
AcDbLine
 10
124.101910438
 20
37.7194122431
 30
0.0
 11
124.3447696622
 21
37.4765530188
 31
0.0
  0
ARC
  5
74
330
1F
100
AcDbEntity
  8
0
  6
Continuous
 62
     7
370
    25
100
AcDbCircle
 10
104.3518764434
 20
61.2265530188
 30
0.0
 40
0.75
100
AcDbArc
 50
0.0
 51
0.5455233255
  0
ARC
  5
75
330
1F
100
AcDbEntity
  8
0
  6
Continuous
 62
     7
370
    25
100
AcDbCircle
 10
124.8518764434
 20
37.7265530188
 30
0.0
 40
0.75
100
AcDbArc
 50
180.0
 51
180.5455233255
  0
ARC
  5
76
330
1F
100
AcDbEntity
  8
0
  6
Continuous
 62
     7
370
    25
100
AcDbCircle
 10
124.8518764434
 20
61.2265530188
 30
0.0
 40
0.75
100
AcDbArc
 50
179.4544766745
 51
180.0
  0
ARC
  5
77
330
1F
100
AcDbEntity
  8
0
  6
Continuous
 62
     7
370
    25
100
AcDbCircle
 10
104.3518764434
 20
37.7265530188
 30
0.0
 40
0.75
100
AcDbArc
 50
359.4544766745
 51
0.0
  0
ARC
  5
78
330
1F
100
AcDbEntity
  8
0
  6
Continuous
 62
     7
370
    25
100
AcDbCircle
 10
123.7018764434
 20
60.8765530188
 30
0.0
 40
0.4000000000000057
100
AcDbArc
 50
270.0
 51
0.0
  0
ARC
  5
79
330
1F
100
AcDbEntity
  8
0
  6
Continuous
 62
     7
370
    25
100
AcDbCircle
 10
105.5018764434
 20
60.8765530188
 30
0.0
 40
0.4000000000000057
100
AcDbArc
 50
180.0
 51
270.0
  0
ARC
  5
7A
330
1F
100
AcDbEntity
  8
0
  6
Continuous
 62
     7
370
    25
100
AcDbCircle
 10
105.5018764434
 20
38.0765530188
 30
0.0
 40
0.4000000000000057
100
AcDbArc
 50
90.0
 51
180.0
  0
ARC
  5
7B
330
1F
100
AcDbEntity
  8
0
  6
Continuous
 62
     7
370
    25
100
AcDbCircle
 10
123.7018764434
 20
38.0765530188
 30
0.0
 40
0.3999999999999986
100
AcDbArc
 50
0.0
 51
90.0
  0
LINE
  5
7C
330
1F
100
AcDbEntity
  8
0
  6
Continuous
 62
     7
370
    25
100
AcDbLine
 10
108.2263167512
 20
60.4765530188
 30
0.0
 11
105.5018764434
 21
60.4765530188
 31
0.0
  0
LINE
  5
7D
330
1F
100
AcDbEntity
  8
0
  6
Continuous
 62
     7
370
    25
100
AcDbLine
 10
123.7018764434
 20
60.4765530188
 30
0.0
 11
121.0018764434
 21
60.4765530188
 31
0.0
  0
LINE
  5
7E
330
1F
100
AcDbEntity
  8
0
  6
Continuous
 62
     7
370
    25
100
AcDbLine
 10
105.5018764434
 20
38.4765530188
 30
0.0
 11
123.7018764434
 21
38.4765530188
 31
0.0
  0
LINE
  5
7F
330
1F
100
AcDbEntity
  8
0
  6
Continuous
 62
     7
370
    25
100
AcDbLine
 10
127.3518764434
 20
40.9064905188
 30
0.0
 11
138.8201756222
 21
41.2648748682
 31
0.0
  0
LINE
  5
80
330
1F
100
AcDbEntity
  8
0
  6
Continuous
 62
     7
370
    25
100
AcDbLine
 10
138.8201756222
 20
57.6882311695
 30
0.0
 11
127.3518764434
 21
58.0466155188
 31
0.0
  0
LINE
  5
81
330
1F
100
AcDbEntity
  8
0
  6
Continuous
 62
     7
370
    25
100
AcDbLine
 10
138.8201756222
 20
41.2648748682
 30
0.0
 11
141.3518764434
 21
42.7265530188
 31
0.0
  0
LINE
  5
82
330
1F
100
AcDbEntity
  8
0
  6
Continuous
 62
     7
370
    25
100
AcDbLine
 10
141.3518764434
 20
56.2265530188
 30
0.0
 11
138.8201756222
 21
57.6882311695
 31
0.0
  0
SPLINE
  5
83
330
1F
100
AcDbEntity
  8
0
  6
Continuous
 62
     7
370
    25
100
AcDbSpline
210
0.0
220
0.0
230
1.0
 70
     8
 71
     3
 72
    13
 73
     9
 74
     0
 42
0.00000001
 43
0.00000001
 40
0.0
 40
0.0
 40
0.0
 40
0.0
 40
0.1766322325501069
 40
0.3559696169688003
 40
0.5431929030114291
 40
0.7374038426262265
 40
0.9282364068273468
 40
1.0
 40
1.0
 40
1.0
 40
1.0
 10
120.9930054696227
 20
60.4738780716449
 30
0.0
 10
120.947039226809
 20
60.47771288866262
 30
0.0
 10
120.8544027605668
 20
60.48544125355522
 30
0.0
 10
120.7240231477825
 20
60.54769506298403
 30
0.0
 10
120.6116979100799
 20
60.64447461057068
 30
0.0
 10
120.5337403128305
 20
60.77356229832059
 30
0.0
 10
120.4982343974515
 20
60.89083191864684
 30
0.0
 10
120.502153878726
 20
60.95936905562512
 30
0.0
 10
120.5032250142005
 20
60.97809922770575
 30
0.0
  0
SPLINE
  5
84
330
1F
100
AcDbEntity
  8
0
  6
Continuous
 62
     7
370
    25
100
AcDbSpline
210
0.0
220
0.0
230
1.0
 70
     8
 71
     3
 72
    13
 73
     9
 74
     0
 42
0.00000001
 43
0.00000001
 40
0.0
 40
0.0
 40
0.0
 40
0.0
 40
0.1877884035301099
 40
0.3881540143755749
 40
0.5876311250247486
 40
0.7559405112803324
 40
0.9028312104328597
 40
1.0
 40
1.0
 40
1.0
 40
1.0
 10
108.7051896265812
 20
60.96589379883297
 30
0.0
 10
108.7008414340036
 20
60.91833240565455
 30
0.0
 10
108.6918538268216
 20
60.82002417498393
 30
0.0
 10
108.6235446026779
 20
60.6843878502289
 30
0.0
 10
108.5243681488722
 20
60.57795437096792
 30
0.0
 10
108.4112907435526
 20
60.51156053670254
 30
0.0
 10
108.3110485156146
 20
60.47885265652141
 30
0.0
 10
108.2498111983804
 20
60.47551922049813
 30
0.0
 10
108.2254304376765
 20
60.47419206069302
 30
0.0
  0
LINE
  5
85
330
1F
100
AcDbEntity
  8
0
  6
Continuous
 62
     7
370
    25
100
AcDbLine
 10
120.5018764434
 20
60.9765530188
 30
0.0
 11
120.5018764434
 21
61.9765530188
 31
0.0
  0
LINE
  5
86
330
1F
100
AcDbEntity
  8
0
  6
Continuous
 62
     7
370
    25
100
AcDbLine
 10
108.7018764434
 20
61.9765530188
 30
0.0
 11
108.7018764434
 21
60.9629694158
 31
0.0
  0
LINE
  5
87
330
1F
100
AcDbEntity
  8
0
  6
Continuous
 62
     7
370
    25
100
AcDbLine
 10
122.0518764434
 20
69.9765530188
 30
0.0
 11
120.1018764434
 21
77.9765530188
 31
0.0
  0
LINE
  5
88
330
1F
100
AcDbEntity
  8
0
  6
Continuous
 62
     7
370
    25
100
AcDbLine
 10
121.6018764434
 20
61.9765530188
 30
0.0
 11
122.0518764434
 21
69.9765530188
 31
0.0
  0
LINE
  5
89
330
1F
100
AcDbEntity
  8
0
  6
Continuous
 62
     7
370
    25
100
AcDbLine
 10
107.5312198177
 20
63.2326708101
 30
0.0
 11
107.6018764434
 21
61.9765530188
 31
0.0
  0
LINE
  5
8A
330
1F
100
AcDbEntity
  8
0
  6
Continuous
 62
     7
370
    25
100
AcDbLine
 10
109.1018764434
 20
77.9765530188
 30
0.0
 11
108.8486449089
 21
76.9376544156
 31
0.0
  0
SPLINE
  5
8B
330
1F
100
AcDbEntity
  8
0
  6
Continuous
 62
     7
370
    25
100
AcDbSpline
210
0.0
220
0.0
230
1.0
 70
     8
 71
     3
 72
    16
 73
    12
 74
     0
 42
0.00000001
 43
0.00000001
 40
0.0
 40
0.0
 40
0.0
 40
0.0
 40
0.1114582023239466
 40
0.2372213151173264
 40
0.3629518604032449
 40
0.4917734862777074
 40
0.6205933331687972
 40
0.7149270030088989
 40
0.8092706389804454
 40
0.9046305409759715
 40
1.0
 40
1.0
 40
1.0
 40
1.0
 10
86.97869438296279
 20
43.12570005773679
 30
0.0
 10
86.85159840060273
 20
43.58766936881389
 30
0.0
 10
86.5810945215436
 20
44.57089864429637
 30
0.0
 10
86.27028482806737
 20
46.10103046961239
 30
0.0
 10
86.05313685867817
 20
47.72259865580632
 30
0.0
 10
85.9734152023422
 20
49.37050530205141
 30
0.0
 10
86.03005126525163
 20
50.88414141776209
 30
0.0
 10
86.18219067151597
 20
52.24102860371544
 30
0.0
 10
86.386851341886
 20
53.44504028504885
 30
0.0
 10
86.65030464041918
 20
54.64225454202729
 30
0.0
 10
86.86922747886771
 20
55.43234230409521
 30
0.0
 10
86.97869438296279
 20
55.8274059799086
 30
0.0
  0
SPLINE
  5
8C
330
1F
100
AcDbEntity
  8
0
  6
Continuous
 62
     7
370
    25
100
AcDbSpline
210
0.0
220
0.0
230
1.0
 70
     8
 71
     3
 72
    15
 73
    11
 74
     0
 42
0.00000001
 43
0.00000001
 40
0.0
 40
0.0
 40
0.0
 40
0.0
 40
0.1323062247880439
 40
0.2645750410251284
 40
0.3998028185914843
 40
0.5350061939043897
 40
0.650196066971367
 40
0.7654039083786517
 40
0.8826906146627405
 40
1.0
 40
1.0
 40
1.0
 40
1.0
 10
86.97869438296279
 20
36.7748470966508
 30
0.0
 10
86.82913218963873
 20
37.04923126824561
 30
0.0
 10
86.53005009053177
 20
37.59792203145528
 30
0.0
 10
86.20825026506435
 20
38.44285746792132
 30
0.0
 10
86.014762861921
 20
39.30372022123332
 30
0.0
 10
85.97644755826984
 20
40.13339533306319
 30
0.0
 10
86.07586698238784
 20
40.91824291215721
 30
0.0
 10
86.27957390918716
 20
41.65894126409491
 30
0.0
 10
86.57838727883288
 20
42.39629063924725
 30
0.0
 10
86.84525008213099
 20
42.88254791562824
 30
0.0
 10
86.97869438296279
 20
43.12570005773679
 30
0.0
  0
SPLINE
  5
8D
330
1F
100
AcDbEntity
  8
0
  6
Continuous
 62
     7
370
    25
100
AcDbSpline
210
0.0
220
0.0
230
1.0
 70
     8
 71
     3
 72
    15
 73
    11
 74
     0
 42
0.00000001
 43
0.00000001
 40
0.0
 40
0.0
 40
0.0
 40
0.0
 40
0.1323062247880455
 40
0.2645750410251319
 40
0.3998028185914892
 40
0.5350061939043964
 40
0.650196066971372
 40
0.765403908378655
 40
0.8826906146627421
 40
0.9999999999999999
 40
0.9999999999999999
 40
0.9999999999999999
 40
0.9999999999999999
 10
86.97869438296279
 20
55.8274059799086
 30
0.0
 10
86.82913218963873
 20
56.1017901515034
 30
0.0
 10
86.53005009053179
 20
56.65048091471306
 30
0.0
 10
86.20825026506436
 20
57.49541635117907
 30
0.0
 10
86.014762861921
 20
58.35627910449105
 30
0.0
 10
85.97644755826985
 20
59.18595421632089
 30
0.0
 10
86.07586698238788
 20
59.97080179541489
 30
0.0
 10
86.2795739091872
 20
60.71150014735255
 30
0.0
 10
86.57838727883289
 20
61.44884952250486
 30
0.0
 10
86.84525008213099
 20
61.93510679888582
 30
0.0
 10
86.97869438296279
 20
62.17825894099435
 30
0.0
  0
LINE
  5
8E
330
1F
100
AcDbEntity
  8
0
  6
Continuous
 62
     7
370
    25
100
AcDbLine
 10
85.8518764434
 20
49.4765530188
 30
0.0
 11
85.8518764434
 21
60.2265530188
 31
0.0
  0
LINE
  5
8F
330
1F
100
AcDbEntity
  8
0
  6
Continuous
 62
     7
370
    25
100
AcDbLine
 10
85.8518764434
 20
38.7265530188
 30
0.0
 11
85.8518764434
 21
49.4765530188
 31
0.0
  0
LINE
  5
90
330
1F
100
AcDbEntity
  8
0
  6
Continuous
 62
     7
370
    25
100
AcDbLine
 10
86.978694383
 20
43.1257000577
 30
0.0
 11
100.7250585039
 21
43.1257000577
 31
0.0
  0
SPLINE
  5
91
330
1F
100
AcDbEntity
  8
0
  6
Continuous
 62
     7
370
    25
100
AcDbSpline
210
0.0
220
0.0
230
1.0
 70
     8
 71
     3
 72
    15
 73
    11
 74
     0
 42
0.00000001
 43
0.00000001
 40
0.0
 40
0.0
 40
0.0
 40
0.0
 40
0.1323062247880439
 40
0.2645750410251284
 40
0.3998028185914843
 40
0.5350061939043897
 40
0.650196066971367
 40
0.7654039083786517
 40
0.8826906146627405
 40
1.0
 40
1.0
 40
1.0
 40
1.0
 10
100.7250585038731
 20
36.7748470966508
 30
0.0
 10
100.8746206971971
 20
37.04923126824561
 30
0.0
 10
101.1737027963041
 20
37.59792203145528
 30
0.0
 10
101.4955026217715
 20
38.44285746792132
 30
0.0
 10
101.6889900249149
 20
39.30372022123332
 30
0.0
 10
101.727305328566
 20
40.13339533306319
 30
0.0
 10
101.627885904448
 20
40.91824291215721
 30
0.0
 10
101.4241789776487
 20
41.65894126409491
 30
0.0
 10
101.125365608003
 20
42.39629063924725
 30
0.0
 10
100.8585028047048
 20
42.88254791562824
 30
0.0
 10
100.7250585038731
 20
43.12570005773679
 30
0.0
  0
LINE
  5
92
330
1F
100
AcDbEntity
  8
0
  6
Continuous
 62
     7
370
    25
100
AcDbLine
 10
86.978694383
 20
36.7748470967
 30
0.0
 11
100.7250585039
 21
36.7748470967
 31
0.0
  0
LINE
  5
93
330
1F
100
AcDbEntity
  8
0
  6
Continuous
 62
     7
370
    25
100
AcDbLine
 10
86.978694383
 20
55.8274059799
 30
0.0
 11
100.7250585039
 21
55.8274059799
 31
0.0
  0
SPLINE
  5
94
330
1F
100
AcDbEntity
  8
0
  6
Continuous
 62
     7
370
    25
100
AcDbSpline
210
0.0
220
0.0
230
1.0
 70
     8
 71
     3
 72
    16
 73
    12
 74
     0
 42
0.00000001
 43
0.00000001
 40
0.0
 40
0.0
 40
0.0
 40
0.0
 40
0.1114582023239467
 40
0.2372213151173265
 40
0.3629518604032449
 40
0.4917734862777073
 40
0.6205933331687971
 40
0.7149270030088987
 40
0.8092706389804453
 40
0.9046305409759714
 40
0.9999999999999999
 40
0.9999999999999999
 40
0.9999999999999999
 40
0.9999999999999999
 10
100.7250585038731
 20
43.12570005773679
 30
0.0
 10
100.8521544862331
 20
43.58766936881389
 30
0.0
 10
101.1226583652922
 20
44.57089864429637
 30
0.0
 10
101.4334680587685
 20
46.10103046961239
 30
0.0
 10
101.6506160281577
 20
47.72259865580632
 30
0.0
 10
101.7303376844937
 20
49.37050530205141
 30
0.0
 10
101.6737016215842
 20
50.88414141776209
 30
0.0
 10
101.5215622153199
 20
52.24102860371544
 30
0.0
 10
101.3169015449498
 20
53.44504028504885
 30
0.0
 10
101.0534482464167
 20
54.6422545420273
 30
0.0
 10
100.8345254079681
 20
55.43234230409521
 30
0.0
 10
100.7250585038731
 20
55.8274059799086
 30
0.0
  0
SPLINE
  5
95
330
1F
100
AcDbEntity
  8
0
  6
Continuous
 62
     7
370
    25
100
AcDbSpline
210
0.0
220
0.0
230
1.0
 70
     8
 71
     3
 72
    15
 73
    11
 74
     0
 42
0.00000001
 43
0.00000001
 40
0.0
 40
0.0
 40
0.0
 40
0.0
 40
0.1323062247880455
 40
0.2645750410251319
 40
0.3998028185914892
 40
0.5350061939043964
 40
0.650196066971372
 40
0.765403908378655
 40
0.8826906146627421
 40
0.9999999999999999
 40
0.9999999999999999
 40
0.9999999999999999
 40
0.9999999999999999
 10
100.7250585038731
 20
55.8274059799086
 30
0.0
 10
100.8746206971971
 20
56.1017901515034
 30
0.0
 10
101.1737027963041
 20
56.65048091471306
 30
0.0
 10
101.4955026217715
 20
57.49541635117907
 30
0.0
 10
101.6889900249148
 20
58.35627910449105
 30
0.0
 10
101.727305328566
 20
59.18595421632089
 30
0.0
 10
101.627885904448
 20
59.97080179541489
 30
0.0
 10
101.4241789776487
 20
60.71150014735255
 30
0.0
 10
101.125365608003
 20
61.44884952250486
 30
0.0
 10
100.8585028047048
 20
61.93510679888582
 30
0.0
 10
100.7250585038731
 20
62.17825894099435
 30
0.0
  0
LINE
  5
96
330
1F
100
AcDbEntity
  8
0
  6
Continuous
 62
     7
370
    25
100
AcDbLine
 10
86.978694383
 20
62.178258941
 30
0.0
 11
100.7250585039
 21
62.178258941
 31
0.0
  0
LINE
  5
97
330
1F
100
AcDbEntity
  8
0
  6
Continuous
 62
     7
370
    25
100
AcDbLine
 10
102.1018764434
 20
49.4765530188
 30
0.0
 11
102.1018764434
 21
37.4765530188
 31
0.0
  0
LINE
  5
98
330
1F
100
AcDbEntity
  8
0
  6
Continuous
 62
     7
370
    25
100
AcDbLine
 10
102.1018764434
 20
61.4765530188
 30
0.0
 11
102.1018764434
 21
49.4765530188
 31
0.0
  0
LINE
  5
99
330
1F
100
AcDbEntity
  8
0
  6
Continuous
 62
     7
370
    25
100
AcDbLine
 10
104.8589832246
 20
54.9863123891
 30
0.0
 11
104.8589832246
 21
61.4765530188
 31
0.0
  0
SPLINE
  5
9A
330
1F
100
AcDbEntity
  8
0
  6
Continuous
 62
     7
370
    25
100
AcDbSpline
210
0.0
220
0.0
230
1.0
 70
     8
 71
     3
 72
    13
 73
     9
 74
     0
 42
0.00000001
 43
0.00000001
 40
0.0
 40
0.0
 40
0.0
 40
0.0
 40
0.123409203972734
 40
0.2495635406297123
 40
0.5004511475233475
 40
0.749483003608821
 40
0.8735723371285005
 40
1.0
 40
1.0
 40
1.0
 40
1.0
 10
105.0305832190792
 20
54.51428577152677
 30
0.0
 10
105.0160501771612
 20
54.53072462135485
 30
0.0
 10
104.9866608181797
 20
54.56396798923107
 30
0.0
 10
104.9387346016479
 20
54.63750195367239
 30
0.0
 10
104.8943403114361
 20
54.7364801090946
 30
0.0
 10
104.8701649267262
 20
54.83982917755009
 30
0.0
 10
104.8603313302034
 20
54.92327758747086
 30
0.0
 10
104.8594353807393
 20
54.96517044571114
 30
0.0
 10
104.8589832246045
 20
54.98631238911069
 30
0.0
  0
SPLINE
  5
9B
330
1F
100
AcDbEntity
  8
0
  6
Continuous
 62
     7
370
    25
100
AcDbSpline
210
0.0
220
0.0
230
1.0
 70
     8
 71
     3
 72
    14
 73
    10
 74
     0
 42
0.00000001
 43
0.00000001
 40
0.0
 40
0.0
 40
0.0
 40
0.0
 40
0.0833728361874164
 40
0.1651391830231223
 40
0.2505782922901014
 40
0.3661552980483097
 40
0.5013015333863843
 40
0.7511277814203854
 40
1.0
 40
1.0
 40
1.0
 40
1.0
 10
105.124898162002
 20
54.21815223115749
 30
0.0
 10
105.1310106397933
 20
54.22566441410414
 30
0.0
 10
105.1431178156416
 20
54.24054402971113
 30
0.0
 10
105.1528965908191
 20
54.26755427771433
 30
0.0
 10
105.1556599943336
 20
54.29925014633784
 30
0.0
 10
105.148824298384
 20
54.33657926187043
 30
0.0
 10
105.12730896093
 20
54.388900617534
 30
0.0
 10
105.0880017245626
 20
54.45002661736407
 30
0.0
 10
105.0496982955933
 20
54.49289338873639
 30
0.0
 10
105.0305832190792
 20
54.51428577152677
 30
0.0
  0
SPLINE
  5
9C
330
1F
100
AcDbEntity
  8
0
  6
Continuous
 62
     7
370
    25
100
AcDbSpline
210
0.0
220
0.0
230
1.0
 70
     8
 71
     3
 72
    17
 73
    13
 74
     0
 42
0.00000001
 43
0.00000001
 40
0.0
 40
0.0
 40
0.0
 40
0.0
 40
0.1308472312971285
 40
0.2501712416478232
 40
0.5002181447817603
 40
0.5625722445347702
 40
0.6248529024619178
 40
0.7493346422976469
 40
0.8746411565565786
 40
0.9373094462329892
 40
0.9700546542881243
 40
1.0
 40
1.0
 40
1.0
 40
1.0
 10
104.8589832246045
 20
52.42667575551124
 30
0.0
 10
104.8592345224226
 20
52.50842119769884
 30
0.0
 10
104.8597149872101
 20
52.66471307004792
 30
0.0
 10
104.8658146658179
 20
52.97497033821627
 30
0.0
 10
104.8776431810861
 20
53.24047456963469
 30
0.0
 10
104.8980642589196
 20
53.46814924641232
 30
0.0
 10
104.9151947946927
 20
53.61868736385044
 30
0.0
 10
104.944864178425
 20
53.80527295474387
 30
0.0
 10
104.9929044082607
 20
53.98808309695566
 30
0.0
 10
105.047899552793
 20
54.10984205179628
 30
0.0
 10
105.0879067893499
 20
54.17489058636724
 30
0.0
 10
105.112940384848
 20
54.20416753498035
 30
0.0
 10
105.124898162002
 20
54.21815223115749
 30
0.0
  0
LINE
  5
9D
330
1F
100
AcDbEntity
  8
0
  6
Continuous
 62
     7
370
    25
100
AcDbLine
 10
104.8589832246
 20
46.5264302822
 30
0.0
 11
104.8589832246
 21
52.4266757555
 31
0.0
  0
SPLINE
  5
9E
330
1F
100
AcDbEntity
  8
0
  6
Continuous
 62
     7
370
    25
100
AcDbSpline
210
0.0
220
0.0
230
1.0
 70
     8
 71
     3
 72
    18
 73
    14
 74
     0
 42
0.00000001
 43
0.00000001
 40
0.0
 40
0.0
 40
0.0
 40
0.0
 40
0.0297375917720382
 40
0.062258599466678
 40
0.1245690829005885
 40
0.1747355398269592
 40
0.2498061834275062
 40
0.375180360281199
 40
0.4377454186258774
 40
0.5002333231923192
 40
0.7499313720644301
 40
0.8691943481413202
 40
1.0
 40
1.0
 40
1.0
 40
1.0
 10
105.124898162002
 20
44.73495380648763
 30
0.0
 10
105.1130186849247
 20
44.74883982008505
 30
0.0
 10
105.0881478207706
 20
44.77791156756808
 30
0.0
 10
105.0483215026672
 20
44.84251355724702
 30
0.0
 10
105.0119891715056
 20
44.92243438482324
 30
0.0
 10
104.9762170117813
 20
45.02973185192022
 30
0.0
 10
104.9401460374104
 20
45.17662479835293
 30
0.0
 10
104.9152533574994
 20
45.33403158122225
 30
0.0
 10
104.8980177315876
 20
45.48535364376175
 30
0.0
 10
104.8776240727976
 20
45.71310373024185
 30
0.0
 10
104.8658066556335
 20
45.97845814785176
 30
0.0
 10
104.8597141980041
 20
46.28846318568345
 30
0.0
 10
104.8592342666335
 20
46.44470399390934
 30
0.0
 10
104.8589832246045
 20
46.52643028215122
 30
0.0
  0
SPLINE
  5
9F
330
1F
100
AcDbEntity
  8
0
  6
Continuous
 62
     7
370
    25
100
AcDbSpline
210
0.0
220
0.0
230
1.0
 70
     8
 71
     3
 72
    13
 73
     9
 74
     0
 42
0.00000001
 43
0.00000001
 40
0.0
 40
0.0
 40
0.0
 40
0.0
 40
0.249182465287388
 40
0.498773852101548
 40
0.6338602399676625
 40
0.7494868859159841
 40
0.8759187542423453
 40
1.0
 40
1.0
 40
1.0
 40
1.0
 10
105.030583219071
 20
44.43882026612297
 30
0.0
 10
105.0497088030863
 20
44.46022576082621
 30
0.0
 10
105.0879913572057
 20
44.50307187777491
 30
0.0
 10
105.1272445285047
 20
44.56410610139599
 30
0.0
 10
105.148809265908
 20
44.61643988584339
 30
0.0
 10
105.156362325069
 20
44.65803205772391
 30
0.0
 10
105.1512386529878
 20
44.70008501376886
 30
0.0
 10
105.13362322913
 20
44.7234038108058
 30
0.0
 10
105.124898162002
 20
44.73495380648763
 30
0.0
  0
SPLINE
  5
A0
330
1F
100
AcDbEntity
  8
0
  6
Continuous
 62
     7
370
    25
100
AcDbSpline
210
0.0
220
0.0
230
1.0
 70
     8
 71
     3
 72
    13
 73
     9
 74
     0
 42
0.00000001
 43
0.00000001
 40
0.0
 40
0.0
 40
0.0
 40
0.0
 40
0.126696314384486
 40
0.2513113397888735
 40
0.5007108425294119
 40
0.7510525732451946
 40
0.876867377471871
 40
1.0
 40
1.0
 40
1.0
 40
1.0
 10
104.8589832246045
 20
43.96679364854921
 30
0.0
 10
104.8594357392376
 20
43.9879806859978
 30
0.0
 10
104.8603333348722
 20
44.03000671329963
 30
0.0
 10
104.8702261084919
 20
44.11364776726566
 30
0.0
 10
104.8944803653688
 20
44.21704668377023
 30
0.0
 10
104.9389156948587
 20
44.31591440379295
 30
0.0
 10
104.9867599166593
 20
44.38926140318389
 30
0.0
 10
105.0160807533727
 20
44.42241972872217
 30
0.0
 10
105.0305832190792
 20
44.43882026611833
 30
0.0
  0
LINE
  5
A1
330
1F
100
AcDbEntity
  8
0
  6
Continuous
 62
     7
370
    25
100
AcDbLine
 10
104.8589832246
 20
37.4765530188
 30
0.0
 11
104.8589832246
 21
43.9667936485
 31
0.0
  0
LINE
  5
A2
330
1F
100
AcDbEntity
  8
0
  6
Continuous
 62
     7
370
    25
100
AcDbLine
 10
105.1018424489
 20
52.3669703789
 30
0.0
 11
105.1018424489
 21
46.5861356588
 31
0.0
  0
LINE
  5
A3
330
1F
100
AcDbEntity
  8
0
  6
Continuous
 62
     7
370
    25
100
AcDbLine
 10
105.1018424489
 20
46.5861356588
 30
0.0
 11
104.8589832246
 21
46.5264302822
 31
0.0
  0
LINE
  5
A4
330
1F
100
AcDbEntity
  8
0
  6
Continuous
 62
     7
370
    25
100
AcDbLine
 10
104.8589832246
 20
52.4266757555
 30
0.0
 11
105.1018424489
 21
52.3669703789
 31
0.0
  0
LINE
  5
A5
330
1F
100
AcDbEntity
  8
0
  6
Continuous
 62
     7
370
    25
100
AcDbLine
 10
124.101910438
 20
46.5861356587
 30
0.0
 11
124.101910438
 21
52.3669703789
 31
0.0
  0
LINE
  5
A6
330
1F
100
AcDbEntity
  8
0
  6
Continuous
 62
     7
370
    25
100
AcDbLine
 10
124.101910438
 20
52.3669703789
 30
0.0
 11
124.3447696622
 21
52.4266757555
 31
0.0
  0
LINE
  5
A7
330
1F
100
AcDbEntity
  8
0
  6
Continuous
 62
     7
370
    25
100
AcDbLine
 10
124.3447696622
 20
52.4266757555
 30
0.0
 11
124.3447696622
 21
46.5264302821
 31
0.0
  0
LINE
  5
A8
330
1F
100
AcDbEntity
  8
0
  6
Continuous
 62
     7
370
    25
100
AcDbLine
 10
124.3447696622
 20
46.5264302821
 30
0.0
 11
124.101910438
 21
46.5861356587
 31
0.0
  0
LINE
  5
A9
330
1F
100
AcDbEntity
  8
0
  6
Continuous
 62
     7
370
    25
100
AcDbLine
 10
127.3518764434
 20
61.4765530188
 30
0.0
 11
127.3518764434
 21
37.4765530188
 31
0.0
  0
SPLINE
  5
AA
330
1F
100
AcDbEntity
  8
0
  6
Continuous
 62
     7
370
    25
100
AcDbSpline
210
0.0
220
0.0
230
1.0
 70
     8
 71
     3
 72
    14
 73
    10
 74
     0
 42
0.00000001
 43
0.00000001
 40
0.0
 40
0.0
 40
0.0
 40
0.0
 40
0.0833728361793554
 40
0.1651391830151492
 40
0.2505782922889906
 40
0.366155298026219
 40
0.5013015333857042
 40
0.7511277814200346
 40
1.0
 40
1.0
 40
1.0
 40
1.0
 10
124.0788547248338
 20
44.73495380648765
 30
0.0
 10
124.0727422470432
 20
44.72744162354165
 30
0.0
 10
124.0606350711956
 20
44.71256200793525
 30
0.0
 10
124.050856296019
 20
44.68555175993214
 30
0.0
 10
124.0480928925015
 20
44.65385589131049
 30
0.0
 10
124.0549285884512
 20
44.616526775777
 30
0.0
 10
124.0764439259044
 20
44.56420542011316
 30
0.0
 10
124.1157511622732
 20
44.50307942028105
 30
0.0
 10
124.1540545912425
 20
44.46021264890873
 30
0.0
 10
124.1731696677567
 20
44.43882026611834
 30
0.0
  0
SPLINE
  5
AB
330
1F
100
AcDbEntity
  8
0
  6
Continuous
 62
     7
370
    25
100
AcDbSpline
210
0.0
220
0.0
230
1.0
 70
     8
 71
     3
 72
    17
 73
    13
 74
     0
 42
0.00000001
 43
0.00000001
 40
0.0
 40
0.0
 40
0.0
 40
0.0
 40
0.1308472312969632
 40
0.2501712416478237
 40
0.5002181447817658
 40
0.5625722445347804
 40
0.6248529024619248
 40
0.749334642297656
 40
0.8746411565565848
 40
0.9373094462329951
 40
0.9700546542885856
 40
1.0
 40
1.0
 40
1.0
 40
1.0
 10
124.3447696622314
 20
46.52643028213392
 30
0.0
 10
124.3445183644133
 20
46.44468483994642
 30
0.0
 10
124.3440378996258
 20
46.28839296759734
 30
0.0
 10
124.3379382210179
 20
45.97813569942898
 30
0.0
 10
124.3261097057498
 20
45.71263146801045
 30
0.0
 10
124.3056886279162
 20
45.48495679123282
 30
0.0
 10
124.2885580921431
 20
45.33441867379469
 30
0.0
 10
124.2588887084109
 20
45.14783308290125
 30
0.0
 10
124.210848478575
 20
44.96502294068951
 30
0.0
 10
124.1558533340428
 20
44.84326398584857
 30
0.0
 10
124.1158460974856
 20
44.77821545127775
 30
0.0
 10
124.0908125019876
 20
44.74893850266461
 30
0.0
 10
124.0788547248338
 20
44.73495380648766
 30
0.0
  0
SPLINE
  5
AC
330
1F
100
AcDbEntity
  8
0
  6
Continuous
 62
     7
370
    25
100
AcDbSpline
210
0.0
220
0.0
230
1.0
 70
     8
 71
     3
 72
    18
 73
    14
 74
     0
 42
0.00000001
 43
0.00000001
 40
0.0
 40
0.0
 40
0.0
 40
0.0
 40
0.0297375917713645
 40
0.0622585994666687
 40
0.1245690829005805
 40
0.1747355398269501
 40
0.2498061834274973
 40
0.3751803602811927
 40
0.4377454186258706
 40
0.5002333231923095
 40
0.7499313720644251
 40
0.8691943481067804
 40
1.0
 40
1.0
 40
1.0
 40
1.0
 10
124.0788547248339
 20
54.21815223115748
 30
0.0
 10
124.0907342019109
 20
54.20426621756035
 30
0.0
 10
124.1156050660649
 20
54.17519447007724
 30
0.0
 10
124.1554313841687
 20
54.11059248039852
 30
0.0
 10
124.1917637153303
 20
54.03067165282185
 30
0.0
 10
124.2275358750546
 20
53.9233741857249
 30
0.0
 10
124.2636068494255
 20
53.77648123929219
 30
0.0
 10
124.2884995293364
 20
53.61907445642288
 30
0.0
 10
124.3057351552482
 20
53.46775239388339
 30
0.0
 10
124.3261288140383
 20
53.24000230740328
 30
0.0
 10
124.3379462312006
 20
52.97464788981461
 30
0.0
 10
124.3440386888328
 20
52.66464285198322
 30
0.0
 10
124.3445186202026
 20
52.50840204375739
 30
0.0
 10
124.3447696622314
 20
52.42667575549395
 30
0.0
  0
SPLINE
  5
AD
330
1F
100
AcDbEntity
  8
0
  6
Continuous
 62
     7
370
    25
100
AcDbSpline
210
0.0
220
0.0
230
1.0
 70
     8
 71
     3
 72
    13
 73
     9
 74
     0
 42
0.00000001
 43
0.00000001
 40
0.0
 40
0.0
 40
0.0
 40
0.0
 40
0.2491824652873015
 40
0.4987738521013417
 40
0.6338602399552326
 40
0.7494868859167351
 40
0.8759187542471398
 40
1.0
 40
1.0
 40
1.0
 40
1.0
 10
124.1731696677648
 20
54.51428577152214
 30
0.0
 10
124.1540440837494
 20
54.49288027681896
 30
0.0
 10
124.1157615296296
 20
54.45003415987036
 30
0.0
 10
124.0765083583337
 20
54.38899993624975
 30
0.0
 10
124.0549436209251
 20
54.33666615180388
 30
0.0
 10
124.0473905617673
 20
54.29507397992205
 30
0.0
 10
124.052514233849
 20
54.25302102387604
 30
0.0
 10
124.0701296577064
 20
54.22970222683897
 30
0.0
 10
124.0788547248339
 20
54.21815223115748
 30
0.0
  0
SPLINE
  5
AE
330
1F
100
AcDbEntity
  8
0
  6
Continuous
 62
     7
370
    25
100
AcDbSpline
210
0.0
220
0.0
230
1.0
 70
     8
 71
     3
 72
    13
 73
     9
 74
     0
 42
0.00000001
 43
0.00000001
 40
0.0
 40
0.0
 40
0.0
 40
0.0
 40
0.1266963143628506
 40
0.2513113397887842
 40
0.5007108425293414
 40
0.7510525732451352
 40
0.8768673774688646
 40
1.0
 40
1.0
 40
1.0
 40
1.0
 10
124.3447696622313
 20
54.98631238909588
 30
0.0
 10
124.344317147598
 20
54.96512535165092
 30
0.0
 10
124.3434195519627
 20
54.92309932434916
 30
0.0
 10
124.3335267783456
 20
54.83945827038295
 30
0.0
 10
124.3092725214668
 20
54.73605935387486
 30
0.0
 10
124.2648371919772
 20
54.63719163385269
 30
0.0
 10
124.2169929701771
 20
54.5638446344615
 30
0.0
 10
124.1876721334636
 20
54.53068630892329
 30
0.0
 10
124.1731696677567
 20
54.51428577152677
 30
0.0
  0
LINE
  5
AF
330
1F
100
AcDbEntity
  8
0
  6
Continuous
 62
     7
370
    25
100
AcDbLine
 10
124.3447696622
 20
61.4765530188
 30
0.0
 11
124.3447696622
 21
54.9863123891
 31
0.0
  0
LINE
  5
B0
330
1F
100
AcDbEntity
  8
0
  6
Continuous
 62
     7
370
    25
100
AcDbLine
 10
124.3447696622
 20
43.9667936485
 30
0.0
 11
124.3447696622
 21
37.4765530188
 31
0.0
  0
SPLINE
  5
B1
330
1F
100
AcDbEntity
  8
0
  6
Continuous
 62
     7
370
    25
100
AcDbSpline
210
0.0
220
0.0
230
1.0
 70
     8
 71
     3
 72
    13
 73
     9
 74
     0
 42
0.00000001
 43
0.00000001
 40
0.0
 40
0.0
 40
0.0
 40
0.0
 40
0.1234092039886535
 40
0.2495635406298181
 40
0.5004511475233587
 40
0.7494830036087242
 40
0.8735723370857859
 40
1.0
 40
1.0
 40
1.0
 40
1.0
 10
124.1731696677567
 20
44.43882026611834
 30
0.0
 10
124.1877027096769
 20
44.42238141628836
 30
0.0
 10
124.2170920686591
 20
44.38913804841259
 30
0.0
 10
124.2650182851882
 20
44.31560408396984
 30
0.0
 10
124.3094125754005
 20
44.21662592855082
 30
0.0
 10
124.3335879601065
 20
44.11327686010208
 30
0.0
 10
124.3434215566345
 20
44.02982845018177
 30
0.0
 10
124.3443175060971
 20
43.98793559194139
 30
0.0
 10
124.3447696622314
 20
43.96679364853465
 30
0.0
  0
LINE
  5
B2
330
1F
100
AcDbEntity
  8
0
  6
Continuous
 62
     7
370
    25
100
AcDbLine
 10
101.8518764434
 20
49.4765530188
 30
0.0
 11
101.8518764434
 21
61.2265530188
 31
0.0
  0
LINE
  5
B3
330
1F
100
AcDbEntity
  8
0
  6
Continuous
 62
     7
370
    25
100
AcDbLine
 10
101.8518764434
 20
37.7265530188
 30
0.0
 11
101.8518764434
 21
49.4765530188
 31
0.0
  0
LINE
  5
B4
330
1F
100
AcDbEntity
  8
0
  6
Continuous
 62
     7
370
    25
100
AcDbLine
 10
105.1018764434
 20
52.3230420843
 30
0.0
 11
105.1018764434
 21
46.6300639533
 31
0.0
  0
SPLINE
  5
B5
330
1F
100
AcDbEntity
  8
0
  6
Continuous
 62
     7
370
    25
100
AcDbSpline
210
0.0
220
0.0
230
1.0
 70
     8
 71
     3
 72
     8
 73
     4
 74
     0
 42
0.00000001
 43
0.00000001
 40
0.0
 40
0.0
 40
0.0
 40
0.0
 40
1.0
 40
1.0
 40
1.0
 40
1.0
 10
105.1018424488621
 20
46.58613565875929
 30
0.0
 10
105.1018652867207
 20
46.60077653664846
 30
0.0
 10
105.1018764434179
 20
46.61541931441751
 30
0.0
 10
105.1018764434179
 20
46.63006395332454
 30
0.0
  0
SPLINE
  5
B6
330
1F
100
AcDbEntity
  8
0
  6
Continuous
 62
     7
370
    25
100
AcDbSpline
210
0.0
220
0.0
230
1.0
 70
     8
 71
     3
 72
     8
 73
     4
 74
     0
 42
0.00000001
 43
0.00000001
 40
0.0
 40
0.0
 40
0.0
 40
0.0
 40
1.0
 40
1.0
 40
1.0
 40
1.0
 10
105.1018764434179
 20
52.32304208432062
 30
0.0
 10
105.1018764434179
 20
52.33768584253858
 30
0.0
 10
105.1018652881118
 20
52.35232860915823
 30
0.0
 10
105.1018424488621
 20
52.36697037889198
 30
0.0
  0
LINE
  5
B7
330
1F
100
AcDbEntity
  8
0
  6
Continuous
 62
     7
370
    25
100
AcDbLine
 10
124.1018764434
 20
46.6300639533
 30
0.0
 11
124.1018764434
 21
52.3230420843
 31
0.0
  0
SPLINE
  5
B8
330
1F
100
AcDbEntity
  8
0
  6
Continuous
 62
     7
370
    25
100
AcDbSpline
210
0.0
220
0.0
230
1.0
 70
     8
 71
     3
 72
     8
 73
     4
 74
     0
 42
0.00000001
 43
0.00000001
 40
0.0
 40
0.0
 40
0.0
 40
0.0
 40
1.0
 40
1.0
 40
1.0
 40
1.0
 10
124.1019104379738
 20
52.36697037888588
 30
0.0
 10
124.1018876001152
 20
52.35232950099671
 30
0.0
 10
124.1018764434179
 20
52.33768672322766
 30
0.0
 10
124.1018764434179
 20
52.32304208432062
 30
0.0
  0
SPLINE
  5
B9
330
1F
100
AcDbEntity
  8
0
  6
Continuous
 62
     7
370
    25
100
AcDbSpline
210
0.0
220
0.0
230
1.0
 70
     8
 71
     3
 72
     8
 73
     4
 74
     0
 42
0.00000001
 43
0.00000001
 40
0.0
 40
0.0
 40
0.0
 40
0.0
 40
1.0
 40
1.0
 40
1.0
 40
1.0
 10
124.1018764434179
 20
46.63006395332454
 30
0.0
 10
124.1018764434179
 20
46.61542019510657
 30
0.0
 10
124.101887598724
 20
46.60077742848693
 30
0.0
 10
124.1019104379738
 20
46.58613565875316
 30
0.0
  0
SPLINE
  5
BA
330
1F
100
AcDbEntity
  8
0
  6
Continuous
 62
     7
370
    25
100
AcDbSpline
210
0.0
220
0.0
230
1.0
 70
     8
 71
     3
 72
    16
 73
    12
 74
     0
 42
0.00000001
 43
0.00000001
 40
0.0
 40
0.0
 40
0.0
 40
0.0
 40
0.1358424562080462
 40
0.2585567702382189
 40
0.5157338482631078
 40
0.6432966940835715
 40
0.769210278740544
 40
0.8342664718723953
 40
0.8905766424055048
 40
0.9515952837299115
 40
1.0
 40
1.0
 40
1.0
 40
1.0
 10
105.1018424488621
 20
46.58613565875929
 30
0.0
 10
105.1018040631159
 20
46.50460841683272
 30
0.0
 10
105.1017310013144
 20
46.34943292201776
 30
0.0
 10
105.1024615529423
 20
46.04072802061395
 30
0.0
 10
105.1045269752018
 20
45.73792422388252
 30
0.0
 10
105.1119667759788
 20
45.43456021817835
 30
0.0
 10
105.121318594269
 20
45.24607826694979
 30
0.0
 10
105.1346465058624
 20
45.1005102441162
 30
0.0
 10
105.1501628123888
 20
44.99421130606077
 30
0.0
 10
105.1695818516339
 20
44.89800016506072
 30
0.0
 10
105.1964643628002
 20
44.83930295476071
 30
0.0
 10
105.2083561595265
 20
44.81333754963263
 30
0.0
  0
LINE
  5
BB
330
1F
100
AcDbEntity
  8
0
  6
Continuous
 62
     7
370
    25
100
AcDbLine
 10
105.2083561595
 20
44.8133375496
 30
0.0
 11
105.124898162
 21
44.7349538065
 31
0.0
  0
SPLINE
  5
BC
330
1F
100
AcDbEntity
  8
0
  6
Continuous
 62
     7
370
    25
100
AcDbSpline
210
0.0
220
0.0
230
1.0
 70
     8
 71
     3
 72
    16
 73
    12
 74
     0
 42
0.00000001
 43
0.00000001
 40
0.0
 40
0.0
 40
0.0
 40
0.0
 40
0.1358424561976651
 40
0.2585567702396391
 40
0.5157338482659424
 40
0.6432966940871057
 40
0.7692102787447741
 40
0.8342664723077616
 40
0.8905766424116071
 40
0.9515952839399333
 40
1.0
 40
1.0
 40
1.0
 40
1.0
 10
124.1019104379738
 20
52.36697037888588
 30
0.0
 10
124.1019488237199
 20
52.44849762080573
 30
0.0
 10
124.1020218855212
 20
52.60367311562062
 30
0.0
 10
124.1012913338947
 20
52.91237801702491
 30
0.0
 10
124.0992259116274
 20
53.21518181376062
 30
0.0
 10
124.0917861108681
 20
53.51854581947016
 30
0.0
 10
124.082434292521
 20
53.70702777094017
 30
0.0
 10
124.0691063810035
 20
53.85259579379996
 30
0.0
 10
124.0535900743927
 20
53.958894731958
 30
0.0
 10
124.0341710350586
 20
54.05510587265294
 30
0.0
 10
124.0072885239564
 20
54.11380308298254
 30
0.0
 10
123.9953967273093
 20
54.1397684880125
 30
0.0
  0
LINE
  5
BD
330
1F
100
AcDbEntity
  8
0
  6
Continuous
 62
     7
370
    25
100
AcDbLine
 10
123.9953967273
 20
54.139768488
 30
0.0
 11
124.0788547248
 21
54.2181522312
 31
0.0
  0
LINE
  5
BE
330
1F
100
AcDbEntity
  8
0
  6
Continuous
 62
     7
370
    25
100
AcDbLine
 10
105.124898162
 20
54.2181522312
 30
0.0
 11
105.2083561595
 21
54.139768488
 31
0.0
  0
SPLINE
  5
BF
330
1F
100
AcDbEntity
  8
0
  6
Continuous
 62
     7
370
    25
100
AcDbSpline
210
0.0
220
0.0
230
1.0
 70
     8
 71
     3
 72
    18
 73
    14
 74
     0
 42
0.00000001
 43
0.00000001
 40
0.0
 40
0.0
 40
0.0
 40
0.0
 40
0.0228877262659284
 40
0.0487507054349101
 40
0.0778154834700411
 40
0.1102364830155919
 40
0.1666044227654431
 40
0.231774208579201
 40
0.3567811110102737
 40
0.4838932701832798
 40
0.741382445805996
 40
0.8641064613662746
 40
1.0
 40
1.0
 40
1.0
 40
1.0
 10
105.2083561595264
 20
54.13976848801227
 30
0.0
 10
105.2021926936014
 20
54.12776603765567
 30
0.0
 10
105.1890645519818
 20
54.10220089784958
 30
0.0
 10
105.1742026483493
 20
54.05878550519928
 30
0.0
 10
105.1608998092736
 20
54.00913521007991
 30
0.0
 10
105.1472170546015
 20
53.94106052688125
 30
0.0
 10
105.1345940204494
 20
53.85110877099854
 30
0.0
 10
105.1212029798392
 20
53.70603638821772
 30
0.0
 10
105.1119857028579
 20
53.51822938932967
 30
0.0
 10
105.1045165808399
 20
53.21547711420911
 30
0.0
 10
105.1024647063345
 20
52.9127166236628
 30
0.0
 10
105.1017305458488
 20
52.60376205359963
 30
0.0
 10
105.1018039026799
 20
52.44853578777411
 30
0.0
 10
105.1018424488621
 20
52.36697037889198
 30
0.0
  0
LINE
  5
C0
330
1F
100
AcDbEntity
  8
0
  6
Continuous
 62
     7
370
    25
100
AcDbLine
 10
124.0788547248
 20
44.7349538065
 30
0.0
 11
123.9953967273
 21
44.8133375496
 31
0.0
  0
SPLINE
  5
C1
330
1F
100
AcDbEntity
  8
0
  6
Continuous
 62
     7
370
    25
100
AcDbSpline
210
0.0
220
0.0
230
1.0
 70
     8
 71
     3
 72
    18
 73
    14
 74
     0
 42
0.00000001
 43
0.00000001
 40
0.0
 40
0.0
 40
0.0
 40
0.0
 40
0.0228877262623231
 40
0.0487507054304767
 40
0.0778154834678066
 40
0.110236483018699
 40
0.1666044227684945
 40
0.2317742085819108
 40
0.356781111012564
 40
0.4838932701851294
 40
0.7413824458069321
 40
0.864106461437923
 40
1.0
 40
1.0
 40
1.0
 40
1.0
 10
123.9953967273073
 20
44.8133375496311
 30
0.0
 10
124.0015601932326
 20
44.8253399999851
 30
0.0
 10
124.0146883348537
 20
44.85090513978736
 30
0.0
 10
124.0295502384862
 20
44.89432053243655
 30
0.0
 10
124.0428530775624
 20
44.94397082756005
 30
0.0
 10
124.0565358322339
 20
45.01204551076367
 30
0.0
 10
124.0691588663857
 20
45.10199726664963
 30
0.0
 10
124.0825499069974
 20
45.24706964942977
 30
0.0
 10
124.0917671839778
 20
45.43487664831764
 30
0.0
 10
124.099236305996
 20
45.73762892343763
 30
0.0
 10
124.1012881805018
 20
46.04038941402559
 30
0.0
 10
124.1020223409868
 20
46.34934398408903
 30
0.0
 10
124.1019489841559
 20
46.50457024991403
 30
0.0
 10
124.1019104379738
 20
46.58613565875317
 30
0.0
  0
SPLINE
  5
C2
330
1F
100
AcDbEntity
  8
0
  6
Continuous
 62
     7
370
    25
100
AcDbSpline
210
0.0
220
0.0
230
1.0
 70
     8
 71
     3
 72
    10
 73
     6
 74
     0
 42
0.00000001
 43
0.00000001
 40
0.0
 40
0.0
 40
0.0
 40
0.0
 40
0.4999999999999996
 40
0.4999999999999996
 40
1.0
 40
1.0
 40
1.0
 40
1.0
 10
105.3831813088331
 20
53.98420967360999
 30
0.0
 10
105.4327233732573
 20
53.71113287816269
 30
0.0
 10
105.4613295665078
 20
53.43533345640603
 30
0.0
 10
105.4960698758709
 20
52.88081220914208
 30
0.0
 10
105.5018764434179
 20
52.60182005785013
 30
0.0
 10
105.5018764434179
 20
52.32304208432062
 30
0.0
  0
LINE
  5
C3
330
1F
100
AcDbEntity
  8
0
  6
Continuous
 62
     7
370
    25
100
AcDbLine
 10
105.1018764434
 20
52.3230420843
 30
0.0
 11
105.5018764434
 21
52.3230420843
 31
0.0
  0
SPLINE
  5
C4
330
1F
100
AcDbEntity
  8
0
  6
Continuous
 62
     7
370
    25
100
AcDbSpline
210
0.0
220
0.0
230
1.0
 70
     8
 71
     3
 72
     8
 73
     4
 74
     0
 42
0.00000001
 43
0.00000001
 40
0.0
 40
0.0
 40
0.0
 40
0.0
 40
1.0
 40
1.0
 40
1.0
 40
1.0
 10
105.3831813088365
 20
53.98420967361709
 30
0.0
 10
105.3107813386749
 20
54.01871961529917
 30
0.0
 10
105.2563511210846
 20
54.07823371666031
 30
0.0
 10
105.2083561595234
 20
54.13976848801158
 30
0.0
  0
SPLINE
  5
C5
330
1F
100
AcDbEntity
  8
0
  6
Continuous
 62
     7
370
    25
100
AcDbSpline
210
0.0
220
0.0
230
1.0
 70
     8
 71
     3
 72
    10
 73
     6
 74
     0
 42
0.00000001
 43
0.00000001
 40
0.0
 40
0.0
 40
0.0
 40
0.0
 40
0.5000000000000004
 40
0.5000000000000004
 40
1.0
 40
1.0
 40
1.0
 40
1.0
 10
123.8205715780028
 20
44.9688963640351
 30
0.0
 10
123.7710295135785
 20
45.24197315948242
 30
0.0
 10
123.7424233203281
 20
45.51777258123909
 30
0.0
 10
123.707683010965
 20
46.07229382850306
 30
0.0
 10
123.7018764434179
 20
46.35128597979502
 30
0.0
 10
123.7018764434179
 20
46.63006395332454
 30
0.0
  0
LINE
  5
C6
330
1F
100
AcDbEntity
  8
0
  6
Continuous
 62
     7
370
    25
100
AcDbLine
 10
123.7018764434
 20
46.6300639533
 30
0.0
 11
124.1018764434
 21
46.6300639533
 31
0.0
  0
SPLINE
  5
C7
330
1F
100
AcDbEntity
  8
0
  6
Continuous
 62
     7
370
    25
100
AcDbSpline
210
0.0
220
0.0
230
1.0
 70
     8
 71
     3
 72
     8
 73
     4
 74
     0
 42
0.00000001
 43
0.00000001
 40
0.0
 40
0.0
 40
0.0
 40
0.0
 40
1.0
 40
1.0
 40
1.0
 40
1.0
 10
123.8205715779994
 20
44.96889636402801
 30
0.0
 10
123.8929715481609
 20
44.93438642234586
 30
0.0
 10
123.9474017657512
 20
44.87487232098482
 30
0.0
 10
123.9953967273124
 20
44.81333754963357
 30
0.0
  0
LINE
  5
C8
330
1F
100
AcDbEntity
  8
0
  6
Continuous
 62
     7
370
    25
100
AcDbLine
 10
105.1018764434
 20
46.6300639533
 30
0.0
 11
105.5018764434
 21
46.6300639533
 31
0.0
  0
SPLINE
  5
C9
330
1F
100
AcDbEntity
  8
0
  6
Continuous
 62
     7
370
    25
100
AcDbSpline
210
0.0
220
0.0
230
1.0
 70
     8
 71
     3
 72
    10
 73
     6
 74
     0
 42
0.00000001
 43
0.00000001
 40
0.0
 40
0.0
 40
0.0
 40
0.0
 40
0.5
 40
0.5
 40
1.0
 40
1.0
 40
1.0
 40
1.0
 10
105.5018764434179
 20
46.63006395332454
 30
0.0
 10
105.5018764434179
 20
46.35103219257611
 30
0.0
 10
105.496077821253
 20
46.07263664419528
 30
0.0
 10
105.4613811274517
 20
45.51837996940852
 30
0.0
 10
105.4328157497652
 20
45.24248234053707
 30
0.0
 10
105.3831813088314
 20
44.96889636402558
 30
0.0
  0
SPLINE
  5
CA
330
1F
100
AcDbEntity
  8
0
  6
Continuous
 62
     7
370
    25
100
AcDbSpline
210
0.0
220
0.0
230
1.0
 70
     8
 71
     3
 72
     8
 73
     4
 74
     0
 42
0.00000001
 43
0.00000001
 40
0.0
 40
0.0
 40
0.0
 40
0.0
 40
1.0
 40
1.0
 40
1.0
 40
1.0
 10
105.3831813088314
 20
44.96889636402557
 30
0.0
 10
105.3107813386723
 20
44.93438642234278
 30
0.0
 10
105.2563511210834
 20
44.87487232098318
 30
0.0
 10
105.2083561595235
 20
44.81333754963357
 30
0.0
  0
LINE
  5
CB
330
1F
100
AcDbEntity
  8
0
  6
Continuous
 62
     7
370
    25
100
AcDbLine
 10
123.7018764434
 20
52.3230420843
 30
0.0
 11
124.1018764434
 21
52.3230420843
 31
0.0
  0
SPLINE
  5
CC
330
1F
100
AcDbEntity
  8
0
  6
Continuous
 62
     7
370
    25
100
AcDbSpline
210
0.0
220
0.0
230
1.0
 70
     8
 71
     3
 72
    10
 73
     6
 74
     0
 42
0.00000001
 43
0.00000001
 40
0.0
 40
0.0
 40
0.0
 40
0.0
 40
0.5000000000000004
 40
0.5000000000000004
 40
1.0
 40
1.0
 40
1.0
 40
1.0
 10
123.7018764434179
 20
52.32304208432062
 30
0.0
 10
123.7018764434179
 20
52.60207384506906
 30
0.0
 10
123.7076750655829
 20
52.88046939344986
 30
0.0
 10
123.7423717593842
 20
53.4347260682366
 30
0.0
 10
123.7709371370706
 20
53.71062369710803
 30
0.0
 10
123.8205715780045
 20
53.98420967361951
 30
0.0
  0
SPLINE
  5
CD
330
1F
100
AcDbEntity
  8
0
  6
Continuous
 62
     7
370
    25
100
AcDbSpline
210
0.0
220
0.0
230
1.0
 70
     8
 71
     3
 72
     8
 73
     4
 74
     0
 42
0.00000001
 43
0.00000001
 40
0.0
 40
0.0
 40
0.0
 40
0.0
 40
1.0
 40
1.0
 40
1.0
 40
1.0
 10
123.8205715780044
 20
53.98420967361951
 30
0.0
 10
123.8929715481635
 20
54.01871961530231
 30
0.0
 10
123.9474017657523
 20
54.0782337166617
 30
0.0
 10
123.9953967273124
 20
54.13976848801156
 30
0.0
  0
LINE
  5
CE
330
1F
100
AcDbEntity
  8
0
  6
Continuous
 62
     7
370
    25
100
AcDbLine
 10
105.5018764434
 20
52.3230420843
 30
0.0
 11
105.5018764434
 21
46.6300639533
 31
0.0
  0
LINE
  5
CF
330
1F
100
AcDbEntity
  8
0
  6
Continuous
 62
     7
370
    25
100
AcDbLine
 10
123.7018764434
 20
46.6300639533
 30
0.0
 11
123.7018764434
 21
52.3230420843
 31
0.0
  0
LINE
  5
D0
330
1F
100
AcDbEntity
  8
0
  6
Continuous
 62
     7
370
    25
100
AcDbLine
 10
123.7555654939
 20
54.4799559765
 30
0.0
 11
123.820571578
 21
53.9842096736
 31
0.0
  0
SPLINE
  5
D1
330
1F
100
AcDbEntity
  8
0
  6
Continuous
 62
     7
370
    25
100
AcDbSpline
210
0.0
220
0.0
230
1.0
 70
     8
 71
     3
 72
    10
 73
     6
 74
     0
 42
0.00000001
 43
0.00000001
 40
0.0
 40
0.0
 40
0.0
 40
0.0
 40
0.5
 40
0.5
 40
1.0
 40
1.0
 40
1.0
 40
1.0
 10
123.7555654939261
 20
54.47995597651011
 30
0.0
 10
123.8151942235276
 20
54.48775040230326
 30
0.0
 10
123.8653685153351
 20
54.50769740327401
 30
0.0
 10
123.945433621076
 20
54.54719564999473
 30
0.0
 10
123.9781484104914
 20
54.56754123097652
 30
0.0
 10
124.010257650251
 20
54.58710549198176
 30
0.0
  0
SPLINE
  5
D2
330
1F
100
AcDbEntity
  8
0
  6
Continuous
 62
     7
370
    25
100
AcDbSpline
210
0.0
220
0.0
230
1.0
 70
     8
 71
     3
 72
    16
 73
    12
 74
     0
 42
0.00000001
 43
0.00000001
 40
0.0
 40
0.0
 40
0.0
 40
0.0
 40
0.0761065009174363
 40
0.1494790931192237
 40
0.297491100127681
 40
0.4337219070480782
 40
0.5582000385649595
 40
0.674477366124627
 40
0.785969039483262
 40
0.8939353462389532
 40
0.9999999999999999
 40
0.9999999999999999
 40
0.9999999999999999
 40
0.9999999999999999
 10
123.995396727308
 20
54.13976848801077
 30
0.0
 10
123.9879803562708
 20
54.15182756200669
 30
0.0
 10
123.9734140261475
 20
54.17551252220115
 30
0.0
 10
123.9511952378256
 20
54.22469663602462
 30
0.0
 10
123.9338417296637
 20
54.28503469035731
 30
0.0
 10
123.927536991735
 20
54.3522091906714
 30
0.0
 10
123.9316324067482
 20
54.41103575251609
 30
0.0
 10
123.9431603560985
 20
54.46268058544228
 30
0.0
 10
123.9605832593279
 20
54.50857362283443
 30
0.0
 10
123.9826006675499
 20
54.55013776879368
 30
0.0
 10
124.0010934250523
 20
54.57485612465096
 30
0.0
 10
124.0102576502506
 20
54.58710549198183
 30
0.0
  0
LINE
  5
D3
330
1F
100
AcDbEntity
  8
0
  6
Continuous
 62
     7
370
    25
100
AcDbLine
 10
105.3831813088
 20
44.968896364
 30
0.0
 11
105.4481873929
 21
44.4731500611
 31
0.0
  0
SPLINE
  5
D4
330
1F
100
AcDbEntity
  8
0
  6
Continuous
 62
     7
370
    25
100
AcDbSpline
210
0.0
220
0.0
230
1.0
 70
     8
 71
     3
 72
    10
 73
     6
 74
     0
 42
0.00000001
 43
0.00000001
 40
0.0
 40
0.0
 40
0.0
 40
0.0
 40
0.5
 40
0.5
 40
1.0
 40
1.0
 40
1.0
 40
1.0
 10
105.4481873929097
 20
44.47315006113498
 30
0.0
 10
105.3885586633089
 20
44.46535563534187
 30
0.0
 10
105.3383843715019
 20
44.44540863437155
 30
0.0
 10
105.2583192657615
 20
44.40591038765133
 30
0.0
 10
105.2256044763465
 20
44.38556480666978
 30
0.0
 10
105.1934952365872
 20
44.36600054566474
 30
0.0
  0
SPLINE
  5
D5
330
1F
100
AcDbEntity
  8
0
  6
Continuous
 62
     7
370
    25
100
AcDbSpline
210
0.0
220
0.0
230
1.0
 70
     8
 71
     3
 72
    16
 73
    12
 74
     0
 42
0.00000001
 43
0.00000001
 40
0.0
 40
0.0
 40
0.0
 40
0.0
 40
0.0761065007507246
 40
0.1494790931135599
 40
0.2974911001213054
 40
0.4337219070412439
 40
0.558200038557801
 40
0.6744773661177835
 40
0.7859690394750554
 40
0.8939353462300779
 40
1.0
 40
1.0
 40
1.0
 40
1.0
 10
105.2083561595256
 20
44.81333754963144
 30
0.0
 10
105.2157725305501
 20
44.80127847566425
 30
0.0
 10
105.2303388606797
 20
44.77759351547524
 30
0.0
 10
105.2525576489984
 20
44.72840940164792
 30
0.0
 10
105.2699111571727
 20
44.6680713472911
 30
0.0
 10
105.2762158951004
 20
44.60089684697631
 30
0.0
 10
105.2721204800886
 20
44.54207028513205
 30
0.0
 10
105.2605925307365
 20
44.49042545220496
 30
0.0
 10
105.2431696275102
 20
44.44453241481402
 30
0.0
 10
105.2211522192854
 20
44.40296826885224
 30
0.0
 10
105.202659461785
 20
44.37824991299559
 30
0.0
 10
105.1934952365873
 20
44.36600054566451
 30
0.0
  0
LINE
  5
D6
330
1F
100
AcDbEntity
  8
0
  6
Continuous
 62
     7
370
    25
100
AcDbLine
 10
105.4481873929
 20
54.4799559765
 30
0.0
 11
105.3831813088
 21
53.9842096736
 31
0.0
  0
SPLINE
  5
D7
330
1F
100
AcDbEntity
  8
0
  6
Continuous
 62
     7
370
    25
100
AcDbSpline
210
0.0
220
0.0
230
1.0
 70
     8
 71
     3
 72
    20
 73
    16
 74
     0
 42
0.00000001
 43
0.00000001
 40
0.0
 40
0.0
 40
0.0
 40
0.0
 40
0.1060317657589631
 40
0.2138409733617976
 40
0.268906061948247
 40
0.3251014539057976
 40
0.382786348557697
 40
0.4420118601150135
 40
0.5669442188443142
 40
0.6333957081061092
 40
0.703032338607854
 40
0.7761748201543405
 40
0.8511692721701473
 40
0.9263894086762869
 40
1.0
 40
1.0
 40
1.0
 40
1.0
 10
105.1934952365873
 20
54.58710549198061
 30
0.0
 10
105.2026614312444
 20
54.57485636586437
 30
0.0
 10
105.2211474761901
 20
54.55015277790864
 30
0.0
 10
105.2393292742466
 20
54.51578448055842
 30
0.0
 10
105.2516294254282
 20
54.48637588763321
 30
0.0
 10
105.259588173304
 20
54.46285617271113
 30
0.0
 10
105.2661149220572
 20
54.43792164874632
 30
0.0
 10
105.2727728532104
 20
54.40193237915357
 30
0.0
 10
105.2754743354065
 20
54.36276583525454
 30
0.0
 10
105.2732201440812
 20
54.32046875276809
 30
0.0
 10
105.268344056393
 20
54.28587327662512
 30
0.0
 10
105.2597376571067
 20
54.2494179400272
 30
0.0
 10
105.2468638318292
 20
54.21203882757339
 30
0.0
 10
105.2300942016524
 20
54.17499802825752
 30
0.0
 10
105.2155497427217
 20
54.15142669656402
 30
0.0
 10
105.2083561595283
 20
54.13976848801029
 30
0.0
  0
SPLINE
  5
D8
330
1F
100
AcDbEntity
  8
0
  6
Continuous
 62
     7
370
    25
100
AcDbSpline
210
0.0
220
0.0
230
1.0
 70
     8
 71
     3
 72
    10
 73
     6
 74
     0
 42
0.00000001
 43
0.00000001
 40
0.0
 40
0.0
 40
0.0
 40
0.0
 40
0.5
 40
0.5
 40
1.0
 40
1.0
 40
1.0
 40
1.0
 10
105.4481873929111
 20
54.47995597650994
 30
0.0
 10
105.3885586633094
 20
54.48775040230295
 30
0.0
 10
105.3383843715026
 20
54.50769740327325
 30
0.0
 10
105.2583192657618
 20
54.54719564999359
 30
0.0
 10
105.2256044763466
 20
54.56754123097524
 30
0.0
 10
105.1934952365872
 20
54.58710549198036
 30
0.0
  0
LINE
  5
D9
330
1F
100
AcDbEntity
  8
0
  6
Continuous
 62
     7
370
    25
100
AcDbLine
 10
123.820571578
 20
44.968896364
 30
0.0
 11
123.7555654939
 21
44.4731500611
 31
0.0
  0
SPLINE
  5
DA
330
1F
100
AcDbEntity
  8
0
  6
Continuous
 62
     7
370
    25
100
AcDbSpline
210
0.0
220
0.0
230
1.0
 70
     8
 71
     3
 72
    20
 73
    16
 74
     0
 42
0.00000001
 43
0.00000001
 40
0.0
 40
0.0
 40
0.0
 40
0.0
 40
0.1060317657586693
 40
0.2138409733609931
 40
0.2689060619472279
 40
0.325101453904546
 40
0.3827863485561649
 40
0.4420118601131947
 40
0.5669442188418145
 40
0.6333957081032219
 40
0.703032338604481
 40
0.7761748201505866
 40
0.8511692721659514
 40
0.9263894086719594
 40
0.9999999999999999
 40
0.9999999999999999
 40
0.9999999999999999
 40
0.9999999999999999
 10
124.0102576502485
 20
44.36600054566451
 30
0.0
 10
124.0010914555915
 20
44.37824967178068
 30
0.0
 10
123.9826054106458
 20
44.40295325973627
 30
0.0
 10
123.9644236125894
 20
44.43732155708632
 30
0.0
 10
123.9521234614079
 20
44.46673015001133
 30
0.0
 10
123.944164713532
 20
44.49024986493325
 30
0.0
 10
123.9376379647788
 20
44.51518438889789
 30
0.0
 10
123.9309800336256
 20
44.55117365849036
 30
0.0
 10
123.9282785514294
 20
44.59034020238908
 30
0.0
 10
123.9305327427545
 20
44.63263728487517
 30
0.0
 10
123.9354088304424
 20
44.66723276101785
 30
0.0
 10
123.9440152297284
 20
44.70368809761551
 30
0.0
 10
123.9568890550057
 20
44.741067210069
 30
0.0
 10
123.9736586851817
 20
44.77810800938601
 30
0.0
 10
123.9882031441145
 20
44.80167934107897
 30
0.0
 10
123.9953967273092
 20
44.81333754963279
 30
0.0
  0
SPLINE
  5
DB
330
1F
100
AcDbEntity
  8
0
  6
Continuous
 62
     7
370
    25
100
AcDbSpline
210
0.0
220
0.0
230
1.0
 70
     8
 71
     3
 72
    10
 73
     6
 74
     0
 42
0.00000001
 43
0.00000001
 40
0.0
 40
0.0
 40
0.0
 40
0.0
 40
0.5
 40
0.5
 40
1.0
 40
1.0
 40
1.0
 40
1.0
 10
123.7555654939224
 20
44.47315006113548
 30
0.0
 10
123.8151942235246
 20
44.46535563534275
 30
0.0
 10
123.8653685153321
 20
44.44540863437238
 30
0.0
 10
123.9454336210736
 20
44.40591038765179
 30
0.0
 10
123.978148410489
 20
44.38556480667
 30
0.0
 10
124.0102576502487
 20
44.36600054566474
 30
0.0
  0
LINE
  5
DC
330
1F
100
AcDbEntity
  8
0
  6
Continuous
 62
     7
370
    25
100
AcDbLine
 10
105.1934952366
 20
44.3660005457
 30
0.0
 11
105.0305832191
 21
44.4388202661
 31
0.0
  0
LINE
  5
DD
330
1F
100
AcDbEntity
  8
0
  6
Continuous
 62
     7
370
    25
100
AcDbLine
 10
124.0102576502
 20
54.587105492
 30
0.0
 11
124.1731696678
 21
54.5142857715
 31
0.0
  0
LINE
  5
DE
330
1F
100
AcDbEntity
  8
0
  6
Continuous
 62
     7
370
    25
100
AcDbLine
 10
105.0305832191
 20
54.5142857715
 30
0.0
 11
105.1934952366
 21
54.587105492
 31
0.0
  0
LINE
  5
DF
330
1F
100
AcDbEntity
  8
0
  6
Continuous
 62
     7
370
    25
100
AcDbLine
 10
124.1731696678
 20
44.4388202661
 30
0.0
 11
124.0102576502
 21
44.3660005457
 31
0.0
  0
SPLINE
  5
E0
330
1F
100
AcDbEntity
  8
0
  6
Continuous
 62
     7
370
    25
100
AcDbSpline
210
0.0
220
0.0
230
1.0
 70
     8
 71
     3
 72
     8
 73
     4
 74
     0
 42
0.00000001
 43
0.00000001
 40
0.0
 40
0.0
 40
0.0
 40
0.0
 40
0.0000524698222138
 40
0.0000524698222138
 40
0.0000524698222138
 40
0.0000524698222138
 10
123.7032999228593
 20
54.47655301882258
 30
0.0
 10
123.7207633578316
 20
54.47655301882258
 30
0.0
 10
123.7382591820716
 20
54.47769376558588
 30
0.0
 10
123.7555654939262
 20
54.47995597651013
 30
0.0
  0
SPLINE
  5
E1
330
1F
100
AcDbEntity
  8
0
  6
Continuous
 62
     7
370
    25
100
AcDbSpline
210
0.0
220
0.0
230
1.0
 70
     8
 71
     3
 72
     8
 73
     4
 74
     0
 42
0.00000001
 43
0.00000001
 40
0.0
 40
0.0
 40
0.0
 40
0.0
 40
0.0001175213404591
 40
0.0001175213404591
 40
0.0001175213404591
 40
0.0001175213404591
 10
123.8205715780044
 20
53.98420967361951
 30
0.0
 10
123.7817303023978
 20
53.97911650557555
 30
0.0
 10
123.7424737030118
 20
53.97655301882253
 30
0.0
 10
123.7032999228587
 20
53.97655301882257
 30
0.0
  0
LINE
  5
E2
330
1F
100
AcDbEntity
  8
0
  6
Continuous
 62
     7
370
    25
100
AcDbLine
 10
123.7032999229
 20
54.4765530188
 30
0.0
 11
123.7032999229
 21
53.9765530188
 31
0.0
  0
LINE
  5
E3
330
1F
100
AcDbEntity
  8
0
  6
Continuous
 62
     7
370
    25
100
AcDbLine
 10
105.500452964
 20
44.9765530188
 30
0.0
 11
123.7032999229
 21
44.9765530188
 31
0.0
  0
LINE
  5
E4
330
1F
100
AcDbEntity
  8
0
  6
Continuous
 62
     7
370
    25
100
AcDbLine
 10
123.7032999229
 20
44.9765530188
 30
0.0
 11
123.7032999229
 21
44.4765530188
 31
0.0
  0
LINE
  5
E5
330
1F
100
AcDbEntity
  8
0
  6
Continuous
 62
     7
370
    25
100
AcDbLine
 10
123.7032999229
 20
44.4765530188
 30
0.0
 11
105.500452964
 21
44.4765530188
 31
0.0
  0
LINE
  5
E6
330
1F
100
AcDbEntity
  8
0
  6
Continuous
 62
     7
370
    25
100
AcDbLine
 10
105.500452964
 20
44.9765530188
 30
0.0
 11
105.500452964
 21
44.4765530188
 31
0.0
  0
SPLINE
  5
E7
330
1F
100
AcDbEntity
  8
0
  6
Continuous
 62
     7
370
    25
100
AcDbSpline
210
0.0
220
0.0
230
1.0
 70
     8
 71
     3
 72
     8
 73
     4
 74
     0
 42
0.00000001
 43
0.00000001
 40
0.0
 40
0.0
 40
0.0
 40
0.0
 40
0.0001175213404538
 40
0.0001175213404538
 40
0.0001175213404538
 40
0.0001175213404538
 10
123.7032999228587
 20
44.97655301882251
 30
0.0
 10
123.7424737030099
 20
44.97655301882256
 30
0.0
 10
123.7817303023942
 20
44.97398953206978
 30
0.0
 10
123.8205715779992
 20
44.96889636402628
 30
0.0
  0
SPLINE
  5
E8
330
1F
100
AcDbEntity
  8
0
  6
Continuous
 62
     7
370
    25
100
AcDbSpline
210
0.0
220
0.0
230
1.0
 70
     8
 71
     3
 72
     8
 73
     4
 74
     0
 42
0.00000001
 43
0.00000001
 40
0.0
 40
0.0
 40
0.0
 40
0.0
 40
0.0000524698222089
 40
0.0000524698222089
 40
0.0000524698222089
 40
0.0000524698222089
 10
123.7555654939224
 20
44.47315006113548
 30
0.0
 10
123.7382591820685
 20
44.47541227205947
 30
0.0
 10
123.7207633578287
 20
44.47655301882264
 30
0.0
 10
123.7032999228573
 20
44.47655301882251
 30
0.0
  0
SPLINE
  5
E9
330
1F
100
AcDbEntity
  8
0
  6
Continuous
 62
     7
370
    25
100
AcDbSpline
210
0.0
220
0.0
230
1.0
 70
     8
 71
     3
 72
     8
 73
     4
 74
     0
 42
0.00000001
 43
0.00000001
 40
0.0
 40
0.0
 40
0.0
 40
0.0
 40
0.0001175213404591
 40
0.0001175213404591
 40
0.0001175213404591
 40
0.0001175213404591
 10
105.3831813088314
 20
44.96889636402557
 30
0.0
 10
105.4220225844381
 20
44.97398953206955
 30
0.0
 10
105.4612791838241
 20
44.97655301882257
 30
0.0
 10
105.5004529639771
 20
44.97655301882251
 30
0.0
  0
SPLINE
  5
EA
330
1F
100
AcDbEntity
  8
0
  6
Continuous
 62
     7
370
    25
100
AcDbSpline
210
0.0
220
0.0
230
1.0
 70
     8
 71
     3
 72
     8
 73
     4
 74
     0
 42
0.00000001
 43
0.00000001
 40
0.0
 40
0.0
 40
0.0
 40
0.0
 40
0.0000524698222138
 40
0.0000524698222138
 40
0.0000524698222138
 40
0.0000524698222138
 10
105.5004529639765
 20
44.47655301882251
 30
0.0
 10
105.4829895290043
 20
44.47655301882251
 30
0.0
 10
105.4654937047642
 20
44.47541227205922
 30
0.0
 10
105.4481873929096
 20
44.47315006113496
 30
0.0
  0
SPLINE
  5
EB
330
1F
100
AcDbEntity
  8
0
  6
Continuous
 62
     7
370
    25
100
AcDbSpline
210
0.0
220
0.0
230
1.0
 70
     8
 71
     3
 72
     8
 73
     4
 74
     0
 42
0.00000001
 43
0.00000001
 40
0.0
 40
0.0
 40
0.0
 40
0.0
 40
0.0001175213404538
 40
0.0001175213404538
 40
0.0001175213404538
 40
0.0001175213404538
 10
105.5004529639772
 20
53.97655301882258
 30
0.0
 10
105.4612791838259
 20
53.97655301882252
 30
0.0
 10
105.4220225844417
 20
53.97911650557531
 30
0.0
 10
105.3831813088367
 20
53.98420967361882
 30
0.0
  0
LINE
  5
EC
330
1F
100
AcDbEntity
  8
0
  6
Continuous
 62
     7
370
    25
100
AcDbLine
 10
123.7032999229
 20
53.9765530188
 30
0.0
 11
105.500452964
 21
53.9765530188
 31
0.0
  0
LINE
  5
ED
330
1F
100
AcDbEntity
  8
0
  6
Continuous
 62
     7
370
    25
100
AcDbLine
 10
117.3149808451
 20
49.0786647058
 30
0.0
 11
117.7137516896
 21
49.4774355503
 31
0.0
  0
ARC
  5
EE
330
1F
100
AcDbEntity
  8
0
  6
Continuous
 62
     7
370
    25
100
AcDbCircle
 10
116.6503627709
 20
48.4140466316
 30
0.0
 40
1.503859030837027
100
AcDbArc
 50
45.0
 51
315.0
  0
LINE
  5
EF
330
1F
100
AcDbEntity
  8
0
  6
Continuous
 62
     7
370
    25
100
AcDbLine
 10
117.7137516896
 20
47.350657713
 30
0.0
 11
117.3149808451
 21
47.7494285575
 31
0.0
  0
ARC
  5
F0
330
1F
100
AcDbEntity
  8
0
  6
Continuous
 62
     7
370
    25
100
AcDbCircle
 10
116.6503627709
 20
48.4140466316
 30
0.0
 40
0.9399118942731335
100
AcDbArc
 50
45.0
 51
315.0
  0
ARC
  5
F1
330
1F
100
AcDbEntity
  8
0
  6
Continuous
 62
     7
370
    25
100
AcDbCircle
 10
119.775580212
 20
48.4248851947
 30
0.0
 40
1.503859030837028
100
AcDbArc
 50
44.056556937
 51
315.943443063
  0
ARC
  5
F2
330
1F
100
AcDbEntity
  8
0
  6
Continuous
 62
     7
370
    25
100
AcDbCircle
 10
119.775580212
 20
48.4248851947
 30
0.0
 40
0.9399118942730823
100
AcDbArc
 50
197.4576031237
 51
316.5096153457
  0
LINE
  5
F3
330
1F
100
AcDbEntity
  8
0
  6
Continuous
 62
     7
370
    25
100
AcDbLine
 10
118.8789614102
 20
48.1429116264
 30
0.0
 11
120.8563341431
 21
48.1429116264
 31
0.0
  0
LINE
  5
F4
330
1F
100
AcDbEntity
  8
0
  6
Continuous
 62
     7
370
    25
100
AcDbLine
 10
120.8563341431
 20
48.1429116264
 30
0.0
 11
120.8563341431
 21
48.706858763
 31
0.0
  0
LINE
  5
F5
330
1F
100
AcDbEntity
  8
0
  6
Continuous
 62
     7
370
    25
100
AcDbLine
 10
120.8563341431
 20
48.706858763
 30
0.0
 11
118.8789614102
 21
48.706858763
 31
0.0
  0
ARC
  5
F6
330
1F
100
AcDbEntity
  8
0
  6
Continuous
 62
     7
370
    25
100
AcDbCircle
 10
119.775580212
 20
48.4248851947
 30
0.0
 40
0.9399118942731606
100
AcDbArc
 50
43.4903846543
 51
162.5423968763
  0
LINE
  5
F7
330
1F
100
AcDbEntity
  8
0
  6
Continuous
 62
     7
370
    25
100
AcDbLine
 10
120.4574767795
 20
49.0717634215
 30
0.0
 11
120.8563341431
 21
49.4706207851
 31
0.0
  0
LINE
  5
F8
330
1F
100
AcDbEntity
  8
0
  6
Continuous
 62
     7
370
    25
100
AcDbLine
 10
114.5352387078
 20
48.3452822908
 30
0.0
 11
114.4941571642
 21
48.3217953429
 31
0.0
  0
ELLIPSE
  5
F9
330
1F
100
AcDbEntity
  8
0
  6
Continuous
 62
     7
370
    25
100
AcDbEllipse
 10
114.1499242469
 20
48.8690684664
 30
0.0
 11
-0.6694471380407663
 21
-1.136868377216160E-13
 31
0.0
210
0.0
220
0.0
230
1.0
 40
0.9531667975
 41
0.3285531705512536
 42
2.110876526947103
  0
LINE
  5
FA
330
1F
100
AcDbEntity
  8
0
  6
Continuous
 62
     7
370
    25
100
AcDbLine
 10
113.5162857103
 20
48.6631719159
 30
0.0
 11
112.2732784916
 21
52.1385653317
 31
0.0
  0
ELLIPSE
  5
FB
330
1F
100
AcDbEntity
  8
0
  6
Continuous
 62
     7
370
    25
100
AcDbEllipse
 10
111.690106702
 20
51.8797291841
 30
0.0
 11
0.64329685921102
 21
6.608047442568932E-13
 31
0.0
210
0.0
220
0.0
230
1.0
 40
0.9531667975
 41
0.4357918987542331
 42
2.705800754833634
  0
LINE
  5
FC
330
1F
100
AcDbEntity
  8
0
  6
Continuous
 62
     7
370
    25
100
AcDbLine
 10
111.1069349124
 20
52.1385653317
 30
0.0
 11
109.86421736
 21
48.6639818099
 31
0.0
  0
ELLIPSE
  5
FD
330
1F
100
AcDbEntity
  8
0
  6
Continuous
 62
     7
370
    25
100
AcDbEllipse
 10
109.2305788234
 20
48.8698783604
 30
0.0
 11
-0.6694471380407805
 21
4.973799150320701E-14
 31
0.0
210
0.0
220
0.0
230
1.0
 40
0.9531667975
 41
1.047197551196738
 42
2.813039483038423
  0
LINE
  5
FE
330
1F
100
AcDbEntity
  8
0
  6
Continuous
 62
     7
370
    25
100
AcDbLine
 10
108.8958552543
 20
48.3172720668
 30
0.0
 11
108.8449563653
 21
48.3452822908
 31
0.0
  0
LINE
  5
FF
330
1F
100
AcDbEntity
  8
0
  6
Continuous
 62
     7
370
    25
100
AcDbLine
 10
120.8563341431
 20
47.3791496043
 30
0.0
 11
120.4574767795
 21
47.7780069679
 31
0.0
  0
ELLIPSE
  5
100
330
1F
100
AcDbEntity
  8
0
  6
Continuous
 62
     7
370
    25
100
AcDbEllipse
 10
111.6900975366
 20
44.8517236349
 30
0.0
 11
2.827839379124952
 21
-2.984279490192420E-13
 31
0.0
210
0.0
220
0.0
230
1.0
 40
0.9535197248
 41
0.8208171341484173
 42
2.320775519441614
  0
ELLIPSE
  5
101
330
1F
100
AcDbEntity
  8
0
  6
Continuous
 62
     7
370
    25
100
AcDbEllipse
 10
113.6746469572
 20
46.8830602393
 30
0.0
 11
0.08368089225503182
 21
2.131628207280301E-14
 31
0.0
210
0.0
220
0.0
230
1.0
 40
0.9531667975
 41
3.962594650567986
 42
5.819537698167152
  0
ELLIPSE
  5
102
330
1F
100
AcDbEntity
  8
0
  6
Continuous
 62
     7
370
    25
100
AcDbEllipse
 10
109.7055481159
 20
46.8830602393
 30
0.0
 11
0.08368089225510289
 21
0.0
 31
0.0
210
0.0
220
0.0
230
1.0
 40
0.9531667975
 41
3.605240262590408
 42
5.462183310215551
  0
LINE
  5
103
330
1F
100
AcDbEntity
  8
0
  6
Continuous
 62
     7
370
    25
100
AcDbLine
 10
108.8449563653
 20
48.3452822908
 30
0.0
 11
109.6307016505
 21
46.8473896565
 31
0.0
  0
LINE
  5
104
330
1F
100
AcDbEntity
  8
0
  6
Continuous
 62
     7
370
    25
100
AcDbLine
 10
113.7494934226
 20
46.8473896565
 30
0.0
 11
114.5352387078
 21
48.3452822908
 31
0.0
  0
ELLIPSE
  5
105
330
1F
100
AcDbEntity
  8
0
  6
Continuous
 62
     7
370
    25
100
AcDbEllipse
 10
111.690106704
 20
49.5438465329
 30
0.0
 11
0.0836808922551171
 21
0.0
 31
0.0
210
0.0
220
0.0
230
1.0
 40
0.9531667975
 41
0.3430239404207816
 42
2.798568713169069
  0
LINE
  5
106
330
1F
100
AcDbEntity
  8
0
  6
Continuous
 62
     7
370
    25
100
AcDbLine
 10
112.06857337
 20
48.7709183437
 30
0.0
 11
111.7689125075
 21
49.5706733455
 31
0.0
  0
LINE
  5
107
330
1F
100
AcDbEntity
  8
0
  6
Continuous
 62
     7
370
    25
100
AcDbLine
 10
111.390445838
 20
48.6643296831
 30
0.0
 11
111.9897675665
 21
48.6643296831
 31
0.0
  0
ELLIPSE
  5
108
330
1F
100
AcDbEntity
  8
0
  6
Continuous
 62
     7
370
    25
100
AcDbEllipse
 10
111.390445838
 20
48.7440915312
 30
0.0
 11
-0.08368089225510289
 21
0.0
 31
0.0
210
0.0
220
0.0
230
1.0
 40
0.9531667975
 41
5.940161364898525
 42
7.853981633974483
  0
LINE
  5
109
330
1F
100
AcDbEntity
  8
0
  6
Continuous
 62
     7
370
    25
100
AcDbLine
 10
111.6113009006
 20
49.5706733455
 30
0.0
 11
111.3116400346
 21
48.770918344
 31
0.0
  0
ELLIPSE
  5
10A
330
1F
100
AcDbEntity
  8
0
  6
Continuous
 62
     7
370
    25
100
AcDbEllipse
 10
111.9897675665
 20
48.7440915312
 30
0.0
 11
0.08368089225508868
 21
0.0
 31
0.0
210
0.0
220
0.0
230
1.0
 40
0.9531667975
 41
4.712388980384703
 42
6.626209245739267
  0
SPLINE
  5
10B
330
1F
100
AcDbEntity
  8
0
  6
Continuous
 62
     7
370
    25
100
AcDbSpline
210
0.0
220
0.0
230
1.0
 70
     8
 71
     3
 72
     8
 73
     4
 74
     0
 42
0.00000001
 43
0.00000001
 40
0.0
 40
0.0
 40
0.0
 40
0.0
 40
0.0000524698222113
 40
0.0000524698222113
 40
0.0000524698222113
 40
0.0000524698222113
 10
105.4481873929111
 20
54.47995597650994
 30
0.0
 10
105.4654937047657
 20
54.47769376558561
 30
0.0
 10
105.4829895290063
 20
54.47655301882246
 30
0.0
 10
105.5004529639786
 20
54.47655301882258
 30
0.0
  0
LINE
  5
10C
330
1F
100
AcDbEntity
  8
0
  6
Continuous
 62
     7
370
    25
100
AcDbLine
 10
105.500452964
 20
54.4765530188
 30
0.0
 11
105.500452964
 21
53.9765530188
 31
0.0
  0
LINE
  5
10D
330
1F
100
AcDbEntity
  8
0
  6
Continuous
 62
     7
370
    25
100
AcDbLine
 10
105.500452964
 20
54.4765530188
 30
0.0
 11
123.7032999229
 21
54.4765530188
 31
0.0
  0
SPLINE
  5
10E
330
1F
100
AcDbEntity
  8
0
  6
Continuous
 62
     7
370
    25
100
AcDbSpline
210
0.0
220
0.0
230
1.0
 70
     8
 71
     3
 72
    14
 73
    10
 74
     0
 42
0.00000001
 43
0.00000001
 40
0.0
 40
0.0
 40
0.0
 40
0.0
 40
0.11064147088684
 40
0.2239563677466561
 40
0.4666597346472056
 40
0.5947565812497213
 40
0.726555932925035
 40
0.8618634099899128
 40
1.0
 40
1.0
 40
1.0
 40
1.0
 10
105.1934952365872
 20
44.36600054566465
 30
0.0
 10
105.1848128387007
 20
44.35577596742819
 30
0.0
 10
105.1672382504527
 20
44.33507975483064
 30
0.0
 10
105.1400025614908
 20
44.28931273548929
 30
0.0
 10
105.1219201922087
 20
44.24118052012212
 30
0.0
 10
105.1108851476303
 20
44.19239847408924
 30
0.0
 10
105.1053886344164
 20
44.15464019948329
 30
0.0
 10
105.1022469622545
 20
44.11649847838414
 30
0.0
 10
105.1019782135042
 20
44.0911214376858
 30
0.0
 10
105.101842448862
 20
44.07830163909183
 30
0.0
  0
LINE
  5
10F
330
1F
100
AcDbEntity
  8
0
  6
Continuous
 62
     7
370
    25
100
AcDbLine
 10
105.1018424489
 20
44.0783016391
 30
0.0
 11
104.8589832246
 21
43.9667936485
 31
0.0
  0
LINE
  5
110
330
1F
100
AcDbEntity
  8
0
  6
Continuous
 62
     7
370
    25
100
AcDbLine
 10
104.8589832246
 20
54.9863123891
 30
0.0
 11
105.1018424489
 21
54.8748043986
 31
0.0
  0
SPLINE
  5
111
330
1F
100
AcDbEntity
  8
0
  6
Continuous
 62
     7
370
    25
100
AcDbSpline
210
0.0
220
0.0
230
1.0
 70
     8
 71
     3
 72
    14
 73
    10
 74
     0
 42
0.00000001
 43
0.00000001
 40
0.0
 40
0.0
 40
0.0
 40
0.0
 40
0.1377327108983413
 40
0.2725942884998932
 40
0.4041400602171393
 40
0.5321680644070492
 40
0.7754693061725265
 40
0.8890599100113705
 40
0.9999999999999999
 40
0.9999999999999999
 40
0.9999999999999999
 40
0.9999999999999999
 10
105.1018424488621
 20
54.87480439855517
 30
0.0
 10
105.1019772823122
 20
54.86202205806568
 30
0.0
 10
105.1022441385161
 20
54.83672383378498
 30
0.0
 10
105.1053659607613
 20
54.79868943540347
 30
0.0
 10
105.1108322247202
 20
54.76100686325834
 30
0.0
 10
105.1218320814311
 20
54.71220791026803
 30
0.0
 10
105.1398997540151
 20
54.66399576111589
 30
0.0
 10
105.1671732035103
 20
54.61810934449109
 30
0.0
 10
105.1847905479552
 20
54.59735845692839
 30
0.0
 10
105.1934952365872
 20
54.58710549198045
 30
0.0
  0
SPLINE
  5
112
330
1F
100
AcDbEntity
  8
0
  6
Continuous
 62
     7
370
    25
100
AcDbSpline
210
0.0
220
0.0
230
1.0
 70
     8
 71
     3
 72
    14
 73
    10
 74
     0
 42
0.00000001
 43
0.00000001
 40
0.0
 40
0.0
 40
0.0
 40
0.0
 40
0.1106414710656435
 40
0.2239563677554478
 40
0.4666597346536896
 40
0.5947565812547271
 40
0.726555932928469
 40
0.8618634099916662
 40
1.0
 40
1.0
 40
1.0
 40
1.0
 10
124.0102576502486
 20
54.58710549198045
 30
0.0
 10
124.018940048147
 20
54.59733007023289
 30
0.0
 10
124.0365146363914
 20
54.61802628283013
 30
0.0
 10
124.0637503253554
 20
54.66379330217745
 30
0.0
 10
124.0818326946274
 20
54.71192551752493
 30
0.0
 10
124.0928677392059
 20
54.76070756355756
 30
0.0
 10
124.0983642524196
 20
54.79846583816288
 30
0.0
 10
124.1015059245814
 20
54.83660755926151
 30
0.0
 10
124.1017746733316
 20
54.86198459995948
 30
0.0
 10
124.1019104379738
 20
54.87480439855327
 30
0.0
  0
LINE
  5
113
330
1F
100
AcDbEntity
  8
0
  6
Continuous
 62
     7
370
    25
100
AcDbLine
 10
124.101910438
 20
54.8748043986
 30
0.0
 11
124.3447696622
 21
54.9863123891
 31
0.0
  0
LINE
  5
114
330
1F
100
AcDbEntity
  8
0
  6
Continuous
 62
     7
370
    25
100
AcDbLine
 10
124.3447696622
 20
43.9667936485
 30
0.0
 11
124.101910438
 21
44.0783016391
 31
0.0
  0
SPLINE
  5
115
330
1F
100
AcDbEntity
  8
0
  6
Continuous
 62
     7
370
    25
100
AcDbSpline
210
0.0
220
0.0
230
1.0
 70
     8
 71
     3
 72
    14
 73
    10
 74
     0
 42
0.00000001
 43
0.00000001
 40
0.0
 40
0.0
 40
0.0
 40
0.0
 40
0.1377327108985503
 40
0.2725942885000418
 40
0.4041400602172888
 40
0.5321680644071739
 40
0.7754693061726297
 40
0.8890599100180714
 40
1.0
 40
1.0
 40
1.0
 40
1.0
 10
124.1019104379738
 20
44.07830163908996
 30
0.0
 10
124.1017756045237
 20
44.09108397957949
 30
0.0
 10
124.1015087483198
 20
44.11638220386026
 30
0.0
 10
124.0983869260746
 20
44.15441660224172
 30
0.0
 10
124.0929206621156
 20
44.19209917438686
 30
0.0
 10
124.0819208054047
 20
44.24089812737714
 30
0.0
 10
124.0638531328206
 20
44.28911027652979
 30
0.0
 10
124.0365796833248
 20
44.33499669315486
 30
0.0
 10
124.01896233888
 20
44.3557475807174
 30
0.0
 10
124.0102576502486
 20
44.36600054566465
 30
0.0
  0
ARC
  5
116
330
1F
100
AcDbEntity
  8
0
  6
Continuous
 62
     7
370
    25
100
AcDbCircle
 10
105.5018764434
 20
54.8765530188
 30
0.0
 40
0.4000000000000057
100
AcDbArc
 50
180.0
 51
270.0
  0
SPLINE
  5
117
330
1F
100
AcDbEntity
  8
0
  6
Continuous
 62
     7
370
    25
100
AcDbSpline
210
0.0
220
0.0
230
1.0
 70
    24
 71
     3
 72
     8
 73
     4
 74
     0
 42
0.00000001
 43
0.00000001
 40
0.0
 40
0.0
 40
0.0
 40
0.0
 40
1.0
 40
1.0
 40
1.0
 40
1.0
 10
105.5018764434179
 20
54.47655301882258
 30
0.0
 10
105.5018764434179
 20
54.47655301882258
 30
0.0
 10
105.5013996640253
 20
54.47655301882258
 30
0.0
 10
105.5004529639761
 20
54.47655301882258
 30
0.0
  0
SPLINE
  5
118
330
1F
100
AcDbEntity
  8
0
  6
Continuous
 62
     7
370
    25
100
AcDbSpline
210
0.0
220
0.0
230
1.0
 70
     8
 71
     3
 72
     8
 73
     4
 74
     0
 42
0.00000001
 43
0.00000001
 40
0.0
 40
0.0
 40
0.0
 40
0.0
 40
1.0
 40
1.0
 40
1.0
 40
1.0
 10
105.1018424488619
 20
54.87480439855016
 30
0.0
 10
105.1018651064728
 20
54.87538657670449
 30
0.0
 10
105.1018764434179
 20
54.87596944948555
 30
0.0
 10
105.1018764434179
 20
54.87655301882258
 30
0.0
  0
ARC
  5
119
330
1F
100
AcDbEntity
  8
0
  6
Continuous
 62
     7
370
    25
100
AcDbCircle
 10
123.7018764434
 20
44.0765530188
 30
0.0
 40
0.3999999999999986
100
AcDbArc
 50
0.0
 51
90.0
  0
SPLINE
  5
11A
330
1F
100
AcDbEntity
  8
0
  6
Continuous
 62
     7
370
    25
100
AcDbSpline
210
0.0
220
0.0
230
1.0
 70
    24
 71
     3
 72
     8
 73
     4
 74
     0
 42
0.00000001
 43
0.00000001
 40
0.0
 40
0.0
 40
0.0
 40
0.0
 40
1.0
 40
1.0
 40
1.0
 40
1.0
 10
123.7018764434179
 20
44.47655301882251
 30
0.0
 10
123.7018764434179
 20
44.47655301882251
 30
0.0
 10
123.7023532228106
 20
44.47655301882251
 30
0.0
 10
123.7032999228598
 20
44.47655301882251
 30
0.0
  0
SPLINE
  5
11B
330
1F
100
AcDbEntity
  8
0
  6
Continuous
 62
     7
370
    25
100
AcDbSpline
210
0.0
220
0.0
230
1.0
 70
     8
 71
     3
 72
     8
 73
     4
 74
     0
 42
0.00000001
 43
0.00000001
 40
0.0
 40
0.0
 40
0.0
 40
0.0
 40
1.0
 40
1.0
 40
1.0
 40
1.0
 10
124.1019104379738
 20
44.07830163909179
 30
0.0
 10
124.101887780363
 20
44.07771946093851
 30
0.0
 10
124.1018764434179
 20
44.07713658815851
 30
0.0
 10
124.1018764434179
 20
44.07655301882252
 30
0.0
  0
SPLINE
  5
11C
330
1F
100
AcDbEntity
  8
0
  6
Continuous
 62
     7
370
    25
100
AcDbSpline
210
0.0
220
0.0
230
1.0
 70
    24
 71
     3
 72
     8
 73
     4
 74
     0
 42
0.00000001
 43
0.00000001
 40
0.0
 40
0.0
 40
0.0
 40
0.0
 40
1.0
 40
1.0
 40
1.0
 40
1.0
 10
105.5004529639765
 20
44.47655301882251
 30
0.0
 10
105.5013996640254
 20
44.47655301882251
 30
0.0
 10
105.5018764434179
 20
44.47655301882251
 30
0.0
 10
105.5018764434179
 20
44.47655301882251
 30
0.0
  0
ARC
  5
11D
330
1F
100
AcDbEntity
  8
0
  6
Continuous
 62
     7
370
    25
100
AcDbCircle
 10
105.5018764434
 20
44.0765530188
 30
0.0
 40
0.4000000000000057
100
AcDbArc
 50
90.0
 51
180.0
  0
SPLINE
  5
11E
330
1F
100
AcDbEntity
  8
0
  6
Continuous
 62
     7
370
    25
100
AcDbSpline
210
0.0
220
0.0
230
1.0
 70
     8
 71
     3
 72
     8
 73
     4
 74
     0
 42
0.00000001
 43
0.00000001
 40
0.0
 40
0.0
 40
0.0
 40
0.0
 40
1.0
 40
1.0
 40
1.0
 40
1.0
 10
105.1018764434179
 20
44.07655301882252
 30
0.0
 10
105.1018764434179
 20
44.07713658815835
 30
0.0
 10
105.1018651064729
 20
44.0777194609382
 30
0.0
 10
105.101842448862
 20
44.07830163909132
 30
0.0
  0
SPLINE
  5
11F
330
1F
100
AcDbEntity
  8
0
  6
Continuous
 62
     7
370
    25
100
AcDbSpline
210
0.0
220
0.0
230
1.0
 70
    24
 71
     3
 72
     8
 73
     4
 74
     0
 42
0.00000001
 43
0.00000001
 40
0.0
 40
0.0
 40
0.0
 40
0.0
 40
1.0
 40
1.0
 40
1.0
 40
1.0
 10
123.7032999228593
 20
54.47655301882258
 30
0.0
 10
123.7023532228104
 20
54.47655301882258
 30
0.0
 10
123.7018764434179
 20
54.47655301882258
 30
0.0
 10
123.7018764434179
 20
54.47655301882258
 30
0.0
  0
ARC
  5
120
330
1F
100
AcDbEntity
  8
0
  6
Continuous
 62
     7
370
    25
100
AcDbCircle
 10
123.7018764434
 20
54.8765530188
 30
0.0
 40
0.3999999999999986
100
AcDbArc
 50
270.0
 51
0.0
  0
SPLINE
  5
121
330
1F
100
AcDbEntity
  8
0
  6
Continuous
 62
     7
370
    25
100
AcDbSpline
210
0.0
220
0.0
230
1.0
 70
     8
 71
     3
 72
     8
 73
     4
 74
     0
 42
0.00000001
 43
0.00000001
 40
0.0
 40
0.0
 40
0.0
 40
0.0
 40
1.0
 40
1.0
 40
1.0
 40
1.0
 10
124.1018764434179
 20
54.87655301882258
 30
0.0
 10
124.1018764434179
 20
54.87596944948659
 30
0.0
 10
124.101887780363
 20
54.87538657670658
 30
0.0
 10
124.1019104379738
 20
54.8748043985533
 30
0.0
  0
LINE
  5
122
330
1F
100
AcDbEntity
  8
0
  6
Continuous
 62
     7
370
    25
100
AcDbLine
 10
124.101910438
 20
54.8748043986
 30
0.0
 11
124.101910438
 21
61.2336937946
 31
0.0
  0
LINE
  5
123
330
1F
100
AcDbEntity
  8
0
  6
Continuous
 62
     7
370
    25
100
AcDbLine
 10
105.1018424489
 20
44.0783016391
 30
0.0
 11
105.1018424487
 21
37.7194122431
 31
0.0
  0
LINE
  5
124
330
1F
100
AcDbEntity
  8
0
  6
Continuous
 62
     7
370
    25
100
AcDbLine
 10
105.1018424493
 20
61.2336937946
 30
0.0
 11
105.1018424489
 21
54.8748043986
 31
0.0
  0
LINE
  5
125
330
1F
100
AcDbEntity
  8
0
  6
Continuous
 62
     7
370
    25
100
AcDbLine
 10
124.1019104382
 20
37.7194122431
 30
0.0
 11
124.101910438
 21
44.0783016391
 31
0.0
  0
LINE
  5
126
330
1F
100
AcDbEntity
  8
0
  6
Continuous
 62
     7
370
    25
100
AcDbLine
 10
105.1018764434
 20
61.2265530188
 30
0.0
 11
105.1018764434
 21
54.8765530188
 31
0.0
  0
LINE
  5
127
330
1F
100
AcDbEntity
  8
0
  6
Continuous
 62
     7
370
    25
100
AcDbLine
 10
124.1018764434
 20
37.7265530188
 30
0.0
 11
124.1018764434
 21
44.0765530188
 31
0.0
  0
LINE
  5
128
330
1F
100
AcDbEntity
  8
0
  6
Continuous
 62
     7
370
    25
100
AcDbLine
 10
124.1018764434
 20
54.8765530188
 30
0.0
 11
124.1018764434
 21
61.2265530188
 31
0.0
  0
LINE
  5
129
330
1F
100
AcDbEntity
  8
0
  6
Continuous
 62
     7
370
    25
100
AcDbLine
 10
105.1018764434
 20
44.0765530188
 30
0.0
 11
105.1018764434
 21
37.7265530188
 31
0.0
  0
LINE
  5
12A
330
1F
100
AcDbEntity
  8
0
  6
Continuous
 62
     7
370
    25
100
AcDbLine
 10
123.7018764434
 20
54.4765530188
 30
0.0
 11
123.7018764434
 21
54.737422584
 31
0.0
  0
LWPOLYLINE
  5
12B
330
1F
100
AcDbEntity
  8
0
  6
Continuous
 62
     7
370
    25
100
AcDbPolyline
 90
        9
 70
   128
 43
0.0
 10
123.7018764434
 20
54.737422584
 10
123.7799125722
 20
54.7410984434
 10
123.8549498164
 20
54.7519847604
 10
123.9241045366
 20
54.7696631799
 10
123.9847191559
 20
54.7934543302
 10
124.0344642883
 20
54.8224439308
 10
124.0714282564
 20
54.8555179274
 10
124.0941905556
 20
54.891405305
 10
124.1018764434
 20
54.9287269319
  0
LINE
  5
12C
330
1F
100
AcDbEntity
  8
0
  6
Continuous
 62
     7
370
    25
100
AcDbLine
 10
105.5018764434
 20
54.4765530188
 30
0.0
 11
105.5018764434
 21
54.737422584
 31
0.0
  0
LINE
  5
12D
330
1F
100
AcDbEntity
  8
0
  6
Continuous
 62
     7
370
    25
100
AcDbLine
 10
105.5018764434
 20
54.737422584
 30
0.0
 11
123.7018764434
 21
54.737422584
 31
0.0
  0
LWPOLYLINE
  5
12E
330
1F
100
AcDbEntity
  8
0
  6
Continuous
 62
     7
370
    25
100
AcDbPolyline
 90
        9
 70
   128
 43
0.0
 10
105.1018764434
 20
54.9287269319
 10
105.1095623313
 20
54.891405305
 10
105.1323246304
 20
54.8555179274
 10
105.1692885985
 20
54.8224439308
 10
105.2190337309
 20
54.7934543302
 10
105.2796483502
 20
54.7696631799
 10
105.3488030705
 20
54.7519847604
 10
105.4238403146
 20
54.7410984434
 10
105.5018764434
 20
54.737422584
  0
LINE
  5
12F
330
1F
100
AcDbEntity
  8
0
  6
Continuous
 62
     7
370
    25
100
AcDbLine
 10
105.5018764434
 20
44.2156834536
 30
0.0
 11
105.5018764434
 21
44.4765530188
 31
0.0
  0
LWPOLYLINE
  5
130
330
1F
100
AcDbEntity
  8
0
  6
Continuous
 62
     7
370
    25
100
AcDbPolyline
 90
        9
 70
   128
 43
0.0
 10
105.5018764434
 20
44.2156834536
 10
105.4238403146
 20
44.2120075942
 10
105.3488030705
 20
44.2011212772
 10
105.2796483502
 20
44.1834428577
 10
105.2190337309
 20
44.1596517074
 10
105.1692885985
 20
44.1306621069
 10
105.1323246304
 20
44.0975881102
 10
105.1095623313
 20
44.0617007326
 10
105.1018764434
 20
44.0243791058
  0
LWPOLYLINE
  5
131
330
1F
100
AcDbEntity
  8
0
  6
Continuous
 62
     7
370
    25
100
AcDbPolyline
 90
        9
 70
   128
 43
0.0
 10
124.1018764434
 20
44.0243791058
 10
124.0941905556
 20
44.0617007326
 10
124.0714282564
 20
44.0975881102
 10
124.0344642883
 20
44.1306621069
 10
123.9847191559
 20
44.1596517074
 10
123.9241045366
 20
44.1834428577
 10
123.8549498164
 20
44.2011212772
 10
123.7799125722
 20
44.2120075942
 10
123.7018764434
 20
44.2156834536
  0
LINE
  5
132
330
1F
100
AcDbEntity
  8
0
  6
Continuous
 62
     7
370
    25
100
AcDbLine
 10
123.7018764434
 20
44.2156834536
 30
0.0
 11
123.7018764434
 21
44.4765530188
 31
0.0
  0
LINE
  5
133
330
1F
100
AcDbEntity
  8
0
  6
Continuous
 62
     7
370
    25
100
AcDbLine
 10
123.7018764434
 20
44.2156834536
 30
0.0
 11
105.5018764434
 21
44.2156834536
 31
0.0
  0
LINE
  5
134
330
1F
100
AcDbEntity
  8
0
  6
Continuous
 62
     7
370
    25
100
AcDbLine
 10
108.2263849355
 20
60.4635238016
 30
0.0
 11
108.2263167512
 21
60.4635600019
 31
0.0
  0
LINE
  5
135
330
1F
100
AcDbEntity
  8
0
  6
Continuous
 62
     7
370
    25
100
AcDbLine
 10
138.8201756222
 20
49.4765530188
 30
0.0
 11
138.8201756222
 21
41.2648748682
 31
0.0
  0
LINE
  5
136
330
1F
100
AcDbEntity
  8
0
  6
Continuous
 62
     7
370
    25
100
AcDbLine
 10
138.8201756222
 20
57.6882311695
 30
0.0
 11
138.8201756222
 21
49.4765530188
 31
0.0
  0
LINE
  5
137
330
1F
100
AcDbEntity
  8
0
  6
Continuous
 62
     7
370
    25
100
AcDbLine
 10
141.3518764434
 20
56.2265530188
 30
0.0
 11
141.3518764434
 21
42.7265530188
 31
0.0
  0
LINE
  5
138
330
1F
100
AcDbEntity
  8
0
  6
Continuous
 62
     7
370
    25
100
AcDbLine
 10
108.7244073429
 20
60.9629694158
 30
0.0
 11
108.7244394054
 21
60.9629501113
 31
0.0
  0
SPLINE
  5
139
330
1F
100
AcDbEntity
  8
0
  6
Continuous
 62
     7
370
    25
100
AcDbSpline
210
0.0
220
0.0
230
1.0
 70
    11
 71
     3
 72
    26
 73
    22
 74
     0
 42
0.00000001
 43
0.00000001
 40
0.0
 40
0.0
 40
0.0
 40
0.0
 40
0.1249999999999999
 40
0.1249999999999999
 40
0.1874999999999999
 40
0.1874999999999999
 40
0.2499999999999999
 40
0.2499999999999999
 40
0.3124999999999999
 40
0.3124999999999999
 40
0.3749999999999999
 40
0.3749999999999999
 40
0.4999999999999999
 40
0.4999999999999999
 40
0.6249999999999999
 40
0.6249999999999999
 40
0.7499999999999999
 40
0.7499999999999999
 40
0.8749999999999999
 40
0.8749999999999999
 40
1.0
 40
1.0
 40
1.0
 40
1.0
 10
115.1151954122663
 20
60.47655301882259
 30
0.0
 10
115.1151954122663
 20
60.6156720500514
 30
0.0
 10
115.0623994411173
 20
60.75139975302689
 30
0.0
 10
114.92094385124
 20
60.90441848952266
 30
0.0
 10
114.8643899148682
 20
60.9459213905432
 30
0.0
 10
114.7388457634247
 20
61.00312128433686
 30
0.0
 10
114.6696941503167
 20
61.0184052730812
 30
0.0
 10
114.5325357755733
 20
61.01818439931756
 30
0.0
 10
114.4634211927671
 20
61.0026243380299
 30
0.0
 10
114.338661424136
 20
60.9454185035359
 30
0.0
 10
114.2820303358016
 20
60.90366707626894
 30
0.0
 10
114.1419167092787
 20
60.7518262079855
 30
0.0
 10
114.088596175332
 20
60.61577388071763
 30
0.0
 10
114.0885188167559
 20
60.33764118701428
 30
0.0
 10
114.1422071987776
 20
60.20083917699429
 30
0.0
 10
114.3289020130853
 20
59.99877037332923
 30
0.0
 10
114.4647832224489
 20
59.93460061364368
 30
0.0
 10
114.7404143564873
 20
59.9350216664447
 30
0.0
 10
114.875389394901
 20
59.999290348868
 30
0.0
 10
115.061236871967
 20
60.20056790009213
 30
0.0
 10
115.1151954122663
 20
60.33743398759376
 30
0.0
 10
115.1151954122663
 20
60.47655301882259
 30
0.0
  0
SPLINE
  5
13A
330
1F
100
AcDbEntity
  8
0
  6
Continuous
 62
     7
370
    25
100
AcDbSpline
210
0.0
220
0.0
230
1.0
 70
    11
 71
     3
 72
    38
 73
    34
 74
     0
 42
0.00000001
 43
0.00000001
 40
0.0
 40
0.0
 40
0.0
 40
0.0
 40
0.0625
 40
0.0625
 40
0.125
 40
0.125
 40
0.1875
 40
0.1875
 40
0.25
 40
0.25
 40
0.3125
 40
0.3125
 40
0.375
 40
0.375
 40
0.4375
 40
0.4375
 40
0.5
 40
0.5
 40
0.5625
 40
0.5625
 40
0.625
 40
0.625
 40
0.6875
 40
0.6875
 40
0.75
 40
0.75
 40
0.8125
 40
0.8125
 40
0.875
 40
0.875
 40
0.9375
 40
0.9375
 40
1.0
 40
1.0
 40
1.0
 40
1.0
 10
113.6018764434179
 20
60.47655301882258
 30
0.0
 10
113.6018764434179
 20
60.34416710391227
 30
0.0
 10
113.6280249945608
 20
60.21427977743357
 30
0.0
 10
113.7284906640186
 20
59.97220078284769
 30
0.0
 10
113.8027755304151
 20
59.86141942879167
 30
0.0
 10
113.9869247101499
 20
59.67731214868591
 30
0.0
 10
114.0983003327441
 20
59.60284347738992
 30
0.0
 10
114.338848837278
 20
59.50301630126123
 30
0.0
 10
114.4706067332654
 20
59.47662838118791
 30
0.0
 10
114.7319954254293
 20
59.47647798750108
 30
0.0
 10
114.8631674960209
 20
59.50241780791114
 30
0.0
 10
115.1056051820207
 20
59.60278544033641
 30
0.0
 10
115.2156593501703
 20
59.67617434348164
 30
0.0
 10
115.4019126675811
 20
59.86232381031117
 30
0.0
 10
115.4753389954743
 20
59.97236232771118
 30
0.0
 10
115.5757037431032
 20
60.21424504479985
 30
0.0
 10
115.6018250073994
 20
60.34551956331117
 30
0.0
 10
115.6019277248846
 20
60.60680021268369
 30
0.0
 10
115.5756840967909
 20
60.7386156161966
 30
0.0
 10
115.4760157399928
 20
60.97940353427808
 30
0.0
 10
115.4017349480242
 20
61.09073573567608
 30
0.0
 10
115.2175482075906
 20
61.27526593087109
 30
0.0
 10
115.1071246335281
 20
61.34945226014486
 30
0.0
 10
114.8647399182881
 20
61.45027351911502
 30
0.0
 10
114.7348157387217
 20
61.47644774842005
 30
0.0
 10
114.4705256292048
 20
61.47665765840696
 30
0.0
 10
114.3402918705428
 20
61.45056993604378
 30
0.0
 10
114.0983991993721
 20
61.35042149206519
 30
0.0
 10
113.9873832739654
 20
61.27613519690002
 30
0.0
 10
113.8032155379854
 20
61.09224309746325
 30
0.0
 10
113.7286168664833
 20
60.98091294690921
 30
0.0
 10
113.6285660529382
 20
60.7404244071006
 30
0.0
 10
113.6018764434179
 20
60.60893893373289
 30
0.0
 10
113.6018764434179
 20
60.47655301882258
 30
0.0
  0
LINE
  5
13B
330
1F
100
AcDbEntity
  8
0
  6
Continuous
 62
     7
370
    25
100
AcDbLine
 10
109.3627911108
 20
78.5765530188
 30
0.0
 11
109.3627911108
 21
77.9765530188
 31
0.0
  0
LINE
  5
13C
330
1F
100
AcDbEntity
  8
0
  6
Continuous
 62
     7
370
    25
100
AcDbLine
 10
119.8409617761
 20
78.5765530188
 30
0.0
 11
109.3627911108
 21
78.5765530188
 31
0.0
  0
LINE
  5
13D
330
1F
100
AcDbEntity
  8
0
  6
Continuous
 62
     7
370
    25
100
AcDbLine
 10
119.8409617761
 20
77.9765530188
 30
0.0
 11
119.8409617761
 21
78.5765530188
 31
0.0
  0
LINE
  5
13E
330
1F
100
AcDbEntity
  8
0
  6
Continuous
 62
     7
370
    25
100
AcDbLine
 10
109.3627911108
 20
77.9765530188
 30
0.0
 11
119.8409617761
 21
77.9765530188
 31
0.0
  0
SPLINE
  5
13F
330
1F
100
AcDbEntity
  8
0
  6
Continuous
 62
     7
370
    25
100
AcDbSpline
210
0.0
220
0.0
230
1.0
 70
     8
 71
     3
 72
    15
 73
    11
 74
     0
 42
0.00000001
 43
0.00000001
 40
0.0
 40
0.0
 40
0.0
 40
0.0
 40
0.0081667445812695
 40
0.3321939991490083
 40
0.4756279600585602
 40
0.6866830973284895
 40
0.845743550226481
 40
0.8967566214763185
 40
0.9909540928118028
 40
1.0
 40
1.0
 40
1.0
 40
1.0
 10
109.5028569298251
 20
78.82655301882258
 30
0.0
 10
109.5023693956823
 20
78.8265503424768
 30
0.0
 10
109.4825382481502
 20
78.82644147828998
 30
0.0
 10
109.4542574681409
 20
78.81689546602057
 30
0.0
 10
109.4164281696521
 20
78.77953308276602
 30
0.0
 10
109.3898442730846
 20
78.73466756803136
 30
0.0
 10
109.3726744493296
 20
78.67679126845444
 30
0.0
 10
109.3648574531132
 20
78.6261152284825
 30
0.0
 10
109.3628617666773
 20
78.59742094896251
 30
0.0
 10
109.3627968027265
 20
78.57823411740699
 30
0.0
 10
109.3627911107598
 20
78.5765530188226
 30
0.0
  0
LINE
  5
140
330
1F
100
AcDbEntity
  8
0
  6
Continuous
 62
     7
370
    25
100
AcDbLine
 10
109.5028569298
 20
78.8265530188
 30
0.0
 11
119.700895957
 21
78.8265530188
 31
0.0
  0
SPLINE
  5
141
330
1F
100
AcDbEntity
  8
0
  6
Continuous
 62
     7
370
    25
100
AcDbSpline
210
0.0
220
0.0
230
1.0
 70
     8
 71
     3
 72
    15
 73
    11
 74
     0
 42
0.00000001
 43
0.00000001
 40
0.0
 40
0.0
 40
0.0
 40
0.0
 40
0.0090459071881971
 40
0.1032433785236874
 40
0.1542564497735246
 40
0.3133169026715107
 40
0.5243720399414428
 40
0.6678060008509905
 40
0.9918332554187292
 40
1.0
 40
1.0
 40
1.0
 40
1.0
 10
119.840961776076
 20
78.57655301882258
 30
0.0
 10
119.8409560841094
 20
78.57823411740699
 30
0.0
 10
119.8408911201586
 20
78.59742094896252
 30
0.0
 10
119.8388954337227
 20
78.6261152284825
 30
0.0
 10
119.8310784375062
 20
78.67679126845444
 30
0.0
 10
119.8139086137513
 20
78.73466756803136
 30
0.0
 10
119.7873247171838
 20
78.77953308276602
 30
0.0
 10
119.7494954186949
 20
78.81689546602054
 30
0.0
 10
119.7212146386857
 20
78.8264414782902
 30
0.0
 10
119.7013834911536
 20
78.8265503424768
 30
0.0
 10
119.7008959570107
 20
78.82655301882258
 30
0.0
  0
LINE
  5
142
330
1F
100
AcDbEntity
  8
0
  6
Continuous
 62
     7
370
    25
100
AcDbLine
 10
119.8409617761
 20
78.5765530188
 30
0.0
 11
120.0791020185
 21
78.5765530188
 31
0.0
  0
SPLINE
  5
143
330
1F
100
AcDbEntity
  8
0
  6
Continuous
 62
     7
370
    25
100
AcDbSpline
210
0.0
220
0.0
230
1.0
 70
     8
 71
     3
 72
    15
 73
    11
 74
     0
 42
0.00000001
 43
0.00000001
 40
0.0
 40
0.0
 40
0.0
 40
0.0
 40
0.0080847466189818
 40
0.3310106400647573
 40
0.4750333064304968
 40
0.6874363079215134
 40
0.8468367539418253
 40
0.9000996640391794
 40
0.9910442771984082
 40
1.0
 40
1.0
 40
1.0
 40
1.0
 10
119.7008959570107
 20
78.82655301882258
 30
0.0
 10
119.7021757885549
 20
78.8265503424129
 30
0.0
 10
119.7545754342786
 20
78.82644076321105
 30
0.0
 10
119.8299305257331
 20
78.81676160837357
 30
0.0
 10
119.9318496377509
 20
78.77947978491179
 30
0.0
 10
120.0042405827428
 20
78.73477191172839
 30
0.0
 10
120.0519460110076
 20
78.67663626159575
 30
0.0
 10
120.0734814947149
 20
78.62574918812741
 30
0.0
 10
120.0789105107344
 20
78.59698695901997
 30
0.0
 10
120.079086262891
 20
78.5782341443955
 30
0.0
 10
120.0791020184696
 20
78.57655301882258
 30
0.0
  0
LINE
  5
144
330
1F
100
AcDbEntity
  8
0
  6
Continuous
 62
     7
370
    25
100
AcDbLine
 10
109.1246508684
 20
78.5765530188
 30
0.0
 11
109.3627911108
 21
78.5765530188
 31
0.0
  0
SPLINE
  5
145
330
1F
100
AcDbEntity
  8
0
  6
Continuous
 62
     7
370
    25
100
AcDbSpline
210
0.0
220
0.0
230
1.0
 70
     8
 71
     3
 72
    15
 73
    11
 74
     0
 42
0.00000001
 43
0.00000001
 40
0.0
 40
0.0
 40
0.0
 40
0.0
 40
0.0089557228015919
 40
0.0999003359608148
 40
0.153163246058169
 40
0.3125636920784846
 40
0.5249666935694994
 40
0.6689893599352458
 40
0.9919152533810159
 40
1.0
 40
1.0
 40
1.0
 40
1.0
 10
109.1246508683663
 20
78.57655301882258
 30
0.0
 10
109.1246666239449
 20
78.5782341443955
 30
0.0
 10
109.1248423761014
 20
78.59698695901994
 30
0.0
 10
109.1302713921209
 20
78.62574918812741
 30
0.0
 10
109.1518068758283
 20
78.67663626159575
 30
0.0
 10
109.1995123040931
 20
78.73477191172839
 30
0.0
 10
109.271903249085
 20
78.7794797849118
 30
0.0
 10
109.3738223611028
 20
78.81676160837357
 30
0.0
 10
109.4491774525573
 20
78.82644076321111
 30
0.0
 10
109.501577098281
 20
78.8265503424129
 30
0.0
 10
109.5028569298251
 20
78.82655301882258
 30
0.0
  0
LINE
  5
146
330
1F
100
AcDbEntity
  8
0
  6
Continuous
 62
     7
370
    25
100
AcDbLine
 10
120.0791020185
 20
78.5765530188
 30
0.0
 11
120.0791020185
 21
77.9765530188
 31
0.0
  0
LINE
  5
147
330
1F
100
AcDbEntity
  8
0
  6
Continuous
 62
     7
370
    25
100
AcDbLine
 10
120.0791020185
 20
77.9765530188
 30
0.0
 11
119.8409617761
 21
77.9765530188
 31
0.0
  0
LINE
  5
148
330
1F
100
AcDbEntity
  8
0
  6
Continuous
 62
     7
370
    25
100
AcDbLine
 10
109.1246508684
 20
77.9765530188
 30
0.0
 11
109.1246508684
 21
78.5765530188
 31
0.0
  0
LINE
  5
149
330
1F
100
AcDbEntity
  8
0
  6
Continuous
 62
     7
370
    25
100
AcDbLine
 10
109.3627911108
 20
77.9765530188
 30
0.0
 11
109.1246508684
 21
77.9765530188
 31
0.0
  0
LINE
  5
14A
330
1F
100
AcDbEntity
  8
0
  6
Continuous
 62
     7
370
    25
100
AcDbLine
 10
120.3518764434
 20
78.5765530188
 30
0.0
 11
120.3518764434
 21
78.8265530188
 31
0.0
  0
ARC
  5
14B
330
1F
100
AcDbEntity
  8
0
  6
Continuous
 62
     7
370
    25
100
AcDbCircle
 10
120.3518764434
 20
78.5765530188
 30
0.0
 40
0.25
100
AcDbArc
 50
0.0
 51
90.0
  0
LINE
  5
14C
330
1F
100
AcDbEntity
  8
0
  6
Continuous
 62
     7
370
    25
100
AcDbLine
 10
120.3518764434
 20
78.5765530188
 30
0.0
 11
120.6018764434
 21
78.5765530188
 31
0.0
  0
LINE
  5
14D
330
1F
100
AcDbEntity
  8
0
  6
Continuous
 62
     7
370
    25
100
AcDbLine
 10
120.3518764434
 20
77.9765530188
 30
0.0
 11
120.3518764434
 21
78.5765530188
 31
0.0
  0
LINE
  5
14E
330
1F
100
AcDbEntity
  8
0
  6
Continuous
 62
     7
370
    25
100
AcDbLine
 10
120.6018764434
 20
78.5765530188
 30
0.0
 11
120.6018764434
 21
77.9765530188
 31
0.0
  0
LINE
  5
14F
330
1F
100
AcDbEntity
  8
0
  6
Continuous
 62
     7
370
    25
100
AcDbLine
 10
120.6018764434
 20
77.9765530188
 30
0.0
 11
120.3518764434
 21
77.9765530188
 31
0.0
  0
LINE
  5
150
330
1F
100
AcDbEntity
  8
0
  6
Continuous
 62
     7
370
    25
100
AcDbLine
 10
120.3518764434
 20
78.5765530188
 30
0.0
 11
120.0791020185
 21
78.5765530188
 31
0.0
  0
LINE
  5
151
330
1F
100
AcDbEntity
  8
0
  6
Continuous
 62
     7
370
    25
100
AcDbLine
 10
119.700895957
 20
78.8265530188
 30
0.0
 11
120.3518764434
 21
78.8265530188
 31
0.0
  0
LINE
  5
152
330
1F
100
AcDbEntity
  8
0
  6
Continuous
 62
     7
370
    25
100
AcDbLine
 10
120.3518764434
 20
77.9765530188
 30
0.0
 11
120.0791020185
 21
77.9765530188
 31
0.0
  0
LINE
  5
153
330
1F
100
AcDbEntity
  8
0
  6
Continuous
 62
     7
370
    25
100
AcDbLine
 10
108.8518764434
 20
78.8265530188
 30
0.0
 11
108.8518764434
 21
78.5765530188
 31
0.0
  0
LINE
  5
154
330
1F
100
AcDbEntity
  8
0
  6
Continuous
 62
     7
370
    25
100
AcDbLine
 10
109.1246508684
 20
78.5765530188
 30
0.0
 11
108.8518764434
 21
78.5765530188
 31
0.0
  0
LINE
  5
155
330
1F
100
AcDbEntity
  8
0
  6
Continuous
 62
     7
370
    25
100
AcDbLine
 10
108.8518764434
 20
78.8265530188
 30
0.0
 11
109.5028569298
 21
78.8265530188
 31
0.0
  0
LINE
  5
156
330
1F
100
AcDbEntity
  8
0
  6
Continuous
 62
     7
370
    25
100
AcDbLine
 10
108.8518764434
 20
78.5765530188
 30
0.0
 11
108.8518764434
 21
77.9765530188
 31
0.0
  0
LINE
  5
157
330
1F
100
AcDbEntity
  8
0
  6
Continuous
 62
     7
370
    25
100
AcDbLine
 10
109.1246508684
 20
77.9765530188
 30
0.0
 11
108.8518764434
 21
77.9765530188
 31
0.0
  0
LINE
  5
158
330
1F
100
AcDbEntity
  8
0
  6
Continuous
 62
     7
370
    25
100
AcDbLine
 10
108.6018764434
 20
78.5765530188
 30
0.0
 11
108.8518764434
 21
78.5765530188
 31
0.0
  0
ARC
  5
159
330
1F
100
AcDbEntity
  8
0
  6
Continuous
 62
     7
370
    25
100
AcDbCircle
 10
108.8518764434
 20
78.5765530188
 30
0.0
 40
0.25
100
AcDbArc
 50
90.0
 51
180.0
  0
LINE
  5
15A
330
1F
100
AcDbEntity
  8
0
  6
Continuous
 62
     7
370
    25
100
AcDbLine
 10
108.6018764434
 20
77.9765530188
 30
0.0
 11
108.6018764434
 21
78.5765530188
 31
0.0
  0
LINE
  5
15B
330
1F
100
AcDbEntity
  8
0
  6
Continuous
 62
     7
370
    25
100
AcDbLine
 10
108.8518764434
 20
77.9765530188
 30
0.0
 11
108.6018764434
 21
77.9765530188
 31
0.0
  0
LINE
  5
15C
330
1F
100
AcDbEntity
  8
0
  6
Continuous
 62
     7
370
    25
100
AcDbLine
 10
109.6018764434
 20
78.8365530188
 30
0.0
 11
119.6018764434
 21
78.8365530188
 31
0.0
  0
LINE
  5
15D
330
1F
100
AcDbEntity
  8
0
  6
Continuous
 62
     7
370
    25
100
AcDbLine
 10
119.6018764434
 20
78.8265530188
 30
0.0
 11
119.6018764434
 21
78.8365530188
 31
0.0
  0
LINE
  5
15E
330
1F
100
AcDbEntity
  8
0
  6
Continuous
 62
     7
370
    25
100
AcDbLine
 10
109.6018764434
 20
78.8265530188
 30
0.0
 11
109.6018764434
 21
78.8365530188
 31
0.0
  0
LINE
  5
15F
330
1F
100
AcDbEntity
  8
0
  6
Continuous
 62
     7
370
    25
100
AcDbLine
 10
110.1273295593
 20
69.9765530188
 30
0.0
 11
122.0518764434
 21
69.9765530188
 31
0.0
  0
SPLINE
  5
160
330
1F
100
AcDbEntity
  8
0
  6
Continuous
 62
     7
370
    25
100
AcDbSpline
210
0.0
220
0.0
230
1.0
 70
     8
 71
     3
 72
     9
 73
     5
 74
     0
 42
0.00000001
 43
0.00000001
 40
0.0
 40
0.0
 40
0.0
 40
0.0
 40
0.4978401817595092
 40
1.0
 40
1.0
 40
1.0
 40
1.0
 10
110.8875403150975
 20
70.97129659678951
 30
0.0
 10
110.7512184067269
 20
70.81478541409692
 30
0.0
 10
110.477391758406
 20
70.50040503977789
 30
0.0
 10
110.2443525073093
 20
70.15167249175164
 30
0.0
 10
110.1273295593357
 20
69.97655301882023
 30
0.0
  0
LINE
  5
161
330
1F
100
AcDbEntity
  8
0
  6
Continuous
 62
     7
370
    25
100
AcDbLine
 10
109.3780742691
 20
77.9765530188
 30
0.0
 11
107.6499356051
 21
70.9712965968
 31
0.0
  0
LINE
  5
162
330
1F
100
AcDbEntity
  8
0
  6
Continuous
 62
     7
370
    25
100
AcDbLine
 10
119.8409617761
 20
77.9765530188
 30
0.0
 11
109.3780742691
 21
77.9765530188
 31
0.0
  0
LINE
  5
163
330
1F
100
AcDbEntity
  8
0
  6
Continuous
 62
     7
370
    25
100
AcDbLine
 10
112.6018764434
 20
61.9765530188
 30
0.0
 11
121.6018764434
 21
61.9765530188
 31
0.0
  0
LINE
  5
164
330
1F
100
AcDbEntity
  8
0
  6
Continuous
 62
     7
370
    25
100
AcDbLine
 10
112.6018764434
 20
62.0143699426
 30
0.0
 11
112.6018764434
 21
61.9765530188
 31
0.0
  0
SPLINE
  5
165
330
1F
100
AcDbEntity
  8
0
  6
Continuous
 62
     7
370
    25
100
AcDbSpline
210
0.0
220
0.0
230
1.0
 70
     8
 71
     3
 72
     9
 73
     5
 74
     0
 42
0.00000001
 43
0.00000001
 40
0.0
 40
0.0
 40
0.0
 40
0.0
 40
0.4875141023677136
 40
1.0
 40
1.0
 40
1.0
 40
1.0
 10
112.4459311929907
 20
61.97655301882265
 30
0.0
 10
112.4722377669133
 20
61.97828036479434
 30
0.0
 10
112.5261984088615
 20
61.98182353608583
 30
0.0
 10
112.5762339395563
 20
62.00334202203514
 30
0.0
 10
112.6018764434179
 20
62.01436994262257
 30
0.0
  0
SPLINE
  5
166
330
1F
100
AcDbEntity
  8
0
  6
Continuous
 62
     7
370
    25
100
AcDbSpline
210
0.0
220
0.0
230
1.0
 70
     8
 71
     3
 72
    17
 73
    13
 74
     0
 42
0.00000001
 43
0.00000001
 40
0.0
 40
0.0
 40
0.0
 40
0.0
 40
0.3241697628029873
 40
0.542275846362072
 40
0.689509052693928
 40
0.7894036290694506
 40
0.8577090008137827
 40
0.9049823971474139
 40
0.9551712229700868
 40
0.9753097783197817
 40
0.9919572060138849
 40
1.0
 40
1.0
 40
1.0
 40
1.0
 10
110.1273295593357
 20
69.97655301882023
 30
0.0
 10
110.2700449193529
 20
69.06393951621453
 30
0.0
 10
110.5087812282949
 20
67.5373065099532
 30
0.0
 10
110.8883684227465
 20
65.61053360767221
 30
0.0
 10
111.1975026310936
 20
64.32289813673945
 30
0.0
 10
111.4536161592937
 20
63.46374617001771
 30
0.0
 10
111.6679271621887
 20
62.89027828164031
 30
0.0
 10
111.8711613832166
 20
62.46874612761034
 30
0.0
 10
112.0557066477592
 20
62.18825358481491
 30
0.0
 10
112.2417777341274
 20
62.03270491623426
 30
0.0
 10
112.3569883333833
 20
61.98209431703675
 30
0.0
 10
112.4240771388562
 20
61.97791456523212
 30
0.0
 10
112.4459311929907
 20
61.97655301882265
 30
0.0
  0
SPLINE
  5
167
330
1F
100
AcDbEntity
  8
0
  6
Continuous
 62
     7
370
    25
100
AcDbSpline
210
0.0
220
0.0
230
1.0
 70
     8
 71
     3
 72
    14
 73
    10
 74
     0
 42
0.00000001
 43
0.00000001
 40
0.0
 40
0.0
 40
0.0
 40
0.0
 40
0.1576095309202822
 40
0.3152382602707094
 40
0.4726926441579496
 40
0.6301650083177252
 40
0.7907313191165901
 40
0.9513050385928076
 40
1.0
 40
1.0
 40
1.0
 40
1.0
 10
108.1018764434179
 20
61.97655301882259
 30
0.0
 10
108.0353054286359
 20
62.19005480729999
 30
0.0
 10
107.9021552900509
 20
62.61708439092549
 30
0.0
 10
107.5735883283002
 20
63.20233146978181
 30
0.0
 10
107.1601986875682
 20
63.72448601060422
 30
0.0
 10
106.6645237686236
 20
64.1734641380241
 30
0.0
 10
106.0982340633391
 20
64.53274586983048
 30
0.0
 10
105.621983406946
 20
64.73731204893167
 30
0.0
 10
105.3417888387533
 20
64.81810659728296
 30
0.0
 10
105.2765900539803
 20
64.83690677032975
 30
0.0
  0
LINE
  5
168
330
1F
100
AcDbEntity
  8
0
  6
Continuous
 62
     7
370
    25
100
AcDbLine
 10
105.276590054
 20
64.8369067703
 30
0.0
 11
99.4968332041
 21
66.4055282108
 31
0.0
  0
SPLINE
  5
169
330
1F
100
AcDbEntity
  8
0
  6
Continuous
 62
     7
370
    25
100
AcDbSpline
210
0.0
220
0.0
230
1.0
 70
     8
 71
     3
 72
    11
 73
     7
 74
     0
 42
0.00000001
 43
0.00000001
 40
0.0
 40
0.0
 40
0.0
 40
0.0
 40
0.248846635328936
 40
0.4976946020535203
 40
0.7488461225871277
 40
1.0
 40
1.0
 40
1.0
 40
1.0
 10
92.42643958188125
 20
67.72872871179814
 30
0.0
 10
93.02087563101752
 20
67.6592043353045
 30
0.0
 10
94.20975090968092
 20
67.52015521034332
 30
0.0
 10
95.98447558038995
 20
67.21982647221805
 30
0.0
 10
97.75105622213232
 20
66.85791685396289
 30
0.0
 10
98.914905723152
 20
66.55632489689833
 30
0.0
 10
99.496833204125
 20
66.4055282108126
 30
0.0
  0
LINE
  5
16A
330
1F
100
AcDbEntity
  8
0
  6
Continuous
 62
     7
370
    25
100
AcDbLine
 10
92.4264395819
 20
67.7287287118
 30
0.0
 11
92.4264395819
 21
70.9712965968
 31
0.0
  0
LINE
  5
16B
330
1F
100
AcDbEntity
  8
0
  6
Continuous
 62
     7
370
    25
100
AcDbLine
 10
92.4264395819
 20
70.9712965968
 30
0.0
 11
110.8875403151
 21
70.9712965968
 31
0.0
  0
LINE
  5
16C
330
1F
100
AcDbEntity
  8
0
  6
Continuous
 62
     7
370
    25
100
AcDbLine
 10
112.445931193
 20
61.9765530188
 30
0.0
 11
108.1018764434
 21
61.9765530188
 31
0.0
  0
LINE
  5
16D
330
1F
100
AcDbEntity
  8
0
  6
Continuous
 62
     7
370
    25
100
AcDbLine
 10
112.6018764434
 20
62.0143699426
 30
0.0
 11
112.5950770855
 21
61.9765530188
 31
0.0
  0
LINE
  5
16E
330
1F
100
AcDbEntity
  8
0
  6
Continuous
 62
     7
370
    25
100
AcDbLine
 10
112.5950770855
 20
61.9765530188
 30
0.0
 11
112.445931193
 21
61.9765530188
 31
0.0
  0
LINE
  5
16F
330
1F
100
AcDbEntity
  8
0
  6
Continuous
 62
     7
370
    25
100
AcDbLine
 10
112.6018764434
 20
61.9765530188
 30
0.0
 11
112.5950770855
 21
61.9765530188
 31
0.0
  0
LINE
  5
170
330
1F
100
AcDbEntity
  8
0
  6
Continuous
 62
     7
370
    25
100
AcDbLine
 10
92.4264395819
 20
79.9765530188
 30
0.0
 11
92.4264395819
 21
70.9712965968
 31
0.0
  0
LINE
  5
171
330
1F
100
AcDbEntity
  8
0
  6
Continuous
 62
     7
370
    25
100
AcDbLine
 10
92.4264395819
 20
79.9765530188
 30
0.0
 11
94.6018764434
 21
79.9765530188
 31
0.0
  0
LINE
  5
172
330
1F
100
AcDbEntity
  8
0
  6
Continuous
 62
     7
370
    25
100
AcDbLine
 10
94.6018764434
 20
79.9765530188
 30
0.0
 11
94.6018764434
 21
77.9955085422
 31
0.0
  0
ARC
  5
173
330
1F
100
AcDbEntity
  8
0
  6
Continuous
 62
     7
370
    25
100
AcDbCircle
 10
100.6018764434
 20
77.9955085422
 30
0.0
 40
6.0
100
AcDbArc
 50
180.0
 51
275.5801667845
  0
ARC
  5
174
330
1F
100
AcDbEntity
  8
0
  6
Continuous
 62
     7
370
    25
100
AcDbCircle
 10
100.2129228792
 20
81.9765530188
 30
0.0
 40
10.00000000000847
100
AcDbArc
 50
275.5801667845
 51
336.4218215217
  0
LINE
  5
175
330
1F
100
AcDbEntity
  8
0
  6
Continuous
 62
     7
370
    25
100
AcDbLine
 10
87.7102085857
 20
67.9765530188
 30
0.0
 11
79.6018764434
 21
67.9765530188
 31
0.0
  0
ARC
  5
176
330
1F
100
AcDbEntity
  8
0
  6
Continuous
 62
     7
370
    25
100
AcDbCircle
 10
79.6018764434
 20
72.9765530188
 30
0.0
 40
5.000000000000014
100
AcDbArc
 50
180.0
 51
270.0
  0
LINE
  5
177
330
1F
100
AcDbEntity
  8
0
  6
Continuous
 62
     7
370
    25
100
AcDbLine
 10
74.6018764434
 20
72.9765530188
 30
0.0
 11
74.6018764434
 21
79.9765530188
 31
0.0
  0
LINE
  5
178
330
1F
100
AcDbEntity
  8
0
  6
Continuous
 62
     7
370
    25
100
AcDbLine
 10
74.6018764434
 20
79.9765530188
 30
0.0
 11
92.4264395819
 21
79.9765530188
 31
0.0
  0
ARC
  5
179
330
1F
100
AcDbEntity
  8
0
  6
Continuous
 62
     7
370
    25
100
AcDbCircle
 10
87.7102085857
 20
22.9764237646
 30
0.0
 40
45.00012925418374
100
AcDbArc
 50
83.9840777705
 51
90.0
  0
LINE
  5
17A
330
1F
100
AcDbEntity
  8
0
  6
Continuous
 62
     7
370
    25
100
AcDbLine
 10
108.1018764434
 20
61.9765530188
 30
0.0
 11
107.6018764434
 21
61.9765530188
 31
0.0
  0
LINE
  5
17B
330
1F
100
AcDbEntity
  8
0
  6
Continuous
 62
     7
370
    25
100
AcDbLine
 10
109.3627911108
 20
77.9765530188
 30
0.0
 11
109.3780742691
 21
77.9765530188
 31
0.0
  0
LINE
  5
17C
330
1F
100
AcDbEntity
  8
0
  6
Continuous
 62
     7
370
    25
100
AcDbLine
 10
123.7018764434
 20
54.737422584
 30
0.0
 11
123.7018764434
 21
60.4765530188
 31
0.0
  0
LINE
  5
17D
330
1F
100
AcDbEntity
  8
0
  6
Continuous
 62
     7
370
    25
100
AcDbLine
 10
105.5018764434
 20
60.4765530188
 30
0.0
 11
105.5018764434
 21
54.737422584
 31
0.0
  0
LINE
  5
17E
330
1F
100
AcDbEntity
  8
0
  6
Continuous
 62
     7
370
    25
100
AcDbLine
 10
105.5018764434
 20
44.2156834536
 30
0.0
 11
105.5018764434
 21
38.4765530188
 31
0.0
  0
LINE
  5
17F
330
1F
100
AcDbEntity
  8
0
  6
Continuous
 62
     7
370
    25
100
AcDbLine
 10
123.7018764434
 20
38.4765530188
 30
0.0
 11
123.7018764434
 21
44.2156834536
 31
0.0
  0
SPLINE
  5
180
330
1F
100
AcDbEntity
  8
0
  6
Continuous
 62
     7
370
    25
100
AcDbSpline
210
0.0
220
0.0
230
1.0
 70
     8
 71
     3
 72
    29
 73
    25
 74
     0
 42
0.00000001
 43
0.00000001
 40
0.0
 40
0.0
 40
0.0
 40
0.0
 40
0.0523007420673769
 40
0.0971610391256296
 40
0.1432579355094584
 40
0.191391355175073
 40
0.2406750140180789
 40
0.2952572670456023
 40
0.3512883074887585
 40
0.4081550509080786
 40
0.4376663416638761
 40
0.4671740045853384
 40
0.5161473841960134
 40
0.5667064967193871
 40
0.6111813809745478
 40
0.6566292394500833
 40
0.7058849529791041
 40
0.7562080733601324
 40
0.8115093139717683
 40
0.8684952319458338
 40
0.921784520848704
 40
0.9495217164746214
 40
0.9772564038252612
 40
1.0
 40
1.0
 40
1.0
 40
1.0
 10
121.0018764434179
 20
60.47655301882258
 30
0.0
 10
120.9839116871523
 20
60.46693922016664
 30
0.0
 10
120.9505378894314
 20
60.44907930785123
 30
0.0
 10
120.7019218601844
 20
60.31864131248545
 30
0.0
 10
120.3435552658589
 20
60.13710073212791
 30
0.0
 10
119.8493514951609
 20
59.89985569423031
 30
0.0
 10
119.2113138041773
 20
59.61763464338777
 30
0.0
 10
118.426836179257
 20
59.31082728463178
 30
0.0
 10
117.4967770027456
 20
59.01168662831013
 30
0.0
 10
116.6259123029181
 20
58.80738488218647
 30
0.0
 10
115.8823977813112
 20
58.69219837506618
 30
0.0
 10
115.1729864224759
 20
58.62166023929437
 30
0.0
 10
114.3089323341724
 20
58.60328665686111
 30
0.0
 10
113.3537285081002
 20
58.67930035663096
 30
0.0
 10
112.4578136056965
 20
58.83209925289756
 30
0.0
 10
111.6202051227184
 20
59.04049167684304
 30
0.0
 10
110.8157278855251
 20
59.29881751938174
 30
0.0
 10
110.0463763357495
 20
59.59468585633204
 30
0.0
 10
109.3524503904255
 20
59.89956123685816
 30
0.0
 10
108.7912804421702
 20
60.17073731644896
 30
0.0
 10
108.4602048841005
 20
60.34057222392254
 30
0.0
 10
108.2981032678572
 20
60.42545378838213
 30
0.0
 10
108.2127220302816
 20
60.47077638663811
 30
0.0
 10
108.2221410728562
 20
60.46577654171085
 30
0.0
 10
108.2263849354781
 20
60.46352380160123
 30
0.0
  0
SPLINE
  5
181
330
1F
100
AcDbEntity
  8
0
  6
Continuous
 62
     7
370
    25
100
AcDbSpline
210
0.0
220
0.0
230
1.0
 70
     8
 71
     3
 72
    28
 73
    24
 74
     0
 42
0.00000001
 43
0.00000001
 40
0.0
 40
0.0
 40
0.0
 40
0.0
 40
0.025214295390803
 40
0.0803174638653639
 40
0.1354650384508518
 40
0.1920269553027468
 40
0.2486256945966088
 40
0.2982093316427959
 40
0.3477789311966165
 40
0.3919288855602218
 40
0.436048252564346
 40
0.484453836139927
 40
0.532847455417666
 40
0.5854963152421128
 40
0.6382078514689651
 40
0.646303104610467
 40
0.7013746289431015
 40
0.7564663995070773
 40
0.8055674302717936
 40
0.8546474475164092
 40
0.9007690029647893
 40
0.9468667356698778
 40
1.0
 40
1.0
 40
1.0
 40
1.0
 10
108.7244394053548
 20
60.96295011134976
 30
0.0
 10
108.7207084841824
 20
60.96520554583526
 30
0.0
 10
108.7088240304705
 20
60.97238999318873
 30
0.0
 10
108.8866422879344
 20
60.86490981229656
 30
0.0
 10
109.2359658412061
 20
60.6623094282416
 30
0.0
 10
109.7588256152718
 20
60.37506809477259
 30
0.0
 10
110.3925538367197
 20
60.05916307657899
 30
0.0
 10
111.1057758207824
 20
59.74766798246791
 30
0.0
 10
111.8431127624901
 20
59.47826107208654
 30
0.0
 10
112.6193599246811
 20
59.25938385290673
 30
0.0
 10
113.4402055320221
 20
59.09863014832584
 30
0.0
 10
114.3261273797582
 20
59.02020418908635
 30
0.0
 10
115.2761042805188
 20
59.03950615402069
 30
0.0
 10
116.2262333394049
 20
59.1761658978526
 30
0.0
 10
116.8836424680494
 20
59.34106207247463
 30
0.0
 10
117.5179523162523
 20
59.5354909366543
 30
0.0
 10
118.1284777279109
 20
59.75794312479202
 30
0.0
 10
118.849136493199
 20
60.07769529440502
 30
0.0
 10
119.4384353422265
 20
60.37299119338794
 30
0.0
 10
119.8929253585609
 20
60.620611792119
 30
0.0
 10
120.2237829577682
 20
60.81035793617179
 30
0.0
 10
120.4546005262007
 20
60.947909717642
 30
0.0
 10
120.4853901376173
 20
60.96656437660899
 30
0.0
 10
120.5018764434179
 20
60.97655301882258
 30
0.0
  0
LINE
  5
182
330
1F
100
AcDbEntity
  8
FORMAT
100
AcDbLine
 10
140.2149344121
 20
42.070139231
 30
0.0
 11
127.8518764434
 21
41.6837936695
 31
0.0
  0
LINE
  5
183
330
1F
100
AcDbEntity
  8
FORMAT
100
AcDbLine
 10
140.2149344121
 20
56.8829668066
 30
0.0
 11
127.8518764434
 21
57.2693123682
 31
0.0
  0
LINE
  5
184
330
1F
100
AcDbEntity
  8
FORMAT
100
AcDbLine
 10
127.8518764434
 20
58.0309905188
 30
0.0
 11
127.8518764434
 21
40.9221155188
 31
0.0
  0
LINE
  5
185
330
1F
100
AcDbEntity
  8
FORMAT
  6
CENTERX2
370
    18
100
AcDbLine
 10
83.7316474154
 20
49.4765530188
 30
0.0
 11
142.9674729249
 21
49.4765530188
 31
0.0
  0
LINE
  5
186
330
1F
100
AcDbEntity
  8
FORMAT
  6
CENTERX2
370
    18
100
AcDbLine
 10
114.6018764434
 20
36.0883356149
 30
0.0
 11
114.6018764434
 21
80.2572089913
 31
0.0
  0
LINE
  5
187
330
1F
100
AcDbEntity
  8
0
  6
Continuous
 62
     7
370
    25
100
AcDbLine
 10
181.2664549654
 20
59.9259549156
 30
0.0
 11
181.2664549654
 21
61.9765530188
 31
0.0
  0
LINE
  5
188
330
1F
100
AcDbEntity
  8
0
  6
Continuous
 62
     7
370
    25
100
AcDbLine
 10
169.4664549654
 20
61.9765530188
 30
0.0
 11
169.4664549654
 21
61.4746466891
 31
0.0
  0
ARC
  5
189
330
1F
100
AcDbEntity
  8
0
  6
Continuous
 62
     7
370
    25
100
AcDbCircle
 10
169.6664549654
 20
61.0182954492
 30
0.0
 40
0.4999999999999851
100
AcDbArc
 50
113.6449780875
 51
180.007858636
  0
ARC
  5
18A
330
1F
100
AcDbEntity
  8
0
  6
Continuous
 62
     7
370
    25
100
AcDbCircle
 10
169.6664541421
 20
59.9348110065
 30
0.0
 40
0.4999991767250343
100
AcDbArc
 50
179.9967097897
 51
199.4862842156
  0
ARC
  5
18B
330
1F
100
AcDbEntity
  8
0
  6
Continuous
 62
     7
370
    25
100
AcDbCircle
 10
180.6164549654
 20
78.5765530188
 30
0.0
 40
0.25
100
AcDbArc
 50
0.0
 51
90.0
  0
ARC
  5
18C
330
1F
100
AcDbEntity
  8
0
  6
Continuous
 62
     7
370
    25
100
AcDbCircle
 10
170.1164549654
 20
78.5765530188
 30
0.0
 40
0.25
100
AcDbArc
 50
90.0
 51
180.0
  0
LINE
  5
18D
330
1F
100
AcDbEntity
  8
0
  6
Continuous
 62
     7
370
    25
100
AcDbLine
 10
180.8664549654
 20
77.9765530188
 30
0.0
 11
180.8664549654
 21
78.5765530188
 31
0.0
  0
LINE
  5
18E
330
1F
100
AcDbEntity
  8
0
  6
Continuous
 62
     7
370
    25
100
AcDbLine
 10
169.8664549654
 20
78.5765530188
 30
0.0
 11
169.8664549654
 21
77.9765530188
 31
0.0
  0
LINE
  5
18F
330
1F
100
AcDbEntity
  8
0
  6
Continuous
 62
     7
370
    25
100
AcDbLine
 10
167.9164549654
 20
69.9765530188
 30
0.0
 11
168.3664549654
 21
61.9765530188
 31
0.0
  0
LINE
  5
190
330
1F
100
AcDbEntity
  8
0
  6
Continuous
 62
     7
370
    25
100
AcDbLine
 10
182.3664549654
 20
61.9765530188
 30
0.0
 11
182.8164549654
 21
69.9765530188
 31
0.0
  0
LINE
  5
191
330
1F
100
AcDbEntity
  8
0
  6
Continuous
 62
     7
370
    25
100
AcDbLine
 10
182.8164549654
 20
69.9765530188
 30
0.0
 11
180.8664549654
 21
77.9765530188
 31
0.0
  0
LINE
  5
192
330
1F
100
AcDbEntity
  8
0
  6
Continuous
 62
     7
370
    25
100
AcDbLine
 10
169.8664549654
 20
77.9765530188
 30
0.0
 11
167.9164549654
 21
69.9765530188
 31
0.0
  0
SPLINE
  5
193
330
1F
100
AcDbEntity
  8
0
  6
Continuous
 62
     7
370
    25
100
AcDbSpline
210
0.0
220
0.0
230
1.0
 70
    24
 71
     3
 72
     9
 73
     5
 74
     0
 42
0.00000001
 43
0.00000001
 40
0.0
 40
0.0
 40
0.0
 40
0.0
 40
0.0914403732972762
 40
0.9999999999999999
 40
0.9999999999999999
 40
0.9999999999999999
 40
0.9999999999999999
 10
184.9702407121972
 20
56.63351065481715
 30
0.0
 10
185.0133285680485
 20
56.60863386964263
 30
0.0
 10
185.4845411659144
 20
56.33657914941919
 30
0.0
 10
185.9466246068007
 20
56.06979515043541
 30
0.0
 10
186.3664549653579
 20
55.82740597990844
 30
0.0
  0
SPLINE
  5
194
330
1F
100
AcDbEntity
  8
0
  6
Continuous
 62
     7
370
    25
100
AcDbSpline
210
0.0
220
0.0
230
1.0
 70
    24
 71
     3
 72
     9
 73
     5
 74
     0
 42
0.00000001
 43
0.00000001
 40
0.0
 40
0.0
 40
0.0
 40
0.0
 40
0.7581276367188945
 40
0.9999999999999999
 40
0.9999999999999999
 40
0.9999999999999999
 40
0.9999999999999999
 10
186.3664549653579
 20
55.82740597990844
 30
0.0
 10
186.3664549653579
 20
55.43702055989554
 30
0.0
 10
186.3664549653579
 20
54.92208692457465
 30
0.0
 10
186.3664549653579
 20
54.39888030197024
 30
0.0
 10
186.3664549653579
 20
54.27233107967659
 30
0.0
  0
SPLINE
  5
195
330
1F
100
AcDbEntity
  8
0
  6
Continuous
 62
     7
370
    25
100
AcDbSpline
210
0.0
220
0.0
230
1.0
 70
    24
 71
     3
 72
     9
 73
     5
 74
     0
 42
0.00000001
 43
0.00000001
 40
0.0
 40
0.0
 40
0.0
 40
0.0
 40
0.1051240160473883
 40
1.0
 40
1.0
 40
1.0
 40
1.0
 10
186.3664549653579
 20
44.6807748020341
 30
0.0
 10
186.3664549653579
 20
44.6255870322347
 30
0.0
 10
186.3664549653579
 20
44.10060927858304
 30
0.0
 10
186.3664549653579
 20
43.58611163910545
 30
0.0
 10
186.3664549653579
 20
43.12570005773664
 30
0.0
  0
LINE
  5
196
330
1F
100
AcDbEntity
  8
0
  6
Continuous
 62
     7
370
    25
100
AcDbLine
 10
186.3664549654
 20
43.1257000577
 30
0.0
 11
184.9833304908
 21
42.3271527701
 31
0.0
  0
SPLINE
  5
197
330
1F
100
AcDbEntity
  8
0
  6
Continuous
 62
     7
370
    25
100
AcDbSpline
210
0.0
220
0.0
230
1.0
 70
    24
 71
     3
 72
     9
 73
     5
 74
     0
 42
0.00000001
 43
0.00000001
 40
0.0
 40
0.0
 40
0.0
 40
0.0
 40
0.0761677509244529
 40
1.0
 40
1.0
 40
1.0
 40
1.0
 10
176.7393130225918
 20
37.56746706555398
 30
0.0
 10
176.704018646894
 20
37.54708984824396
 30
0.0
 10
176.2406417548436
 20
37.27955907488239
 30
0.0
 10
175.7862430982529
 20
37.01721188818037
 30
0.0
 10
175.3664549653578
 20
36.7748470966508
 30
0.0
  0
LINE
  5
198
330
1F
100
AcDbEntity
  8
0
  6
Continuous
 62
     7
370
    25
100
AcDbLine
 10
175.3664549654
 20
36.7748470967
 30
0.0
 11
173.980118342
 21
37.5752489194
 31
0.0
  0
SPLINE
  5
199
330
1F
100
AcDbEntity
  8
0
  6
Continuous
 62
     7
370
    25
100
AcDbSpline
210
0.0
220
0.0
230
1.0
 70
    24
 71
     3
 72
     9
 73
     5
 74
     0
 42
0.00000001
 43
0.00000001
 40
0.0
 40
0.0
 40
0.0
 40
0.0
 40
0.0914403732972186
 40
0.9999999999999999
 40
0.9999999999999999
 40
0.9999999999999999
 40
0.9999999999999999
 10
165.7626692185184
 20
42.31959538282812
 30
0.0
 10
165.7195813626672
 20
42.34447216800262
 30
0.0
 10
165.2483687648013
 20
42.61652688822604
 30
0.0
 10
164.786285323915
 20
42.88331088720982
 30
0.0
 10
164.3664549653578
 20
43.12570005773679
 30
0.0
  0
SPLINE
  5
19A
330
1F
100
AcDbEntity
  8
0
  6
Continuous
 62
     7
370
    25
100
AcDbSpline
210
0.0
220
0.0
230
1.0
 70
    24
 71
     3
 72
     9
 73
     5
 74
     0
 42
0.00000001
 43
0.00000001
 40
0.0
 40
0.0
 40
0.0
 40
0.0
 40
0.8948590373208237
 40
1.0
 40
1.0
 40
1.0
 40
1.0
 10
164.3664549653578
 20
43.12570005773679
 30
0.0
 10
164.3664549653578
 20
43.58614932734508
 30
0.0
 10
164.3664549653578
 20
44.10069882665712
 30
0.0
 10
164.3664549653578
 20
44.62558764256453
 30
0.0
 10
164.3664549653578
 20
44.68077495796856
 30
0.0
  0
SPLINE
  5
19B
330
1F
100
AcDbEntity
  8
0
  6
Continuous
 62
     7
370
    25
100
AcDbSpline
210
0.0
220
0.0
230
1.0
 70
    24
 71
     3
 72
     9
 73
     5
 74
     0
 42
0.00000001
 43
0.00000001
 40
0.0
 40
0.0
 40
0.0
 40
0.0
 40
0.2341743070089402
 40
1.0
 40
1.0
 40
1.0
 40
1.0
 10
164.3664549653579
 20
54.27233123561122
 30
0.0
 10
164.3664549653579
 20
54.39486894412039
 30
0.0
 10
164.3664549653579
 20
54.91814457616698
 30
0.0
 10
164.3664549653579
 20
55.43306595677134
 30
0.0
 10
164.3664549653579
 20
55.8274059799086
 30
0.0
  0
LINE
  5
19C
330
1F
100
AcDbEntity
  8
0
  6
Continuous
 62
     7
370
    25
100
AcDbLine
 10
164.3664549654
 20
55.8274059799
 30
0.0
 11
165.7495794399
 21
56.6259532676
 31
0.0
  0
CIRCLE
  5
19D
330
1F
100
AcDbEntity
  8
0
  6
Continuous
 62
     7
370
    25
100
AcDbCircle
 10
175.3664549654
 20
49.4765530188
 30
0.0
 40
8.211678150664511
  0
CIRCLE
  5
19E
330
1F
100
AcDbEntity
  8
0
  6
Continuous
 62
     7
370
    25
100
AcDbCircle
 10
175.3664549654
 20
49.4765530188
 30
0.0
 40
6.75
  0
CIRCLE
  5
19F
330
1F
100
AcDbEntity
  8
0
  6
Continuous
 62
     7
370
    25
100
AcDbCircle
 10
175.3664549654
 20
49.4765530188
 30
0.0
 40
5.5
  0
CIRCLE
  5
1A0
330
1F
100
AcDbEntity
  8
0
  6
Continuous
 62
     7
370
    25
100
AcDbCircle
 10
175.3664549654
 20
49.4765530188
 30
0.0
 40
4.999999999999972
  0
CIRCLE
  5
1A1
330
1F
100
AcDbEntity
  8
0
  6
Continuous
 62
     7
370
    25
100
AcDbCircle
 10
175.3664549654
 20
49.4765530188
 30
0.0
 40
8.570062500000006
  0
CIRCLE
  5
1A2
330
1F
100
AcDbEntity
  8
0
  6
Continuous
 62
     7
370
    25
100
AcDbCircle
 10
175.3664549654
 20
49.4765530188
 30
0.0
 40
4.0
  0
CIRCLE
  5
1A3
330
1F
100
AcDbEntity
  8
0
  6
Continuous
 62
     7
370
    25
100
AcDbCircle
 10
175.3664549654
 20
49.4765530188
 30
0.0
 40
12.0
  0
SPLINE
  5
1A4
330
1F
100
AcDbEntity
  8
0
  6
Continuous
 62
     7
370
    25
100
AcDbSpline
210
0.0
220
0.0
230
1.0
 70
     8
 71
     3
 72
    15
 73
    11
 74
     0
 42
0.00000001
 43
0.00000001
 40
0.0
 40
0.0
 40
0.0
 40
0.0
 40
0.0518879138927292
 40
0.210097060161511
 40
0.3663496941052541
 40
0.5215960144131061
 40
0.6783327539215525
 40
0.8367438355015286
 40
0.994420785455154
 40
1.0
 40
1.0
 40
1.0
 40
1.0
 10
169.5261966195661
 20
59.94510226307923
 30
0.0
 10
169.5292559501188
 20
59.97419900279061
 30
0.0
 10
169.5416433503235
 20
60.09201332630116
 30
0.0
 10
169.5535751864825
 20
60.3566821380713
 30
0.0
 10
169.5509569029784
 20
60.6934262341815
 30
0.0
 10
169.5300043708331
 20
61.00775055517226
 30
0.0
 10
169.4996298948769
 20
61.266442279373
 30
0.0
 10
169.4752047596969
 20
61.42579617435992
 30
0.0
 10
169.46360241884
 20
61.49380309552871
 30
0.0
 10
169.4666656030066
 20
61.47527971820544
 30
0.0
 10
169.4667702861082
 20
61.47464668914647
 30
0.0
  0
SPLINE
  5
1A5
330
1F
100
AcDbEntity
  8
0
  6
Continuous
 62
     7
370
    25
100
AcDbSpline
210
0.0
220
0.0
230
1.0
 70
    24
 71
     3
 72
    14
 73
    10
 74
     0
 42
0.00000001
 43
0.00000001
 40
0.0
 40
0.0
 40
0.0
 40
0.0
 40
0.0686782875714469
 40
0.2932169091379507
 40
0.2935197863693114
 40
0.5073359099559545
 40
0.7069537562192961
 40
0.9001971037285263
 40
1.0
 40
1.0
 40
1.0
 40
1.0
 10
169.1664549653579
 20
60.47655301882342
 30
0.0
 10
169.1664549653579
 20
60.49540512005103
 30
0.0
 10
169.1664549653578
 20
60.57589278286535
 30
0.0
 10
169.1664549653582
 20
60.65558178920843
 30
0.0
 10
169.1664549653576
 20
60.76479351198466
 30
0.0
 10
169.166454965358
 20
60.86148959249497
 30
0.0
 10
169.1664549653578
 20
60.96307213478511
 30
0.0
 10
169.1664549653579
 20
61.01662420423942
 30
0.0
 10
169.1664549653579
 20
61.01241740297456
 30
0.0
 10
169.1664549653579
 20
61.01098469070071
 30
0.0
  0
SPLINE
  5
1A6
330
1F
100
AcDbEntity
  8
0
  6
Continuous
 62
     7
370
    25
100
AcDbSpline
210
0.0
220
0.0
230
1.0
 70
    24
 71
     3
 72
    12
 73
     8
 74
     0
 42
0.00000001
 43
0.00000001
 40
0.0
 40
0.0
 40
0.0
 40
0.0
 40
0.1662670804361931
 40
0.3874313601925504
 40
0.6144881535318663
 40
0.8409576182598337
 40
1.0
 40
1.0
 40
1.0
 40
1.0
 10
169.1664549653579
 20
59.93954556288359
 30
0.0
 10
169.1664549653579
 20
59.94150836561248
 30
0.0
 10
169.1664549653579
 20
59.94608203906032
 30
0.0
 10
169.1664549653579
 20
60.03077527388893
 30
0.0
 10
169.1664549653579
 20
60.16849327307764
 30
0.0
 10
169.1664549653579
 20
60.3267181965343
 30
0.0
 10
169.1664549653579
 20
60.4327922953361
 30
0.0
 10
169.1664549653579
 20
60.47655301882342
 30
0.0
  0
SPLINE
  5
1A7
330
1F
100
AcDbEntity
  8
0
  6
Continuous
 62
     7
370
    25
100
AcDbSpline
210
0.0
220
0.0
230
1.0
 70
     8
 71
     3
 72
    14
 73
    10
 74
     0
 42
0.00000001
 43
0.00000001
 40
0.0
 40
0.0
 40
0.0
 40
0.0
 40
0.0833728361874164
 40
0.1651391830231223
 40
0.2505782922901014
 40
0.3661552980483097
 40
0.5013015333863843
 40
0.7511277814203854
 40
1.0
 40
1.0
 40
1.0
 40
1.0
 10
164.3429692684658
 20
54.21815223115749
 30
0.0
 10
164.3462052262834
 20
54.22566441410414
 30
0.0
 10
164.3526147890946
 20
54.24054402971113
 30
0.0
 10
164.3643366967614
 20
54.26755427771433
 30
0.0
 10
164.3781859856444
 20
54.29925014633784
 30
0.0
 10
164.3946357136841
 20
54.33657926187043
 30
0.0
 10
164.4179291306413
 20
54.388900617534
 30
0.0
 10
164.4455193657814
 20
54.45002661736407
 30
0.0
 10
164.4652635276206
 20
54.49289338873639
 30
0.0
 10
164.4751167228676
 20
54.51428577152677
 30
0.0
  0
SPLINE
  5
1A8
330
1F
100
AcDbEntity
  8
0
  6
Continuous
 62
     7
370
    25
100
AcDbSpline
210
0.0
220
0.0
230
1.0
 70
     8
 71
     3
 72
    14
 73
    10
 74
     0
 42
0.00000001
 43
0.00000001
 40
0.0
 40
0.0
 40
0.0
 40
0.0
 40
0.0833728361875584
 40
0.1651391830232386
 40
0.2505782922900667
 40
0.3661552980541213
 40
0.5013015333865077
 40
0.751127781420452
 40
1.0
 40
1.0
 40
1.0
 40
1.0
 10
186.38994066225
 20
44.73495380648767
 30
0.0
 10
186.3867047044324
 20
44.72744162354099
 30
0.0
 10
186.3802951416211
 20
44.712562007934
 30
0.0
 10
186.3685732339544
 20
44.68555175993079
 30
0.0
 10
186.3547239450711
 20
44.65385589130668
 30
0.0
 10
186.3382742170313
 20
44.61652677577393
 30
0.0
 10
186.3149808000742
 20
44.56420542011075
 30
0.0
 10
186.2873905649344
 20
44.50307942028105
 30
0.0
 10
186.2676464030952
 20
44.46021264890876
 30
0.0
 10
186.2577932078482
 20
44.4388202661184
 30
0.0
  0
SPLINE
  5
1A9
330
1F
100
AcDbEntity
  8
0
  6
Continuous
 62
     7
370
    25
100
AcDbSpline
210
0.0
220
0.0
230
1.0
 70
     8
 71
     3
 72
    13
 73
     9
 74
     0
 42
0.00000001
 43
0.00000001
 40
0.0
 40
0.0
 40
0.0
 40
0.0
 40
0.1266963143627904
 40
0.2513113397887914
 40
0.5007108425293433
 40
0.7510525732451319
 40
0.8768673774687907
 40
1.0
 40
1.0
 40
1.0
 40
1.0
 10
186.0267810242402
 20
54.98631238909589
 30
0.0
 10
186.03768514968
 20
54.96512535165094
 30
0.0
 10
186.0593142743098
 20
54.92309932434917
 30
0.0
 10
186.1015746906482
 20
54.83945827038296
 30
0.0
 10
186.1527370503887
 20
54.73605935387486
 30
0.0
 10
186.2002315805432
 20
54.6371916338527
 30
0.0
 10
186.2347951166748
 20
54.5638446344615
 30
0.0
 10
186.250182438916
 20
54.5306863089233
 30
0.0
 10
186.2577932078482
 20
54.51428577152677
 30
0.0
  0
SPLINE
  5
1AA
330
1F
100
AcDbEntity
  8
0
  6
Continuous
 62
     7
370
    25
100
AcDbSpline
210
0.0
220
0.0
230
1.0
 70
     8
 71
     3
 72
    13
 73
     9
 74
     0
 42
0.00000001
 43
0.00000001
 40
0.0
 40
0.0
 40
0.0
 40
0.0
 40
0.126696314384486
 40
0.2513113397888735
 40
0.5007108425294119
 40
0.7510525732451946
 40
0.876867377471871
 40
1.0
 40
1.0
 40
1.0
 40
1.0
 10
164.7061289064756
 20
43.96679364854921
 30
0.0
 10
164.695224781034
 20
43.9879806859978
 30
0.0
 10
164.6735956564041
 20
44.03000671329963
 30
0.0
 10
164.6313352400658
 20
44.11364776726566
 30
0.0
 10
164.5801728803271
 20
44.21704668377023
 30
0.0
 10
164.5326783501724
 20
44.31591440379295
 30
0.0
 10
164.4981148140408
 20
44.38926140318389
 30
0.0
 10
164.4827274917996
 20
44.42241972872217
 30
0.0
 10
164.4751167228676
 20
44.43882026611833
 30
0.0
  0
SPLINE
  5
1AB
330
1F
100
AcDbEntity
  8
0
  6
Continuous
 62
     7
370
    25
100
AcDbSpline
210
0.0
220
0.0
230
1.0
 70
     8
 71
     3
 72
    13
 73
     9
 74
     0
 42
0.00000001
 43
0.00000001
 40
0.0
 40
0.0
 40
0.0
 40
0.0
 40
0.1234092039680328
 40
0.2495635406296307
 40
0.5004511475232674
 40
0.7494830036087197
 40
0.8735723370995275
 40
1.0
 40
1.0
 40
1.0
 40
1.0
 10
186.2577932078482
 20
44.4388202661184
 30
0.0
 10
186.2501646023509
 20
44.42238141629088
 30
0.0
 10
186.2347376995207
 20
44.38913804841453
 30
0.0
 10
186.2000844647782
 20
44.3156040839737
 30
0.0
 10
186.1525322376444
 20
44.21662592855066
 30
0.0
 10
186.1013886569122
 20
44.11327686009992
 30
0.0
 10
186.0592228440842
 20
44.02982845017946
 30
0.0
 10
186.0376620471175
 20
43.98793559193912
 30
0.0
 10
186.0267810242327
 20
43.96679364853471
 30
0.0
  0
SPLINE
  5
1AC
330
1F
100
AcDbEntity
  8
0
  6
Continuous
 62
     7
370
    25
100
AcDbSpline
210
0.0
220
0.0
230
1.0
 70
     8
 71
     3
 72
    13
 73
     9
 74
     0
 42
0.00000001
 43
0.00000001
 40
0.0
 40
0.0
 40
0.0
 40
0.0
 40
0.123409203972734
 40
0.2495635406297123
 40
0.5004511475233475
 40
0.749483003608821
 40
0.8735723371285005
 40
1.0
 40
1.0
 40
1.0
 40
1.0
 10
164.4751167228676
 20
54.51428577152677
 30
0.0
 10
164.4827453283651
 20
54.53072462135485
 30
0.0
 10
164.4981722311953
 20
54.56396798923107
 30
0.0
 10
164.532825465938
 20
54.63750195367239
 30
0.0
 10
164.5803776930714
 20
54.7364801090946
 30
0.0
 10
164.631521273806
 20
54.83982917755009
 30
0.0
 10
164.6736870866342
 20
54.92327758747086
 30
0.0
 10
164.6952478836009
 20
54.96517044571114
 30
0.0
 10
164.7061289064832
 20
54.98631238911069
 30
0.0
  0
LINE
  5
1AD
330
1F
100
AcDbEntity
  8
0
  6
Continuous
 62
     7
370
    25
100
AcDbLine
 10
176.6164549654
 20
77.9765530188
 30
0.0
 11
176.6164549654
 21
78.5765530188
 31
0.0
  0
LINE
  5
1AE
330
1F
100
AcDbEntity
  8
0
  6
Continuous
 62
     7
370
    25
100
AcDbLine
 10
176.6164549654
 20
78.5765530188
 30
0.0
 11
176.8664549654
 21
78.5765530188
 31
0.0
  0
LINE
  5
1AF
330
1F
100
AcDbEntity
  8
0
  6
Continuous
 62
     7
370
    25
100
AcDbLine
 10
176.8664549654
 20
78.5765530188
 30
0.0
 11
176.8664549654
 21
77.9765530188
 31
0.0
  0
LINE
  5
1B0
330
1F
100
AcDbEntity
  8
0
  6
Continuous
 62
     7
370
    25
100
AcDbLine
 10
176.8664549654
 20
77.9765530188
 30
0.0
 11
176.6164549654
 21
77.9765530188
 31
0.0
  0
LINE
  5
1B1
330
1F
100
AcDbEntity
  8
0
  6
Continuous
 62
     7
370
    25
100
AcDbLine
 10
176.6164549654
 20
78.5765530188
 30
0.0
 11
176.6164549654
 21
78.8265530188
 31
0.0
  0
ARC
  5
1B2
330
1F
100
AcDbEntity
  8
0
  6
Continuous
 62
     7
370
    25
100
AcDbCircle
 10
176.6164549654
 20
78.5765530188
 30
0.0
 40
0.25
100
AcDbArc
 50
0.0
 51
90.0
  0
LINE
  5
1B3
330
1F
100
AcDbEntity
  8
0
  6
Continuous
 62
     7
370
    25
100
AcDbLine
 10
176.6164549654
 20
78.5765530188
 30
0.0
 11
174.1164549654
 21
78.5765530188
 31
0.0
  0
LINE
  5
1B4
330
1F
100
AcDbEntity
  8
0
  6
Continuous
 62
     7
370
    25
100
AcDbLine
 10
174.1164549654
 20
78.8265530188
 30
0.0
 11
174.1164549654
 21
78.5765530188
 31
0.0
  0
LINE
  5
1B5
330
1F
100
AcDbEntity
  8
0
  6
Continuous
 62
     7
370
    25
100
AcDbLine
 10
174.1164549654
 20
78.8265530188
 30
0.0
 11
176.6164549654
 21
78.8265530188
 31
0.0
  0
LINE
  5
1B6
330
1F
100
AcDbEntity
  8
0
  6
Continuous
 62
     7
370
    25
100
AcDbLine
 10
174.1164549654
 20
78.5765530188
 30
0.0
 11
174.1164549654
 21
77.9765530188
 31
0.0
  0
LINE
  5
1B7
330
1F
100
AcDbEntity
  8
0
  6
Continuous
 62
     7
370
    25
100
AcDbLine
 10
176.6164549654
 20
77.9765530188
 30
0.0
 11
174.1164549654
 21
77.9765530188
 31
0.0
  0
ARC
  5
1B8
330
1F
100
AcDbEntity
  8
0
  6
Continuous
 62
     7
370
    25
100
AcDbCircle
 10
174.1164549654
 20
78.5765530188
 30
0.0
 40
0.25
100
AcDbArc
 50
90.0
 51
180.0
  0
LINE
  5
1B9
330
1F
100
AcDbEntity
  8
0
  6
Continuous
 62
     7
370
    25
100
AcDbLine
 10
173.8664549654
 20
78.5765530188
 30
0.0
 11
174.1164549654
 21
78.5765530188
 31
0.0
  0
LINE
  5
1BA
330
1F
100
AcDbEntity
  8
0
  6
Continuous
 62
     7
370
    25
100
AcDbLine
 10
173.8664549654
 20
77.9765530188
 30
0.0
 11
173.8664549654
 21
78.5765530188
 31
0.0
  0
LINE
  5
1BB
330
1F
100
AcDbEntity
  8
0
  6
Continuous
 62
     7
370
    25
100
AcDbLine
 10
174.1164549654
 20
77.9765530188
 30
0.0
 11
173.8664549654
 21
77.9765530188
 31
0.0
  0
SPLINE
  5
1BC
330
1F
100
AcDbEntity
  8
0
  6
Continuous
 62
     7
370
    25
100
AcDbSpline
210
0.0
220
0.0
230
1.0
 70
     8
 71
     3
 72
    15
 73
    11
 74
     0
 42
0.00000001
 43
0.00000001
 40
0.0
 40
0.0
 40
0.0
 40
0.0
 40
0.0081667445812973
 40
0.3321939991490804
 40
0.4756279600585561
 40
0.6866830973284889
 40
0.8457435502264752
 40
0.8967566214763125
 40
0.9909540928118029
 40
1.0
 40
1.0
 40
1.0
 40
1.0
 10
176.6164549653579
 20
78.82655301882258
 30
0.0
 10
176.6178924282969
 20
78.8265503424768
 30
0.0
 10
176.6763632862489
 20
78.82644147829008
 30
0.0
 10
176.760788463968
 20
78.81689546602054
 30
0.0
 10
176.8753675359905
 20
78.77953308276602
 30
0.0
 10
176.9567384231871
 20
78.73466756803133
 30
0.0
 10
177.0097574151888
 20
78.67679126845447
 30
0.0
 10
177.0339593470329
 20
78.6261152284825
 30
0.0
 10
177.0401489676991
 20
78.59742094896255
 30
0.0
 10
177.0403503631117
 20
78.57823411740699
 30
0.0
 10
177.0403680088361
 20
78.57655301882258
 30
0.0
  0
LINE
  5
1BD
330
1F
100
AcDbEntity
  8
0
  6
Continuous
 62
     7
370
    25
100
AcDbLine
 10
176.8664549654
 20
78.5765530188
 30
0.0
 11
177.0403680088
 21
78.5765530188
 31
0.0
  0
LINE
  5
1BE
330
1F
100
AcDbEntity
  8
0
  6
Continuous
 62
     7
370
    25
100
AcDbLine
 10
173.6925419219
 20
78.5765530188
 30
0.0
 11
173.8664549654
 21
78.5765530188
 31
0.0
  0
SPLINE
  5
1BF
330
1F
100
AcDbEntity
  8
0
  6
Continuous
 62
     7
370
    25
100
AcDbSpline
210
0.0
220
0.0
230
1.0
 70
     8
 71
     3
 72
    15
 73
    11
 74
     0
 42
0.00000001
 43
0.00000001
 40
0.0
 40
0.0
 40
0.0
 40
0.0
 40
0.0090459071881971
 40
0.1032433785236874
 40
0.1542564497735246
 40
0.3133169026715107
 40
0.5243720399414428
 40
0.6678060008509905
 40
0.9918332554187292
 40
1.0
 40
1.0
 40
1.0
 40
1.0
 10
173.6925419218796
 20
78.57655301882258
 30
0.0
 10
173.6925595676041
 20
78.57823411740699
 30
0.0
 10
173.6927609630166
 20
78.59742094896252
 30
0.0
 10
173.6989505836828
 20
78.6261152284825
 30
0.0
 10
173.7231525155269
 20
78.67679126845444
 30
0.0
 10
173.7761715075286
 20
78.73466756803136
 30
0.0
 10
173.8575423947252
 20
78.77953308276602
 30
0.0
 10
173.9721214667476
 20
78.81689546602054
 30
0.0
 10
174.0565466444671
 20
78.8264414782902
 30
0.0
 10
174.1150175024189
 20
78.8265503424768
 30
0.0
 10
174.1164549653579
 20
78.82655301882258
 30
0.0
  0
LINE
  5
1C0
330
1F
100
AcDbEntity
  8
0
  6
Continuous
 62
     7
370
    25
100
AcDbLine
 10
177.0403680088
 20
78.5765530188
 30
0.0
 11
177.0403680088
 21
77.9765530188
 31
0.0
  0
LINE
  5
1C1
330
1F
100
AcDbEntity
  8
0
  6
Continuous
 62
     7
370
    25
100
AcDbLine
 10
177.0403680088
 20
77.9765530188
 30
0.0
 11
176.8664549654
 21
77.9765530188
 31
0.0
  0
LINE
  5
1C2
330
1F
100
AcDbEntity
  8
0
  6
Continuous
 62
     7
370
    25
100
AcDbLine
 10
173.6925419219
 20
77.9765530188
 30
0.0
 11
173.6925419219
 21
78.5765530188
 31
0.0
  0
LINE
  5
1C3
330
1F
100
AcDbEntity
  8
0
  6
Continuous
 62
     7
370
    25
100
AcDbLine
 10
173.8664549654
 20
77.9765530188
 30
0.0
 11
173.6925419219
 21
77.9765530188
 31
0.0
  0
LINE
  5
1C4
330
1F
100
AcDbEntity
  8
0
  6
Continuous
 62
     7
370
    25
100
AcDbLine
 10
176.6164549654
 20
78.8265530188
 30
0.0
 11
180.6164549654
 21
78.8265530188
 31
0.0
  0
LINE
  5
1C5
330
1F
100
AcDbEntity
  8
0
  6
Continuous
 62
     7
370
    25
100
AcDbLine
 10
170.1164549654
 20
78.8265530188
 30
0.0
 11
174.1164549654
 21
78.8265530188
 31
0.0
  0
LINE
  5
1C6
330
1F
100
AcDbEntity
  8
0
  6
Continuous
 62
     7
370
    25
100
AcDbLine
 10
177.0403680088
 20
77.9765530188
 30
0.0
 11
180.8664549654
 21
77.9765530188
 31
0.0
  0
LINE
  5
1C7
330
1F
100
AcDbEntity
  8
0
  6
Continuous
 62
     7
370
    25
100
AcDbLine
 10
169.8664549654
 20
77.9765530188
 30
0.0
 11
173.6925419219
 21
77.9765530188
 31
0.0
  0
LINE
  5
1C8
330
1F
100
AcDbEntity
  8
0
  6
Continuous
 62
     7
370
    25
100
AcDbLine
 10
174.7664549654
 20
78.8265530188
 30
0.0
 11
174.7664549654
 21
78.8365530188
 31
0.0
  0
LINE
  5
1C9
330
1F
100
AcDbEntity
  8
0
  6
Continuous
 62
     7
370
    25
100
AcDbLine
 10
175.9664549654
 20
78.8265530188
 30
0.0
 11
175.9664549654
 21
78.8365530188
 31
0.0
  0
LINE
  5
1CA
330
1F
100
AcDbEntity
  8
0
  6
Continuous
 62
     7
370
    25
100
AcDbLine
 10
174.7664549654
 20
78.8365530188
 30
0.0
 11
175.9664549654
 21
78.8365530188
 31
0.0
  0
LINE
  5
1CB
330
1F
100
AcDbEntity
  8
0
  6
Continuous
 62
     7
370
    25
100
AcDbLine
 10
168.3664549654
 20
61.9765530188
 30
0.0
 11
182.3664549654
 21
61.9765530188
 31
0.0
  0
LINE
  5
1CC
330
1F
100
AcDbEntity
  8
0
  6
Continuous
 62
     7
370
    25
100
AcDbLine
 10
167.9164549654
 20
69.9765530188
 30
0.0
 11
182.8164549654
 21
69.9765530188
 31
0.0
  0
LINE
  5
1CD
330
1F
100
AcDbEntity
  8
0
  6
Continuous
 62
     7
370
    25
100
AcDbLine
 10
178.6381542294
 20
79.9765530188
 30
0.0
 11
178.6381542294
 21
78.8265530188
 31
0.0
  0
LINE
  5
1CE
330
1F
100
AcDbEntity
  8
0
  6
Continuous
 62
     7
370
    25
100
AcDbLine
 10
178.6381542294
 20
79.9765530188
 30
0.0
 11
178.8664549654
 21
79.9765530188
 31
0.0
  0
LINE
  5
1CF
330
1F
100
AcDbEntity
  8
0
  6
Continuous
 62
     7
370
    25
100
AcDbLine
 10
178.8664549654
 20
78.8265530188
 30
0.0
 11
178.8664549654
 21
79.9765530188
 31
0.0
  0
LINE
  5
1D0
330
1F
100
AcDbEntity
  8
0
  6
Continuous
 62
     7
370
    25
100
AcDbLine
 10
171.8664549654
 20
79.9765530188
 30
0.0
 11
171.8664549654
 21
78.8265530188
 31
0.0
  0
LINE
  5
1D1
330
1F
100
AcDbEntity
  8
0
  6
Continuous
 62
     7
370
    25
100
AcDbLine
 10
171.8664549654
 20
79.9765530188
 30
0.0
 11
172.0947557013
 21
79.9765530188
 31
0.0
  0
LINE
  5
1D2
330
1F
100
AcDbEntity
  8
0
  6
Continuous
 62
     7
370
    25
100
AcDbLine
 10
172.0947557013
 20
79.9765530188
 30
0.0
 11
172.0947557013
 21
78.8265530188
 31
0.0
  0
LINE
  5
1D3
330
1F
100
AcDbEntity
  8
0
  6
Continuous
 62
     7
370
    25
100
AcDbLine
 10
172.0947557013
 20
79.9765530188
 30
0.0
 11
178.6381542294
 21
79.9765530188
 31
0.0
  0
LINE
  5
1D4
330
1F
100
AcDbEntity
  8
0
  6
Continuous
 62
     7
370
    25
100
AcDbLine
 10
180.8664549654
 20
78.5765530188
 30
0.0
 11
177.0403680088
 21
78.5765530188
 31
0.0
  0
LINE
  5
1D5
330
1F
100
AcDbEntity
  8
0
  6
Continuous
 62
     7
370
    25
100
AcDbLine
 10
173.6925419219
 20
78.5765530188
 30
0.0
 11
169.8664549654
 21
78.5765530188
 31
0.0
  0
INSERT
  5
1E1
330
1F
100
AcDbEntity
  8
FORMAT
100
AcDbBlockReference
  2
SW_CENTERMARKSYMBOL_0
 10
175.3664549654
 20
49.4765530188
 30
0.0
  0
LINE
  5
1E2
330
1F
100
AcDbEntity
  8
0
  6
Continuous
 62
     7
370
    25
100
AcDbLine
 10
101.7075388761
 20
103.235977194
 30
0.0
 11
101.8518764434
 21
103.485977194
 31
0.0
  0
LINE
  5
1E3
330
1F
100
AcDbEntity
  8
0
  6
Continuous
 62
     7
370
    25
100
AcDbLine
 10
101.8518764434
 20
124.985977194
 30
0.0
 11
101.7075388761
 21
125.235977194
 31
0.0
  0
LINE
  5
1E4
330
1F
100
AcDbEntity
  8
0
  6
Continuous
 62
     7
370
    25
100
AcDbLine
 10
85.9962140107
 20
125.235977194
 30
0.0
 11
85.8518764434
 21
124.985977194
 31
0.0
  0
LINE
  5
1E5
330
1F
100
AcDbEntity
  8
0
  6
Continuous
 62
     7
370
    25
100
AcDbLine
 10
85.8518764434
 20
103.485977194
 30
0.0
 11
85.9962140107
 21
103.235977194
 31
0.0
  0
LINE
  5
1E6
330
1F
100
AcDbEntity
  8
0
  6
Continuous
 62
     7
370
    25
100
AcDbLine
 10
102.1018764434
 20
102.235977194
 30
0.0
 11
104.8589832246
 21
102.235977194
 31
0.0
  0
LINE
  5
1E7
330
1F
100
AcDbEntity
  8
0
  6
Continuous
 62
     7
370
    25
100
AcDbLine
 10
104.8589832246
 20
126.235977194
 30
0.0
 11
102.1018764434
 21
126.235977194
 31
0.0
  0
LINE
  5
1E8
330
1F
100
AcDbEntity
  8
0
  6
Continuous
 62
     7
370
    25
100
AcDbLine
 10
127.3518764434
 20
126.235977194
 30
0.0
 11
124.3447696622
 21
126.235977194
 31
0.0
  0
LINE
  5
1E9
330
1F
100
AcDbEntity
  8
0
  6
Continuous
 62
     7
370
    25
100
AcDbLine
 10
124.3447696622
 20
102.235977194
 30
0.0
 11
127.3518764434
 21
102.235977194
 31
0.0
  0
LINE
  5
1EA
330
1F
100
AcDbEntity
  8
0
  6
Continuous
 62
     7
370
    25
100
AcDbLine
 10
102.1018764434
 20
126.235977194
 30
0.0
 11
101.8518764434
 21
125.985977194
 31
0.0
  0
LINE
  5
1EB
330
1F
100
AcDbEntity
  8
0
  6
Continuous
 62
     7
370
    25
100
AcDbLine
 10
101.8518764434
 20
102.485977194
 30
0.0
 11
102.1018764434
 21
102.235977194
 31
0.0
  0
LINE
  5
1EC
330
1F
100
AcDbEntity
  8
0
  6
Continuous
 62
     7
370
    25
100
AcDbLine
 10
127.3518764434
 20
105.665914694
 30
0.0
 11
138.8201756222
 21
106.0242990433
 31
0.0
  0
LINE
  5
1ED
330
1F
100
AcDbEntity
  8
0
  6
Continuous
 62
     7
370
    25
100
AcDbLine
 10
138.8201756222
 20
122.4476553447
 30
0.0
 11
127.3518764434
 21
122.806039694
 31
0.0
  0
LINE
  5
1EE
330
1F
100
AcDbEntity
  8
0
  6
Continuous
 62
     7
370
    25
100
AcDbLine
 10
138.8201756222
 20
106.0242990433
 30
0.0
 11
141.3518764434
 21
107.485977194
 31
0.0
  0
LINE
  5
1EF
330
1F
100
AcDbEntity
  8
0
  6
Continuous
 62
     7
370
    25
100
AcDbLine
 10
141.3518764434
 20
120.985977194
 30
0.0
 11
138.8201756222
 21
122.4476553447
 31
0.0
  0
LINE
  5
1F0
330
1F
100
AcDbEntity
  8
0
  6
Continuous
 62
     7
370
    25
100
AcDbLine
 10
124.3447696622
 20
126.235977194
 30
0.0
 11
124.101910438
 21
125.9931179697
 31
0.0
  0
LINE
  5
1F1
330
1F
100
AcDbEntity
  8
0
  6
Continuous
 62
     7
370
    25
100
AcDbLine
 10
104.8589832246
 20
102.235977194
 30
0.0
 11
105.1018424489
 21
102.4788364183
 31
0.0
  0
LINE
  5
1F2
330
1F
100
AcDbEntity
  8
0
  6
Continuous
 62
     7
370
    25
100
AcDbLine
 10
124.101910438
 20
102.4788364183
 30
0.0
 11
124.3447696622
 21
102.235977194
 31
0.0
  0
LINE
  5
1F3
330
1F
100
AcDbEntity
  8
0
  6
Continuous
 62
     7
370
    25
100
AcDbLine
 10
105.1018424489
 20
125.9931179697
 30
0.0
 11
104.8589832246
 21
126.235977194
 31
0.0
  0
ARC
  5
1F4
330
1F
100
AcDbEntity
  8
0
  6
Continuous
 62
     7
370
    25
100
AcDbCircle
 10
124.8518764434
 20
125.985977194
 30
0.0
 40
0.75
100
AcDbArc
 50
179.4544766745
 51
180.0
  0
ARC
  5
1F5
330
1F
100
AcDbEntity
  8
0
  6
Continuous
 62
     7
370
    25
100
AcDbCircle
 10
104.3518764434
 20
102.485977194
 30
0.0
 40
0.75
100
AcDbArc
 50
359.4544766745
 51
0.0
  0
ARC
  5
1F6
330
1F
100
AcDbEntity
  8
0
  6
Continuous
 62
     7
370
    25
100
AcDbCircle
 10
104.3518764434
 20
125.985977194
 30
0.0
 40
0.75
100
AcDbArc
 50
0.0
 51
0.5455233255
  0
SPLINE
  5
1F7
330
1F
100
AcDbEntity
  8
0
  6
Continuous
 62
     7
370
    25
100
AcDbSpline
210
0.0
220
0.0
230
1.0
 70
     8
 71
     3
 72
    13
 73
     9
 74
     0
 42
0.00000001
 43
0.00000001
 40
0.0
 40
0.0
 40
0.0
 40
0.0
 40
0.0287665419095584
 40
0.2475513776571892
 40
0.4339505514975147
 40
0.6203788015378516
 40
0.8101710512532004
 40
1.0
 40
1.0
 40
1.0
 40
1.0
 10
101.6380788684791
 20
118.4205213691749
 30
0.0
 10
101.6468065454017
 20
118.4862619461499
 30
0.0
 10
101.7219128425962
 20
119.0519945409574
 30
0.0
 10
101.7197096905385
 20
120.0537990814047
 30
0.0
 10
101.6297804948304
 20
121.4123882039197
 30
0.0
 10
101.4236635326975
 20
122.6955202587367
 30
0.0
 10
101.1254954572642
 20
123.9725919832165
 30
0.0
 10
100.8585460905814
 20
124.8148216501785
 30
0.0
 10
100.7250585038731
 20
125.2359771939954
 30
0.0
  0
SPLINE
  5
1F8
330
1F
100
AcDbEntity
  8
0
  6
Continuous
 62
     7
370
    25
100
AcDbSpline
210
0.0
220
0.0
230
1.0
 70
    24
 71
     3
 72
    12
 73
     8
 74
     0
 42
0.00000001
 43
0.00000001
 40
0.0
 40
0.0
 40
0.0
 40
0.0
 40
0.1888059664391003
 40
0.3775936099322536
 40
0.5681827490710655
 40
0.7587511106772515
 40
1.0
 40
1.0
 40
1.0
 40
1.0
 10
100.7250585038731
 20
125.2359771939954
 30
0.0
 10
100.8334409217495
 20
125.2359771939954
 30
0.0
 10
101.0501952393752
 20
125.2359771939954
 30
0.0
 10
101.3140026006203
 20
125.2359771939954
 30
0.0
 10
101.5188927279926
 20
125.2359771939954
 30
0.0
 10
101.6744234486567
 20
125.2359771939954
 30
0.0
 10
101.6936315505523
 20
125.2359771939954
 30
0.0
 10
101.7043627875243
 20
125.2359771939954
 30
0.0
  0
SPLINE
  5
1F9
330
1F
100
AcDbEntity
  8
0
  6
Continuous
 62
     7
370
    25
100
AcDbSpline
210
0.0
220
0.0
230
1.0
 70
    24
 71
     3
 72
    12
 73
     8
 74
     0
 42
0.00000001
 43
0.00000001
 40
0.0
 40
0.0
 40
0.0
 40
0.0
 40
0.2412462216089436
 40
0.4298987537810143
 40
0.618571216651596
 40
0.8092760520473766
 40
1.0
 40
1.0
 40
1.0
 40
1.0
 10
101.7026329462243
 20
103.2359771939954
 30
0.0
 10
101.6926591238708
 20
103.2359771939954
 30
0.0
 10
101.6748858556653
 20
103.2359771939954
 30
0.0
 10
101.5203386302809
 20
103.2359771939954
 30
0.0
 10
101.3172317750899
 20
103.2359771939954
 30
0.0
 10
101.0533653109587
 20
103.2359771939955
 30
0.0
 10
100.834497761892
 20
103.2359771939955
 30
0.0
 10
100.7250585038731
 20
103.2359771939955
 30
0.0
  0
SPLINE
  5
1FA
330
1F
100
AcDbEntity
  8
0
  6
Continuous
 62
     7
370
    25
100
AcDbSpline
210
0.0
220
0.0
230
1.0
 70
     8
 71
     3
 72
    12
 73
     8
 74
     0
 42
0.00000001
 43
0.00000001
 40
0.0
 40
0.0
 40
0.0
 40
0.0
 40
0.2140692913741727
 40
0.4280780563293655
 40
0.6468743719532843
 40
0.8656312051332565
 40
1.0
 40
1.0
 40
1.0
 40
1.0
 10
100.7250585038731
 20
103.2359771939955
 30
0.0
 10
100.8745543091792
 20
103.7112202314844
 30
0.0
 10
101.1735036510208
 20
104.6615719352079
 30
0.0
 10
101.4963063625584
 20
106.1251078243056
 30
0.0
 10
101.6859008089122
 20
107.6159143757591
 30
0.0
 10
101.7337551496693
 20
108.9339942902515
 30
0.0
 10
101.6626451628801
 20
109.7443049583074
 30
0.0
 10
101.6355869080581
 20
110.0526384784107
 30
0.0
  0
LINE
  5
1FB
330
1F
100
AcDbEntity
  8
0
  6
Continuous
 62
     7
370
    25
100
AcDbLine
 10
86.978694383
 20
125.235977194
 30
0.0
 11
100.7250585039
 21
125.235977194
 31
0.0
  0
SPLINE
  5
1FC
330
1F
100
AcDbEntity
  8
0
  6
Continuous
 62
     7
370
    25
100
AcDbSpline
210
0.0
220
0.0
230
1.0
 70
     8
 71
     3
 72
    13
 73
     9
 74
     0
 42
0.00000001
 43
0.00000001
 40
0.0
 40
0.0
 40
0.0
 40
0.0
 40
0.1169059602690268
 40
0.3158360762188227
 40
0.4853195284804525
 40
0.6548294182774805
 40
0.8273980248412277
 40
1.0
 40
1.0
 40
1.0
 40
1.0
 10
86.1529401598318
 20
117.7359771939954
 30
0.0
 10
86.11077049465536
 20
118.0295709873436
 30
0.0
 10
85.99684386889444
 20
118.822751347694
 30
0.0
 10
85.97981870956585
 20
120.0534806148232
 30
0.0
 10
86.0750261115091
 20
121.4124676394747
 30
0.0
 10
86.27980267771315
 20
122.6954986473867
 30
0.0
 10
86.57832964818968
 20
123.9725974274793
 30
0.0
 10
86.84523087067858
 20
124.8148234650497
 30
0.0
 10
86.9786943829628
 20
125.2359771939954
 30
0.0
  0
SPLINE
  5
1FD
330
1F
100
AcDbEntity
  8
0
  6
Continuous
 62
     7
370
    25
100
AcDbSpline
210
0.0
220
0.0
230
1.0
 70
    24
 71
     3
 72
    12
 73
     8
 74
     0
 42
0.00000001
 43
0.00000001
 40
0.0
 40
0.0
 40
0.0
 40
0.0
 40
0.2412462216089435
 40
0.4298987537810142
 40
0.618571216651596
 40
0.8092760520473766
 40
1.0
 40
1.0
 40
1.0
 40
1.0
 10
86.00111994061163
 20
103.2359771939954
 30
0.0
 10
86.01109376296513
 20
103.2359771939954
 30
0.0
 10
86.02886703117058
 20
103.2359771939954
 30
0.0
 10
86.18341425655495
 20
103.2359771939954
 30
0.0
 10
86.38652111174598
 20
103.2359771939954
 30
0.0
 10
86.65038757587715
 20
103.2359771939955
 30
0.0
 10
86.86925512494385
 20
103.2359771939955
 30
0.0
 10
86.9786943829628
 20
103.2359771939955
 30
0.0
  0
SPLINE
  5
1FE
330
1F
100
AcDbEntity
  8
0
  6
Continuous
 62
     7
370
    25
100
AcDbSpline
210
0.0
220
0.0
230
1.0
 70
    24
 71
     3
 72
    12
 73
     8
 74
     0
 42
0.00000001
 43
0.00000001
 40
0.0
 40
0.0
 40
0.0
 40
0.0
 40
0.1888059664391002
 40
0.3775936099322536
 40
0.5681827490710655
 40
0.7587511106772515
 40
1.0
 40
1.0
 40
1.0
 40
1.0
 10
86.9786943829628
 20
125.2359771939954
 30
0.0
 10
86.87031196508634
 20
125.2359771939954
 30
0.0
 10
86.6535576474607
 20
125.2359771939954
 30
0.0
 10
86.38975028621559
 20
125.2359771939954
 30
0.0
 10
86.18486015884328
 20
125.2359771939954
 30
0.0
 10
86.02932943817919
 20
125.2359771939954
 30
0.0
 10
86.01012133628358
 20
125.2359771939954
 30
0.0
 10
85.99939009931157
 20
125.2359771939954
 30
0.0
  0
SPLINE
  5
1FF
330
1F
100
AcDbEntity
  8
0
  6
Continuous
 62
     7
370
    25
100
AcDbSpline
210
0.0
220
0.0
230
1.0
 70
     8
 71
     3
 72
    13
 73
     9
 74
     0
 42
0.00000001
 43
0.00000001
 40
0.0
 40
0.0
 40
0.0
 40
0.0
 40
0.1946881205502775
 40
0.3893211945561434
 40
0.5883083692167561
 40
0.7872596360516486
 40
0.9567611083350662
 40
1.0
 40
1.0
 40
1.0
 40
1.0
 10
86.9786943829628
 20
103.2359771939955
 30
0.0
 10
86.82909542138349
 20
103.7112285691634
 30
0.0
 10
86.52993979616198
 20
104.6615969458874
 30
0.0
 10
86.20869540783713
 20
106.125006882406
 30
0.0
 10
86.01305193446834
 20
107.616302350759
 30
0.0
 10
85.98242976702771
 20
109.0524945771853
 30
0.0
 10
86.03963660979096
 20
110.094855731271
 30
0.0
 10
86.12710754501853
 20
110.6276817721481
 30
0.0
 10
86.14488577112449
 20
110.7359771939954
 30
0.0
  0
LINE
  5
200
330
1F
100
AcDbEntity
  8
0
  6
Continuous
 62
     7
370
    25
100
AcDbLine
 10
85.8518764434
 20
103.485977194
 30
0.0
 11
85.8518764434
 21
110.735977194
 31
0.0
  0
LINE
  5
201
330
1F
100
AcDbEntity
  8
0
  6
Continuous
 62
     7
370
    25
100
AcDbLine
 10
85.8518764434
 20
117.735977194
 30
0.0
 11
85.8518764434
 21
124.985977194
 31
0.0
  0
LINE
  5
202
330
1F
100
AcDbEntity
  8
0
  6
Continuous
 62
     7
370
    25
100
AcDbLine
 10
86.978694383
 20
103.235977194
 30
0.0
 11
100.7250585039
 21
103.235977194
 31
0.0
  0
LINE
  5
203
330
1F
100
AcDbEntity
  8
0
  6
Continuous
 62
     7
370
    25
100
AcDbLine
 10
102.1018764434
 20
126.235977194
 30
0.0
 11
102.1018764434
 21
118.4601191948
 31
0.0
  0
LINE
  5
204
330
1F
100
AcDbEntity
  8
0
  6
Continuous
 62
     7
370
    25
100
AcDbLine
 10
102.1018764434
 20
110.0118351932
 30
0.0
 11
102.1018764434
 21
102.235977194
 31
0.0
  0
LINE
  5
205
330
1F
100
AcDbEntity
  8
0
  6
Continuous
 62
     7
370
    25
100
AcDbLine
 10
104.8589832246
 20
125.8676914201
 30
0.0
 11
104.8589832246
 21
126.235977194
 31
0.0
  0
SPLINE
  5
206
330
1F
100
AcDbEntity
  8
0
  6
Continuous
 62
     7
370
    25
100
AcDbSpline
210
0.0
220
0.0
230
1.0
 70
     8
 71
     3
 72
    18
 73
    14
 74
     0
 42
0.00000001
 43
0.00000001
 40
0.0
 40
0.0
 40
0.0
 40
0.0
 40
0.0297375917713251
 40
0.0622585994666694
 40
0.1245690829005809
 40
0.1747355398269535
 40
0.2498061834274977
 40
0.3751803602811958
 40
0.437745418625877
 40
0.5002333231923135
 40
0.74993137206443
 40
0.8691943481444401
 40
1.0
 40
1.0
 40
1.0
 40
1.0
 10
105.124898162002
 20
125.2594628908875
 30
0.0
 10
105.113018684925
 20
125.265418612825
 30
0.0
 10
105.088147820771
 20
125.2778875077339
 30
0.0
 10
105.0483215026672
 20
125.3052089097529
 30
0.0
 10
105.0119891715056
 20
125.3383906226355
 30
0.0
 10
104.9762170117813
 20
125.3818459897288
 30
0.0
 10
104.9401460374104
 20
125.43968151123
 30
0.0
 10
104.9152533574995
 20
125.49878547393
 30
0.0
 10
104.8980177315876
 20
125.5530059422895
 30
0.0
 10
104.8776240727976
 20
125.6320555770114
 30
0.0
 10
104.8658066556333
 20
125.7165977185914
 30
0.0
 10
104.8597141980042
 20
125.805795215025
 30
0.0
 10
104.8592342666336
 20
125.8464340817259
 30
0.0
 10
104.8589832246045
 20
125.8676914201348
 30
0.0
  0
SPLINE
  5
207
330
1F
100
AcDbEntity
  8
0
  6
Continuous
 62
     7
370
    25
100
AcDbSpline
210
0.0
220
0.0
230
1.0
 70
     8
 71
     3
 72
    13
 73
     9
 74
     0
 42
0.00000001
 43
0.00000001
 40
0.0
 40
0.0
 40
0.0
 40
0.0
 40
0.2491824652871812
 40
0.498773852101127
 40
0.6338602399483602
 40
0.7494868859161712
 40
0.8759187542426342
 40
1.0
 40
1.0
 40
1.0
 40
1.0
 10
105.030583219071
 20
125.1273154364878
 30
0.0
 10
105.0497088030864
 20
125.1371745821415
 30
0.0
 10
105.0879913572061
 20
125.1569090528253
 30
0.0
 10
105.1272445285021
 20
125.1844586172983
 30
0.0
 10
105.1488092659099
 20
125.2077575532552
 30
0.0
 10
105.1563623250684
 20
125.2260875405685
 30
0.0
 10
105.151238652988
 20
125.2444324094257
 30
0.0
 10
105.13362322913
 20
125.2544841697319
 30
0.0
 10
105.124898162002
 20
125.2594628908875
 30
0.0
  0
SPLINE
  5
208
330
1F
100
AcDbEntity
  8
0
  6
Continuous
 62
     7
370
    25
100
AcDbSpline
210
0.0
220
0.0
230
1.0
 70
     8
 71
     3
 72
    13
 73
     9
 74
     0
 42
0.00000001
 43
0.00000001
 40
0.0
 40
0.0
 40
0.0
 40
0.0
 40
0.1266963143627904
 40
0.2513113397887914
 40
0.5007108425293433
 40
0.7510525732451319
 40
0.8768673774687907
 40
1.0
 40
1.0
 40
1.0
 40
1.0
 10
104.8589832246045
 20
124.8963032528777
 30
0.0
 10
104.8594357392379
 20
124.9072073783175
 30
0.0
 10
104.8603333348732
 20
124.9288365029473
 30
0.0
 10
104.8702261084903
 20
124.9710969192858
 30
0.0
 10
104.894480365369
 20
125.0222592790262
 30
0.0
 10
104.9389156948586
 20
125.0697538091807
 30
0.0
 10
104.9867599166587
 20
125.1043173453124
 30
0.0
 10
105.0160807533722
 20
125.1197046675535
 30
0.0
 10
105.0305832190792
 20
125.1273154364857
 30
0.0
  0
LINE
  5
209
330
1F
100
AcDbEntity
  8
0
  6
Continuous
 62
     7
370
    25
100
AcDbLine
 10
104.8589832246
 20
103.5756511351
 30
0.0
 11
104.8589832246
 21
109.5359133897
 31
0.0
  0
LINE
  5
20A
330
1F
100
AcDbEntity
  8
0
  6
Continuous
 62
     7
370
    25
100
AcDbLine
 10
104.8589832246
 20
118.9360409983
 30
0.0
 11
104.8589832246
 21
124.8963032529
 31
0.0
  0
SPLINE
  5
20B
330
1F
100
AcDbEntity
  8
0
  6
Continuous
 62
     7
370
    25
100
AcDbSpline
210
0.0
220
0.0
230
1.0
 70
     8
 71
     3
 72
    13
 73
     9
 74
     0
 42
0.00000001
 43
0.00000001
 40
0.0
 40
0.0
 40
0.0
 40
0.0
 40
0.123409203972734
 40
0.2495635406297123
 40
0.5004511475233475
 40
0.749483003608821
 40
0.8735723371285005
 40
1.0
 40
1.0
 40
1.0
 40
1.0
 10
105.0305832190792
 20
103.3446389515051
 30
0.0
 10
105.0160501771612
 20
103.3522675570026
 30
0.0
 10
104.9866608181798
 20
103.3676944598328
 30
0.0
 10
104.9387346016479
 20
103.4023476945755
 30
0.0
 10
104.8943403114361
 20
103.4498999217089
 30
0.0
 10
104.8701649267262
 20
103.5010435024435
 30
0.0
 10
104.8603313302034
 20
103.5432093152717
 30
0.0
 10
104.8594353807393
 20
103.5647701122384
 30
0.0
 10
104.8589832246045
 20
103.5756511351207
 30
0.0
  0
SPLINE
  5
20C
330
1F
100
AcDbEntity
  8
0
  6
Continuous
 62
     7
370
    25
100
AcDbSpline
210
0.0
220
0.0
230
1.0
 70
     8
 71
     3
 72
    14
 73
    10
 74
     0
 42
0.00000001
 43
0.00000001
 40
0.0
 40
0.0
 40
0.0
 40
0.0
 40
0.0833728361874164
 40
0.1651391830231223
 40
0.2505782922901014
 40
0.3661552980483097
 40
0.5013015333863843
 40
0.7511277814203854
 40
1.0
 40
1.0
 40
1.0
 40
1.0
 10
105.124898162002
 20
103.2124914971033
 30
0.0
 10
105.1310106397933
 20
103.2157274549209
 30
0.0
 10
105.1431178156417
 20
103.2221370177321
 30
0.0
 10
105.1528965908191
 20
103.2338589253989
 30
0.0
 10
105.1556599943336
 20
103.2477082142819
 30
0.0
 10
105.148824298384
 20
103.2641579423216
 30
0.0
 10
105.12730896093
 20
103.2874513592789
 30
0.0
 10
105.0880017245626
 20
103.3150415944189
 30
0.0
 10
105.0496982955933
 20
103.3347857562581
 30
0.0
 10
105.0305832190792
 20
103.3446389515051
 30
0.0
  0
SPLINE
  5
20D
330
1F
100
AcDbEntity
  8
0
  6
Continuous
 62
     7
370
    25
100
AcDbSpline
210
0.0
220
0.0
230
1.0
 70
     8
 71
     3
 72
    17
 73
    13
 74
     0
 42
0.00000001
 43
0.00000001
 40
0.0
 40
0.0
 40
0.0
 40
0.0
 40
0.1308472312971285
 40
0.2501712416478232
 40
0.5002181447817603
 40
0.5625722445347702
 40
0.6248529024619178
 40
0.7493346422976469
 40
0.8746411565565786
 40
0.9373094462329892
 40
0.9700546542881243
 40
1.0
 40
1.0
 40
1.0
 40
1.0
 10
104.8589832246045
 20
102.6042629678603
 30
0.0
 10
104.8592345224226
 20
102.6255254303892
 30
0.0
 10
104.8597149872101
 20
102.6661778507624
 30
0.0
 10
104.865814665818
 20
102.7554509190214
 30
0.0
 10
104.8776431810861
 20
102.8400528258408
 30
0.0
 10
104.8980642589196
 20
102.919089624082
 30
0.0
 10
104.9151947946928
 20
102.9730341115341
 30
0.0
 10
104.944864178425
 20
103.0430696429512
 30
0.0
 10
104.9929044082608
 20
103.1158885414141
 30
0.0
 10
105.047899552793
 20
103.166430158686
 30
0.0
 10
105.0879067893499
 20
103.1939368819834
 30
0.0
 10
105.112940384848
 20
103.2064935592904
 30
0.0
 10
105.124898162002
 20
103.2124914971033
 30
0.0
  0
LINE
  5
20E
330
1F
100
AcDbEntity
  8
0
  6
Continuous
 62
     7
370
    25
100
AcDbLine
 10
104.8589832246
 20
102.235977194
 30
0.0
 11
104.8589832246
 21
102.6042629679
 31
0.0
  0
LINE
  5
20F
330
1F
100
AcDbEntity
  8
0
  6
Continuous
 62
     7
370
    25
100
AcDbLine
 10
127.3518764434
 20
126.235977194
 30
0.0
 11
127.3518764434
 21
102.235977194
 31
0.0
  0
LINE
  5
210
330
1F
100
AcDbEntity
  8
0
  6
Continuous
 62
     7
370
    25
100
AcDbLine
 10
124.3447696622
 20
102.6042629679
 30
0.0
 11
124.3447696622
 21
102.235977194
 31
0.0
  0
SPLINE
  5
211
330
1F
100
AcDbEntity
  8
0
  6
Continuous
 62
     7
370
    25
100
AcDbSpline
210
0.0
220
0.0
230
1.0
 70
     8
 71
     3
 72
    18
 73
    14
 74
     0
 42
0.00000001
 43
0.00000001
 40
0.0
 40
0.0
 40
0.0
 40
0.0
 40
0.0297375917713645
 40
0.0622585994666687
 40
0.1245690829005805
 40
0.1747355398269501
 40
0.2498061834274973
 40
0.3751803602811927
 40
0.4377454186258706
 40
0.5002333231923095
 40
0.7499313720644251
 40
0.8691943481067804
 40
1.0
 40
1.0
 40
1.0
 40
1.0
 10
124.0788547248339
 20
103.2124914971033
 30
0.0
 10
124.0907342019109
 20
103.2065357751658
 30
0.0
 10
124.1156050660649
 20
103.1940668802569
 30
0.0
 10
124.1554313841687
 20
103.1667454782379
 30
0.0
 10
124.1917637153303
 20
103.1335637653553
 30
0.0
 10
124.2275358750546
 20
103.090108398262
 30
0.0
 10
124.2636068494255
 20
103.0322728767608
 30
0.0
 10
124.2884995293364
 20
102.9731689140608
 30
0.0
 10
124.3057351552482
 20
102.9189484457012
 30
0.0
 10
124.3261288140383
 20
102.8398988109794
 30
0.0
 10
124.3379462312007
 20
102.7553566694067
 30
0.0
 10
124.3440386888328
 20
102.6661591729723
 30
0.0
 10
124.3445186202026
 20
102.6255203062711
 30
0.0
 10
124.3447696622314
 20
102.604262967856
 30
0.0
  0
SPLINE
  5
212
330
1F
100
AcDbEntity
  8
0
  6
Continuous
 62
     7
370
    25
100
AcDbSpline
210
0.0
220
0.0
230
1.0
 70
     8
 71
     3
 72
    13
 73
     9
 74
     0
 42
0.00000001
 43
0.00000001
 40
0.0
 40
0.0
 40
0.0
 40
0.0
 40
0.2491824652873015
 40
0.4987738521013417
 40
0.6338602399552326
 40
0.7494868859167351
 40
0.8759187542471398
 40
1.0
 40
1.0
 40
1.0
 40
1.0
 10
124.1731696677648
 20
103.344638951503
 30
0.0
 10
124.1540440837494
 20
103.3347798058493
 30
0.0
 10
124.1157615296296
 20
103.3150453351655
 30
0.0
 10
124.0765083583337
 20
103.2874957706921
 30
0.0
 10
124.0549436209251
 20
103.2641968347353
 30
0.0
 10
124.0473905617674
 20
103.2458668474217
 30
0.0
 10
124.052514233849
 20
103.2275219785651
 30
0.0
 10
124.0701296577064
 20
103.2174702182588
 30
0.0
 10
124.0788547248339
 20
103.2124914971033
 30
0.0
  0
SPLINE
  5
213
330
1F
100
AcDbEntity
  8
0
  6
Continuous
 62
     7
370
    25
100
AcDbSpline
210
0.0
220
0.0
230
1.0
 70
     8
 71
     3
 72
    13
 73
     9
 74
     0
 42
0.00000001
 43
0.00000001
 40
0.0
 40
0.0
 40
0.0
 40
0.0
 40
0.1266963143628506
 40
0.2513113397887842
 40
0.5007108425293414
 40
0.7510525732451352
 40
0.8768673774688646
 40
1.0
 40
1.0
 40
1.0
 40
1.0
 10
124.3447696622313
 20
103.5756511351131
 30
0.0
 10
124.344317147598
 20
103.5647470096733
 30
0.0
 10
124.3434195519627
 20
103.5431178850435
 30
0.0
 10
124.3335267783456
 20
103.500857468705
 30
0.0
 10
124.3092725214668
 20
103.4496951089646
 30
0.0
 10
124.2648371919773
 20
103.4022005788101
 30
0.0
 10
124.2169929701771
 20
103.3676370426784
 30
0.0
 10
124.1876721334636
 20
103.3522497204373
 30
0.0
 10
124.1731696677567
 20
103.3446389515051
 30
0.0
  0
LINE
  5
214
330
1F
100
AcDbEntity
  8
0
  6
Continuous
 62
     7
370
    25
100
AcDbLine
 10
124.3447696622
 20
124.8963032529
 30
0.0
 11
124.3447696622
 21
103.5756511351
 31
0.0
  0
SPLINE
  5
215
330
1F
100
AcDbEntity
  8
0
  6
Continuous
 62
     7
370
    25
100
AcDbSpline
210
0.0
220
0.0
230
1.0
 70
     8
 71
     3
 72
    13
 73
     9
 74
     0
 42
0.00000001
 43
0.00000001
 40
0.0
 40
0.0
 40
0.0
 40
0.0
 40
0.1234092039900389
 40
0.2495635406298664
 40
0.5004511475234272
 40
0.7494830036088276
 40
0.873572337114055
 40
1.0
 40
1.0
 40
1.0
 40
1.0
 10
124.1731696677567
 20
125.1273154364857
 30
0.0
 10
124.1877027096771
 20
125.1196868309872
 30
0.0
 10
124.2170920686594
 20
125.1042599281573
 30
0.0
 10
124.2650182851883
 20
125.0696066934138
 30
0.0
 10
124.3094125754002
 20
125.022054466282
 30
0.0
 10
124.3335879601086
 20
124.9709108855486
 30
0.0
 10
124.3434215566332
 20
124.9287450727204
 30
0.0
 10
124.3443175060968
 20
124.9071842757538
 30
0.0
 10
124.3447696622314
 20
124.8963032528702
 30
0.0
  0
SPLINE
  5
216
330
1F
100
AcDbEntity
  8
0
  6
Continuous
 62
     7
370
    25
100
AcDbSpline
210
0.0
220
0.0
230
1.0
 70
     8
 71
     3
 72
    14
 73
    10
 74
     0
 42
0.00000001
 43
0.00000001
 40
0.0
 40
0.0
 40
0.0
 40
0.0
 40
0.0833728361833343
 40
0.1651391830190603
 40
0.2505782922894228
 40
0.3661552980481382
 40
0.5013015333862739
 40
0.7511277814203333
 40
1.0
 40
1.0
 40
1.0
 40
1.0
 10
124.0788547248339
 20
125.2594628908875
 30
0.0
 10
124.072742247043
 20
125.2562269330701
 30
0.0
 10
124.060635071195
 20
125.2498173702589
 30
0.0
 10
124.0508562960179
 20
125.2380954625922
 30
0.0
 10
124.0480928925021
 20
125.224246173709
 30
0.0
 10
124.0549285884504
 20
125.207796445669
 30
0.0
 10
124.0764439259067
 20
125.184503028712
 30
0.0
 10
124.115751162273
 20
125.1569127935719
 30
0.0
 10
124.1540545912425
 20
125.1371686317327
 30
0.0
 10
124.1731696677567
 20
125.1273154364857
 30
0.0
  0
SPLINE
  5
217
330
1F
100
AcDbEntity
  8
0
  6
Continuous
 62
     7
370
    25
100
AcDbSpline
210
0.0
220
0.0
230
1.0
 70
     8
 71
     3
 72
    17
 73
    13
 74
     0
 42
0.00000001
 43
0.00000001
 40
0.0
 40
0.0
 40
0.0
 40
0.0
 40
0.1308472312969622
 40
0.2501712416478231
 40
0.5002181447817602
 40
0.5625722445347695
 40
0.6248529024619175
 40
0.7493346422976452
 40
0.8746411565565774
 40
0.9373094462329884
 40
0.9700546542881242
 40
0.9999999999999999
 40
0.9999999999999999
 40
0.9999999999999999
 40
0.9999999999999999
 10
124.3447696622314
 20
125.8676914201304
 30
0.0
 10
124.3445183644133
 20
125.8464289576016
 30
0.0
 10
124.3440378996258
 20
125.8057765372284
 30
0.0
 10
124.3379382210179
 20
125.7165034689694
 30
0.0
 10
124.3261097057498
 20
125.63190156215
 30
0.0
 10
124.3056886279162
 20
125.5528647639088
 30
0.0
 10
124.2885580921431
 20
125.4989202764567
 30
0.0
 10
124.2588887084109
 20
125.4288847450396
 30
0.0
 10
124.2108484785751
 20
125.3560658465767
 30
0.0
 10
124.1558533340428
 20
125.3055242293047
 30
0.0
 10
124.115846097486
 20
125.2780175060074
 30
0.0
 10
124.0908125019878
 20
125.2654608287004
 30
0.0
 10
124.0788547248339
 20
125.2594628908875
 30
0.0
  0
LINE
  5
218
330
1F
100
AcDbEntity
  8
0
  6
Continuous
 62
     7
370
    25
100
AcDbLine
 10
124.3447696622
 20
126.235977194
 30
0.0
 11
124.3447696622
 21
125.8676914201
 31
0.0
  0
LINE
  5
219
330
1F
100
AcDbEntity
  8
0
  6
Continuous
 62
     7
370
    25
100
AcDbLine
 10
104.8589832246
 20
124.8963032529
 30
0.0
 11
105.1018424489
 21
124.6805567098
 31
0.0
  0
LINE
  5
21A
330
1F
100
AcDbEntity
  8
0
  6
Continuous
 62
     7
370
    25
100
AcDbLine
 10
105.1018424489
 20
124.6805567098
 30
0.0
 11
105.1018424493
 21
118.9838465461
 31
0.0
  0
LINE
  5
21B
330
1F
100
AcDbEntity
  8
0
  6
Continuous
 62
     7
370
    25
100
AcDbLine
 10
105.1018424493
 20
109.4881078419
 30
0.0
 11
105.1018424489
 21
103.7913976782
 31
0.0
  0
LINE
  5
21C
330
1F
100
AcDbEntity
  8
0
  6
Continuous
 62
     7
370
    25
100
AcDbLine
 10
104.8589832246
 20
103.5756511351
 30
0.0
 11
105.1018424489
 21
103.7913976782
 31
0.0
  0
LINE
  5
21D
330
1F
100
AcDbEntity
  8
0
  6
Continuous
 62
     7
370
    25
100
AcDbLine
 10
124.101910438
 20
103.7913976782
 30
0.0
 11
124.101910438
 21
124.6805567098
 31
0.0
  0
LINE
  5
21E
330
1F
100
AcDbEntity
  8
0
  6
Continuous
 62
     7
370
    25
100
AcDbLine
 10
124.101910438
 20
124.6805567098
 30
0.0
 11
124.3447696622
 21
124.8963032529
 31
0.0
  0
LINE
  5
21F
330
1F
100
AcDbEntity
  8
0
  6
Continuous
 62
     7
370
    25
100
AcDbLine
 10
124.101910438
 20
103.7913976782
 30
0.0
 11
124.3447696622
 21
103.5756511351
 31
0.0
  0
LINE
  5
220
330
1F
100
AcDbEntity
  8
0
  6
Continuous
 62
     7
370
    25
100
AcDbLine
 10
101.8518764434
 20
102.485977194
 30
0.0
 11
101.8518764434
 21
110.0489707487
 31
0.0
  0
LINE
  5
221
330
1F
100
AcDbEntity
  8
0
  6
Continuous
 62
     7
370
    25
100
AcDbLine
 10
101.8518764434
 20
118.4229836393
 30
0.0
 11
101.8518764434
 21
125.985977194
 31
0.0
  0
LINE
  5
222
330
1F
100
AcDbEntity
  8
0
  6
Continuous
 62
     7
370
    25
100
AcDbLine
 10
105.1018764434
 20
124.6716132551
 30
0.0
 11
105.1018764434
 21
118.9838533049
 31
0.0
  0
LINE
  5
223
330
1F
100
AcDbEntity
  8
0
  6
Continuous
 62
     7
370
    25
100
AcDbLine
 10
105.1018764434
 20
109.4881010831
 30
0.0
 11
105.1018764434
 21
103.8003411329
 31
0.0
  0
SPLINE
  5
224
330
1F
100
AcDbEntity
  8
0
  6
Continuous
 62
     7
370
    25
100
AcDbSpline
210
0.0
220
0.0
230
1.0
 70
     8
 71
     3
 72
     8
 73
     4
 74
     0
 42
0.00000001
 43
0.00000001
 40
0.0
 40
0.0
 40
0.0
 40
0.0
 40
1.0
 40
1.0
 40
1.0
 40
1.0
 10
105.1018424488619
 20
103.7913976781796
 30
0.0
 10
105.1018651064728
 20
103.7943772566726
 30
0.0
 10
105.1018764434179
 20
103.7973584075457
 30
0.0
 10
105.1018764434179
 20
103.8003411328825
 30
0.0
  0
SPLINE
  5
225
330
1F
100
AcDbEntity
  8
0
  6
Continuous
 62
     7
370
    25
100
AcDbSpline
210
0.0
220
0.0
230
1.0
 70
     8
 71
     3
 72
     8
 73
     4
 74
     0
 42
0.00000001
 43
0.00000001
 40
0.0
 40
0.0
 40
0.0
 40
0.0
 40
1.0
 40
1.0
 40
1.0
 40
1.0
 10
105.1018764434179
 20
124.6716132551083
 30
0.0
 10
105.1018764434179
 20
124.6745959804397
 30
0.0
 10
105.1018651064729
 20
124.6775771313075
 30
0.0
 10
105.101842448862
 20
124.6805567097952
 30
0.0
  0
LINE
  5
226
330
1F
100
AcDbEntity
  8
0
  6
Continuous
 62
     7
370
    25
100
AcDbLine
 10
124.1018764434
 20
103.8003411329
 30
0.0
 11
124.1018764434
 21
124.6716132551
 31
0.0
  0
SPLINE
  5
227
330
1F
100
AcDbEntity
  8
0
  6
Continuous
 62
     7
370
    25
100
AcDbSpline
210
0.0
220
0.0
230
1.0
 70
     8
 71
     3
 72
     8
 73
     4
 74
     0
 42
0.00000001
 43
0.00000001
 40
0.0
 40
0.0
 40
0.0
 40
0.0
 40
1.0
 40
1.0
 40
1.0
 40
1.0
 10
124.1019104379738
 20
124.6805567097952
 30
0.0
 10
124.101887780363
 20
124.6775771313075
 30
0.0
 10
124.1018764434179
 20
124.6745959804397
 30
0.0
 10
124.1018764434179
 20
124.6716132551083
 30
0.0
  0
SPLINE
  5
228
330
1F
100
AcDbEntity
  8
0
  6
Continuous
 62
     7
370
    25
100
AcDbSpline
210
0.0
220
0.0
230
1.0
 70
     8
 71
     3
 72
     8
 73
     4
 74
     0
 42
0.00000001
 43
0.00000001
 40
0.0
 40
0.0
 40
0.0
 40
0.0
 40
1.0
 40
1.0
 40
1.0
 40
1.0
 10
124.1018764434179
 20
103.8003411328825
 30
0.0
 10
124.1018764434179
 20
103.7973584075511
 30
0.0
 10
124.101887780363
 20
103.7943772566833
 30
0.0
 10
124.1019104379738
 20
103.7913976781956
 30
0.0
  0
ARC
  5
229
330
1F
100
AcDbEntity
  8
0
  6
Continuous
 62
     7
370
    25
100
AcDbCircle
 10
123.7247497894
 20
124.2737055357
 30
0.0
 40
0.3780249527301893
100
AcDbArc
 50
266.5310565283
 51
356.0493021852
  0
ARC
  5
22A
330
1F
100
AcDbEntity
  8
0
  6
Continuous
 62
     7
370
    25
100
AcDbCircle
 10
123.7247497894
 20
104.1982488523
 30
0.0
 40
0.3780249527301485
100
AcDbArc
 50
3.9506978148
 51
93.4689434717
  0
LINE
  5
22B
330
1F
100
AcDbEntity
  8
0
  6
Continuous
 62
     7
370
    25
100
AcDbLine
 10
123.7018764434
 20
104.575581166
 30
0.0
 11
123.7018764434
 21
123.896373222
 31
0.0
  0
ARC
  5
22C
330
1F
100
AcDbEntity
  8
0
  6
Continuous
 62
     7
370
    25
100
AcDbCircle
 10
105.4790030975
 20
104.1982488523
 30
0.0
 40
0.3780249527302015
100
AcDbArc
 50
86.5310565283
 51
176.0493021852
  0
ARC
  5
22D
330
1F
100
AcDbEntity
  8
0
  6
Continuous
 62
     7
370
    25
100
AcDbCircle
 10
105.4790030975
 20
124.2737055357
 30
0.0
 40
0.3780249527302044
100
AcDbArc
 50
183.9506978148
 51
273.4689434717
  0
LINE
  5
22E
330
1F
100
AcDbEntity
  8
0
  6
Continuous
 62
     7
370
    25
100
AcDbLine
 10
123.7018764434
 20
123.896373222
 30
0.0
 11
105.5018764434
 21
123.896373222
 31
0.0
  0
LINE
  5
22F
330
1F
100
AcDbEntity
  8
0
  6
Continuous
 62
     7
370
    25
100
AcDbLine
 10
105.5018764434
 20
104.575581166
 30
0.0
 11
123.7018764434
 21
104.575581166
 31
0.0
  0
LINE
  5
230
330
1F
100
AcDbEntity
  8
0
  6
Continuous
 62
     7
370
    25
100
AcDbLine
 10
138.8201756222
 20
122.4476553447
 30
0.0
 11
138.8201756222
 21
106.0242990433
 31
0.0
  0
LINE
  5
231
330
1F
100
AcDbEntity
  8
0
  6
Continuous
 62
     7
370
    25
100
AcDbLine
 10
141.3518764434
 20
120.985977194
 30
0.0
 11
141.3518764434
 21
107.485977194
 31
0.0
  0
SPLINE
  5
232
330
1F
100
AcDbEntity
  8
0
  6
Continuous
 62
     7
370
    25
100
AcDbSpline
210
0.0
220
0.0
230
1.0
 70
     8
 71
     3
 72
    14
 73
    10
 74
     0
 42
0.00000001
 43
0.00000001
 40
0.0
 40
0.0
 40
0.0
 40
0.0
 40
0.1377327108983413
 40
0.2725942884998932
 40
0.4041400602171393
 40
0.5321680644070492
 40
0.7754693061725265
 40
0.8890599100113705
 40
0.9999999999999999
 40
0.9999999999999999
 40
0.9999999999999999
 40
0.9999999999999999
 10
105.1018424488621
 20
103.7913976782052
 30
0.0
 10
105.1019772823122
 20
103.7776680162922
 30
0.0
 10
105.1022441385161
 20
103.7504948967325
 30
0.0
 10
105.1053659607613
 20
103.7108040169734
 30
0.0
 10
105.1108322247202
 20
103.672871343075
 30
0.0
 10
105.1218320814312
 20
103.6260605832711
 30
0.0
 10
105.1398997540151
 20
103.583961476921
 30
0.0
 10
105.1671732035103
 20
103.5486630691372
 30
0.0
 10
105.1847905479553
 20
103.5346146742415
 30
0.0
 10
105.1934952365872
 20
103.5276733952237
 30
0.0
  0
LINE
  5
233
330
1F
100
AcDbEntity
  8
0
  6
Continuous
 62
     7
370
    25
100
AcDbLine
 10
105.0305832191
 20
103.3446389515
 30
0.0
 11
105.1934952366
 21
103.5276733952
 31
0.0
  0
SPLINE
  5
234
330
1F
100
AcDbEntity
  8
0
  6
Continuous
 62
     7
370
    25
100
AcDbSpline
210
0.0
220
0.0
230
1.0
 70
     8
 71
     3
 72
    14
 73
    10
 74
     0
 42
0.00000001
 43
0.00000001
 40
0.0
 40
0.0
 40
0.0
 40
0.0
 40
0.1377327108986476
 40
0.2725942885003155
 40
0.4041400602174986
 40
0.5321680644076192
 40
0.7754693061733929
 40
0.8890599100492311
 40
1.0
 40
1.0
 40
1.0
 40
1.0
 10
124.1019104379738
 20
124.6805567097858
 30
0.0
 10
124.1017756045237
 20
124.6942863716987
 30
0.0
 10
124.1015087483198
 20
124.7214594912583
 30
0.0
 10
124.0983869260746
 20
124.7611503710175
 30
0.0
 10
124.0929206621157
 20
124.799083044916
 30
0.0
 10
124.0819208054044
 20
124.8458938047192
 30
0.0
 10
124.0638531328211
 20
124.8879929110761
 30
0.0
 10
124.0365796833204
 20
124.9232913188513
 30
0.0
 10
124.0189623388769
 20
124.93733971375
 30
0.0
 10
124.0102576502486
 20
124.944280992767
 30
0.0
  0
LINE
  5
235
330
1F
100
AcDbEntity
  8
0
  6
Continuous
 62
     7
370
    25
100
AcDbLine
 10
124.0102576502
 20
124.9442809928
 30
0.0
 11
124.1731696678
 21
125.1273154365
 31
0.0
  0
LINE
  5
236
330
1F
100
AcDbEntity
  8
0
  6
Continuous
 62
     7
370
    25
100
AcDbLine
 10
105.0305832191
 20
125.1273154365
 30
0.0
 11
105.1934952366
 21
124.9442809928
 31
0.0
  0
SPLINE
  5
237
330
1F
100
AcDbEntity
  8
0
  6
Continuous
 62
     7
370
    25
100
AcDbSpline
210
0.0
220
0.0
230
1.0
 70
     8
 71
     3
 72
    14
 73
    10
 74
     0
 42
0.00000001
 43
0.00000001
 40
0.0
 40
0.0
 40
0.0
 40
0.0
 40
0.1106414710202212
 40
0.2239563677549811
 40
0.4666597346533721
 40
0.5947565812544914
 40
0.7265559329283156
 40
0.8618634099915925
 40
0.9999999999999999
 40
0.9999999999999999
 40
0.9999999999999999
 40
0.9999999999999999
 10
105.1934952365873
 20
124.944280992767
 30
0.0
 10
105.1848128386928
 20
124.9373589413257
 30
0.0
 10
105.1672382504491
 20
124.9233475811738
 30
0.0
 10
105.140002561481
 20
124.8881574237433
 30
0.0
 10
105.1219201922087
 20
124.8461481478272
 30
0.0
 10
105.1108851476299
 20
124.7993821496315
 30
0.0
 10
105.1053886344163
 20
124.761380194716
 30
0.0
 10
105.1022469622545
 20
124.7215847633099
 30
0.0
 10
105.1019782135042
 20
124.6943267335068
 30
0.0
 10
105.101842448862
 20
124.6805567097953
 30
0.0
  0
SPLINE
  5
238
330
1F
100
AcDbEntity
  8
0
  6
Continuous
 62
     7
370
    25
100
AcDbSpline
210
0.0
220
0.0
230
1.0
 70
     8
 71
     3
 72
    14
 73
    10
 74
     0
 42
0.00000001
 43
0.00000001
 40
0.0
 40
0.0
 40
0.0
 40
0.0
 40
0.1106414710656435
 40
0.2239563677554478
 40
0.4666597346536896
 40
0.5947565812547271
 40
0.726555932928469
 40
0.8618634099916662
 40
1.0
 40
1.0
 40
1.0
 40
1.0
 10
124.0102576502486
 20
103.5276733952238
 30
0.0
 10
124.018940048147
 20
103.534595446667
 30
0.0
 10
124.0365146363914
 20
103.5486068068171
 30
0.0
 10
124.0637503253554
 20
103.5837969642534
 30
0.0
 10
124.0818326946274
 20
103.6258062401632
 30
0.0
 10
124.0928677392059
 20
103.6725722383593
 30
0.0
 10
124.0983642524196
 20
103.7105741932748
 30
0.0
 10
124.1015059245814
 20
103.7503696246808
 30
0.0
 10
124.1017746733316
 20
103.7776276544839
 30
0.0
 10
124.1019104379738
 20
103.7913976781954
 30
0.0
  0
LINE
  5
239
330
1F
100
AcDbEntity
  8
0
  6
Continuous
 62
     7
370
    25
100
AcDbLine
 10
124.0102576502
 20
103.5276733952
 30
0.0
 11
124.1731696678
 21
103.3446389515
 31
0.0
  0
LINE
  5
23A
330
1F
100
AcDbEntity
  8
0
  6
Continuous
 62
     7
370
    25
100
AcDbLine
 10
105.1018764434
 20
124.3354821324
 30
0.0
 11
105.5018764434
 21
124.3354821324
 31
0.0
  0
LINE
  5
23B
330
1F
100
AcDbEntity
  8
0
  6
Continuous
 62
     7
370
    25
100
AcDbLine
 10
105.5018764434
 20
123.896373222
 30
0.0
 11
105.5018764434
 21
124.3354821324
 31
0.0
  0
LINE
  5
23C
330
1F
100
AcDbEntity
  8
0
  6
Continuous
 62
     7
370
    25
100
AcDbLine
 10
123.7018764434
 20
123.896373222
 30
0.0
 11
123.7018764434
 21
124.3354821324
 31
0.0
  0
LINE
  5
23D
330
1F
100
AcDbEntity
  8
0
  6
Continuous
 62
     7
370
    25
100
AcDbLine
 10
123.7018764434
 20
124.3354821324
 30
0.0
 11
124.1018764434
 21
124.3354821324
 31
0.0
  0
LINE
  5
23E
330
1F
100
AcDbEntity
  8
0
  6
Continuous
 62
     7
370
    25
100
AcDbLine
 10
124.1018764434
 20
104.1364722556
 30
0.0
 11
123.7018764434
 21
104.1364722556
 31
0.0
  0
LINE
  5
23F
330
1F
100
AcDbEntity
  8
0
  6
Continuous
 62
     7
370
    25
100
AcDbLine
 10
123.7018764434
 20
104.1364722556
 30
0.0
 11
123.7018764434
 21
104.575581166
 31
0.0
  0
LINE
  5
240
330
1F
100
AcDbEntity
  8
0
  6
Continuous
 62
     7
370
    25
100
AcDbLine
 10
105.5018764434
 20
104.1364722556
 30
0.0
 11
105.5018764434
 21
104.575581166
 31
0.0
  0
LINE
  5
241
330
1F
100
AcDbEntity
  8
0
  6
Continuous
 62
     7
370
    25
100
AcDbLine
 10
105.5018764434
 20
104.1364722556
 30
0.0
 11
105.1018764434
 21
104.1364722556
 31
0.0
  0
LINE
  5
242
330
1F
100
AcDbEntity
  8
0
  6
Continuous
 62
     7
370
    25
100
AcDbLine
 10
123.7018764434
 20
124.6716132551
 30
0.0
 11
124.1018764434
 21
124.6716132551
 31
0.0
  0
SPLINE
  5
243
330
1F
100
AcDbEntity
  8
0
  6
Continuous
 62
     7
370
    25
100
AcDbSpline
210
0.0
220
0.0
230
1.0
 70
     8
 71
     3
 72
     8
 73
     4
 74
     0
 42
0.00000001
 43
0.00000001
 40
0.0
 40
0.0
 40
0.0
 40
0.0
 40
1.0
 40
1.0
 40
1.0
 40
1.0
 10
123.7018764434179
 20
124.6716132551083
 30
0.0
 10
123.7018764434179
 20
124.6931470039106
 30
0.0
 10
123.7023532228106
 20
124.7146012690673
 30
0.0
 10
123.7032999228598
 20
124.7359771939948
 30
0.0
  0
SPLINE
  5
244
330
1F
100
AcDbEntity
  8
0
  6
Continuous
 62
     7
370
    25
100
AcDbSpline
210
0.0
220
0.0
230
1.0
 70
     8
 71
     3
 72
     8
 73
     4
 74
     0
 42
0.00000001
 43
0.00000001
 40
0.0
 40
0.0
 40
0.0
 40
0.0
 40
0.0000524698222113
 40
0.0000524698222113
 40
0.0000524698222113
 40
0.0000524698222113
 10
123.7555654939248
 20
124.7391096376272
 30
0.0
 10
123.7382591820702
 20
124.7379818084111
 30
0.0
 10
123.7207633578295
 20
124.736939725027
 30
0.0
 10
123.7032999228573
 20
124.7359771939953
 30
0.0
  0
SPLINE
  5
245
330
1F
100
AcDbEntity
  8
0
  6
Continuous
 62
     7
370
    25
100
AcDbSpline
210
0.0
220
0.0
230
1.0
 70
     8
 71
     3
 72
    10
 73
     6
 74
     0
 42
0.00000001
 43
0.00000001
 40
0.0
 40
0.0
 40
0.0
 40
0.0
 40
0.5
 40
0.5
 40
1.0
 40
1.0
 40
1.0
 40
1.0
 10
123.7555654939248
 20
124.7391096376272
 30
0.0
 10
123.8151942235265
 20
124.7429955622498
 30
0.0
 10
123.8653685153333
 20
124.7767312117543
 30
0.0
 10
123.9454336210741
 20
124.8543393660219
 30
0.0
 10
123.9781484104893
 20
124.8988814814562
 30
0.0
 10
124.0102576502487
 20
124.9442809927671
 30
0.0
  0
SPLINE
  5
246
330
1F
100
AcDbEntity
  8
0
  6
Continuous
 62
     7
370
    25
100
AcDbSpline
210
0.0
220
0.0
230
1.0
 70
     8
 71
     3
 72
     8
 73
     4
 74
     0
 42
0.00000001
 43
0.00000001
 40
0.0
 40
0.0
 40
0.0
 40
0.0
 40
0.0000524698222138
 40
0.0000524698222138
 40
0.0000524698222138
 40
0.0000524698222138
 10
105.5004529639765
 20
124.7359771939847
 30
0.0
 10
105.4829895290043
 20
124.7369397250162
 30
0.0
 10
105.4654937047642
 20
124.737981808411
 30
0.0
 10
105.4481873929096
 20
124.7391096376273
 30
0.0
  0
SPLINE
  5
247
330
1F
100
AcDbEntity
  8
0
  6
Continuous
 62
     7
370
    25
100
AcDbSpline
210
0.0
220
0.0
230
1.0
 70
     8
 71
     3
 72
     8
 73
     4
 74
     0
 42
0.00000001
 43
0.00000001
 40
0.0
 40
0.0
 40
0.0
 40
0.0
 40
1.0
 40
1.0
 40
1.0
 40
1.0
 10
105.5004529639765
 20
124.7359771939847
 30
0.0
 10
105.5013996640255
 20
124.7146012690605
 30
0.0
 10
105.5018764434179
 20
124.6931470039072
 30
0.0
 10
105.5018764434179
 20
124.6716132551083
 30
0.0
  0
LINE
  5
248
330
1F
100
AcDbEntity
  8
0
  6
Continuous
 62
     7
370
    25
100
AcDbLine
 10
105.1018764434
 20
124.6716132551
 30
0.0
 11
105.5018764434
 21
124.6716132551
 31
0.0
  0
SPLINE
  5
249
330
1F
100
AcDbEntity
  8
0
  6
Continuous
 62
     7
370
    25
100
AcDbSpline
210
0.0
220
0.0
230
1.0
 70
     8
 71
     3
 72
    10
 73
     6
 74
     0
 42
0.00000001
 43
0.00000001
 40
0.0
 40
0.0
 40
0.0
 40
0.0
 40
0.5
 40
0.5
 40
1.0
 40
1.0
 40
1.0
 40
1.0
 10
105.4481873929097
 20
124.7391096376294
 30
0.0
 10
105.3885586633082
 20
124.7429955622523
 30
0.0
 10
105.3383843715008
 20
124.7767312117556
 30
0.0
 10
105.2583192657599
 20
124.8543393660243
 30
0.0
 10
105.2256044763445
 20
124.898881481459
 30
0.0
 10
105.1934952365849
 20
124.9442809927703
 30
0.0
  0
SPLINE
  5
24A
330
1F
100
AcDbEntity
  8
0
  6
Continuous
 62
     7
370
    25
100
AcDbSpline
210
0.0
220
0.0
230
1.0
 70
     8
 71
     3
 72
     8
 73
     4
 74
     0
 42
0.00000001
 43
0.00000001
 40
0.0
 40
0.0
 40
0.0
 40
0.0
 40
0.0000524698222138
 40
0.0000524698222138
 40
0.0000524698222138
 40
0.0000524698222138
 10
123.7032999228593
 20
103.7359771940061
 30
0.0
 10
123.7207633578316
 20
103.7350146629746
 30
0.0
 10
123.7382591820716
 20
103.7339725795798
 30
0.0
 10
123.7555654939263
 20
103.7328447503635
 30
0.0
  0
SPLINE
  5
24B
330
1F
100
AcDbEntity
  8
0
  6
Continuous
 62
     7
370
    25
100
AcDbSpline
210
0.0
220
0.0
230
1.0
 70
     8
 71
     3
 72
     8
 73
     4
 74
     0
 42
0.00000001
 43
0.00000001
 40
0.0
 40
0.0
 40
0.0
 40
0.0
 40
1.0
 40
1.0
 40
1.0
 40
1.0
 10
123.7032999228593
 20
103.7359771940061
 30
0.0
 10
123.7023532228104
 20
103.7573531189303
 30
0.0
 10
123.7018764434179
 20
103.7788073840836
 30
0.0
 10
123.7018764434179
 20
103.8003411328825
 30
0.0
  0
LINE
  5
24C
330
1F
100
AcDbEntity
  8
0
  6
Continuous
 62
     7
370
    25
100
AcDbLine
 10
123.7018764434
 20
103.8003411329
 30
0.0
 11
124.1018764434
 21
103.8003411329
 31
0.0
  0
SPLINE
  5
24D
330
1F
100
AcDbEntity
  8
0
  6
Continuous
 62
     7
370
    25
100
AcDbSpline
210
0.0
220
0.0
230
1.0
 70
     8
 71
     3
 72
    10
 73
     6
 74
     0
 42
0.00000001
 43
0.00000001
 40
0.0
 40
0.0
 40
0.0
 40
0.0
 40
0.5
 40
0.5
 40
1.0
 40
1.0
 40
1.0
 40
1.0
 10
123.7555654939262
 20
103.7328447503614
 30
0.0
 10
123.8151942235276
 20
103.7289588257383
 30
0.0
 10
123.8653685153351
 20
103.6952231762351
 30
0.0
 10
123.945433621076
 20
103.6176150219665
 30
0.0
 10
123.9781484104914
 20
103.5730729065318
 30
0.0
 10
124.010257650251
 20
103.5276733952204
 30
0.0
  0
LINE
  5
24E
330
1F
100
AcDbEntity
  8
0
  6
Continuous
 62
     7
370
    25
100
AcDbLine
 10
105.1018764434
 20
103.8003411329
 30
0.0
 11
105.5018764434
 21
103.8003411329
 31
0.0
  0
SPLINE
  5
24F
330
1F
100
AcDbEntity
  8
0
  6
Continuous
 62
     7
370
    25
100
AcDbSpline
210
0.0
220
0.0
230
1.0
 70
     8
 71
     3
 72
     8
 73
     4
 74
     0
 42
0.00000001
 43
0.00000001
 40
0.0
 40
0.0
 40
0.0
 40
0.0
 40
1.0
 40
1.0
 40
1.0
 40
1.0
 10
105.5018764434179
 20
103.8003411328825
 30
0.0
 10
105.5018764434179
 20
103.7788073840802
 30
0.0
 10
105.5013996640253
 20
103.7573531189235
 30
0.0
 10
105.5004529639761
 20
103.735977193996
 30
0.0
  0
SPLINE
  5
250
330
1F
100
AcDbEntity
  8
0
  6
Continuous
 62
     7
370
    25
100
AcDbSpline
210
0.0
220
0.0
230
1.0
 70
     8
 71
     3
 72
     8
 73
     4
 74
     0
 42
0.00000001
 43
0.00000001
 40
0.0
 40
0.0
 40
0.0
 40
0.0
 40
0.0000524698222113
 40
0.0000524698222113
 40
0.0000524698222113
 40
0.0000524698222113
 10
105.4481873929111
 20
103.7328447503636
 30
0.0
 10
105.4654937047657
 20
103.7339725795797
 30
0.0
 10
105.4829895290064
 20
103.7350146629638
 30
0.0
 10
105.5004529639786
 20
103.7359771939955
 30
0.0
  0
SPLINE
  5
251
330
1F
100
AcDbEntity
  8
0
  6
Continuous
 62
     7
370
    25
100
AcDbSpline
210
0.0
220
0.0
230
1.0
 70
     8
 71
     3
 72
    10
 73
     6
 74
     0
 42
0.00000001
 43
0.00000001
 40
0.0
 40
0.0
 40
0.0
 40
0.0
 40
0.5
 40
0.5
 40
1.0
 40
1.0
 40
1.0
 40
1.0
 10
105.4481873929111
 20
103.7328447503636
 30
0.0
 10
105.3885586633094
 20
103.728958825741
 30
0.0
 10
105.3383843715026
 20
103.6952231762365
 30
0.0
 10
105.2583192657618
 20
103.6176150219688
 30
0.0
 10
105.2256044763466
 20
103.5730729065346
 30
0.0
 10
105.1934952365872
 20
103.5276733952237
 30
0.0
  0
LINE
  5
252
330
1F
100
AcDbEntity
  8
0
  6
Continuous
 62
     7
370
    25
100
AcDbLine
 10
105.5018764434
 20
124.6716132551
 30
0.0
 11
105.5018764434
 21
124.3354821324
 31
0.0
  0
LINE
  5
253
330
1F
100
AcDbEntity
  8
0
  6
Continuous
 62
     7
370
    25
100
AcDbLine
 10
123.7018764434
 20
124.3354821324
 30
0.0
 11
123.7018764434
 21
124.6716132551
 31
0.0
  0
LINE
  5
254
330
1F
100
AcDbEntity
  8
0
  6
Continuous
 62
     7
370
    25
100
AcDbLine
 10
105.5018764434
 20
104.1364722556
 30
0.0
 11
105.5018764434
 21
103.8003411329
 31
0.0
  0
LINE
  5
255
330
1F
100
AcDbEntity
  8
0
  6
Continuous
 62
     7
370
    25
100
AcDbLine
 10
123.7018764434
 20
103.8003411329
 30
0.0
 11
123.7018764434
 21
104.1364722556
 31
0.0
  0
LINE
  5
256
330
1F
100
AcDbEntity
  8
0
  6
Continuous
 62
     7
370
    25
100
AcDbLine
 10
105.5018764434
 20
124.3354821324
 30
0.0
 11
123.7018764434
 21
124.3354821324
 31
0.0
  0
LINE
  5
257
330
1F
100
AcDbEntity
  8
0
  6
Continuous
 62
     7
370
    25
100
AcDbLine
 10
123.7018764434
 20
104.1364722556
 30
0.0
 11
105.5018764434
 21
104.1364722556
 31
0.0
  0
ARC
  5
258
330
1F
100
AcDbEntity
  8
0
  6
Continuous
 62
     7
370
    25
100
AcDbCircle
 10
104.4459496924
 20
124.8606712706
 30
0.0
 40
1.009582903495474
100
AcDbArc
 50
353.0843628815
 51
21.8231862158
  0
SPLINE
  5
259
330
1F
100
AcDbEntity
  8
0
  6
Continuous
 62
     7
370
    25
100
AcDbSpline
210
0.0
220
0.0
230
1.0
 70
     8
 71
     3
 72
    16
 73
    12
 74
     0
 42
0.00000001
 43
0.00000001
 40
0.0
 40
0.0
 40
0.0
 40
0.0
 40
0.0761065009127368
 40
0.149479093119197
 40
0.2974911001276658
 40
0.4337219070480748
 40
0.5582000385649541
 40
0.6744773661246137
 40
0.7859690394832728
 40
0.8939353462389598
 40
1.0
 40
1.0
 40
1.0
 40
1.0
 10
105.2083561595278
 20
125.2615720705481
 30
0.0
 10
105.2157725305646
 20
125.2574752281815
 30
0.0
 10
105.2303388606877
 20
125.2494287108108
 30
0.0
 10
105.2525576490101
 20
125.2290122896537
 30
0.0
 10
105.2699111571721
 20
125.198747980311
 30
0.0
 10
105.2762158951009
 20
125.1567853503262
 30
0.0
 10
105.2721204800876
 20
125.1135050624989
 30
0.0
 10
105.2605925307374
 20
125.0703195096684
 30
0.0
 10
105.243169627508
 20
125.0276576489387
 30
0.0
 10
105.221152219286
 20
124.9855930748507
 30
0.0
 10
105.2026594617836
 20
124.9579698766109
 30
0.0
 10
105.1934952365853
 20
124.9442809927691
 30
0.0
  0
SPLINE
  5
25A
330
1F
100
AcDbEntity
  8
0
  6
Continuous
 62
     7
370
    25
100
AcDbSpline
210
0.0
220
0.0
230
1.0
 70
     8
 71
     3
 72
     8
 73
     4
 74
     0
 42
0.00000001
 43
0.00000001
 40
0.0
 40
0.0
 40
0.0
 40
0.0
 40
1.0
 40
1.0
 40
1.0
 40
1.0
 10
105.3831813088314
 20
125.2359771939954
 30
0.0
 10
105.3107813386723
 20
125.2359771939954
 30
0.0
 10
105.2563511210834
 20
125.2489574375167
 30
0.0
 10
105.2083561595235
 20
125.2615720705423
 30
0.0
  0
ARC
  5
25B
330
1F
100
AcDbEntity
  8
0
  6
Continuous
 62
     7
370
    25
100
AcDbCircle
 10
124.7578031945
 20
103.6112831174
 30
0.0
 40
1.009582903481236
100
AcDbArc
 50
173.0843628813
 51
201.823186216
  0
SPLINE
  5
25C
330
1F
100
AcDbEntity
  8
0
  6
Continuous
 62
     7
370
    25
100
AcDbSpline
210
0.0
220
0.0
230
1.0
 70
     8
 71
     3
 72
    16
 73
    12
 74
     0
 42
0.00000001
 43
0.00000001
 40
0.0
 40
0.0
 40
0.0
 40
0.0
 40
0.0761065009174363
 40
0.1494790931192237
 40
0.297491100127681
 40
0.4337219070480782
 40
0.5582000385649595
 40
0.674477366124627
 40
0.785969039483262
 40
0.8939353462389532
 40
0.9999999999999999
 40
0.9999999999999999
 40
0.9999999999999999
 40
0.9999999999999999
 10
123.995396727308
 20
103.2103823174427
 30
0.0
 10
123.9879803562708
 20
103.2144791598096
 30
0.0
 10
123.9734140261476
 20
103.2225256771803
 30
0.0
 10
123.9511952378256
 20
103.2429420983375
 30
0.0
 10
123.9338417296637
 20
103.2732064076798
 30
0.0
 10
123.927536991735
 20
103.3151690376646
 30
0.0
 10
123.9316324067482
 20
103.3584493254918
 30
0.0
 10
123.9431603560985
 20
103.4016348783224
 30
0.0
 10
123.9605832593279
 20
103.4442967390521
 30
0.0
 10
123.9826006675499
 20
103.4863613131401
 30
0.0
 10
124.0010934250523
 20
103.5139845113799
 30
0.0
 10
124.0102576502506
 20
103.5276733952217
 30
0.0
  0
SPLINE
  5
25D
330
1F
100
AcDbEntity
  8
0
  6
Continuous
 62
     7
370
    25
100
AcDbSpline
210
0.0
220
0.0
230
1.0
 70
     8
 71
     3
 72
     8
 73
     4
 74
     0
 42
0.00000001
 43
0.00000001
 40
0.0
 40
0.0
 40
0.0
 40
0.0
 40
1.0
 40
1.0
 40
1.0
 40
1.0
 10
123.8205715780045
 20
103.2359771939954
 30
0.0
 10
123.8929715481636
 20
103.2359771939954
 30
0.0
 10
123.9474017657523
 20
103.2229969504741
 30
0.0
 10
123.9953967273124
 20
103.2103823174484
 30
0.0
  0
ARC
  5
25E
330
1F
100
AcDbEntity
  8
0
  6
Continuous
 62
     7
370
    25
100
AcDbCircle
 10
124.7578031945
 20
124.8606712706
 30
0.0
 40
1.009582903518372
100
AcDbArc
 50
158.1768137846
 51
186.9156371183
  0
SPLINE
  5
25F
330
1F
100
AcDbEntity
  8
0
  6
Continuous
 62
     7
370
    25
100
AcDbSpline
210
0.0
220
0.0
230
1.0
 70
     8
 71
     3
 72
     8
 73
     4
 74
     0
 42
0.00000001
 43
0.00000001
 40
0.0
 40
0.0
 40
0.0
 40
0.0
 40
1.0
 40
1.0
 40
1.0
 40
1.0
 10
123.8205715779994
 20
125.2359771939954
 30
0.0
 10
123.892971548161
 20
125.2359771939944
 30
0.0
 10
123.9474017657512
 20
125.2489574375164
 30
0.0
 10
123.9953967273124
 20
125.2615720705423
 30
0.0
  0
SPLINE
  5
260
330
1F
100
AcDbEntity
  8
0
  6
Continuous
 62
     7
370
    25
100
AcDbSpline
210
0.0
220
0.0
230
1.0
 70
     8
 71
     3
 72
    20
 73
    16
 74
     0
 42
0.00000001
 43
0.00000001
 40
0.0
 40
0.0
 40
0.0
 40
0.0
 40
0.1060317657589788
 40
0.2138409733616794
 40
0.2689060619626883
 40
0.325101453918644
 40
0.3827863485580691
 40
0.4420118601153487
 40
0.5669442188445762
 40
0.6333957081063157
 40
0.7030323386080312
 40
0.7761748201544842
 40
0.8511692721702314
 40
0.9263894086763254
 40
1.0
 40
1.0
 40
1.0
 40
1.0
 10
124.0102576502485
 20
124.9442809927661
 30
0.0
 10
124.001091455591
 20
124.9579713723187
 30
0.0
 10
123.9826054106445
 20
124.9855816273046
 30
0.0
 10
123.9644236125924
 20
125.0203511832349
 30
0.0
 10
123.9521234613988
 20
125.0483053490701
 30
0.0
 10
123.9441647135233
 20
125.0695978011018
 30
0.0
 10
123.9376379647804
 20
125.0910219356187
 30
0.0
 10
123.9309800336242
 20
125.1202143337696
 30
0.0
 10
123.9282785514296
 20
125.1490101958759
 30
0.0
 10
123.9305327427547
 20
125.1766093979767
 30
0.0
 10
123.9354088304428
 20
125.197177022547
 30
0.0
 10
123.9440152297292
 20
125.2166548728289
 30
0.0
 10
123.9568890550067
 20
125.2342832306873
 30
0.0
 10
123.9736586851834
 20
125.2496150176297
 30
0.0
 10
123.9882031441142
 20
125.2576152259332
 30
0.0
 10
123.9953967273076
 20
125.261572070548
 30
0.0
  0
ARC
  5
261
330
1F
100
AcDbEntity
  8
0
  6
Continuous
 62
     7
370
    25
100
AcDbCircle
 10
104.4459496924
 20
103.6112831174
 30
0.0
 40
1.009582903458214
100
AcDbArc
 50
338.1768137837
 51
6.9156371192
  0
SPLINE
  5
262
330
1F
100
AcDbEntity
  8
0
  6
Continuous
 62
     7
370
    25
100
AcDbSpline
210
0.0
220
0.0
230
1.0
 70
     8
 71
     3
 72
     8
 73
     4
 74
     0
 42
0.00000001
 43
0.00000001
 40
0.0
 40
0.0
 40
0.0
 40
0.0
 40
1.0
 40
1.0
 40
1.0
 40
1.0
 10
105.3831813088365
 20
103.2359771939954
 30
0.0
 10
105.3107813386749
 20
103.2359771939964
 30
0.0
 10
105.2563511210846
 20
103.2229969504744
 30
0.0
 10
105.2083561595235
 20
103.2103823174484
 30
0.0
  0
SPLINE
  5
263
330
1F
100
AcDbEntity
  8
0
  6
Continuous
 62
     7
370
    25
100
AcDbSpline
210
0.0
220
0.0
230
1.0
 70
     8
 71
     3
 72
    20
 73
    16
 74
     0
 42
0.00000001
 43
0.00000001
 40
0.0
 40
0.0
 40
0.0
 40
0.0
 40
0.1060317657589631
 40
0.2138409733617976
 40
0.268906061948247
 40
0.3251014539057976
 40
0.382786348557697
 40
0.4420118601150135
 40
0.5669442188443142
 40
0.6333957081061092
 40
0.703032338607854
 40
0.7761748201543405
 40
0.8511692721701473
 40
0.9263894086762869
 40
1.0
 40
1.0
 40
1.0
 40
1.0
 10
105.1934952365873
 20
103.5276733952246
 30
0.0
 10
105.2026614312444
 20
103.5139830156717
 30
0.0
 10
105.2211474761902
 20
103.4863727606851
 30
0.0
 10
105.2393292742466
 20
103.4516032047614
 30
0.0
 10
105.2516294254282
 20
103.4236490389177
 30
0.0
 10
105.2595881733041
 20
103.4023565868867
 30
0.0
 10
105.2661149220572
 20
103.3809324523751
 30
0.0
 10
105.2727728532104
 20
103.3517400542202
 30
0.0
 10
105.2754743354065
 20
103.3229441921151
 30
0.0
 10
105.2732201440812
 20
103.295344990014
 30
0.0
 10
105.2683440563931
 20
103.2747773654437
 30
0.0
 10
105.2597376571067
 20
103.2552995151619
 30
0.0
 10
105.2468638318292
 20
103.2376711573035
 30
0.0
 10
105.2300942016525
 20
103.2223393703611
 30
0.0
 10
105.2155497427217
 20
103.2143391620576
 30
0.0
 10
105.2083561595283
 20
103.2103823174428
 30
0.0
  0
LINE
  5
264
330
1F
100
AcDbEntity
  8
0
  6
Continuous
 62
     7
370
    25
100
AcDbLine
 10
105.124898162
 20
125.2594628909
 30
0.0
 11
105.2083561595
 21
125.2615720705
 31
0.0
  0
LINE
  5
265
330
1F
100
AcDbEntity
  8
0
  6
Continuous
 62
     7
370
    25
100
AcDbLine
 10
123.9953967273
 20
103.2103823174
 30
0.0
 11
124.0788547248
 21
103.2124914971
 31
0.0
  0
LINE
  5
266
330
1F
100
AcDbEntity
  8
0
  6
Continuous
 62
     7
370
    25
100
AcDbLine
 10
123.9953967273
 20
125.2615720705
 30
0.0
 11
124.0788547248
 21
125.2594628909
 31
0.0
  0
LINE
  5
267
330
1F
100
AcDbEntity
  8
0
  6
Continuous
 62
     7
370
    25
100
AcDbLine
 10
105.124898162
 20
103.2124914971
 30
0.0
 11
105.2083561595
 21
103.2103823174
 31
0.0
  0
SPLINE
  5
268
330
1F
100
AcDbEntity
  8
0
  6
Continuous
 62
     7
370
    25
100
AcDbSpline
210
0.0
220
0.0
230
1.0
 70
    24
 71
     3
 72
     8
 73
     4
 74
     0
 42
0.00000001
 43
0.00000001
 40
0.0
 40
0.0
 40
0.0
 40
0.0
 40
0.0001175213404591
 40
0.0001175213404591
 40
0.0001175213404591
 40
0.0001175213404591
 10
105.3831813088314
 20
125.2359771939954
 30
0.0
 10
105.4220225844381
 20
125.2359771939954
 30
0.0
 10
105.4612791838241
 20
125.2359771939954
 30
0.0
 10
105.5004529639771
 20
125.2359771939954
 30
0.0
  0
LINE
  5
269
330
1F
100
AcDbEntity
  8
0
  6
Continuous
 62
     7
370
    25
100
AcDbLine
 10
105.500452964
 20
125.235977194
 30
0.0
 11
105.500452964
 21
124.735977194
 31
0.0
  0
SPLINE
  5
26A
330
1F
100
AcDbEntity
  8
0
  6
Continuous
 62
     7
370
    25
100
AcDbSpline
210
0.0
220
0.0
230
1.0
 70
    24
 71
     3
 72
     8
 73
     4
 74
     0
 42
0.00000001
 43
0.00000001
 40
0.0
 40
0.0
 40
0.0
 40
0.0
 40
0.0001175213404591
 40
0.0001175213404591
 40
0.0001175213404591
 40
0.0001175213404591
 10
123.8205715780045
 20
103.2359771939954
 30
0.0
 10
123.7817303023978
 20
103.2359771939954
 30
0.0
 10
123.7424737030118
 20
103.2359771939954
 30
0.0
 10
123.7032999228587
 20
103.2359771939954
 30
0.0
  0
LINE
  5
26B
330
1F
100
AcDbEntity
  8
0
  6
Continuous
 62
     7
370
    25
100
AcDbLine
 10
123.7032999229
 20
103.735977194
 30
0.0
 11
123.7032999229
 21
103.235977194
 31
0.0
  0
SPLINE
  5
26C
330
1F
100
AcDbEntity
  8
0
  6
Continuous
 62
     7
370
    25
100
AcDbSpline
210
0.0
220
0.0
230
1.0
 70
    24
 71
     3
 72
     8
 73
     4
 74
     0
 42
0.00000001
 43
0.00000001
 40
0.0
 40
0.0
 40
0.0
 40
0.0
 40
0.0001175213404538
 40
0.0001175213404538
 40
0.0001175213404538
 40
0.0001175213404538
 10
123.7032999228587
 20
125.2359771939954
 30
0.0
 10
123.7424737030099
 20
125.2359771939954
 30
0.0
 10
123.7817303023942
 20
125.2359771939954
 30
0.0
 10
123.8205715779992
 20
125.2359771939954
 30
0.0
  0
LINE
  5
26D
330
1F
100
AcDbEntity
  8
0
  6
Continuous
 62
     7
370
    25
100
AcDbLine
 10
123.7032999229
 20
125.235977194
 30
0.0
 11
123.7032999229
 21
124.735977194
 31
0.0
  0
LINE
  5
26E
330
1F
100
AcDbEntity
  8
0
  6
Continuous
 62
     7
370
    25
100
AcDbLine
 10
105.500452964
 20
103.735977194
 30
0.0
 11
105.500452964
 21
103.235977194
 31
0.0
  0
SPLINE
  5
26F
330
1F
100
AcDbEntity
  8
0
  6
Continuous
 62
     7
370
    25
100
AcDbSpline
210
0.0
220
0.0
230
1.0
 70
    24
 71
     3
 72
     8
 73
     4
 74
     0
 42
0.00000001
 43
0.00000001
 40
0.0
 40
0.0
 40
0.0
 40
0.0
 40
0.0001175213404538
 40
0.0001175213404538
 40
0.0001175213404538
 40
0.0001175213404538
 10
105.5004529639772
 20
103.2359771939954
 30
0.0
 10
105.4612791838259
 20
103.2359771939954
 30
0.0
 10
105.4220225844417
 20
103.2359771939954
 30
0.0
 10
105.3831813088367
 20
103.2359771939954
 30
0.0
  0
LINE
  5
270
330
1F
100
AcDbEntity
  8
0
  6
Continuous
 62
     7
370
    25
100
AcDbLine
 10
105.500452964
 20
125.235977194
 30
0.0
 11
123.7032999229
 21
125.235977194
 31
0.0
  0
LINE
  5
271
330
1F
100
AcDbEntity
  8
0
  6
Continuous
 62
     7
370
    25
100
AcDbLine
 10
123.7032999229
 20
124.735977194
 30
0.0
 11
105.500452964
 21
124.735977194
 31
0.0
  0
LINE
  5
272
330
1F
100
AcDbEntity
  8
0
  6
Continuous
 62
     7
370
    25
100
AcDbLine
 10
105.500452964
 20
103.735977194
 30
0.0
 11
123.7032999229
 21
103.735977194
 31
0.0
  0
LINE
  5
273
330
1F
100
AcDbEntity
  8
0
  6
Continuous
 62
     7
370
    25
100
AcDbLine
 10
123.7032999229
 20
103.235977194
 30
0.0
 11
105.500452964
 21
103.235977194
 31
0.0
  0
LINE
  5
274
330
1F
100
AcDbEntity
  8
0
  6
Continuous
 62
     7
370
    25
100
AcDbLine
 10
104.8589832246
 20
125.8676914201
 30
0.0
 11
105.1018424489
 21
125.6322856623
 31
0.0
  0
SPLINE
  5
275
330
1F
100
AcDbEntity
  8
0
  6
Continuous
 62
     7
370
    25
100
AcDbSpline
210
0.0
220
0.0
230
1.0
 70
     8
 71
     3
 72
    16
 73
    12
 74
     0
 42
0.00000001
 43
0.00000001
 40
0.0
 40
0.0
 40
0.0
 40
0.0
 40
0.1358424562093261
 40
0.2585567702396716
 40
0.5157338482660032
 40
0.6432966940871808
 40
0.7692102787448635
 40
0.8342664723226236
 40
0.8905766424117051
 40
0.9515952839433239
 40
1.0
 40
1.0
 40
1.0
 40
1.0
 10
105.1018424488621
 20
125.6322856623182
 30
0.0
 10
105.1018040631159
 20
125.6192761455198
 30
0.0
 10
105.1017310013146
 20
125.5945143829632
 30
0.0
 10
105.1024615529413
 20
125.5402352247497
 30
0.0
 10
105.1045269752084
 20
125.4815275864798
 30
0.0
 10
105.1119667759679
 20
125.4163619212857
 30
0.0
 10
105.1213185943149
 20
125.3730901764282
 30
0.0
 10
105.1346465058339
 20
125.3377481200796
 30
0.0
 10
105.1501628124446
 20
125.3108816776083
 30
0.0
 10
105.1695818517796
 20
125.2855914982076
 30
0.0
 10
105.1964643628807
 20
125.2689386533675
 30
0.0
 10
105.2083561595265
 20
125.2615720705484
 30
0.0
  0
SPLINE
  5
276
330
1F
100
AcDbEntity
  8
0
  6
Continuous
 62
     7
370
    25
100
AcDbSpline
210
0.0
220
0.0
230
1.0
 70
     8
 71
     3
 72
    18
 73
    14
 74
     0
 42
0.00000001
 43
0.00000001
 40
0.0
 40
0.0
 40
0.0
 40
0.0
 40
0.0228877262663134
 40
0.0487507054354238
 40
0.0778154834704291
 40
0.110236483015608
 40
0.1666044227712953
 40
0.2317742085792253
 40
0.3567811110102955
 40
0.4838932701832982
 40
0.7413824458060067
 40
0.864106461387062
 40
0.9999999999999999
 40
0.9999999999999999
 40
0.9999999999999999
 40
0.9999999999999999
 10
123.9953967273094
 20
125.2615720705485
 30
0.0
 10
124.0015601932346
 20
125.2650185134648
 30
0.0
 10
124.0146883348543
 20
125.2723594140619
 30
0.0
 10
124.029550238487
 20
125.2843163355421
 30
0.0
 10
124.0428530775626
 20
125.297638243897
 30
0.0
 10
124.0565358322348
 20
125.3154127647965
 30
0.0
 10
124.0691588663876
 20
125.3381100589334
 30
0.0
 10
124.0825499069964
 20
125.3733228379002
 30
0.0
 10
124.0917671839781
 20
125.4164255010833
 30
0.0
 10
124.0992363059958
 20
125.4814681152593
 30
0.0
 10
124.1012881805016
 20
125.5401740125232
 30
0.0
 10
124.102022340987
 20
125.5945003744395
 30
0.0
 10
124.101948984156
 20
125.6192701183421
 30
0.0
 10
124.1019104379738
 20
125.6322856623177
 30
0.0
  0
LINE
  5
277
330
1F
100
AcDbEntity
  8
0
  6
Continuous
 62
     7
370
    25
100
AcDbLine
 10
124.101910438
 20
125.6322856623
 30
0.0
 11
124.3447696622
 21
125.8676914201
 31
0.0
  0
SPLINE
  5
278
330
1F
100
AcDbEntity
  8
0
  6
Continuous
 62
     7
370
    25
100
AcDbSpline
210
0.0
220
0.0
230
1.0
 70
     8
 71
     3
 72
    18
 73
    14
 74
     0
 42
0.00000001
 43
0.00000001
 40
0.0
 40
0.0
 40
0.0
 40
0.0
 40
0.0228877262659284
 40
0.0487507054349101
 40
0.0778154834700411
 40
0.1102364830155919
 40
0.1666044227654431
 40
0.231774208579201
 40
0.3567811110102737
 40
0.4838932701832798
 40
0.741382445805996
 40
0.8641064613662746
 40
1.0
 40
1.0
 40
1.0
 40
1.0
 10
105.2083561595265
 20
103.2103823174423
 30
0.0
 10
105.2021926936014
 20
103.2069358745261
 30
0.0
 10
105.1890645519818
 20
103.1995949739291
 30
0.0
 10
105.1742026483493
 20
103.1876380524489
 30
0.0
 10
105.1608998092736
 20
103.1743161440941
 30
0.0
 10
105.1472170546015
 20
103.156541623195
 30
0.0
 10
105.1345940204495
 20
103.1338443290589
 30
0.0
 10
105.1212029798392
 20
103.098631550091
 30
0.0
 10
105.111985702858
 20
103.0555288869077
 30
0.0
 10
105.10451658084
 20
102.9904862727313
 30
0.0
 10
105.1024647063345
 20
102.9317803754705
 30
0.0
 10
105.1017305458488
 20
102.8774540135526
 30
0.0
 10
105.1018039026799
 20
102.8526842696504
 30
0.0
 10
105.1018424488621
 20
102.8396687256731
 30
0.0
  0
LINE
  5
279
330
1F
100
AcDbEntity
  8
0
  6
Continuous
 62
     7
370
    25
100
AcDbLine
 10
104.8589832246
 20
102.6042629679
 30
0.0
 11
105.1018424489
 21
102.8396687257
 31
0.0
  0
SPLINE
  5
27A
330
1F
100
AcDbEntity
  8
0
  6
Continuous
 62
     7
370
    25
100
AcDbSpline
210
0.0
220
0.0
230
1.0
 70
     8
 71
     3
 72
    16
 73
    12
 74
     0
 42
0.00000001
 43
0.00000001
 40
0.0
 40
0.0
 40
0.0
 40
0.0
 40
0.1358424561976651
 40
0.2585567702396391
 40
0.5157338482659424
 40
0.6432966940871057
 40
0.7692102787447741
 40
0.8342664723077616
 40
0.8905766424116071
 40
0.9515952839399333
 40
1.0
 40
1.0
 40
1.0
 40
1.0
 10
124.1019104379738
 20
102.8396687256726
 30
0.0
 10
124.1019488237199
 20
102.85267824247
 30
0.0
 10
124.1020218855212
 20
102.8774400050269
 30
0.0
 10
124.1012913338947
 20
102.9317191632395
 30
0.0
 10
124.0992259116274
 20
102.9904268015111
 30
0.0
 10
124.0917861108681
 20
103.055592466705
 30
0.0
 10
124.082434292521
 20
103.0988642115608
 30
0.0
 10
124.0691063810035
 20
103.1342062679087
 30
0.0
 10
124.0535900743927
 20
103.1610727103801
 30
0.0
 10
124.0341710350586
 20
103.1863628897818
 30
0.0
 10
124.0072885239564
 20
103.2030157346225
 30
0.0
 10
123.9953967273093
 20
103.2103823174424
 30
0.0
  0
LINE
  5
27B
330
1F
100
AcDbEntity
  8
0
  6
Continuous
 62
     7
370
    25
100
AcDbLine
 10
124.101910438
 20
102.8396687257
 30
0.0
 11
124.3447696622
 21
102.6042629679
 31
0.0
  0
ARC
  5
27C
330
1F
100
AcDbEntity
  8
0
  6
Continuous
 62
     7
370
    25
100
AcDbCircle
 10
123.7018764434
 20
125.635977194
 30
0.0
 40
0.3999999999999915
100
AcDbArc
 50
270.0
 51
0.0
  0
SPLINE
  5
27D
330
1F
100
AcDbEntity
  8
0
  6
Continuous
 62
     7
370
    25
100
AcDbSpline
210
0.0
220
0.0
230
1.0
 70
     8
 71
     3
 72
     8
 73
     4
 74
     0
 42
0.00000001
 43
0.00000001
 40
0.0
 40
0.0
 40
0.0
 40
0.0
 40
1.0
 40
1.0
 40
1.0
 40
1.0
 10
124.1018764434179
 20
125.6359771939954
 30
0.0
 10
124.1018764434179
 20
125.6347550839979
 30
0.0
 10
124.101887598724
 20
125.6335245579339
 30
0.0
 10
124.1019104379738
 20
125.6322856623177
 30
0.0
  0
ARC
  5
27E
330
1F
100
AcDbEntity
  8
0
  6
Continuous
 62
     7
370
    25
100
AcDbCircle
 10
105.5018764434
 20
125.635977194
 30
0.0
 40
0.4000000000000057
100
AcDbArc
 50
180.0
 51
270.0
  0
SPLINE
  5
27F
330
1F
100
AcDbEntity
  8
0
  6
Continuous
 62
     7
370
    25
100
AcDbSpline
210
0.0
220
0.0
230
1.0
 70
     8
 71
     3
 72
     8
 73
     4
 74
     0
 42
0.00000001
 43
0.00000001
 40
0.0
 40
0.0
 40
0.0
 40
0.0
 40
1.0
 40
1.0
 40
1.0
 40
1.0
 10
105.1018424488621
 20
125.6322856623182
 30
0.0
 10
105.1018652867207
 20
125.6335244824721
 30
0.0
 10
105.1018764434179
 20
125.634755010499
 30
0.0
 10
105.1018764434179
 20
125.6359771939954
 30
0.0
  0
ARC
  5
280
330
1F
100
AcDbEntity
  8
0
  6
Continuous
 62
     7
370
    25
100
AcDbCircle
 10
105.5018764434
 20
102.835977194
 30
0.0
 40
0.4000000000000057
100
AcDbArc
 50
90.0
 51
180.0
  0
SPLINE
  5
281
330
1F
100
AcDbEntity
  8
0
  6
Continuous
 62
     7
370
    25
100
AcDbSpline
210
0.0
220
0.0
230
1.0
 70
     8
 71
     3
 72
     8
 73
     4
 74
     0
 42
0.00000001
 43
0.00000001
 40
0.0
 40
0.0
 40
0.0
 40
0.0
 40
1.0
 40
1.0
 40
1.0
 40
1.0
 10
105.1018764434179
 20
102.8359771939954
 30
0.0
 10
105.1018764434179
 20
102.8371993039929
 30
0.0
 10
105.1018652881118
 20
102.8384298300569
 30
0.0
 10
105.1018424488621
 20
102.8396687256731
 30
0.0
  0
ARC
  5
282
330
1F
100
AcDbEntity
  8
0
  6
Continuous
 62
     7
370
    25
100
AcDbCircle
 10
123.7018764434
 20
102.835977194
 30
0.0
 40
0.3999999999999915
100
AcDbArc
 50
0.0
 51
90.0
  0
SPLINE
  5
283
330
1F
100
AcDbEntity
  8
0
  6
Continuous
 62
     7
370
    25
100
AcDbSpline
210
0.0
220
0.0
230
1.0
 70
     8
 71
     3
 72
     8
 73
     4
 74
     0
 42
0.00000001
 43
0.00000001
 40
0.0
 40
0.0
 40
0.0
 40
0.0
 40
1.0
 40
1.0
 40
1.0
 40
1.0
 10
124.1019104379738
 20
102.8396687256726
 30
0.0
 10
124.1018876001152
 20
102.8384299055187
 30
0.0
 10
124.1018764434179
 20
102.8371993774917
 30
0.0
 10
124.1018764434179
 20
102.8359771939954
 30
0.0
  0
LINE
  5
284
330
1F
100
AcDbEntity
  8
0
  6
Continuous
 62
     7
370
    25
100
AcDbLine
 10
124.101910438
 20
125.6322856623
 30
0.0
 11
124.101910438
 21
125.9931179697
 31
0.0
  0
LINE
  5
285
330
1F
100
AcDbEntity
  8
0
  6
Continuous
 62
     7
370
    25
100
AcDbLine
 10
105.1018424489
 20
102.8396687257
 30
0.0
 11
105.1018424489
 21
102.4788364183
 31
0.0
  0
LINE
  5
286
330
1F
100
AcDbEntity
  8
0
  6
Continuous
 62
     7
370
    25
100
AcDbLine
 10
124.101910438
 20
102.4788364183
 30
0.0
 11
124.101910438
 21
102.8396687257
 31
0.0
  0
LINE
  5
287
330
1F
100
AcDbEntity
  8
0
  6
Continuous
 62
     7
370
    25
100
AcDbLine
 10
105.1018424489
 20
125.9931179697
 30
0.0
 11
105.1018424489
 21
125.6322856623
 31
0.0
  0
LINE
  5
288
330
1F
100
AcDbEntity
  8
0
  6
Continuous
 62
     7
370
    25
100
AcDbLine
 10
124.1018764434
 20
125.635977194
 30
0.0
 11
124.1018764434
 21
125.985977194
 31
0.0
  0
LINE
  5
289
330
1F
100
AcDbEntity
  8
0
  6
Continuous
 62
     7
370
    25
100
AcDbLine
 10
105.1018764434
 20
102.835977194
 30
0.0
 11
105.1018764434
 21
102.485977194
 31
0.0
  0
LINE
  5
28A
330
1F
100
AcDbEntity
  8
0
  6
Continuous
 62
     7
370
    25
100
AcDbLine
 10
105.1018764434
 20
125.985977194
 30
0.0
 11
105.1018764434
 21
125.635977194
 31
0.0
  0
LINE
  5
28B
330
1F
100
AcDbEntity
  8
0
  6
Continuous
 62
     7
370
    25
100
AcDbLine
 10
124.1018764434
 20
102.485977194
 30
0.0
 11
124.1018764434
 21
102.835977194
 31
0.0
  0
SPLINE
  5
28C
330
1F
100
AcDbEntity
  8
0
  6
Continuous
 62
     7
370
    25
100
AcDbSpline
210
0.0
220
0.0
230
1.0
 70
     8
 71
     3
 72
    15
 73
    11
 74
     0
 42
0.00000001
 43
0.00000001
 40
0.0
 40
0.0
 40
0.0
 40
0.0
 40
0.0090459071881972
 40
0.1032433785236817
 40
0.1542564497735191
 40
0.3133169026715101
 40
0.5243720399414404
 40
0.6678060008509181
 40
0.9918332554187027
 40
1.0
 40
1.0
 40
1.0
 40
1.0
 10
109.3627911107598
 20
115.9098902374737
 30
0.0
 10
109.3627968027265
 20
115.9098725917492
 30
0.0
 10
109.3628617666773
 20
115.9096711963367
 30
0.0
 10
109.3648574531132
 20
115.9034815756705
 30
0.0
 10
109.3726744493297
 20
115.8792796438263
 30
0.0
 10
109.3898442730846
 20
115.8262606518247
 30
0.0
 10
109.4164281696521
 20
115.7448897646281
 30
0.0
 10
109.4542574681408
 20
115.6303106926056
 30
0.0
 10
109.482538248151
 20
115.5458855148865
 30
0.0
 10
109.5023693956823
 20
115.4874146569344
 30
0.0
 10
109.5028569298252
 20
115.4859771939954
 30
0.0
  0
ARC
  5
28D
330
1F
100
AcDbEntity
  8
0
  6
Continuous
 62
     7
370
    25
100
AcDbCircle
 10
114.6018764434
 20
114.235977194
 30
0.0
 40
5.500000000000011
100
AcDbArc
 50
17.7189318734
 51
162.2810681266
  0
SPLINE
  5
28E
330
1F
100
AcDbEntity
  8
0
  6
Continuous
 62
     7
370
    25
100
AcDbSpline
210
0.0
220
0.0
230
1.0
 70
     8
 71
     3
 72
    15
 73
    11
 74
     0
 42
0.00000001
 43
0.00000001
 40
0.0
 40
0.0
 40
0.0
 40
0.0
 40
0.0081667445812973
 40
0.3321939991490804
 40
0.4756279600585561
 40
0.6866830973284889
 40
0.8457435502264752
 40
0.8967566214763125
 40
0.9909540928118029
 40
1.0
 40
1.0
 40
1.0
 40
1.0
 10
119.7008959570107
 20
115.4859771939954
 30
0.0
 10
119.7013834911536
 20
115.4874146569344
 30
0.0
 10
119.7212146386849
 20
115.5458855148864
 30
0.0
 10
119.7494954186951
 20
115.6303106926056
 30
0.0
 10
119.7873247171838
 20
115.7448897646281
 30
0.0
 10
119.8139086137513
 20
115.8262606518246
 30
0.0
 10
119.8310784375063
 20
115.8792796438263
 30
0.0
 10
119.8388954337227
 20
115.9034815756704
 30
0.0
 10
119.8408911201586
 20
115.9096711963366
 30
0.0
 10
119.8409560841094
 20
115.9098725917492
 30
0.0
 10
119.8409617760761
 20
115.9098902374736
 30
0.0
  0
ARC
  5
28F
330
1F
100
AcDbEntity
  8
0
  6
Continuous
 62
     7
370
    25
100
AcDbCircle
 10
114.6018764434
 20
114.235977194
 30
0.0
 40
5.250000000000012
100
AcDbArc
 50
13.774146998
 51
166.225853002
  0
SPLINE
  5
290
330
1F
100
AcDbEntity
  8
0
  6
Continuous
 62
     7
370
    25
100
AcDbSpline
210
0.0
220
0.0
230
1.0
 70
     8
 71
     3
 72
    15
 73
    11
 74
     0
 42
0.00000001
 43
0.00000001
 40
0.0
 40
0.0
 40
0.0
 40
0.0
 40
0.0080847466189582
 40
0.3310106400648249
 40
0.4750333064304944
 40
0.687436307921514
 40
0.8468367539418303
 40
0.9000996640391847
 40
0.9910442771984082
 40
1.0
 40
1.0
 40
1.0
 40
1.0
 10
109.5028569298252
 20
115.4859771939954
 30
0.0
 10
109.501577098281
 20
115.4867931299837
 30
0.0
 10
109.4491774525578
 20
115.5201996801782
 30
0.0
 10
109.3738223611027
 20
115.569013244912
 30
0.0
 10
109.271903249085
 20
115.6363837171804
 30
0.0
 10
109.1995123040931
 20
115.6849677575238
 30
0.0
 10
109.1518068758283
 20
115.7174166189824
 30
0.0
 10
109.130271392121
 20
115.7321276600486
 30
0.0
 10
109.1248423761015
 20
115.7358461109667
 30
0.0
 10
109.1246666239449
 20
115.7359664096323
 30
0.0
 10
109.1246508683663
 20
115.7359771939954
 30
0.0
  0
ARC
  5
291
330
1F
100
AcDbEntity
  8
0
  6
Continuous
 62
     7
370
    25
100
AcDbCircle
 10
109.1246508684
 20
115.985977194
 30
0.0
 40
0.25
100
AcDbArc
 50
270.0
 51
342.2810681266
  0
SPLINE
  5
292
330
1F
100
AcDbEntity
  8
0
  6
Continuous
 62
     7
370
    25
100
AcDbSpline
210
0.0
220
0.0
230
1.0
 70
     8
 71
     3
 72
    15
 73
    11
 74
     0
 42
0.00000001
 43
0.00000001
 40
0.0
 40
0.0
 40
0.0
 40
0.0
 40
0.0089557228015919
 40
0.0999003359608209
 40
0.1531632460581751
 40
0.3125636920784902
 40
0.5249666935695058
 40
0.6689893599351784
 40
0.991915253381045
 40
1.0
 40
1.0
 40
1.0
 40
1.0
 10
120.0791020184696
 20
115.7359771939954
 30
0.0
 10
120.079086262891
 20
115.7359664096322
 30
0.0
 10
120.0789105107344
 20
115.7358461109667
 30
0.0
 10
120.0734814947149
 20
115.7321276600486
 30
0.0
 10
120.0519460110076
 20
115.7174166189823
 30
0.0
 10
120.0042405827428
 20
115.6849677575238
 30
0.0
 10
119.9318496377509
 20
115.6363837171804
 30
0.0
 10
119.8299305257332
 20
115.569013244912
 30
0.0
 10
119.7545754342782
 20
115.5201996801781
 30
0.0
 10
119.7021757885549
 20
115.4867931299837
 30
0.0
 10
119.7008959570107
 20
115.4859771939954
 30
0.0
  0
ARC
  5
293
330
1F
100
AcDbEntity
  8
0
  6
Continuous
 62
     7
370
    25
100
AcDbCircle
 10
120.0791020185
 20
115.985977194
 30
0.0
 40
0.2500000000000077
100
AcDbArc
 50
197.7189318734
 51
270.0
  0
ARC
  5
294
330
1F
100
AcDbEntity
  8
0
  6
Continuous
 62
     7
370
    25
100
AcDbCircle
 10
120.0791020185
 20
112.485977194
 30
0.0
 40
0.2500000000000034
100
AcDbArc
 50
90.0
 51
162.2810681266
  0
SPLINE
  5
295
330
1F
100
AcDbEntity
  8
0
  6
Continuous
 62
     7
370
    25
100
AcDbSpline
210
0.0
220
0.0
230
1.0
 70
     8
 71
     3
 72
    15
 73
    11
 74
     0
 42
0.00000001
 43
0.00000001
 40
0.0
 40
0.0
 40
0.0
 40
0.0
 40
0.0090459071881971
 40
0.1032433785236874
 40
0.1542564497735246
 40
0.3133169026715107
 40
0.5243720399414428
 40
0.6678060008509905
 40
0.9918332554187292
 40
1.0
 40
1.0
 40
1.0
 40
1.0
 10
119.840961776076
 20
112.5620641505171
 30
0.0
 10
119.8409560841094
 20
112.5620817962416
 30
0.0
 10
119.8408911201586
 20
112.5622831916541
 30
0.0
 10
119.8388954337227
 20
112.5684728123203
 30
0.0
 10
119.8310784375062
 20
112.5926747441645
 30
0.0
 10
119.8139086137513
 20
112.6456937361661
 30
0.0
 10
119.7873247171838
 20
112.7270646233627
 30
0.0
 10
119.7494954186949
 20
112.8416436953852
 30
0.0
 10
119.7212146386857
 20
112.9260688731046
 30
0.0
 10
119.7013834911536
 20
112.9845397310564
 30
0.0
 10
119.7008959570107
 20
112.9859771939954
 30
0.0
  0
SPLINE
  5
296
330
1F
100
AcDbEntity
  8
0
  6
Continuous
 62
     7
370
    25
100
AcDbSpline
210
0.0
220
0.0
230
1.0
 70
     8
 71
     3
 72
    15
 73
    11
 74
     0
 42
0.00000001
 43
0.00000001
 40
0.0
 40
0.0
 40
0.0
 40
0.0
 40
0.0080847466189818
 40
0.3310106400647573
 40
0.4750333064304968
 40
0.6874363079215134
 40
0.8468367539418253
 40
0.9000996640391794
 40
0.9910442771984082
 40
1.0
 40
1.0
 40
1.0
 40
1.0
 10
119.7008959570107
 20
112.9859771939954
 30
0.0
 10
119.7021757885549
 20
112.9851612580071
 30
0.0
 10
119.7545754342786
 20
112.9517547078135
 30
0.0
 10
119.8299305257331
 20
112.9029411430786
 30
0.0
 10
119.9318496377509
 20
112.8355706708105
 30
0.0
 10
120.0042405827428
 20
112.786986630467
 30
0.0
 10
120.0519460110076
 20
112.7545377690084
 30
0.0
 10
120.0734814947149
 20
112.7398267279422
 30
0.0
 10
120.0789105107344
 20
112.736108277024
 30
0.0
 10
120.079086262891
 20
112.7359879783585
 30
0.0
 10
120.0791020184696
 20
112.7359771939954
 30
0.0
  0
SPLINE
  5
297
330
1F
100
AcDbEntity
  8
0
  6
Continuous
 62
     7
370
    25
100
AcDbSpline
210
0.0
220
0.0
230
1.0
 70
     8
 71
     3
 72
    15
 73
    11
 74
     0
 42
0.00000001
 43
0.00000001
 40
0.0
 40
0.0
 40
0.0
 40
0.0
 40
0.0081667445812695
 40
0.3321939991490083
 40
0.4756279600585602
 40
0.6866830973284895
 40
0.845743550226481
 40
0.8967566214763185
 40
0.9909540928118028
 40
1.0
 40
1.0
 40
1.0
 40
1.0
 10
109.5028569298252
 20
112.9859771939954
 30
0.0
 10
109.5023693956823
 20
112.9845397310564
 30
0.0
 10
109.4825382481502
 20
112.9260688731047
 30
0.0
 10
109.4542574681409
 20
112.8416436953852
 30
0.0
 10
109.4164281696521
 20
112.7270646233628
 30
0.0
 10
109.3898442730846
 20
112.6456937361662
 30
0.0
 10
109.3726744493296
 20
112.5926747441645
 30
0.0
 10
109.3648574531132
 20
112.5684728123204
 30
0.0
 10
109.3628617666773
 20
112.5622831916542
 30
0.0
 10
109.3627968027265
 20
112.5620817962416
 30
0.0
 10
109.3627911107598
 20
112.5620641505172
 30
0.0
  0
ARC
  5
298
330
1F
100
AcDbEntity
  8
0
  6
Continuous
 62
     7
370
    25
100
AcDbCircle
 10
114.6018764434
 20
114.235977194
 30
0.0
 40
5.250000000000002
100
AcDbArc
 50
193.774146998
 51
346.225853002
  0
ARC
  5
299
330
1F
100
AcDbEntity
  8
0
  6
Continuous
 62
     7
370
    25
100
AcDbCircle
 10
114.6018764434
 20
114.235977194
 30
0.0
 40
5.500000000000016
100
AcDbArc
 50
197.7189318734
 51
342.2810681266
  0
ARC
  5
29A
330
1F
100
AcDbEntity
  8
0
  6
Continuous
 62
     7
370
    25
100
AcDbCircle
 10
109.1246508684
 20
112.485977194
 30
0.0
 40
0.25
100
AcDbArc
 50
17.7189318734
 51
90.0
  0
SPLINE
  5
29B
330
1F
100
AcDbEntity
  8
0
  6
Continuous
 62
     7
370
    25
100
AcDbSpline
210
0.0
220
0.0
230
1.0
 70
     8
 71
     3
 72
    15
 73
    11
 74
     0
 42
0.00000001
 43
0.00000001
 40
0.0
 40
0.0
 40
0.0
 40
0.0
 40
0.0089557228015919
 40
0.0999003359608148
 40
0.153163246058169
 40
0.3125636920784846
 40
0.5249666935694994
 40
0.6689893599352458
 40
0.9919152533810159
 40
1.0
 40
1.0
 40
1.0
 40
1.0
 10
109.1246508683663
 20
112.7359771939954
 30
0.0
 10
109.1246666239449
 20
112.7359879783586
 30
0.0
 10
109.1248423761014
 20
112.7361082770241
 30
0.0
 10
109.130271392121
 20
112.7398267279422
 30
0.0
 10
109.1518068758283
 20
112.7545377690085
 30
0.0
 10
109.1995123040931
 20
112.786986630467
 30
0.0
 10
109.271903249085
 20
112.8355706708105
 30
0.0
 10
109.3738223611028
 20
112.9029411430786
 30
0.0
 10
109.4491774525573
 20
112.9517547078134
 30
0.0
 10
109.501577098281
 20
112.9851612580071
 30
0.0
 10
109.5028569298252
 20
112.9859771939954
 30
0.0
  0
LINE
  5
29C
330
1F
100
AcDbEntity
  8
0
  6
Continuous
 62
     7
370
    25
100
AcDbLine
 10
109.6018764434
 20
113.635977194
 30
0.0
 11
119.6018764434
 21
113.635977194
 31
0.0
  0
LINE
  5
29D
330
1F
100
AcDbEntity
  8
0
  6
Continuous
 62
     7
370
    25
100
AcDbLine
 10
119.6018764434
 20
113.635977194
 30
0.0
 11
119.6018764434
 21
114.835977194
 31
0.0
  0
LINE
  5
29E
330
1F
100
AcDbEntity
  8
0
  6
Continuous
 62
     7
370
    25
100
AcDbLine
 10
119.6018764434
 20
114.835977194
 30
0.0
 11
109.6018764434
 21
114.835977194
 31
0.0
  0
LINE
  5
29F
330
1F
100
AcDbEntity
  8
0
  6
Continuous
 62
     7
370
    25
100
AcDbLine
 10
109.6018764434
 20
114.835977194
 30
0.0
 11
109.6018764434
 21
113.635977194
 31
0.0
  0
LINE
  5
2A0
330
1F
100
AcDbEntity
  8
0
  6
Continuous
 62
     7
370
    25
100
AcDbLine
 10
108.8518764434
 20
112.985977194
 30
0.0
 11
109.5028569298
 21
112.985977194
 31
0.0
  0
LINE
  5
2A1
330
1F
100
AcDbEntity
  8
0
  6
Continuous
 62
     7
370
    25
100
AcDbLine
 10
108.8518764434
 20
115.485977194
 30
0.0
 11
108.8518764434
 21
112.985977194
 31
0.0
  0
LINE
  5
2A2
330
1F
100
AcDbEntity
  8
0
  6
Continuous
 62
     7
370
    25
100
AcDbLine
 10
109.5028569298
 20
115.485977194
 30
0.0
 11
108.8518764434
 21
115.485977194
 31
0.0
  0
LINE
  5
2A3
330
1F
100
AcDbEntity
  8
0
  6
Continuous
 62
     7
370
    25
100
AcDbLine
 10
120.3518764434
 20
115.485977194
 30
0.0
 11
119.700895957
 21
115.485977194
 31
0.0
  0
LINE
  5
2A4
330
1F
100
AcDbEntity
  8
0
  6
Continuous
 62
     7
370
    25
100
AcDbLine
 10
120.3518764434
 20
112.985977194
 30
0.0
 11
120.3518764434
 21
115.485977194
 31
0.0
  0
LINE
  5
2A5
330
1F
100
AcDbEntity
  8
0
  6
Continuous
 62
     7
370
    25
100
AcDbLine
 10
119.700895957
 20
112.985977194
 30
0.0
 11
120.3518764434
 21
112.985977194
 31
0.0
  0
LINE
  5
2A6
330
1F
100
AcDbEntity
  8
0
  6
Continuous
 62
     7
370
    25
100
AcDbLine
 10
120.0791020185
 20
115.735977194
 30
0.0
 11
120.3518764434
 21
115.735977194
 31
0.0
  0
LINE
  5
2A7
330
1F
100
AcDbEntity
  8
0
  6
Continuous
 62
     7
370
    25
100
AcDbLine
 10
120.3518764434
 20
115.485977194
 30
0.0
 11
120.3518764434
 21
115.735977194
 31
0.0
  0
LINE
  5
2A8
330
1F
100
AcDbEntity
  8
0
  6
Continuous
 62
     7
370
    25
100
AcDbLine
 10
108.8518764434
 20
115.735977194
 30
0.0
 11
108.8518764434
 21
115.485977194
 31
0.0
  0
LINE
  5
2A9
330
1F
100
AcDbEntity
  8
0
  6
Continuous
 62
     7
370
    25
100
AcDbLine
 10
108.8518764434
 20
115.735977194
 30
0.0
 11
109.1246508684
 21
115.735977194
 31
0.0
  0
ARC
  5
2AA
330
1F
100
AcDbEntity
  8
0
  6
Continuous
 62
     7
370
    25
100
AcDbCircle
 10
108.8518764434
 20
115.485977194
 30
0.0
 40
0.25
100
AcDbArc
 50
90.0
 51
180.0
  0
LINE
  5
2AB
330
1F
100
AcDbEntity
  8
0
  6
Continuous
 62
     7
370
    25
100
AcDbLine
 10
108.8518764434
 20
115.485977194
 30
0.0
 11
108.6018764434
 21
115.485977194
 31
0.0
  0
LINE
  5
2AC
330
1F
100
AcDbEntity
  8
0
  6
Continuous
 62
     7
370
    25
100
AcDbLine
 10
120.6018764434
 20
115.485977194
 30
0.0
 11
120.3518764434
 21
115.485977194
 31
0.0
  0
ARC
  5
2AD
330
1F
100
AcDbEntity
  8
0
  6
Continuous
 62
     7
370
    25
100
AcDbCircle
 10
120.3518764434
 20
115.485977194
 30
0.0
 40
0.25
100
AcDbArc
 50
0.0
 51
90.0
  0
LINE
  5
2AE
330
1F
100
AcDbEntity
  8
0
  6
Continuous
 62
     7
370
    25
100
AcDbLine
 10
108.6018764434
 20
112.985977194
 30
0.0
 11
108.8518764434
 21
112.985977194
 31
0.0
  0
LINE
  5
2AF
330
1F
100
AcDbEntity
  8
0
  6
Continuous
 62
     7
370
    25
100
AcDbLine
 10
108.6018764434
 20
112.985977194
 30
0.0
 11
108.6018764434
 21
115.485977194
 31
0.0
  0
LINE
  5
2B0
330
1F
100
AcDbEntity
  8
0
  6
Continuous
 62
     7
370
    25
100
AcDbLine
 10
120.6018764434
 20
115.485977194
 30
0.0
 11
120.6018764434
 21
112.985977194
 31
0.0
  0
LINE
  5
2B1
330
1F
100
AcDbEntity
  8
0
  6
Continuous
 62
     7
370
    25
100
AcDbLine
 10
120.3518764434
 20
112.985977194
 30
0.0
 11
120.6018764434
 21
112.985977194
 31
0.0
  0
LINE
  5
2B2
330
1F
100
AcDbEntity
  8
0
  6
Continuous
 62
     7
370
    25
100
AcDbLine
 10
108.8518764434
 20
112.985977194
 30
0.0
 11
108.8518764434
 21
112.735977194
 31
0.0
  0
LINE
  5
2B3
330
1F
100
AcDbEntity
  8
0
  6
Continuous
 62
     7
370
    25
100
AcDbLine
 10
109.1246508684
 20
112.735977194
 30
0.0
 11
108.8518764434
 21
112.735977194
 31
0.0
  0
LINE
  5
2B4
330
1F
100
AcDbEntity
  8
0
  6
Continuous
 62
     7
370
    25
100
AcDbLine
 10
120.3518764434
 20
112.735977194
 30
0.0
 11
120.3518764434
 21
112.985977194
 31
0.0
  0
ARC
  5
2B5
330
1F
100
AcDbEntity
  8
0
  6
Continuous
 62
     7
370
    25
100
AcDbCircle
 10
120.3518764434
 20
112.985977194
 30
0.0
 40
0.25
100
AcDbArc
 50
270.0
 51
0.0
  0
ARC
  5
2B6
330
1F
100
AcDbEntity
  8
0
  6
Continuous
 62
     7
370
    25
100
AcDbCircle
 10
108.8518764434
 20
112.985977194
 30
0.0
 40
0.25
100
AcDbArc
 50
180.0
 51
270.0
  0
LINE
  5
2B7
330
1F
100
AcDbEntity
  8
0
  6
Continuous
 62
     7
370
    25
100
AcDbLine
 10
120.3518764434
 20
112.735977194
 30
0.0
 11
120.0791020185
 21
112.735977194
 31
0.0
  0
LINE
  5
2B8
330
1F
100
AcDbEntity
  8
0
  6
Continuous
 62
     7
370
    25
100
AcDbLine
 10
94.6018764434
 20
110.9642779299
 30
0.0
 11
94.6018764434
 21
117.5076764581
 31
0.0
  0
LINE
  5
2B9
330
1F
100
AcDbEntity
  8
0
  6
Continuous
 62
     7
370
    25
100
AcDbLine
 10
92.4264395819
 20
110.735977194
 30
0.0
 11
94.6018764434
 21
110.9642779299
 31
0.0
  0
LINE
  5
2BA
330
1F
100
AcDbEntity
  8
0
  6
Continuous
 62
     7
370
    25
100
AcDbLine
 10
74.6018764434
 20
110.735977194
 30
0.0
 11
92.4264395819
 21
110.735977194
 31
0.0
  0
LINE
  5
2BB
330
1F
100
AcDbEntity
  8
0
  6
Continuous
 62
     7
370
    25
100
AcDbLine
 10
74.6018764434
 20
117.735977194
 30
0.0
 11
74.6018764434
 21
110.735977194
 31
0.0
  0
LINE
  5
2BC
330
1F
100
AcDbEntity
  8
0
  6
Continuous
 62
     7
370
    25
100
AcDbLine
 10
92.4264395819
 20
117.735977194
 30
0.0
 11
74.6018764434
 21
117.735977194
 31
0.0
  0
LINE
  5
2BD
330
1F
100
AcDbEntity
  8
0
  6
Continuous
 62
     7
370
    25
100
AcDbLine
 10
94.6018764434
 20
117.5076764581
 30
0.0
 11
92.4264395819
 21
117.735977194
 31
0.0
  0
LINE
  5
2BE
330
1F
100
AcDbEntity
  8
0
  6
Continuous
 62
     7
370
    25
100
AcDbLine
 10
109.3780742691
 20
115.9569916748
 30
0.0
 11
109.2496652304
 21
115.7728500414
 31
0.0
  0
LINE
  5
2BF
330
1F
100
AcDbEntity
  8
0
  6
Continuous
 62
     7
370
    25
100
AcDbLine
 10
109.2592325711
 20
112.6907595266
 30
0.0
 11
109.3780742691
 21
112.5149627132
 31
0.0
  0
LINE
  5
2C0
330
1F
100
AcDbEntity
  8
0
  6
Continuous
 62
     7
370
    25
100
AcDbLine
 10
101.1853067898
 20
116.8167798296
 30
0.0
 11
101.1853067898
 21
111.6551745584
 31
0.0
  0
LINE
  5
2C1
330
1F
100
AcDbEntity
  8
0
  6
Continuous
 62
     7
370
    25
100
AcDbLine
 10
109.3780742691
 20
112.5149627132
 30
0.0
 11
101.1853067898
 21
111.6551745584
 31
0.0
  0
LINE
  5
2C2
330
1F
100
AcDbEntity
  8
0
  6
Continuous
 62
     7
370
    25
100
AcDbLine
 10
101.1853067898
 20
116.8167798296
 30
0.0
 11
109.3780742691
 21
115.9569916748
 31
0.0
  0
LINE
  5
2C3
330
1F
100
AcDbEntity
  8
0
  6
Continuous
 62
     7
370
    25
100
AcDbLine
 10
101.1853067898
 20
111.6551745584
 30
0.0
 11
94.6018764434
 21
110.9642779299
 31
0.0
  0
LINE
  5
2C4
330
1F
100
AcDbEntity
  8
0
  6
Continuous
 62
     7
370
    25
100
AcDbLine
 10
94.6018764434
 20
117.5076764581
 30
0.0
 11
101.1853067898
 21
116.8167798296
 31
0.0
  0
ARC
  5
2C5
330
1F
100
AcDbEntity
  8
0
  6
Continuous
 62
     7
370
    25
100
AcDbCircle
 10
114.6018764434
 20
114.235977194
 30
0.0
 40
7.450000000000653
100
AcDbArc
 50
233.0863788866
 51
126.9136211134
  0
ARC
  5
2C6
330
1F
100
AcDbEntity
  8
0
  6
Continuous
 62
     7
370
    25
100
AcDbCircle
 10
114.6018764434
 20
114.235977194
 30
0.0
 40
7.207531252870786
100
AcDbArc
 50
195.3041237151
 51
238.9797515565
  0
ARC
  5
2C7
330
1F
100
AcDbEntity
  8
0
  6
Continuous
 62
     7
370
    25
100
AcDbCircle
 10
114.6018764434
 20
114.235977194
 30
0.0
 40
7.207531252872437
100
AcDbArc
 50
121.0202484435
 51
164.6958762849
  0
ARC
  5
2C8
330
1F
100
AcDbEntity
  8
0
  6
Continuous
 62
     7
370
    25
100
AcDbCircle
 10
92.4264395819
 20
182.735977194
 30
0.0
 40
64.99999999999997
100
AcDbArc
 50
270.0
 51
286.5000949923
  0
ARC
  5
2C9
330
1F
100
AcDbEntity
  8
0
  6
Continuous
 62
     7
370
    25
100
AcDbCircle
 10
92.4264395819
 20
45.735977194
 30
0.0
 40
65.0
100
AcDbArc
 50
73.4999050077
 51
90.0
  0
LINE
  5
2CA
330
1F
100
AcDbEntity
  8
0
  6
Continuous
 62
     7
370
    25
100
AcDbLine
 10
105.5018764434
 20
123.896373222
 30
0.0
 11
105.5018764434
 21
119.0646889168
 31
0.0
  0
LINE
  5
2CB
330
1F
100
AcDbEntity
  8
0
  6
Continuous
 62
     7
370
    25
100
AcDbLine
 10
105.5018764434
 20
109.4072654712
 30
0.0
 11
105.5018764434
 21
104.575581166
 31
0.0
  0
INSERT
  5
2D7
330
1F
100
AcDbEntity
  8
FORMAT
100
AcDbBlockReference
  2
SW_CENTERMARKSYMBOL_1
 10
114.6018764434
 20
114.235977194
 30
0.0
  0
LINE
  5
2D8
330
1F
100
AcDbEntity
  8
FORMAT
100
AcDbLine
 10
140.2149344121
 20
106.8295634062
 30
0.0
 11
127.8518764434
 21
106.4432178447
 31
0.0
  0
LINE
  5
2D9
330
1F
100
AcDbEntity
  8
FORMAT
100
AcDbLine
 10
140.2149344121
 20
121.6423909818
 30
0.0
 11
127.8518764434
 21
122.0287365433
 31
0.0
  0
LINE
  5
2DA
330
1F
100
AcDbEntity
  8
FORMAT
100
AcDbLine
 10
127.8518764434
 20
122.790414694
 30
0.0
 11
127.8518764434
 21
105.681539694
 31
0.0
  0
ENDSEC
  0
SECTION
  2
OBJECTS
  0
DICTIONARY
  5
C
330
0
100
AcDbDictionary
281
     1
  3
ACAD_GROUP
350
D
  3
ACAD_LAYOUT
350
1A
  3
ACAD_MLINESTYLE
350
17
  3
ACAD_PLOTSETTINGS
350
19
  3
ACAD_PLOTSTYLENAME
350
E
  3
ACAD_SCALELIST
350
47
  3
DWGPROPS
350
2DB
  0
DICTIONARY
  5
D
102
{ACAD_REACTORS
330
C
102
}
330
C
100
AcDbDictionary
281
     1
  0
DICTIONARY
  5
1A
102
{ACAD_REACTORS
330
C
102
}
330
C
100
AcDbDictionary
281
     1
  3
Layout1
350
1E
  3
Layout2
350
26
  3
Model
350
22
  0
DICTIONARY
  5
17
102
{ACAD_REACTORS
330
C
102
}
330
C
100
AcDbDictionary
281
     1
  3
Standard
350
18
  0
DICTIONARY
  5
19
102
{ACAD_REACTORS
330
C
102
}
330
C
100
AcDbDictionary
281
     1
  0
ACDBDICTIONARYWDFLT
  5
E
102
{ACAD_REACTORS
330
C
102
}
330
C
100
AcDbDictionary
281
     1
  3
Normal
350
F
100
AcDbDictionaryWithDefault
340
F
  0
DICTIONARY
  5
47
102
{ACAD_REACTORS
330
C
102
}
330
C
100
AcDbDictionary
281
     1
  3
A0
350
48
  3
A1
350
49
  3
A2
350
4A
  3
A3
350
4B
  3
A4
350
4C
  3
A5
350
4D
  3
A6
350
4E
  3
A7
350
4F
  3
A8
350
50
  3
A9
350
51
  3
B0
350
52
  3
B1
350
53
  3
B2
350
54
  3
B3
350
55
  3
B4
350
56
  3
B5
350
57
  3
B6
350
58
  0
XRECORD
  5
2DB
102
{ACAD_REACTORS
330
C
102
}
330
C
100
AcDbXrecord
280
     1
  1
DWGPROPS COOKIE
  2

  3

  4

  6

  7

  8
user28
  9

300
=
301
=
302
=
303
=
304
=
305
=
306
=
307
=
308
=
309
=
 40
0.0
 41
2460426.344677905
 42
2460426.34467912
  1

 90
        0
  0
LAYOUT
  5
1E
102
{ACAD_REACTORS
330
1A
102
}
330
1A
100
AcDbPlotSettings
  1

  2
none_device
  4

  6

 40
0.0
 41
0.0
 42
0.0
 43
0.0
 44
0.0
 45
0.0
 46
0.0
 47
0.0
 48
0.0
 49
0.0
140
0.0
141
0.0
142
1.0
143
1.0
 70
   688
 72
     1
 73
     0
 74
     5
  7

 75
    16
147
1.0
148
0.0
149
0.0
100
AcDbLayout
  1
Layout1
 70
     1
 71
     1
 10
0.0
 20
0.0
 11
420.0
 21
297.0
 12
0.0
 22
0.0
 32
0.0
 14
1.0000000000E+20
 24
1.0000000000E+20
 34
1.0000000000E+20
 15
-1.0000000000E+20
 25
-1.0000000000E+20
 35
-1.0000000000E+20
146
0.0
 13
0.0
 23
0.0
 33
0.0
 16
1.0
 26
0.0
 36
0.0
 17
0.0
 27
1.0
 37
0.0
 76
     0
330
1B
  0
LAYOUT
  5
26
102
{ACAD_REACTORS
330
1A
102
}
330
1A
100
AcDbPlotSettings
  1

  2
none_device
  4

  6

 40
0.0
 41
0.0
 42
0.0
 43
0.0
 44
0.0
 45
0.0
 46
0.0
 47
0.0
 48
0.0
 49
0.0
140
0.0
141
0.0
142
1.0
143
1.0
 70
   688
 72
     1
 73
     0
 74
     5
  7

 75
    16
147
1.0
148
0.0
149
0.0
100
AcDbLayout
  1
Layout2
 70
     1
 71
     2
 10
0.0
 20
0.0
 11
0.0
 21
0.0
 12
0.0
 22
0.0
 32
0.0
 14
0.0
 24
0.0
 34
0.0
 15
0.0
 25
0.0
 35
0.0
146
0.0
 13
0.0
 23
0.0
 33
0.0
 16
1.0
 26
0.0
 36
0.0
 17
0.0
 27
1.0
 37
0.0
 76
     0
330
23
  0
LAYOUT
  5
22
102
{ACAD_REACTORS
330
1A
102
}
330
1A
100
AcDbPlotSettings
  1

  2
none_device
  4
Letter_(8.50_x_11.00_Inches)
  6

 40
6.35
 41
6.35
 42
6.35000508
 43
6.35000508
 44
215.9
 45
279.4
 46
0.0
 47
0.0
 48
0.0
 49
0.0
140
0.0
141
0.0
142
1.0
143
1.0
 70
  1712
 72
     1
 73
     0
 74
     0
  7

 75
     0
147
1.0
148
0.0
149
0.0
100
AcDbLayout
  1
Model
 70
     1
 71
     0
 10
0.0
 20
0.0
 11
297.0
 21
210.0
 12
0.0
 22
0.0
 32
0.0
 14
0.0
 24
0.0
 34
0.0
 15
297.0
 25
210.0
 35
0.0
146
0.0
 13
0.0
 23
0.0
 33
0.0
 16
1.0
 26
0.0
 36
0.0
 17
0.0
 27
1.0
 37
0.0
 76
     0
330
1F
331
29
  0
MLINESTYLE
  5
18
102
{ACAD_REACTORS
330
17
102
}
330
17
100
AcDbMlineStyle
  2
Standard
 70
     0
  3

 62
   256
 51
90.0
 52
90.0
 71
     2
 49
0.5
 62
   256
  6
BYLAYER
 49
-0.5
 62
   256
  6
BYLAYER
  0
ACDBPLACEHOLDER
  5
F
102
{ACAD_REACTORS
330
E
102
}
330
E
  0
SCALE
  5
48
102
{ACAD_REACTORS
330
47
102
}
330
47
100
AcDbScale
 70
     0
300
1:1
140
1.0
141
1.0
290
     1
  0
SCALE
  5
49
102
{ACAD_REACTORS
330
47
102
}
330
47
100
AcDbScale
 70
     0
300
1:2
140
1.0
141
2.0
290
     0
  0
SCALE
  5
4A
102
{ACAD_REACTORS
330
47
102
}
330
47
100
AcDbScale
 70
     0
300
1:4
140
1.0
141
4.0
290
     0
  0
SCALE
  5
4B
102
{ACAD_REACTORS
330
47
102
}
330
47
100
AcDbScale
 70
     0
300
1:5
140
1.0
141
5.0
290
     0
  0
SCALE
  5
4C
102
{ACAD_REACTORS
330
47
102
}
330
47
100
AcDbScale
 70
     0
300
1:8
140
1.0
141
8.0
290
     0
  0
SCALE
  5
4D
102
{ACAD_REACTORS
330
47
102
}
330
47
100
AcDbScale
 70
     0
300
1:10
140
1.0
141
10.0
290
     0
  0
SCALE
  5
4E
102
{ACAD_REACTORS
330
47
102
}
330
47
100
AcDbScale
 70
     0
300
1:16
140
1.0
141
16.0
290
     0
  0
SCALE
  5
4F
102
{ACAD_REACTORS
330
47
102
}
330
47
100
AcDbScale
 70
     0
300
1:20
140
1.0
141
20.0
290
     0
  0
SCALE
  5
50
102
{ACAD_REACTORS
330
47
102
}
330
47
100
AcDbScale
 70
     0
300
1:30
140
1.0
141
30.0
290
     0
  0
SCALE
  5
51
102
{ACAD_REACTORS
330
47
102
}
330
47
100
AcDbScale
 70
     0
300
1:40
140
1.0
141
40.0
290
     0
  0
SCALE
  5
52
102
{ACAD_REACTORS
330
47
102
}
330
47
100
AcDbScale
 70
     0
300
1:50
140
1.0
141
50.0
290
     0
  0
SCALE
  5
53
102
{ACAD_REACTORS
330
47
102
}
330
47
100
AcDbScale
 70
     0
300
1:100
140
1.0
141
100.0
290
     0
  0
SCALE
  5
54
102
{ACAD_REACTORS
330
47
102
}
330
47
100
AcDbScale
 70
     0
300
2:1
140
2.0
141
1.0
290
     0
  0
SCALE
  5
55
102
{ACAD_REACTORS
330
47
102
}
330
47
100
AcDbScale
 70
     0
300
4:1
140
4.0
141
1.0
290
     0
  0
SCALE
  5
56
102
{ACAD_REACTORS
330
47
102
}
330
47
100
AcDbScale
 70
     0
300
8:1
140
8.0
141
1.0
290
     0
  0
SCALE
  5
57
102
{ACAD_REACTORS
330
47
102
}
330
47
100
AcDbScale
 70
     0
300
10:1
140
10.0
141
1.0
290
     0
  0
SCALE
  5
58
102
{ACAD_REACTORS
330
47
102
}
330
47
100
AcDbScale
 70
     0
300
100:1
140
100.0
141
1.0
290
     0
  0
ENDSEC
  0
EOF
