  0
SECTION
  2
HEADER
  9
$ACADVER
  1
AC1015
  9
$ACADMAINTVER
 70
     6
  9
$DWGCODEPAGE
  3
DOS932
  9
$INSBASE
 10
0.0
 20
0.0
 30
0.0
  9
$EXTMIN
 10
0.0
 20
0.0
 30
0.0
  9
$EXTMAX
 10
297.0
 20
210.0
 30
0.0
  9
$LIMMIN
 10
0.0
 20
0.0
  9
$LIMMAX
 10
297.0
 20
210.0
  9
$ORTHOMODE
 70
     0
  9
$REGENMODE
 70
     1
  9
$FILLMODE
 70
     1
  9
$QTEXTMODE
 70
     0
  9
$MIRRTEXT
 70
     1
  9
$LTSCALE
 40
1.0
  9
$ATTMODE
 70
     1
  9
$TEXTSIZE
 40
3.5
  9
$TRACEWID
 40
1.0
  9
$TEXTSTYLE
  7
Standard
  9
$CLAYER
  8
0
  9
$CELTYPE
  6
ByLayer
  9
$CECOLOR
 62
   256
  9
$CELTSCALE
 40
1.0
  9
$DISPSILH
 70
     0
  9
$DIMSCALE
 40
1.0
  9
$DIMASZ
 40
3.556
  9
$DIMEXO
 40
1.0
  9
$DIMDLI
 40
3.75
  9
$DIMRND
 40
0.0
  9
$DIMDLE
 40
0.0
  9
$DIMEXE
 40
1.0
  9
$DIMTP
 40
0.0
  9
$DIMTM
 40
0.0
  9
$DIMTXT
 40
3.5
  9
$DIMCEN
 40
2.5
  9
$DIMTSZ
 40
0.0
  9
$DIMTOL
 70
     0
  9
$DIMLIM
 70
     0
  9
$DIMTIH
 70
     1
  9
$DIMTOH
 70
     1
  9
$DIMSE1
 70
     0
  9
$DIMSE2
 70
     0
  9
$DIMTAD
 70
     1
  9
$DIMZIN
 70
     1
  9
$DIMBLK
  1

  9
$DIMASO
 70
     1
  9
$DIMSHO
 70
     1
  9
$DIMPOST
  1

  9
$DIMAPOST
  1

  9
$DIMALT
 70
     0
  9
$DIMALTD
 70
     3
  9
$DIMALTF
 40
0.0393700787
  9
$DIMLFAC
 40
1.0
  9
$DIMTOFL
 70
     1
  9
$DIMTVP
 40
0.0
  9
$DIMTIX
 70
     0
  9
$DIMSOXD
 70
     0
  9
$DIMSAH
 70
     0
  9
$DIMBLK1
  1

  9
$DIMBLK2
  1

  9
$DIMSTYLE
  2
ISO-25
  9
$DIMCLRD
 70
     0
  9
$DIMCLRE
 70
     0
  9
$DIMCLRT
 70
     0
  9
$DIMTFAC
 40
1.0
  9
$DIMGAP
 40
1.524
  9
$DIMJUST
 70
     0
  9
$DIMSD1
 70
     0
  9
$DIMSD2
 70
     0
  9
$DIMTOLJ
 70
     0
  9
$DIMTZIN
 70
     1
  9
$DIMALTZ
 70
     0
  9
$DIMALTTZ
 70
     0
  9
$DIMUPT
 70
     0
  9
$DIMDEC
 70
     2
  9
$DIMTDEC
 70
     2
  9
$DIMALTU
 70
     2
  9
$DIMALTTD
 70
     3
  9
$DIMTXSTY
  7
Standard
  9
$DIMAUNIT
 70
     0
  9
$DIMADEC
 70
     2
  9
$DIMALTRND
 40
0.0
  9
$DIMAZIN
 70
     0
  9
$DIMDSEP
 70
    44
  9
$DIMATFIT
 70
     3
  9
$DIMFRAC
 70
     0
  9
$DIMLDRBLK
  1

  9
$DIMLUNIT
 70
     2
  9
$DIMLWD
 70
    -2
  9
$DIMLWE
 70
    -2
  9
$DIMTMOVE
 70
     0
  9
$LUNITS
 70
     2
  9
$LUPREC
 70
     2
  9
$SKETCHINC
 40
1.0
  9
$FILLETRAD
 40
10.0
  9
$AUNITS
 70
     0
  9
$AUPREC
 70
     2
  9
$MENU
  1
.
  9
$ELEVATION
 40
0.0
  9
$PELEVATION
 40
0.0
  9
$THICKNESS
 40
0.0
  9
$LIMCHECK
 70
     0
  9
$CHAMFERA
 40
0.0
  9
$CHAMFERB
 40
0.0
  9
$CHAMFERC
 40
0.0
  9
$CHAMFERD
 40
0.0
  9
$SKPOLY
 70
     0
  9
$TDCREATE
 40
2459223.426850162
  9
$TDUCREATE
 40
2459223.051850162
  9
$TDUPDATE
 40
2459223.426850891
  9
$TDUUPDATE
 40
2459223.051850891
  9
$TDINDWG
 40
0.0000000116
  9
$TDUSRTIMER
 40
0.0000000116
  9
$USRTIMER
 70
     1
  9
$ANGBASE
 50
0.0
  9
$ANGDIR
 70
     0
  9
$PDMODE
 70
     0
  9
$PDSIZE
 40
-1.0
  9
$PLINEWID
 40
0.0
  9
$SPLFRAME
 70
     0
  9
$SPLINETYPE
 70
     6
  9
$SPLINESEGS
 70
     8
  9
$HANDSEED
  5
20E
  9
$SURFTAB1
 70
     6
  9
$SURFTAB2
 70
     6
  9
$SURFTYPE
 70
     6
  9
$SURFU
 70
     6
  9
$SURFV
 70
     6
  9
$UCSBASE
  2

  9
$UCSNAME
  2

  9
$UCSORG
 10
0.0
 20
0.0
 30
0.0
  9
$UCSXDIR
 10
1.0
 20
0.0
 30
0.0
  9
$UCSYDIR
 10
0.0
 20
1.0
 30
0.0
  9
$UCSORTHOREF
  2

  9
$UCSORTHOVIEW
 70
     0
  9
$UCSORGTOP
 10
0.0
 20
0.0
 30
0.0
  9
$UCSORGBOTTOM
 10
0.0
 20
0.0
 30
0.0
  9
$UCSORGLEFT
 10
0.0
 20
0.0
 30
0.0
  9
$UCSORGRIGHT
 10
0.0
 20
0.0
 30
0.0
  9
$UCSORGFRONT
 10
0.0
 20
0.0
 30
0.0
  9
$UCSORGBACK
 10
0.0
 20
0.0
 30
0.0
  9
$PUCSBASE
  2

  9
$PUCSNAME
  2

  9
$PUCSORG
 10
0.0
 20
0.0
 30
0.0
  9
$PUCSXDIR
 10
1.0
 20
0.0
 30
0.0
  9
$PUCSYDIR
 10
0.0
 20
1.0
 30
0.0
  9
$PUCSORTHOREF
  2

  9
$PUCSORTHOVIEW
 70
     0
  9
$PUCSORGTOP
 10
0.0
 20
0.0
 30
0.0
  9
$PUCSORGBOTTOM
 10
0.0
 20
0.0
 30
0.0
  9
$PUCSORGLEFT
 10
0.0
 20
0.0
 30
0.0
  9
$PUCSORGRIGHT
 10
0.0
 20
0.0
 30
0.0
  9
$PUCSORGFRONT
 10
0.0
 20
0.0
 30
0.0
  9
$PUCSORGBACK
 10
0.0
 20
0.0
 30
0.0
  9
$USERI1
 70
     0
  9
$USERI2
 70
     0
  9
$USERI3
 70
     0
  9
$USERI4
 70
     0
  9
$USERI5
 70
     0
  9
$USERR1
 40
0.0
  9
$USERR2
 40
0.0
  9
$USERR3
 40
0.0
  9
$USERR4
 40
0.0
  9
$USERR5
 40
0.0
  9
$WORLDVIEW
 70
     1
  9
$SHADEDGE
 70
     3
  9
$SHADEDIF
 70
    70
  9
$TILEMODE
 70
     1
  9
$MAXACTVP
 70
    64
  9
$PINSBASE
 10
0.0
 20
0.0
 30
0.0
  9
$PLIMCHECK
 70
     0
  9
$PEXTMIN
 10
1.0000000000E+20
 20
1.0000000000E+20
 30
1.0000000000E+20
  9
$PEXTMAX
 10
-1.0000000000E+20
 20
-1.0000000000E+20
 30
-1.0000000000E+20
  9
$PLIMMIN
 10
0.0
 20
0.0
  9
$PLIMMAX
 10
420.0
 20
297.0
  9
$UNITMODE
 70
     0
  9
$VISRETAIN
 70
     1
  9
$PLINEGEN
 70
     0
  9
$PSLTSCALE
 70
     1
  9
$TREEDEPTH
 70
  3020
  9
$CMLSTYLE
  2
Standard
  9
$CMLJUST
 70
     0
  9
$CMLSCALE
 40
20.0
  9
$PROXYGRAPHICS
 70
     1
  9
$MEASUREMENT
 70
     1
  9
$CELWEIGHT
370
    -1
  9
$ENDCAPS
280
     0
  9
$JOINSTYLE
280
     0
  9
$LWDISPLAY
290
     1
  9
$INSUNITS
 70
     4
  9
$HYPERLINKBASE
  1

  9
$STYLESHEET
  1

  9
$XEDIT
290
     1
  9
$CEPSNTYPE
380
     0
  9
$PSTYLEMODE
290
     1
  9
$FINGERPRINTGUID
  2
{323C6515-C1E8-4A68-8FCF-84ECA9792635}
  9
$VERSIONGUID
  2
{FAEB1C32-E019-11D5-929B-00C0DF256EC4}
  9
$EXTNAMES
290
     1
  9
$PSVPSCALE
 40
0.0
  9
$OLESTARTUP
290
     0
  0
ENDSEC
  0
SECTION
  2
CLASSES
  0
CLASS
  1
ACDBDICTIONARYWDFLT
  2
AcDbDictionaryWithDefault
  3
ObjectDBX Classes
 90
        0
280
     0
281
     0
  0
CLASS
  1
VISUALSTYLE
  2
AcDbVisualStyle
  3
ObjectDBX Classes
 90
     4095
280
     0
281
     0
  0
CLASS
  1
MATERIAL
  2
AcDbMaterial
  3
ObjectDBX Classes
 90
     1153
280
     0
281
     0
  0
CLASS
  1
SCALE
  2
AcDbScale
  3
ObjectDBX Classes
 90
     1153
280
     0
281
     0
  0
CLASS
  1
TABLESTYLE
  2
AcDbTableStyle
  3
ObjectDBX Classes
 90
     4095
280
     0
281
     0
  0
CLASS
  1
MLEADERSTYLE
  2
AcDbMLeaderStyle
  3
ACDB_MLEADERSTYLE_CLASS
 90
     4095
280
     0
281
     0
  0
CLASS
  1
SUN
  2
AcDbSun
  3
SCENEOE
 90
     1153
280
     0
281
     0
  0
CLASS
  1
ACDBPLACEHOLDER
  2
AcDbPlaceHolder
  3
ObjectDBX Classes
 90
        0
280
     0
281
     0
  0
CLASS
  1
LAYOUT
  2
AcDbLayout
  3
ObjectDBX Classes
 90
        0
280
     0
281
     0
  0
ENDSEC
  0
SECTION
  2
TABLES
  0
TABLE
  2
VPORT
  5
8
330
0
100
AcDbSymbolTable
 70
     1
  0
VPORT
  5
29
330
8
100
AcDbSymbolTableRecord
100
AcDbViewportTableRecord
  2
*Active
 70
     0
 10
0.0
 20
0.0
 11
1.0
 21
1.0
 12
148.5
 22
105.0
 13
0.0
 23
0.0
 14
10.0
 24
10.0
 15
10.0
 25
10.0
 16
0.0
 26
0.0
 36
1.0
 17
0.0
 27
0.0
 37
0.0
 40
210.0
 41
1.4142857143
 42
50.0
 43
0.0
 44
0.0
 50
0.0
 51
0.0
 71
     0
 72
  2000
 73
     1
 74
     3
 75
     0
 76
     0
 77
     0
 78
     0
281
     0
 65
     1
110
0.0
120
0.0
130
0.0
111
1.0
121
0.0
131
0.0
112
0.0
122
1.0
132
0.0
 79
     0
146
0.0
  0
ENDTAB
  0
TABLE
  2
LTYPE
  5
5
330
0
100
AcDbSymbolTable
 70
     6
  0
LTYPE
  5
14
330
5
100
AcDbSymbolTableRecord
100
AcDbLinetypeTableRecord
  2
ByBlock
 70
     0
  3

 72
    65
 73
     0
 40
0.0
  0
LTYPE
  5
15
330
5
100
AcDbSymbolTableRecord
100
AcDbLinetypeTableRecord
  2
ByLayer
 70
     0
  3

 72
    65
 73
     0
 40
0.0
  0
LTYPE
  5
16
330
5
100
AcDbSymbolTableRecord
100
AcDbLinetypeTableRecord
  2
Continuous
 70
     0
  3
Solid line
 72
    65
 73
     0
 40
0.0
  0
LTYPE
  5
6E
330
5
100
AcDbSymbolTableRecord
100
AcDbLinetypeTableRecord
  2
HIDDEN
 70
     0
  3
Hidden __ __ __ __ __ __ __ __ __ __ __ __ __ __
 72
    65
 73
     2
 40
1.905
 49
1.27
 74
     0
 49
-0.635
 74
     0
  0
LTYPE
  5
6F
330
5
100
AcDbSymbolTableRecord
100
AcDbLinetypeTableRecord
  2
PHANTOM
 70
     0
  3
Phantom ______  __  __  ______  __  __  ______
 72
    65
 73
     6
 40
12.7
 49
6.35
 74
     0
 49
-1.27
 74
     0
 49
1.27
 74
     0
 49
-1.27
 74
     0
 49
1.27
 74
     0
 49
-1.27
 74
     0
  0
LTYPE
  5
70
330
5
100
AcDbSymbolTableRecord
100
AcDbLinetypeTableRecord
  2
CENTER
 70
     0
  3
Center ____ _ ____ _ ____ _ ____ _ ____ _ ____
 72
    65
 73
     4
 40
10.16
 49
6.35
 74
     0
 49
-1.27
 74
     0
 49
1.27
 74
     0
 49
-1.27
 74
     0
  0
LTYPE
  5
71
330
5
100
AcDbSymbolTableRecord
100
AcDbLinetypeTableRecord
  2
CENTERX2
 70
     0
  3
Center (2x) ________  __  ________  __  _____
 72
    65
 73
     4
 40
20.32
 49
12.7
 74
     0
 49
-2.54
 74
     0
 49
2.54
 74
     0
 49
-2.54
 74
     0
  0
LTYPE
  5
72
330
5
100
AcDbSymbolTableRecord
100
AcDbLinetypeTableRecord
  2
DOT2
 70
     0
  3
Dot (.5x) ........................................
 72
    65
 73
     2
 40
0.635
 49
0.0
 74
     0
 49
-0.635
 74
     0
  0
ENDTAB
  0
TABLE
  2
LAYER
  5
2
330
0
100
AcDbSymbolTable
 70
     1
  0
LAYER
  5
10
330
2
100
AcDbSymbolTableRecord
100
AcDbLayerTableRecord
  2
0
 70
     0
 62
     7
  6
Continuous
370
    -3
390
F
  0
ENDTAB
  0
TABLE
  2
STYLE
  5
3
330
0
100
AcDbSymbolTable
 70
     2
  0
STYLE
  5
11
330
3
100
AcDbSymbolTableRecord
100
AcDbTextStyleTableRecord
  2
Standard
 70
     0
 40
0.0
 41
1.0
 50
0.0
 71
     0
 42
3.5
  3
txt
  4
bigfont
  0
STYLE
  5
73
330
3
100
AcDbSymbolTableRecord
100
AcDbTextStyleTableRecord
  2
SLDTEXTSTYLE0
 70
     0
 40
0.0
 41
0.75
 50
0.0
 71
     0
 42
3.5
  3
TXT
  4
bigfont
  0
ENDTAB
  0
TABLE
  2
VIEW
  5
6
330
0
100
AcDbSymbolTable
 70
     0
  0
ENDTAB
  0
TABLE
  2
UCS
  5
7
330
0
100
AcDbSymbolTable
 70
     0
  0
ENDTAB
  0
TABLE
  2
APPID
  5
9
330
0
100
AcDbSymbolTable
 70
     1
  0
APPID
  5
12
330
9
100
AcDbSymbolTableRecord
100
AcDbRegAppTableRecord
  2
ACAD
 70
     0
  0
ENDTAB
  0
TABLE
  2
DIMSTYLE
  5
A
330
0
100
AcDbSymbolTable
 70
     1
100
AcDbDimStyleTable
  0
DIMSTYLE
105
27
330
A
100
AcDbSymbolTableRecord
100
AcDbDimStyleTableRecord
  2
ISO-25
 70
     0
 41
2.5
 42
0.625
 43
3.75
 44
1.25
 73
     0
 74
     0
 77
     1
 78
     8
140
2.5
141
2.5
143
0.0393700787
147
0.625
171
     3
172
     1
178
     0
271
     2
272
     2
274
     3
278
    44
283
     0
284
     8
340
11
  0
ENDTAB
  0
TABLE
  2
BLOCK_RECORD
  5
1
330
0
100
AcDbSymbolTable
 70
     1
  0
BLOCK_RECORD
  5
1F
330
1
100
AcDbSymbolTableRecord
100
AcDbBlockTableRecord
  2
*Model_Space
340
22
  0
BLOCK_RECORD
  5
1B
330
1
100
AcDbSymbolTableRecord
100
AcDbBlockTableRecord
  2
*Paper_Space
340
1E
  0
BLOCK_RECORD
  5
23
330
1
100
AcDbSymbolTableRecord
100
AcDbBlockTableRecord
  2
*Paper_Space0
340
26
  0
ENDTAB
  0
ENDSEC
  0
SECTION
  2
BLOCKS
  0
BLOCK
  5
20
330
1F
100
AcDbEntity
  8
0
100
AcDbBlockBegin
  2
*Model_Space
 70
     0
 10
0.0
 20
0.0
 30
0.0
  3
*Model_Space
  1

  0
ENDBLK
  5
21
330
1F
100
AcDbEntity
  8
0
100
AcDbBlockEnd
  0
BLOCK
  5
1C
330
1B
100
AcDbEntity
 67
     1
  8
0
100
AcDbBlockBegin
  2
*Paper_Space
 70
     0
 10
0.0
 20
0.0
 30
0.0
  3
*Paper_Space
  1

  0
ENDBLK
  5
1D
330
1B
100
AcDbEntity
 67
     1
  8
0
100
AcDbBlockEnd
  0
BLOCK
  5
24
330
23
100
AcDbEntity
  8
0
100
AcDbBlockBegin
  2
*Paper_Space0
 70
     0
 10
0.0
 20
0.0
 30
0.0
  3
*Paper_Space0
  1

  0
ENDBLK
  5
25
330
23
100
AcDbEntity
  8
0
100
AcDbBlockEnd
  0
ENDSEC
  0
SECTION
  2
ENTITIES
  0
MTEXT
  5
74
330
1F
100
AcDbEntity
  8
0
  6
Continuous
 62
     7
370
     0
100
AcDbMText
 10
126.9221130221
 20
107.6174921902
 30
0.0
 40
3.5
 41
0.0
 71
     1
 72
     1
  1
1R-BK1033
  7
SLDTEXTSTYLE0
 73
     1
 44
1.0
  0
LINE
  5
75
330
1F
100
AcDbEntity
  8
0
  6
Continuous
 62
     7
370
    25
100
AcDbLine
 10
62.2921382329
 20
72.3305894571
 30
0.0
 11
61.7921372196
 21
71.8305893751
 31
0.0
  0
LINE
  5
76
330
1F
100
AcDbEntity
  8
0
  6
Continuous
 62
     7
370
    25
100
AcDbLine
 10
61.7921372196
 20
52.8305899861
 30
0.0
 11
62.2921382329
 21
52.3305899041
 31
0.0
  0
LINE
  5
77
330
1F
100
AcDbEntity
  8
0
  6
Continuous
 62
     7
370
    25
100
AcDbLine
 10
62.2921382329
 20
52.3305899041
 30
0.0
 11
76.7921378157
 21
52.3305899041
 31
0.0
  0
LINE
  5
78
330
1F
100
AcDbEntity
  8
0
  6
Continuous
 62
     7
370
    25
100
AcDbLine
 10
76.7921378157
 20
72.3305894571
 30
0.0
 11
62.2921382329
 21
72.3305894571
 31
0.0
  0
ARC
  5
79
330
1F
100
AcDbEntity
  8
0
  6
Continuous
 62
     7
370
    25
100
AcDbCircle
 10
77.7921375921
 20
53.3305896806
 30
0.0
 40
1.5
100
AcDbArc
 50
318.1896851042
 51
0.0
  0
ARC
  5
7A
330
1F
100
AcDbEntity
  8
0
  6
Continuous
 62
     7
370
    25
100
AcDbCircle
 10
77.7921375921
 20
71.3305896806
 30
0.0
 40
1.5
100
AcDbArc
 50
0.0
 51
41.8103148958
  0
LINE
  5
7B
330
1F
100
AcDbEntity
  8
0
  6
Continuous
 62
     7
370
    25
100
AcDbLine
 10
76.7921378157
 20
52.3305899041
 30
0.0
 11
78.9101711726
 21
52.3305899041
 31
0.0
  0
LINE
  5
7C
330
1F
100
AcDbEntity
  8
0
  6
Continuous
 62
     7
370
    25
100
AcDbLine
 10
78.9101711726
 20
72.3305894571
 30
0.0
 11
76.7921378157
 21
72.3305894571
 31
0.0
  0
ARC
  5
7D
330
1F
100
AcDbEntity
  8
0
  6
Continuous
 62
     7
370
    25
100
AcDbCircle
 10
95.7921375921
 20
71.3305896806
 30
0.0
 40
1.500000000000004
100
AcDbArc
 50
138.1896851042
 51
180.0
  0
ARC
  5
7E
330
1F
100
AcDbEntity
  8
0
  6
Continuous
 62
     7
370
    25
100
AcDbCircle
 10
95.7921375921
 20
53.3305896806
 30
0.0
 40
1.500000000000004
100
AcDbArc
 50
180.0
 51
221.8103148958
  0
LINE
  5
7F
330
1F
100
AcDbEntity
  8
0
  6
Continuous
 62
     7
370
    25
100
AcDbLine
 10
111.2921369514
 20
72.3305894571
 30
0.0
 11
94.6741040117
 21
72.3305894571
 31
0.0
  0
LINE
  5
80
330
1F
100
AcDbEntity
  8
0
  6
Continuous
 62
     7
370
    25
100
AcDbLine
 10
94.6741040117
 20
52.3305899041
 30
0.0
 11
111.2921369514
 21
52.3305899041
 31
0.0
  0
LINE
  5
81
330
1F
100
AcDbEntity
  8
0
  6
Continuous
 62
     7
370
    25
100
AcDbLine
 10
111.2921369514
 20
52.3305899041
 30
0.0
 11
111.7921379647
 21
52.8305899861
 31
0.0
  0
LINE
  5
82
330
1F
100
AcDbEntity
  8
0
  6
Continuous
 62
     7
370
    25
100
AcDbLine
 10
111.7921379647
 20
71.8305893751
 30
0.0
 11
111.2921369514
 21
72.3305894571
 31
0.0
  0
ARC
  5
83
330
1F
100
AcDbEntity
  8
0
  6
Continuous
 62
     7
370
    25
100
AcDbCircle
 10
79.7921375921
 20
53.3305896806
 30
0.0
 40
0.5
100
AcDbArc
 50
90.0
 51
180.0
  0
ARC
  5
84
330
1F
100
AcDbEntity
  8
0
  6
Continuous
 62
     7
370
    25
100
AcDbCircle
 10
93.7921375921
 20
53.3305896806
 30
0.0
 40
0.5
100
AcDbArc
 50
0.0
 51
90.0
  0
ARC
  5
85
330
1F
100
AcDbEntity
  8
0
  6
Continuous
 62
     7
370
    25
100
AcDbCircle
 10
93.7921375921
 20
71.3305896806
 30
0.0
 40
0.5
100
AcDbArc
 50
270.0
 51
0.0
  0
ARC
  5
86
330
1F
100
AcDbEntity
  8
0
  6
Continuous
 62
     7
370
    25
100
AcDbCircle
 10
79.7921375921
 20
71.3305896806
 30
0.0
 40
0.5
100
AcDbArc
 50
180.0
 51
270.0
  0
LINE
  5
87
330
1F
100
AcDbEntity
  8
0
  6
Continuous
 62
     7
370
    25
100
AcDbLine
 10
79.7921373761
 20
53.8305892187
 30
0.0
 11
93.7921378082
 21
53.8305892187
 31
0.0
  0
LINE
  5
88
330
1F
100
AcDbEntity
  8
0
  6
Continuous
 62
     7
370
    25
100
AcDbLine
 10
80.8949532239
 20
70.8305901425
 30
0.0
 11
79.7921373761
 21
70.8305901425
 31
0.0
  0
LINE
  5
89
330
1F
100
AcDbEntity
  8
0
  6
Continuous
 62
     7
370
    25
100
AcDbLine
 10
93.7921378082
 20
70.8305901425
 30
0.0
 11
92.6921378142
 21
70.8305901425
 31
0.0
  0
LINE
  5
8A
330
1F
100
AcDbEntity
  8
0
  6
Continuous
 62
     7
370
    25
100
AcDbLine
 10
92.6921378142
 20
70.8305901425
 30
0.0
 11
92.6921378142
 21
72.830589539
 31
0.0
  0
LINE
  5
8B
330
1F
100
AcDbEntity
  8
0
  6
Continuous
 62
     7
370
    25
100
AcDbLine
 10
80.8921373701
 20
72.830589539
 30
0.0
 11
80.8921373701
 21
70.8286446097
 31
0.0
  0
LINE
  5
8C
330
1F
100
AcDbEntity
  8
0
  6
Continuous
 62
     7
370
    25
100
AcDbLine
 10
81.2921376219
 20
88.8305893677
 30
0.0
 11
79.3421376748
 21
80.830589919
 31
0.0
  0
LINE
  5
8D
330
1F
100
AcDbEntity
  8
0
  6
Continuous
 62
     7
370
    25
100
AcDbLine
 10
79.3421376748
 20
80.830589919
 30
0.0
 11
79.7921373761
 21
72.830589539
 31
0.0
  0
LINE
  5
8E
330
1F
100
AcDbEntity
  8
0
  6
Continuous
 62
     7
370
    25
100
AcDbLine
 10
93.7921378082
 20
72.830589539
 30
0.0
 11
93.8627939923
 21
74.0867071363
 31
0.0
  0
LINE
  5
8F
330
1F
100
AcDbEntity
  8
0
  6
Continuous
 62
     7
370
    25
100
AcDbLine
 10
92.5453692926
 20
87.7916915851
 30
0.0
 11
92.2921375623
 21
88.8305893677
 31
0.0
  0
LINE
  5
90
330
1F
100
AcDbEntity
  8
0
  6
Continuous
 62
     7
370
    25
100
AcDbLine
 10
61.7921372196
 20
62.3305896806
 30
0.0
 11
61.7921372196
 21
71.8305893751
 31
0.0
  0
LINE
  5
91
330
1F
100
AcDbEntity
  8
0
  6
Continuous
 62
     7
370
    25
100
AcDbLine
 10
61.7921372196
 20
52.8305899861
 30
0.0
 11
61.7921372196
 21
62.3305896806
 31
0.0
  0
LINE
  5
92
330
1F
100
AcDbEntity
  8
0
  6
Continuous
 62
     7
370
    25
100
AcDbLine
 10
62.2921382329
 20
62.3305896806
 30
0.0
 11
62.2921382329
 21
52.3305899041
 31
0.0
  0
LINE
  5
93
330
1F
100
AcDbEntity
  8
0
  6
Continuous
 62
     7
370
    25
100
AcDbLine
 10
62.2921382329
 20
72.3305894571
 30
0.0
 11
62.2921382329
 21
62.3305896806
 31
0.0
  0
LINE
  5
94
330
1F
100
AcDbEntity
  8
0
  6
Continuous
 62
     7
370
    25
100
AcDbLine
 10
76.7921378157
 20
62.3305896806
 30
0.0
 11
76.7921378157
 21
72.3305894571
 31
0.0
  0
LINE
  5
95
330
1F
100
AcDbEntity
  8
0
  6
Continuous
 62
     7
370
    25
100
AcDbLine
 10
76.7921378157
 20
52.3305899041
 30
0.0
 11
76.7921378157
 21
62.3305896806
 31
0.0
  0
LINE
  5
96
330
1F
100
AcDbEntity
  8
0
  6
Continuous
 62
     7
370
    25
100
AcDbLine
 10
78.9101711726
 20
62.3305896806
 30
0.0
 11
78.9101711726
 21
52.3305899041
 31
0.0
  0
LINE
  5
97
330
1F
100
AcDbEntity
  8
0
  6
Continuous
 62
     7
370
    25
100
AcDbLine
 10
78.9101711726
 20
72.3305894571
 30
0.0
 11
78.9101711726
 21
62.3305896806
 31
0.0
  0
SPLINE
  5
98
330
1F
100
AcDbEntity
  8
0
  6
Continuous
 62
     7
370
    25
100
AcDbSpline
210
0.0
220
0.0
230
1.0
 70
     8
 71
     3
 72
     8
 73
     4
 74
     0
 42
0.000000001
 43
0.00000001
 40
0.0
 40
0.0
 40
0.0
 40
0.0
 40
1.0
 40
1.0
 40
1.0
 40
1.0
 10
79.19493646676575
 20
67.73027953613372
 30
0.0
 10
79.26277288486166
 20
67.76164247726598
 30
0.0
 10
79.2921375921375
 20
67.79511063805415
 30
0.0
 10
79.2921375921375
 20
67.83058968505107
 30
0.0
  0
SPLINE
  5
99
330
1F
100
AcDbEntity
  8
0
  6
Continuous
 62
     7
370
    25
100
AcDbSpline
210
0.0
220
0.0
230
1.0
 70
     8
 71
     3
 72
    14
 73
    10
 74
     0
 42
0.000000001
 43
0.00000001
 40
0.0
 40
0.0
 40
0.0
 40
0.0
 40
0.25
 40
0.25
 40
0.5
 40
0.5
 40
0.75
 40
0.75
 40
1.0
 40
1.0
 40
1.0
 40
1.0
 10
79.06305152409738
 20
66.7118202746087
 30
0.0
 10
79.03553053625748
 20
66.83339833058474
 30
0.0
 10
79.01561061433975
 20
66.95392306760539
 30
0.0
 10
78.99994357242666
 20
67.1808993267216
 30
0.0
 10
79.00443540422839
 20
67.28786930429042
 30
0.0
 10
79.03569174956756
 20
67.47333485606057
 30
0.0
 10
79.0620643330104
 20
67.55222011715836
 30
0.0
 10
79.12490088431959
 20
67.67285790829426
 30
0.0
 10
79.16094046327932
 20
67.71456209871582
 30
0.0
 10
79.19493646676575
 20
67.73027953613372
 30
0.0
  0
SPLINE
  5
9A
330
1F
100
AcDbEntity
  8
0
  6
Continuous
 62
     7
370
    25
100
AcDbSpline
210
0.0
220
0.0
230
1.0
 70
     8
 71
     3
 72
    12
 73
     8
 74
     0
 42
0.000000001
 43
0.00000001
 40
0.0
 40
0.0
 40
0.0
 40
0.0
 40
0.5
 40
0.5
 40
0.75
 40
0.75
 40
1.0
 40
1.0
 40
1.0
 40
1.0
 10
79.2921375921375
 20
62.33058968058964
 30
0.0
 10
79.2921375921375
 20
63.0645467034551
 30
0.0
 10
79.29669498715458
 20
63.79752514852452
 30
0.0
 10
79.26951132266983
 20
64.89434926252383
 30
0.0
 10
79.25406165169323
 20
65.259496851444
 30
0.0
 10
79.19119804990947
 20
65.98828486600236
 30
0.0
 10
79.14416812655232
 20
66.3534756217483
 30
0.0
 10
79.06305152409738
 20
66.7118202746087
 30
0.0
  0
SPLINE
  5
9B
330
1F
100
AcDbEntity
  8
0
  6
Continuous
 62
     7
370
    25
100
AcDbSpline
210
0.0
220
0.0
230
1.0
 70
     8
 71
     3
 72
    12
 73
     8
 74
     0
 42
0.000000001
 43
0.00000001
 40
0.0
 40
0.0
 40
0.0
 40
0.0
 40
0.2499999999999999
 40
0.2499999999999999
 40
0.4999999999999998
 40
0.4999999999999998
 40
1.0
 40
1.0
 40
1.0
 40
1.0
 10
79.06305152597353
 20
57.94935909485888
 30
0.0
 10
79.1446168343581
 20
58.30968597542259
 30
0.0
 10
79.19111242829975
 20
58.67231881471514
 30
0.0
 10
79.25394275066658
 20
59.3998884815257
 30
0.0
 10
79.26943928490465
 20
59.76487778640437
 30
0.0
 10
79.29669871356865
 20
60.86190329861248
 30
0.0
 10
79.2921375921375
 20
61.59625360953024
 30
0.0
 10
79.2921375921375
 20
62.33058968058964
 30
0.0
  0
SPLINE
  5
9C
330
1F
100
AcDbEntity
  8
0
  6
Continuous
 62
     7
370
    25
100
AcDbSpline
210
0.0
220
0.0
230
1.0
 70
     8
 71
     3
 72
    12
 73
     8
 74
     0
 42
0.000000001
 43
0.00000001
 40
0.0
 40
0.0
 40
0.0
 40
0.0
 40
0.5000000000000018
 40
0.5000000000000018
 40
0.7500000000000009
 40
0.7500000000000009
 40
1.0
 40
1.0
 40
1.0
 40
1.0
 10
79.19493646820136
 20
56.93089983314194
 30
0.0
 10
79.12706670843183
 20
56.96227818943189
 30
0.0
 10
79.05103215735956
 20
57.09598670999321
 30
0.0
 10
79.00438755906316
 20
57.37401281967584
 30
0.0
 10
78.99994856252918
 20
57.48085900367639
 30
0.0
 10
79.01567917622724
 20
57.70774047773264
 30
0.0
 10
79.03555960608806
 20
57.82790945003757
 30
0.0
 10
79.06305152597353
 20
57.94935909485889
 30
0.0
  0
SPLINE
  5
9D
330
1F
100
AcDbEntity
  8
0
  6
Continuous
 62
     7
370
    25
100
AcDbSpline
210
0.0
220
0.0
230
1.0
 70
     8
 71
     3
 72
     8
 73
     4
 74
     0
 42
0.000000001
 43
0.00000001
 40
0.0
 40
0.0
 40
0.0
 40
0.0
 40
1.0
 40
1.0
 40
1.0
 40
1.0
 10
79.2921375921375
 20
56.83058968505107
 30
0.0
 10
79.2921375921375
 20
56.8660687317417
 30
0.0
 10
79.26277288525762
 20
56.89953689225263
 30
0.0
 10
79.19493646820136
 20
56.93089983314194
 30
0.0
  0
LINE
  5
9E
330
1F
100
AcDbEntity
  8
0
  6
Continuous
 62
     7
370
    25
100
AcDbLine
 10
79.2921377598
 20
56.8305897104
 30
0.0
 11
79.2921377598
 21
53.330590068
 31
0.0
  0
LINE
  5
9F
330
1F
100
AcDbEntity
  8
0
  6
Continuous
 62
     7
370
    25
100
AcDbLine
 10
79.2921377598
 20
71.3305892932
 30
0.0
 11
79.2921377598
 21
67.8305896508
 31
0.0
  0
LINE
  5
A0
330
1F
100
AcDbEntity
  8
0
  6
Continuous
 62
     7
370
    25
100
AcDbLine
 10
94.6741040117
 20
52.3305899041
 30
0.0
 11
94.6741040117
 21
72.3305894571
 31
0.0
  0
LINE
  5
A1
330
1F
100
AcDbEntity
  8
0
  6
Continuous
 62
     7
370
    25
100
AcDbLine
 10
94.2921374245
 20
53.330590068
 30
0.0
 11
94.2921374245
 21
56.8305897104
 31
0.0
  0
SPLINE
  5
A2
330
1F
100
AcDbEntity
  8
0
  6
Continuous
 62
     7
370
    25
100
AcDbSpline
210
0.0
220
0.0
230
1.0
 70
     8
 71
     3
 72
     8
 73
     4
 74
     0
 42
0.000000001
 43
0.00000001
 40
0.0
 40
0.0
 40
0.0
 40
0.0
 40
1.0
 40
1.0
 40
1.0
 40
1.0
 10
94.38933871607361
 20
56.93089983314194
 30
0.0
 10
94.32150229901737
 20
56.89953689225262
 30
0.0
 10
94.2921375921375
 20
56.8660687317417
 30
0.0
 10
94.2921375921375
 20
56.83058968505106
 30
0.0
  0
SPLINE
  5
A3
330
1F
100
AcDbEntity
  8
0
  6
Continuous
 62
     7
370
    25
100
AcDbSpline
210
0.0
220
0.0
230
1.0
 70
     8
 71
     3
 72
    12
 73
     8
 74
     0
 42
0.000000001
 43
0.00000001
 40
0.0
 40
0.0
 40
0.0
 40
0.0
 40
0.2499999999999993
 40
0.2499999999999993
 40
0.4999999999999987
 40
0.4999999999999987
 40
1.0
 40
1.0
 40
1.0
 40
1.0
 10
94.52122365830144
 20
57.94935909485888
 30
0.0
 10
94.54871557818691
 20
57.82790945003757
 30
0.0
 10
94.56859600804775
 20
57.70774047773264
 30
0.0
 10
94.58432662174579
 20
57.48085900367637
 30
0.0
 10
94.57988762521181
 20
57.37401281967583
 30
0.0
 10
94.53324302691541
 20
57.09598670999318
 30
0.0
 10
94.45720847584316
 20
56.96227818943185
 30
0.0
 10
94.38933871607362
 20
56.93089983314191
 30
0.0
  0
SPLINE
  5
A4
330
1F
100
AcDbEntity
  8
0
  6
Continuous
 62
     7
370
    25
100
AcDbSpline
210
0.0
220
0.0
230
1.0
 70
     8
 71
     3
 72
    12
 73
     8
 74
     0
 42
0.000000001
 43
0.00000001
 40
0.0
 40
0.0
 40
0.0
 40
0.0
 40
0.4999999999999998
 40
0.4999999999999998
 40
0.7499999999999999
 40
0.7499999999999999
 40
1.0
 40
1.0
 40
1.0
 40
1.0
 10
94.2921375921375
 20
62.33058968058965
 30
0.0
 10
94.2921375921375
 20
61.59663265914067
 30
0.0
 10
94.28758019715612
 20
60.86365421548449
 30
0.0
 10
94.31476386142991
 20
59.76683010359098
 30
0.0
 10
94.33021353228773
 20
59.40168251537027
 30
0.0
 10
94.39307713356763
 20
58.67289450220055
 30
0.0
 10
94.4401070565471
 20
58.30770374714984
 30
0.0
 10
94.52122365830144
 20
57.94935909485889
 30
0.0
  0
SPLINE
  5
A5
330
1F
100
AcDbEntity
  8
0
  6
Continuous
 62
     7
370
    25
100
AcDbSpline
210
0.0
220
0.0
230
1.0
 70
     8
 71
     3
 72
    12
 73
     8
 74
     0
 42
0.000000001
 43
0.00000001
 40
0.0
 40
0.0
 40
0.0
 40
0.0
 40
0.2499999999999999
 40
0.2499999999999999
 40
0.4999999999999998
 40
0.4999999999999998
 40
1.0
 40
1.0
 40
1.0
 40
1.0
 10
94.52122366017763
 20
66.7118202746087
 30
0.0
 10
94.43965835108743
 20
66.35149339346732
 30
0.0
 10
94.39316275677993
 20
65.98886055353452
 30
0.0
 10
94.3303324339096
 20
65.2612908853894
 30
0.0
 10
94.31483589954978
 20
64.89630157981446
 30
0.0
 10
94.28757647067016
 20
63.79927606547456
 30
0.0
 10
94.2921375921375
 20
63.06492575307712
 30
0.0
 10
94.2921375921375
 20
62.33058968058963
 30
0.0
  0
SPLINE
  5
A6
330
1F
100
AcDbEntity
  8
0
  6
Continuous
 62
     7
370
    25
100
AcDbSpline
210
0.0
220
0.0
230
1.0
 70
     8
 71
     3
 72
    14
 73
    10
 74
     0
 42
0.000000001
 43
0.00000001
 40
0.0
 40
0.0
 40
0.0
 40
0.0
 40
0.25
 40
0.25
 40
0.5
 40
0.5
 40
0.75
 40
0.75
 40
1.0
 40
1.0
 40
1.0
 40
1.0
 10
94.38933871750922
 20
67.73027953613372
 30
0.0
 10
94.42333472099567
 20
67.71456209871582
 30
0.0
 10
94.4593742999554
 20
67.67285790829426
 30
0.0
 10
94.52221085126459
 20
67.55222011715836
 30
0.0
 10
94.54858343470742
 20
67.47333485606057
 30
0.0
 10
94.5798397800466
 20
67.28786930429042
 30
0.0
 10
94.58433161184831
 20
67.1808993267216
 30
0.0
 10
94.56866456993524
 20
66.95392306760537
 30
0.0
 10
94.54874464801749
 20
66.83339833058474
 30
0.0
 10
94.52122366017763
 20
66.7118202746087
 30
0.0
  0
SPLINE
  5
A7
330
1F
100
AcDbEntity
  8
0
  6
Continuous
 62
     7
370
    25
100
AcDbSpline
210
0.0
220
0.0
230
1.0
 70
     8
 71
     3
 72
     8
 73
     4
 74
     0
 42
0.000000001
 43
0.00000001
 40
0.0
 40
0.0
 40
0.0
 40
0.0
 40
1.0
 40
1.0
 40
1.0
 40
1.0
 10
94.2921375921375
 20
67.83058968505107
 30
0.0
 10
94.2921375921375
 20
67.79511063805415
 30
0.0
 10
94.32150229941332
 20
67.76164247726598
 30
0.0
 10
94.38933871750922
 20
67.73027953613372
 30
0.0
  0
LINE
  5
A8
330
1F
100
AcDbEntity
  8
0
  6
Continuous
 62
     7
370
    25
100
AcDbLine
 10
94.2921374245
 20
67.8305896508
 30
0.0
 11
94.2921374245
 21
71.3305892932
 31
0.0
  0
LINE
  5
A9
330
1F
100
AcDbEntity
  8
0
  6
Continuous
 62
     7
370
    25
100
AcDbLine
 10
111.2921369514
 20
62.3305896806
 30
0.0
 11
111.2921369514
 21
72.3305894571
 31
0.0
  0
LINE
  5
AA
330
1F
100
AcDbEntity
  8
0
  6
Continuous
 62
     7
370
    25
100
AcDbLine
 10
111.2921369514
 20
52.3305899041
 30
0.0
 11
111.2921369514
 21
62.3305896806
 31
0.0
  0
LINE
  5
AB
330
1F
100
AcDbEntity
  8
0
  6
Continuous
 62
     7
370
    25
100
AcDbLine
 10
111.7921379647
 20
62.3305896806
 30
0.0
 11
111.7921379647
 21
52.8305899861
 31
0.0
  0
LINE
  5
AC
330
1F
100
AcDbEntity
  8
0
  6
Continuous
 62
     7
370
    25
100
AcDbLine
 10
111.7921379647
 20
71.8305893751
 30
0.0
 11
111.7921379647
 21
62.3305896806
 31
0.0
  0
LINE
  5
AD
330
1F
100
AcDbEntity
  8
0
  6
Continuous
 62
     7
370
    25
100
AcDbLine
 10
79.2921377598
 20
62.3305896806
 30
0.0
 11
79.7921373761
 21
62.3305896806
 31
0.0
  0
SPLINE
  5
AE
330
1F
100
AcDbEntity
  8
0
  6
Continuous
 62
     7
370
    25
100
AcDbSpline
210
0.0
220
0.0
230
1.0
 70
     8
 71
     3
 72
    14
 73
    10
 74
     0
 42
0.000000001
 43
0.00000001
 40
0.0
 40
0.0
 40
0.0
 40
0.0
 40
0.25
 40
0.25
 40
0.5
 40
0.5
 40
0.75
 40
0.75
 40
1.0
 40
1.0
 40
1.0
 40
1.0
 10
79.7921375921375
 20
62.33058968058964
 30
0.0
 10
79.7921375921375
 20
61.95357719390981
 30
0.0
 10
79.79254888282291
 20
61.57651266729966
 30
0.0
 10
79.78922029728197
 20
60.82269363146583
 30
0.0
 10
79.78543231105904
 20
60.44595426515225
 30
0.0
 10
79.7595691160186
 20
59.69394071585519
 30
0.0
 10
79.73756812478167
 20
59.31866058651428
 30
0.0
 10
79.65243522890708
 20
58.5713957614805
 30
0.0
 10
79.59007345790332
 20
58.19934936221531
 30
0.0
 10
79.4866895039195
 20
57.83058968505106
 30
0.0
  0
LWPOLYLINE
  5
AF
330
1F
100
AcDbEntity
  8
0
  6
Continuous
 62
     7
370
    25
100
AcDbPolyline
 90
        9
 70
   128
 43
0.0
 10
79.0630514985
 20
57.9493591139
 10
79.0975388391
 20
57.9396905886
 10
79.1390520772
 20
57.9280518504
 10
79.1868414982
 20
57.9146538439
 10
79.2400442316
 20
57.8997382472
 10
79.2977005495
 20
57.8835737469
 10
79.3587687677
 20
57.866453244
 10
79.4221466659
 20
57.8486845406
 10
79.4866896486
 20
57.8305898743
  0
SPLINE
  5
B0
330
1F
100
AcDbEntity
  8
0
  6
Continuous
 62
     7
370
    25
100
AcDbSpline
210
0.0
220
0.0
230
1.0
 70
     8
 71
     3
 72
    14
 73
    10
 74
     0
 42
0.000000001
 43
0.00000001
 40
0.0
 40
0.0
 40
0.0
 40
0.0
 40
0.25
 40
0.25
 40
0.5
 40
0.5
 40
0.75
 40
0.75
 40
1.0
 40
1.0
 40
1.0
 40
1.0
 10
93.7921375921375
 20
62.33058968058963
 30
0.0
 10
93.7921375921375
 20
62.70760216806105
 30
0.0
 10
93.79172630144863
 20
63.08466669546521
 30
0.0
 10
93.79505488701747
 20
63.83848573288889
 30
0.0
 10
93.7988428732724
 20
64.21522509999286
 30
0.0
 10
93.82470606852573
 20
64.96723865083204
 30
0.0
 10
93.84670705994233
 20
65.34251878092488
 30
0.0
 10
93.93183995650666
 20
66.08978360737599
 30
0.0
 10
93.99420172800623
 20
66.46183000730883
 30
0.0
 10
94.09758568285707
 20
66.83058968505107
 30
0.0
  0
LWPOLYLINE
  5
B1
330
1F
100
AcDbEntity
  8
0
  6
Continuous
 62
     7
370
    25
100
AcDbPolyline
 90
        9
 70
   128
 43
0.0
 10
94.0975855356
 20
66.8305894869
 10
94.1621285184
 20
66.8124948206
 10
94.2255064166
 20
66.7947261172
 10
94.2865746348
 20
66.7776056143
 10
94.3442309527
 20
66.761441114
 10
94.3974336861
 20
66.7465255173
 10
94.4452235727
 20
66.7331275108
 10
94.4867363451
 20
66.7214887725
 10
94.5212236857
 20
66.7118202472
  0
LINE
  5
B2
330
1F
100
AcDbEntity
  8
0
  6
Continuous
 62
     7
370
    25
100
AcDbLine
 10
93.7921378082
 20
62.3305896806
 30
0.0
 11
94.2921374245
 21
62.3305896806
 31
0.0
  0
LWPOLYLINE
  5
B3
330
1F
100
AcDbEntity
  8
0
  6
Continuous
 62
     7
370
    25
100
AcDbPolyline
 90
        9
 70
   128
 43
0.0
 10
79.0630514985
 20
66.7118202472
 10
79.0975388391
 20
66.7214887725
 10
79.1390516116
 20
66.7331275108
 10
79.1868414982
 20
66.7465255173
 10
79.2400442316
 20
66.761441114
 10
79.2977005495
 20
66.7776056143
 10
79.3587687677
 20
66.7947261172
 10
79.4221466659
 20
66.8124948206
 10
79.4866896486
 20
66.8305894869
  0
SPLINE
  5
B4
330
1F
100
AcDbEntity
  8
0
  6
Continuous
 62
     7
370
    25
100
AcDbSpline
210
0.0
220
0.0
230
1.0
 70
     8
 71
     3
 72
    14
 73
    10
 74
     0
 42
0.000000001
 43
0.00000001
 40
0.0
 40
0.0
 40
0.0
 40
0.0
 40
0.25
 40
0.25
 40
0.5
 40
0.5
 40
0.75
 40
0.75
 40
1.0
 40
1.0
 40
1.0
 40
1.0
 10
79.48668950141732
 20
66.83058968505107
 30
0.0
 10
79.58925001967057
 20
66.46476711892171
 30
0.0
 10
79.65256300607973
 20
66.08915920310918
 30
0.0
 10
79.73778066961087
 20
65.34015396309015
 30
0.0
 10
79.75969876437644
 20
64.96467330506191
 30
0.0
 10
79.78547202025958
 20
64.21285816558496
 30
0.0
 10
79.7892355057395
 20
63.83651935068698
 30
0.0
 10
79.79254685385878
 20
63.08364245107234
 30
0.0
 10
79.7921375921375
 20
62.70710639305996
 30
0.0
 10
79.7921375921375
 20
62.33058968058964
 30
0.0
  0
SPLINE
  5
B5
330
1F
100
AcDbEntity
  8
0
  6
Continuous
 62
     7
370
    25
100
AcDbSpline
210
0.0
220
0.0
230
1.0
 70
     8
 71
     3
 72
    14
 73
    10
 74
     0
 42
0.000000001
 43
0.00000001
 40
0.0
 40
0.0
 40
0.0
 40
0.0
 40
0.25
 40
0.25
 40
0.5
 40
0.5
 40
0.75
 40
0.75
 40
1.0
 40
1.0
 40
1.0
 40
1.0
 10
94.09758568035609
 20
57.83058968505106
 30
0.0
 10
93.99502516296114
 20
58.19641225061343
 30
0.0
 10
93.93171217706852
 20
58.5720201656838
 30
0.0
 10
93.84649451422911
 20
59.32102540420213
 30
0.0
 10
93.82457641963767
 20
59.69650606147191
 30
0.0
 10
93.79880316396137
 20
60.44832119942524
 30
0.0
 10
93.79503967851197
 20
60.82466001355797
 30
0.0
 10
93.79172833041949
 20
61.57753691164049
 30
0.0
 10
93.7921375921375
 20
61.95407296888602
 30
0.0
 10
93.7921375921375
 20
62.33058968058965
 30
0.0
  0
LWPOLYLINE
  5
B6
330
1F
100
AcDbEntity
  8
0
  6
Continuous
 62
     7
370
    25
100
AcDbPolyline
 90
        9
 70
   128
 43
0.0
 10
94.0975855356
 20
57.8305898743
 10
94.1621285184
 20
57.8486845406
 10
94.2255064166
 20
57.866453244
 10
94.2865746348
 20
57.8835737469
 10
94.3442309527
 20
57.8997382472
 10
94.3974336861
 20
57.9146538439
 10
94.445223107
 20
57.9280518504
 10
94.4867363451
 20
57.9396905886
 10
94.5212236857
 20
57.9493591139
  0
ARC
  5
B7
330
1F
100
AcDbEntity
  8
0
  6
Continuous
 62
     7
370
    25
100
AcDbCircle
 10
79.6710848363
 20
67.8139594037
 30
0.0
 40
0.4834454273381097
100
AcDbArc
 50
189.9675444204
 51
268.9867684687
  0
SPLINE
  5
B8
330
1F
100
AcDbEntity
  8
0
  6
Continuous
 62
     7
370
    25
100
AcDbSpline
210
0.0
220
0.0
230
1.0
 70
     8
 71
     3
 72
    14
 73
    10
 74
     0
 42
0.000000001
 43
0.00000001
 40
0.0
 40
0.0
 40
0.0
 40
0.0
 40
0.25
 40
0.25
 40
0.5
 40
0.5
 40
0.75
 40
0.75
 40
1.0
 40
1.0
 40
1.0
 40
1.0
 10
79.66253609164185
 20
67.33058968505107
 30
0.0
 10
79.62406060789505
 20
67.33058968505107
 30
0.0
 10
79.5829716863206
 20
67.31980311408144
 30
0.0
 10
79.50368883867797
 20
67.27687132704826
 30
0.0
 10
79.46640593747797
 20
67.24545381877056
 30
0.0
 10
79.4136001780298
 20
67.15413897318628
 30
0.0
 10
79.40163091792438
 20
67.09290849038483
 30
0.0
 10
79.42163270643897
 20
66.96204512967617
 30
0.0
 10
79.45108916211396
 20
66.89408101534481
 30
0.0
 10
79.48668950141732
 20
66.83058968505107
 30
0.0
  0
SPLINE
  5
B9
330
1F
100
AcDbEntity
  8
0
  6
Continuous
 62
     7
370
    25
100
AcDbSpline
210
0.0
220
0.0
230
1.0
 70
     8
 71
     3
 72
    14
 73
    10
 74
     0
 42
0.000000001
 43
0.00000001
 40
0.0
 40
0.0
 40
0.0
 40
0.0
 40
0.25
 40
0.25
 40
0.5
 40
0.5
 40
0.75
 40
0.75
 40
1.0
 40
1.0
 40
1.0
 40
1.0
 10
94.09758568285766
 20
66.83058968505107
 30
0.0
 10
94.13317390124884
 20
66.89405939833628
 30
0.0
 10
94.16251635519802
 20
66.96156231174889
 30
0.0
 10
94.18268615683489
 20
67.0928416430711
 30
0.0
 10
94.1707614084184
 20
67.15401408761828
 30
0.0
 10
94.11772773463395
 20
67.24567397829077
 30
0.0
 10
94.08054789922542
 20
67.27689828213882
 30
0.0
 10
94.00128177616754
 20
67.31980873548376
 30
0.0
 10
93.96020484350402
 20
67.33058968505107
 30
0.0
 10
93.92173909263313
 20
67.33058968505107
 30
0.0
  0
ARC
  5
BA
330
1F
100
AcDbEntity
  8
0
  6
Continuous
 62
     7
370
    25
100
AcDbCircle
 10
93.913190348
 20
67.8139594037
 30
0.0
 40
0.4834454273381097
100
AcDbArc
 50
271.0132315313
 51
350.0324555796
  0
SPLINE
  5
BB
330
1F
100
AcDbEntity
  8
0
  6
Continuous
 62
     7
370
    25
100
AcDbSpline
210
0.0
220
0.0
230
1.0
 70
     8
 71
     3
 72
    14
 73
    10
 74
     0
 42
0.000000001
 43
0.00000001
 40
0.0
 40
0.0
 40
0.0
 40
0.0
 40
0.25
 40
0.25
 40
0.5
 40
0.5
 40
0.75
 40
0.75
 40
1.0
 40
1.0
 40
1.0
 40
1.0
 10
93.92173909071897
 20
57.33058968505106
 30
0.0
 10
93.96020302675358
 20
57.33058968505106
 30
0.0
 10
94.00160123447826
 20
57.34149644085142
 30
0.0
 10
94.08069248807145
 20
57.38440677231684
 30
0.0
 10
94.11852740088713
 20
57.41650934034314
 30
0.0
 10
94.17082213966718
 20
57.50765465148645
 30
0.0
 10
94.18270751234418
 20
57.56850410229139
 30
0.0
 10
94.16241881077194
 20
57.69994538222657
 30
0.0
 10
94.13309618560493
 20
57.76725856863068
 30
0.0
 10
94.09758568035609
 20
57.83058968505106
 30
0.0
  0
ARC
  5
BC
330
1F
100
AcDbEntity
  8
0
  6
Continuous
 62
     7
370
    25
100
AcDbCircle
 10
93.913190348
 20
56.8472199574
 30
0.0
 40
0.4834454273381065
100
AcDbArc
 50
9.9675444204
 51
88.9867684687
  0
SPLINE
  5
BD
330
1F
100
AcDbEntity
  8
0
  6
Continuous
 62
     7
370
    25
100
AcDbSpline
210
0.0
220
0.0
230
1.0
 70
     8
 71
     3
 72
    16
 73
    12
 74
     0
 42
0.000000001
 43
0.00000001
 40
0.0
 40
0.0
 40
0.0
 40
0.0
 40
0.2499999999999974
 40
0.2499999999999974
 40
0.3749999999999961
 40
0.3749999999999961
 40
0.4999999999999948
 40
0.4999999999999948
 40
0.7499999999999973
 40
0.7499999999999973
 40
1.0
 40
1.0
 40
1.0
 40
1.0
 10
79.4866895039189
 20
57.83058968505106
 30
0.0
 10
79.45113557457935
 20
57.76718112405128
 30
0.0
 10
79.42186343347261
 20
57.69991382372442
 30
0.0
 10
79.40665088336006
 20
57.60147451261903
 30
0.0
 10
79.40659021520565
 20
57.5689991062862
 30
0.0
 10
79.41680079967938
 20
57.51037389917931
 30
0.0
 10
79.42658412918394
 20
57.4847510876338
 30
0.0
 10
79.46574867761113
 20
57.41654224395471
 30
0.0
 10
79.50362175078898
 20
57.38437948876167
 30
0.0
 10
79.5826947235885
 20
57.34149126960904
 30
0.0
 10
79.62408185606822
 20
57.33058968505107
 30
0.0
 10
79.66253609355594
 20
57.33058968505106
 30
0.0
  0
ARC
  5
BE
330
1F
100
AcDbEntity
  8
0
  6
Continuous
 62
     7
370
    25
100
AcDbCircle
 10
79.6710848363
 20
56.8472199574
 30
0.0
 40
0.4834454273381065
100
AcDbArc
 50
91.0132315313
 51
170.0324555796
  0
LINE
  5
BF
330
1F
100
AcDbEntity
  8
0
  6
Continuous
 62
     7
370
    25
100
AcDbLine
 10
79.4866896486
 20
57.8305898743
 30
0.0
 11
94.0975855356
 21
57.8305898743
 31
0.0
  0
LINE
  5
C0
330
1F
100
AcDbEntity
  8
0
  6
Continuous
 62
     7
370
    25
100
AcDbLine
 10
93.9217392607
 20
57.3305897923
 30
0.0
 11
79.6625359236
 21
57.3305897923
 31
0.0
  0
LINE
  5
C1
330
1F
100
AcDbEntity
  8
0
  6
Continuous
 62
     7
370
    25
100
AcDbLine
 10
79.6625359236
 20
67.3305895688
 30
0.0
 11
93.9217392607
 21
67.3305895688
 31
0.0
  0
LINE
  5
C2
330
1F
100
AcDbEntity
  8
0
  6
Continuous
 62
     7
370
    25
100
AcDbLine
 10
94.0975855356
 20
66.8305894869
 30
0.0
 11
79.4866896486
 21
66.8305894869
 31
0.0
  0
LINE
  5
C3
330
1F
100
AcDbEntity
  8
0
  6
Continuous
 62
     7
370
    25
100
AcDbLine
 10
83.2256829618
 20
61.5291133799
 30
0.0
 11
83.7115616324
 21
61.5291133799
 31
0.0
  0
ELLIPSE
  5
C4
330
1F
100
AcDbEntity
  8
0
  6
Continuous
 62
     7
370
    25
100
AcDbEllipse
 10
83.2256828462
 20
61.593786767
 30
0.0
 11
0.06784129479235901
 21
0.0
 31
0.0
210
0.0
220
0.0
230
1.0
 40
0.9533039403
 41
2.798568711309774
 42
4.712388980384703
  0
ELLIPSE
  5
C5
330
1F
100
AcDbEntity
  8
0
  6
Continuous
 62
     7
370
    25
100
AcDbEllipse
 10
83.4686221911
 20
62.2422528606
 30
0.0
 11
0.06784129479271428
 21
0.0
 31
0.0
210
0.0
220
0.0
230
1.0
 40
0.9533039403
 41
0.3430239404191943
 42
2.79856871317067
  0
LINE
  5
C6
330
1F
100
AcDbEntity
  8
0
  6
Continuous
 62
     7
370
    25
100
AcDbLine
 10
83.7754505938
 20
61.615538776
 30
0.0
 11
83.5325111421
 21
62.2640048677
 31
0.0
  0
ELLIPSE
  5
C7
330
1F
100
AcDbEntity
  8
0
  6
Continuous
 62
     7
370
    25
100
AcDbEllipse
 10
83.7115615332
 20
61.593786767
 30
0.0
 11
-0.06784129479235901
 21
0.0
 31
0.0
210
0.0
220
0.0
230
1.0
 40
0.9533039403
 41
1.570796326794897
 42
3.48461659214831
  0
LINE
  5
C8
330
1F
100
AcDbEntity
  8
0
  6
Continuous
 62
     7
370
    25
100
AcDbLine
 10
83.4047332192
 20
62.2640048677
 30
0.0
 11
83.1617937675
 21
61.615538776
 31
0.0
  0
ARC
  5
C9
330
1F
100
AcDbEntity
  8
0
  6
Continuous
 62
     7
370
    25
100
AcDbCircle
 10
90.382992413
 20
61.2792068766
 30
0.0
 40
0.7112000000000998
100
AcDbArc
 50
200.9248324276
 51
315.0
  0
ELLIPSE
  5
CA
330
1F
100
AcDbEntity
  8
0
  6
Continuous
 62
     7
370
    25
100
AcDbEllipse
 10
83.4686221895
 20
58.4377261332
 30
0.0
 11
2.293035763987589
 21
-1.065814103640150E-12
 31
0.0
210
0.0
220
0.0
230
1.0
 40
0.9533039403
 41
0.8210019969646717
 42
2.320590656625886
  0
ARC
  5
CB
330
1F
100
AcDbEntity
  8
0
  6
Continuous
 62
     7
370
    25
100
AcDbCircle
 10
90.382992413
 20
61.2792068766
 30
0.0
 40
1.239109388553852
100
AcDbArc
 50
45.0
 51
315.0
  0
LINE
  5
CC
330
1F
100
AcDbEntity
  8
0
  6
Continuous
 62
     7
370
    25
100
AcDbLine
 10
88.2121711057
 20
61.7821012201
 30
0.0
 11
88.5854593963
 21
62.1553895252
 31
0.0
  0
LINE
  5
CD
330
1F
100
AcDbEntity
  8
0
  6
Continuous
 62
     7
370
    25
100
AcDbLine
 10
85.1382112615
 20
60.0558822552
 30
0.0
 11
85.7752262401
 21
61.2704199083
 31
0.0
  0
ELLIPSE
  5
CE
330
1F
100
AcDbEntity
  8
0
  6
Continuous
 62
     7
370
    25
100
AcDbEllipse
 10
85.0775321861
 20
60.0848050296
 30
0.0
 11
0.06784129479235901
 21
0.0
 31
0.0
210
0.0
220
0.0
230
1.0
 40
0.9533039403
 41
3.962594650552515
 42
5.819537698178383
  0
ELLIPSE
  5
CF
330
1F
100
AcDbEntity
  8
0
  6
Continuous
 62
     7
370
    25
100
AcDbEllipse
 10
81.8597121929
 20
60.0848050296
 30
0.0
 11
0.06784129479235901
 21
0.0
 31
0.0
210
0.0
220
0.0
230
1.0
 40
0.9533039403
 41
3.605240262598787
 42
5.462183310201095
  0
LINE
  5
D0
330
1F
100
AcDbEntity
  8
0
  6
Continuous
 62
     7
370
    25
100
AcDbLine
 10
81.1620183541
 20
61.2704199083
 30
0.0
 11
81.7990332162
 21
60.0558822552
 31
0.0
  0
ELLIPSE
  5
D1
330
1F
100
AcDbEntity
  8
0
  6
Continuous
 62
     7
370
    25
100
AcDbEllipse
 10
83.4686221895
 20
64.1362587684
 30
0.0
 11
0.5215299537176605
 21
0.0
 31
0.0
210
0.0
220
0.0
230
1.0
 40
0.9533039403
 41
0.4357918987552978
 42
2.705800754834486
  0
ARC
  5
D2
330
1F
100
AcDbEntity
  8
0
  6
Continuous
 62
     7
370
    25
100
AcDbCircle
 10
90.382992413
 20
61.2792068766
 30
0.0
 40
0.7112000000000388
100
AcDbArc
 50
45.0
 51
159.0751675723
  0
ARC
  5
D3
330
1F
100
AcDbEntity
  8
0
  6
Continuous
 62
     7
370
    25
100
AcDbCircle
 10
87.7092767359
 20
61.2792068766
 30
0.0
 40
0.7111999999997624
100
AcDbArc
 50
45.0
 51
315.0
  0
LINE
  5
D4
330
1F
100
AcDbEntity
  8
0
  6
Continuous
 62
     7
370
    25
100
AcDbLine
 10
91.2591750985
 20
61.0252068654
 30
0.0
 11
91.2591750985
 21
61.5332068919
 31
0.0
  0
LINE
  5
D5
330
1F
100
AcDbEntity
  8
0
  6
Continuous
 62
     7
370
    25
100
AcDbLine
 10
88.5854593963
 20
60.4030242466
 30
0.0
 11
88.2121711057
 21
60.7763125371
 31
0.0
  0
ELLIPSE
  5
D6
330
1F
100
AcDbEntity
  8
0
  6
Continuous
 62
     7
370
    25
100
AcDbEllipse
 10
81.4746478021
 20
61.695778619
 30
0.0
 11
-0.5427303583406626
 21
3.552713678800501E-13
 31
0.0
210
0.0
220
0.0
230
1.0
 40
0.9533039403
 41
1.047197551197464
 42
2.813039483038379
  0
LINE
  5
D7
330
1F
100
AcDbEntity
  8
0
  6
Continuous
 62
     7
370
    25
100
AcDbLine
 10
91.2591750985
 20
60.4030242466
 30
0.0
 11
90.8858865751
 21
60.7763125371
 31
0.0
  0
LINE
  5
D8
330
1F
100
AcDbEntity
  8
0
  6
Continuous
 62
     7
370
    25
100
AcDbLine
 10
82.9958365085
 20
64.346131221
 30
0.0
 11
81.9883478126
 21
61.5288313056
 31
0.0
  0
ELLIPSE
  5
D9
330
1F
100
AcDbEntity
  8
0
  6
Continuous
 62
     7
370
    25
100
AcDbEllipse
 10
85.4628314134
 20
61.6951219319
 30
0.0
 11
0.5427303583402932
 21
3.552713678800501E-13
 31
0.0
210
0.0
220
0.0
230
1.0
 40
0.9533039404
 41
3.470145824138408
 42
5.25246918053952
  0
LINE
  5
DA
330
1F
100
AcDbEntity
  8
0
  6
Continuous
 62
     7
370
    25
100
AcDbLine
 10
84.9491315913
 20
61.5281746649
 30
0.0
 11
83.9414078528
 21
64.346131221
 31
0.0
  0
LINE
  5
DB
330
1F
100
AcDbEntity
  8
0
  6
Continuous
 62
     7
370
    25
100
AcDbLine
 10
85.7752262401
 20
61.2704199083
 30
0.0
 11
85.7419059631
 21
61.2513759915
 31
0.0
  0
LINE
  5
DC
330
1F
100
AcDbEntity
  8
0
  6
Continuous
 62
     7
370
    25
100
AcDbLine
 10
91.2591750985
 20
61.5332068919
 30
0.0
 11
89.7186963139
 21
61.5332068919
 31
0.0
  0
ARC
  5
DD
330
1F
100
AcDbEntity
  8
0
  6
Continuous
 62
     7
370
    25
100
AcDbCircle
 10
87.7092767359
 20
61.2792068766
 30
0.0
 40
1.239109388553842
100
AcDbArc
 50
45.0
 51
315.0
  0
LINE
  5
DE
330
1F
100
AcDbEntity
  8
0
  6
Continuous
 62
     7
370
    25
100
AcDbLine
 10
90.8858865751
 20
61.7821012201
 30
0.0
 11
91.2591750985
 21
62.1553895252
 31
0.0
  0
LINE
  5
DF
330
1F
100
AcDbEntity
  8
0
  6
Continuous
 62
     7
370
    25
100
AcDbLine
 10
89.7186963139
 20
61.0252068654
 30
0.0
 11
91.2591750985
 21
61.0252068654
 31
0.0
  0
LINE
  5
E0
330
1F
100
AcDbEntity
  8
0
  6
Continuous
 62
     7
370
    25
100
AcDbLine
 10
81.2032824634
 20
61.2477083268
 30
0.0
 11
81.1620183541
 21
61.2704199083
 31
0.0
  0
ARC
  5
E1
330
1F
100
AcDbEntity
  8
0
  6
Continuous
 62
     7
370
    25
100
AcDbCircle
 10
79.7921375921
 20
67.8305896851
 30
0.0
 40
0.5
100
AcDbArc
 50
180.0
 51
270.0
  0
ARC
  5
E2
330
1F
100
AcDbEntity
  8
0
  6
Continuous
 62
     7
370
    25
100
AcDbCircle
 10
93.7921375921
 20
56.8305896851
 30
0.0
 40
0.5
100
AcDbArc
 50
0.0
 51
90.0
  0
ARC
  5
E3
330
1F
100
AcDbEntity
  8
0
  6
Continuous
 62
     7
370
    25
100
AcDbCircle
 10
93.7921375921
 20
67.8305896851
 30
0.0
 40
0.5
100
AcDbArc
 50
270.0
 51
0.0
  0
ARC
  5
E4
330
1F
100
AcDbEntity
  8
0
  6
Continuous
 62
     7
370
    25
100
AcDbCircle
 10
79.7921375921
 20
56.8305896851
 30
0.0
 40
0.5
100
AcDbArc
 50
90.0
 51
180.0
  0
LINE
  5
E5
330
1F
100
AcDbEntity
  8
0
  6
Continuous
 62
     7
370
    25
100
AcDbLine
 10
79.7921373761
 20
57.3305897923
 30
0.0
 11
79.7921373761
 21
57.1361454713
 31
0.0
  0
LINE
  5
E6
330
1F
100
AcDbEntity
  8
0
  6
Continuous
 62
     7
370
    25
100
AcDbLine
 10
93.7921378082
 20
57.1361454713
 30
0.0
 11
93.7921378082
 21
57.3305897923
 31
0.0
  0
LINE
  5
E7
330
1F
100
AcDbEntity
  8
0
  6
Continuous
 62
     7
370
    25
100
AcDbLine
 10
93.7921378082
 20
57.1361454713
 30
0.0
 11
79.7921373761
 21
57.1361454713
 31
0.0
  0
LWPOLYLINE
  5
E8
330
1F
100
AcDbEntity
  8
0
  6
Continuous
 62
     7
370
    25
100
AcDbPolyline
 90
        9
 70
   128
 43
0.0
 10
94.2921374245
 20
56.8305897104
 10
94.2825303665
 20
56.8902004088
 10
94.2540775305
 20
56.9475205193
 10
94.2078722893
 20
57.000347464
 10
94.1456911406
 20
57.0466500284
 10
94.0699229269
 20
57.0846498521
 10
93.9834794281
 20
57.1128861556
 10
93.889682672
 20
57.1302739481
 10
93.7921378082
 20
57.1361454713
  0
LWPOLYLINE
  5
E9
330
1F
100
AcDbEntity
  8
0
  6
Continuous
 62
     7
370
    25
100
AcDbPolyline
 90
        9
 70
   128
 43
0.0
 10
79.2921377598
 20
56.8305897104
 10
79.3017448178
 20
56.8902004088
 10
79.3301976538
 20
56.9475205193
 10
79.376402895
 20
57.000347464
 10
79.4385840437
 20
57.0466500284
 10
79.5143522574
 20
57.0846498521
 10
79.6007957561
 20
57.1128861556
 10
79.6945925123
 20
57.1302739481
 10
79.7921373761
 20
57.1361454713
  0
LINE
  5
EA
330
1F
100
AcDbEntity
  8
0
  6
Continuous
 62
     7
370
    25
100
AcDbLine
 10
79.7921373761
 20
67.5250343556
 30
0.0
 11
79.7921373761
 21
67.3305895688
 31
0.0
  0
LINE
  5
EB
330
1F
100
AcDbEntity
  8
0
  6
Continuous
 62
     7
370
    25
100
AcDbLine
 10
79.7921373761
 20
67.5250343556
 30
0.0
 11
93.7921378082
 21
67.5250343556
 31
0.0
  0
LINE
  5
EC
330
1F
100
AcDbEntity
  8
0
  6
Continuous
 62
     7
370
    25
100
AcDbLine
 10
93.7921378082
 20
67.3305895688
 30
0.0
 11
93.7921378082
 21
67.5250343556
 31
0.0
  0
LWPOLYLINE
  5
ED
330
1F
100
AcDbEntity
  8
0
  6
Continuous
 62
     7
370
    25
100
AcDbPolyline
 90
        9
 70
   128
 43
0.0
 10
79.7921373761
 20
67.5250343556
 10
79.6945925123
 20
67.5309054131
 10
79.6007957561
 20
67.5482932056
 10
79.5143522574
 20
67.576529509
 10
79.4385840437
 20
67.6145293327
 10
79.376402895
 20
67.6608318972
 10
79.3301976538
 20
67.7136588419
 10
79.3017448178
 20
67.7709789524
 10
79.2921377598
 20
67.8305896508
  0
LWPOLYLINE
  5
EE
330
1F
100
AcDbEntity
  8
0
  6
Continuous
 62
     7
370
    25
100
AcDbPolyline
 90
        9
 70
   128
 43
0.0
 10
93.7921378082
 20
67.5250343556
 10
93.889682672
 20
67.5309054131
 10
93.9834794281
 20
67.5482932056
 10
94.0699229269
 20
67.576529509
 10
94.1456911406
 20
67.6145293327
 10
94.2078722893
 20
67.6608318972
 10
94.2540775305
 20
67.7136588419
 10
94.2825303665
 20
67.7709789524
 10
94.2921374245
 20
67.8305896508
  0
SPLINE
  5
EF
330
1F
100
AcDbEntity
  8
0
  6
Continuous
 62
     7
370
    25
100
AcDbSpline
210
0.0
220
0.0
230
1.0
 70
     8
 71
     3
 72
    30
 73
    26
 74
     0
 42
0.000000001
 43
0.00000001
 40
0.0
 40
0.0
 40
0.0
 40
0.0
 40
0.0450202487555969
 40
0.0915063123478869
 40
0.1364931998839866
 40
0.1825974410248914
 40
0.2316590164911116
 40
0.2817637253914704
 40
0.3390348933554336
 40
0.3685831543180477
 40
0.398123332957915
 40
0.4377879146292993
 40
0.4784927317446564
 40
0.5182074075055938
 40
0.5592463642338886
 40
0.5967753160561339
 40
0.6350611893016089
 40
0.6918675203397827
 40
0.7503045799830742
 40
0.8076438700454788
 40
0.8372535978836242
 40
0.8668583288484805
 40
0.9115183628357295
 40
0.9574128873603754
 40
1.0
 40
1.0
 40
1.0
 40
1.0
 10
92.6921378141648
 20
70.83059014252562
 30
0.0
 10
92.67976737571368
 20
70.82197980182461
 30
0.0
 10
92.65462372955272
 20
70.80447877623304
 30
0.0
 10
92.45464087468586
 20
70.66679266561056
 30
0.0
 10
92.14533601956518
 20
70.4591107022591
 30
0.0
 10
91.72260926466438
 20
70.18577672262035
 30
0.0
 10
91.1857866924809
 20
69.85832393027636
 30
0.0
 10
90.50969347441362
 20
69.4810193229734
 30
0.0
 10
89.83261191596928
 20
69.15336100179147
 30
0.0
 10
89.20367328097504
 20
68.90216612664638
 30
0.0
 10
88.63984612086749
 20
68.71352704865161
 30
0.0
 10
87.97569981679221
 20
68.54837375682946
 30
0.0
 10
87.21495442879399
 20
68.44767707831186
 30
0.0
 10
86.43138074314463
 20
68.44348658678233
 30
0.0
 10
85.67997428742137
 20
68.53568858943657
 30
0.0
 10
84.97011523241444
 20
68.70409718721135
 30
0.0
 10
84.21141628297997
 20
68.95763215540116
 30
0.0
 10
83.40829735054126
 20
69.30966638869027
 30
0.0
 10
82.61693644414682
 20
69.72997595411849
 30
0.0
 10
82.05202818467811
 20
70.06797364726208
 30
0.0
 10
81.67080048254905
 20
70.30889324164198
 30
0.0
 10
81.37725109235744
 20
70.50036163160377
 30
0.0
 10
81.11415512594827
 20
70.67737013252379
 30
0.0
 10
80.92547671309916
 20
70.80738997190637
 30
0.0
 10
80.90487097527789
 20
70.82173536792563
 30
0.0
 10
80.89495322391454
 20
70.82863995305438
 30
0.0
  0
CIRCLE
  5
F0
330
1F
100
AcDbEntity
  8
0
  6
Continuous
 62
     7
370
    25
100
AcDbCircle
 10
86.7921375921
 20
70.3305896806
 30
0.0
 40
0.4999999999999858
  0
ARC
  5
F1
330
1F
100
AcDbEntity
  8
0
  6
Continuous
 62
     7
370
    25
100
AcDbCircle
 10
86.7921375921
 20
70.3305896806
 30
0.0
 40
1.000000000008114
100
AcDbArc
 50
90.0
 51
270.0000000001
  0
ARC
  5
F2
330
1F
100
AcDbEntity
  8
0
  6
Continuous
 62
     7
370
    25
100
AcDbCircle
 10
86.7921375921
 20
70.3305896806
 30
0.0
 40
1.000000000008114
100
AcDbArc
 50
270.0000000001
 51
90.0
  0
LINE
  5
F3
330
1F
100
AcDbEntity
  8
0
  6
Continuous
 62
     7
370
    25
100
AcDbLine
 10
79.3421376748
 20
80.830589919
 30
0.0
 11
91.2666843525
 21
80.830589919
 31
0.0
  0
LINE
  5
F4
330
1F
100
AcDbEntity
  8
0
  6
Continuous
 62
     7
370
    25
100
AcDbLine
 10
92.015939883
 20
88.8305893677
 30
0.0
 11
81.5530522978
 21
88.8305893677
 31
0.0
  0
LINE
  5
F5
330
1F
100
AcDbEntity
  8
0
  6
Continuous
 62
     7
370
    25
100
AcDbLine
 10
93.7440783037
 20
81.8253336983
 30
0.0
 11
92.015939883
 21
88.8305893677
 31
0.0
  0
SPLINE
  5
F6
330
1F
100
AcDbEntity
  8
0
  6
Continuous
 62
     7
370
    25
100
AcDbSpline
210
0.0
220
0.0
230
1.0
 70
     8
 71
     3
 72
     9
 73
     5
 74
     0
 42
0.000000001
 43
0.00000001
 40
0.0
 40
0.0
 40
0.0
 40
0.0
 40
0.4983244219185156
 40
1.0
 40
1.0
 40
1.0
 40
1.0
 10
91.26668435245816
 20
80.83058991900822
 30
0.0
 10
91.1505739778065
 20
81.00438179872049
 30
0.0
 10
90.91757240384261
 20
81.35313428217933
 30
0.0
 10
90.64381238845297
 20
81.66758263775144
 30
0.0
 10
90.50647367447678
 20
81.82533369830985
 30
0.0
  0
LINE
  5
F7
330
1F
100
AcDbEntity
  8
0
  6
Continuous
 62
     7
370
    25
100
AcDbLine
 10
88.7921376871
 20
72.830589539
 30
0.0
 11
88.7921376871
 21
72.8684068235
 31
0.0
  0
LINE
  5
F8
330
1F
100
AcDbEntity
  8
0
  6
Continuous
 62
     7
370
    25
100
AcDbLine
 10
79.7921373761
 20
72.830589539
 30
0.0
 11
88.7921376871
 21
72.830589539
 31
0.0
  0
SPLINE
  5
F9
330
1F
100
AcDbEntity
  8
0
  6
Continuous
 62
     7
370
    25
100
AcDbSpline
210
0.0
220
0.0
230
1.0
 70
     8
 71
     3
 72
    16
 73
    12
 74
     0
 42
0.000000001
 43
0.00000001
 40
0.0
 40
0.0
 40
0.0
 40
0.0
 40
0.0155634440295776
 40
0.0359329575919142
 40
0.0739121561247688
 40
0.1570057919676931
 40
0.240658163019504
 40
0.4592958108389031
 40
0.6783838528485865
 40
0.8974954826540263
 40
1.0
 40
1.0
 40
1.0
 40
1.0
 10
88.94808276280824
 20
72.8305895390286
 30
0.0
 10
88.99047478247668
 20
72.83578287143516
 30
0.0
 10
89.0883496899899
 20
72.84777326332858
 30
0.0
 10
89.26182833947207
 20
72.96609953396265
 30
0.0
 10
89.51016179437396
 20
73.2773511716503
 30
0.0
 10
89.76462656209902
 20
73.80299853015262
 30
0.0
 10
90.10830577930311
 20
74.84154452127697
 30
0.0
 10
90.48952583679223
 20
76.2766183424389
 30
0.0
 10
90.83962806357592
 20
78.11487048820136
 30
0.0
 10
91.08341947046617
 20
79.6360535411651
 30
0.0
 10
91.22239158427314
 20
80.54188581870666
 30
0.0
 10
91.26668435245816
 20
80.8305899190082
 30
0.0
  0
SPLINE
  5
FA
330
1F
100
AcDbEntity
  8
0
  6
Continuous
 62
     7
370
    25
100
AcDbSpline
210
0.0
220
0.0
230
1.0
 70
     8
 71
     3
 72
     9
 73
     5
 74
     0
 42
0.000000001
 43
0.00000001
 40
0.0
 40
0.0
 40
0.0
 40
0.0
 40
0.5124863176752154
 40
1.0
 40
1.0
 40
1.0
 40
1.0
 10
88.7921376871324
 20
72.86840682349343
 30
0.0
 10
88.81778021585338
 20
72.85737903467486
 30
0.0
 10
88.8678157540455
 20
72.83586082347927
 30
0.0
 10
88.92177627200006
 20
72.83231713543573
 30
0.0
 10
88.94808276280824
 20
72.8305895390286
 30
0.0
  0
LINE
  5
FB
330
1F
100
AcDbEntity
  8
0
  6
Continuous
 62
     7
370
    25
100
AcDbLine
 10
90.5064736745
 20
81.8253336983
 30
0.0
 11
108.9675744316
 21
81.8253336983
 31
0.0
  0
LINE
  5
FC
330
1F
100
AcDbEntity
  8
0
  6
Continuous
 62
     7
370
    25
100
AcDbLine
 10
108.9675744316
 20
81.8253336983
 30
0.0
 11
108.9675744316
 21
78.5827646541
 31
0.0
  0
SPLINE
  5
FD
330
1F
100
AcDbEntity
  8
0
  6
Continuous
 62
     7
370
    25
100
AcDbSpline
210
0.0
220
0.0
230
1.0
 70
     8
 71
     3
 72
    11
 73
     7
 74
     0
 42
0.000000001
 43
0.00000001
 40
0.0
 40
0.0
 40
0.0
 40
0.0
 40
0.248860712681952
 40
0.4977192115733558
 40
0.7488602656597823
 40
1.0
 40
1.0
 40
1.0
 40
1.0
 10
101.8971811300522
 20
77.25956482312819
 30
0.0
 10
102.4737740193626
 20
77.40904386015411
 30
0.0
 10
103.6269546687851
 20
77.7080006044851
 30
0.0
 10
105.3878689572818
 20
78.0698043633192
 30
0.0
 10
107.1678475112882
 20
78.37207942274802
 30
0.0
 10
108.3676665090061
 20
78.51253636665153
 30
0.0
 10
108.9675744315988
 20
78.58276465407748
 30
0.0
  0
LWPOLYLINE
  5
FE
330
1F
100
AcDbEntity
  8
0
  6
Continuous
 62
     7
370
    25
100
AcDbPolyline
 90
        4
 70
   128
 43
0.0
 10
101.8971811301
 20
77.2595648231
 10
99.9619095838
 20
76.7343342813
 10
98.0347461319
 20
76.2113035234
 10
96.1174239656
 20
75.6909437986
  0
SPLINE
  5
FF
330
1F
100
AcDbEntity
  8
0
  6
Continuous
 62
     7
370
    25
100
AcDbSpline
210
0.0
220
0.0
230
1.0
 70
     8
 71
     3
 72
    13
 73
     9
 74
     0
 42
0.000000001
 43
0.00000001
 40
0.0
 40
0.0
 40
0.0
 40
0.0
 40
0.1610294667108458
 40
0.3266881201944549
 40
0.4877296242753278
 40
0.6535536689976723
 40
0.823760217438079
 40
1.0
 40
1.0
 40
1.0
 40
1.0
 10
96.11742396563355
 20
75.69094379863878
 30
0.0
 10
95.90355386702889
 20
75.62154665458816
 30
0.0
 10
95.46966544954805
 20
75.48075737545906
 30
0.0
 10
94.87834440979204
 20
75.13463331489889
 30
0.0
 10
94.34441344834592
 20
74.69542598627956
 30
0.0
 10
93.89072969521578
 20
74.16182437962074
 30
0.0
 10
93.51627575098438
 20
73.53799806297728
 30
0.0
 10
93.36771279074323
 20
73.06911419313316
 30
0.0
 10
93.29213772624794
 20
72.8305895390286
 30
0.0
  0
LINE
  5
100
330
1F
100
AcDbEntity
  8
0
  6
Continuous
 62
     7
370
    25
100
AcDbLine
 10
93.2921377262
 20
72.830589539
 30
0.0
 11
88.9480827628
 21
72.830589539
 31
0.0
  0
LINE
  5
101
330
1F
100
AcDbEntity
  8
0
  6
Continuous
 62
     7
370
    25
100
AcDbLine
 10
88.7989370404
 20
72.830589539
 30
0.0
 11
88.7921376871
 21
72.8684068235
 31
0.0
  0
LINE
  5
102
330
1F
100
AcDbEntity
  8
0
  6
Continuous
 62
     7
370
    25
100
AcDbLine
 10
88.7921376871
 20
72.830589539
 30
0.0
 11
88.7989370404
 21
72.830589539
 31
0.0
  0
LINE
  5
103
330
1F
100
AcDbEntity
  8
0
  6
Continuous
 62
     7
370
    25
100
AcDbLine
 10
88.9480827628
 20
72.830589539
 30
0.0
 11
88.7989370404
 21
72.830589539
 31
0.0
  0
LINE
  5
104
330
1F
100
AcDbEntity
  8
0
  6
Continuous
 62
     7
370
    25
100
AcDbLine
 10
108.9675744316
 20
81.8253336983
 30
0.0
 11
108.9675744316
 21
90.8305896955
 31
0.0
  0
LINE
  5
105
330
1F
100
AcDbEntity
  8
0
  6
Continuous
 62
     7
370
    25
100
AcDbLine
 10
108.9675744316
 20
90.8305896955
 30
0.0
 11
126.7921366981
 21
90.8305896955
 31
0.0
  0
LINE
  5
106
330
1F
100
AcDbEntity
  8
0
  6
Continuous
 62
     7
370
    25
100
AcDbLine
 10
126.7921366981
 20
90.8305896955
 30
0.0
 11
126.7921366981
 21
83.8305904107
 31
0.0
  0
ARC
  5
107
330
1F
100
AcDbEntity
  8
0
  6
Continuous
 62
     7
370
    25
100
AcDbCircle
 10
121.7921375921
 20
83.8305896806
 30
0.0
 40
5.0
100
AcDbArc
 50
270.0
 51
0.0
  0
LINE
  5
108
330
1F
100
AcDbEntity
  8
0
  6
Continuous
 62
     7
370
    25
100
AcDbLine
 10
121.7921377411
 20
78.8305895912
 30
0.0
 11
113.683804988
 21
78.8305895912
 31
0.0
  0
ARC
  5
109
330
1F
100
AcDbEntity
  8
0
  6
Continuous
 62
     7
370
    25
100
AcDbCircle
 10
113.6838054499
 20
33.8304604264
 30
0.0
 40
45.00012925418376
100
AcDbArc
 50
90.0
 51
96.0159222295
  0
ARC
  5
10A
330
1F
100
AcDbEntity
  8
0
  6
Continuous
 62
     7
370
    25
100
AcDbCircle
 10
101.1810911564
 20
92.8305896806
 30
0.0
 40
10.00000000000847
100
AcDbArc
 50
203.5781784783
 51
264.4198332155
  0
ARC
  5
10B
330
1F
100
AcDbEntity
  8
0
  6
Continuous
 62
     7
370
    25
100
AcDbCircle
 10
100.7921375921
 20
88.849545204
 30
0.0
 40
6.000000000000004
100
AcDbArc
 50
264.4198332155
 51
0.0
  0
LINE
  5
10C
330
1F
100
AcDbEntity
  8
0
  6
Continuous
 62
     7
370
    25
100
AcDbLine
 10
106.7921371451
 20
90.8305896955
 30
0.0
 11
106.7921371451
 21
88.8495455073
 31
0.0
  0
LINE
  5
10D
330
1F
100
AcDbEntity
  8
0
  6
Continuous
 62
     7
370
    25
100
AcDbLine
 10
106.7921371451
 20
90.8305896955
 30
0.0
 11
108.9675744316
 21
90.8305896955
 31
0.0
  0
LINE
  5
10E
330
1F
100
AcDbEntity
  8
0
  6
Continuous
 62
     7
370
    25
100
AcDbLine
 10
93.7921378082
 20
72.830589539
 30
0.0
 11
93.2921377262
 21
72.830589539
 31
0.0
  0
LINE
  5
10F
330
1F
100
AcDbEntity
  8
0
  6
Continuous
 62
     7
370
    25
100
AcDbLine
 10
92.015939883
 20
88.8305893677
 30
0.0
 11
92.0312228864
 21
88.8305893677
 31
0.0
  0
LINE
  5
110
330
1F
100
AcDbEntity
  8
0
  6
Continuous
 62
     7
370
    25
100
AcDbLine
 10
92.0312228864
 20
88.8305893677
 30
0.0
 11
92.0312228864
 21
89.4305902111
 31
0.0
  0
LINE
  5
111
330
1F
100
AcDbEntity
  8
0
  6
Continuous
 62
     7
370
    25
100
AcDbLine
 10
81.5530522978
 20
89.4305902111
 30
0.0
 11
81.5530522978
 21
88.8305893677
 31
0.0
  0
LINE
  5
112
330
1F
100
AcDbEntity
  8
0
  6
Continuous
 62
     7
370
    25
100
AcDbLine
 10
92.0312228864
 20
89.4305902111
 30
0.0
 11
81.5530522978
 21
89.4305902111
 31
0.0
  0
LINE
  5
113
330
1F
100
AcDbEntity
  8
0
  6
Continuous
 62
     7
370
    25
100
AcDbLine
 10
81.5530522978
 20
88.8305893677
 30
0.0
 11
92.0312228864
 21
88.8305893677
 31
0.0
  0
SPLINE
  5
114
330
1F
100
AcDbEntity
  8
0
  6
Continuous
 62
     7
370
    25
100
AcDbSpline
210
0.0
220
0.0
230
1.0
 70
     8
 71
     3
 72
    15
 73
    11
 74
     0
 42
0.000000001
 43
0.00000001
 40
0.0
 40
0.0
 40
0.0
 40
0.0
 40
0.0090436668555053
 40
0.1032416108587011
 40
0.1542555096908477
 40
0.3133160372726557
 40
0.5243720667937798
 40
0.6678058153000223
 40
0.9918331445062708
 40
0.9999999999999999
 40
0.9999999999999999
 40
0.9999999999999999
 40
0.9999999999999999
 10
92.03122288644377
 20
89.43059021107096
 30
0.0
 10
92.03121713094407
 20
89.43227089157594
 30
0.0
 10
92.03115142672587
 20
89.45145737482916
 30
0.0
 10
92.0291563409371
 20
89.48015135896304
 30
0.0
 10
92.02134011820151
 20
89.53082806770148
 30
0.0
 10
92.00416912256068
 20
89.58870363457986
 30
0.0
 10
91.97758610975602
 20
89.63357173026168
 30
0.0
 10
91.9397559414735
 20
89.67092957020253
 30
0.0
 10
91.91147674795558
 20
89.68048883877343
 30
0.0
 10
91.89164465717685
 20
89.68058645520601
 30
0.0
 10
91.89115709349576
 20
89.6805888550653
 30
0.0
  0
SPLINE
  5
115
330
1F
100
AcDbEntity
  8
0
  6
Continuous
 62
     7
370
    25
100
AcDbSpline
210
0.0
220
0.0
230
1.0
 70
     8
 71
     3
 72
    15
 73
    11
 74
     0
 42
0.000000001
 43
0.00000001
 40
0.0
 40
0.0
 40
0.0
 40
0.0
 40
0.0081668554937291
 40
0.3321941846999776
 40
0.4756279332062201
 40
0.6866839627273442
 40
0.8457444903091523
 40
0.8967583891412989
 40
0.9909563331444947
 40
1.0
 40
1.0
 40
1.0
 40
1.0
 10
81.69311809077922
 20
89.6805888550653
 30
0.0
 10
81.69263052709813
 20
89.68058645520601
 30
0.0
 10
81.67279843631938
 20
89.68048883877347
 30
0.0
 10
81.64451924280146
 20
89.67092957020253
 30
0.0
 10
81.60668907451895
 20
89.63357173026168
 30
0.0
 10
81.5801060617143
 20
89.58870363457986
 30
0.0
 10
81.56293506607346
 20
89.53082806770148
 30
0.0
 10
81.55511884333785
 20
89.48015135896303
 30
0.0
 10
81.55312375754912
 20
89.45145737482916
 30
0.0
 10
81.5530580533309
 20
89.43227089157594
 30
0.0
 10
81.55305229783121
 20
89.43059021107096
 30
0.0
  0
LINE
  5
116
330
1F
100
AcDbEntity
  8
0
  6
Continuous
 62
     7
370
    25
100
AcDbLine
 10
81.6931180908
 20
89.6805888551
 30
0.0
 11
91.8911570935
 21
89.6805888551
 31
0.0
  0
SPLINE
  5
117
330
1F
100
AcDbEntity
  8
0
  6
Continuous
 62
     7
370
    25
100
AcDbSpline
210
0.0
220
0.0
230
1.0
 70
     8
 71
     3
 72
    15
 73
    11
 74
     0
 42
0.000000001
 43
0.00000001
 40
0.0
 40
0.0
 40
0.0
 40
0.0
 40
0.0080845166116213
 40
0.3310110803515837
 40
0.4750334718139839
 40
0.6874373868841556
 40
0.8468378249369453
 40
0.9001014979498858
 40
0.9910465065391931
 40
0.9999999999999999
 40
0.9999999999999999
 40
0.9999999999999999
 40
0.9999999999999999
 10
91.89115709349576
 20
89.6805888550653
 30
0.0
 10
91.89243686392808
 20
89.68058645313896
 30
0.0
 10
91.9448355679883
 20
89.68048810907301
 30
0.0
 10
92.0201916875053
 20
89.67079574831305
 30
0.0
 10
92.12211135307166
 20
89.63351843740607
 30
0.0
 10
92.19450116124163
 20
89.58880794103898
 30
0.0
 10
92.2422082075342
 20
89.53067319182493
 30
0.0
 10
92.26374189758708
 20
89.47978515796075
 30
0.0
 10
92.2691725691875
 20
89.45102339730768
 30
0.0
 10
92.26934733642412
 20
89.43227091888433
 30
0.0
 10
92.26936300009552
 20
89.43059021107096
 30
0.0
  0
LINE
  5
118
330
1F
100
AcDbEntity
  8
0
  6
Continuous
 62
     7
370
    25
100
AcDbLine
 10
92.0312228864
 20
89.4305902111
 30
0.0
 11
92.2693630001
 21
89.4305902111
 31
0.0
  0
SPLINE
  5
119
330
1F
100
AcDbEntity
  8
0
  6
Continuous
 62
     7
370
    25
100
AcDbSpline
210
0.0
220
0.0
230
1.0
 70
     8
 71
     3
 72
    15
 73
    11
 74
     0
 42
0.000000001
 43
0.00000001
 40
0.0
 40
0.0
 40
0.0
 40
0.0
 40
0.0089534934608068
 40
0.0998985020501141
 40
0.1531621750630547
 40
0.3125626131158444
 40
0.524966528186016
 40
0.6689889196484162
 40
0.9919154833883785
 40
0.9999999999999999
 40
0.9999999999999999
 40
0.9999999999999999
 40
0.9999999999999999
 10
81.31491218417946
 20
89.43059021107096
 30
0.0
 10
81.31492784785087
 20
89.43227091888433
 30
0.0
 10
81.3151026150875
 20
89.45102339730764
 30
0.0
 10
81.32053328668789
 20
89.47978515796075
 30
0.0
 10
81.34206697674078
 20
89.53067319182495
 30
0.0
 10
81.38977402303335
 20
89.58880794103898
 30
0.0
 10
81.46216383120331
 20
89.63351843740605
 30
0.0
 10
81.56408349676967
 20
89.67079574831308
 30
0.0
 10
81.6394396162867
 20
89.68048810907293
 30
0.0
 10
81.6918383203469
 20
89.68058645313894
 30
0.0
 10
81.69311809077922
 20
89.6805888550653
 30
0.0
  0
LINE
  5
11A
330
1F
100
AcDbEntity
  8
0
  6
Continuous
 62
     7
370
    25
100
AcDbLine
 10
81.3149121842
 20
89.4305902111
 30
0.0
 11
81.5530522978
 21
89.4305902111
 31
0.0
  0
LINE
  5
11B
330
1F
100
AcDbEntity
  8
0
  6
Continuous
 62
     7
370
    25
100
AcDbLine
 10
81.3149121842
 20
88.8305893677
 30
0.0
 11
81.3149121842
 21
89.4305902111
 31
0.0
  0
LINE
  5
11C
330
1F
100
AcDbEntity
  8
0
  6
Continuous
 62
     7
370
    25
100
AcDbLine
 10
81.5530522978
 20
88.8305893677
 30
0.0
 11
81.3149121842
 21
88.8305893677
 31
0.0
  0
LINE
  5
11D
330
1F
100
AcDbEntity
  8
0
  6
Continuous
 62
     7
370
    25
100
AcDbLine
 10
92.2693630001
 20
89.4305902111
 30
0.0
 11
92.2693630001
 21
88.8305893677
 31
0.0
  0
LINE
  5
11E
330
1F
100
AcDbEntity
  8
0
  6
Continuous
 62
     7
370
    25
100
AcDbLine
 10
92.2693630001
 20
88.8305893677
 30
0.0
 11
92.0312228864
 21
88.8305893677
 31
0.0
  0
LINE
  5
11F
330
1F
100
AcDbEntity
  8
0
  6
Continuous
 62
     7
370
    25
100
AcDbLine
 10
92.5421376033
 20
88.8305893677
 30
0.0
 11
92.5421376033
 21
89.4305902111
 31
0.0
  0
LINE
  5
120
330
1F
100
AcDbEntity
  8
0
  6
Continuous
 62
     7
370
    25
100
AcDbLine
 10
92.5421376033
 20
89.4305902111
 30
0.0
 11
92.7921376443
 21
89.4305902111
 31
0.0
  0
LINE
  5
121
330
1F
100
AcDbEntity
  8
0
  6
Continuous
 62
     7
370
    25
100
AcDbLine
 10
92.7921376443
 20
89.4305902111
 30
0.0
 11
92.7921376443
 21
88.8305893677
 31
0.0
  0
LINE
  5
122
330
1F
100
AcDbEntity
  8
0
  6
Continuous
 62
     7
370
    25
100
AcDbLine
 10
92.7921376443
 20
88.8305893677
 30
0.0
 11
92.5421376033
 21
88.8305893677
 31
0.0
  0
LINE
  5
123
330
1F
100
AcDbEntity
  8
0
  6
Continuous
 62
     7
370
    25
100
AcDbLine
 10
92.5421376033
 20
89.4305902111
 30
0.0
 11
92.2693630001
 21
89.4305902111
 31
0.0
  0
LINE
  5
124
330
1F
100
AcDbEntity
  8
0
  6
Continuous
 62
     7
370
    25
100
AcDbLine
 10
92.2693630001
 20
88.8305893677
 30
0.0
 11
92.5421376033
 21
88.8305893677
 31
0.0
  0
LINE
  5
125
330
1F
100
AcDbEntity
  8
0
  6
Continuous
 62
     7
370
    25
100
AcDbLine
 10
80.79213754
 20
88.8305893677
 30
0.0
 11
80.79213754
 21
89.4305902111
 31
0.0
  0
LINE
  5
126
330
1F
100
AcDbEntity
  8
0
  6
Continuous
 62
     7
370
    25
100
AcDbLine
 10
80.79213754
 20
89.4305902111
 30
0.0
 11
81.042137581
 21
89.4305902111
 31
0.0
  0
LINE
  5
127
330
1F
100
AcDbEntity
  8
0
  6
Continuous
 62
     7
370
    25
100
AcDbLine
 10
81.042137581
 20
89.4305902111
 30
0.0
 11
81.042137581
 21
88.8305893677
 31
0.0
  0
LINE
  5
128
330
1F
100
AcDbEntity
  8
0
  6
Continuous
 62
     7
370
    25
100
AcDbLine
 10
81.042137581
 20
88.8305893677
 30
0.0
 11
80.79213754
 21
88.8305893677
 31
0.0
  0
LINE
  5
129
330
1F
100
AcDbEntity
  8
0
  6
Continuous
 62
     7
370
    25
100
AcDbLine
 10
81.3149121842
 20
89.4305902111
 30
0.0
 11
81.042137581
 21
89.4305902111
 31
0.0
  0
LINE
  5
12A
330
1F
100
AcDbEntity
  8
0
  6
Continuous
 62
     7
370
    25
100
AcDbLine
 10
81.042137581
 20
88.8305893677
 30
0.0
 11
81.3149121842
 21
88.8305893677
 31
0.0
  0
LINE
  5
12B
330
1F
100
AcDbEntity
  8
0
  6
Continuous
 62
     7
370
    25
100
AcDbLine
 10
81.042137581
 20
89.6805888551
 30
0.0
 11
81.042137581
 21
89.4305902111
 31
0.0
  0
LINE
  5
12C
330
1F
100
AcDbEntity
  8
0
  6
Continuous
 62
     7
370
    25
100
AcDbLine
 10
81.042137581
 20
89.6805888551
 30
0.0
 11
81.6931180908
 21
89.6805888551
 31
0.0
  0
LINE
  5
12D
330
1F
100
AcDbEntity
  8
0
  6
Continuous
 62
     7
370
    25
100
AcDbLine
 10
92.5421376033
 20
89.4305902111
 30
0.0
 11
92.5421376033
 21
89.6805888551
 31
0.0
  0
ARC
  5
12E
330
1F
100
AcDbEntity
  8
0
  6
Continuous
 62
     7
370
    25
100
AcDbCircle
 10
92.5421375921
 20
89.4305896806
 30
0.0
 40
0.25
100
AcDbArc
 50
0.0
 51
90.0
  0
LINE
  5
12F
330
1F
100
AcDbEntity
  8
0
  6
Continuous
 62
     7
370
    25
100
AcDbLine
 10
91.8911570935
 20
89.6805888551
 30
0.0
 11
92.5421376033
 21
89.6805888551
 31
0.0
  0
ARC
  5
130
330
1F
100
AcDbEntity
  8
0
  6
Continuous
 62
     7
370
    25
100
AcDbCircle
 10
81.0421375921
 20
89.4305896806
 30
0.0
 40
0.25
100
AcDbArc
 50
90.0
 51
180.0
  0
LINE
  5
131
330
1F
100
AcDbEntity
  8
0
  6
Continuous
 62
     7
370
    25
100
AcDbLine
 10
81.7921377039
 20
89.6805888551
 30
0.0
 11
81.7921377039
 21
89.6905893969
 31
0.0
  0
LINE
  5
132
330
1F
100
AcDbEntity
  8
0
  6
Continuous
 62
     7
370
    25
100
AcDbLine
 10
81.7921377039
 20
89.6905893969
 30
0.0
 11
91.7921374804
 21
89.6905893969
 31
0.0
  0
LINE
  5
133
330
1F
100
AcDbEntity
  8
0
  6
Continuous
 62
     7
370
    25
100
AcDbLine
 10
91.7921374804
 20
89.6805888551
 30
0.0
 11
91.7921374804
 21
89.6905893969
 31
0.0
  0
LINE
  5
134
330
1F
100
AcDbEntity
  8
0
  6
Continuous
 62
     1
370
    25
100
AcDbLine
 10
79.7921373761
 20
57.1361454713
 30
0.0
 11
79.7921373761
 21
53.8305892187
 31
0.0
  0
LINE
  5
135
330
1F
100
AcDbEntity
  8
0
  6
Continuous
 62
     1
370
    25
100
AcDbLine
 10
93.7921378082
 20
53.8305892187
 30
0.0
 11
93.7921378082
 21
57.1361454713
 31
0.0
  0
LINE
  5
136
330
1F
100
AcDbEntity
  8
0
  6
Continuous
 62
     1
370
    25
100
AcDbLine
 10
93.7921378082
 20
67.5250343556
 30
0.0
 11
93.7921378082
 21
70.8305901425
 31
0.0
  0
LINE
  5
137
330
1F
100
AcDbEntity
  8
0
  6
Continuous
 62
     1
370
    25
100
AcDbLine
 10
79.7921373761
 20
70.8305901425
 30
0.0
 11
79.7921373761
 21
67.5250343556
 31
0.0
  0
LINE
  5
138
330
1F
100
AcDbEntity
  8
0
  6
Continuous
 62
     7
370
    25
100
AcDbLine
 10
62.2921382329
 20
139.9987712753
 30
0.0
 11
61.7921372196
 21
139.4987711933
 31
0.0
  0
LINE
  5
139
330
1F
100
AcDbEntity
  8
0
  6
Continuous
 62
     7
370
    25
100
AcDbLine
 10
61.7921372196
 20
120.4987718042
 30
0.0
 11
62.2921382329
 21
119.9987717223
 31
0.0
  0
LINE
  5
13A
330
1F
100
AcDbEntity
  8
0
  6
Continuous
 62
     7
370
    25
100
AcDbLine
 10
62.2921382329
 20
119.9987717223
 30
0.0
 11
76.7921378157
 21
119.9987717223
 31
0.0
  0
LINE
  5
13B
330
1F
100
AcDbEntity
  8
0
  6
Continuous
 62
     7
370
    25
100
AcDbLine
 10
76.7921378157
 20
139.9987712753
 30
0.0
 11
62.2921382329
 21
139.9987712753
 31
0.0
  0
LINE
  5
13C
330
1F
100
AcDbEntity
  8
0
  6
Continuous
 62
     7
370
    25
100
AcDbLine
 10
111.2921369514
 20
119.9987717223
 30
0.0
 11
111.7921379647
 21
120.4987718042
 31
0.0
  0
LINE
  5
13D
330
1F
100
AcDbEntity
  8
0
  6
Continuous
 62
     7
370
    25
100
AcDbLine
 10
111.7921379647
 20
139.4987711933
 30
0.0
 11
111.2921369514
 21
139.9987712753
 31
0.0
  0
LINE
  5
13E
330
1F
100
AcDbEntity
  8
0
  6
Continuous
 62
     7
370
    25
100
AcDbLine
 10
76.7921378157
 20
119.9987717223
 30
0.0
 11
78.9101711726
 21
119.9987717223
 31
0.0
  0
LINE
  5
13F
330
1F
100
AcDbEntity
  8
0
  6
Continuous
 62
     7
370
    25
100
AcDbLine
 10
78.9101711726
 20
139.9987712753
 30
0.0
 11
76.7921378157
 21
139.9987712753
 31
0.0
  0
ARC
  5
140
330
1F
100
AcDbEntity
  8
0
  6
Continuous
 62
     7
370
    25
100
AcDbCircle
 10
95.7921375921
 20
138.9987714988
 30
0.0
 40
1.500000000000023
100
AcDbArc
 50
138.1896851042
 51
180.0
  0
ARC
  5
141
330
1F
100
AcDbEntity
  8
0
  6
Continuous
 62
     7
370
    25
100
AcDbCircle
 10
95.7921375921
 20
120.9987714988
 30
0.0
 40
1.500000000000004
100
AcDbArc
 50
180.0
 51
221.8103148958
  0
ARC
  5
142
330
1F
100
AcDbEntity
  8
0
  6
Continuous
 62
     7
370
    25
100
AcDbCircle
 10
77.7921375921
 20
120.9987714988
 30
0.0
 40
1.5
100
AcDbArc
 50
318.1896851042
 51
0.0
  0
ARC
  5
143
330
1F
100
AcDbEntity
  8
0
  6
Continuous
 62
     7
370
    25
100
AcDbCircle
 10
77.7921375921
 20
138.9987714988
 30
0.0
 40
1.500000000000012
100
AcDbArc
 50
0.0
 51
41.8103148958
  0
LINE
  5
144
330
1F
100
AcDbEntity
  8
0
  6
Continuous
 62
     7
370
    25
100
AcDbLine
 10
111.2921369514
 20
139.9987712753
 30
0.0
 11
94.6741040117
 21
139.9987712753
 31
0.0
  0
LINE
  5
145
330
1F
100
AcDbEntity
  8
0
  6
Continuous
 62
     7
370
    25
100
AcDbLine
 10
94.6741040117
 20
119.9987717223
 30
0.0
 11
111.2921369514
 21
119.9987717223
 31
0.0
  0
LINE
  5
146
330
1F
100
AcDbEntity
  8
0
  6
Continuous
 62
     7
370
    25
100
AcDbLine
 10
61.7921372196
 20
120.4987718042
 30
0.0
 11
61.7921372196
 21
139.4987711933
 31
0.0
  0
LINE
  5
147
330
1F
100
AcDbEntity
  8
0
  6
Continuous
 62
     7
370
    25
100
AcDbLine
 10
62.2921382329
 20
139.9987712753
 30
0.0
 11
62.2921382329
 21
119.9987717223
 31
0.0
  0
LINE
  5
148
330
1F
100
AcDbEntity
  8
0
  6
Continuous
 62
     7
370
    25
100
AcDbLine
 10
76.7921378157
 20
119.9987717223
 30
0.0
 11
76.7921378157
 21
139.9987712753
 31
0.0
  0
LINE
  5
149
330
1F
100
AcDbEntity
  8
0
  6
Continuous
 62
     7
370
    25
100
AcDbLine
 10
111.7921379647
 20
139.4987711933
 30
0.0
 11
111.7921379647
 21
133.4987716068
 31
0.0
  0
LINE
  5
14A
330
1F
100
AcDbEntity
  8
0
  6
Continuous
 62
     7
370
    25
100
AcDbLine
 10
111.7921379647
 20
126.4987713907
 30
0.0
 11
111.7921379647
 21
120.4987718042
 31
0.0
  0
LINE
  5
14B
330
1F
100
AcDbEntity
  8
0
  6
Continuous
 62
     7
370
    25
100
AcDbLine
 10
111.2921369514
 20
119.9987717223
 30
0.0
 11
111.2921369514
 21
126.4987713907
 31
0.0
  0
LINE
  5
14C
330
1F
100
AcDbEntity
  8
0
  6
Continuous
 62
     7
370
    25
100
AcDbLine
 10
111.2921369514
 20
133.4987716068
 30
0.0
 11
111.2921369514
 21
139.9987712753
 31
0.0
  0
LINE
  5
14D
330
1F
100
AcDbEntity
  8
0
  6
Continuous
 62
     7
370
    25
100
AcDbLine
 10
78.9101711726
 20
139.9987712753
 30
0.0
 11
78.9101711726
 21
119.9987717223
 31
0.0
  0
LINE
  5
14E
330
1F
100
AcDbEntity
  8
0
  6
Continuous
 62
     7
370
    25
100
AcDbLine
 10
94.6741040117
 20
119.9987717223
 30
0.0
 11
94.6741040117
 21
124.9077352945
 31
0.0
  0
LINE
  5
14F
330
1F
100
AcDbEntity
  8
0
  6
Continuous
 62
     7
370
    25
100
AcDbLine
 10
94.6741040117
 20
135.089807703
 30
0.0
 11
94.6741040117
 21
139.9987712753
 31
0.0
  0
SPLINE
  5
150
330
1F
100
AcDbEntity
  8
0
  6
Continuous
 62
     7
370
    25
100
AcDbSpline
210
0.0
220
0.0
230
1.0
 70
     8
 71
     3
 72
     8
 73
     4
 74
     0
 42
0.000000001
 43
0.00000001
 40
0.0
 40
0.0
 40
0.0
 40
0.0
 40
1.0
 40
1.0
 40
1.0
 40
1.0
 10
94.38933871750923
 20
137.8528658277373
 30
0.0
 10
94.32150229941334
 20
137.6139011274422
 30
0.0
 10
94.29213759213751
 20
137.3701043775409
 30
0.0
 10
94.29213759213751
 20
137.1226749197145
 30
0.0
  0
SPLINE
  5
151
330
1F
100
AcDbEntity
  8
0
  6
Continuous
 62
     7
370
    25
100
AcDbSpline
210
0.0
220
0.0
230
1.0
 70
     8
 71
     3
 72
    12
 73
     8
 74
     0
 42
0.000000001
 43
0.00000001
 40
0.0
 40
0.0
 40
0.0
 40
0.0
 40
0.2499999999999994
 40
0.2499999999999994
 40
0.4999999999999989
 40
0.4999999999999989
 40
1.0
 40
1.0
 40
1.0
 40
1.0
 10
94.52122366017764
 20
138.7612326781223
 30
0.0
 10
94.54871558025187
 20
138.7495382473309
 30
0.0
 10
94.56859601027578
 20
138.717631072769
 30
0.0
 10
94.58432662416341
 20
138.6184779565841
 30
0.0
 10
94.57988762765211
 20
138.5508126810861
 30
0.0
 10
94.53324302919451
 20
138.3077180883236
 30
0.0
 10
94.45720847775931
 20
138.0919479811367
 30
0.0
 10
94.38933871750923
 20
137.8528658277374
 30
0.0
  0
SPLINE
  5
152
330
1F
100
AcDbEntity
  8
0
  6
Continuous
 62
     7
370
    25
100
AcDbSpline
210
0.0
220
0.0
230
1.0
 70
     8
 71
     3
 72
    12
 73
     8
 74
     0
 42
0.000000001
 43
0.00000001
 40
0.0
 40
0.0
 40
0.0
 40
0.0
 40
0.5
 40
0.5
 40
0.75
 40
0.75
 40
1.0
 40
1.0
 40
1.0
 40
1.0
 10
94.29213759213751
 20
138.9987714987715
 30
0.0
 10
94.29213759213751
 20
138.9987714987715
 30
0.0
 10
94.28758019712042
 20
138.9756890322512
 30
0.0
 10
94.31476386160517
 20
138.9125897793973
 30
0.0
 10
94.33021353258175
 20
138.8869354157235
 30
0.0
 10
94.39307713436553
 20
138.82858288738
 30
0.0
 10
94.44010705772268
 20
138.7957378160274
 30
0.0
 10
94.52122366017764
 20
138.7612326781223
 30
0.0
  0
SPLINE
  5
153
330
1F
100
AcDbEntity
  8
0
  6
Continuous
 62
     7
370
    25
100
AcDbSpline
210
0.0
220
0.0
230
1.0
 70
     8
 71
     3
 72
    12
 73
     8
 74
     0
 42
0.000000001
 43
0.00000001
 40
0.0
 40
0.0
 40
0.0
 40
0.0
 40
0.2499999999999999
 40
0.2499999999999999
 40
0.4999999999999998
 40
0.4999999999999998
 40
1.0
 40
1.0
 40
1.0
 40
1.0
 10
94.52122366017764
 20
121.2363103194207
 30
0.0
 10
94.43965835108744
 20
121.2016143120282
 30
0.0
 10
94.39316275677994
 20
121.1690139227039
 30
0.0
 10
94.33033243390962
 20
121.1107435330072
 30
0.0
 10
94.31483589954979
 20
121.0850814683722
 30
0.0
 10
94.28757647067017
 20
121.0219229462817
 30
0.0
 10
94.29213759213751
 20
120.9987714987715
 30
0.0
 10
94.29213759213751
 20
120.9987714987715
 30
0.0
  0
SPLINE
  5
154
330
1F
100
AcDbEntity
  8
0
  6
Continuous
 62
     7
370
    25
100
AcDbSpline
210
0.0
220
0.0
230
1.0
 70
     8
 71
     3
 72
    14
 73
    10
 74
     0
 42
0.000000001
 43
0.00000001
 40
0.0
 40
0.0
 40
0.0
 40
0.0
 40
0.25
 40
0.25
 40
0.5
 40
0.5
 40
0.75
 40
0.75
 40
1.0
 40
1.0
 40
1.0
 40
1.0
 10
94.38933871750923
 20
122.1446771698056
 30
0.0
 10
94.42333472099568
 20
122.0249207762282
 30
0.0
 10
94.4593742999554
 20
121.9123223833604
 30
0.0
 10
94.52221085126459
 20
121.7040932757619
 30
0.0
 10
94.54858343470744
 20
121.6096478790165
 30
0.0
 10
94.57983978004661
 20
121.4472062615609
 30
0.0
 10
94.58433161184834
 20
121.3793828187576
 30
0.0
 10
94.56866456993525
 20
121.2800590680601
 30
0.0
 10
94.5487446480175
 20
121.2480171149713
 30
0.0
 10
94.52122366017764
 20
121.2363103194207
 30
0.0
  0
SPLINE
  5
155
330
1F
100
AcDbEntity
  8
0
  6
Continuous
 62
     7
370
    25
100
AcDbSpline
210
0.0
220
0.0
230
1.0
 70
     8
 71
     3
 72
     8
 73
     4
 74
     0
 42
0.000000001
 43
0.00000001
 40
0.0
 40
0.0
 40
0.0
 40
0.0
 40
1.0
 40
1.0
 40
1.0
 40
1.0
 10
94.29213759213751
 20
122.8748680778284
 30
0.0
 10
94.29213759213751
 20
122.6274386200021
 30
0.0
 10
94.32150229941334
 20
122.3836418701008
 30
0.0
 10
94.38933871750923
 20
122.1446771698056
 30
0.0
  0
LINE
  5
156
330
1F
100
AcDbEntity
  8
0
  6
Continuous
 62
     7
370
    25
100
AcDbLine
 10
94.2921374245
 20
122.8748681274
 30
0.0
 11
94.2921374245
 21
124.8204228718
 31
0.0
  0
LINE
  5
157
330
1F
100
AcDbEntity
  8
0
  6
Continuous
 62
     7
370
    25
100
AcDbLine
 10
94.2921374245
 20
135.1771201257
 30
0.0
 11
94.2921374245
 21
137.1226748702
 31
0.0
  0
SPLINE
  5
158
330
1F
100
AcDbEntity
  8
0
  6
Continuous
 62
     7
370
    25
100
AcDbSpline
210
0.0
220
0.0
230
1.0
 70
     8
 71
     3
 72
     8
 73
     4
 74
     0
 42
0.000000001
 43
0.00000001
 40
0.0
 40
0.0
 40
0.0
 40
0.0
 40
1.0
 40
1.0
 40
1.0
 40
1.0
 10
79.19493646676578
 20
122.1446771698056
 30
0.0
 10
79.26277288486166
 20
122.3836418701008
 30
0.0
 10
79.29213759213751
 20
122.6274386200021
 30
0.0
 10
79.29213759213751
 20
122.8748680778284
 30
0.0
  0
SPLINE
  5
159
330
1F
100
AcDbEntity
  8
0
  6
Continuous
 62
     7
370
    25
100
AcDbSpline
210
0.0
220
0.0
230
1.0
 70
     8
 71
     3
 72
    14
 73
    10
 74
     0
 42
0.000000001
 43
0.00000001
 40
0.0
 40
0.0
 40
0.0
 40
0.0
 40
0.25
 40
0.25
 40
0.5
 40
0.5
 40
0.75
 40
0.75
 40
1.0
 40
1.0
 40
1.0
 40
1.0
 10
79.06305152409738
 20
121.2363103194207
 30
0.0
 10
79.0355305362575
 20
121.2480171149713
 30
0.0
 10
79.01561061433976
 20
121.2800590680601
 30
0.0
 10
78.99994357242667
 20
121.3793828187576
 30
0.0
 10
79.0044354042284
 20
121.4472062615609
 30
0.0
 10
79.03569174956756
 20
121.6096478790165
 30
0.0
 10
79.06206433301041
 20
121.7040932757619
 30
0.0
 10
79.1249008843196
 20
121.9123223833604
 30
0.0
 10
79.16094046327933
 20
122.0249207762282
 30
0.0
 10
79.19493646676578
 20
122.1446771698056
 30
0.0
  0
SPLINE
  5
15A
330
1F
100
AcDbEntity
  8
0
  6
Continuous
 62
     7
370
    25
100
AcDbSpline
210
0.0
220
0.0
230
1.0
 70
     8
 71
     3
 72
    12
 73
     8
 74
     0
 42
0.000000001
 43
0.00000001
 40
0.0
 40
0.0
 40
0.0
 40
0.0
 40
0.5
 40
0.5
 40
0.75
 40
0.75
 40
1.0
 40
1.0
 40
1.0
 40
1.0
 10
79.29213759213751
 20
120.9987714987715
 30
0.0
 10
79.29213759213751
 20
120.9987714987715
 30
0.0
 10
79.2966949871546
 20
121.0218539652918
 30
0.0
 10
79.26951132266984
 20
121.0849532181457
 30
0.0
 10
79.25406165169325
 20
121.1106075818195
 30
0.0
 10
79.19119804990949
 20
121.1689601101629
 30
0.0
 10
79.14416812655233
 20
121.2018051815156
 30
0.0
 10
79.06305152409738
 20
121.2363103194207
 30
0.0
  0
SPLINE
  5
15B
330
1F
100
AcDbEntity
  8
0
  6
Continuous
 62
     7
370
    25
100
AcDbSpline
210
0.0
220
0.0
230
1.0
 70
     8
 71
     3
 72
    12
 73
     8
 74
     0
 42
0.000000001
 43
0.00000001
 40
0.0
 40
0.0
 40
0.0
 40
0.0
 40
0.2499999999999999
 40
0.2499999999999999
 40
0.4999999999999998
 40
0.4999999999999998
 40
1.0
 40
1.0
 40
1.0
 40
1.0
 10
79.06305152409738
 20
138.7612326781223
 30
0.0
 10
79.14461683318757
 20
138.7959286855148
 30
0.0
 10
79.19111242749506
 20
138.828529074839
 30
0.0
 10
79.25394275036538
 20
138.8867994645358
 30
0.0
 10
79.26943928472521
 20
138.9124615291708
 30
0.0
 10
79.29669871360484
 20
138.9756200512613
 30
0.0
 10
79.29213759213751
 20
138.9987714987715
 30
0.0
 10
79.29213759213751
 20
138.9987714987715
 30
0.0
  0
SPLINE
  5
15C
330
1F
100
AcDbEntity
  8
0
  6
Continuous
 62
     7
370
    25
100
AcDbSpline
210
0.0
220
0.0
230
1.0
 70
     8
 71
     3
 72
    12
 73
     8
 74
     0
 42
0.000000001
 43
0.00000001
 40
0.0
 40
0.0
 40
0.0
 40
0.0
 40
0.5000000000000011
 40
0.5000000000000011
 40
0.7500000000000006
 40
0.7500000000000006
 40
1.0
 40
1.0
 40
1.0
 40
1.0
 10
79.19493646676578
 20
137.8528658277373
 30
0.0
 10
79.12706670651572
 20
138.0919479811367
 30
0.0
 10
79.05103215508049
 20
138.3077180883236
 30
0.0
 10
79.0043875566229
 20
138.550812681086
 30
0.0
 10
78.99994856011159
 20
138.6184779565841
 30
0.0
 10
79.01567917399922
 20
138.717631072769
 30
0.0
 10
79.03555960402315
 20
138.7495382473309
 30
0.0
 10
79.06305152409738
 20
138.7612326781223
 30
0.0
  0
SPLINE
  5
15D
330
1F
100
AcDbEntity
  8
0
  6
Continuous
 62
     7
370
    25
100
AcDbSpline
210
0.0
220
0.0
230
1.0
 70
     8
 71
     3
 72
     8
 73
     4
 74
     0
 42
0.000000001
 43
0.00000001
 40
0.0
 40
0.0
 40
0.0
 40
0.0
 40
1.0
 40
1.0
 40
1.0
 40
1.0
 10
79.29213759213751
 20
137.1226749197145
 30
0.0
 10
79.29213759213751
 20
137.3701043775409
 30
0.0
 10
79.26277288486166
 20
137.6139011274422
 30
0.0
 10
79.19493646676578
 20
137.8528658277373
 30
0.0
  0
LINE
  5
15E
330
1F
100
AcDbEntity
  8
0
  6
Continuous
 62
     7
370
    25
100
AcDbLine
 10
79.2921377598
 20
137.1226748702
 30
0.0
 11
79.2921377598
 21
122.8748681274
 31
0.0
  0
ARC
  5
15F
330
1F
100
AcDbEntity
  8
0
  6
Continuous
 62
     7
370
    25
100
AcDbCircle
 10
93.8388198268
 20
137.1816503547
 30
0.0
 40
0.4571377824698519
100
AcDbArc
 50
264.1388497305
 51
352.5875946393
  0
ARC
  5
160
330
1F
100
AcDbEntity
  8
0
  6
Continuous
 62
     7
370
    25
100
AcDbCircle
 10
93.8388198268
 20
122.8158926428
 30
0.0
 40
0.4571377824698537
100
AcDbArc
 50
7.4124053607
 51
95.8611502695
  0
ARC
  5
161
330
1F
100
AcDbEntity
  8
0
  6
Continuous
 62
     7
370
    25
100
AcDbCircle
 10
79.7454553575
 20
122.8158926428
 30
0.0
 40
0.4571377824698396
100
AcDbArc
 50
84.1388497305
 51
172.5875946393
  0
ARC
  5
162
330
1F
100
AcDbEntity
  8
0
  6
Continuous
 62
     7
370
    25
100
AcDbCircle
 10
79.7454553575
 20
137.1816503547
 30
0.0
 40
0.4571377824698378
100
AcDbArc
 50
187.4124053607
 51
275.8611502695
  0
LINE
  5
163
330
1F
100
AcDbEntity
  8
0
  6
Continuous
 62
     7
370
    25
100
AcDbLine
 10
93.7921378082
 20
137.1226748702
 30
0.0
 11
94.2921374245
 21
137.1226748702
 31
0.0
  0
SPLINE
  5
164
330
1F
100
AcDbEntity
  8
0
  6
Continuous
 62
     7
370
    25
100
AcDbSpline
210
0.0
220
0.0
230
1.0
 70
     8
 71
     3
 72
     8
 73
     4
 74
     0
 42
0.000000001
 43
0.00000001
 40
0.0
 40
0.0
 40
0.0
 40
0.0
 40
1.0
 40
1.0
 40
1.0
 40
1.0
 10
93.79213759213751
 20
137.1226749197145
 30
0.0
 10
93.79213759213751
 20
137.4210977890327
 30
0.0
 10
93.83273039657016
 20
137.7135157400695
 30
0.0
 10
93.92173909263315
 20
137.9987714987715
 30
0.0
  0
LWPOLYLINE
  5
165
330
1F
100
AcDbEntity
  8
0
  6
Continuous
 62
     7
370
    25
100
AcDbPolyline
 90
        9
 70
   128
 43
0.0
 10
94.3893386303
 20
137.8528662276
 10
94.3662064402
 20
137.8600839776
 10
94.3300944074
 20
137.8713520494
 10
94.2820563233
 20
137.8863416862
 10
94.2234952255
 20
137.9046142351
 10
94.1561219534
 20
137.9256369796
 10
94.0819039261
 20
137.9487952468
 10
94.0030083312
 20
137.9734128964
 10
93.9217392607
 20
137.9987718788
  0
SPLINE
  5
166
330
1F
100
AcDbEntity
  8
0
  6
Continuous
 62
     7
370
    25
100
AcDbSpline
210
0.0
220
0.0
230
1.0
 70
     8
 71
     3
 72
     8
 73
     4
 74
     0
 42
0.000000001
 43
0.00000001
 40
0.0
 40
0.0
 40
0.0
 40
0.0
 40
1.0
 40
1.0
 40
1.0
 40
1.0
 10
79.66253609164187
 20
137.9987714987715
 30
0.0
 10
79.75154478770486
 20
137.7135157400695
 30
0.0
 10
79.79213759213751
 20
137.4210977890327
 30
0.0
 10
79.79213759213751
 20
137.1226749197145
 30
0.0
  0
LINE
  5
167
330
1F
100
AcDbEntity
  8
0
  6
Continuous
 62
     7
370
    25
100
AcDbLine
 10
79.7921373761
 20
137.1226748702
 30
0.0
 11
79.2921377598
 21
137.1226748702
 31
0.0
  0
LWPOLYLINE
  5
168
330
1F
100
AcDbEntity
  8
0
  6
Continuous
 62
     7
370
    25
100
AcDbPolyline
 90
        9
 70
   128
 43
0.0
 10
79.6625359236
 20
137.9987718788
 10
79.5812668531
 20
137.9734128964
 10
79.5023712581
 20
137.9487952468
 10
79.4281532308
 20
137.9256369796
 10
79.3607799588
 20
137.9046142351
 10
79.302218861
 20
137.8863416862
 10
79.2541807769
 20
137.8713520494
 10
79.2180687441
 20
137.8600839776
 10
79.194936554
 20
137.8528662276
  0
SPLINE
  5
169
330
1F
100
AcDbEntity
  8
0
  6
Continuous
 62
     7
370
    25
100
AcDbSpline
210
0.0
220
0.0
230
1.0
 70
     8
 71
     3
 72
     8
 73
     4
 74
     0
 42
0.000000001
 43
0.00000001
 40
0.0
 40
0.0
 40
0.0
 40
0.0
 40
1.0
 40
1.0
 40
1.0
 40
1.0
 10
79.79213759213751
 20
122.8748680778284
 30
0.0
 10
79.79213759213751
 20
122.5764452085103
 30
0.0
 10
79.75154478770486
 20
122.2840272574734
 30
0.0
 10
79.66253609164187
 20
121.9987714987715
 30
0.0
  0
LWPOLYLINE
  5
16A
330
1F
100
AcDbEntity
  8
0
  6
Continuous
 62
     7
370
    25
100
AcDbPolyline
 90
        9
 70
   128
 43
0.0
 10
79.6625359236
 20
121.9987711188
 10
79.5812668531
 20
122.0241301012
 10
79.5023712581
 20
122.0487477508
 10
79.4281532308
 20
122.0719060179
 10
79.3607799588
 20
122.0929287624
 10
79.302218861
 20
122.1112013113
 10
79.2541807769
 20
122.1261909482
 10
79.2180687441
 20
122.13745902
 10
79.194936554
 20
122.1446767699
  0
LINE
  5
16B
330
1F
100
AcDbEntity
  8
0
  6
Continuous
 62
     7
370
    25
100
AcDbLine
 10
79.7921373761
 20
122.8748681274
 30
0.0
 11
79.2921377598
 21
122.8748681274
 31
0.0
  0
SPLINE
  5
16C
330
1F
100
AcDbEntity
  8
0
  6
Continuous
 62
     7
370
    25
100
AcDbSpline
210
0.0
220
0.0
230
1.0
 70
     8
 71
     3
 72
     8
 73
     4
 74
     0
 42
0.000000001
 43
0.00000001
 40
0.0
 40
0.0
 40
0.0
 40
0.0
 40
1.0
 40
1.0
 40
1.0
 40
1.0
 10
93.92173909263315
 20
121.9987714987715
 30
0.0
 10
93.83273039657016
 20
122.2840272574734
 30
0.0
 10
93.79213759213751
 20
122.5764452085103
 30
0.0
 10
93.79213759213751
 20
122.8748680778284
 30
0.0
  0
LINE
  5
16D
330
1F
100
AcDbEntity
  8
0
  6
Continuous
 62
     7
370
    25
100
AcDbLine
 10
93.7921378082
 20
122.8748681274
 30
0.0
 11
94.2921374245
 21
122.8748681274
 31
0.0
  0
LWPOLYLINE
  5
16E
330
1F
100
AcDbEntity
  8
0
  6
Continuous
 62
     7
370
    25
100
AcDbPolyline
 90
        9
 70
   128
 43
0.0
 10
93.9217392607
 20
121.9987711188
 10
94.0030083312
 20
122.0241301012
 10
94.0819039261
 20
122.0487477508
 10
94.1561219534
 20
122.0719060179
 10
94.2234952255
 20
122.0929287624
 10
94.2820563233
 20
122.1112013113
 10
94.3300944074
 20
122.1261909482
 10
94.3662064402
 20
122.13745902
 10
94.3893386303
 20
122.1446767699
  0
LINE
  5
16F
330
1F
100
AcDbEntity
  8
0
  6
Continuous
 62
     7
370
    25
100
AcDbLine
 10
93.7921378082
 20
136.7269023572
 30
0.0
 11
93.7921378082
 21
137.1226748702
 31
0.0
  0
LINE
  5
170
330
1F
100
AcDbEntity
  8
0
  6
Continuous
 62
     7
370
    25
100
AcDbLine
 10
79.7921373761
 20
137.1226748702
 30
0.0
 11
79.7921373761
 21
136.7269023572
 31
0.0
  0
LINE
  5
171
330
1F
100
AcDbEntity
  8
0
  6
Continuous
 62
     7
370
    25
100
AcDbLine
 10
93.7921378082
 20
122.8748681274
 30
0.0
 11
93.7921378082
 21
123.2706406404
 31
0.0
  0
LINE
  5
172
330
1F
100
AcDbEntity
  8
0
  6
Continuous
 62
     7
370
    25
100
AcDbLine
 10
79.7921373761
 20
123.2706406404
 30
0.0
 11
79.7921373761
 21
122.8748681274
 31
0.0
  0
SPLINE
  5
173
330
1F
100
AcDbEntity
  8
0
  6
Continuous
 62
     7
370
    25
100
AcDbSpline
210
0.0
220
0.0
230
1.0
 70
     8
 71
     3
 72
    14
 73
    10
 74
     0
 42
0.000000001
 43
0.00000001
 40
0.0
 40
0.0
 40
0.0
 40
0.0
 40
0.25
 40
0.25
 40
0.5
 40
0.5
 40
0.75
 40
0.75
 40
1.0
 40
1.0
 40
1.0
 40
1.0
 10
94.09758568285767
 20
121.4987714987715
 30
0.0
 10
94.13317390124885
 20
121.4987714987715
 30
0.0
 10
94.16251635519804
 20
121.5109776826702
 30
0.0
 10
94.1826861568349
 20
121.5671228610053
 30
0.0
 10
94.17076140841841
 20
121.6114513520159
 30
0.0
 10
94.11772773463396
 20
121.7118476939654
 30
0.0
 10
94.08054789922544
 20
121.7653244900317
 30
0.0
 10
94.00128177616756
 20
121.8789650280877
 30
0.0
 10
93.96020484350403
 20
121.937133830577
 30
0.0
 10
93.92173909263315
 20
121.9987714987715
 30
0.0
  0
ARC
  5
174
330
1F
100
AcDbEntity
  8
0
  6
Continuous
 62
     7
370
    25
100
AcDbCircle
 10
94.0937580141
 20
121.019465217
 30
0.0
 40
0.4793211019975851
100
AcDbArc
 50
26.897807819
 51
89.5424713007
  0
SPLINE
  5
175
330
1F
100
AcDbEntity
  8
0
  6
Continuous
 62
     7
370
    25
100
AcDbSpline
210
0.0
220
0.0
230
1.0
 70
     8
 71
     3
 72
    14
 73
    10
 74
     0
 42
0.000000001
 43
0.00000001
 40
0.0
 40
0.0
 40
0.0
 40
0.0
 40
0.25
 40
0.25
 40
0.5
 40
0.5
 40
0.75
 40
0.75
 40
1.0
 40
1.0
 40
1.0
 40
1.0
 10
79.66253609164187
 20
121.9987714987715
 30
0.0
 10
79.62406060789506
 20
121.9371182345789
 30
0.0
 10
79.58297168632062
 20
121.8789342893359
 30
0.0
 10
79.50368883867799
 20
121.765268967896
 30
0.0
 10
79.466405937478
 20
121.7115923692045
 30
0.0
 10
79.41360017802981
 20
121.6116023367081
 30
0.0
 10
79.4016309179244
 20
121.5671978364467
 30
0.0
 10
79.42163270643898
 20
121.5111379809299
 30
0.0
 10
79.45108916211397
 20
121.4987714987715
 30
0.0
 10
79.48668950141733
 20
121.4987714987715
 30
0.0
  0
ARC
  5
176
330
1F
100
AcDbEntity
  8
0
  6
Continuous
 62
     7
370
    25
100
AcDbCircle
 10
79.4905171702
 20
121.019465217
 30
0.0
 40
0.4793211019975851
100
AcDbArc
 50
90.4575286993
 51
153.102192181
  0
SPLINE
  5
177
330
1F
100
AcDbEntity
  8
0
  6
Continuous
 62
     7
370
    25
100
AcDbSpline
210
0.0
220
0.0
230
1.0
 70
     8
 71
     3
 72
    14
 73
    10
 74
     0
 42
0.000000001
 43
0.00000001
 40
0.0
 40
0.0
 40
0.0
 40
0.0
 40
0.25
 40
0.25
 40
0.5
 40
0.5
 40
0.75
 40
0.75
 40
1.0
 40
1.0
 40
1.0
 40
1.0
 10
93.92173909263315
 20
137.9987714987715
 30
0.0
 10
93.96020302891758
 20
138.0604062592656
 30
0.0
 10
94.00160123686486
 20
138.1190328448336
 30
0.0
 10
94.08069249084298
 20
138.232428942906
 30
0.0
 10
94.11852740385429
 20
138.2870143502498
 30
0.0
 10
94.17082214289765
 20
138.3864046209777
 30
0.0
 10
94.18270751559609
 20
138.4305330265106
 30
0.0
 10
94.1624188137401
 20
138.4866638390505
 30
0.0
 10
94.13309618832653
 20
138.4987714987715
 30
0.0
 10
94.09758568285767
 20
138.4987714987715
 30
0.0
  0
ARC
  5
178
330
1F
100
AcDbEntity
  8
0
  6
Continuous
 62
     7
370
    25
100
AcDbCircle
 10
94.0937580141
 20
138.9780777805
 30
0.0
 40
0.4793211019975851
100
AcDbArc
 50
270.4575286993
 51
333.102192181
  0
SPLINE
  5
179
330
1F
100
AcDbEntity
  8
0
  6
Continuous
 62
     7
370
    25
100
AcDbSpline
210
0.0
220
0.0
230
1.0
 70
     8
 71
     3
 72
    16
 73
    12
 74
     0
 42
0.000000001
 43
0.00000001
 40
0.0
 40
0.0
 40
0.0
 40
0.0
 40
0.2500000000000021
 40
0.2500000000000021
 40
0.3750000000000031
 40
0.3750000000000031
 40
0.5000000000000041
 40
0.5000000000000041
 40
0.750000000000002
 40
0.750000000000002
 40
1.0
 40
1.0
 40
1.0
 40
1.0
 10
79.48668950141733
 20
138.4987714987715
 30
0.0
 10
79.45113557185957
 20
138.4987714987715
 30
0.0
 10
79.42186343050892
 20
138.486639748367
 30
0.0
 10
79.40665088017971
 20
138.4446180420725
 30
0.0
 10
79.40659021198704
 20
138.4264036725515
 30
0.0
 10
79.41680079646797
 20
138.3844666600021
 30
0.0
 10
79.42658412601389
 20
138.3614390964944
 30
0.0
 10
79.46574867465057
 20
138.2870304176762
 30
0.0
 10
79.50362174801923
 20
138.2323725414967
 30
0.0
 10
79.5826947212029
 20
138.1190034683584
 30
0.0
 10
79.62408185390477
 20
138.0603907182758
 30
0.0
 10
79.66253609164187
 20
137.9987714987715
 30
0.0
  0
ARC
  5
17A
330
1F
100
AcDbEntity
  8
0
  6
Continuous
 62
     7
370
    25
100
AcDbCircle
 10
79.4905171702
 20
138.9780777805
 30
0.0
 40
0.4793211019975722
100
AcDbArc
 50
206.897807819
 51
269.5424713007
  0
LINE
  5
17B
330
1F
100
AcDbEntity
  8
0
  6
Continuous
 62
     7
370
    25
100
AcDbLine
 10
79.4866896486
 20
138.4987719607
 30
0.0
 11
94.0975855356
 21
138.4987719607
 31
0.0
  0
LINE
  5
17C
330
1F
100
AcDbEntity
  8
0
  6
Continuous
 62
     7
370
    25
100
AcDbLine
 10
93.9217392607
 20
137.9987718788
 30
0.0
 11
79.6625359236
 21
137.9987718788
 31
0.0
  0
LINE
  5
17D
330
1F
100
AcDbEntity
  8
0
  6
Continuous
 62
     7
370
    25
100
AcDbLine
 10
79.6625359236
 20
121.9987711188
 30
0.0
 11
93.9217392607
 21
121.9987711188
 31
0.0
  0
LINE
  5
17E
330
1F
100
AcDbEntity
  8
0
  6
Continuous
 62
     7
370
    25
100
AcDbLine
 10
94.0975855356
 20
121.4987710368
 30
0.0
 11
79.4866896486
 21
121.4987710368
 31
0.0
  0
ARC
  5
17F
330
1F
100
AcDbEntity
  8
0
  6
Continuous
 62
     7
370
    25
100
AcDbCircle
 10
79.7921375921
 20
138.9987714988
 30
0.0
 40
0.5
100
AcDbArc
 50
180.0
 51
270.0
  0
ARC
  5
180
330
1F
100
AcDbEntity
  8
0
  6
Continuous
 62
     7
370
    25
100
AcDbCircle
 10
93.7921375921
 20
138.9987714988
 30
0.0
 40
0.5
100
AcDbArc
 50
270.0
 51
0.0
  0
ARC
  5
181
330
1F
100
AcDbEntity
  8
0
  6
Continuous
 62
     7
370
    25
100
AcDbCircle
 10
79.7921375921
 20
120.9987714988
 30
0.0
 40
0.5
100
AcDbArc
 50
90.0
 51
180.0
  0
ARC
  5
182
330
1F
100
AcDbEntity
  8
0
  6
Continuous
 62
     7
370
    25
100
AcDbCircle
 10
93.7921375921
 20
120.9987714988
 30
0.0
 40
0.5
100
AcDbArc
 50
0.0
 51
90.0
  0
LINE
  5
183
330
1F
100
AcDbEntity
  8
0
  6
Continuous
 62
     7
370
    25
100
AcDbLine
 10
106.7921371451
 20
126.7270723142
 30
0.0
 11
108.9675744316
 21
126.4987713907
 31
0.0
  0
LINE
  5
184
330
1F
100
AcDbEntity
  8
0
  6
Continuous
 62
     7
370
    25
100
AcDbLine
 10
106.7921371451
 20
133.2704706833
 30
0.0
 11
106.7921371451
 21
126.7270723142
 31
0.0
  0
LINE
  5
185
330
1F
100
AcDbEntity
  8
0
  6
Continuous
 62
     7
370
    25
100
AcDbLine
 10
126.7921366981
 20
133.4987716068
 30
0.0
 11
108.9675744316
 21
133.4987716068
 31
0.0
  0
LINE
  5
186
330
1F
100
AcDbEntity
  8
0
  6
Continuous
 62
     7
370
    25
100
AcDbLine
 10
126.7921366981
 20
126.4987713907
 30
0.0
 11
126.7921366981
 21
133.4987716068
 31
0.0
  0
LINE
  5
187
330
1F
100
AcDbEntity
  8
0
  6
Continuous
 62
     7
370
    25
100
AcDbLine
 10
108.9675744316
 20
126.4987713907
 30
0.0
 11
126.7921366981
 21
126.4987713907
 31
0.0
  0
LINE
  5
188
330
1F
100
AcDbEntity
  8
0
  6
Continuous
 62
     7
370
    25
100
AcDbLine
 10
108.9675744316
 20
133.4987716068
 30
0.0
 11
106.7921371451
 21
133.2704706833
 31
0.0
  0
LINE
  5
189
330
1F
100
AcDbEntity
  8
0
  6
Continuous
 62
     7
370
    25
100
AcDbLine
 10
92.015939883
 20
128.2777569972
 30
0.0
 11
92.1443487769
 21
128.4618986788
 31
0.0
  0
LINE
  5
18A
330
1F
100
AcDbEntity
  8
0
  6
Continuous
 62
     7
370
    25
100
AcDbLine
 10
92.1347813001
 20
131.5439892019
 30
0.0
 11
92.015939883
 21
131.7197860003
 31
0.0
  0
LINE
  5
18B
330
1F
100
AcDbEntity
  8
0
  6
Continuous
 62
     7
370
    25
100
AcDbLine
 10
100.2087072721
 20
127.4179688439
 30
0.0
 11
100.2087072721
 21
132.5795741536
 31
0.0
  0
LWPOLYLINE
  5
18C
330
1F
100
AcDbEntity
  8
0
  6
Continuous
 62
     7
370
    25
100
AcDbPolyline
 90
       15
 70
   128
 43
0.0
 10
100.2087072721
 20
127.4179688439
 10
99.4573301888
 20
127.4968220637
 10
98.7158651716
 20
127.5746347633
 10
97.9885758153
 20
127.6509599079
 10
97.2796456209
 20
127.7253586118
 10
96.5931491247
 20
127.7974029322
 10
95.9330342031
 20
127.8666784306
 10
95.3030978581
 20
127.9327869665
 10
94.7069620034
 20
127.9953483277
 10
94.1480548373
 20
128.0540026742
 10
93.6295894226
 20
128.1084128673
 10
93.1545478544
 20
128.1582659826
 10
92.7256617016
 20
128.2032754057
 10
92.3453966407
 20
128.2431822287
 10
92.015939883
 20
128.2777569972
  0
LWPOLYLINE
  5
18D
330
1F
100
AcDbEntity
  8
0
  6
Continuous
 62
     7
370
    25
100
AcDbPolyline
 90
       15
 70
   128
 43
0.0
 10
92.015939883
 20
131.7197860003
 10
92.3453966407
 20
131.7543607688
 10
92.7256617016
 20
131.7942675919
 10
93.1545478544
 20
131.8392770149
 10
93.6295894226
 20
131.8891301303
 10
94.1480548373
 20
131.9435403234
 10
94.7069620034
 20
132.0021946699
 10
95.3030978581
 20
132.064756031
 10
95.9330342031
 20
132.130864567
 10
96.5931491247
 20
132.2001400654
 10
97.2796456209
 20
132.2721843858
 10
97.9885758153
 20
132.3465830897
 10
98.7158651716
 20
132.4229082343
 10
99.4573301888
 20
132.5007209339
 10
100.2087072721
 20
132.5795741536
  0
LWPOLYLINE
  5
18E
330
1F
100
AcDbEntity
  8
0
  6
Continuous
 62
     7
370
    25
100
AcDbPolyline
 90
       18
 70
   128
 43
0.0
 10
106.7921371451
 20
126.7270723142
 10
106.7632735959
 20
126.7301014409
 10
106.676956757
 20
126.7391599499
 10
106.5340192309
 20
126.754160297
 10
106.3358375123
 20
126.7749585927
 10
106.0843152246
 20
126.8013543699
 10
105.7818756691
 20
126.8330938433
 10
105.4314264348
 20
126.8698717718
 10
105.0363407722
 20
126.9113340199
 10
104.6004184774
 20
126.957081749
 10
104.1278542271
 20
127.0066746761
 10
103.623196601
 20
127.0596359641
 10
103.0912996522
 20
127.1154559467
 10
102.5372800669
 20
127.1735972509
 10
101.9664715296
 20
127.2335006174
 10
101.3843632555
 20
127.2945900232
 10
100.7965562186
 20
127.3562771053
 10
100.2087072721
 20
127.4179688439
  0
LWPOLYLINE
  5
18F
330
1F
100
AcDbEntity
  8
0
  6
Continuous
 62
     7
370
    25
100
AcDbPolyline
 90
       18
 70
   128
 43
0.0
 10
100.2087072721
 20
132.5795741536
 10
100.7965562186
 20
132.6412658923
 10
101.3843632555
 20
132.7029529743
 10
101.9664715296
 20
132.7640423801
 10
102.5372800669
 20
132.8239457466
 10
103.0912996522
 20
132.8820870508
 10
103.623196601
 20
132.9379070335
 10
104.1278542271
 20
132.9908683215
 10
104.6004184774
 20
133.0404612486
 10
105.0363407722
 20
133.0862089776
 10
105.4314264348
 20
133.1276712258
 10
105.7818756691
 20
133.1644491543
 10
106.0843152246
 20
133.1961886276
 10
106.3358375123
 20
133.2225844048
 10
106.5340192309
 20
133.2433827006
 10
106.676956757
 20
133.2583830476
 10
106.7632735959
 20
133.2674415566
 10
106.7921371451
 20
133.2704706833
  0
ARC
  5
190
330
1F
100
AcDbEntity
  8
0
  6
Continuous
 62
     7
370
    25
100
AcDbCircle
 10
86.7921375921
 20
129.9987714988
 30
0.0
 40
7.450000000000665
100
AcDbArc
 50
53.0863788866
 51
306.9136211134
  0
ARC
  5
191
330
1F
100
AcDbEntity
  8
0
  6
Continuous
 62
     7
370
    25
100
AcDbCircle
 10
86.7921375921
 20
129.9987714988
 30
0.0
 40
7.207531252870779
100
AcDbArc
 50
15.3041237151
 51
58.9797515565
  0
ARC
  5
192
330
1F
100
AcDbEntity
  8
0
  6
Continuous
 62
     7
370
    25
100
AcDbCircle
 10
86.7921375921
 20
129.9987714988
 30
0.0
 40
7.207531252872441
100
AcDbArc
 50
301.0202484435
 51
344.6958762849
  0
ARC
  5
193
330
1F
100
AcDbEntity
  8
0
  6
Continuous
 62
     7
370
    25
100
AcDbCircle
 10
108.9675744537
 20
198.4987714988
 30
0.0
 40
65.00000000000003
100
AcDbArc
 50
253.4999050077
 51
270.0
  0
ARC
  5
194
330
1F
100
AcDbEntity
  8
0
  6
Continuous
 62
     7
370
    25
100
AcDbCircle
 10
108.9675744537
 20
61.4987714988
 30
0.0
 40
65.0
100
AcDbArc
 50
90.0
 51
106.5000949923
  0
SPLINE
  5
195
330
1F
100
AcDbEntity
  8
0
  6
Continuous
 62
     7
370
    25
100
AcDbSpline
210
0.0
220
0.0
230
1.0
 70
     8
 71
     3
 72
    15
 73
    11
 74
     0
 42
0.000000001
 43
0.00000001
 40
0.0
 40
0.0
 40
0.0
 40
0.0
 40
0.0081668554937291
 40
0.3321941846999776
 40
0.4756279332062201
 40
0.6866839627273442
 40
0.8457444903091523
 40
0.8967583891412989
 40
0.9909563331444947
 40
1.0
 40
1.0
 40
1.0
 40
1.0
 10
91.89115709349576
 20
131.2487714708318
 30
0.0
 10
91.89164465717687
 20
131.2502089451351
 30
0.0
 10
91.9114767479556
 20
131.3086795039158
 30
0.0
 10
91.93975594147352
 20
131.3931048435201
 30
0.0
 10
91.97758610975603
 20
131.5076844726728
 30
0.0
 10
92.0041691225607
 20
131.5890545715056
 30
0.0
 10
92.02134011820152
 20
131.6420742452437
 30
0.0
 10
92.02915634093713
 20
131.6662757396858
 30
0.0
 10
92.03115142672588
 20
131.6724652572481
 30
0.0
 10
92.03121713094409
 20
131.6726669281312
 30
0.0
 10
92.03122288644377
 20
131.6726845939179
 30
0.0
  0
ARC
  5
196
330
1F
100
AcDbEntity
  8
0
  6
Continuous
 62
     7
370
    25
100
AcDbCircle
 10
86.7921375921
 20
129.9987714988
 30
0.0
 40
5.250000000000009
100
AcDbArc
 50
13.774146998
 51
166.225853002
  0
SPLINE
  5
197
330
1F
100
AcDbEntity
  8
0
  6
Continuous
 62
     7
370
    25
100
AcDbSpline
210
0.0
220
0.0
230
1.0
 70
     8
 71
     3
 72
    15
 73
    11
 74
     0
 42
0.000000001
 43
0.00000001
 40
0.0
 40
0.0
 40
0.0
 40
0.0
 40
0.0090436668555053
 40
0.1032416108587011
 40
0.1542555096908477
 40
0.3133160372726557
 40
0.5243720667937798
 40
0.6678058153000223
 40
0.9918331445062708
 40
0.9999999999999999
 40
0.9999999999999999
 40
0.9999999999999999
 40
0.9999999999999999
 10
81.55305229783121
 20
131.6726845939179
 30
0.0
 10
81.55305805333093
 20
131.6726669281312
 30
0.0
 10
81.55312375754913
 20
131.6724652572481
 30
0.0
 10
81.55511884333788
 20
131.6662757396858
 30
0.0
 10
81.56293506607348
 20
131.6420742452437
 30
0.0
 10
81.58010606171432
 20
131.5890545715056
 30
0.0
 10
81.60668907451897
 20
131.5076844726728
 30
0.0
 10
81.64451924280148
 20
131.3931048435201
 30
0.0
 10
81.67279843631941
 20
131.3086795039158
 30
0.0
 10
81.69263052709815
 20
131.2502089451351
 30
0.0
 10
81.69311809077922
 20
131.2487714708318
 30
0.0
  0
ARC
  5
198
330
1F
100
AcDbEntity
  8
0
  6
Continuous
 62
     7
370
    25
100
AcDbCircle
 10
86.7921375921
 20
129.9987714988
 30
0.0
 40
5.500000000000015
100
AcDbArc
 50
17.7189318734
 51
162.2810681266
  0
ARC
  5
199
330
1F
100
AcDbEntity
  8
0
  6
Continuous
 62
     7
370
    25
100
AcDbCircle
 10
81.3149120171
 20
131.7487714988
 30
0.0
 40
0.25
100
AcDbArc
 50
270.0
 51
342.2810681266
  0
SPLINE
  5
19A
330
1F
100
AcDbEntity
  8
0
  6
Continuous
 62
     7
370
    25
100
AcDbSpline
210
0.0
220
0.0
230
1.0
 70
     8
 71
     3
 72
    15
 73
    11
 74
     0
 42
0.000000001
 43
0.00000001
 40
0.0
 40
0.0
 40
0.0
 40
0.0
 40
0.0080845166116213
 40
0.3310110803515837
 40
0.4750334718139839
 40
0.6874373868841556
 40
0.8468378249369453
 40
0.9001014979498858
 40
0.9910465065391931
 40
0.9999999999999999
 40
0.9999999999999999
 40
0.9999999999999999
 40
0.9999999999999999
 10
81.69311809077922
 20
131.2487714708318
 30
0.0
 10
81.69183832034692
 20
131.2495874220603
 30
0.0
 10
81.63943961628668
 20
131.282995591112
 30
0.0
 10
81.56408349676968
 20
131.3318069683785
 30
0.0
 10
81.46216383120333
 20
131.3991783617306
 30
0.0
 10
81.38977402303337
 20
131.4477618395451
 30
0.0
 10
81.3420669767408
 20
131.4802112111561
 30
0.0
 10
81.32053328668792
 20
131.4949217927156
 30
0.0
 10
81.3151026150875
 20
131.4986403839421
 30
0.0
 10
81.31492784785088
 20
131.4987607260408
 30
0.0
 10
81.31491218417946
 20
131.49877151181
 30
0.0
  0
SPLINE
  5
19B
330
1F
100
AcDbEntity
  8
0
  6
Continuous
 62
     7
370
    25
100
AcDbSpline
210
0.0
220
0.0
230
1.0
 70
     8
 71
     3
 72
    15
 73
    11
 74
     0
 42
0.000000001
 43
0.00000001
 40
0.0
 40
0.0
 40
0.0
 40
0.0
 40
0.0090436668555053
 40
0.1032416108587011
 40
0.1542555096908477
 40
0.3133160372726557
 40
0.5243720667937798
 40
0.6678058153000223
 40
0.9918331445062708
 40
0.9999999999999999
 40
0.9999999999999999
 40
0.9999999999999999
 40
0.9999999999999999
 10
92.03122288644377
 20
128.3248584036251
 30
0.0
 10
92.03121713094409
 20
128.3248760694118
 30
0.0
 10
92.03115142672588
 20
128.3250777402949
 30
0.0
 10
92.02915634093713
 20
128.3312672578571
 30
0.0
 10
92.02134011820152
 20
128.3554687522992
 30
0.0
 10
92.0041691225607
 20
128.4084884260374
 30
0.0
 10
91.97758610975603
 20
128.4898585248702
 30
0.0
 10
91.93975594147352
 20
128.6044381540229
 30
0.0
 10
91.91147674795559
 20
128.6888634936272
 30
0.0
 10
91.89164465717687
 20
128.7473340524079
 30
0.0
 10
91.89115709349576
 20
128.7487715267112
 30
0.0
  0
ARC
  5
19C
330
1F
100
AcDbEntity
  8
0
  6
Continuous
 62
     7
370
    25
100
AcDbCircle
 10
86.7921375921
 20
129.9987714988
 30
0.0
 40
5.500000000000007
100
AcDbArc
 50
197.7189318734
 51
342.2810681266
  0
SPLINE
  5
19D
330
1F
100
AcDbEntity
  8
0
  6
Continuous
 62
     7
370
    25
100
AcDbSpline
210
0.0
220
0.0
230
1.0
 70
     8
 71
     3
 72
    15
 73
    11
 74
     0
 42
0.000000001
 43
0.00000001
 40
0.0
 40
0.0
 40
0.0
 40
0.0
 40
0.0081668554937291
 40
0.3321941846999776
 40
0.4756279332062201
 40
0.6866839627273442
 40
0.8457444903091523
 40
0.8967583891412989
 40
0.9909563331444947
 40
1.0
 40
1.0
 40
1.0
 40
1.0
 10
81.69311809077922
 20
128.7487715267112
 30
0.0
 10
81.69263052709815
 20
128.7473340524079
 30
0.0
 10
81.67279843631938
 20
128.6888634936272
 30
0.0
 10
81.64451924280148
 20
128.6044381540229
 30
0.0
 10
81.60668907451897
 20
128.4898585248702
 30
0.0
 10
81.58010606171432
 20
128.4084884260374
 30
0.0
 10
81.56293506607348
 20
128.3554687522992
 30
0.0
 10
81.55511884333788
 20
128.3312672578571
 30
0.0
 10
81.55312375754913
 20
128.3250777402949
 30
0.0
 10
81.55305805333093
 20
128.3248760694118
 30
0.0
 10
81.55305229783121
 20
128.3248584036251
 30
0.0
  0
ARC
  5
19E
330
1F
100
AcDbEntity
  8
0
  6
Continuous
 62
     7
370
    25
100
AcDbCircle
 10
86.7921375921
 20
129.9987714988
 30
0.0
 40
5.250000000000009
100
AcDbArc
 50
193.774146998
 51
346.225853002
  0
SPLINE
  5
19F
330
1F
100
AcDbEntity
  8
0
  6
Continuous
 62
     7
370
    25
100
AcDbSpline
210
0.0
220
0.0
230
1.0
 70
     8
 71
     3
 72
    15
 73
    11
 74
     0
 42
0.000000001
 43
0.00000001
 40
0.0
 40
0.0
 40
0.0
 40
0.0
 40
0.0089534934608068
 40
0.0998985020501141
 40
0.1531621750630547
 40
0.3125626131158444
 40
0.524966528186016
 40
0.6689889196484162
 40
0.9919154833883785
 40
0.9999999999999999
 40
0.9999999999999999
 40
0.9999999999999999
 40
0.9999999999999999
 10
81.31491218417946
 20
128.498771485733
 30
0.0
 10
81.31492784785088
 20
128.4987822715023
 30
0.0
 10
81.31510261508751
 20
128.4989026136009
 30
0.0
 10
81.3205332866879
 20
128.5026212048274
 30
0.0
 10
81.3420669767408
 20
128.5173317863869
 30
0.0
 10
81.38977402303335
 20
128.5497811579979
 30
0.0
 10
81.46216383120333
 20
128.5983646358124
 30
0.0
 10
81.56408349676968
 20
128.6657360291645
 30
0.0
 10
81.63943961628672
 20
128.714547406431
 30
0.0
 10
81.69183832034692
 20
128.7479555754826
 30
0.0
 10
81.69311809077922
 20
128.7487715267112
 30
0.0
  0
ARC
  5
1A0
330
1F
100
AcDbEntity
  8
0
  6
Continuous
 62
     7
370
    25
100
AcDbCircle
 10
81.3149120171
 20
128.2487714988
 30
0.0
 40
0.2500000000000077
100
AcDbArc
 50
17.7189318734
 51
90.0
  0
ARC
  5
1A1
330
1F
100
AcDbEntity
  8
0
  6
Continuous
 62
     7
370
    25
100
AcDbCircle
 10
92.2693631672
 20
131.7487714988
 30
0.0
 40
0.25
100
AcDbArc
 50
197.7189318734
 51
270.0
  0
SPLINE
  5
1A2
330
1F
100
AcDbEntity
  8
0
  6
Continuous
 62
     7
370
    25
100
AcDbSpline
210
0.0
220
0.0
230
1.0
 70
     8
 71
     3
 72
    15
 73
    11
 74
     0
 42
0.000000001
 43
0.00000001
 40
0.0
 40
0.0
 40
0.0
 40
0.0
 40
0.0089534934608068
 40
0.0998985020501141
 40
0.1531621750630547
 40
0.3125626131158444
 40
0.524966528186016
 40
0.6689889196484162
 40
0.9919154833883785
 40
0.9999999999999999
 40
0.9999999999999999
 40
0.9999999999999999
 40
0.9999999999999999
 10
92.26936300009552
 20
131.49877151181
 30
0.0
 10
92.26934733642413
 20
131.4987607260408
 30
0.0
 10
92.2691725691875
 20
131.4986403839421
 30
0.0
 10
92.2637418975871
 20
131.4949217927156
 30
0.0
 10
92.24220820753422
 20
131.4802112111561
 30
0.0
 10
92.19450116124165
 20
131.4477618395451
 30
0.0
 10
92.12211135307167
 20
131.3991783617306
 30
0.0
 10
92.02019168750533
 20
131.3318069683785
 30
0.0
 10
91.94483556798829
 20
131.282995591112
 30
0.0
 10
91.89243686392808
 20
131.2495874220603
 30
0.0
 10
91.89115709349576
 20
131.2487714708318
 30
0.0
  0
SPLINE
  5
1A3
330
1F
100
AcDbEntity
  8
0
  6
Continuous
 62
     7
370
    25
100
AcDbSpline
210
0.0
220
0.0
230
1.0
 70
     8
 71
     3
 72
    15
 73
    11
 74
     0
 42
0.000000001
 43
0.00000001
 40
0.0
 40
0.0
 40
0.0
 40
0.0
 40
0.0080845166116213
 40
0.3310110803515837
 40
0.4750334718139839
 40
0.6874373868841556
 40
0.8468378249369453
 40
0.9001014979498858
 40
0.9910465065391931
 40
0.9999999999999999
 40
0.9999999999999999
 40
0.9999999999999999
 40
0.9999999999999999
 10
91.89115709349576
 20
128.7487715267112
 30
0.0
 10
91.89243686392808
 20
128.7479555754826
 30
0.0
 10
91.94483556798832
 20
128.714547406431
 30
0.0
 10
92.02019168750532
 20
128.6657360291645
 30
0.0
 10
92.12211135307167
 20
128.5983646358124
 30
0.0
 10
92.19450116124165
 20
128.5497811579979
 30
0.0
 10
92.24220820753422
 20
128.5173317863869
 30
0.0
 10
92.2637418975871
 20
128.5026212048274
 30
0.0
 10
92.26917256918752
 20
128.4989026136009
 30
0.0
 10
92.26934733642413
 20
128.4987822715023
 30
0.0
 10
92.26936300009552
 20
128.498771485733
 30
0.0
  0
ARC
  5
1A4
330
1F
100
AcDbEntity
  8
0
  6
Continuous
 62
     7
370
    25
100
AcDbCircle
 10
92.2693631672
 20
128.2487714988
 30
0.0
 40
0.25
100
AcDbArc
 50
90.0
 51
162.2810681266
  0
LINE
  5
1A5
330
1F
100
AcDbEntity
  8
0
  6
Continuous
 62
     7
370
    25
100
AcDbLine
 10
81.7921377039
 20
129.3987714703
 30
0.0
 11
91.7921374804
 21
129.3987714703
 31
0.0
  0
LINE
  5
1A6
330
1F
100
AcDbEntity
  8
0
  6
Continuous
 62
     7
370
    25
100
AcDbLine
 10
81.7921377039
 20
130.5987715273
 30
0.0
 11
81.7921377039
 21
129.3987714703
 31
0.0
  0
LINE
  5
1A7
330
1F
100
AcDbEntity
  8
0
  6
Continuous
 62
     7
370
    25
100
AcDbLine
 10
91.7921374804
 20
129.3987714703
 30
0.0
 11
91.7921374804
 21
130.5987715273
 31
0.0
  0
LINE
  5
1A8
330
1F
100
AcDbEntity
  8
0
  6
Continuous
 62
     7
370
    25
100
AcDbLine
 10
91.7921374804
 20
130.5987715273
 30
0.0
 11
81.7921377039
 21
130.5987715273
 31
0.0
  0
LINE
  5
1A9
330
1F
100
AcDbEntity
  8
0
  6
Continuous
 62
     7
370
    25
100
AcDbLine
 10
92.5421376033
 20
131.2487714708
 30
0.0
 11
91.8911570935
 21
131.2487714708
 31
0.0
  0
LINE
  5
1AA
330
1F
100
AcDbEntity
  8
0
  6
Continuous
 62
     7
370
    25
100
AcDbLine
 10
92.5421376033
 20
128.7487715267
 30
0.0
 11
92.5421376033
 21
131.2487714708
 31
0.0
  0
LINE
  5
1AB
330
1F
100
AcDbEntity
  8
0
  6
Continuous
 62
     7
370
    25
100
AcDbLine
 10
91.8911570935
 20
128.7487715267
 30
0.0
 11
92.5421376033
 21
128.7487715267
 31
0.0
  0
LINE
  5
1AC
330
1F
100
AcDbEntity
  8
0
  6
Continuous
 62
     7
370
    25
100
AcDbLine
 10
81.042137581
 20
128.7487715267
 30
0.0
 11
81.6931180908
 21
128.7487715267
 31
0.0
  0
LINE
  5
1AD
330
1F
100
AcDbEntity
  8
0
  6
Continuous
 62
     7
370
    25
100
AcDbLine
 10
81.042137581
 20
131.2487714708
 30
0.0
 11
81.042137581
 21
128.7487715267
 31
0.0
  0
LINE
  5
1AE
330
1F
100
AcDbEntity
  8
0
  6
Continuous
 62
     7
370
    25
100
AcDbLine
 10
81.6931180908
 20
131.2487714708
 30
0.0
 11
81.042137581
 21
131.2487714708
 31
0.0
  0
LINE
  5
1AF
330
1F
100
AcDbEntity
  8
0
  6
Continuous
 62
     7
370
    25
100
AcDbLine
 10
81.042137581
 20
131.4987715118
 30
0.0
 11
81.042137581
 21
131.2487714708
 31
0.0
  0
LINE
  5
1B0
330
1F
100
AcDbEntity
  8
0
  6
Continuous
 62
     7
370
    25
100
AcDbLine
 10
81.042137581
 20
131.4987715118
 30
0.0
 11
81.3149121842
 21
131.4987715118
 31
0.0
  0
LINE
  5
1B1
330
1F
100
AcDbEntity
  8
0
  6
Continuous
 62
     7
370
    25
100
AcDbLine
 10
81.042137581
 20
131.2487714708
 30
0.0
 11
80.79213754
 21
131.2487714708
 31
0.0
  0
ARC
  5
1B2
330
1F
100
AcDbEntity
  8
0
  6
Continuous
 62
     7
370
    25
100
AcDbCircle
 10
81.0421375921
 20
131.2487714988
 30
0.0
 40
0.25
100
AcDbArc
 50
90.0
 51
180.0
  0
LINE
  5
1B3
330
1F
100
AcDbEntity
  8
0
  6
Continuous
 62
     7
370
    25
100
AcDbLine
 10
80.79213754
 20
128.7487715267
 30
0.0
 11
81.042137581
 21
128.7487715267
 31
0.0
  0
LINE
  5
1B4
330
1F
100
AcDbEntity
  8
0
  6
Continuous
 62
     7
370
    25
100
AcDbLine
 10
80.79213754
 20
128.7487715267
 30
0.0
 11
80.79213754
 21
131.2487714708
 31
0.0
  0
ARC
  5
1B5
330
1F
100
AcDbEntity
  8
0
  6
Continuous
 62
     7
370
    25
100
AcDbCircle
 10
92.5421375921
 20
131.2487714988
 30
0.0
 40
0.25
100
AcDbArc
 50
0.0
 51
90.0
  0
LINE
  5
1B6
330
1F
100
AcDbEntity
  8
0
  6
Continuous
 62
     7
370
    25
100
AcDbLine
 10
92.7921376443
 20
131.2487714708
 30
0.0
 11
92.5421376033
 21
131.2487714708
 31
0.0
  0
LINE
  5
1B7
330
1F
100
AcDbEntity
  8
0
  6
Continuous
 62
     7
370
    25
100
AcDbLine
 10
92.5421376033
 20
131.2487714708
 30
0.0
 11
92.5421376033
 21
131.4987715118
 31
0.0
  0
LINE
  5
1B8
330
1F
100
AcDbEntity
  8
0
  6
Continuous
 62
     7
370
    25
100
AcDbLine
 10
92.7921376443
 20
131.2487714708
 30
0.0
 11
92.7921376443
 21
128.7487715267
 31
0.0
  0
LINE
  5
1B9
330
1F
100
AcDbEntity
  8
0
  6
Continuous
 62
     7
370
    25
100
AcDbLine
 10
92.5421376033
 20
128.7487715267
 30
0.0
 11
92.7921376443
 21
128.7487715267
 31
0.0
  0
LINE
  5
1BA
330
1F
100
AcDbEntity
  8
0
  6
Continuous
 62
     7
370
    25
100
AcDbLine
 10
92.2693630001
 20
131.4987715118
 30
0.0
 11
92.5421376033
 21
131.4987715118
 31
0.0
  0
LINE
  5
1BB
330
1F
100
AcDbEntity
  8
0
  6
Continuous
 62
     7
370
    25
100
AcDbLine
 10
81.3149121842
 20
128.4987714857
 30
0.0
 11
81.042137581
 21
128.4987714857
 31
0.0
  0
LINE
  5
1BC
330
1F
100
AcDbEntity
  8
0
  6
Continuous
 62
     7
370
    25
100
AcDbLine
 10
81.042137581
 20
128.7487715267
 30
0.0
 11
81.042137581
 21
128.4987714857
 31
0.0
  0
ARC
  5
1BD
330
1F
100
AcDbEntity
  8
0
  6
Continuous
 62
     7
370
    25
100
AcDbCircle
 10
81.0421375921
 20
128.7487714988
 30
0.0
 40
0.25
100
AcDbArc
 50
180.0
 51
270.0
  0
LINE
  5
1BE
330
1F
100
AcDbEntity
  8
0
  6
Continuous
 62
     7
370
    25
100
AcDbLine
 10
92.5421376033
 20
128.4987714857
 30
0.0
 11
92.5421376033
 21
128.7487715267
 31
0.0
  0
LINE
  5
1BF
330
1F
100
AcDbEntity
  8
0
  6
Continuous
 62
     7
370
    25
100
AcDbLine
 10
92.5421376033
 20
128.4987714857
 30
0.0
 11
92.2693630001
 21
128.4987714857
 31
0.0
  0
ARC
  5
1C0
330
1F
100
AcDbEntity
  8
0
  6
Continuous
 62
     7
370
    25
100
AcDbCircle
 10
92.5421375921
 20
128.7487714988
 30
0.0
 40
0.25
100
AcDbArc
 50
270.0
 51
0.0
  0
LINE
  5
1C1
330
1F
100
AcDbEntity
  8
0
  6
Continuous
 62
     1
370
    25
100
AcDbLine
 10
93.7921378082
 20
123.2706406404
 30
0.0
 11
93.7921378082
 21
124.7024592262
 31
0.0
  0
LINE
  5
1C2
330
1F
100
AcDbEntity
  8
0
  6
Continuous
 62
     1
370
    25
100
AcDbLine
 10
93.7921378082
 20
135.2950837713
 30
0.0
 11
93.7921378082
 21
136.7269023572
 31
0.0
  0
LINE
  5
1C3
330
1F
100
AcDbEntity
  8
0
  6
Continuous
 62
     1
370
    25
100
AcDbLine
 10
79.7921373761
 20
136.7269023572
 30
0.0
 11
79.7921373761
 21
132.5487715908
 31
0.0
  0
LINE
  5
1C4
330
1F
100
AcDbEntity
  8
0
  6
Continuous
 62
     1
370
    25
100
AcDbLine
 10
79.7921373761
 20
127.4487714068
 30
0.0
 11
79.7921373761
 21
123.2706406404
 31
0.0
  0
LINE
  5
1C5
330
1F
100
AcDbEntity
  8
0
  6
Continuous
 62
     1
370
    25
100
AcDbLine
 10
93.7921378082
 20
136.7269023572
 30
0.0
 11
89.9913177146
 21
136.7269023572
 31
0.0
  0
LINE
  5
1C6
330
1F
100
AcDbEntity
  8
0
  6
Continuous
 62
     1
370
    25
100
AcDbLine
 10
83.5929574697
 20
136.7269023572
 30
0.0
 11
79.7921373761
 21
136.7269023572
 31
0.0
  0
LINE
  5
1C7
330
1F
100
AcDbEntity
  8
0
  6
Continuous
 62
     1
370
    25
100
AcDbLine
 10
79.7921373761
 20
123.2706406404
 30
0.0
 11
83.5929574697
 21
123.2706406404
 31
0.0
  0
LINE
  5
1C8
330
1F
100
AcDbEntity
  8
0
  6
Continuous
 62
     1
370
    25
100
AcDbLine
 10
89.9913177146
 20
123.2706406404
 30
0.0
 11
93.7921378082
 21
123.2706406404
 31
0.0
  0
LINE
  5
1C9
330
1F
100
AcDbEntity
  8
0
  6
Continuous
 62
     1
370
    25
100
AcDbLine
 10
79.7921373761
 20
137.1226748702
 30
0.0
 11
84.6121147061
 21
137.1226748702
 31
0.0
  0
LINE
  5
1CA
330
1F
100
AcDbEntity
  8
0
  6
Continuous
 62
     1
370
    25
100
AcDbLine
 10
88.9721604782
 20
137.1226748702
 30
0.0
 11
93.7921378082
 21
137.1226748702
 31
0.0
  0
LINE
  5
1CB
330
1F
100
AcDbEntity
  8
0
  6
Continuous
 62
     1
370
    25
100
AcDbLine
 10
93.7921378082
 20
122.8748681274
 30
0.0
 11
88.9721604782
 21
122.8748681274
 31
0.0
  0
LINE
  5
1CC
330
1F
100
AcDbEntity
  8
0
  6
Continuous
 62
     1
370
    25
100
AcDbLine
 10
84.6121147061
 20
122.8748681274
 30
0.0
 11
79.7921373761
 21
122.8748681274
 31
0.0
  0
LINE
  5
1CD
330
1F
100
AcDbEntity
  8
0
  6
Continuous
 62
     7
370
    25
100
AcDbLine
 10
167.8203933424
 20
70.4046218233
 30
0.0
 11
167.8203933424
 21
72.830589539
 31
0.0
  0
LINE
  5
1CE
330
1F
100
AcDbEntity
  8
0
  6
Continuous
 62
     7
370
    25
100
AcDbLine
 10
156.0203928984
 20
72.830589539
 30
0.0
 11
156.0203928984
 21
71.3305892932
 31
0.0
  0
ARC
  5
1CF
330
1F
100
AcDbEntity
  8
0
  6
Continuous
 62
     7
370
    25
100
AcDbCircle
 10
156.0203931204
 20
70.8305896806
 30
0.0
 40
0.5
100
AcDbArc
 50
90.0
 51
180.0
  0
LINE
  5
1D0
330
1F
100
AcDbEntity
  8
0
  6
Continuous
 62
     7
370
    25
100
AcDbLine
 10
169.3703930377
 20
80.830589919
 30
0.0
 11
167.4203930906
 21
88.8305893677
 31
0.0
  0
LINE
  5
1D1
330
1F
100
AcDbEntity
  8
0
  6
Continuous
 62
     7
370
    25
100
AcDbLine
 10
156.4203931502
 20
88.8305893677
 30
0.0
 11
154.4703932031
 21
80.830589919
 31
0.0
  0
LINE
  5
1D2
330
1F
100
AcDbEntity
  8
0
  6
Continuous
 62
     7
370
    25
100
AcDbLine
 10
154.4703932031
 20
80.830589919
 30
0.0
 11
154.9203929043
 21
72.830589539
 31
0.0
  0
LINE
  5
1D3
330
1F
100
AcDbEntity
  8
0
  6
Continuous
 62
     7
370
    25
100
AcDbLine
 10
168.9203933365
 20
72.830589539
 30
0.0
 11
169.3703930377
 21
80.830589919
 31
0.0
  0
ARC
  5
1D4
330
1F
100
AcDbEntity
  8
0
  6
Continuous
 62
     7
370
    25
100
AcDbCircle
 10
167.1703931204
 20
89.4305896806
 30
0.0
 40
0.25
100
AcDbArc
 50
0.0
 51
90.0
  0
ARC
  5
1D5
330
1F
100
AcDbEntity
  8
0
  6
Continuous
 62
     7
370
    25
100
AcDbCircle
 10
156.6703931204
 20
89.4305896806
 30
0.0
 40
0.25
100
AcDbArc
 50
90.0
 51
180.0
  0
LINE
  5
1D6
330
1F
100
AcDbEntity
  8
0
  6
Continuous
 62
     7
370
    25
100
AcDbLine
 10
167.4203930906
 20
88.8305893677
 30
0.0
 11
167.4203930906
 21
89.4305902111
 31
0.0
  0
LINE
  5
1D7
330
1F
100
AcDbEntity
  8
0
  6
Continuous
 62
     7
370
    25
100
AcDbLine
 10
156.4203931502
 20
89.4305902111
 30
0.0
 11
156.4203931502
 21
88.8305893677
 31
0.0
  0
CIRCLE
  5
1D8
330
1F
100
AcDbEntity
  8
0
  6
Continuous
 62
     7
370
    25
100
AcDbCircle
 10
161.9203931204
 20
62.3305896806
 30
0.0
 40
9.5
  0
CIRCLE
  5
1D9
330
1F
100
AcDbEntity
  8
0
  6
Continuous
 62
     7
370
    25
100
AcDbCircle
 10
161.9203931204
 20
62.3305896806
 30
0.0
 40
8.625
  0
CIRCLE
  5
1DA
330
1F
100
AcDbEntity
  8
0
  6
Continuous
 62
     7
370
    25
100
AcDbCircle
 10
161.9203931204
 20
62.3305896806
 30
0.0
 40
10.0
  0
CIRCLE
  5
1DB
330
1F
100
AcDbEntity
  8
0
  6
Continuous
 62
     7
370
    25
100
AcDbCircle
 10
161.9203931204
 20
62.3305896806
 30
0.0
 40
7.624999999999972
  0
CIRCLE
  5
1DC
330
1F
100
AcDbEntity
  8
0
  6
Continuous
 62
     7
370
    25
100
AcDbCircle
 10
161.9203931204
 20
62.3305896806
 30
0.0
 40
3.0
  0
SPLINE
  5
1DD
330
1F
100
AcDbEntity
  8
0
  6
Continuous
 62
     7
370
    25
100
AcDbSpline
210
0.0
220
0.0
230
1.0
 70
     8
 71
     3
 72
    13
 73
     9
 74
     0
 42
0.000000001
 43
0.00000001
 40
0.0
 40
0.0
 40
0.0
 40
0.0
 40
0.077394307642676
 40
0.3034590659589863
 40
0.5316933781747615
 40
0.762366244094828
 40
0.9919700872031596
 40
1.0
 40
1.0
 40
1.0
 40
1.0
 10
156.1027450970261
 20
70.43136661372323
 30
0.0
 10
156.1026687475271
 20
70.46932588662378
 30
0.0
 10
156.1023693851012
 20
70.61816222678537
 30
0.0
 10
156.0830659463462
 20
70.8617960616551
 30
0.0
 10
156.0541358957944
 20
71.11849391648319
 30
0.0
 10
156.0277489490327
 20
71.28783917957955
 30
0.0
 10
156.0204742989075
 20
71.3301312099637
 30
0.0
 10
156.0203955590736
 20
71.33057431997219
 30
0.0
 10
156.0203928983658
 20
71.33058929315943
 30
0.0
  0
LINE
  5
1DE
330
1F
100
AcDbEntity
  8
0
  6
Continuous
 62
     7
370
    25
100
AcDbLine
 10
155.5203932821
 20
70.3305900606
 30
0.0
 11
155.5203932821
 21
70.8305901425
 31
0.0
  0
LINE
  5
1DF
330
1F
100
AcDbEntity
  8
0
  6
Continuous
 62
     7
370
    25
100
AcDbLine
 10
155.5203932821
 20
70.0143389913
 30
0.0
 11
155.5203932821
 21
70.3305900606
 31
0.0
  0
LINE
  5
1E0
330
1F
100
AcDbEntity
  8
0
  6
Continuous
 62
     7
370
    25
100
AcDbLine
 10
158.4203930124
 20
90.8305896955
 30
0.0
 11
165.4203932284
 21
90.8305896955
 31
0.0
  0
LINE
  5
1E1
330
1F
100
AcDbEntity
  8
0
  6
Continuous
 62
     7
370
    25
100
AcDbLine
 10
165.4203932284
 20
83.8305904107
 30
0.0
 11
165.4203932284
 21
90.8305896955
 31
0.0
  0
LINE
  5
1E2
330
1F
100
AcDbEntity
  8
0
  6
Continuous
 62
     7
370
    25
100
AcDbLine
 10
158.4203930124
 20
83.8305904107
 30
0.0
 11
165.4203932284
 21
83.8305904107
 31
0.0
  0
LINE
  5
1E3
330
1F
100
AcDbEntity
  8
0
  6
Continuous
 62
     7
370
    25
100
AcDbLine
 10
158.4203930124
 20
90.8305896955
 30
0.0
 11
158.4203930124
 21
83.8305904107
 31
0.0
  0
LINE
  5
1E4
330
1F
100
AcDbEntity
  8
0
  6
Continuous
 62
     7
370
    25
100
AcDbLine
 10
165.4203932284
 20
78.8305895912
 30
0.0
 11
158.4203930124
 21
78.8305895912
 31
0.0
  0
LINE
  5
1E5
330
1F
100
AcDbEntity
  8
0
  6
Continuous
 62
     7
370
    25
100
AcDbLine
 10
158.4203930124
 20
78.8305895912
 30
0.0
 11
158.4203930124
 21
83.8305904107
 31
0.0
  0
LINE
  5
1E6
330
1F
100
AcDbEntity
  8
0
  6
Continuous
 62
     7
370
    25
100
AcDbLine
 10
165.4203932284
 20
83.8305904107
 30
0.0
 11
165.4203932284
 21
78.8305895912
 31
0.0
  0
SPLINE
  5
1E7
330
1F
100
AcDbEntity
  8
0
  6
Continuous
 62
     7
370
    25
100
AcDbSpline
210
0.0
220
0.0
230
1.0
 70
     8
 71
     3
 72
    11
 73
     7
 74
     0
 42
0.000000001
 43
0.00000001
 40
0.0
 40
0.0
 40
0.0
 40
0.0
 40
0.2488465959137647
 40
0.4976945924499491
 40
0.7488461206779728
 40
1.0
 40
1.0
 40
1.0
 40
1.0
 10
165.4203932284265
 20
78.58276465407748
 30
0.0
 10
165.425084726874
 20
78.51324049823289
 30
0.0
 10
165.4344677501748
 20
78.37419179522992
 30
0.0
 10
165.5108897905389
 20
78.07386210919019
 30
0.0
 10
165.6286156917104
 20
77.7119537608741
 30
0.0
 10
165.7469247246145
 20
77.4103616062549
 30
0.0
 10
165.8060795179456
 20
77.25956482312817
 30
0.0
  0
LINE
  5
1E8
330
1F
100
AcDbEntity
  8
0
  6
Continuous
 62
     7
370
    25
100
AcDbLine
 10
165.8060795179
 20
77.2595648231
 30
0.0
 11
158.0347067228
 21
77.2595648231
 31
0.0
  0
SPLINE
  5
1E9
330
1F
100
AcDbEntity
  8
0
  6
Continuous
 62
     7
370
    25
100
AcDbSpline
210
0.0
220
0.0
230
1.0
 70
     8
 71
     3
 72
    11
 73
     7
 74
     0
 42
0.000000001
 43
0.00000001
 40
0.0
 40
0.0
 40
0.0
 40
0.0
 40
0.248860712681952
 40
0.4977192115733558
 40
0.7488602656597823
 40
1.0
 40
1.0
 40
1.0
 40
1.0
 10
158.0347067228406
 20
77.25956482312819
 30
0.0
 10
158.0933603193538
 20
77.40904386015411
 30
0.0
 10
158.2106669906154
 20
77.7080006044851
 30
0.0
 10
158.3287023857812
 20
78.0698043633192
 30
0.0
 10
158.4060573630966
 20
78.37207942274802
 30
0.0
 10
158.4156144709758
 20
78.51253636665153
 30
0.0
 10
158.4203930123597
 20
78.58276465407748
 30
0.0
  0
LINE
  5
1EA
330
1F
100
AcDbEntity
  8
0
  6
Continuous
 62
     7
370
    25
100
AcDbLine
 10
158.4203930124
 20
78.5827646541
 30
0.0
 11
158.4203930124
 21
78.8305895912
 31
0.0
  0
LINE
  5
1EB
330
1F
100
AcDbEntity
  8
0
  6
Continuous
 62
     7
370
    25
100
AcDbLine
 10
165.4203932284
 20
78.8305895912
 30
0.0
 11
165.4203932284
 21
78.5827646541
 31
0.0
  0
SPLINE
  5
1EC
330
1F
100
AcDbEntity
  8
0
  6
Continuous
 62
     7
370
    25
100
AcDbSpline
210
0.0
220
0.0
230
1.0
 70
     8
 71
     3
 72
    17
 73
    13
 74
     0
 42
0.000000001
 43
0.00000001
 40
0.0
 40
0.0
 40
0.0
 40
0.0
 40
0.3241697917523345
 40
0.5422758587479237
 40
0.689509089275669
 40
0.7894035981534984
 40
0.8577089567094359
 40
0.9049823628410104
 40
0.9551711781537311
 40
0.9753097815865951
 40
0.991957189245944
 40
1.0
 40
1.0
 40
1.0
 40
1.0
 10
167.8769800363927
 20
80.8305899190082
 30
0.0
 10
167.9176304408484
 20
79.9179762662916
 30
0.0
 10
167.9856310181555
 20
78.39134311038643
 30
0.0
 10
168.0970645377468
 20
76.46457019301774
 30
0.0
 10
168.1895690704028
 20
75.17693476892526
 30
0.0
 10
168.2674705126708
 20
74.31778305296905
 30
0.0
 10
168.3335227101966
 20
73.74431536520979
 30
0.0
 10
168.3968796597614
 20
73.32278300543015
 30
0.0
 10
168.4550054667461
 20
73.04229114223517
 30
0.0
 10
168.5143481272943
 20
72.8867409475486
 30
0.0
 10
168.5513535924974
 20
72.83613153140972
 30
0.0
 10
168.5730484623628
 20
72.83195125827841
 30
0.0
 10
168.5801155417114
 20
72.8305895390286
 30
0.0
  0
LINE
  5
1ED
330
1F
100
AcDbEntity
  8
0
  6
Continuous
 62
     7
370
    25
100
AcDbLine
 10
168.5801155417
 20
72.830589539
 30
0.0
 11
167.3388530052
 21
72.830589539
 31
0.0
  0
SPLINE
  5
1EE
330
1F
100
AcDbEntity
  8
0
  6
Continuous
 62
     7
370
    25
100
AcDbSpline
210
0.0
220
0.0
230
1.0
 70
     8
 71
     3
 72
    14
 73
    10
 74
     0
 42
0.000000001
 43
0.00000001
 40
0.0
 40
0.0
 40
0.0
 40
0.0
 40
0.1576094553927752
 40
0.315238234353942
 40
0.4726925966125388
 40
0.6301651045756322
 40
0.790731299294198
 40
0.9513051076307096
 40
1.0
 40
1.0
 40
1.0
 40
1.0
 10
167.3388530052154
 20
72.8305895390286
 30
0.0
 10
167.3223478256913
 20
73.0440912162756
 30
0.0
 10
167.2893354430399
 20
73.47112074695457
 30
0.0
 10
167.2095314738211
 20
74.05636820646535
 30
0.0
 10
167.111744033961
 20
74.57852273392842
 30
0.0
 10
166.9981541109183
 20
75.02750094800804
 30
0.0
 10
166.8736122119989
 20
75.38678312118002
 30
0.0
 10
166.7732543720849
 20
75.59134886355307
 30
0.0
 10
166.7164690383203
 20
75.67214360832233
 30
0.0
 10
166.7032556160241
 20
75.69094379863877
 30
0.0
  0
ELLIPSE
  5
1EF
330
1F
100
AcDbEntity
  8
0
  6
Continuous
 62
     7
370
    25
100
AcDbEllipse
 10
230.4203931204
 20
79.1784641129
 30
0.0
 11
65.0
 21
-2.131628207280301E-13
 31
0.0
210
0.0
220
0.0
230
1.0
 40
0.2713992096
 41
3.250583596323201
 42
3.340598221070267
  0
LINE
  5
1F0
330
1F
100
AcDbEntity
  8
0
  6
Continuous
 62
     7
370
    25
100
AcDbLine
 10
165.4203932284
 20
81.8253336983
 30
0.0
 11
168.0971409677
 21
81.8253336983
 31
0.0
  0
SPLINE
  5
1F1
330
1F
100
AcDbEntity
  8
0
  6
Continuous
 62
     7
370
    25
100
AcDbSpline
210
0.0
220
0.0
230
1.0
 70
     8
 71
     3
 72
     9
 73
     5
 74
     0
 42
0.000000001
 43
0.00000001
 40
0.0
 40
0.0
 40
0.0
 40
0.0
 40
0.4978404435797771
 40
1.0
 40
1.0
 40
1.0
 40
1.0
 10
168.0971409677415
 20
81.82533369830985
 30
0.0
 10
168.0570378427536
 20
81.66882241851894
 30
0.0
 10
167.9764836702169
 20
81.35444201449732
 30
0.0
 10
167.9102432809061
 20
81.0057093560722
 30
0.0
 10
167.8769800363927
 20
80.8305899190082
 30
0.0
  0
SPLINE
  5
1F2
330
1F
100
AcDbEntity
  8
0
  6
Continuous
 62
     7
370
    25
100
AcDbSpline
210
0.0
220
0.0
230
1.0
 70
     8
 71
     3
 72
    16
 73
    12
 74
     0
 42
0.000000001
 43
0.00000001
 40
0.0
 40
0.0
 40
0.0
 40
0.0
 40
0.0155634440295776
 40
0.0359329575919142
 40
0.0739121561247688
 40
0.1570057919676931
 40
0.240658163019504
 40
0.4592958108389031
 40
0.6783838528485865
 40
0.8974954826540263
 40
1.0
 40
1.0
 40
1.0
 40
1.0
 10
155.2606706990748
 20
72.8305895390286
 30
0.0
 10
155.2743643837272
 20
72.83578287143516
 30
0.0
 10
155.3059804314964
 20
72.84777326332858
 30
0.0
 10
155.3614604558869
 20
72.96609953396265
 30
0.0
 10
155.4400609378925
 20
73.2773511716503
 30
0.0
 10
155.5194010800824
 20
73.80299853015262
 30
0.0
 10
155.6246294189546
 20
74.84154452127697
 30
0.0
 10
155.739622202413
 20
76.2766183424389
 30
0.0
 10
155.8420223791928
 20
78.11487048820136
 30
0.0
 10
155.911771197542
 20
79.6360535411651
 30
0.0
 10
155.9512300115576
 20
80.54188581870666
 30
0.0
 10
155.9638062043934
 20
80.8305899190082
 30
0.0
  0
SPLINE
  5
1F3
330
1F
100
AcDbEntity
  8
0
  6
Continuous
 62
     7
370
    25
100
AcDbSpline
210
0.0
220
0.0
230
1.0
 70
     8
 71
     3
 72
     9
 73
     5
 74
     0
 42
0.000000001
 43
0.00000001
 40
0.0
 40
0.0
 40
0.0
 40
0.0
 40
0.4983244219185156
 40
1.0
 40
1.0
 40
1.0
 40
1.0
 10
155.9638062043934
 20
80.83058991900822
 30
0.0
 10
155.9308034859723
 20
81.00438179872049
 30
0.0
 10
155.8645761108538
 20
81.35313428217933
 30
0.0
 10
155.7840455091884
 20
81.66758263775144
 30
0.0
 10
155.7436452730446
 20
81.82533369830985
 30
0.0
  0
ELLIPSE
  5
1F4
330
1F
100
AcDbEntity
  8
0
  6
Continuous
 62
     7
370
    25
100
AcDbEllipse
 10
93.4203931204
 20
79.1784641129
 30
0.0
 11
64.99999999999999
 21
-2.131628207280301E-13
 31
0.0
210
0.0
220
0.0
230
1.0
 40
0.2713992096
 41
6.084179739699237
 42
6.174194364446304
  0
SPLINE
  5
1F5
330
1F
100
AcDbEntity
  8
0
  6
Continuous
 62
     7
370
    25
100
AcDbSpline
210
0.0
220
0.0
230
1.0
 70
     8
 71
     3
 72
    13
 73
     9
 74
     0
 42
0.000000001
 43
0.00000001
 40
0.0
 40
0.0
 40
0.0
 40
0.0
 40
0.1610294667108458
 40
0.3266881201944549
 40
0.4877296242753278
 40
0.6535536689976723
 40
0.823760217438079
 40
1.0
 40
1.0
 40
1.0
 40
1.0
 10
157.1375306247621
 20
75.69094379863878
 30
0.0
 10
157.0937270340886
 20
75.62154665458816
 30
0.0
 10
157.0048606111463
 20
75.48075737545906
 30
0.0
 10
156.8758397985573
 20
75.13463331489889
 30
0.0
 10
156.7548302732203
 20
74.69542598627956
 30
0.0
 10
156.6481487261835
 20
74.16182437962074
 30
0.0
 10
156.557482174381
 20
73.53799806297728
 30
0.0
 10
156.5206632776427
 20
73.06911419313316
 30
0.0
 10
156.5019332355707
 20
72.8305895390286
 30
0.0
  0
LINE
  5
1F6
330
1F
100
AcDbEntity
  8
0
  6
Continuous
 62
     7
370
    25
100
AcDbLine
 10
156.5019332356
 20
72.830589539
 30
0.0
 11
155.2606706991
 21
72.830589539
 31
0.0
  0
LINE
  5
1F7
330
1F
100
AcDbEntity
  8
0
  6
Continuous
 62
     7
370
    25
100
AcDbLine
 10
155.743645273
 20
81.8253336983
 30
0.0
 11
158.4203930124
 21
81.8253336983
 31
0.0
  0
LINE
  5
1F8
330
1F
100
AcDbEntity
  8
0
  6
Continuous
 62
     7
370
    25
100
AcDbLine
 10
157.1375306248
 20
75.6909437986
 30
0.0
 11
166.703255616
 21
75.6909437986
 31
0.0
  0
SPLINE
  5
1F9
330
1F
100
AcDbEntity
  8
0
  6
Continuous
 62
     7
370
    25
100
AcDbSpline
210
0.0
220
0.0
230
1.0
 70
     8
 71
     3
 72
    20
 73
    16
 74
     0
 42
0.000000001
 43
0.00000001
 40
0.0
 40
0.0
 40
0.0
 40
0.0
 40
0.0541983892197581
 40
0.108455006629509
 40
0.1748676456855473
 40
0.2413639609389542
 40
0.328094328685751
 40
0.4149092198426188
 40
0.503182920372413
 40
0.591455333622778
 40
0.6906632499013349
 40
0.7897037756433406
 40
0.8506104381268789
 40
0.9114495354756834
 40
0.9999999999999999
 40
0.9999999999999999
 40
0.9999999999999999
 40
0.9999999999999999
 10
164.5184692478626
 20
72.8305895390286
 30
0.0
 10
164.464751968097
 20
72.92531592434787
 30
0.0
 10
164.357259697257
 20
73.11487046454155
 30
0.0
 10
164.1208444095979
 20
73.37259378689714
 30
0.0
 10
163.8257777124849
 20
73.6016927647636
 30
0.0
 10
163.4368595344322
 20
73.81007335083319
 30
0.0
 10
162.9748676421224
 20
73.96909359938205
 30
0.0
 10
162.4456598921314
 20
74.06787556260822
 30
0.0
 10
161.9014400357345
 20
74.09908709206258
 30
0.0
 10
161.3320258823642
 20
74.06158332412508
 30
0.0
 10
160.7553419907668
 20
73.9426397440733
 30
0.0
 10
160.2650144278269
 20
73.74887439439259
 30
0.0
 10
159.8921444224104
 20
73.51336070228948
 30
0.0
 10
159.5720018758281
 20
73.23958483238495
 30
0.0
 10
159.4152383592891
 20
72.9827990002248
 30
0.0
 10
159.3223169929235
 20
72.8305895390286
 30
0.0
  0
LINE
  5
1FA
330
1F
100
AcDbEntity
  8
0
  6
Continuous
 62
     7
370
    25
100
AcDbLine
 10
159.3223169929
 20
72.830589539
 30
0.0
 11
156.5019332356
 21
72.830589539
 31
0.0
  0
LINE
  5
1FB
330
1F
100
AcDbEntity
  8
0
  6
Continuous
 62
     7
370
    25
100
AcDbLine
 10
167.3388530052
 20
72.830589539
 30
0.0
 11
164.5184692479
 21
72.830589539
 31
0.0
  0
LINE
  5
1FC
330
1F
100
AcDbEntity
  8
0
  6
Continuous
 62
     7
370
    25
100
AcDbLine
 10
164.5184692479
 20
72.830589539
 30
0.0
 11
159.3223169929
 21
72.830589539
 31
0.0
  0
LINE
  5
1FD
330
1F
100
AcDbEntity
  8
0
  6
Continuous
 62
     7
370
    25
100
AcDbLine
 10
167.8769800364
 20
80.830589919
 30
0.0
 11
169.3703930377
 21
80.830589919
 31
0.0
  0
LINE
  5
1FE
330
1F
100
AcDbEntity
  8
0
  6
Continuous
 62
     7
370
    25
100
AcDbLine
 10
154.4703932031
 20
80.830589919
 30
0.0
 11
155.9638062044
 21
80.830589919
 31
0.0
  0
LINE
  5
1FF
330
1F
100
AcDbEntity
  8
0
  6
Continuous
 62
     7
370
    25
100
AcDbLine
 10
158.4203930124
 20
88.8305893677
 30
0.0
 11
156.4203931502
 21
88.8305893677
 31
0.0
  0
LINE
  5
200
330
1F
100
AcDbEntity
  8
0
  6
Continuous
 62
     7
370
    25
100
AcDbLine
 10
167.4203930906
 20
88.8305893677
 30
0.0
 11
165.4203932284
 21
88.8305893677
 31
0.0
  0
SPLINE
  5
201
330
1F
100
AcDbEntity
  8
0
  6
Continuous
 62
     7
370
    25
100
AcDbSpline
210
0.0
220
0.0
230
1.0
 70
     8
 71
     3
 72
     9
 73
     5
 74
     0
 42
0.000000001
 43
0.00000001
 40
0.0
 40
0.0
 40
0.0
 40
0.0
 40
0.4875149508301391
 40
1.0
 40
1.0
 40
1.0
 40
1.0
 10
168.5801155417114
 20
72.83058953902861
 30
0.0
 10
168.5886415943793
 20
72.83231712060011
 30
0.0
 10
168.6061303968322
 20
72.83586076899194
 30
0.0
 10
168.6224521091393
 20
72.85737903425967
 30
0.0
 10
168.6308167426734
 20
72.86840682349343
 30
0.0
  0
SPLINE
  5
202
330
1F
100
AcDbEntity
  8
0
  6
Continuous
 62
     7
370
    25
100
AcDbSpline
210
0.0
220
0.0
230
1.0
 70
     8
 71
     3
 72
     9
 73
     5
 74
     0
 42
0.000000001
 43
0.00000001
 40
0.0
 40
0.0
 40
0.0
 40
0.0
 40
0.5124863176752154
 40
1.0
 40
1.0
 40
1.0
 40
1.0
 10
155.2099694981127
 20
72.86840682349343
 30
0.0
 10
155.2183341198599
 20
72.85737903467486
 30
0.0
 10
155.2346557687679
 20
72.83586082347927
 30
0.0
 10
155.2521446366795
 20
72.83231713543573
 30
0.0
 10
155.2606706990748
 20
72.8305895390286
 30
0.0
  0
LINE
  5
203
330
1F
100
AcDbEntity
  8
0
  6
Continuous
 62
     7
370
    25
100
AcDbLine
 10
168.6285969353
 20
72.830589539
 30
0.0
 11
168.9203933365
 21
72.830589539
 31
0.0
  0
LINE
  5
204
330
1F
100
AcDbEntity
  8
0
  6
Continuous
 62
     7
370
    25
100
AcDbLine
 10
154.9203929043
 20
72.830589539
 30
0.0
 11
155.2121893055
 21
72.830589539
 31
0.0
  0
LINE
  5
205
330
1F
100
AcDbEntity
  8
0
  6
Continuous
 62
     7
370
    25
100
AcDbLine
 10
168.6308167427
 20
72.8684068235
 30
0.0
 11
168.6285969353
 21
72.830589539
 31
0.0
  0
LINE
  5
206
330
1F
100
AcDbEntity
  8
0
  6
Continuous
 62
     7
370
    25
100
AcDbLine
 10
168.6285969353
 20
72.830589539
 30
0.0
 11
168.5801155417
 21
72.830589539
 31
0.0
  0
LINE
  5
207
330
1F
100
AcDbEntity
  8
0
  6
Continuous
 62
     7
370
    25
100
AcDbLine
 10
155.2121893055
 20
72.830589539
 30
0.0
 11
155.2099694981
 21
72.8684068235
 31
0.0
  0
LINE
  5
208
330
1F
100
AcDbEntity
  8
0
  6
Continuous
 62
     7
370
    25
100
AcDbLine
 10
155.2606706991
 20
72.830589539
 30
0.0
 11
155.2121893055
 21
72.830589539
 31
0.0
  0
LINE
  5
209
330
1F
100
AcDbEntity
  8
0
  6
Continuous
 62
     7
370
    25
100
AcDbLine
 10
165.4203932284
 20
89.6805888551
 30
0.0
 11
167.1703930496
 21
89.6805888551
 31
0.0
  0
LINE
  5
20A
330
1F
100
AcDbEntity
  8
0
  6
Continuous
 62
     7
370
    25
100
AcDbLine
 10
156.6703931912
 20
89.6805888551
 30
0.0
 11
158.4203930124
 21
89.6805888551
 31
0.0
  0
LINE
  5
20B
330
1F
100
AcDbEntity
  8
0
  6
Continuous
 62
     1
370
    25
100
AcDbLine
 10
156.0203928984
 20
71.3305892932
 30
0.0
 11
156.0203928984
 21
70.4046218233
 31
0.0
  0
LINE
  5
20C
330
1F
100
AcDbEntity
  8
0
  6
Continuous
 62
     1
370
    25
100
AcDbLine
 10
167.4203930906
 20
89.4305902111
 30
0.0
 11
165.4203932284
 21
89.4305902111
 31
0.0
  0
LINE
  5
20D
330
1F
100
AcDbEntity
  8
0
  6
Continuous
 62
     1
370
    25
100
AcDbLine
 10
158.4203930124
 20
89.4305902111
 30
0.0
 11
156.4203931502
 21
89.4305902111
 31
0.0
  0
ENDSEC
  0
SECTION
  2
OBJECTS
  0
DICTIONARY
  5
C
330
0
100
AcDbDictionary
281
     1
  3
ACAD_GROUP
350
D
  3
ACAD_LAYOUT
350
1A
  3
ACAD_MLINESTYLE
350
17
  3
ACAD_PLOTSETTINGS
350
19
  3
ACAD_PLOTSTYLENAME
350
E
  3
ACAD_SCALELIST
350
47
  0
DICTIONARY
  5
D
102
{ACAD_REACTORS
330
C
102
}
330
C
100
AcDbDictionary
281
     1
  0
DICTIONARY
  5
1A
102
{ACAD_REACTORS
330
C
102
}
330
C
100
AcDbDictionary
281
     1
  3
Layout1
350
1E
  3
Layout2
350
26
  3
Model
350
22
  0
DICTIONARY
  5
17
102
{ACAD_REACTORS
330
C
102
}
330
C
100
AcDbDictionary
281
     1
  3
Standard
350
18
  0
DICTIONARY
  5
19
102
{ACAD_REACTORS
330
C
102
}
330
C
100
AcDbDictionary
281
     1
  0
ACDBDICTIONARYWDFLT
  5
E
102
{ACAD_REACTORS
330
C
102
}
330
C
100
AcDbDictionary
281
     1
  3
Normal
350
F
100
AcDbDictionaryWithDefault
340
F
  0
DICTIONARY
  5
47
102
{ACAD_REACTORS
330
C
102
}
330
C
100
AcDbDictionary
281
     1
  3
A0
350
48
  3
A1
350
49
  3
A2
350
4A
  3
A3
350
4B
  3
A4
350
4C
  3
A5
350
4D
  3
A6
350
4E
  3
A7
350
4F
  3
A8
350
50
  3
A9
350
51
  3
B0
350
52
  3
B1
350
53
  3
B2
350
54
  3
B3
350
55
  3
B4
350
56
  3
B5
350
57
  3
B6
350
58
  3
B7
350
59
  3
B8
350
5A
  3
B9
350
5B
  3
C0
350
5C
  3
C1
350
5D
  3
C2
350
5E
  3
C3
350
5F
  3
C4
350
60
  3
C5
350
61
  3
C6
350
62
  3
C7
350
63
  3
C8
350
64
  3
C9
350
65
  3
D0
350
66
  3
D1
350
67
  3
D2
350
68
  0
LAYOUT
  5
1E
102
{ACAD_REACTORS
330
1A
102
}
330
1A
100
AcDbPlotSettings
  1

  2
none_device
  4

  6

 40
0.0
 41
0.0
 42
0.0
 43
0.0
 44
0.0
 45
0.0
 46
0.0
 47
0.0
 48
0.0
 49
0.0
140
0.0
141
0.0
142
1.0
143
1.0
 70
   688
 72
     1
 73
     0
 74
     5
  7

 75
    16
147
1.0
148
0.0
149
0.0
100
AcDbLayout
  1
Layout1
 70
     1
 71
     1
 10
0.0
 20
0.0
 11
420.0
 21
297.0
 12
0.0
 22
0.0
 32
0.0
 14
1.0000000000E+20
 24
1.0000000000E+20
 34
1.0000000000E+20
 15
-1.0000000000E+20
 25
-1.0000000000E+20
 35
-1.0000000000E+20
146
0.0
 13
0.0
 23
0.0
 33
0.0
 16
1.0
 26
0.0
 36
0.0
 17
0.0
 27
1.0
 37
0.0
 76
     0
330
1B
  0
LAYOUT
  5
26
102
{ACAD_REACTORS
330
1A
102
}
330
1A
100
AcDbPlotSettings
  1

  2
none_device
  4

  6

 40
0.0
 41
0.0
 42
0.0
 43
0.0
 44
0.0
 45
0.0
 46
0.0
 47
0.0
 48
0.0
 49
0.0
140
0.0
141
0.0
142
1.0
143
1.0
 70
   688
 72
     1
 73
     0
 74
     5
  7

 75
    16
147
1.0
148
0.0
149
0.0
100
AcDbLayout
  1
Layout2
 70
     1
 71
     2
 10
0.0
 20
0.0
 11
0.0
 21
0.0
 12
0.0
 22
0.0
 32
0.0
 14
0.0
 24
0.0
 34
0.0
 15
0.0
 25
0.0
 35
0.0
146
0.0
 13
0.0
 23
0.0
 33
0.0
 16
1.0
 26
0.0
 36
0.0
 17
0.0
 27
1.0
 37
0.0
 76
     0
330
23
  0
LAYOUT
  5
22
102
{ACAD_REACTORS
330
1A
102
}
330
1A
100
AcDbPlotSettings
  1

  2
none_device
  4
Letter_(8.50_x_11.00_Inches)
  6

 40
6.35
 41
6.35
 42
6.35000508
 43
6.35000508
 44
215.9
 45
279.4
 46
0.0
 47
0.0
 48
0.0
 49
0.0
140
0.0
141
0.0
142
1.0
143
1.0
 70
  1712
 72
     1
 73
     0
 74
     0
  7

 75
     0
147
1.0
148
0.0
149
0.0
100
AcDbLayout
  1
Model
 70
     1
 71
     0
 10
0.0
 20
0.0
 11
297.0
 21
210.0
 12
0.0
 22
0.0
 32
0.0
 14
0.0
 24
0.0
 34
0.0
 15
297.0
 25
210.0
 35
0.0
146
0.0
 13
0.0
 23
0.0
 33
0.0
 16
1.0
 26
0.0
 36
0.0
 17
0.0
 27
1.0
 37
0.0
 76
     0
330
1F
331
29
  0
MLINESTYLE
  5
18
102
{ACAD_REACTORS
330
17
102
}
330
17
100
AcDbMlineStyle
  2
Standard
 70
     0
  3

 62
   256
 51
90.0
 52
90.0
 71
     2
 49
0.5
 62
   256
  6
BYLAYER
 49
-0.5
 62
   256
  6
BYLAYER
  0
ACDBPLACEHOLDER
  5
F
102
{ACAD_REACTORS
330
E
102
}
330
E
  0
SCALE
  5
48
102
{ACAD_REACTORS
330
47
102
}
330
47
100
AcDbScale
 70
     0
300
1:1
140
1.0
141
1.0
290
     1
  0
SCALE
  5
49
102
{ACAD_REACTORS
330
47
102
}
330
47
100
AcDbScale
 70
     0
300
1:2
140
1.0
141
2.0
290
     0
  0
SCALE
  5
4A
102
{ACAD_REACTORS
330
47
102
}
330
47
100
AcDbScale
 70
     0
300
1:4
140
1.0
141
4.0
290
     0
  0
SCALE
  5
4B
102
{ACAD_REACTORS
330
47
102
}
330
47
100
AcDbScale
 70
     0
300
1:5
140
1.0
141
5.0
290
     0
  0
SCALE
  5
4C
102
{ACAD_REACTORS
330
47
102
}
330
47
100
AcDbScale
 70
     0
300
1:8
140
1.0
141
8.0
290
     0
  0
SCALE
  5
4D
102
{ACAD_REACTORS
330
47
102
}
330
47
100
AcDbScale
 70
     0
300
1:10
140
1.0
141
10.0
290
     0
  0
SCALE
  5
4E
102
{ACAD_REACTORS
330
47
102
}
330
47
100
AcDbScale
 70
     0
300
1:16
140
1.0
141
16.0
290
     0
  0
SCALE
  5
4F
102
{ACAD_REACTORS
330
47
102
}
330
47
100
AcDbScale
 70
     0
300
1:20
140
1.0
141
20.0
290
     0
  0
SCALE
  5
50
102
{ACAD_REACTORS
330
47
102
}
330
47
100
AcDbScale
 70
     0
300
1:30
140
1.0
141
30.0
290
     0
  0
SCALE
  5
51
102
{ACAD_REACTORS
330
47
102
}
330
47
100
AcDbScale
 70
     0
300
1:40
140
1.0
141
40.0
290
     0
  0
SCALE
  5
52
102
{ACAD_REACTORS
330
47
102
}
330
47
100
AcDbScale
 70
     0
300
1:50
140
1.0
141
50.0
290
     0
  0
SCALE
  5
53
102
{ACAD_REACTORS
330
47
102
}
330
47
100
AcDbScale
 70
     0
300
1:100
140
1.0
141
100.0
290
     0
  0
SCALE
  5
54
102
{ACAD_REACTORS
330
47
102
}
330
47
100
AcDbScale
 70
     0
300
2:1
140
2.0
141
1.0
290
     0
  0
SCALE
  5
55
102
{ACAD_REACTORS
330
47
102
}
330
47
100
AcDbScale
 70
     0
300
4:1
140
4.0
141
1.0
290
     0
  0
SCALE
  5
56
102
{ACAD_REACTORS
330
47
102
}
330
47
100
AcDbScale
 70
     0
300
8:1
140
8.0
141
1.0
290
     0
  0
SCALE
  5
57
102
{ACAD_REACTORS
330
47
102
}
330
47
100
AcDbScale
 70
     0
300
10:1
140
10.0
141
1.0
290
     0
  0
SCALE
  5
58
102
{ACAD_REACTORS
330
47
102
}
330
47
100
AcDbScale
 70
     0
300
100:1
140
100.0
141
1.0
290
     0
  0
SCALE
  5
59
102
{ACAD_REACTORS
330
47
102
}
330
47
100
AcDbScale
 70
     0
300
1/128" = 1'-0"
140
0.0078125
141
12.0
290
     0
  0
SCALE
  5
5A
102
{ACAD_REACTORS
330
47
102
}
330
47
100
AcDbScale
 70
     0
300
1/64" = 1'-0"
140
0.015625
141
12.0
290
     0
  0
SCALE
  5
5B
102
{ACAD_REACTORS
330
47
102
}
330
47
100
AcDbScale
 70
     0
300
1/32" = 1'-0"
140
0.03125
141
12.0
290
     0
  0
SCALE
  5
5C
102
{ACAD_REACTORS
330
47
102
}
330
47
100
AcDbScale
 70
     0
300
1/16" = 1'-0"
140
0.0625
141
12.0
290
     0
  0
SCALE
  5
5D
102
{ACAD_REACTORS
330
47
102
}
330
47
100
AcDbScale
 70
     0
300
3/32" = 1'-0"
140
0.09375
141
12.0
290
     0
  0
SCALE
  5
5E
102
{ACAD_REACTORS
330
47
102
}
330
47
100
AcDbScale
 70
     0
300
1/8" = 1'-0"
140
0.125
141
12.0
290
     0
  0
SCALE
  5
5F
102
{ACAD_REACTORS
330
47
102
}
330
47
100
AcDbScale
 70
     0
300
3/16" = 1'-0"
140
0.1875
141
12.0
290
     0
  0
SCALE
  5
60
102
{ACAD_REACTORS
330
47
102
}
330
47
100
AcDbScale
 70
     0
300
1/4" = 1'-0"
140
0.25
141
12.0
290
     0
  0
SCALE
  5
61
102
{ACAD_REACTORS
330
47
102
}
330
47
100
AcDbScale
 70
     0
300
3/8" = 1'-0"
140
0.375
141
12.0
290
     0
  0
SCALE
  5
62
102
{ACAD_REACTORS
330
47
102
}
330
47
100
AcDbScale
 70
     0
300
1/2" = 1'-0"
140
0.5
141
12.0
290
     0
  0
SCALE
  5
63
102
{ACAD_REACTORS
330
47
102
}
330
47
100
AcDbScale
 70
     0
300
3/4" = 1'-0"
140
0.75
141
12.0
290
     0
  0
SCALE
  5
64
102
{ACAD_REACTORS
330
47
102
}
330
47
100
AcDbScale
 70
     0
300
1" = 1'-0"
140
1.0
141
12.0
290
     0
  0
SCALE
  5
65
102
{ACAD_REACTORS
330
47
102
}
330
47
100
AcDbScale
 70
     0
300
1-1/2" = 1'-0"
140
1.5
141
12.0
290
     0
  0
SCALE
  5
66
102
{ACAD_REACTORS
330
47
102
}
330
47
100
AcDbScale
 70
     0
300
3" = 1'-0"
140
3.0
141
12.0
290
     0
  0
SCALE
  5
67
102
{ACAD_REACTORS
330
47
102
}
330
47
100
AcDbScale
 70
     0
300
6" = 1'-0"
140
6.0
141
12.0
290
     0
  0
SCALE
  5
68
102
{ACAD_REACTORS
330
47
102
}
330
47
100
AcDbScale
 70
     0
300
1'-0" = 1'-0"
140
12.0
141
12.0
290
     0
  0
ENDSEC
  0
EOF
