  0
SECTION
  2
HEADER
  9
$ACADVER
  1
AC1015
  9
$ACADMAINTVER
 70
     6
  9
$DWGCODEPAGE
  3
DOS932
  9
$INSBASE
 10
0.0
 20
0.0
 30
0.0
  9
$EXTMIN
 10
0.0
 20
0.0
 30
0.0
  9
$EXTMAX
 10
297.0
 20
210.0
 30
0.0
  9
$LIMMIN
 10
0.0
 20
0.0
  9
$LIMMAX
 10
297.0
 20
210.0
  9
$ORTHOMODE
 70
     0
  9
$REGENMODE
 70
     1
  9
$FILLMODE
 70
     1
  9
$QTEXTMODE
 70
     0
  9
$MIRRTEXT
 70
     1
  9
$LTSCALE
 40
1.0
  9
$ATTMODE
 70
     1
  9
$TEXTSIZE
 40
3.5
  9
$TRACEWID
 40
1.0
  9
$TEXTSTYLE
  7
Standard
  9
$CLAYER
  8
0
  9
$CELTYPE
  6
ByLayer
  9
$CECOLOR
 62
   256
  9
$CELTSCALE
 40
1.0
  9
$DISPSILH
 70
     0
  9
$DIMSCALE
 40
1.0
  9
$DIMASZ
 40
3.556
  9
$DIMEXO
 40
1.0
  9
$DIMDLI
 40
3.75
  9
$DIMRND
 40
0.0
  9
$DIMDLE
 40
0.0
  9
$DIMEXE
 40
1.0
  9
$DIMTP
 40
0.0
  9
$DIMTM
 40
0.0
  9
$DIMTXT
 40
3.5
  9
$DIMCEN
 40
2.5
  9
$DIMTSZ
 40
0.0
  9
$DIMTOL
 70
     0
  9
$DIMLIM
 70
     0
  9
$DIMTIH
 70
     1
  9
$DIMTOH
 70
     1
  9
$DIMSE1
 70
     0
  9
$DIMSE2
 70
     0
  9
$DIMTAD
 70
     1
  9
$DIMZIN
 70
     1
  9
$DIMBLK
  1

  9
$DIMASO
 70
     1
  9
$DIMSHO
 70
     1
  9
$DIMPOST
  1

  9
$DIMAPOST
  1

  9
$DIMALT
 70
     0
  9
$DIMALTD
 70
     3
  9
$DIMALTF
 40
0.0393700787
  9
$DIMLFAC
 40
1.0
  9
$DIMTOFL
 70
     1
  9
$DIMTVP
 40
0.0
  9
$DIMTIX
 70
     0
  9
$DIMSOXD
 70
     0
  9
$DIMSAH
 70
     0
  9
$DIMBLK1
  1

  9
$DIMBLK2
  1

  9
$DIMSTYLE
  2
ISO-25
  9
$DIMCLRD
 70
     0
  9
$DIMCLRE
 70
     0
  9
$DIMCLRT
 70
     0
  9
$DIMTFAC
 40
1.0
  9
$DIMGAP
 40
1.524
  9
$DIMJUST
 70
     0
  9
$DIMSD1
 70
     0
  9
$DIMSD2
 70
     0
  9
$DIMTOLJ
 70
     0
  9
$DIMTZIN
 70
     1
  9
$DIMALTZ
 70
     0
  9
$DIMALTTZ
 70
     0
  9
$DIMUPT
 70
     0
  9
$DIMDEC
 70
     2
  9
$DIMTDEC
 70
     2
  9
$DIMALTU
 70
     2
  9
$DIMALTTD
 70
     3
  9
$DIMTXSTY
  7
Standard
  9
$DIMAUNIT
 70
     0
  9
$DIMADEC
 70
     2
  9
$DIMALTRND
 40
0.0
  9
$DIMAZIN
 70
     0
  9
$DIMDSEP
 70
    44
  9
$DIMATFIT
 70
     3
  9
$DIMFRAC
 70
     0
  9
$DIMLDRBLK
  1

  9
$DIMLUNIT
 70
     2
  9
$DIMLWD
 70
    -2
  9
$DIMLWE
 70
    -2
  9
$DIMTMOVE
 70
     0
  9
$LUNITS
 70
     2
  9
$LUPREC
 70
     2
  9
$SKETCHINC
 40
1.0
  9
$FILLETRAD
 40
10.0
  9
$AUNITS
 70
     0
  9
$AUPREC
 70
     2
  9
$MENU
  1
.
  9
$ELEVATION
 40
0.0
  9
$PELEVATION
 40
0.0
  9
$THICKNESS
 40
0.0
  9
$LIMCHECK
 70
     0
  9
$CHAMFERA
 40
0.0
  9
$CHAMFERB
 40
0.0
  9
$CHAMFERC
 40
0.0
  9
$CHAMFERD
 40
0.0
  9
$SKPOLY
 70
     0
  9
$TDCREATE
 40
2459223.424921238
  9
$TDUCREATE
 40
2459223.049921238
  9
$TDUPDATE
 40
2459223.424922141
  9
$TDUUPDATE
 40
2459223.049922141
  9
$TDINDWG
 40
0.0000000116
  9
$TDUSRTIMER
 40
0.0000000116
  9
$USRTIMER
 70
     1
  9
$ANGBASE
 50
0.0
  9
$ANGDIR
 70
     0
  9
$PDMODE
 70
     0
  9
$PDSIZE
 40
-1.0
  9
$PLINEWID
 40
0.0
  9
$SPLFRAME
 70
     0
  9
$SPLINETYPE
 70
     6
  9
$SPLINESEGS
 70
     8
  9
$HANDSEED
  5
20E
  9
$SURFTAB1
 70
     6
  9
$SURFTAB2
 70
     6
  9
$SURFTYPE
 70
     6
  9
$SURFU
 70
     6
  9
$SURFV
 70
     6
  9
$UCSBASE
  2

  9
$UCSNAME
  2

  9
$UCSORG
 10
0.0
 20
0.0
 30
0.0
  9
$UCSXDIR
 10
1.0
 20
0.0
 30
0.0
  9
$UCSYDIR
 10
0.0
 20
1.0
 30
0.0
  9
$UCSORTHOREF
  2

  9
$UCSORTHOVIEW
 70
     0
  9
$UCSORGTOP
 10
0.0
 20
0.0
 30
0.0
  9
$UCSORGBOTTOM
 10
0.0
 20
0.0
 30
0.0
  9
$UCSORGLEFT
 10
0.0
 20
0.0
 30
0.0
  9
$UCSORGRIGHT
 10
0.0
 20
0.0
 30
0.0
  9
$UCSORGFRONT
 10
0.0
 20
0.0
 30
0.0
  9
$UCSORGBACK
 10
0.0
 20
0.0
 30
0.0
  9
$PUCSBASE
  2

  9
$PUCSNAME
  2

  9
$PUCSORG
 10
0.0
 20
0.0
 30
0.0
  9
$PUCSXDIR
 10
1.0
 20
0.0
 30
0.0
  9
$PUCSYDIR
 10
0.0
 20
1.0
 30
0.0
  9
$PUCSORTHOREF
  2

  9
$PUCSORTHOVIEW
 70
     0
  9
$PUCSORGTOP
 10
0.0
 20
0.0
 30
0.0
  9
$PUCSORGBOTTOM
 10
0.0
 20
0.0
 30
0.0
  9
$PUCSORGLEFT
 10
0.0
 20
0.0
 30
0.0
  9
$PUCSORGRIGHT
 10
0.0
 20
0.0
 30
0.0
  9
$PUCSORGFRONT
 10
0.0
 20
0.0
 30
0.0
  9
$PUCSORGBACK
 10
0.0
 20
0.0
 30
0.0
  9
$USERI1
 70
     0
  9
$USERI2
 70
     0
  9
$USERI3
 70
     0
  9
$USERI4
 70
     0
  9
$USERI5
 70
     0
  9
$USERR1
 40
0.0
  9
$USERR2
 40
0.0
  9
$USERR3
 40
0.0
  9
$USERR4
 40
0.0
  9
$USERR5
 40
0.0
  9
$WORLDVIEW
 70
     1
  9
$SHADEDGE
 70
     3
  9
$SHADEDIF
 70
    70
  9
$TILEMODE
 70
     1
  9
$MAXACTVP
 70
    64
  9
$PINSBASE
 10
0.0
 20
0.0
 30
0.0
  9
$PLIMCHECK
 70
     0
  9
$PEXTMIN
 10
1.0000000000E+20
 20
1.0000000000E+20
 30
1.0000000000E+20
  9
$PEXTMAX
 10
-1.0000000000E+20
 20
-1.0000000000E+20
 30
-1.0000000000E+20
  9
$PLIMMIN
 10
0.0
 20
0.0
  9
$PLIMMAX
 10
420.0
 20
297.0
  9
$UNITMODE
 70
     0
  9
$VISRETAIN
 70
     1
  9
$PLINEGEN
 70
     0
  9
$PSLTSCALE
 70
     1
  9
$TREEDEPTH
 70
  3020
  9
$CMLSTYLE
  2
Standard
  9
$CMLJUST
 70
     0
  9
$CMLSCALE
 40
20.0
  9
$PROXYGRAPHICS
 70
     1
  9
$MEASUREMENT
 70
     1
  9
$CELWEIGHT
370
    -1
  9
$ENDCAPS
280
     0
  9
$JOINSTYLE
280
     0
  9
$LWDISPLAY
290
     1
  9
$INSUNITS
 70
     4
  9
$HYPERLINKBASE
  1

  9
$STYLESHEET
  1

  9
$XEDIT
290
     1
  9
$CEPSNTYPE
380
     0
  9
$PSTYLEMODE
290
     1
  9
$FINGERPRINTGUID
  2
{CE415FC1-1DA3-4F14-A0D0-799604490C41}
  9
$VERSIONGUID
  2
{FAEB1C32-E019-11D5-929B-00C0DF256EC4}
  9
$EXTNAMES
290
     1
  9
$PSVPSCALE
 40
0.0
  9
$OLESTARTUP
290
     0
  0
ENDSEC
  0
SECTION
  2
CLASSES
  0
CLASS
  1
ACDBDICTIONARYWDFLT
  2
AcDbDictionaryWithDefault
  3
ObjectDBX Classes
 90
        0
280
     0
281
     0
  0
CLASS
  1
VISUALSTYLE
  2
AcDbVisualStyle
  3
ObjectDBX Classes
 90
     4095
280
     0
281
     0
  0
CLASS
  1
MATERIAL
  2
AcDbMaterial
  3
ObjectDBX Classes
 90
     1153
280
     0
281
     0
  0
CLASS
  1
SCALE
  2
AcDbScale
  3
ObjectDBX Classes
 90
     1153
280
     0
281
     0
  0
CLASS
  1
TABLESTYLE
  2
AcDbTableStyle
  3
ObjectDBX Classes
 90
     4095
280
     0
281
     0
  0
CLASS
  1
MLEADERSTYLE
  2
AcDbMLeaderStyle
  3
ACDB_MLEADERSTYLE_CLASS
 90
     4095
280
     0
281
     0
  0
CLASS
  1
SUN
  2
AcDbSun
  3
SCENEOE
 90
     1153
280
     0
281
     0
  0
CLASS
  1
ACDBPLACEHOLDER
  2
AcDbPlaceHolder
  3
ObjectDBX Classes
 90
        0
280
     0
281
     0
  0
CLASS
  1
LAYOUT
  2
AcDbLayout
  3
ObjectDBX Classes
 90
        0
280
     0
281
     0
  0
ENDSEC
  0
SECTION
  2
TABLES
  0
TABLE
  2
VPORT
  5
8
330
0
100
AcDbSymbolTable
 70
     1
  0
VPORT
  5
29
330
8
100
AcDbSymbolTableRecord
100
AcDbViewportTableRecord
  2
*Active
 70
     0
 10
0.0
 20
0.0
 11
1.0
 21
1.0
 12
148.5
 22
105.0
 13
0.0
 23
0.0
 14
10.0
 24
10.0
 15
10.0
 25
10.0
 16
0.0
 26
0.0
 36
1.0
 17
0.0
 27
0.0
 37
0.0
 40
210.0
 41
1.4142857143
 42
50.0
 43
0.0
 44
0.0
 50
0.0
 51
0.0
 71
     0
 72
  2000
 73
     1
 74
     3
 75
     0
 76
     0
 77
     0
 78
     0
281
     0
 65
     1
110
0.0
120
0.0
130
0.0
111
1.0
121
0.0
131
0.0
112
0.0
122
1.0
132
0.0
 79
     0
146
0.0
  0
ENDTAB
  0
TABLE
  2
LTYPE
  5
5
330
0
100
AcDbSymbolTable
 70
     6
  0
LTYPE
  5
14
330
5
100
AcDbSymbolTableRecord
100
AcDbLinetypeTableRecord
  2
ByBlock
 70
     0
  3

 72
    65
 73
     0
 40
0.0
  0
LTYPE
  5
15
330
5
100
AcDbSymbolTableRecord
100
AcDbLinetypeTableRecord
  2
ByLayer
 70
     0
  3

 72
    65
 73
     0
 40
0.0
  0
LTYPE
  5
16
330
5
100
AcDbSymbolTableRecord
100
AcDbLinetypeTableRecord
  2
Continuous
 70
     0
  3
Solid line
 72
    65
 73
     0
 40
0.0
  0
LTYPE
  5
6E
330
5
100
AcDbSymbolTableRecord
100
AcDbLinetypeTableRecord
  2
HIDDEN
 70
     0
  3
Hidden __ __ __ __ __ __ __ __ __ __ __ __ __ __
 72
    65
 73
     2
 40
1.905
 49
1.27
 74
     0
 49
-0.635
 74
     0
  0
LTYPE
  5
6F
330
5
100
AcDbSymbolTableRecord
100
AcDbLinetypeTableRecord
  2
PHANTOM
 70
     0
  3
Phantom ______  __  __  ______  __  __  ______
 72
    65
 73
     6
 40
12.7
 49
6.35
 74
     0
 49
-1.27
 74
     0
 49
1.27
 74
     0
 49
-1.27
 74
     0
 49
1.27
 74
     0
 49
-1.27
 74
     0
  0
LTYPE
  5
70
330
5
100
AcDbSymbolTableRecord
100
AcDbLinetypeTableRecord
  2
CENTER
 70
     0
  3
Center ____ _ ____ _ ____ _ ____ _ ____ _ ____
 72
    65
 73
     4
 40
10.16
 49
6.35
 74
     0
 49
-1.27
 74
     0
 49
1.27
 74
     0
 49
-1.27
 74
     0
  0
LTYPE
  5
71
330
5
100
AcDbSymbolTableRecord
100
AcDbLinetypeTableRecord
  2
CENTERX2
 70
     0
  3
Center (2x) ________  __  ________  __  _____
 72
    65
 73
     4
 40
20.32
 49
12.7
 74
     0
 49
-2.54
 74
     0
 49
2.54
 74
     0
 49
-2.54
 74
     0
  0
LTYPE
  5
72
330
5
100
AcDbSymbolTableRecord
100
AcDbLinetypeTableRecord
  2
DOT2
 70
     0
  3
Dot (.5x) ........................................
 72
    65
 73
     2
 40
0.635
 49
0.0
 74
     0
 49
-0.635
 74
     0
  0
ENDTAB
  0
TABLE
  2
LAYER
  5
2
330
0
100
AcDbSymbolTable
 70
     1
  0
LAYER
  5
10
330
2
100
AcDbSymbolTableRecord
100
AcDbLayerTableRecord
  2
0
 70
     0
 62
     7
  6
Continuous
370
    -3
390
F
  0
ENDTAB
  0
TABLE
  2
STYLE
  5
3
330
0
100
AcDbSymbolTable
 70
     2
  0
STYLE
  5
11
330
3
100
AcDbSymbolTableRecord
100
AcDbTextStyleTableRecord
  2
Standard
 70
     0
 40
0.0
 41
1.0
 50
0.0
 71
     0
 42
3.5
  3
txt
  4
bigfont
  0
STYLE
  5
73
330
3
100
AcDbSymbolTableRecord
100
AcDbTextStyleTableRecord
  2
SLDTEXTSTYLE0
 70
     0
 40
0.0
 41
0.75
 50
0.0
 71
     0
 42
3.5
  3
TXT
  4
bigfont
  0
ENDTAB
  0
TABLE
  2
VIEW
  5
6
330
0
100
AcDbSymbolTable
 70
     0
  0
ENDTAB
  0
TABLE
  2
UCS
  5
7
330
0
100
AcDbSymbolTable
 70
     0
  0
ENDTAB
  0
TABLE
  2
APPID
  5
9
330
0
100
AcDbSymbolTable
 70
     1
  0
APPID
  5
12
330
9
100
AcDbSymbolTableRecord
100
AcDbRegAppTableRecord
  2
ACAD
 70
     0
  0
ENDTAB
  0
TABLE
  2
DIMSTYLE
  5
A
330
0
100
AcDbSymbolTable
 70
     1
100
AcDbDimStyleTable
  0
DIMSTYLE
105
27
330
A
100
AcDbSymbolTableRecord
100
AcDbDimStyleTableRecord
  2
ISO-25
 70
     0
 41
2.5
 42
0.625
 43
3.75
 44
1.25
 73
     0
 74
     0
 77
     1
 78
     8
140
2.5
141
2.5
143
0.0393700787
147
0.625
171
     3
172
     1
178
     0
271
     2
272
     2
274
     3
278
    44
283
     0
284
     8
340
11
  0
ENDTAB
  0
TABLE
  2
BLOCK_RECORD
  5
1
330
0
100
AcDbSymbolTable
 70
     1
  0
BLOCK_RECORD
  5
1F
330
1
100
AcDbSymbolTableRecord
100
AcDbBlockTableRecord
  2
*Model_Space
340
22
  0
BLOCK_RECORD
  5
1B
330
1
100
AcDbSymbolTableRecord
100
AcDbBlockTableRecord
  2
*Paper_Space
340
1E
  0
BLOCK_RECORD
  5
23
330
1
100
AcDbSymbolTableRecord
100
AcDbBlockTableRecord
  2
*Paper_Space0
340
26
  0
ENDTAB
  0
ENDSEC
  0
SECTION
  2
BLOCKS
  0
BLOCK
  5
20
330
1F
100
AcDbEntity
  8
0
100
AcDbBlockBegin
  2
*Model_Space
 70
     0
 10
0.0
 20
0.0
 30
0.0
  3
*Model_Space
  1

  0
ENDBLK
  5
21
330
1F
100
AcDbEntity
  8
0
100
AcDbBlockEnd
  0
BLOCK
  5
1C
330
1B
100
AcDbEntity
 67
     1
  8
0
100
AcDbBlockBegin
  2
*Paper_Space
 70
     0
 10
0.0
 20
0.0
 30
0.0
  3
*Paper_Space
  1

  0
ENDBLK
  5
1D
330
1B
100
AcDbEntity
 67
     1
  8
0
100
AcDbBlockEnd
  0
BLOCK
  5
24
330
23
100
AcDbEntity
  8
0
100
AcDbBlockBegin
  2
*Paper_Space0
 70
     0
 10
0.0
 20
0.0
 30
0.0
  3
*Paper_Space0
  1

  0
ENDBLK
  5
25
330
23
100
AcDbEntity
  8
0
100
AcDbBlockEnd
  0
ENDSEC
  0
SECTION
  2
ENTITIES
  0
MTEXT
  5
74
330
1F
100
AcDbEntity
  8
0
  6
Continuous
 62
     7
370
     0
100
AcDbMText
 10
148.2368550369
 20
118.4064356791
 30
0.0
 40
3.5
 41
0.0
 71
     1
 72
     1
  1
1R-BK1022
  7
SLDTEXTSTYLE0
 73
     1
 44
1.0
  0
LINE
  5
75
330
1F
100
AcDbEntity
  8
0
  6
Continuous
 62
     7
370
    25
100
AcDbLine
 10
82.8174453582
 20
82.0669530934
 30
0.0
 11
82.3174443449
 21
81.5669530115
 31
0.0
  0
LINE
  5
76
330
1F
100
AcDbEntity
  8
0
  6
Continuous
 62
     7
370
    25
100
AcDbLine
 10
82.3174443449
 20
62.5669536224
 30
0.0
 11
82.8174453582
 21
62.0669535405
 31
0.0
  0
LINE
  5
77
330
1F
100
AcDbEntity
  8
0
  6
Continuous
 62
     7
370
    25
100
AcDbLine
 10
82.8174453582
 20
62.0669535405
 30
0.0
 11
97.317444941
 21
62.0669535405
 31
0.0
  0
LINE
  5
78
330
1F
100
AcDbEntity
  8
0
  6
Continuous
 62
     7
370
    25
100
AcDbLine
 10
97.317444941
 20
82.0669530934
 30
0.0
 11
82.8174453582
 21
82.0669530934
 31
0.0
  0
ARC
  5
79
330
1F
100
AcDbEntity
  8
0
  6
Continuous
 62
     7
370
    25
100
AcDbCircle
 10
98.3174447174
 20
63.066953317
 30
0.0
 40
1.500000000000014
100
AcDbArc
 50
318.1896851042
 51
0.0
  0
ARC
  5
7A
330
1F
100
AcDbEntity
  8
0
  6
Continuous
 62
     7
370
    25
100
AcDbCircle
 10
98.3174447174
 20
81.066953317
 30
0.0
 40
1.500000000000014
100
AcDbArc
 50
0.0
 51
41.8103148958
  0
LINE
  5
7B
330
1F
100
AcDbEntity
  8
0
  6
Continuous
 62
     7
370
    25
100
AcDbLine
 10
97.317444941
 20
62.0669535405
 30
0.0
 11
99.4354782979
 21
62.0669535405
 31
0.0
  0
LINE
  5
7C
330
1F
100
AcDbEntity
  8
0
  6
Continuous
 62
     7
370
    25
100
AcDbLine
 10
99.4354782979
 20
82.0669530934
 30
0.0
 11
97.317444941
 21
82.0669530934
 31
0.0
  0
ARC
  5
7D
330
1F
100
AcDbEntity
  8
0
  6
Continuous
 62
     7
370
    25
100
AcDbCircle
 10
116.3174447174
 20
81.066953317
 30
0.0
 40
1.500000000000014
100
AcDbArc
 50
138.1896851042
 51
180.0
  0
ARC
  5
7E
330
1F
100
AcDbEntity
  8
0
  6
Continuous
 62
     7
370
    25
100
AcDbCircle
 10
116.3174447174
 20
63.066953317
 30
0.0
 40
1.500000000000014
100
AcDbArc
 50
180.0
 51
221.8103148958
  0
LINE
  5
7F
330
1F
100
AcDbEntity
  8
0
  6
Continuous
 62
     7
370
    25
100
AcDbLine
 10
131.8174440767
 20
82.0669530934
 30
0.0
 11
115.199411137
 21
82.0669530934
 31
0.0
  0
LINE
  5
80
330
1F
100
AcDbEntity
  8
0
  6
Continuous
 62
     7
370
    25
100
AcDbLine
 10
115.199411137
 20
62.0669535405
 30
0.0
 11
131.8174440767
 21
62.0669535405
 31
0.0
  0
LINE
  5
81
330
1F
100
AcDbEntity
  8
0
  6
Continuous
 62
     7
370
    25
100
AcDbLine
 10
131.8174440767
 20
62.0669535405
 30
0.0
 11
132.31744509
 21
62.5669536224
 31
0.0
  0
LINE
  5
82
330
1F
100
AcDbEntity
  8
0
  6
Continuous
 62
     7
370
    25
100
AcDbLine
 10
132.31744509
 20
81.5669530115
 30
0.0
 11
131.8174440767
 21
82.0669530934
 31
0.0
  0
ARC
  5
83
330
1F
100
AcDbEntity
  8
0
  6
Continuous
 62
     7
370
    25
100
AcDbCircle
 10
100.3174447174
 20
63.066953317
 30
0.0
 40
0.5
100
AcDbArc
 50
90.0
 51
180.0
  0
ARC
  5
84
330
1F
100
AcDbEntity
  8
0
  6
Continuous
 62
     7
370
    25
100
AcDbCircle
 10
114.3174447174
 20
63.066953317
 30
0.0
 40
0.5
100
AcDbArc
 50
0.0
 51
90.0
  0
ARC
  5
85
330
1F
100
AcDbEntity
  8
0
  6
Continuous
 62
     7
370
    25
100
AcDbCircle
 10
114.3174447174
 20
81.066953317
 30
0.0
 40
0.5
100
AcDbArc
 50
270.0
 51
0.0
  0
ARC
  5
86
330
1F
100
AcDbEntity
  8
0
  6
Continuous
 62
     7
370
    25
100
AcDbCircle
 10
100.3174447174
 20
81.066953317
 30
0.0
 40
0.5
100
AcDbArc
 50
180.0
 51
270.0
  0
LINE
  5
87
330
1F
100
AcDbEntity
  8
0
  6
Continuous
 62
     7
370
    25
100
AcDbLine
 10
100.3174445014
 20
63.566952855
 30
0.0
 11
114.3174449335
 21
63.566952855
 31
0.0
  0
LINE
  5
88
330
1F
100
AcDbEntity
  8
0
  6
Continuous
 62
     7
370
    25
100
AcDbLine
 10
101.4202603492
 20
80.5669537789
 30
0.0
 11
100.3174445014
 21
80.5669537789
 31
0.0
  0
LINE
  5
89
330
1F
100
AcDbEntity
  8
0
  6
Continuous
 62
     7
370
    25
100
AcDbLine
 10
114.3174449335
 20
80.5669537789
 30
0.0
 11
113.2174449395
 21
80.5669537789
 31
0.0
  0
LINE
  5
8A
330
1F
100
AcDbEntity
  8
0
  6
Continuous
 62
     7
370
    25
100
AcDbLine
 10
113.2174449395
 20
80.5669537789
 30
0.0
 11
113.2174449395
 21
82.5669531754
 31
0.0
  0
LINE
  5
8B
330
1F
100
AcDbEntity
  8
0
  6
Continuous
 62
     7
370
    25
100
AcDbLine
 10
101.4174444954
 20
82.5669531754
 30
0.0
 11
101.4174444954
 21
80.565008246
 31
0.0
  0
LINE
  5
8C
330
1F
100
AcDbEntity
  8
0
  6
Continuous
 62
     7
370
    25
100
AcDbLine
 10
101.8174447472
 20
98.566953004
 30
0.0
 11
99.8674448001
 21
90.5669535554
 31
0.0
  0
LINE
  5
8D
330
1F
100
AcDbEntity
  8
0
  6
Continuous
 62
     7
370
    25
100
AcDbLine
 10
99.8674448001
 20
90.5669535554
 30
0.0
 11
100.3174445014
 21
82.5669531754
 31
0.0
  0
LINE
  5
8E
330
1F
100
AcDbEntity
  8
0
  6
Continuous
 62
     7
370
    25
100
AcDbLine
 10
114.3174449335
 20
82.5669531754
 30
0.0
 11
114.3881011176
 21
83.8230707726
 31
0.0
  0
LINE
  5
8F
330
1F
100
AcDbEntity
  8
0
  6
Continuous
 62
     7
370
    25
100
AcDbLine
 10
113.070676418
 20
97.5280552215
 30
0.0
 11
112.8174446876
 21
98.566953004
 31
0.0
  0
LINE
  5
90
330
1F
100
AcDbEntity
  8
0
  6
Continuous
 62
     7
370
    25
100
AcDbLine
 10
82.3174443449
 20
72.066953317
 30
0.0
 11
82.3174443449
 21
81.5669530115
 31
0.0
  0
LINE
  5
91
330
1F
100
AcDbEntity
  8
0
  6
Continuous
 62
     7
370
    25
100
AcDbLine
 10
82.3174443449
 20
62.5669536224
 30
0.0
 11
82.3174443449
 21
72.066953317
 31
0.0
  0
LINE
  5
92
330
1F
100
AcDbEntity
  8
0
  6
Continuous
 62
     7
370
    25
100
AcDbLine
 10
82.8174453582
 20
72.066953317
 30
0.0
 11
82.8174453582
 21
62.0669535405
 31
0.0
  0
LINE
  5
93
330
1F
100
AcDbEntity
  8
0
  6
Continuous
 62
     7
370
    25
100
AcDbLine
 10
82.8174453582
 20
82.0669530934
 30
0.0
 11
82.8174453582
 21
72.066953317
 31
0.0
  0
LINE
  5
94
330
1F
100
AcDbEntity
  8
0
  6
Continuous
 62
     7
370
    25
100
AcDbLine
 10
97.317444941
 20
72.066953317
 30
0.0
 11
97.317444941
 21
82.0669530934
 31
0.0
  0
LINE
  5
95
330
1F
100
AcDbEntity
  8
0
  6
Continuous
 62
     7
370
    25
100
AcDbLine
 10
97.317444941
 20
62.0669535405
 30
0.0
 11
97.317444941
 21
72.066953317
 31
0.0
  0
LINE
  5
96
330
1F
100
AcDbEntity
  8
0
  6
Continuous
 62
     7
370
    25
100
AcDbLine
 10
99.4354782979
 20
72.066953317
 30
0.0
 11
99.4354782979
 21
62.0669535405
 31
0.0
  0
LINE
  5
97
330
1F
100
AcDbEntity
  8
0
  6
Continuous
 62
     7
370
    25
100
AcDbLine
 10
99.4354782979
 20
82.0669530934
 30
0.0
 11
99.4354782979
 21
72.066953317
 31
0.0
  0
SPLINE
  5
98
330
1F
100
AcDbEntity
  8
0
  6
Continuous
 62
     7
370
    25
100
AcDbSpline
210
0.0
220
0.0
230
1.0
 70
     8
 71
     3
 72
     8
 73
     4
 74
     0
 42
0.000000001
 43
0.00000001
 40
0.0
 40
0.0
 40
0.0
 40
0.0
 40
1.0
 40
1.0
 40
1.0
 40
1.0
 10
99.72024359207288
 20
77.46664317249736
 30
0.0
 10
99.78808001016878
 20
77.4980061136296
 30
0.0
 10
99.81744471744462
 20
77.53147427441779
 30
0.0
 10
99.81744471744462
 20
77.5669533214147
 30
0.0
  0
SPLINE
  5
99
330
1F
100
AcDbEntity
  8
0
  6
Continuous
 62
     7
370
    25
100
AcDbSpline
210
0.0
220
0.0
230
1.0
 70
     8
 71
     3
 72
    14
 73
    10
 74
     0
 42
0.000000001
 43
0.00000001
 40
0.0
 40
0.0
 40
0.0
 40
0.0
 40
0.25
 40
0.25
 40
0.5
 40
0.5
 40
0.75
 40
0.75
 40
1.0
 40
1.0
 40
1.0
 40
1.0
 10
99.58835864940448
 20
76.44818391097233
 30
0.0
 10
99.5608376615646
 20
76.56976196694836
 30
0.0
 10
99.54091773964686
 20
76.69028670396902
 30
0.0
 10
99.52525069773378
 20
76.91726296308522
 30
0.0
 10
99.5297425295355
 20
77.02423294065406
 30
0.0
 10
99.56099887487468
 20
77.20969849242421
 30
0.0
 10
99.58737145831752
 20
77.28858375352199
 30
0.0
 10
99.65020800962671
 20
77.40922154465788
 30
0.0
 10
99.68624758858644
 20
77.45092573507945
 30
0.0
 10
99.72024359207288
 20
77.46664317249736
 30
0.0
  0
SPLINE
  5
9A
330
1F
100
AcDbEntity
  8
0
  6
Continuous
 62
     7
370
    25
100
AcDbSpline
210
0.0
220
0.0
230
1.0
 70
     8
 71
     3
 72
    12
 73
     8
 74
     0
 42
0.000000001
 43
0.00000001
 40
0.0
 40
0.0
 40
0.0
 40
0.0
 40
0.5
 40
0.5
 40
0.75
 40
0.75
 40
1.0
 40
1.0
 40
1.0
 40
1.0
 10
99.81744471744462
 20
72.06695331695326
 30
0.0
 10
99.81744471744462
 20
72.80091033981873
 30
0.0
 10
99.8220021124617
 20
73.53388878488815
 30
0.0
 10
99.79481844797694
 20
74.63071289888745
 30
0.0
 10
99.77936877700036
 20
74.99586048780762
 30
0.0
 10
99.71650517521658
 20
75.724648502366
 30
0.0
 10
99.66947525185942
 20
76.08983925811192
 30
0.0
 10
99.58835864940448
 20
76.44818391097233
 30
0.0
  0
SPLINE
  5
9B
330
1F
100
AcDbEntity
  8
0
  6
Continuous
 62
     7
370
    25
100
AcDbSpline
210
0.0
220
0.0
230
1.0
 70
     8
 71
     3
 72
    12
 73
     8
 74
     0
 42
0.000000001
 43
0.00000001
 40
0.0
 40
0.0
 40
0.0
 40
0.0
 40
0.2499999999999999
 40
0.2499999999999999
 40
0.4999999999999998
 40
0.4999999999999998
 40
1.0
 40
1.0
 40
1.0
 40
1.0
 10
99.58835865128066
 20
67.68572273122251
 30
0.0
 10
99.66992395966521
 20
68.04604961178622
 30
0.0
 10
99.71641955360687
 20
68.40868245107877
 30
0.0
 10
99.77924987597369
 20
69.13625211788931
 30
0.0
 10
99.79474641021177
 20
69.50124142276799
 30
0.0
 10
99.82200583887577
 20
70.59826693497611
 30
0.0
 10
99.81744471744462
 20
71.33261724589387
 30
0.0
 10
99.81744471744462
 20
72.06695331695326
 30
0.0
  0
SPLINE
  5
9C
330
1F
100
AcDbEntity
  8
0
  6
Continuous
 62
     7
370
    25
100
AcDbSpline
210
0.0
220
0.0
230
1.0
 70
     8
 71
     3
 72
    12
 73
     8
 74
     0
 42
0.000000001
 43
0.00000001
 40
0.0
 40
0.0
 40
0.0
 40
0.0
 40
0.5000000000000018
 40
0.5000000000000018
 40
0.7500000000000009
 40
0.7500000000000009
 40
1.0
 40
1.0
 40
1.0
 40
1.0
 10
99.72024359350848
 20
66.66726346950557
 30
0.0
 10
99.65237383373893
 20
66.69864182579552
 30
0.0
 10
99.57633928266668
 20
66.83235034635683
 30
0.0
 10
99.52969468437028
 20
67.11037645603948
 30
0.0
 10
99.5252556878363
 20
67.21722264004002
 30
0.0
 10
99.54098630153435
 20
67.44410411409626
 30
0.0
 10
99.56086673139518
 20
67.5642730864012
 30
0.0
 10
99.58835865128066
 20
67.68572273122251
 30
0.0
  0
SPLINE
  5
9D
330
1F
100
AcDbEntity
  8
0
  6
Continuous
 62
     7
370
    25
100
AcDbSpline
210
0.0
220
0.0
230
1.0
 70
     8
 71
     3
 72
     8
 73
     4
 74
     0
 42
0.000000001
 43
0.00000001
 40
0.0
 40
0.0
 40
0.0
 40
0.0
 40
1.0
 40
1.0
 40
1.0
 40
1.0
 10
99.81744471744462
 20
66.56695332141469
 30
0.0
 10
99.81744471744462
 20
66.60243236810533
 30
0.0
 10
99.78808001056473
 20
66.63590052861626
 30
0.0
 10
99.72024359350848
 20
66.66726346950557
 30
0.0
  0
LINE
  5
9E
330
1F
100
AcDbEntity
  8
0
  6
Continuous
 62
     7
370
    25
100
AcDbLine
 10
99.8174448851
 20
66.5669533468
 30
0.0
 11
99.8174448851
 21
63.0669537044
 31
0.0
  0
LINE
  5
9F
330
1F
100
AcDbEntity
  8
0
  6
Continuous
 62
     7
370
    25
100
AcDbLine
 10
99.8174448851
 20
81.0669529295
 30
0.0
 11
99.8174448851
 21
77.5669532872
 31
0.0
  0
LINE
  5
A0
330
1F
100
AcDbEntity
  8
0
  6
Continuous
 62
     7
370
    25
100
AcDbLine
 10
115.199411137
 20
62.0669535405
 30
0.0
 11
115.199411137
 21
82.0669530934
 31
0.0
  0
LINE
  5
A1
330
1F
100
AcDbEntity
  8
0
  6
Continuous
 62
     7
370
    25
100
AcDbLine
 10
114.8174445498
 20
63.0669537044
 30
0.0
 11
114.8174445498
 21
66.5669533468
 31
0.0
  0
SPLINE
  5
A2
330
1F
100
AcDbEntity
  8
0
  6
Continuous
 62
     7
370
    25
100
AcDbSpline
210
0.0
220
0.0
230
1.0
 70
     8
 71
     3
 72
     8
 73
     4
 74
     0
 42
0.000000001
 43
0.00000001
 40
0.0
 40
0.0
 40
0.0
 40
0.0
 40
1.0
 40
1.0
 40
1.0
 40
1.0
 10
114.9146458413807
 20
66.66726346950557
 30
0.0
 10
114.8468094243245
 20
66.63590052861625
 30
0.0
 10
114.8174447174446
 20
66.60243236810533
 30
0.0
 10
114.8174447174446
 20
66.56695332141469
 30
0.0
  0
SPLINE
  5
A3
330
1F
100
AcDbEntity
  8
0
  6
Continuous
 62
     7
370
    25
100
AcDbSpline
210
0.0
220
0.0
230
1.0
 70
     8
 71
     3
 72
    12
 73
     8
 74
     0
 42
0.000000001
 43
0.00000001
 40
0.0
 40
0.0
 40
0.0
 40
0.0
 40
0.2499999999999993
 40
0.2499999999999993
 40
0.4999999999999987
 40
0.4999999999999987
 40
1.0
 40
1.0
 40
1.0
 40
1.0
 10
115.0465307836086
 20
67.68572273122251
 30
0.0
 10
115.074022703494
 20
67.5642730864012
 30
0.0
 10
115.0939031333549
 20
67.44410411409626
 30
0.0
 10
115.1096337470529
 20
67.21722264004
 30
0.0
 10
115.1051947505189
 20
67.11037645603946
 30
0.0
 10
115.0585501522225
 20
66.8323503463568
 30
0.0
 10
114.9825156011503
 20
66.69864182579548
 30
0.0
 10
114.9146458413807
 20
66.66726346950554
 30
0.0
  0
SPLINE
  5
A4
330
1F
100
AcDbEntity
  8
0
  6
Continuous
 62
     7
370
    25
100
AcDbSpline
210
0.0
220
0.0
230
1.0
 70
     8
 71
     3
 72
    12
 73
     8
 74
     0
 42
0.000000001
 43
0.00000001
 40
0.0
 40
0.0
 40
0.0
 40
0.0
 40
0.4999999999999998
 40
0.4999999999999998
 40
0.7499999999999999
 40
0.7499999999999999
 40
1.0
 40
1.0
 40
1.0
 40
1.0
 10
114.8174447174446
 20
72.06695331695327
 30
0.0
 10
114.8174447174446
 20
71.3329962955043
 30
0.0
 10
114.8128873224632
 20
70.60001785184812
 30
0.0
 10
114.840070986737
 20
69.5031937399546
 30
0.0
 10
114.8555206575948
 20
69.1380461517339
 30
0.0
 10
114.9183842588748
 20
68.40925813856417
 30
0.0
 10
114.9654141818542
 20
68.04406738351345
 30
0.0
 10
115.0465307836086
 20
67.68572273122251
 30
0.0
  0
SPLINE
  5
A5
330
1F
100
AcDbEntity
  8
0
  6
Continuous
 62
     7
370
    25
100
AcDbSpline
210
0.0
220
0.0
230
1.0
 70
     8
 71
     3
 72
    12
 73
     8
 74
     0
 42
0.000000001
 43
0.00000001
 40
0.0
 40
0.0
 40
0.0
 40
0.0
 40
0.2499999999999999
 40
0.2499999999999999
 40
0.4999999999999998
 40
0.4999999999999998
 40
1.0
 40
1.0
 40
1.0
 40
1.0
 10
115.0465307854847
 20
76.44818391097233
 30
0.0
 10
114.9649654763946
 20
76.08785702983096
 30
0.0
 10
114.9184698820871
 20
75.72522418989814
 30
0.0
 10
114.8556395592167
 20
74.99765452175302
 30
0.0
 10
114.8401430248569
 20
74.6326652161781
 30
0.0
 10
114.8128835959773
 20
73.53563970183818
 30
0.0
 10
114.8174447174446
 20
72.80128938944075
 30
0.0
 10
114.8174447174446
 20
72.06695331695326
 30
0.0
  0
SPLINE
  5
A6
330
1F
100
AcDbEntity
  8
0
  6
Continuous
 62
     7
370
    25
100
AcDbSpline
210
0.0
220
0.0
230
1.0
 70
     8
 71
     3
 72
    14
 73
    10
 74
     0
 42
0.000000001
 43
0.00000001
 40
0.0
 40
0.0
 40
0.0
 40
0.0
 40
0.25
 40
0.25
 40
0.5
 40
0.5
 40
0.75
 40
0.75
 40
1.0
 40
1.0
 40
1.0
 40
1.0
 10
114.9146458428163
 20
77.46664317249736
 30
0.0
 10
114.9486418463028
 20
77.45092573507945
 30
0.0
 10
114.9846814252625
 20
77.40922154465788
 30
0.0
 10
115.0475179765717
 20
77.28858375352199
 30
0.0
 10
115.0738905600145
 20
77.20969849242421
 30
0.0
 10
115.1051469053537
 20
77.02423294065406
 30
0.0
 10
115.1096387371554
 20
76.91726296308522
 30
0.0
 10
115.0939716952424
 20
76.69028670396901
 30
0.0
 10
115.0740517733246
 20
76.56976196694836
 30
0.0
 10
115.0465307854847
 20
76.44818391097233
 30
0.0
  0
SPLINE
  5
A7
330
1F
100
AcDbEntity
  8
0
  6
Continuous
 62
     7
370
    25
100
AcDbSpline
210
0.0
220
0.0
230
1.0
 70
     8
 71
     3
 72
     8
 73
     4
 74
     0
 42
0.000000001
 43
0.00000001
 40
0.0
 40
0.0
 40
0.0
 40
0.0
 40
1.0
 40
1.0
 40
1.0
 40
1.0
 10
114.8174447174446
 20
77.5669533214147
 30
0.0
 10
114.8174447174446
 20
77.53147427441779
 30
0.0
 10
114.8468094247204
 20
77.4980061136296
 30
0.0
 10
114.9146458428163
 20
77.46664317249736
 30
0.0
  0
LINE
  5
A8
330
1F
100
AcDbEntity
  8
0
  6
Continuous
 62
     7
370
    25
100
AcDbLine
 10
114.8174445498
 20
77.5669532872
 30
0.0
 11
114.8174445498
 21
81.0669529295
 31
0.0
  0
LINE
  5
A9
330
1F
100
AcDbEntity
  8
0
  6
Continuous
 62
     7
370
    25
100
AcDbLine
 10
131.8174440767
 20
72.066953317
 30
0.0
 11
131.8174440767
 21
82.0669530934
 31
0.0
  0
LINE
  5
AA
330
1F
100
AcDbEntity
  8
0
  6
Continuous
 62
     7
370
    25
100
AcDbLine
 10
131.8174440767
 20
62.0669535405
 30
0.0
 11
131.8174440767
 21
72.066953317
 31
0.0
  0
LINE
  5
AB
330
1F
100
AcDbEntity
  8
0
  6
Continuous
 62
     7
370
    25
100
AcDbLine
 10
132.31744509
 20
72.066953317
 30
0.0
 11
132.31744509
 21
62.5669536224
 31
0.0
  0
LINE
  5
AC
330
1F
100
AcDbEntity
  8
0
  6
Continuous
 62
     7
370
    25
100
AcDbLine
 10
132.31744509
 20
81.5669530115
 30
0.0
 11
132.31744509
 21
72.066953317
 31
0.0
  0
LINE
  5
AD
330
1F
100
AcDbEntity
  8
0
  6
Continuous
 62
     7
370
    25
100
AcDbLine
 10
99.8174448851
 20
72.066953317
 30
0.0
 11
100.3174445014
 21
72.066953317
 31
0.0
  0
SPLINE
  5
AE
330
1F
100
AcDbEntity
  8
0
  6
Continuous
 62
     7
370
    25
100
AcDbSpline
210
0.0
220
0.0
230
1.0
 70
     8
 71
     3
 72
    14
 73
    10
 74
     0
 42
0.000000001
 43
0.00000001
 40
0.0
 40
0.0
 40
0.0
 40
0.0
 40
0.25
 40
0.25
 40
0.5
 40
0.5
 40
0.75
 40
0.75
 40
1.0
 40
1.0
 40
1.0
 40
1.0
 10
100.3174447174446
 20
72.06695331695326
 30
0.0
 10
100.3174447174446
 20
71.68994083027344
 30
0.0
 10
100.31785600813
 20
71.31287630366329
 30
0.0
 10
100.3145274225891
 20
70.55905726782946
 30
0.0
 10
100.3107394363662
 20
70.18231790151589
 30
0.0
 10
100.2848762413257
 20
69.43030435221881
 30
0.0
 10
100.2628752500888
 20
69.0550242228779
 30
0.0
 10
100.1777423542142
 20
68.30775939784412
 30
0.0
 10
100.1153805832104
 20
67.93571299857894
 30
0.0
 10
100.0119966292266
 20
67.56695332141469
 30
0.0
  0
LWPOLYLINE
  5
AF
330
1F
100
AcDbEntity
  8
0
  6
Continuous
 62
     7
370
    25
100
AcDbPolyline
 90
        9
 70
   128
 43
0.0
 10
99.5883586238
 20
67.6857227503
 10
99.6228459644
 20
67.676054225
 10
99.6643592025
 20
67.6644154868
 10
99.7121486235
 20
67.6510174802
 10
99.7653513569
 20
67.6361018835
 10
99.8230076748
 20
67.6199373833
 10
99.884075893
 20
67.6028168804
 10
99.9474537912
 20
67.585048177
 10
100.0119967739
 20
67.5669535107
  0
SPLINE
  5
B0
330
1F
100
AcDbEntity
  8
0
  6
Continuous
 62
     7
370
    25
100
AcDbSpline
210
0.0
220
0.0
230
1.0
 70
     8
 71
     3
 72
    14
 73
    10
 74
     0
 42
0.000000001
 43
0.00000001
 40
0.0
 40
0.0
 40
0.0
 40
0.0
 40
0.25
 40
0.25
 40
0.5
 40
0.5
 40
0.75
 40
0.75
 40
1.0
 40
1.0
 40
1.0
 40
1.0
 10
114.3174447174446
 20
72.06695331695326
 30
0.0
 10
114.3174447174446
 20
72.44396580442468
 30
0.0
 10
114.3170334267558
 20
72.82103033182884
 30
0.0
 10
114.3203620123246
 20
73.57484936925252
 30
0.0
 10
114.3241499985795
 20
73.95158873635648
 30
0.0
 10
114.3500131938329
 20
74.70360228719566
 30
0.0
 10
114.3720141852495
 20
75.07888241728851
 30
0.0
 10
114.4571470818138
 20
75.82614724373963
 30
0.0
 10
114.5195088533134
 20
76.19819364367245
 30
0.0
 10
114.6228928081642
 20
76.56695332141469
 30
0.0
  0
LWPOLYLINE
  5
B1
330
1F
100
AcDbEntity
  8
0
  6
Continuous
 62
     7
370
    25
100
AcDbPolyline
 90
        9
 70
   128
 43
0.0
 10
114.622892661
 20
76.5669531232
 10
114.6874356437
 20
76.5488584569
 10
114.7508135419
 20
76.5310897535
 10
114.8118817601
 20
76.5139692506
 10
114.869538078
 20
76.4978047504
 10
114.9227408114
 20
76.4828891537
 10
114.970530698
 20
76.4694911471
 10
115.0120434704
 20
76.4578524089
 10
115.046530811
 20
76.4481838836
  0
LINE
  5
B2
330
1F
100
AcDbEntity
  8
0
  6
Continuous
 62
     7
370
    25
100
AcDbLine
 10
114.3174449335
 20
72.066953317
 30
0.0
 11
114.8174445498
 21
72.066953317
 31
0.0
  0
LWPOLYLINE
  5
B3
330
1F
100
AcDbEntity
  8
0
  6
Continuous
 62
     7
370
    25
100
AcDbPolyline
 90
        9
 70
   128
 43
0.0
 10
99.5883586238
 20
76.4481838836
 10
99.6228459644
 20
76.4578524089
 10
99.6643587369
 20
76.4694911471
 10
99.7121486235
 20
76.4828891537
 10
99.7653513569
 20
76.4978047504
 10
99.8230076748
 20
76.5139692506
 10
99.884075893
 20
76.5310897535
 10
99.9474537912
 20
76.5488584569
 10
100.0119967739
 20
76.5669531232
  0
SPLINE
  5
B4
330
1F
100
AcDbEntity
  8
0
  6
Continuous
 62
     7
370
    25
100
AcDbSpline
210
0.0
220
0.0
230
1.0
 70
     8
 71
     3
 72
    14
 73
    10
 74
     0
 42
0.000000001
 43
0.00000001
 40
0.0
 40
0.0
 40
0.0
 40
0.0
 40
0.25
 40
0.25
 40
0.5
 40
0.5
 40
0.75
 40
0.75
 40
1.0
 40
1.0
 40
1.0
 40
1.0
 10
100.0119966267244
 20
76.56695332141469
 30
0.0
 10
100.1145571449777
 20
76.20113075528533
 30
0.0
 10
100.1778701313869
 20
75.8255228394728
 30
0.0
 10
100.263087794918
 20
75.07651759945378
 30
0.0
 10
100.2850058896836
 20
74.70103694142553
 30
0.0
 10
100.3107791455667
 20
73.94922180194858
 30
0.0
 10
100.3145426310466
 20
73.57288298705062
 30
0.0
 10
100.3178539791659
 20
72.82000608743597
 30
0.0
 10
100.3174447174446
 20
72.44347002942358
 30
0.0
 10
100.3174447174446
 20
72.06695331695326
 30
0.0
  0
SPLINE
  5
B5
330
1F
100
AcDbEntity
  8
0
  6
Continuous
 62
     7
370
    25
100
AcDbSpline
210
0.0
220
0.0
230
1.0
 70
     8
 71
     3
 72
    14
 73
    10
 74
     0
 42
0.000000001
 43
0.00000001
 40
0.0
 40
0.0
 40
0.0
 40
0.0
 40
0.25
 40
0.25
 40
0.5
 40
0.5
 40
0.75
 40
0.75
 40
1.0
 40
1.0
 40
1.0
 40
1.0
 10
114.6228928056632
 20
67.56695332141469
 30
0.0
 10
114.5203322882683
 20
67.93277588697707
 30
0.0
 10
114.4570193023756
 20
68.30838380204743
 30
0.0
 10
114.3718016395362
 20
69.05738904056575
 30
0.0
 10
114.3498835449448
 20
69.43286969783553
 30
0.0
 10
114.3241102892685
 20
70.18468483578887
 30
0.0
 10
114.3203468038191
 20
70.5610236499216
 30
0.0
 10
114.3170354557266
 20
71.31390054800411
 30
0.0
 10
114.3174447174446
 20
71.69043660524966
 30
0.0
 10
114.3174447174446
 20
72.06695331695327
 30
0.0
  0
LWPOLYLINE
  5
B6
330
1F
100
AcDbEntity
  8
0
  6
Continuous
 62
     7
370
    25
100
AcDbPolyline
 90
        9
 70
   128
 43
0.0
 10
114.622892661
 20
67.5669535107
 10
114.6874356437
 20
67.585048177
 10
114.7508135419
 20
67.6028168804
 10
114.8118817601
 20
67.6199373833
 10
114.869538078
 20
67.6361018835
 10
114.9227408114
 20
67.6510174802
 10
114.9705302323
 20
67.6644154868
 10
115.0120434704
 20
67.676054225
 10
115.046530811
 20
67.6857227503
  0
ARC
  5
B7
330
1F
100
AcDbEntity
  8
0
  6
Continuous
 62
     7
370
    25
100
AcDbCircle
 10
100.1963919616
 20
77.5503230401
 30
0.0
 40
0.4834454273380953
100
AcDbArc
 50
189.9675444204
 51
268.9867684688
  0
SPLINE
  5
B8
330
1F
100
AcDbEntity
  8
0
  6
Continuous
 62
     7
370
    25
100
AcDbSpline
210
0.0
220
0.0
230
1.0
 70
     8
 71
     3
 72
    14
 73
    10
 74
     0
 42
0.000000001
 43
0.00000001
 40
0.0
 40
0.0
 40
0.0
 40
0.0
 40
0.25
 40
0.25
 40
0.5
 40
0.5
 40
0.75
 40
0.75
 40
1.0
 40
1.0
 40
1.0
 40
1.0
 10
100.187843216949
 20
77.0669533214147
 30
0.0
 10
100.1493677332022
 20
77.0669533214147
 30
0.0
 10
100.1082788116277
 20
77.05616675044506
 30
0.0
 10
100.0289959639851
 20
77.01323496341188
 30
0.0
 10
99.9917130627851
 20
76.98181745513419
 30
0.0
 10
99.93890730333692
 20
76.89050260954991
 30
0.0
 10
99.9269380432315
 20
76.82927212674845
 30
0.0
 10
99.94693983174609
 20
76.69840876603979
 30
0.0
 10
99.97639628742108
 20
76.63044465170844
 30
0.0
 10
100.0119966267244
 20
76.56695332141469
 30
0.0
  0
SPLINE
  5
B9
330
1F
100
AcDbEntity
  8
0
  6
Continuous
 62
     7
370
    25
100
AcDbSpline
210
0.0
220
0.0
230
1.0
 70
     8
 71
     3
 72
    14
 73
    10
 74
     0
 42
0.000000001
 43
0.00000001
 40
0.0
 40
0.0
 40
0.0
 40
0.0
 40
0.25
 40
0.25
 40
0.5
 40
0.5
 40
0.75
 40
0.75
 40
1.0
 40
1.0
 40
1.0
 40
1.0
 10
114.6228928081648
 20
76.56695332141469
 30
0.0
 10
114.658481026556
 20
76.63042303469992
 30
0.0
 10
114.6878234805051
 20
76.69792594811251
 30
0.0
 10
114.707993282142
 20
76.82920527943472
 30
0.0
 10
114.6960685337255
 20
76.89037772398191
 30
0.0
 10
114.6430348599411
 20
76.9820376146544
 30
0.0
 10
114.6058550245325
 20
77.01326191850244
 30
0.0
 10
114.5265889014747
 20
77.0561723718474
 30
0.0
 10
114.4855119688111
 20
77.0669533214147
 30
0.0
 10
114.4470462179402
 20
77.0669533214147
 30
0.0
  0
ARC
  5
BA
330
1F
100
AcDbEntity
  8
0
  6
Continuous
 62
     7
370
    25
100
AcDbCircle
 10
114.4384974733
 20
77.5503230401
 30
0.0
 40
0.4834454273381065
100
AcDbArc
 50
271.0132315313
 51
350.0324555796
  0
SPLINE
  5
BB
330
1F
100
AcDbEntity
  8
0
  6
Continuous
 62
     7
370
    25
100
AcDbSpline
210
0.0
220
0.0
230
1.0
 70
     8
 71
     3
 72
    14
 73
    10
 74
     0
 42
0.000000001
 43
0.00000001
 40
0.0
 40
0.0
 40
0.0
 40
0.0
 40
0.25
 40
0.25
 40
0.5
 40
0.5
 40
0.75
 40
0.75
 40
1.0
 40
1.0
 40
1.0
 40
1.0
 10
114.4470462160261
 20
67.06695332141469
 30
0.0
 10
114.4855101520607
 20
67.06695332141469
 30
0.0
 10
114.5269083597854
 20
67.07786007721505
 30
0.0
 10
114.6059996133786
 20
67.12077040868046
 30
0.0
 10
114.6438345261943
 20
67.15287297670677
 30
0.0
 10
114.6961292649743
 20
67.24401828785007
 30
0.0
 10
114.7080146376513
 20
67.30486773865502
 30
0.0
 10
114.687725936079
 20
67.4363090185902
 30
0.0
 10
114.658403310912
 20
67.50362220499431
 30
0.0
 10
114.6228928056632
 20
67.56695332141469
 30
0.0
  0
ARC
  5
BC
330
1F
100
AcDbEntity
  8
0
  6
Continuous
 62
     7
370
    25
100
AcDbCircle
 10
114.4384974733
 20
66.5835835938
 30
0.0
 40
0.4834454273381065
100
AcDbArc
 50
9.9675444204
 51
88.9867684687
  0
SPLINE
  5
BD
330
1F
100
AcDbEntity
  8
0
  6
Continuous
 62
     7
370
    25
100
AcDbSpline
210
0.0
220
0.0
230
1.0
 70
     8
 71
     3
 72
    16
 73
    12
 74
     0
 42
0.000000001
 43
0.00000001
 40
0.0
 40
0.0
 40
0.0
 40
0.0
 40
0.2499999999999974
 40
0.2499999999999974
 40
0.3749999999999961
 40
0.3749999999999961
 40
0.4999999999999948
 40
0.4999999999999948
 40
0.7499999999999973
 40
0.7499999999999973
 40
1.0
 40
1.0
 40
1.0
 40
1.0
 10
100.011996629226
 20
67.56695332141469
 30
0.0
 10
99.97644269988646
 20
67.5035447604149
 30
0.0
 10
99.94717055877973
 20
67.43627746008804
 30
0.0
 10
99.93195800866718
 20
67.33783814898266
 30
0.0
 10
99.93189734051278
 20
67.30536274264982
 30
0.0
 10
99.94210792498649
 20
67.24673753554293
 30
0.0
 10
99.95189125449106
 20
67.22111472399743
 30
0.0
 10
99.99105580291825
 20
67.15290588031833
 30
0.0
 10
100.0289288760961
 20
67.1207431251253
 30
0.0
 10
100.1080018488956
 20
67.07785490597266
 30
0.0
 10
100.1493889813753
 20
67.0669533214147
 30
0.0
 10
100.1878432188631
 20
67.06695332141469
 30
0.0
  0
ARC
  5
BE
330
1F
100
AcDbEntity
  8
0
  6
Continuous
 62
     7
370
    25
100
AcDbCircle
 10
100.1963919616
 20
66.5835835938
 30
0.0
 40
0.4834454273380953
100
AcDbArc
 50
91.0132315312
 51
170.0324555796
  0
LINE
  5
BF
330
1F
100
AcDbEntity
  8
0
  6
Continuous
 62
     7
370
    25
100
AcDbLine
 10
100.0119967739
 20
67.5669535107
 30
0.0
 11
114.622892661
 21
67.5669535107
 31
0.0
  0
LINE
  5
C0
330
1F
100
AcDbEntity
  8
0
  6
Continuous
 62
     7
370
    25
100
AcDbLine
 10
114.447046386
 20
67.0669534287
 30
0.0
 11
100.1878430489
 21
67.0669534287
 31
0.0
  0
LINE
  5
C1
330
1F
100
AcDbEntity
  8
0
  6
Continuous
 62
     7
370
    25
100
AcDbLine
 10
100.1878430489
 20
77.0669532052
 30
0.0
 11
114.447046386
 21
77.0669532052
 31
0.0
  0
LINE
  5
C2
330
1F
100
AcDbEntity
  8
0
  6
Continuous
 62
     7
370
    25
100
AcDbLine
 10
114.622892661
 20
76.5669531232
 30
0.0
 11
100.0119967739
 21
76.5669531232
 31
0.0
  0
LINE
  5
C3
330
1F
100
AcDbEntity
  8
0
  6
Continuous
 62
     7
370
    25
100
AcDbLine
 10
103.7509900871
 20
71.2654770163
 30
0.0
 11
104.2368687577
 21
71.2654770163
 31
0.0
  0
ELLIPSE
  5
C4
330
1F
100
AcDbEntity
  8
0
  6
Continuous
 62
     7
370
    25
100
AcDbEllipse
 10
103.7509899715
 20
71.3301504033
 30
0.0
 11
0.06784129479235901
 21
0.0
 31
0.0
210
0.0
220
0.0
230
1.0
 40
0.9533039403
 41
2.798568711309877
 42
4.712388980384703
  0
ELLIPSE
  5
C5
330
1F
100
AcDbEntity
  8
0
  6
Continuous
 62
     7
370
    25
100
AcDbEllipse
 10
103.9939293164
 20
71.978616497
 30
0.0
 11
0.06784129479271428
 21
0.0
 31
0.0
210
0.0
220
0.0
230
1.0
 40
0.9533039403
 41
0.3430239404191595
 42
2.798568713170704
  0
LINE
  5
C6
330
1F
100
AcDbEntity
  8
0
  6
Continuous
 62
     7
370
    25
100
AcDbLine
 10
104.3007577191
 20
71.3519024124
 30
0.0
 11
104.0578182674
 21
72.0003685041
 31
0.0
  0
ELLIPSE
  5
C7
330
1F
100
AcDbEntity
  8
0
  6
Continuous
 62
     7
370
    25
100
AcDbEllipse
 10
104.2368686585
 20
71.3301504033
 30
0.0
 11
-0.06784129479235901
 21
0.0
 31
0.0
210
0.0
220
0.0
230
1.0
 40
0.9533039403
 41
1.570796326794897
 42
3.484616592148207
  0
LINE
  5
C8
330
1F
100
AcDbEntity
  8
0
  6
Continuous
 62
     7
370
    25
100
AcDbLine
 10
103.9300403445
 20
72.0003685041
 30
0.0
 11
103.6871008928
 21
71.3519024124
 31
0.0
  0
LINE
  5
C9
330
1F
100
AcDbEntity
  8
0
  6
Continuous
 62
     7
370
    25
100
AcDbLine
 10
108.737478231
 20
71.5184648565
 30
0.0
 11
109.1107665216
 21
71.8917531616
 31
0.0
  0
ARC
  5
CA
330
1F
100
AcDbEntity
  8
0
  6
Continuous
 62
     7
370
    25
100
AcDbCircle
 10
110.9082995383
 20
71.015570513
 30
0.0
 40
0.7112000000000998
100
AcDbArc
 50
200.9248324276
 51
315.0
  0
ARC
  5
CB
330
1F
100
AcDbEntity
  8
0
  6
Continuous
 62
     7
370
    25
100
AcDbCircle
 10
110.9082995383
 20
71.015570513
 30
0.0
 40
1.239109388553836
100
AcDbArc
 50
45.0
 51
315.0
  0
ELLIPSE
  5
CC
330
1F
100
AcDbEntity
  8
0
  6
Continuous
 62
     7
370
    25
100
AcDbEllipse
 10
103.9939293148
 20
68.1740897695
 30
0.0
 11
2.293035763987589
 21
-1.065814103640150E-12
 31
0.0
210
0.0
220
0.0
230
1.0
 40
0.9533039403
 41
0.8210019969646758
 42
2.320590656625888
  0
ELLIPSE
  5
CD
330
1F
100
AcDbEntity
  8
0
  6
Continuous
 62
     7
370
    25
100
AcDbEllipse
 10
105.6028393114
 20
69.821168666
 30
0.0
 11
0.0678412947923448
 21
0.0
 31
0.0
210
0.0
220
0.0
230
1.0
 40
0.9533039403
 41
3.962594650552461
 42
5.819537698178227
  0
LINE
  5
CE
330
1F
100
AcDbEntity
  8
0
  6
Continuous
 62
     7
370
    25
100
AcDbLine
 10
105.6635183868
 20
69.7922458916
 30
0.0
 11
106.3005333654
 21
71.0067835447
 31
0.0
  0
LINE
  5
CF
330
1F
100
AcDbEntity
  8
0
  6
Continuous
 62
     7
370
    25
100
AcDbLine
 10
101.6873254794
 20
71.0067835447
 30
0.0
 11
102.3243403415
 21
69.7922458916
 31
0.0
  0
ELLIPSE
  5
D0
330
1F
100
AcDbEntity
  8
0
  6
Continuous
 62
     7
370
    25
100
AcDbEllipse
 10
103.9939293148
 20
73.8726224047
 30
0.0
 11
0.5215299537176463
 21
0.0
 31
0.0
210
0.0
220
0.0
230
1.0
 40
0.9533039403
 41
0.4357918987553248
 42
2.705800754834471
  0
ELLIPSE
  5
D1
330
1F
100
AcDbEntity
  8
0
  6
Continuous
 62
     7
370
    25
100
AcDbEllipse
 10
102.3850193182
 20
69.821168666
 30
0.0
 11
0.06784129479235901
 21
0.0
 31
0.0
210
0.0
220
0.0
230
1.0
 40
0.9533039403
 41
3.605240262598831
 42
5.462183310200888
  0
ARC
  5
D2
330
1F
100
AcDbEntity
  8
0
  6
Continuous
 62
     7
370
    25
100
AcDbCircle
 10
110.9082995383
 20
71.015570513
 30
0.0
 40
0.7112000000000438
100
AcDbArc
 50
45.0
 51
159.0751675723
  0
ARC
  5
D3
330
1F
100
AcDbEntity
  8
0
  6
Continuous
 62
     7
370
    25
100
AcDbCircle
 10
108.2345838612
 20
71.015570513
 30
0.0
 40
0.7111999999997624
100
AcDbArc
 50
45.0
 51
315.0
  0
LINE
  5
D4
330
1F
100
AcDbEntity
  8
0
  6
Continuous
 62
     7
370
    25
100
AcDbLine
 10
111.7844822238
 20
70.7615705018
 30
0.0
 11
111.7844822238
 21
71.2695705282
 31
0.0
  0
ELLIPSE
  5
D5
330
1F
100
AcDbEntity
  8
0
  6
Continuous
 62
     7
370
    25
100
AcDbEllipse
 10
101.9999549274
 20
71.4321422553
 30
0.0
 11
-0.5427303583406484
 21
3.552713678800501E-13
 31
0.0
210
0.0
220
0.0
230
1.0
 40
0.9533039403
 41
1.047197551197446
 42
2.813039483038409
  0
LINE
  5
D6
330
1F
100
AcDbEntity
  8
0
  6
Continuous
 62
     7
370
    25
100
AcDbLine
 10
111.7844822238
 20
70.1393878829
 30
0.0
 11
111.4111937004
 21
70.5126761735
 31
0.0
  0
LINE
  5
D7
330
1F
100
AcDbEntity
  8
0
  6
Continuous
 62
     7
370
    25
100
AcDbLine
 10
103.5211436338
 20
74.0824948574
 30
0.0
 11
102.5136549379
 21
71.2651949419
 31
0.0
  0
LINE
  5
D8
330
1F
100
AcDbEntity
  8
0
  6
Continuous
 62
     7
370
    25
100
AcDbLine
 10
109.1107665216
 20
70.1393878829
 30
0.0
 11
108.737478231
 21
70.5126761735
 31
0.0
  0
ELLIPSE
  5
D9
330
1F
100
AcDbEntity
  8
0
  6
Continuous
 62
     7
370
    25
100
AcDbEllipse
 10
105.9881385387
 20
71.4314855682
 30
0.0
 11
0.5427303583402932
 21
3.410605131648481E-13
 31
0.0
210
0.0
220
0.0
230
1.0
 40
0.9533039404
 41
3.470145824138453
 42
5.252469180539567
  0
LINE
  5
DA
330
1F
100
AcDbEntity
  8
0
  6
Continuous
 62
     7
370
    25
100
AcDbLine
 10
106.3005333654
 20
71.0067835447
 30
0.0
 11
106.2672130884
 21
70.9877396279
 31
0.0
  0
LINE
  5
DB
330
1F
100
AcDbEntity
  8
0
  6
Continuous
 62
     7
370
    25
100
AcDbLine
 10
111.7844822238
 20
71.2695705282
 30
0.0
 11
110.2440034393
 21
71.2695705282
 31
0.0
  0
ARC
  5
DC
330
1F
100
AcDbEntity
  8
0
  6
Continuous
 62
     7
370
    25
100
AcDbCircle
 10
108.2345838612
 20
71.015570513
 30
0.0
 40
1.239109388553836
100
AcDbArc
 50
45.0
 51
315.0
  0
LINE
  5
DD
330
1F
100
AcDbEntity
  8
0
  6
Continuous
 62
     7
370
    25
100
AcDbLine
 10
111.4111937004
 20
71.5184648565
 30
0.0
 11
111.7844822238
 21
71.8917531616
 31
0.0
  0
LINE
  5
DE
330
1F
100
AcDbEntity
  8
0
  6
Continuous
 62
     7
370
    25
100
AcDbLine
 10
110.2440034393
 20
70.7615705018
 30
0.0
 11
111.7844822238
 21
70.7615705018
 31
0.0
  0
LINE
  5
DF
330
1F
100
AcDbEntity
  8
0
  6
Continuous
 62
     7
370
    25
100
AcDbLine
 10
105.4744387166
 20
71.2645383013
 30
0.0
 11
104.4667149782
 21
74.0824948574
 31
0.0
  0
LINE
  5
E0
330
1F
100
AcDbEntity
  8
0
  6
Continuous
 62
     7
370
    25
100
AcDbLine
 10
101.7285895887
 20
70.9840719632
 30
0.0
 11
101.6873254794
 21
71.0067835447
 31
0.0
  0
ARC
  5
E1
330
1F
100
AcDbEntity
  8
0
  6
Continuous
 62
     7
370
    25
100
AcDbCircle
 10
100.3174447174
 20
66.5669533214
 30
0.0
 40
0.5
100
AcDbArc
 50
90.0
 51
180.0
  0
ARC
  5
E2
330
1F
100
AcDbEntity
  8
0
  6
Continuous
 62
     7
370
    25
100
AcDbCircle
 10
100.3174447174
 20
77.5669533214
 30
0.0
 40
0.5
100
AcDbArc
 50
180.0
 51
270.0
  0
ARC
  5
E3
330
1F
100
AcDbEntity
  8
0
  6
Continuous
 62
     7
370
    25
100
AcDbCircle
 10
114.3174447174
 20
66.5669533214
 30
0.0
 40
0.5
100
AcDbArc
 50
0.0
 51
90.0
  0
ARC
  5
E4
330
1F
100
AcDbEntity
  8
0
  6
Continuous
 62
     7
370
    25
100
AcDbCircle
 10
114.3174447174
 20
77.5669533214
 30
0.0
 40
0.5
100
AcDbArc
 50
270.0
 51
0.0
  0
LWPOLYLINE
  5
E5
330
1F
100
AcDbEntity
  8
0
  6
Continuous
 62
     7
370
    25
100
AcDbPolyline
 90
        9
 70
   128
 43
0.0
 10
114.8174445498
 20
66.5669533468
 10
114.8078374918
 20
66.6265640451
 10
114.7793846558
 20
66.6838841556
 10
114.7331794146
 20
66.7367111004
 10
114.6709982659
 20
66.7830136648
 10
114.5952300522
 20
66.8210134885
 10
114.5087865535
 20
66.849249792
 10
114.4149897973
 20
66.8666375844
 10
114.3174449335
 20
66.8725091076
  0
LINE
  5
E6
330
1F
100
AcDbEntity
  8
0
  6
Continuous
 62
     7
370
    25
100
AcDbLine
 10
114.3174449335
 20
66.8725091076
 30
0.0
 11
114.3174449335
 21
67.0669534287
 31
0.0
  0
LINE
  5
E7
330
1F
100
AcDbEntity
  8
0
  6
Continuous
 62
     7
370
    25
100
AcDbLine
 10
100.3174445014
 20
67.0669534287
 30
0.0
 11
100.3174445014
 21
66.8725091076
 31
0.0
  0
LINE
  5
E8
330
1F
100
AcDbEntity
  8
0
  6
Continuous
 62
     7
370
    25
100
AcDbLine
 10
114.3174449335
 20
66.8725091076
 30
0.0
 11
100.3174445014
 21
66.8725091076
 31
0.0
  0
LWPOLYLINE
  5
E9
330
1F
100
AcDbEntity
  8
0
  6
Continuous
 62
     7
370
    25
100
AcDbPolyline
 90
        9
 70
   128
 43
0.0
 10
99.8174448851
 20
66.5669533468
 10
99.8270519431
 20
66.6265640451
 10
99.8555047791
 20
66.6838841556
 10
99.9017100203
 20
66.7367111004
 10
99.963891169
 20
66.7830136648
 10
100.0396593827
 20
66.8210134885
 10
100.1261028814
 20
66.849249792
 10
100.2198996376
 20
66.8666375844
 10
100.3174445014
 20
66.8725091076
  0
LINE
  5
EA
330
1F
100
AcDbEntity
  8
0
  6
Continuous
 62
     7
370
    25
100
AcDbLine
 10
100.3174445014
 20
77.261397992
 30
0.0
 11
100.3174445014
 21
77.0669532052
 31
0.0
  0
LINE
  5
EB
330
1F
100
AcDbEntity
  8
0
  6
Continuous
 62
     7
370
    25
100
AcDbLine
 10
100.3174445014
 20
77.261397992
 30
0.0
 11
114.3174449335
 21
77.261397992
 31
0.0
  0
LINE
  5
EC
330
1F
100
AcDbEntity
  8
0
  6
Continuous
 62
     7
370
    25
100
AcDbLine
 10
114.3174449335
 20
77.0669532052
 30
0.0
 11
114.3174449335
 21
77.261397992
 31
0.0
  0
LWPOLYLINE
  5
ED
330
1F
100
AcDbEntity
  8
0
  6
Continuous
 62
     7
370
    25
100
AcDbPolyline
 90
        9
 70
   128
 43
0.0
 10
100.3174445014
 20
77.261397992
 10
100.2198996376
 20
77.2672690495
 10
100.1261028814
 20
77.2846568419
 10
100.0396593827
 20
77.3128931454
 10
99.963891169
 20
77.3508929691
 10
99.9017100203
 20
77.3971955335
 10
99.8555047791
 20
77.4500224783
 10
99.8270519431
 20
77.5073425888
 10
99.8174448851
 20
77.5669532872
  0
LWPOLYLINE
  5
EE
330
1F
100
AcDbEntity
  8
0
  6
Continuous
 62
     7
370
    25
100
AcDbPolyline
 90
        9
 70
   128
 43
0.0
 10
114.3174449335
 20
77.261397992
 10
114.4149897973
 20
77.2672690495
 10
114.5087865535
 20
77.2846568419
 10
114.5952300522
 20
77.3128931454
 10
114.6709982659
 20
77.3508929691
 10
114.7331794146
 20
77.3971955335
 10
114.7793846558
 20
77.4500224783
 10
114.8078374918
 20
77.5073425888
 10
114.8174445498
 20
77.5669532872
  0
SPLINE
  5
EF
330
1F
100
AcDbEntity
  8
0
  6
Continuous
 62
     7
370
    25
100
AcDbSpline
210
0.0
220
0.0
230
1.0
 70
     8
 71
     3
 72
    30
 73
    26
 74
     0
 42
0.000000001
 43
0.00000001
 40
0.0
 40
0.0
 40
0.0
 40
0.0
 40
0.0450202487555969
 40
0.0915063123478869
 40
0.1364931998839866
 40
0.1825974410248914
 40
0.2316590164911116
 40
0.2817637253914704
 40
0.3390348933554336
 40
0.3685831543180477
 40
0.398123332957915
 40
0.4377879146292993
 40
0.4784927317446564
 40
0.5182074075055938
 40
0.5592463642338886
 40
0.5967753160561339
 40
0.6350611893016089
 40
0.6918675203397827
 40
0.7503045799830742
 40
0.8076438700454788
 40
0.8372535978836242
 40
0.8668583288484805
 40
0.9115183628357295
 40
0.9574128873603754
 40
1.0
 40
1.0
 40
1.0
 40
1.0
 10
113.2174449394719
 20
80.56695377888926
 30
0.0
 10
113.2050745010208
 20
80.55834343818825
 30
0.0
 10
113.1799308548598
 20
80.54084241259666
 30
0.0
 10
112.979947999993
 20
80.40315630197418
 30
0.0
 10
112.6706431448723
 20
80.19547433862272
 30
0.0
 10
112.2479163899715
 20
79.92214035898397
 30
0.0
 10
111.711093817788
 20
79.59468756663998
 30
0.0
 10
111.0350005997207
 20
79.21738295933702
 30
0.0
 10
110.3579190412764
 20
78.88972463815509
 30
0.0
 10
109.7289804062822
 20
78.63852976301
 30
0.0
 10
109.1651532461746
 20
78.44989068501523
 30
0.0
 10
108.5010069420993
 20
78.28473739319308
 30
0.0
 10
107.7402615541011
 20
78.18404071467548
 30
0.0
 10
106.9566878684518
 20
78.17985022314596
 30
0.0
 10
106.2052814127285
 20
78.27205222580021
 30
0.0
 10
105.4954223577216
 20
78.44046082357498
 30
0.0
 10
104.7367234082871
 20
78.69399579176478
 30
0.0
 10
103.9336044758484
 20
79.04603002505391
 30
0.0
 10
103.1422435694539
 20
79.46633959048212
 30
0.0
 10
102.5773353099852
 20
79.80433728362571
 30
0.0
 10
102.1961076078562
 20
80.0452568780056
 30
0.0
 10
101.9025582176646
 20
80.23672526796739
 30
0.0
 10
101.6394622512554
 20
80.41373376888741
 30
0.0
 10
101.4507838384063
 20
80.54375360827
 30
0.0
 10
101.430178100585
 20
80.55809900428926
 30
0.0
 10
101.4202603492217
 20
80.56500358941801
 30
0.0
  0
CIRCLE
  5
F0
330
1F
100
AcDbEntity
  8
0
  6
Continuous
 62
     7
370
    25
100
AcDbCircle
 10
107.3174447174
 20
80.066953317
 30
0.0
 40
0.4999999999999858
  0
ARC
  5
F1
330
1F
100
AcDbEntity
  8
0
  6
Continuous
 62
     7
370
    25
100
AcDbCircle
 10
107.3174447174
 20
80.066953317
 30
0.0
 40
1.000000000008114
100
AcDbArc
 50
90.0
 51
270.0000000001
  0
ARC
  5
F2
330
1F
100
AcDbEntity
  8
0
  6
Continuous
 62
     7
370
    25
100
AcDbCircle
 10
107.3174447174
 20
80.066953317
 30
0.0
 40
1.000000000008114
100
AcDbArc
 50
270.0000000001
 51
90.0
  0
LINE
  5
F3
330
1F
100
AcDbEntity
  8
0
  6
Continuous
 62
     7
370
    25
100
AcDbLine
 10
99.8674448001
 20
90.5669535554
 30
0.0
 11
111.7919914778
 21
90.5669535554
 31
0.0
  0
LINE
  5
F4
330
1F
100
AcDbEntity
  8
0
  6
Continuous
 62
     7
370
    25
100
AcDbLine
 10
112.5412470083
 20
98.566953004
 30
0.0
 11
102.0783594231
 21
98.566953004
 31
0.0
  0
LINE
  5
F5
330
1F
100
AcDbEntity
  8
0
  6
Continuous
 62
     7
370
    25
100
AcDbLine
 10
114.269385429
 20
91.5616973347
 30
0.0
 11
112.5412470083
 21
98.566953004
 31
0.0
  0
SPLINE
  5
F6
330
1F
100
AcDbEntity
  8
0
  6
Continuous
 62
     7
370
    25
100
AcDbSpline
210
0.0
220
0.0
230
1.0
 70
     8
 71
     3
 72
     9
 73
     5
 74
     0
 42
0.000000001
 43
0.00000001
 40
0.0
 40
0.0
 40
0.0
 40
0.0
 40
0.4983244219185156
 40
1.0
 40
1.0
 40
1.0
 40
1.0
 10
111.7919914777653
 20
90.56695355537185
 30
0.0
 10
111.6758811031136
 20
90.74074543508412
 30
0.0
 10
111.4428795291497
 20
91.08949791854296
 30
0.0
 10
111.1691195137601
 20
91.40394627411506
 30
0.0
 10
111.0317807997839
 20
91.56169733467348
 30
0.0
  0
LINE
  5
F7
330
1F
100
AcDbEntity
  8
0
  6
Continuous
 62
     7
370
    25
100
AcDbLine
 10
109.3174448124
 20
82.5669531754
 30
0.0
 11
109.3174448124
 21
82.6047704599
 31
0.0
  0
LINE
  5
F8
330
1F
100
AcDbEntity
  8
0
  6
Continuous
 62
     7
370
    25
100
AcDbLine
 10
100.3174445014
 20
82.5669531754
 30
0.0
 11
109.3174448124
 21
82.5669531754
 31
0.0
  0
SPLINE
  5
F9
330
1F
100
AcDbEntity
  8
0
  6
Continuous
 62
     7
370
    25
100
AcDbSpline
210
0.0
220
0.0
230
1.0
 70
     8
 71
     3
 72
    16
 73
    12
 74
     0
 42
0.000000001
 43
0.00000001
 40
0.0
 40
0.0
 40
0.0
 40
0.0
 40
0.0155634440295776
 40
0.0359329575919142
 40
0.0739121561247688
 40
0.1570057919676931
 40
0.240658163019504
 40
0.4592958108389031
 40
0.6783838528485865
 40
0.8974954826540263
 40
1.0
 40
1.0
 40
1.0
 40
1.0
 10
109.4733898881154
 20
82.56695317539223
 30
0.0
 10
109.5157819077838
 20
82.57214650779879
 30
0.0
 10
109.613656815297
 20
82.5841368996922
 30
0.0
 10
109.7871354647792
 20
82.70246317032627
 30
0.0
 10
110.0354689196811
 20
83.01371480801392
 30
0.0
 10
110.2899336874061
 20
83.53936216651626
 30
0.0
 10
110.6336129046102
 20
84.5779081576406
 30
0.0
 10
111.0148329620993
 20
86.01298197880253
 30
0.0
 10
111.364935188883
 20
87.85123412456498
 30
0.0
 10
111.6087265957733
 20
89.37241717752872
 30
0.0
 10
111.7476987095803
 20
90.2782494550703
 30
0.0
 10
111.7919914777653
 20
90.56695355537184
 30
0.0
  0
SPLINE
  5
FA
330
1F
100
AcDbEntity
  8
0
  6
Continuous
 62
     7
370
    25
100
AcDbSpline
210
0.0
220
0.0
230
1.0
 70
     8
 71
     3
 72
     9
 73
     5
 74
     0
 42
0.000000001
 43
0.00000001
 40
0.0
 40
0.0
 40
0.0
 40
0.0
 40
0.5124863176752154
 40
1.0
 40
1.0
 40
1.0
 40
1.0
 10
109.3174448124395
 20
82.60477045985706
 30
0.0
 10
109.3430873411605
 20
82.59374267103848
 30
0.0
 10
109.3931228793526
 20
82.57222445984289
 30
0.0
 10
109.4470833973072
 20
82.56868077179935
 30
0.0
 10
109.4733898881154
 20
82.56695317539223
 30
0.0
  0
LINE
  5
FB
330
1F
100
AcDbEntity
  8
0
  6
Continuous
 62
     7
370
    25
100
AcDbLine
 10
111.0317807998
 20
91.5616973347
 30
0.0
 11
129.4928815569
 21
91.5616973347
 31
0.0
  0
LINE
  5
FC
330
1F
100
AcDbEntity
  8
0
  6
Continuous
 62
     7
370
    25
100
AcDbLine
 10
129.4928815569
 20
91.5616973347
 30
0.0
 11
129.4928815569
 21
88.3191282904
 31
0.0
  0
SPLINE
  5
FD
330
1F
100
AcDbEntity
  8
0
  6
Continuous
 62
     7
370
    25
100
AcDbSpline
210
0.0
220
0.0
230
1.0
 70
     8
 71
     3
 72
    11
 73
     7
 74
     0
 42
0.000000001
 43
0.00000001
 40
0.0
 40
0.0
 40
0.0
 40
0.0
 40
0.248860712681952
 40
0.4977192115733558
 40
0.7488602656597823
 40
1.0
 40
1.0
 40
1.0
 40
1.0
 10
122.4224882553594
 20
86.99592845949182
 30
0.0
 10
122.9990811446697
 20
87.14540749651773
 30
0.0
 10
124.1522617940922
 20
87.44436424084871
 30
0.0
 10
125.9131760825889
 20
87.80616799968281
 30
0.0
 10
127.6931546365953
 20
88.10844305911164
 30
0.0
 10
128.8929736343133
 20
88.24890000301517
 30
0.0
 10
129.4928815569059
 20
88.31912829044111
 30
0.0
  0
LWPOLYLINE
  5
FE
330
1F
100
AcDbEntity
  8
0
  6
Continuous
 62
     7
370
    25
100
AcDbPolyline
 90
        4
 70
   128
 43
0.0
 10
122.4224882554
 20
86.9959284595
 10
120.4872167091
 20
86.4706979177
 10
118.5600532572
 20
85.9476671598
 10
116.6427310909
 20
85.427307435
  0
SPLINE
  5
FF
330
1F
100
AcDbEntity
  8
0
  6
Continuous
 62
     7
370
    25
100
AcDbSpline
210
0.0
220
0.0
230
1.0
 70
     8
 71
     3
 72
    13
 73
     9
 74
     0
 42
0.000000001
 43
0.00000001
 40
0.0
 40
0.0
 40
0.0
 40
0.0
 40
0.1610294667108458
 40
0.3266881201944549
 40
0.4877296242753278
 40
0.6535536689976723
 40
0.823760217438079
 40
1.0
 40
1.0
 40
1.0
 40
1.0
 10
116.6427310909407
 20
85.42730743500242
 30
0.0
 10
116.428860992336
 20
85.35791029095178
 30
0.0
 10
115.9949725748552
 20
85.21712101182268
 30
0.0
 10
115.4036515350992
 20
84.87099695126251
 30
0.0
 10
114.869720573653
 20
84.43178962264318
 30
0.0
 10
114.4160368205229
 20
83.89818801598436
 30
0.0
 10
114.0415828762915
 20
83.27436169934091
 30
0.0
 10
113.8930199160503
 20
82.8054778294968
 30
0.0
 10
113.8174448515551
 20
82.56695317539223
 30
0.0
  0
LINE
  5
100
330
1F
100
AcDbEntity
  8
0
  6
Continuous
 62
     7
370
    25
100
AcDbLine
 10
113.8174448516
 20
82.5669531754
 30
0.0
 11
109.4733898881
 21
82.5669531754
 31
0.0
  0
LINE
  5
101
330
1F
100
AcDbEntity
  8
0
  6
Continuous
 62
     7
370
    25
100
AcDbLine
 10
109.3242441657
 20
82.5669531754
 30
0.0
 11
109.3174448124
 21
82.6047704599
 31
0.0
  0
LINE
  5
102
330
1F
100
AcDbEntity
  8
0
  6
Continuous
 62
     7
370
    25
100
AcDbLine
 10
109.3174448124
 20
82.5669531754
 30
0.0
 11
109.3242441657
 21
82.5669531754
 31
0.0
  0
LINE
  5
103
330
1F
100
AcDbEntity
  8
0
  6
Continuous
 62
     7
370
    25
100
AcDbLine
 10
109.4733898881
 20
82.5669531754
 30
0.0
 11
109.3242441657
 21
82.5669531754
 31
0.0
  0
LINE
  5
104
330
1F
100
AcDbEntity
  8
0
  6
Continuous
 62
     7
370
    25
100
AcDbLine
 10
129.4928815569
 20
91.5616973347
 30
0.0
 11
129.4928815569
 21
100.5669533319
 31
0.0
  0
LINE
  5
105
330
1F
100
AcDbEntity
  8
0
  6
Continuous
 62
     7
370
    25
100
AcDbLine
 10
129.4928815569
 20
100.5669533319
 30
0.0
 11
147.3174438234
 21
100.5669533319
 31
0.0
  0
LINE
  5
106
330
1F
100
AcDbEntity
  8
0
  6
Continuous
 62
     7
370
    25
100
AcDbLine
 10
147.3174438234
 20
100.5669533319
 30
0.0
 11
147.3174438234
 21
93.5669540471
 31
0.0
  0
ARC
  5
107
330
1F
100
AcDbEntity
  8
0
  6
Continuous
 62
     7
370
    25
100
AcDbCircle
 10
142.3174447174
 20
93.566953317
 30
0.0
 40
5.0
100
AcDbArc
 50
270.0
 51
0.0
  0
LINE
  5
108
330
1F
100
AcDbEntity
  8
0
  6
Continuous
 62
     7
370
    25
100
AcDbLine
 10
142.3174448665
 20
88.5669532275
 30
0.0
 11
134.2091121133
 21
88.5669532275
 31
0.0
  0
ARC
  5
109
330
1F
100
AcDbEntity
  8
0
  6
Continuous
 62
     7
370
    25
100
AcDbCircle
 10
134.2091125752
 20
43.5668240628
 30
0.0
 40
45.00012925418378
100
AcDbArc
 50
90.0
 51
96.0159222295
  0
ARC
  5
10A
330
1F
100
AcDbEntity
  8
0
  6
Continuous
 62
     7
370
    25
100
AcDbCircle
 10
121.7063982817
 20
102.566953317
 30
0.0
 40
10.00000000000848
100
AcDbArc
 50
203.5781784783
 51
264.4198332155
  0
ARC
  5
10B
330
1F
100
AcDbEntity
  8
0
  6
Continuous
 62
     7
370
    25
100
AcDbCircle
 10
121.3174447174
 20
98.5859088403
 30
0.0
 40
6.000000000000018
100
AcDbArc
 50
264.4198332155
 51
0.0
  0
LINE
  5
10C
330
1F
100
AcDbEntity
  8
0
  6
Continuous
 62
     7
370
    25
100
AcDbLine
 10
127.3174442704
 20
100.5669533319
 30
0.0
 11
127.3174442704
 21
98.5859091437
 31
0.0
  0
LINE
  5
10D
330
1F
100
AcDbEntity
  8
0
  6
Continuous
 62
     7
370
    25
100
AcDbLine
 10
127.3174442704
 20
100.5669533319
 30
0.0
 11
129.4928815569
 21
100.5669533319
 31
0.0
  0
LINE
  5
10E
330
1F
100
AcDbEntity
  8
0
  6
Continuous
 62
     7
370
    25
100
AcDbLine
 10
114.3174449335
 20
82.5669531754
 30
0.0
 11
113.8174448516
 21
82.5669531754
 31
0.0
  0
LINE
  5
10F
330
1F
100
AcDbEntity
  8
0
  6
Continuous
 62
     7
370
    25
100
AcDbLine
 10
112.5412470083
 20
98.566953004
 30
0.0
 11
112.5565300118
 21
98.566953004
 31
0.0
  0
LINE
  5
110
330
1F
100
AcDbEntity
  8
0
  6
Continuous
 62
     7
370
    25
100
AcDbLine
 10
112.5565300118
 20
98.566953004
 30
0.0
 11
112.5565300118
 21
99.1669538474
 31
0.0
  0
LINE
  5
111
330
1F
100
AcDbEntity
  8
0
  6
Continuous
 62
     7
370
    25
100
AcDbLine
 10
102.0783594231
 20
99.1669538474
 30
0.0
 11
102.0783594231
 21
98.566953004
 31
0.0
  0
LINE
  5
112
330
1F
100
AcDbEntity
  8
0
  6
Continuous
 62
     7
370
    25
100
AcDbLine
 10
112.5565300118
 20
99.1669538474
 30
0.0
 11
102.0783594231
 21
99.1669538474
 31
0.0
  0
LINE
  5
113
330
1F
100
AcDbEntity
  8
0
  6
Continuous
 62
     7
370
    25
100
AcDbLine
 10
102.0783594231
 20
98.566953004
 30
0.0
 11
112.5565300118
 21
98.566953004
 31
0.0
  0
SPLINE
  5
114
330
1F
100
AcDbEntity
  8
0
  6
Continuous
 62
     7
370
    25
100
AcDbSpline
210
0.0
220
0.0
230
1.0
 70
     8
 71
     3
 72
    15
 73
    11
 74
     0
 42
0.000000001
 43
0.00000001
 40
0.0
 40
0.0
 40
0.0
 40
0.0
 40
0.0090436668555053
 40
0.1032416108587011
 40
0.1542555096908477
 40
0.3133160372726557
 40
0.5243720667937798
 40
0.6678058153000223
 40
0.9918331445062708
 40
0.9999999999999999
 40
0.9999999999999999
 40
0.9999999999999999
 40
0.9999999999999999
 10
112.5565300117509
 20
99.1669538474346
 30
0.0
 10
112.5565242562512
 20
99.16863452793956
 30
0.0
 10
112.556458552033
 20
99.1878210111928
 30
0.0
 10
112.5544634662442
 20
99.21651499532668
 30
0.0
 10
112.5466472435086
 20
99.2671917040651
 30
0.0
 10
112.5294762478678
 20
99.32506727094348
 30
0.0
 10
112.5028932350631
 20
99.3699353666253
 30
0.0
 10
112.4650630667806
 20
99.40729320656617
 30
0.0
 10
112.4367838732627
 20
99.41685247513705
 30
0.0
 10
112.416951782484
 20
99.41695009156965
 30
0.0
 10
112.4164642188029
 20
99.41695249142893
 30
0.0
  0
SPLINE
  5
115
330
1F
100
AcDbEntity
  8
0
  6
Continuous
 62
     7
370
    25
100
AcDbSpline
210
0.0
220
0.0
230
1.0
 70
     8
 71
     3
 72
    15
 73
    11
 74
     0
 42
0.000000001
 43
0.00000001
 40
0.0
 40
0.0
 40
0.0
 40
0.0
 40
0.0081668554937291
 40
0.3321941846999776
 40
0.4756279332062201
 40
0.6866839627273442
 40
0.8457444903091523
 40
0.8967583891412989
 40
0.9909563331444947
 40
1.0
 40
1.0
 40
1.0
 40
1.0
 10
102.2184252160863
 20
99.41695249142893
 30
0.0
 10
102.2179376524053
 20
99.41695009156965
 30
0.0
 10
102.1981055616265
 20
99.41685247513709
 30
0.0
 10
102.1698263681086
 20
99.40729320656617
 30
0.0
 10
102.1319961998261
 20
99.3699353666253
 30
0.0
 10
102.1054131870214
 20
99.32506727094348
 30
0.0
 10
102.0882421913806
 20
99.2671917040651
 30
0.0
 10
102.080425968645
 20
99.21651499532666
 30
0.0
 10
102.0784308828562
 20
99.1878210111928
 30
0.0
 10
102.078365178638
 20
99.16863452793956
 30
0.0
 10
102.0783594231383
 20
99.1669538474346
 30
0.0
  0
LINE
  5
116
330
1F
100
AcDbEntity
  8
0
  6
Continuous
 62
     7
370
    25
100
AcDbLine
 10
102.2184252161
 20
99.4169524914
 30
0.0
 11
112.4164642188
 21
99.4169524914
 31
0.0
  0
SPLINE
  5
117
330
1F
100
AcDbEntity
  8
0
  6
Continuous
 62
     7
370
    25
100
AcDbSpline
210
0.0
220
0.0
230
1.0
 70
     8
 71
     3
 72
    15
 73
    11
 74
     0
 42
0.000000001
 43
0.00000001
 40
0.0
 40
0.0
 40
0.0
 40
0.0
 40
0.0080845166116213
 40
0.3310110803515837
 40
0.4750334718139839
 40
0.6874373868841556
 40
0.8468378249369453
 40
0.9001014979498858
 40
0.9910465065391931
 40
0.9999999999999999
 40
0.9999999999999999
 40
0.9999999999999999
 40
0.9999999999999999
 10
112.4164642188029
 20
99.41695249142893
 30
0.0
 10
112.4177439892352
 20
99.41695008950259
 30
0.0
 10
112.4701426932954
 20
99.41685174543665
 30
0.0
 10
112.5454988128124
 20
99.40715938467667
 30
0.0
 10
112.6474184783788
 20
99.36988207376969
 30
0.0
 10
112.7198082865487
 20
99.3251715774026
 30
0.0
 10
112.7675153328413
 20
99.26703682818857
 30
0.0
 10
112.7890490228942
 20
99.21614879432437
 30
0.0
 10
112.7944796944946
 20
99.1873870336713
 30
0.0
 10
112.7946544617312
 20
99.16863455524795
 30
0.0
 10
112.7946701254026
 20
99.1669538474346
 30
0.0
  0
LINE
  5
118
330
1F
100
AcDbEntity
  8
0
  6
Continuous
 62
     7
370
    25
100
AcDbLine
 10
112.5565300118
 20
99.1669538474
 30
0.0
 11
112.7946701254
 21
99.1669538474
 31
0.0
  0
SPLINE
  5
119
330
1F
100
AcDbEntity
  8
0
  6
Continuous
 62
     7
370
    25
100
AcDbSpline
210
0.0
220
0.0
230
1.0
 70
     8
 71
     3
 72
    15
 73
    11
 74
     0
 42
0.000000001
 43
0.00000001
 40
0.0
 40
0.0
 40
0.0
 40
0.0
 40
0.0089534934608068
 40
0.0998985020501141
 40
0.1531621750630547
 40
0.3125626131158444
 40
0.524966528186016
 40
0.6689889196484162
 40
0.9919154833883785
 40
0.9999999999999999
 40
0.9999999999999999
 40
0.9999999999999999
 40
0.9999999999999999
 10
101.8402193094866
 20
99.1669538474346
 30
0.0
 10
101.840234973158
 20
99.16863455524795
 30
0.0
 10
101.8404097403946
 20
99.18738703367126
 30
0.0
 10
101.845840411995
 20
99.21614879432437
 30
0.0
 10
101.8673741020479
 20
99.26703682818858
 30
0.0
 10
101.9150811483405
 20
99.3251715774026
 30
0.0
 10
101.9874709565104
 20
99.36988207376967
 30
0.0
 10
102.0893906220768
 20
99.4071593846767
 30
0.0
 10
102.1647467415938
 20
99.41685174543655
 30
0.0
 10
102.217145445654
 20
99.41695008950258
 30
0.0
 10
102.2184252160863
 20
99.41695249142893
 30
0.0
  0
LINE
  5
11A
330
1F
100
AcDbEntity
  8
0
  6
Continuous
 62
     7
370
    25
100
AcDbLine
 10
101.8402193095
 20
99.1669538474
 30
0.0
 11
102.0783594231
 21
99.1669538474
 31
0.0
  0
LINE
  5
11B
330
1F
100
AcDbEntity
  8
0
  6
Continuous
 62
     7
370
    25
100
AcDbLine
 10
101.8402193095
 20
98.566953004
 30
0.0
 11
101.8402193095
 21
99.1669538474
 31
0.0
  0
LINE
  5
11C
330
1F
100
AcDbEntity
  8
0
  6
Continuous
 62
     7
370
    25
100
AcDbLine
 10
102.0783594231
 20
98.566953004
 30
0.0
 11
101.8402193095
 21
98.566953004
 31
0.0
  0
LINE
  5
11D
330
1F
100
AcDbEntity
  8
0
  6
Continuous
 62
     7
370
    25
100
AcDbLine
 10
112.7946701254
 20
99.1669538474
 30
0.0
 11
112.7946701254
 21
98.566953004
 31
0.0
  0
LINE
  5
11E
330
1F
100
AcDbEntity
  8
0
  6
Continuous
 62
     7
370
    25
100
AcDbLine
 10
112.7946701254
 20
98.566953004
 30
0.0
 11
112.5565300118
 21
98.566953004
 31
0.0
  0
LINE
  5
11F
330
1F
100
AcDbEntity
  8
0
  6
Continuous
 62
     7
370
    25
100
AcDbLine
 10
113.0674447286
 20
98.566953004
 30
0.0
 11
113.0674447286
 21
99.1669538474
 31
0.0
  0
LINE
  5
120
330
1F
100
AcDbEntity
  8
0
  6
Continuous
 62
     7
370
    25
100
AcDbLine
 10
113.0674447286
 20
99.1669538474
 30
0.0
 11
113.3174447696
 21
99.1669538474
 31
0.0
  0
LINE
  5
121
330
1F
100
AcDbEntity
  8
0
  6
Continuous
 62
     7
370
    25
100
AcDbLine
 10
113.3174447696
 20
99.1669538474
 30
0.0
 11
113.3174447696
 21
98.566953004
 31
0.0
  0
LINE
  5
122
330
1F
100
AcDbEntity
  8
0
  6
Continuous
 62
     7
370
    25
100
AcDbLine
 10
113.3174447696
 20
98.566953004
 30
0.0
 11
113.0674447286
 21
98.566953004
 31
0.0
  0
LINE
  5
123
330
1F
100
AcDbEntity
  8
0
  6
Continuous
 62
     7
370
    25
100
AcDbLine
 10
113.0674447286
 20
99.1669538474
 30
0.0
 11
112.7946701254
 21
99.1669538474
 31
0.0
  0
LINE
  5
124
330
1F
100
AcDbEntity
  8
0
  6
Continuous
 62
     7
370
    25
100
AcDbLine
 10
112.7946701254
 20
98.566953004
 30
0.0
 11
113.0674447286
 21
98.566953004
 31
0.0
  0
LINE
  5
125
330
1F
100
AcDbEntity
  8
0
  6
Continuous
 62
     7
370
    25
100
AcDbLine
 10
101.3174446653
 20
98.566953004
 30
0.0
 11
101.3174446653
 21
99.1669538474
 31
0.0
  0
LINE
  5
126
330
1F
100
AcDbEntity
  8
0
  6
Continuous
 62
     7
370
    25
100
AcDbLine
 10
101.3174446653
 20
99.1669538474
 30
0.0
 11
101.5674447063
 21
99.1669538474
 31
0.0
  0
LINE
  5
127
330
1F
100
AcDbEntity
  8
0
  6
Continuous
 62
     7
370
    25
100
AcDbLine
 10
101.5674447063
 20
99.1669538474
 30
0.0
 11
101.5674447063
 21
98.566953004
 31
0.0
  0
LINE
  5
128
330
1F
100
AcDbEntity
  8
0
  6
Continuous
 62
     7
370
    25
100
AcDbLine
 10
101.5674447063
 20
98.566953004
 30
0.0
 11
101.3174446653
 21
98.566953004
 31
0.0
  0
LINE
  5
129
330
1F
100
AcDbEntity
  8
0
  6
Continuous
 62
     7
370
    25
100
AcDbLine
 10
101.8402193095
 20
99.1669538474
 30
0.0
 11
101.5674447063
 21
99.1669538474
 31
0.0
  0
LINE
  5
12A
330
1F
100
AcDbEntity
  8
0
  6
Continuous
 62
     7
370
    25
100
AcDbLine
 10
101.5674447063
 20
98.566953004
 30
0.0
 11
101.8402193095
 21
98.566953004
 31
0.0
  0
LINE
  5
12B
330
1F
100
AcDbEntity
  8
0
  6
Continuous
 62
     7
370
    25
100
AcDbLine
 10
101.5674447063
 20
99.4169524914
 30
0.0
 11
101.5674447063
 21
99.1669538474
 31
0.0
  0
LINE
  5
12C
330
1F
100
AcDbEntity
  8
0
  6
Continuous
 62
     7
370
    25
100
AcDbLine
 10
101.5674447063
 20
99.4169524914
 30
0.0
 11
102.2184252161
 21
99.4169524914
 31
0.0
  0
LINE
  5
12D
330
1F
100
AcDbEntity
  8
0
  6
Continuous
 62
     7
370
    25
100
AcDbLine
 10
113.0674447286
 20
99.1669538474
 30
0.0
 11
113.0674447286
 21
99.4169524914
 31
0.0
  0
ARC
  5
12E
330
1F
100
AcDbEntity
  8
0
  6
Continuous
 62
     7
370
    25
100
AcDbCircle
 10
113.0674447174
 20
99.166953317
 30
0.0
 40
0.25
100
AcDbArc
 50
0.0
 51
90.0
  0
LINE
  5
12F
330
1F
100
AcDbEntity
  8
0
  6
Continuous
 62
     7
370
    25
100
AcDbLine
 10
112.4164642188
 20
99.4169524914
 30
0.0
 11
113.0674447286
 21
99.4169524914
 31
0.0
  0
ARC
  5
130
330
1F
100
AcDbEntity
  8
0
  6
Continuous
 62
     7
370
    25
100
AcDbCircle
 10
101.5674447174
 20
99.166953317
 30
0.0
 40
0.25
100
AcDbArc
 50
90.0
 51
180.0
  0
LINE
  5
131
330
1F
100
AcDbEntity
  8
0
  6
Continuous
 62
     7
370
    25
100
AcDbLine
 10
102.3174448292
 20
99.4169524914
 30
0.0
 11
102.3174448292
 21
99.4269530332
 31
0.0
  0
LINE
  5
132
330
1F
100
AcDbEntity
  8
0
  6
Continuous
 62
     7
370
    25
100
AcDbLine
 10
102.3174448292
 20
99.4269530332
 30
0.0
 11
112.3174446057
 21
99.4269530332
 31
0.0
  0
LINE
  5
133
330
1F
100
AcDbEntity
  8
0
  6
Continuous
 62
     7
370
    25
100
AcDbLine
 10
112.3174446057
 20
99.4169524914
 30
0.0
 11
112.3174446057
 21
99.4269530332
 31
0.0
  0
LINE
  5
134
330
1F
100
AcDbEntity
  8
0
  6
Continuous
 62
     1
370
    25
100
AcDbLine
 10
100.3174445014
 20
66.8725091076
 30
0.0
 11
100.3174445014
 21
63.566952855
 31
0.0
  0
LINE
  5
135
330
1F
100
AcDbEntity
  8
0
  6
Continuous
 62
     1
370
    25
100
AcDbLine
 10
114.3174449335
 20
63.566952855
 30
0.0
 11
114.3174449335
 21
66.8725091076
 31
0.0
  0
LINE
  5
136
330
1F
100
AcDbEntity
  8
0
  6
Continuous
 62
     1
370
    25
100
AcDbLine
 10
114.3174449335
 20
77.261397992
 30
0.0
 11
114.3174449335
 21
80.5669537789
 31
0.0
  0
LINE
  5
137
330
1F
100
AcDbEntity
  8
0
  6
Continuous
 62
     1
370
    25
100
AcDbLine
 10
100.3174445014
 20
80.5669537789
 30
0.0
 11
100.3174445014
 21
77.261397992
 31
0.0
  0
LINE
  5
138
330
1F
100
AcDbEntity
  8
0
  6
Continuous
 62
     7
370
    25
100
AcDbLine
 10
82.8174453582
 20
151.0508597273
 30
0.0
 11
82.3174443449
 21
150.5508596454
 31
0.0
  0
LINE
  5
139
330
1F
100
AcDbEntity
  8
0
  6
Continuous
 62
     7
370
    25
100
AcDbLine
 10
82.3174443449
 20
131.5508602563
 30
0.0
 11
82.8174453582
 21
131.0508601744
 31
0.0
  0
LINE
  5
13A
330
1F
100
AcDbEntity
  8
0
  6
Continuous
 62
     7
370
    25
100
AcDbLine
 10
82.8174453582
 20
131.0508601744
 30
0.0
 11
97.317444941
 21
131.0508601744
 31
0.0
  0
LINE
  5
13B
330
1F
100
AcDbEntity
  8
0
  6
Continuous
 62
     7
370
    25
100
AcDbLine
 10
97.317444941
 20
151.0508597273
 30
0.0
 11
82.8174453582
 21
151.0508597273
 31
0.0
  0
LINE
  5
13C
330
1F
100
AcDbEntity
  8
0
  6
Continuous
 62
     7
370
    25
100
AcDbLine
 10
131.8174440767
 20
131.0508601744
 30
0.0
 11
132.31744509
 21
131.5508602563
 31
0.0
  0
LINE
  5
13D
330
1F
100
AcDbEntity
  8
0
  6
Continuous
 62
     7
370
    25
100
AcDbLine
 10
132.31744509
 20
150.5508596454
 30
0.0
 11
131.8174440767
 21
151.0508597273
 31
0.0
  0
LINE
  5
13E
330
1F
100
AcDbEntity
  8
0
  6
Continuous
 62
     7
370
    25
100
AcDbLine
 10
97.317444941
 20
131.0508601744
 30
0.0
 11
99.4354782979
 21
131.0508601744
 31
0.0
  0
LINE
  5
13F
330
1F
100
AcDbEntity
  8
0
  6
Continuous
 62
     7
370
    25
100
AcDbLine
 10
99.4354782979
 20
151.0508597273
 30
0.0
 11
97.317444941
 21
151.0508597273
 31
0.0
  0
ARC
  5
140
330
1F
100
AcDbEntity
  8
0
  6
Continuous
 62
     7
370
    25
100
AcDbCircle
 10
116.3174447174
 20
150.0508599509
 30
0.0
 40
1.500000000000014
100
AcDbArc
 50
138.1896851042
 51
180.0
  0
ARC
  5
141
330
1F
100
AcDbEntity
  8
0
  6
Continuous
 62
     7
370
    25
100
AcDbCircle
 10
116.3174447174
 20
132.0508599509
 30
0.0
 40
1.500000000000014
100
AcDbArc
 50
180.0
 51
221.8103148958
  0
ARC
  5
142
330
1F
100
AcDbEntity
  8
0
  6
Continuous
 62
     7
370
    25
100
AcDbCircle
 10
98.3174447174
 20
132.0508599509
 30
0.0
 40
1.500000000000004
100
AcDbArc
 50
318.1896851042
 51
0.0
  0
ARC
  5
143
330
1F
100
AcDbEntity
  8
0
  6
Continuous
 62
     7
370
    25
100
AcDbCircle
 10
98.3174447174
 20
150.0508599509
 30
0.0
 40
1.500000000000004
100
AcDbArc
 50
0.0
 51
41.8103148958
  0
LINE
  5
144
330
1F
100
AcDbEntity
  8
0
  6
Continuous
 62
     7
370
    25
100
AcDbLine
 10
131.8174440767
 20
151.0508597273
 30
0.0
 11
115.199411137
 21
151.0508597273
 31
0.0
  0
LINE
  5
145
330
1F
100
AcDbEntity
  8
0
  6
Continuous
 62
     7
370
    25
100
AcDbLine
 10
115.199411137
 20
131.0508601744
 30
0.0
 11
131.8174440767
 21
131.0508601744
 31
0.0
  0
LINE
  5
146
330
1F
100
AcDbEntity
  8
0
  6
Continuous
 62
     7
370
    25
100
AcDbLine
 10
82.3174443449
 20
131.5508602563
 30
0.0
 11
82.3174443449
 21
150.5508596454
 31
0.0
  0
LINE
  5
147
330
1F
100
AcDbEntity
  8
0
  6
Continuous
 62
     7
370
    25
100
AcDbLine
 10
82.8174453582
 20
151.0508597273
 30
0.0
 11
82.8174453582
 21
131.0508601744
 31
0.0
  0
LINE
  5
148
330
1F
100
AcDbEntity
  8
0
  6
Continuous
 62
     7
370
    25
100
AcDbLine
 10
97.317444941
 20
131.0508601744
 30
0.0
 11
97.317444941
 21
151.0508597273
 31
0.0
  0
LINE
  5
149
330
1F
100
AcDbEntity
  8
0
  6
Continuous
 62
     7
370
    25
100
AcDbLine
 10
132.31744509
 20
150.5508596454
 30
0.0
 11
132.31744509
 21
144.5508600589
 31
0.0
  0
LINE
  5
14A
330
1F
100
AcDbEntity
  8
0
  6
Continuous
 62
     7
370
    25
100
AcDbLine
 10
132.31744509
 20
137.5508598428
 30
0.0
 11
132.31744509
 21
131.5508602563
 31
0.0
  0
LINE
  5
14B
330
1F
100
AcDbEntity
  8
0
  6
Continuous
 62
     7
370
    25
100
AcDbLine
 10
131.8174440767
 20
131.0508601744
 30
0.0
 11
131.8174440767
 21
137.5508598428
 31
0.0
  0
LINE
  5
14C
330
1F
100
AcDbEntity
  8
0
  6
Continuous
 62
     7
370
    25
100
AcDbLine
 10
131.8174440767
 20
144.5508600589
 30
0.0
 11
131.8174440767
 21
151.0508597273
 31
0.0
  0
LINE
  5
14D
330
1F
100
AcDbEntity
  8
0
  6
Continuous
 62
     7
370
    25
100
AcDbLine
 10
99.4354782979
 20
151.0508597273
 30
0.0
 11
99.4354782979
 21
131.0508601744
 31
0.0
  0
LINE
  5
14E
330
1F
100
AcDbEntity
  8
0
  6
Continuous
 62
     7
370
    25
100
AcDbLine
 10
115.199411137
 20
131.0508601744
 30
0.0
 11
115.199411137
 21
135.9598237466
 31
0.0
  0
LINE
  5
14F
330
1F
100
AcDbEntity
  8
0
  6
Continuous
 62
     7
370
    25
100
AcDbLine
 10
115.199411137
 20
146.1418961551
 30
0.0
 11
115.199411137
 21
151.0508597273
 31
0.0
  0
SPLINE
  5
150
330
1F
100
AcDbEntity
  8
0
  6
Continuous
 62
     7
370
    25
100
AcDbSpline
210
0.0
220
0.0
230
1.0
 70
     8
 71
     3
 72
     8
 73
     4
 74
     0
 42
0.000000001
 43
0.00000001
 40
0.0
 40
0.0
 40
0.0
 40
0.0
 40
1.0
 40
1.0
 40
1.0
 40
1.0
 10
114.9146458428164
 20
148.9049542798258
 30
0.0
 10
114.8468094247205
 20
148.6659895795306
 30
0.0
 10
114.8174447174446
 20
148.4221928296293
 30
0.0
 10
114.8174447174446
 20
148.174763371803
 30
0.0
  0
SPLINE
  5
151
330
1F
100
AcDbEntity
  8
0
  6
Continuous
 62
     7
370
    25
100
AcDbSpline
210
0.0
220
0.0
230
1.0
 70
     8
 71
     3
 72
    12
 73
     8
 74
     0
 42
0.000000001
 43
0.00000001
 40
0.0
 40
0.0
 40
0.0
 40
0.0
 40
0.2499999999999994
 40
0.2499999999999994
 40
0.4999999999999989
 40
0.4999999999999989
 40
1.0
 40
1.0
 40
1.0
 40
1.0
 10
115.0465307854847
 20
149.8133211302107
 30
0.0
 10
115.074022705559
 20
149.8016266994194
 30
0.0
 10
115.0939031355829
 20
149.7697195248575
 30
0.0
 10
115.1096337494705
 20
149.6705664086725
 30
0.0
 10
115.1051947529592
 20
149.6029011331745
 30
0.0
 10
115.0585501545016
 20
149.3598065404121
 30
0.0
 10
114.9825156030664
 20
149.1440364332251
 30
0.0
 10
114.9146458428164
 20
148.9049542798258
 30
0.0
  0
SPLINE
  5
152
330
1F
100
AcDbEntity
  8
0
  6
Continuous
 62
     7
370
    25
100
AcDbSpline
210
0.0
220
0.0
230
1.0
 70
     8
 71
     3
 72
    12
 73
     8
 74
     0
 42
0.000000001
 43
0.00000001
 40
0.0
 40
0.0
 40
0.0
 40
0.0
 40
0.5
 40
0.5
 40
0.75
 40
0.75
 40
1.0
 40
1.0
 40
1.0
 40
1.0
 10
114.8174447174446
 20
150.0508599508599
 30
0.0
 10
114.8174447174446
 20
150.0508599508599
 30
0.0
 10
114.8128873224275
 20
150.0277774843396
 30
0.0
 10
114.8400709869123
 20
149.9646782314857
 30
0.0
 10
114.8555206578889
 20
149.939023867812
 30
0.0
 10
114.9183842596726
 20
149.8806713394685
 30
0.0
 10
114.9654141830298
 20
149.8478262681158
 30
0.0
 10
115.0465307854847
 20
149.8133211302107
 30
0.0
  0
SPLINE
  5
153
330
1F
100
AcDbEntity
  8
0
  6
Continuous
 62
     7
370
    25
100
AcDbSpline
210
0.0
220
0.0
230
1.0
 70
     8
 71
     3
 72
    12
 73
     8
 74
     0
 42
0.000000001
 43
0.00000001
 40
0.0
 40
0.0
 40
0.0
 40
0.0
 40
0.2499999999999999
 40
0.2499999999999999
 40
0.4999999999999998
 40
0.4999999999999998
 40
1.0
 40
1.0
 40
1.0
 40
1.0
 10
115.0465307854847
 20
132.2883987715092
 30
0.0
 10
114.9649654763946
 20
132.2537027641167
 30
0.0
 10
114.9184698820871
 20
132.2211023747924
 30
0.0
 10
114.8556395592167
 20
132.1628319850957
 30
0.0
 10
114.8401430248569
 20
132.1371699204606
 30
0.0
 10
114.8128835959773
 20
132.0740113983701
 30
0.0
 10
114.8174447174446
 20
132.0508599508599
 30
0.0
 10
114.8174447174446
 20
132.0508599508599
 30
0.0
  0
SPLINE
  5
154
330
1F
100
AcDbEntity
  8
0
  6
Continuous
 62
     7
370
    25
100
AcDbSpline
210
0.0
220
0.0
230
1.0
 70
     8
 71
     3
 72
    14
 73
    10
 74
     0
 42
0.000000001
 43
0.00000001
 40
0.0
 40
0.0
 40
0.0
 40
0.0
 40
0.25
 40
0.25
 40
0.5
 40
0.5
 40
0.75
 40
0.75
 40
1.0
 40
1.0
 40
1.0
 40
1.0
 10
114.9146458428164
 20
133.1967656218941
 30
0.0
 10
114.9486418463028
 20
133.0770092283166
 30
0.0
 10
114.9846814252625
 20
132.9644108354489
 30
0.0
 10
115.0475179765717
 20
132.7561817278504
 30
0.0
 10
115.0738905600146
 20
132.661736331105
 30
0.0
 10
115.1051469053537
 20
132.4992947136494
 30
0.0
 10
115.1096387371555
 20
132.431471270846
 30
0.0
 10
115.0939716952424
 20
132.3321475201485
 30
0.0
 10
115.0740517733246
 20
132.3001055670598
 30
0.0
 10
115.0465307854847
 20
132.2883987715092
 30
0.0
  0
SPLINE
  5
155
330
1F
100
AcDbEntity
  8
0
  6
Continuous
 62
     7
370
    25
100
AcDbSpline
210
0.0
220
0.0
230
1.0
 70
     8
 71
     3
 72
     8
 73
     4
 74
     0
 42
0.000000001
 43
0.00000001
 40
0.0
 40
0.0
 40
0.0
 40
0.0
 40
1.0
 40
1.0
 40
1.0
 40
1.0
 10
114.8174447174446
 20
133.9269565299169
 30
0.0
 10
114.8174447174446
 20
133.6795270720905
 30
0.0
 10
114.8468094247205
 20
133.4357303221892
 30
0.0
 10
114.9146458428164
 20
133.1967656218941
 30
0.0
  0
LINE
  5
156
330
1F
100
AcDbEntity
  8
0
  6
Continuous
 62
     7
370
    25
100
AcDbLine
 10
114.8174445498
 20
133.9269565795
 30
0.0
 11
114.8174445498
 21
135.8725113239
 31
0.0
  0
LINE
  5
157
330
1F
100
AcDbEntity
  8
0
  6
Continuous
 62
     7
370
    25
100
AcDbLine
 10
114.8174445498
 20
146.2292085778
 30
0.0
 11
114.8174445498
 21
148.1747633223
 31
0.0
  0
SPLINE
  5
158
330
1F
100
AcDbEntity
  8
0
  6
Continuous
 62
     7
370
    25
100
AcDbSpline
210
0.0
220
0.0
230
1.0
 70
     8
 71
     3
 72
     8
 73
     4
 74
     0
 42
0.000000001
 43
0.00000001
 40
0.0
 40
0.0
 40
0.0
 40
0.0
 40
1.0
 40
1.0
 40
1.0
 40
1.0
 10
99.7202435920729
 20
133.1967656218941
 30
0.0
 10
99.78808001016878
 20
133.4357303221892
 30
0.0
 10
99.81744471744462
 20
133.6795270720905
 30
0.0
 10
99.81744471744462
 20
133.9269565299169
 30
0.0
  0
SPLINE
  5
159
330
1F
100
AcDbEntity
  8
0
  6
Continuous
 62
     7
370
    25
100
AcDbSpline
210
0.0
220
0.0
230
1.0
 70
     8
 71
     3
 72
    14
 73
    10
 74
     0
 42
0.000000001
 43
0.00000001
 40
0.0
 40
0.0
 40
0.0
 40
0.0
 40
0.25
 40
0.25
 40
0.5
 40
0.5
 40
0.75
 40
0.75
 40
1.0
 40
1.0
 40
1.0
 40
1.0
 10
99.58835864940448
 20
132.2883987715092
 30
0.0
 10
99.56083766156462
 20
132.3001055670598
 30
0.0
 10
99.54091773964687
 20
132.3321475201485
 30
0.0
 10
99.5252506977338
 20
132.431471270846
 30
0.0
 10
99.52974252953551
 20
132.4992947136494
 30
0.0
 10
99.56099887487468
 20
132.661736331105
 30
0.0
 10
99.58737145831753
 20
132.7561817278504
 30
0.0
 10
99.65020800962672
 20
132.9644108354489
 30
0.0
 10
99.68624758858645
 20
133.0770092283166
 30
0.0
 10
99.7202435920729
 20
133.1967656218941
 30
0.0
  0
SPLINE
  5
15A
330
1F
100
AcDbEntity
  8
0
  6
Continuous
 62
     7
370
    25
100
AcDbSpline
210
0.0
220
0.0
230
1.0
 70
     8
 71
     3
 72
    12
 73
     8
 74
     0
 42
0.000000001
 43
0.00000001
 40
0.0
 40
0.0
 40
0.0
 40
0.0
 40
0.5
 40
0.5
 40
0.75
 40
0.75
 40
1.0
 40
1.0
 40
1.0
 40
1.0
 10
99.81744471744462
 20
132.0508599508599
 30
0.0
 10
99.81744471744462
 20
132.0508599508599
 30
0.0
 10
99.82200211246172
 20
132.0739424173802
 30
0.0
 10
99.79481844797695
 20
132.1370416702341
 30
0.0
 10
99.77936877700037
 20
132.1626960339079
 30
0.0
 10
99.7165051752166
 20
132.2210485622514
 30
0.0
 10
99.66947525185944
 20
132.253893633604
 30
0.0
 10
99.58835864940448
 20
132.2883987715092
 30
0.0
  0
SPLINE
  5
15B
330
1F
100
AcDbEntity
  8
0
  6
Continuous
 62
     7
370
    25
100
AcDbSpline
210
0.0
220
0.0
230
1.0
 70
     8
 71
     3
 72
    12
 73
     8
 74
     0
 42
0.000000001
 43
0.00000001
 40
0.0
 40
0.0
 40
0.0
 40
0.0
 40
0.2499999999999999
 40
0.2499999999999999
 40
0.4999999999999998
 40
0.4999999999999998
 40
1.0
 40
1.0
 40
1.0
 40
1.0
 10
99.58835864940448
 20
149.8133211302107
 30
0.0
 10
99.66992395849469
 20
149.8480171376032
 30
0.0
 10
99.71641955280218
 20
149.8806175269275
 30
0.0
 10
99.7792498756725
 20
149.9388879166242
 30
0.0
 10
99.79474641003233
 20
149.9645499812592
 30
0.0
 10
99.82200583891196
 20
150.0277085033497
 30
0.0
 10
99.81744471744462
 20
150.0508599508599
 30
0.0
 10
99.81744471744462
 20
150.0508599508599
 30
0.0
  0
SPLINE
  5
15C
330
1F
100
AcDbEntity
  8
0
  6
Continuous
 62
     7
370
    25
100
AcDbSpline
210
0.0
220
0.0
230
1.0
 70
     8
 71
     3
 72
    12
 73
     8
 74
     0
 42
0.000000001
 43
0.00000001
 40
0.0
 40
0.0
 40
0.0
 40
0.0
 40
0.5000000000000011
 40
0.5000000000000011
 40
0.7500000000000006
 40
0.7500000000000006
 40
1.0
 40
1.0
 40
1.0
 40
1.0
 10
99.7202435920729
 20
148.9049542798258
 30
0.0
 10
99.65237383182283
 20
149.1440364332251
 30
0.0
 10
99.57633928038761
 20
149.3598065404121
 30
0.0
 10
99.52969468193001
 20
149.6029011331744
 30
0.0
 10
99.52525568541871
 20
149.6705664086726
 30
0.0
 10
99.54098629930634
 20
149.7697195248575
 30
0.0
 10
99.56086672933026
 20
149.8016266994194
 30
0.0
 10
99.58835864940448
 20
149.8133211302107
 30
0.0
  0
SPLINE
  5
15D
330
1F
100
AcDbEntity
  8
0
  6
Continuous
 62
     7
370
    25
100
AcDbSpline
210
0.0
220
0.0
230
1.0
 70
     8
 71
     3
 72
     8
 73
     4
 74
     0
 42
0.000000001
 43
0.00000001
 40
0.0
 40
0.0
 40
0.0
 40
0.0
 40
1.0
 40
1.0
 40
1.0
 40
1.0
 10
99.81744471744462
 20
148.174763371803
 30
0.0
 10
99.81744471744462
 20
148.4221928296293
 30
0.0
 10
99.78808001016878
 20
148.6659895795306
 30
0.0
 10
99.7202435920729
 20
148.9049542798258
 30
0.0
  0
LINE
  5
15E
330
1F
100
AcDbEntity
  8
0
  6
Continuous
 62
     7
370
    25
100
AcDbLine
 10
99.8174448851
 20
148.1747633223
 30
0.0
 11
99.8174448851
 21
133.9269565795
 31
0.0
  0
ARC
  5
15F
330
1F
100
AcDbEntity
  8
0
  6
Continuous
 62
     7
370
    25
100
AcDbCircle
 10
114.3641269521
 20
148.2337388068
 30
0.0
 40
0.4571377824698478
100
AcDbArc
 50
264.1388497305
 51
352.5875946393
  0
ARC
  5
160
330
1F
100
AcDbEntity
  8
0
  6
Continuous
 62
     7
370
    25
100
AcDbCircle
 10
114.3641269521
 20
133.8679810949
 30
0.0
 40
0.4571377824698478
100
AcDbArc
 50
7.4124053607
 51
95.8611502695
  0
ARC
  5
161
330
1F
100
AcDbEntity
  8
0
  6
Continuous
 62
     7
370
    25
100
AcDbCircle
 10
100.2707624828
 20
133.8679810949
 30
0.0
 40
0.4571377824698555
100
AcDbArc
 50
84.1388497305
 51
172.5875946393
  0
ARC
  5
162
330
1F
100
AcDbEntity
  8
0
  6
Continuous
 62
     7
370
    25
100
AcDbCircle
 10
100.2707624828
 20
148.2337388068
 30
0.0
 40
0.4571377824698555
100
AcDbArc
 50
187.4124053607
 51
275.8611502695
  0
LINE
  5
163
330
1F
100
AcDbEntity
  8
0
  6
Continuous
 62
     7
370
    25
100
AcDbLine
 10
114.3174449335
 20
148.1747633223
 30
0.0
 11
114.8174445498
 21
148.1747633223
 31
0.0
  0
SPLINE
  5
164
330
1F
100
AcDbEntity
  8
0
  6
Continuous
 62
     7
370
    25
100
AcDbSpline
210
0.0
220
0.0
230
1.0
 70
     8
 71
     3
 72
     8
 73
     4
 74
     0
 42
0.000000001
 43
0.00000001
 40
0.0
 40
0.0
 40
0.0
 40
0.0
 40
1.0
 40
1.0
 40
1.0
 40
1.0
 10
114.3174447174446
 20
148.174763371803
 30
0.0
 10
114.3174447174446
 20
148.4731862411212
 30
0.0
 10
114.3580375218773
 20
148.765604192158
 30
0.0
 10
114.4470462179403
 20
149.0508599508599
 30
0.0
  0
LWPOLYLINE
  5
165
330
1F
100
AcDbEntity
  8
0
  6
Continuous
 62
     7
370
    25
100
AcDbPolyline
 90
        9
 70
   128
 43
0.0
 10
114.9146457556
 20
148.9049546797
 10
114.8915135655
 20
148.9121724296
 10
114.8554015327
 20
148.9234405015
 10
114.8073634486
 20
148.9384301383
 10
114.7488023508
 20
148.9567026872
 10
114.6814290787
 20
148.9777254317
 10
114.6072110514
 20
149.0008836988
 10
114.5283154565
 20
149.0255013485
 10
114.447046386
 20
149.0508603308
  0
SPLINE
  5
166
330
1F
100
AcDbEntity
  8
0
  6
Continuous
 62
     7
370
    25
100
AcDbSpline
210
0.0
220
0.0
230
1.0
 70
     8
 71
     3
 72
     8
 73
     4
 74
     0
 42
0.000000001
 43
0.00000001
 40
0.0
 40
0.0
 40
0.0
 40
0.0
 40
1.0
 40
1.0
 40
1.0
 40
1.0
 10
100.187843216949
 20
149.0508599508599
 30
0.0
 10
100.276851913012
 20
148.765604192158
 30
0.0
 10
100.3174447174446
 20
148.4731862411212
 30
0.0
 10
100.3174447174446
 20
148.174763371803
 30
0.0
  0
LINE
  5
167
330
1F
100
AcDbEntity
  8
0
  6
Continuous
 62
     7
370
    25
100
AcDbLine
 10
100.3174445014
 20
148.1747633223
 30
0.0
 11
99.8174448851
 21
148.1747633223
 31
0.0
  0
LWPOLYLINE
  5
168
330
1F
100
AcDbEntity
  8
0
  6
Continuous
 62
     7
370
    25
100
AcDbPolyline
 90
        9
 70
   128
 43
0.0
 10
100.1878430489
 20
149.0508603308
 10
100.1065739784
 20
149.0255013485
 10
100.0276783834
 20
149.0008836988
 10
99.9534603562
 20
148.9777254317
 10
99.8860870841
 20
148.9567026872
 10
99.8275259863
 20
148.9384301383
 10
99.7794879022
 20
148.9234405015
 10
99.7433758694
 20
148.9121724296
 10
99.7202436793
 20
148.9049546797
  0
SPLINE
  5
169
330
1F
100
AcDbEntity
  8
0
  6
Continuous
 62
     7
370
    25
100
AcDbSpline
210
0.0
220
0.0
230
1.0
 70
     8
 71
     3
 72
     8
 73
     4
 74
     0
 42
0.000000001
 43
0.00000001
 40
0.0
 40
0.0
 40
0.0
 40
0.0
 40
1.0
 40
1.0
 40
1.0
 40
1.0
 10
100.3174447174446
 20
133.9269565299169
 30
0.0
 10
100.3174447174446
 20
133.6285336605987
 30
0.0
 10
100.276851913012
 20
133.3361157095619
 30
0.0
 10
100.187843216949
 20
133.0508599508599
 30
0.0
  0
LWPOLYLINE
  5
16A
330
1F
100
AcDbEntity
  8
0
  6
Continuous
 62
     7
370
    25
100
AcDbPolyline
 90
        9
 70
   128
 43
0.0
 10
100.1878430489
 20
133.0508595709
 10
100.1065739784
 20
133.0762185533
 10
100.0276783834
 20
133.1008362029
 10
99.9534603562
 20
133.12399447
 10
99.8860870841
 20
133.1450172145
 10
99.8275259863
 20
133.1632897634
 10
99.7794879022
 20
133.1782794002
 10
99.7433758694
 20
133.1895474721
 10
99.7202436793
 20
133.196765222
  0
LINE
  5
16B
330
1F
100
AcDbEntity
  8
0
  6
Continuous
 62
     7
370
    25
100
AcDbLine
 10
100.3174445014
 20
133.9269565795
 30
0.0
 11
99.8174448851
 21
133.9269565795
 31
0.0
  0
SPLINE
  5
16C
330
1F
100
AcDbEntity
  8
0
  6
Continuous
 62
     7
370
    25
100
AcDbSpline
210
0.0
220
0.0
230
1.0
 70
     8
 71
     3
 72
     8
 73
     4
 74
     0
 42
0.000000001
 43
0.00000001
 40
0.0
 40
0.0
 40
0.0
 40
0.0
 40
1.0
 40
1.0
 40
1.0
 40
1.0
 10
114.4470462179403
 20
133.0508599508599
 30
0.0
 10
114.3580375218773
 20
133.3361157095619
 30
0.0
 10
114.3174447174446
 20
133.6285336605987
 30
0.0
 10
114.3174447174446
 20
133.9269565299169
 30
0.0
  0
LINE
  5
16D
330
1F
100
AcDbEntity
  8
0
  6
Continuous
 62
     7
370
    25
100
AcDbLine
 10
114.3174449335
 20
133.9269565795
 30
0.0
 11
114.8174445498
 21
133.9269565795
 31
0.0
  0
LWPOLYLINE
  5
16E
330
1F
100
AcDbEntity
  8
0
  6
Continuous
 62
     7
370
    25
100
AcDbPolyline
 90
        9
 70
   128
 43
0.0
 10
114.447046386
 20
133.0508595709
 10
114.5283154565
 20
133.0762185533
 10
114.6072110514
 20
133.1008362029
 10
114.6814290787
 20
133.12399447
 10
114.7488023508
 20
133.1450172145
 10
114.8073634486
 20
133.1632897634
 10
114.8554015327
 20
133.1782794002
 10
114.8915135655
 20
133.1895474721
 10
114.9146457556
 20
133.196765222
  0
LINE
  5
16F
330
1F
100
AcDbEntity
  8
0
  6
Continuous
 62
     7
370
    25
100
AcDbLine
 10
114.3174449335
 20
147.7789908093
 30
0.0
 11
114.3174449335
 21
148.1747633223
 31
0.0
  0
LINE
  5
170
330
1F
100
AcDbEntity
  8
0
  6
Continuous
 62
     7
370
    25
100
AcDbLine
 10
100.3174445014
 20
148.1747633223
 30
0.0
 11
100.3174445014
 21
147.7789908093
 31
0.0
  0
LINE
  5
171
330
1F
100
AcDbEntity
  8
0
  6
Continuous
 62
     7
370
    25
100
AcDbLine
 10
114.3174449335
 20
133.9269565795
 30
0.0
 11
114.3174449335
 21
134.3227290925
 31
0.0
  0
LINE
  5
172
330
1F
100
AcDbEntity
  8
0
  6
Continuous
 62
     7
370
    25
100
AcDbLine
 10
100.3174445014
 20
134.3227290925
 30
0.0
 11
100.3174445014
 21
133.9269565795
 31
0.0
  0
SPLINE
  5
173
330
1F
100
AcDbEntity
  8
0
  6
Continuous
 62
     7
370
    25
100
AcDbSpline
210
0.0
220
0.0
230
1.0
 70
     8
 71
     3
 72
    14
 73
    10
 74
     0
 42
0.000000001
 43
0.00000001
 40
0.0
 40
0.0
 40
0.0
 40
0.0
 40
0.25
 40
0.25
 40
0.5
 40
0.5
 40
0.75
 40
0.75
 40
1.0
 40
1.0
 40
1.0
 40
1.0
 10
114.6228928081648
 20
132.5508599508599
 30
0.0
 10
114.658481026556
 20
132.5508599508599
 30
0.0
 10
114.6878234805052
 20
132.5630661347587
 30
0.0
 10
114.707993282142
 20
132.6192113130937
 30
0.0
 10
114.6960685337255
 20
132.6635398041043
 30
0.0
 10
114.6430348599411
 20
132.7639361460538
 30
0.0
 10
114.6058550245325
 20
132.8174129421201
 30
0.0
 10
114.5265889014747
 20
132.9310534801761
 30
0.0
 10
114.4855119688112
 20
132.9892222826654
 30
0.0
 10
114.4470462179403
 20
133.0508599508599
 30
0.0
  0
ARC
  5
174
330
1F
100
AcDbEntity
  8
0
  6
Continuous
 62
     7
370
    25
100
AcDbCircle
 10
114.6190651394
 20
132.0715536691
 30
0.0
 40
0.479321101997577
100
AcDbArc
 50
26.897807819
 51
89.5424713007
  0
SPLINE
  5
175
330
1F
100
AcDbEntity
  8
0
  6
Continuous
 62
     7
370
    25
100
AcDbSpline
210
0.0
220
0.0
230
1.0
 70
     8
 71
     3
 72
    14
 73
    10
 74
     0
 42
0.000000001
 43
0.00000001
 40
0.0
 40
0.0
 40
0.0
 40
0.0
 40
0.25
 40
0.25
 40
0.5
 40
0.5
 40
0.75
 40
0.75
 40
1.0
 40
1.0
 40
1.0
 40
1.0
 10
100.187843216949
 20
133.0508599508599
 30
0.0
 10
100.1493677332022
 20
132.9892066866673
 30
0.0
 10
100.1082788116277
 20
132.9310227414243
 30
0.0
 10
100.0289959639851
 20
132.8173574199844
 30
0.0
 10
99.99171306278512
 20
132.763680821293
 30
0.0
 10
99.93890730333693
 20
132.6636907887965
 30
0.0
 10
99.9269380432315
 20
132.6192862885352
 30
0.0
 10
99.9469398317461
 20
132.5632264330183
 30
0.0
 10
99.9763962874211
 20
132.5508599508599
 30
0.0
 10
100.0119966267245
 20
132.5508599508599
 30
0.0
  0
ARC
  5
176
330
1F
100
AcDbEntity
  8
0
  6
Continuous
 62
     7
370
    25
100
AcDbCircle
 10
100.0158242955
 20
132.0715536691
 30
0.0
 40
0.4793211019975722
100
AcDbArc
 50
90.4575286993
 51
153.102192181
  0
SPLINE
  5
177
330
1F
100
AcDbEntity
  8
0
  6
Continuous
 62
     7
370
    25
100
AcDbSpline
210
0.0
220
0.0
230
1.0
 70
     8
 71
     3
 72
    14
 73
    10
 74
     0
 42
0.000000001
 43
0.00000001
 40
0.0
 40
0.0
 40
0.0
 40
0.0
 40
0.25
 40
0.25
 40
0.5
 40
0.5
 40
0.75
 40
0.75
 40
1.0
 40
1.0
 40
1.0
 40
1.0
 10
114.4470462179403
 20
149.0508599508599
 30
0.0
 10
114.4855101542247
 20
149.1124947113541
 30
0.0
 10
114.526908362172
 20
149.171121296922
 30
0.0
 10
114.6059996161501
 20
149.2845173949944
 30
0.0
 10
114.6438345291614
 20
149.3391028023383
 30
0.0
 10
114.6961292682048
 20
149.4384930730662
 30
0.0
 10
114.7080146409032
 20
149.4826214785991
 30
0.0
 10
114.6877259390472
 20
149.5387522911389
 30
0.0
 10
114.6584033136337
 20
149.5508599508599
 30
0.0
 10
114.6228928081648
 20
149.5508599508599
 30
0.0
  0
ARC
  5
178
330
1F
100
AcDbEntity
  8
0
  6
Continuous
 62
     7
370
    25
100
AcDbCircle
 10
114.6190651394
 20
150.0301662326
 30
0.0
 40
0.479321101997577
100
AcDbArc
 50
270.4575286993
 51
333.102192181
  0
SPLINE
  5
179
330
1F
100
AcDbEntity
  8
0
  6
Continuous
 62
     7
370
    25
100
AcDbSpline
210
0.0
220
0.0
230
1.0
 70
     8
 71
     3
 72
    16
 73
    12
 74
     0
 42
0.000000001
 43
0.00000001
 40
0.0
 40
0.0
 40
0.0
 40
0.0
 40
0.2500000000000021
 40
0.2500000000000021
 40
0.3750000000000031
 40
0.3750000000000031
 40
0.5000000000000041
 40
0.5000000000000041
 40
0.750000000000002
 40
0.750000000000002
 40
1.0
 40
1.0
 40
1.0
 40
1.0
 10
100.0119966267245
 20
149.5508599508599
 30
0.0
 10
99.97644269716669
 20
149.5508599508599
 30
0.0
 10
99.94717055581603
 20
149.5387282004554
 30
0.0
 10
99.93195800548683
 20
149.496706494161
 30
0.0
 10
99.93189733729416
 20
149.47849212464
 30
0.0
 10
99.94210792177509
 20
149.4365551120906
 30
0.0
 10
99.951891251321
 20
149.4135275485829
 30
0.0
 10
99.99105579995769
 20
149.3391188697647
 30
0.0
 10
100.0289288733264
 20
149.2844609935852
 30
0.0
 10
100.10800184651
 20
149.1710919204469
 30
0.0
 10
100.1493889792119
 20
149.1124791703643
 30
0.0
 10
100.187843216949
 20
149.0508599508599
 30
0.0
  0
ARC
  5
17A
330
1F
100
AcDbEntity
  8
0
  6
Continuous
 62
     7
370
    25
100
AcDbCircle
 10
100.0158242955
 20
150.0301662326
 30
0.0
 40
0.4793211019975851
100
AcDbArc
 50
206.897807819
 51
269.5424713007
  0
LINE
  5
17B
330
1F
100
AcDbEntity
  8
0
  6
Continuous
 62
     7
370
    25
100
AcDbLine
 10
100.0119967739
 20
149.5508604128
 30
0.0
 11
114.622892661
 21
149.5508604128
 31
0.0
  0
LINE
  5
17C
330
1F
100
AcDbEntity
  8
0
  6
Continuous
 62
     7
370
    25
100
AcDbLine
 10
114.447046386
 20
149.0508603308
 30
0.0
 11
100.1878430489
 21
149.0508603308
 31
0.0
  0
LINE
  5
17D
330
1F
100
AcDbEntity
  8
0
  6
Continuous
 62
     7
370
    25
100
AcDbLine
 10
100.1878430489
 20
133.0508595709
 30
0.0
 11
114.447046386
 21
133.0508595709
 31
0.0
  0
LINE
  5
17E
330
1F
100
AcDbEntity
  8
0
  6
Continuous
 62
     7
370
    25
100
AcDbLine
 10
114.622892661
 20
132.5508594889
 30
0.0
 11
100.0119967739
 21
132.5508594889
 31
0.0
  0
ARC
  5
17F
330
1F
100
AcDbEntity
  8
0
  6
Continuous
 62
     7
370
    25
100
AcDbCircle
 10
100.3174447174
 20
150.0508599509
 30
0.0
 40
0.5000000000000142
100
AcDbArc
 50
180.0
 51
270.0
  0
ARC
  5
180
330
1F
100
AcDbEntity
  8
0
  6
Continuous
 62
     7
370
    25
100
AcDbCircle
 10
114.3174447174
 20
150.0508599509
 30
0.0
 40
0.5
100
AcDbArc
 50
270.0
 51
0.0
  0
ARC
  5
181
330
1F
100
AcDbEntity
  8
0
  6
Continuous
 62
     7
370
    25
100
AcDbCircle
 10
100.3174447174
 20
132.0508599509
 30
0.0
 40
0.5000000000000142
100
AcDbArc
 50
90.0
 51
180.0
  0
ARC
  5
182
330
1F
100
AcDbEntity
  8
0
  6
Continuous
 62
     7
370
    25
100
AcDbCircle
 10
114.3174447174
 20
132.0508599509
 30
0.0
 40
0.5
100
AcDbArc
 50
0.0
 51
90.0
  0
LINE
  5
183
330
1F
100
AcDbEntity
  8
0
  6
Continuous
 62
     7
370
    25
100
AcDbLine
 10
127.3174442704
 20
137.7791607663
 30
0.0
 11
129.4928815569
 21
137.5508598428
 31
0.0
  0
LINE
  5
184
330
1F
100
AcDbEntity
  8
0
  6
Continuous
 62
     7
370
    25
100
AcDbLine
 10
127.3174442704
 20
144.3225591354
 30
0.0
 11
127.3174442704
 21
137.7791607663
 31
0.0
  0
LINE
  5
185
330
1F
100
AcDbEntity
  8
0
  6
Continuous
 62
     7
370
    25
100
AcDbLine
 10
147.3174438234
 20
144.5508600589
 30
0.0
 11
129.4928815569
 21
144.5508600589
 31
0.0
  0
LINE
  5
186
330
1F
100
AcDbEntity
  8
0
  6
Continuous
 62
     7
370
    25
100
AcDbLine
 10
147.3174438234
 20
137.5508598428
 30
0.0
 11
147.3174438234
 21
144.5508600589
 31
0.0
  0
LINE
  5
187
330
1F
100
AcDbEntity
  8
0
  6
Continuous
 62
     7
370
    25
100
AcDbLine
 10
129.4928815569
 20
137.5508598428
 30
0.0
 11
147.3174438234
 21
137.5508598428
 31
0.0
  0
LINE
  5
188
330
1F
100
AcDbEntity
  8
0
  6
Continuous
 62
     7
370
    25
100
AcDbLine
 10
129.4928815569
 20
144.5508600589
 30
0.0
 11
127.3174442704
 21
144.3225591354
 31
0.0
  0
LINE
  5
189
330
1F
100
AcDbEntity
  8
0
  6
Continuous
 62
     7
370
    25
100
AcDbLine
 10
112.5412470083
 20
139.3298454493
 30
0.0
 11
112.6696559022
 21
139.5139871309
 31
0.0
  0
LINE
  5
18A
330
1F
100
AcDbEntity
  8
0
  6
Continuous
 62
     7
370
    25
100
AcDbLine
 10
112.6600884254
 20
142.596077654
 30
0.0
 11
112.5412470083
 21
142.7718744524
 31
0.0
  0
LINE
  5
18B
330
1F
100
AcDbEntity
  8
0
  6
Continuous
 62
     7
370
    25
100
AcDbLine
 10
120.7340143974
 20
138.470057296
 30
0.0
 11
120.7340143974
 21
143.6316626057
 31
0.0
  0
LWPOLYLINE
  5
18C
330
1F
100
AcDbEntity
  8
0
  6
Continuous
 62
     7
370
    25
100
AcDbPolyline
 90
       15
 70
   128
 43
0.0
 10
120.7340143974
 20
138.470057296
 10
119.9826373141
 20
138.5489105158
 10
119.2411722969
 20
138.6267232154
 10
118.5138829406
 20
138.70304836
 10
117.8049527462
 20
138.7774470639
 10
117.11845625
 20
138.8494913843
 10
116.4583413284
 20
138.9187668826
 10
115.8284049834
 20
138.9848754186
 10
115.2322691287
 20
139.0474367797
 10
114.6733619626
 20
139.1060911262
 10
114.154896548
 20
139.1605013194
 10
113.6798549797
 20
139.2103544347
 10
113.2509688269
 20
139.2553638578
 10
112.8707037661
 20
139.2952706808
 10
112.5412470083
 20
139.3298454493
  0
LWPOLYLINE
  5
18D
330
1F
100
AcDbEntity
  8
0
  6
Continuous
 62
     7
370
    25
100
AcDbPolyline
 90
       15
 70
   128
 43
0.0
 10
112.5412470083
 20
142.7718744524
 10
112.8707037661
 20
142.8064492209
 10
113.2509688269
 20
142.846356044
 10
113.6798549797
 20
142.891365467
 10
114.154896548
 20
142.9412185824
 10
114.6733619626
 20
142.9956287755
 10
115.2322691287
 20
143.054283122
 10
115.8284049834
 20
143.1168444831
 10
116.4583413284
 20
143.1829530191
 10
117.11845625
 20
143.2522285175
 10
117.8049527462
 20
143.3242728379
 10
118.5138829406
 20
143.3986715417
 10
119.2411722969
 20
143.4749966864
 10
119.9826373141
 20
143.552809386
 10
120.7340143974
 20
143.6316626057
  0
LWPOLYLINE
  5
18E
330
1F
100
AcDbEntity
  8
0
  6
Continuous
 62
     7
370
    25
100
AcDbPolyline
 90
       18
 70
   128
 43
0.0
 10
127.3174442704
 20
137.7791607663
 10
127.2885807212
 20
137.782189893
 10
127.2022638823
 20
137.791248402
 10
127.0593263562
 20
137.8062487491
 10
126.8611446376
 20
137.8270470448
 10
126.6096223499
 20
137.853442822
 10
126.3071827944
 20
137.8851822954
 10
125.9567335601
 20
137.9219602238
 10
125.5616478975
 20
137.963422472
 10
125.1257256027
 20
138.0091702011
 10
124.6531613524
 20
138.0587631282
 10
124.1485037263
 20
138.1117244162
 10
123.6166067775
 20
138.1675443988
 10
123.0625871922
 20
138.225685703
 10
122.4917786549
 20
138.2855890695
 10
121.9096703808
 20
138.3466784753
 10
121.3218633439
 20
138.4083655573
 10
120.7340143974
 20
138.470057296
  0
LWPOLYLINE
  5
18F
330
1F
100
AcDbEntity
  8
0
  6
Continuous
 62
     7
370
    25
100
AcDbPolyline
 90
       18
 70
   128
 43
0.0
 10
120.7340143974
 20
143.6316626057
 10
121.3218633439
 20
143.6933543444
 10
121.9096703808
 20
143.7550414264
 10
122.4917786549
 20
143.8161308322
 10
123.0625871922
 20
143.8760341987
 10
123.6166067775
 20
143.9341755029
 10
124.1485037263
 20
143.9899954855
 10
124.6531613524
 20
144.0429567736
 10
125.1257256027
 20
144.0925497007
 10
125.5616478975
 20
144.1382974297
 10
125.9567335601
 20
144.1797596779
 10
126.3071827944
 20
144.2165376063
 10
126.6096223499
 20
144.2482770797
 10
126.8611446376
 20
144.2746728569
 10
127.0593263562
 20
144.2954711527
 10
127.2022638823
 20
144.3104714997
 10
127.2885807212
 20
144.3195300087
 10
127.3174442704
 20
144.3225591354
  0
ARC
  5
190
330
1F
100
AcDbEntity
  8
0
  6
Continuous
 62
     7
370
    25
100
AcDbCircle
 10
107.3174447174
 20
141.0508599509
 30
0.0
 40
7.450000000000656
100
AcDbArc
 50
53.0863788866
 51
306.9136211134
  0
ARC
  5
191
330
1F
100
AcDbEntity
  8
0
  6
Continuous
 62
     7
370
    25
100
AcDbCircle
 10
107.3174447174
 20
141.0508599509
 30
0.0
 40
7.207531252870779
100
AcDbArc
 50
15.3041237151
 51
58.9797515565
  0
ARC
  5
192
330
1F
100
AcDbEntity
  8
0
  6
Continuous
 62
     7
370
    25
100
AcDbCircle
 10
107.3174447174
 20
141.0508599509
 30
0.0
 40
7.207531252872449
100
AcDbArc
 50
301.0202484435
 51
344.6958762849
  0
ARC
  5
193
330
1F
100
AcDbEntity
  8
0
  6
Continuous
 62
     7
370
    25
100
AcDbCircle
 10
129.492881579
 20
209.5508599509
 30
0.0
 40
65.0
100
AcDbArc
 50
253.4999050077
 51
270.0
  0
ARC
  5
194
330
1F
100
AcDbEntity
  8
0
  6
Continuous
 62
     7
370
    25
100
AcDbCircle
 10
129.492881579
 20
72.5508599509
 30
0.0
 40
65.0
100
AcDbArc
 50
90.0
 51
106.5000949923
  0
SPLINE
  5
195
330
1F
100
AcDbEntity
  8
0
  6
Continuous
 62
     7
370
    25
100
AcDbSpline
210
0.0
220
0.0
230
1.0
 70
     8
 71
     3
 72
    15
 73
    11
 74
     0
 42
0.000000001
 43
0.00000001
 40
0.0
 40
0.0
 40
0.0
 40
0.0
 40
0.0081668554937291
 40
0.3321941846999776
 40
0.4756279332062201
 40
0.6866839627273442
 40
0.8457444903091523
 40
0.8967583891412989
 40
0.9909563331444947
 40
1.0
 40
1.0
 40
1.0
 40
1.0
 10
112.4164642188029
 20
142.3008599229202
 30
0.0
 10
112.416951782484
 20
142.3022973972235
 30
0.0
 10
112.4367838732627
 20
142.3607679560042
 30
0.0
 10
112.4650630667806
 20
142.4451932956085
 30
0.0
 10
112.5028932350632
 20
142.5597729247612
 30
0.0
 10
112.5294762478678
 20
142.6411430235941
 30
0.0
 10
112.5466472435086
 20
142.6941626973322
 30
0.0
 10
112.5544634662443
 20
142.7183641917743
 30
0.0
 10
112.556458552033
 20
142.7245537093365
 30
0.0
 10
112.5565242562512
 20
142.7247553802196
 30
0.0
 10
112.5565300117509
 20
142.7247730460063
 30
0.0
  0
ARC
  5
196
330
1F
100
AcDbEntity
  8
0
  6
Continuous
 62
     7
370
    25
100
AcDbCircle
 10
107.3174447174
 20
141.0508599509
 30
0.0
 40
5.250000000000009
100
AcDbArc
 50
13.774146998
 51
166.225853002
  0
SPLINE
  5
197
330
1F
100
AcDbEntity
  8
0
  6
Continuous
 62
     7
370
    25
100
AcDbSpline
210
0.0
220
0.0
230
1.0
 70
     8
 71
     3
 72
    15
 73
    11
 74
     0
 42
0.000000001
 43
0.00000001
 40
0.0
 40
0.0
 40
0.0
 40
0.0
 40
0.0090436668555053
 40
0.1032416108587011
 40
0.1542555096908477
 40
0.3133160372726557
 40
0.5243720667937798
 40
0.6678058153000223
 40
0.9918331445062708
 40
0.9999999999999999
 40
0.9999999999999999
 40
0.9999999999999999
 40
0.9999999999999999
 10
102.0783594231383
 20
142.7247730460063
 30
0.0
 10
102.0783651786381
 20
142.7247553802196
 30
0.0
 10
102.0784308828562
 20
142.7245537093365
 30
0.0
 10
102.080425968645
 20
142.7183641917743
 30
0.0
 10
102.0882421913806
 20
142.6941626973322
 30
0.0
 10
102.1054131870214
 20
142.6411430235941
 30
0.0
 10
102.1319961998261
 20
142.5597729247612
 30
0.0
 10
102.1698263681086
 20
142.4451932956085
 30
0.0
 10
102.1981055616265
 20
142.3607679560042
 30
0.0
 10
102.2179376524053
 20
142.3022973972235
 30
0.0
 10
102.2184252160863
 20
142.3008599229202
 30
0.0
  0
ARC
  5
198
330
1F
100
AcDbEntity
  8
0
  6
Continuous
 62
     7
370
    25
100
AcDbCircle
 10
107.3174447174
 20
141.0508599509
 30
0.0
 40
5.500000000000002
100
AcDbArc
 50
17.7189318734
 51
162.2810681266
  0
ARC
  5
199
330
1F
100
AcDbEntity
  8
0
  6
Continuous
 62
     7
370
    25
100
AcDbCircle
 10
101.8402191424
 20
142.8008599509
 30
0.0
 40
0.25
100
AcDbArc
 50
270.0
 51
342.2810681266
  0
SPLINE
  5
19A
330
1F
100
AcDbEntity
  8
0
  6
Continuous
 62
     7
370
    25
100
AcDbSpline
210
0.0
220
0.0
230
1.0
 70
     8
 71
     3
 72
    15
 73
    11
 74
     0
 42
0.000000001
 43
0.00000001
 40
0.0
 40
0.0
 40
0.0
 40
0.0
 40
0.0080845166116213
 40
0.3310110803515837
 40
0.4750334718139839
 40
0.6874373868841556
 40
0.8468378249369453
 40
0.9001014979498858
 40
0.9910465065391931
 40
0.9999999999999999
 40
0.9999999999999999
 40
0.9999999999999999
 40
0.9999999999999999
 10
102.2184252160863
 20
142.3008599229202
 30
0.0
 10
102.217145445654
 20
142.3016758741487
 30
0.0
 10
102.1647467415938
 20
142.3350840432004
 30
0.0
 10
102.0893906220768
 20
142.3838954204669
 30
0.0
 10
101.9874709565104
 20
142.451266813819
 30
0.0
 10
101.9150811483405
 20
142.4998502916335
 30
0.0
 10
101.8673741020479
 20
142.5322996632445
 30
0.0
 10
101.845840411995
 20
142.547010244804
 30
0.0
 10
101.8404097403946
 20
142.5507288360305
 30
0.0
 10
101.840234973158
 20
142.5508491781292
 30
0.0
 10
101.8402193094866
 20
142.5508599638984
 30
0.0
  0
SPLINE
  5
19B
330
1F
100
AcDbEntity
  8
0
  6
Continuous
 62
     7
370
    25
100
AcDbSpline
210
0.0
220
0.0
230
1.0
 70
     8
 71
     3
 72
    15
 73
    11
 74
     0
 42
0.000000001
 43
0.00000001
 40
0.0
 40
0.0
 40
0.0
 40
0.0
 40
0.0090436668555053
 40
0.1032416108587011
 40
0.1542555096908477
 40
0.3133160372726557
 40
0.5243720667937798
 40
0.6678058153000223
 40
0.9918331445062708
 40
0.9999999999999999
 40
0.9999999999999999
 40
0.9999999999999999
 40
0.9999999999999999
 10
112.5565300117509
 20
139.3769468557135
 30
0.0
 10
112.5565242562512
 20
139.3769645215002
 30
0.0
 10
112.556458552033
 20
139.3771661923834
 30
0.0
 10
112.5544634662443
 20
139.3833557099456
 30
0.0
 10
112.5466472435086
 20
139.4075572043877
 30
0.0
 10
112.5294762478678
 20
139.4605768781258
 30
0.0
 10
112.5028932350632
 20
139.5419469769586
 30
0.0
 10
112.4650630667806
 20
139.6565266061113
 30
0.0
 10
112.4367838732627
 20
139.7409519457156
 30
0.0
 10
112.416951782484
 20
139.7994225044963
 30
0.0
 10
112.4164642188029
 20
139.8008599787996
 30
0.0
  0
ARC
  5
19C
330
1F
100
AcDbEntity
  8
0
  6
Continuous
 62
     7
370
    25
100
AcDbCircle
 10
107.3174447174
 20
141.0508599509
 30
0.0
 40
5.499999999999993
100
AcDbArc
 50
197.7189318734
 51
342.2810681266
  0
SPLINE
  5
19D
330
1F
100
AcDbEntity
  8
0
  6
Continuous
 62
     7
370
    25
100
AcDbSpline
210
0.0
220
0.0
230
1.0
 70
     8
 71
     3
 72
    15
 73
    11
 74
     0
 42
0.000000001
 43
0.00000001
 40
0.0
 40
0.0
 40
0.0
 40
0.0
 40
0.0081668554937291
 40
0.3321941846999776
 40
0.4756279332062201
 40
0.6866839627273442
 40
0.8457444903091523
 40
0.8967583891412989
 40
0.9909563331444947
 40
1.0
 40
1.0
 40
1.0
 40
1.0
 10
102.2184252160863
 20
139.8008599787996
 30
0.0
 10
102.2179376524053
 20
139.7994225044963
 30
0.0
 10
102.1981055616265
 20
139.7409519457156
 30
0.0
 10
102.1698263681086
 20
139.6565266061113
 30
0.0
 10
102.1319961998261
 20
139.5419469769586
 30
0.0
 10
102.1054131870214
 20
139.4605768781258
 30
0.0
 10
102.0882421913806
 20
139.4075572043877
 30
0.0
 10
102.080425968645
 20
139.3833557099456
 30
0.0
 10
102.0784308828562
 20
139.3771661923834
 30
0.0
 10
102.0783651786381
 20
139.3769645215002
 30
0.0
 10
102.0783594231383
 20
139.3769468557135
 30
0.0
  0
ARC
  5
19E
330
1F
100
AcDbEntity
  8
0
  6
Continuous
 62
     7
370
    25
100
AcDbCircle
 10
107.3174447174
 20
141.0508599509
 30
0.0
 40
5.250000000000009
100
AcDbArc
 50
193.774146998
 51
346.225853002
  0
SPLINE
  5
19F
330
1F
100
AcDbEntity
  8
0
  6
Continuous
 62
     7
370
    25
100
AcDbSpline
210
0.0
220
0.0
230
1.0
 70
     8
 71
     3
 72
    15
 73
    11
 74
     0
 42
0.000000001
 43
0.00000001
 40
0.0
 40
0.0
 40
0.0
 40
0.0
 40
0.0089534934608068
 40
0.0998985020501141
 40
0.1531621750630547
 40
0.3125626131158444
 40
0.524966528186016
 40
0.6689889196484162
 40
0.9919154833883785
 40
0.9999999999999999
 40
0.9999999999999999
 40
0.9999999999999999
 40
0.9999999999999999
 10
101.8402193094866
 20
139.5508599378214
 30
0.0
 10
101.840234973158
 20
139.5508707235907
 30
0.0
 10
101.8404097403946
 20
139.5509910656893
 30
0.0
 10
101.845840411995
 20
139.5547096569158
 30
0.0
 10
101.8673741020479
 20
139.5694202384753
 30
0.0
 10
101.9150811483405
 20
139.6018696100864
 30
0.0
 10
101.9874709565104
 20
139.6504530879008
 30
0.0
 10
102.0893906220768
 20
139.717824481253
 30
0.0
 10
102.1647467415938
 20
139.7666358585194
 30
0.0
 10
102.217145445654
 20
139.8000440275711
 30
0.0
 10
102.2184252160863
 20
139.8008599787996
 30
0.0
  0
ARC
  5
1A0
330
1F
100
AcDbEntity
  8
0
  6
Continuous
 62
     7
370
    25
100
AcDbCircle
 10
101.8402191424
 20
139.3008599509
 30
0.0
 40
0.25
100
AcDbArc
 50
17.7189318734
 51
90.0
  0
ARC
  5
1A1
330
1F
100
AcDbEntity
  8
0
  6
Continuous
 62
     7
370
    25
100
AcDbCircle
 10
112.7946702925
 20
142.8008599509
 30
0.0
 40
0.25
100
AcDbArc
 50
197.7189318734
 51
270.0
  0
SPLINE
  5
1A2
330
1F
100
AcDbEntity
  8
0
  6
Continuous
 62
     7
370
    25
100
AcDbSpline
210
0.0
220
0.0
230
1.0
 70
     8
 71
     3
 72
    15
 73
    11
 74
     0
 42
0.000000001
 43
0.00000001
 40
0.0
 40
0.0
 40
0.0
 40
0.0
 40
0.0089534934608068
 40
0.0998985020501141
 40
0.1531621750630547
 40
0.3125626131158444
 40
0.524966528186016
 40
0.6689889196484162
 40
0.9919154833883785
 40
0.9999999999999999
 40
0.9999999999999999
 40
0.9999999999999999
 40
0.9999999999999999
 10
112.7946701254026
 20
142.5508599638984
 30
0.0
 10
112.7946544617312
 20
142.5508491781292
 30
0.0
 10
112.7944796944946
 20
142.5507288360305
 30
0.0
 10
112.7890490228942
 20
142.547010244804
 30
0.0
 10
112.7675153328413
 20
142.5322996632445
 30
0.0
 10
112.7198082865488
 20
142.4998502916335
 30
0.0
 10
112.6474184783788
 20
142.451266813819
 30
0.0
 10
112.5454988128125
 20
142.3838954204669
 30
0.0
 10
112.4701426932954
 20
142.3350840432004
 30
0.0
 10
112.4177439892352
 20
142.3016758741487
 30
0.0
 10
112.4164642188029
 20
142.3008599229202
 30
0.0
  0
SPLINE
  5
1A3
330
1F
100
AcDbEntity
  8
0
  6
Continuous
 62
     7
370
    25
100
AcDbSpline
210
0.0
220
0.0
230
1.0
 70
     8
 71
     3
 72
    15
 73
    11
 74
     0
 42
0.000000001
 43
0.00000001
 40
0.0
 40
0.0
 40
0.0
 40
0.0
 40
0.0080845166116213
 40
0.3310110803515837
 40
0.4750334718139839
 40
0.6874373868841556
 40
0.8468378249369453
 40
0.9001014979498858
 40
0.9910465065391931
 40
0.9999999999999999
 40
0.9999999999999999
 40
0.9999999999999999
 40
0.9999999999999999
 10
112.4164642188029
 20
139.8008599787996
 30
0.0
 10
112.4177439892352
 20
139.8000440275711
 30
0.0
 10
112.4701426932954
 20
139.7666358585194
 30
0.0
 10
112.5454988128124
 20
139.717824481253
 30
0.0
 10
112.6474184783788
 20
139.6504530879008
 30
0.0
 10
112.7198082865488
 20
139.6018696100864
 30
0.0
 10
112.7675153328413
 20
139.5694202384753
 30
0.0
 10
112.7890490228942
 20
139.5547096569158
 30
0.0
 10
112.7944796944946
 20
139.5509910656893
 30
0.0
 10
112.7946544617312
 20
139.5508707235907
 30
0.0
 10
112.7946701254026
 20
139.5508599378214
 30
0.0
  0
ARC
  5
1A4
330
1F
100
AcDbEntity
  8
0
  6
Continuous
 62
     7
370
    25
100
AcDbCircle
 10
112.7946702925
 20
139.3008599509
 30
0.0
 40
0.2500000000000077
100
AcDbArc
 50
90.0
 51
162.2810681266
  0
LINE
  5
1A5
330
1F
100
AcDbEntity
  8
0
  6
Continuous
 62
     7
370
    25
100
AcDbLine
 10
102.3174448292
 20
140.4508599224
 30
0.0
 11
112.3174446057
 21
140.4508599224
 31
0.0
  0
LINE
  5
1A6
330
1F
100
AcDbEntity
  8
0
  6
Continuous
 62
     7
370
    25
100
AcDbLine
 10
102.3174448292
 20
141.6508599794
 30
0.0
 11
102.3174448292
 21
140.4508599224
 31
0.0
  0
LINE
  5
1A7
330
1F
100
AcDbEntity
  8
0
  6
Continuous
 62
     7
370
    25
100
AcDbLine
 10
112.3174446057
 20
140.4508599224
 30
0.0
 11
112.3174446057
 21
141.6508599794
 31
0.0
  0
LINE
  5
1A8
330
1F
100
AcDbEntity
  8
0
  6
Continuous
 62
     7
370
    25
100
AcDbLine
 10
112.3174446057
 20
141.6508599794
 30
0.0
 11
102.3174448292
 21
141.6508599794
 31
0.0
  0
LINE
  5
1A9
330
1F
100
AcDbEntity
  8
0
  6
Continuous
 62
     7
370
    25
100
AcDbLine
 10
113.0674447286
 20
142.3008599229
 30
0.0
 11
112.4164642188
 21
142.3008599229
 31
0.0
  0
LINE
  5
1AA
330
1F
100
AcDbEntity
  8
0
  6
Continuous
 62
     7
370
    25
100
AcDbLine
 10
113.0674447286
 20
139.8008599788
 30
0.0
 11
113.0674447286
 21
142.3008599229
 31
0.0
  0
LINE
  5
1AB
330
1F
100
AcDbEntity
  8
0
  6
Continuous
 62
     7
370
    25
100
AcDbLine
 10
112.4164642188
 20
139.8008599788
 30
0.0
 11
113.0674447286
 21
139.8008599788
 31
0.0
  0
LINE
  5
1AC
330
1F
100
AcDbEntity
  8
0
  6
Continuous
 62
     7
370
    25
100
AcDbLine
 10
101.5674447063
 20
139.8008599788
 30
0.0
 11
102.2184252161
 21
139.8008599788
 31
0.0
  0
LINE
  5
1AD
330
1F
100
AcDbEntity
  8
0
  6
Continuous
 62
     7
370
    25
100
AcDbLine
 10
101.5674447063
 20
142.3008599229
 30
0.0
 11
101.5674447063
 21
139.8008599788
 31
0.0
  0
LINE
  5
1AE
330
1F
100
AcDbEntity
  8
0
  6
Continuous
 62
     7
370
    25
100
AcDbLine
 10
102.2184252161
 20
142.3008599229
 30
0.0
 11
101.5674447063
 21
142.3008599229
 31
0.0
  0
LINE
  5
1AF
330
1F
100
AcDbEntity
  8
0
  6
Continuous
 62
     7
370
    25
100
AcDbLine
 10
101.5674447063
 20
142.5508599639
 30
0.0
 11
101.5674447063
 21
142.3008599229
 31
0.0
  0
LINE
  5
1B0
330
1F
100
AcDbEntity
  8
0
  6
Continuous
 62
     7
370
    25
100
AcDbLine
 10
101.5674447063
 20
142.5508599639
 30
0.0
 11
101.8402193095
 21
142.5508599639
 31
0.0
  0
LINE
  5
1B1
330
1F
100
AcDbEntity
  8
0
  6
Continuous
 62
     7
370
    25
100
AcDbLine
 10
101.5674447063
 20
142.3008599229
 30
0.0
 11
101.3174446653
 21
142.3008599229
 31
0.0
  0
ARC
  5
1B2
330
1F
100
AcDbEntity
  8
0
  6
Continuous
 62
     7
370
    25
100
AcDbCircle
 10
101.5674447174
 20
142.3008599509
 30
0.0
 40
0.25
100
AcDbArc
 50
90.0
 51
180.0
  0
LINE
  5
1B3
330
1F
100
AcDbEntity
  8
0
  6
Continuous
 62
     7
370
    25
100
AcDbLine
 10
101.3174446653
 20
139.8008599788
 30
0.0
 11
101.5674447063
 21
139.8008599788
 31
0.0
  0
LINE
  5
1B4
330
1F
100
AcDbEntity
  8
0
  6
Continuous
 62
     7
370
    25
100
AcDbLine
 10
101.3174446653
 20
139.8008599788
 30
0.0
 11
101.3174446653
 21
142.3008599229
 31
0.0
  0
ARC
  5
1B5
330
1F
100
AcDbEntity
  8
0
  6
Continuous
 62
     7
370
    25
100
AcDbCircle
 10
113.0674447174
 20
142.3008599509
 30
0.0
 40
0.25
100
AcDbArc
 50
0.0
 51
90.0
  0
LINE
  5
1B6
330
1F
100
AcDbEntity
  8
0
  6
Continuous
 62
     7
370
    25
100
AcDbLine
 10
113.3174447696
 20
142.3008599229
 30
0.0
 11
113.0674447286
 21
142.3008599229
 31
0.0
  0
LINE
  5
1B7
330
1F
100
AcDbEntity
  8
0
  6
Continuous
 62
     7
370
    25
100
AcDbLine
 10
113.0674447286
 20
142.3008599229
 30
0.0
 11
113.0674447286
 21
142.5508599639
 31
0.0
  0
LINE
  5
1B8
330
1F
100
AcDbEntity
  8
0
  6
Continuous
 62
     7
370
    25
100
AcDbLine
 10
113.3174447696
 20
142.3008599229
 30
0.0
 11
113.3174447696
 21
139.8008599788
 31
0.0
  0
LINE
  5
1B9
330
1F
100
AcDbEntity
  8
0
  6
Continuous
 62
     7
370
    25
100
AcDbLine
 10
113.0674447286
 20
139.8008599788
 30
0.0
 11
113.3174447696
 21
139.8008599788
 31
0.0
  0
LINE
  5
1BA
330
1F
100
AcDbEntity
  8
0
  6
Continuous
 62
     7
370
    25
100
AcDbLine
 10
112.7946701254
 20
142.5508599639
 30
0.0
 11
113.0674447286
 21
142.5508599639
 31
0.0
  0
LINE
  5
1BB
330
1F
100
AcDbEntity
  8
0
  6
Continuous
 62
     7
370
    25
100
AcDbLine
 10
101.8402193095
 20
139.5508599378
 30
0.0
 11
101.5674447063
 21
139.5508599378
 31
0.0
  0
LINE
  5
1BC
330
1F
100
AcDbEntity
  8
0
  6
Continuous
 62
     7
370
    25
100
AcDbLine
 10
101.5674447063
 20
139.8008599788
 30
0.0
 11
101.5674447063
 21
139.5508599378
 31
0.0
  0
ARC
  5
1BD
330
1F
100
AcDbEntity
  8
0
  6
Continuous
 62
     7
370
    25
100
AcDbCircle
 10
101.5674447174
 20
139.8008599509
 30
0.0
 40
0.25
100
AcDbArc
 50
180.0
 51
270.0
  0
LINE
  5
1BE
330
1F
100
AcDbEntity
  8
0
  6
Continuous
 62
     7
370
    25
100
AcDbLine
 10
113.0674447286
 20
139.5508599378
 30
0.0
 11
113.0674447286
 21
139.8008599788
 31
0.0
  0
LINE
  5
1BF
330
1F
100
AcDbEntity
  8
0
  6
Continuous
 62
     7
370
    25
100
AcDbLine
 10
113.0674447286
 20
139.5508599378
 30
0.0
 11
112.7946701254
 21
139.5508599378
 31
0.0
  0
ARC
  5
1C0
330
1F
100
AcDbEntity
  8
0
  6
Continuous
 62
     7
370
    25
100
AcDbCircle
 10
113.0674447174
 20
139.8008599509
 30
0.0
 40
0.25
100
AcDbArc
 50
270.0
 51
0.0
  0
LINE
  5
1C1
330
1F
100
AcDbEntity
  8
0
  6
Continuous
 62
     1
370
    25
100
AcDbLine
 10
114.3174449335
 20
134.3227290925
 30
0.0
 11
114.3174449335
 21
135.7545476783
 31
0.0
  0
LINE
  5
1C2
330
1F
100
AcDbEntity
  8
0
  6
Continuous
 62
     1
370
    25
100
AcDbLine
 10
114.3174449335
 20
146.3471722234
 30
0.0
 11
114.3174449335
 21
147.7789908093
 31
0.0
  0
LINE
  5
1C3
330
1F
100
AcDbEntity
  8
0
  6
Continuous
 62
     1
370
    25
100
AcDbLine
 10
100.3174445014
 20
147.7789908093
 30
0.0
 11
100.3174445014
 21
143.6008600429
 31
0.0
  0
LINE
  5
1C4
330
1F
100
AcDbEntity
  8
0
  6
Continuous
 62
     1
370
    25
100
AcDbLine
 10
100.3174445014
 20
138.5008598588
 30
0.0
 11
100.3174445014
 21
134.3227290925
 31
0.0
  0
LINE
  5
1C5
330
1F
100
AcDbEntity
  8
0
  6
Continuous
 62
     1
370
    25
100
AcDbLine
 10
114.3174449335
 20
147.7789908093
 30
0.0
 11
110.5166248399
 21
147.7789908093
 31
0.0
  0
LINE
  5
1C6
330
1F
100
AcDbEntity
  8
0
  6
Continuous
 62
     1
370
    25
100
AcDbLine
 10
104.118264595
 20
147.7789908093
 30
0.0
 11
100.3174445014
 21
147.7789908093
 31
0.0
  0
LINE
  5
1C7
330
1F
100
AcDbEntity
  8
0
  6
Continuous
 62
     1
370
    25
100
AcDbLine
 10
100.3174445014
 20
134.3227290925
 30
0.0
 11
104.118264595
 21
134.3227290925
 31
0.0
  0
LINE
  5
1C8
330
1F
100
AcDbEntity
  8
0
  6
Continuous
 62
     1
370
    25
100
AcDbLine
 10
110.5166248399
 20
134.3227290925
 30
0.0
 11
114.3174449335
 21
134.3227290925
 31
0.0
  0
LINE
  5
1C9
330
1F
100
AcDbEntity
  8
0
  6
Continuous
 62
     1
370
    25
100
AcDbLine
 10
100.3174445014
 20
148.1747633223
 30
0.0
 11
105.1374218314
 21
148.1747633223
 31
0.0
  0
LINE
  5
1CA
330
1F
100
AcDbEntity
  8
0
  6
Continuous
 62
     1
370
    25
100
AcDbLine
 10
109.4974676035
 20
148.1747633223
 30
0.0
 11
114.3174449335
 21
148.1747633223
 31
0.0
  0
LINE
  5
1CB
330
1F
100
AcDbEntity
  8
0
  6
Continuous
 62
     1
370
    25
100
AcDbLine
 10
114.3174449335
 20
133.9269565795
 30
0.0
 11
109.4974676035
 21
133.9269565795
 31
0.0
  0
LINE
  5
1CC
330
1F
100
AcDbEntity
  8
0
  6
Continuous
 62
     1
370
    25
100
AcDbLine
 10
105.1374218314
 20
133.9269565795
 30
0.0
 11
100.3174445014
 21
133.9269565795
 31
0.0
  0
LINE
  5
1CD
330
1F
100
AcDbEntity
  8
0
  6
Continuous
 62
     7
370
    25
100
AcDbLine
 10
188.6088454309
 20
80.1409854597
 30
0.0
 11
188.6088454309
 21
82.5669531754
 31
0.0
  0
LINE
  5
1CE
330
1F
100
AcDbEntity
  8
0
  6
Continuous
 62
     7
370
    25
100
AcDbLine
 10
176.8088449868
 20
82.5669531754
 30
0.0
 11
176.8088449868
 21
81.0669529295
 31
0.0
  0
ARC
  5
1CF
330
1F
100
AcDbEntity
  8
0
  6
Continuous
 62
     7
370
    25
100
AcDbCircle
 10
176.8088452088
 20
80.566953317
 30
0.0
 40
0.5
100
AcDbArc
 50
90.0
 51
180.0
  0
LINE
  5
1D0
330
1F
100
AcDbEntity
  8
0
  6
Continuous
 62
     7
370
    25
100
AcDbLine
 10
190.1588451261
 20
90.5669535554
 30
0.0
 11
188.208845179
 21
98.566953004
 31
0.0
  0
LINE
  5
1D1
330
1F
100
AcDbEntity
  8
0
  6
Continuous
 62
     7
370
    25
100
AcDbLine
 10
177.2088452386
 20
98.566953004
 30
0.0
 11
175.2588452915
 21
90.5669535554
 31
0.0
  0
LINE
  5
1D2
330
1F
100
AcDbEntity
  8
0
  6
Continuous
 62
     7
370
    25
100
AcDbLine
 10
175.2588452915
 20
90.5669535554
 30
0.0
 11
175.7088449928
 21
82.5669531754
 31
0.0
  0
LINE
  5
1D3
330
1F
100
AcDbEntity
  8
0
  6
Continuous
 62
     7
370
    25
100
AcDbLine
 10
189.7088454249
 20
82.5669531754
 30
0.0
 11
190.1588451261
 21
90.5669535554
 31
0.0
  0
ARC
  5
1D4
330
1F
100
AcDbEntity
  8
0
  6
Continuous
 62
     7
370
    25
100
AcDbCircle
 10
187.9588452088
 20
99.166953317
 30
0.0
 40
0.25
100
AcDbArc
 50
0.0
 51
90.0
  0
ARC
  5
1D5
330
1F
100
AcDbEntity
  8
0
  6
Continuous
 62
     7
370
    25
100
AcDbCircle
 10
177.4588452088
 20
99.166953317
 30
0.0
 40
0.25
100
AcDbArc
 50
90.0
 51
180.0
  0
LINE
  5
1D6
330
1F
100
AcDbEntity
  8
0
  6
Continuous
 62
     7
370
    25
100
AcDbLine
 10
188.208845179
 20
98.566953004
 30
0.0
 11
188.208845179
 21
99.1669538474
 31
0.0
  0
LINE
  5
1D7
330
1F
100
AcDbEntity
  8
0
  6
Continuous
 62
     7
370
    25
100
AcDbLine
 10
177.2088452386
 20
99.1669538474
 30
0.0
 11
177.2088452386
 21
98.566953004
 31
0.0
  0
CIRCLE
  5
1D8
330
1F
100
AcDbEntity
  8
0
  6
Continuous
 62
     7
370
    25
100
AcDbCircle
 10
182.7088452088
 20
72.066953317
 30
0.0
 40
9.5
  0
CIRCLE
  5
1D9
330
1F
100
AcDbEntity
  8
0
  6
Continuous
 62
     7
370
    25
100
AcDbCircle
 10
182.7088452088
 20
72.066953317
 30
0.0
 40
6.899999999999977
  0
CIRCLE
  5
1DA
330
1F
100
AcDbEntity
  8
0
  6
Continuous
 62
     7
370
    25
100
AcDbCircle
 10
182.7088452088
 20
72.066953317
 30
0.0
 40
10.0
  0
CIRCLE
  5
1DB
330
1F
100
AcDbEntity
  8
0
  6
Continuous
 62
     7
370
    25
100
AcDbCircle
 10
182.7088452088
 20
72.066953317
 30
0.0
 40
5.899999999999977
  0
CIRCLE
  5
1DC
330
1F
100
AcDbEntity
  8
0
  6
Continuous
 62
     7
370
    25
100
AcDbCircle
 10
182.7088452088
 20
72.066953317
 30
0.0
 40
3.0
  0
SPLINE
  5
1DD
330
1F
100
AcDbEntity
  8
0
  6
Continuous
 62
     7
370
    25
100
AcDbSpline
210
0.0
220
0.0
230
1.0
 70
     8
 71
     3
 72
    13
 73
     9
 74
     0
 42
0.000000001
 43
0.00000001
 40
0.0
 40
0.0
 40
0.0
 40
0.0
 40
0.077394307642676
 40
0.3034590659589863
 40
0.5316933781747615
 40
0.762366244094828
 40
0.9919700872031596
 40
1.0
 40
1.0
 40
1.0
 40
1.0
 10
176.8911971854782
 20
80.16773025008686
 30
0.0
 10
176.8911208359792
 20
80.2056895229874
 30
0.0
 10
176.8908214735533
 20
80.354525863149
 30
0.0
 10
176.8715180347982
 20
80.59815969801873
 30
0.0
 10
176.8425879842465
 20
80.85485755284681
 30
0.0
 10
176.8162010374848
 20
81.02420281594318
 30
0.0
 10
176.8089263873595
 20
81.06649484632732
 30
0.0
 10
176.8088476475257
 20
81.0669379563358
 30
0.0
 10
176.8088449868179
 20
81.06695292952307
 30
0.0
  0
LINE
  5
1DE
330
1F
100
AcDbEntity
  8
0
  6
Continuous
 62
     7
370
    25
100
AcDbLine
 10
176.3088453705
 20
80.0669536969
 30
0.0
 11
176.3088453705
 21
80.5669537789
 31
0.0
  0
LINE
  5
1DF
330
1F
100
AcDbEntity
  8
0
  6
Continuous
 62
     7
370
    25
100
AcDbLine
 10
176.3088453705
 20
79.7507026276
 30
0.0
 11
176.3088453705
 21
80.0669536969
 31
0.0
  0
LINE
  5
1E0
330
1F
100
AcDbEntity
  8
0
  6
Continuous
 62
     7
370
    25
100
AcDbLine
 10
179.2088451008
 20
100.5669533319
 30
0.0
 11
186.2088453169
 21
100.5669533319
 31
0.0
  0
LINE
  5
1E1
330
1F
100
AcDbEntity
  8
0
  6
Continuous
 62
     7
370
    25
100
AcDbLine
 10
186.2088453169
 20
93.5669540471
 30
0.0
 11
186.2088453169
 21
100.5669533319
 31
0.0
  0
LINE
  5
1E2
330
1F
100
AcDbEntity
  8
0
  6
Continuous
 62
     7
370
    25
100
AcDbLine
 10
179.2088451008
 20
93.5669540471
 30
0.0
 11
186.2088453169
 21
93.5669540471
 31
0.0
  0
LINE
  5
1E3
330
1F
100
AcDbEntity
  8
0
  6
Continuous
 62
     7
370
    25
100
AcDbLine
 10
179.2088451008
 20
100.5669533319
 30
0.0
 11
179.2088451008
 21
93.5669540471
 31
0.0
  0
LINE
  5
1E4
330
1F
100
AcDbEntity
  8
0
  6
Continuous
 62
     7
370
    25
100
AcDbLine
 10
186.2088453169
 20
88.5669532275
 30
0.0
 11
179.2088451008
 21
88.5669532275
 31
0.0
  0
LINE
  5
1E5
330
1F
100
AcDbEntity
  8
0
  6
Continuous
 62
     7
370
    25
100
AcDbLine
 10
179.2088451008
 20
88.5669532275
 30
0.0
 11
179.2088451008
 21
93.5669540471
 31
0.0
  0
LINE
  5
1E6
330
1F
100
AcDbEntity
  8
0
  6
Continuous
 62
     7
370
    25
100
AcDbLine
 10
186.2088453169
 20
93.5669540471
 30
0.0
 11
186.2088453169
 21
88.5669532275
 31
0.0
  0
SPLINE
  5
1E7
330
1F
100
AcDbEntity
  8
0
  6
Continuous
 62
     7
370
    25
100
AcDbSpline
210
0.0
220
0.0
230
1.0
 70
     8
 71
     3
 72
    11
 73
     7
 74
     0
 42
0.000000001
 43
0.00000001
 40
0.0
 40
0.0
 40
0.0
 40
0.0
 40
0.2488465959137647
 40
0.4976945924499491
 40
0.7488461206779728
 40
1.0
 40
1.0
 40
1.0
 40
1.0
 10
186.2088453168786
 20
88.31912829044111
 30
0.0
 10
186.2135368153261
 20
88.24960413459651
 30
0.0
 10
186.2229198386269
 20
88.11055543159354
 30
0.0
 10
186.299341878991
 20
87.81022574555382
 30
0.0
 10
186.4170677801625
 20
87.44831739723773
 30
0.0
 10
186.5353768130666
 20
87.14672524261852
 30
0.0
 10
186.5945316063977
 20
86.99592845949181
 30
0.0
  0
LINE
  5
1E8
330
1F
100
AcDbEntity
  8
0
  6
Continuous
 62
     7
370
    25
100
AcDbLine
 10
186.5945316064
 20
86.9959284595
 30
0.0
 11
178.8231588113
 21
86.9959284595
 31
0.0
  0
SPLINE
  5
1E9
330
1F
100
AcDbEntity
  8
0
  6
Continuous
 62
     7
370
    25
100
AcDbSpline
210
0.0
220
0.0
230
1.0
 70
     8
 71
     3
 72
    11
 73
     7
 74
     0
 42
0.000000001
 43
0.00000001
 40
0.0
 40
0.0
 40
0.0
 40
0.0
 40
0.248860712681952
 40
0.4977192115733558
 40
0.7488602656597823
 40
1.0
 40
1.0
 40
1.0
 40
1.0
 10
178.8231588112927
 20
86.99592845949182
 30
0.0
 10
178.8818124078059
 20
87.14540749651773
 30
0.0
 10
178.9991190790675
 20
87.44436424084871
 30
0.0
 10
179.1171544742333
 20
87.80616799968281
 30
0.0
 10
179.1945094515487
 20
88.10844305911164
 30
0.0
 10
179.2040665594278
 20
88.24890000301517
 30
0.0
 10
179.2088451008117
 20
88.31912829044111
 30
0.0
  0
LINE
  5
1EA
330
1F
100
AcDbEntity
  8
0
  6
Continuous
 62
     7
370
    25
100
AcDbLine
 10
179.2088451008
 20
88.3191282904
 30
0.0
 11
179.2088451008
 21
88.5669532275
 31
0.0
  0
LINE
  5
1EB
330
1F
100
AcDbEntity
  8
0
  6
Continuous
 62
     7
370
    25
100
AcDbLine
 10
186.2088453169
 20
88.5669532275
 30
0.0
 11
186.2088453169
 21
88.3191282904
 31
0.0
  0
SPLINE
  5
1EC
330
1F
100
AcDbEntity
  8
0
  6
Continuous
 62
     7
370
    25
100
AcDbSpline
210
0.0
220
0.0
230
1.0
 70
     8
 71
     3
 72
    17
 73
    13
 74
     0
 42
0.000000001
 43
0.00000001
 40
0.0
 40
0.0
 40
0.0
 40
0.0
 40
0.3241697917523345
 40
0.5422758587479237
 40
0.689509089275669
 40
0.7894035981534984
 40
0.8577089567094359
 40
0.9049823628410104
 40
0.9551711781537311
 40
0.9753097815865951
 40
0.991957189245944
 40
1.0
 40
1.0
 40
1.0
 40
1.0
 10
188.6654321248448
 20
90.56695355537184
 30
0.0
 10
188.7060825293005
 20
89.65433990265522
 30
0.0
 10
188.7740831066075
 20
88.12770674675005
 30
0.0
 10
188.8855166261989
 20
86.20093382938136
 30
0.0
 10
188.9780211588549
 20
84.91329840528888
 30
0.0
 10
189.0559226011229
 20
84.05414668933267
 30
0.0
 10
189.1219747986487
 20
83.4806790015734
 30
0.0
 10
189.1853317482135
 20
83.05914664179379
 30
0.0
 10
189.2434575551981
 20
82.7786547785988
 30
0.0
 10
189.3028002157464
 20
82.62310458391222
 30
0.0
 10
189.3398056809495
 20
82.57249516777334
 30
0.0
 10
189.3615005508149
 20
82.56831489464203
 30
0.0
 10
189.3685676301635
 20
82.56695317539223
 30
0.0
  0
LINE
  5
1ED
330
1F
100
AcDbEntity
  8
0
  6
Continuous
 62
     7
370
    25
100
AcDbLine
 10
189.3685676302
 20
82.5669531754
 30
0.0
 11
188.1273050937
 21
82.5669531754
 31
0.0
  0
SPLINE
  5
1EE
330
1F
100
AcDbEntity
  8
0
  6
Continuous
 62
     7
370
    25
100
AcDbSpline
210
0.0
220
0.0
230
1.0
 70
     8
 71
     3
 72
    14
 73
    10
 74
     0
 42
0.000000001
 43
0.00000001
 40
0.0
 40
0.0
 40
0.0
 40
0.0
 40
0.1576094553927752
 40
0.315238234353942
 40
0.4726925966125388
 40
0.6301651045756322
 40
0.790731299294198
 40
0.9513051076307096
 40
1.0
 40
1.0
 40
1.0
 40
1.0
 10
188.1273050936675
 20
82.56695317539223
 30
0.0
 10
188.1107999141433
 20
82.78045485263922
 30
0.0
 10
188.077787531492
 20
83.20748438331819
 30
0.0
 10
187.9979835622732
 20
83.79273184282899
 30
0.0
 10
187.9001961224131
 20
84.31488637029206
 30
0.0
 10
187.7866061993703
 20
84.76386458437167
 30
0.0
 10
187.662064300451
 20
85.12314675754365
 30
0.0
 10
187.561706460537
 20
85.32771249991669
 30
0.0
 10
187.5049211267724
 20
85.40850724468596
 30
0.0
 10
187.4917077044761
 20
85.4273074350024
 30
0.0
  0
ELLIPSE
  5
1EF
330
1F
100
AcDbEntity
  8
0
  6
Continuous
 62
     7
370
    25
100
AcDbEllipse
 10
251.2088452088
 20
88.9148277493
 30
0.0
 11
65.00000000000003
 21
-1.989519660128281E-13
 31
0.0
210
0.0
220
0.0
230
1.0
 40
0.2713992096
 41
3.2505835963232
 42
3.340598221070266
  0
LINE
  5
1F0
330
1F
100
AcDbEntity
  8
0
  6
Continuous
 62
     7
370
    25
100
AcDbLine
 10
186.2088453169
 20
91.5616973347
 30
0.0
 11
188.8855930562
 21
91.5616973347
 31
0.0
  0
SPLINE
  5
1F1
330
1F
100
AcDbEntity
  8
0
  6
Continuous
 62
     7
370
    25
100
AcDbSpline
210
0.0
220
0.0
230
1.0
 70
     8
 71
     3
 72
     9
 73
     5
 74
     0
 42
0.000000001
 43
0.00000001
 40
0.0
 40
0.0
 40
0.0
 40
0.0
 40
0.4978404435797771
 40
1.0
 40
1.0
 40
1.0
 40
1.0
 10
188.8855930561936
 20
91.56169733467348
 30
0.0
 10
188.8454899312057
 20
91.40518605488256
 30
0.0
 10
188.764935758669
 20
91.09080565086094
 30
0.0
 10
188.6986953693582
 20
90.74207299243584
 30
0.0
 10
188.6654321248448
 20
90.56695355537184
 30
0.0
  0
SPLINE
  5
1F2
330
1F
100
AcDbEntity
  8
0
  6
Continuous
 62
     7
370
    25
100
AcDbSpline
210
0.0
220
0.0
230
1.0
 70
     8
 71
     3
 72
    16
 73
    12
 74
     0
 42
0.000000001
 43
0.00000001
 40
0.0
 40
0.0
 40
0.0
 40
0.0
 40
0.0155634440295776
 40
0.0359329575919142
 40
0.0739121561247688
 40
0.1570057919676931
 40
0.240658163019504
 40
0.4592958108389031
 40
0.6783838528485865
 40
0.8974954826540263
 40
1.0
 40
1.0
 40
1.0
 40
1.0
 10
176.0491227875269
 20
82.56695317539223
 30
0.0
 10
176.0628164721793
 20
82.57214650779879
 30
0.0
 10
176.0944325199485
 20
82.5841368996922
 30
0.0
 10
176.149912544339
 20
82.70246317032627
 30
0.0
 10
176.2285130263446
 20
83.01371480801392
 30
0.0
 10
176.3078531685345
 20
83.53936216651626
 30
0.0
 10
176.4130815074067
 20
84.5779081576406
 30
0.0
 10
176.5280742908651
 20
86.01298197880253
 30
0.0
 10
176.6304744676449
 20
87.85123412456498
 30
0.0
 10
176.7002232859941
 20
89.37241717752872
 30
0.0
 10
176.7396821000096
 20
90.2782494550703
 30
0.0
 10
176.7522582928455
 20
90.56695355537184
 30
0.0
  0
SPLINE
  5
1F3
330
1F
100
AcDbEntity
  8
0
  6
Continuous
 62
     7
370
    25
100
AcDbSpline
210
0.0
220
0.0
230
1.0
 70
     8
 71
     3
 72
     9
 73
     5
 74
     0
 42
0.000000001
 43
0.00000001
 40
0.0
 40
0.0
 40
0.0
 40
0.0
 40
0.4983244219185156
 40
1.0
 40
1.0
 40
1.0
 40
1.0
 10
176.7522582928455
 20
90.56695355537185
 30
0.0
 10
176.7192555744244
 20
90.74074543508412
 30
0.0
 10
176.6530281993059
 20
91.08949791854296
 30
0.0
 10
176.5724975976404
 20
91.40394627411506
 30
0.0
 10
176.5320973614967
 20
91.56169733467348
 30
0.0
  0
ELLIPSE
  5
1F4
330
1F
100
AcDbEntity
  8
0
  6
Continuous
 62
     7
370
    25
100
AcDbEllipse
 10
114.2088452088
 20
88.9148277493
 30
0.0
 11
65.00000000000001
 21
-1.989519660128281E-13
 31
0.0
210
0.0
220
0.0
230
1.0
 40
0.2713992096
 41
6.084179739699237
 42
6.174194364446304
  0
SPLINE
  5
1F5
330
1F
100
AcDbEntity
  8
0
  6
Continuous
 62
     7
370
    25
100
AcDbSpline
210
0.0
220
0.0
230
1.0
 70
     8
 71
     3
 72
    13
 73
     9
 74
     0
 42
0.000000001
 43
0.00000001
 40
0.0
 40
0.0
 40
0.0
 40
0.0
 40
0.1610294667108458
 40
0.3266881201944549
 40
0.4877296242753278
 40
0.6535536689976723
 40
0.823760217438079
 40
1.0
 40
1.0
 40
1.0
 40
1.0
 10
177.9259827132142
 20
85.42730743500242
 30
0.0
 10
177.8821791225407
 20
85.35791029095178
 30
0.0
 10
177.7933126995984
 20
85.21712101182268
 30
0.0
 10
177.6642918870094
 20
84.87099695126251
 30
0.0
 10
177.5432823616724
 20
84.43178962264318
 30
0.0
 10
177.4366008146356
 20
83.89818801598436
 30
0.0
 10
177.3459342628331
 20
83.27436169934091
 30
0.0
 10
177.3091153660947
 20
82.8054778294968
 30
0.0
 10
177.2903853240228
 20
82.56695317539223
 30
0.0
  0
LINE
  5
1F6
330
1F
100
AcDbEntity
  8
0
  6
Continuous
 62
     7
370
    25
100
AcDbLine
 10
177.290385324
 20
82.5669531754
 30
0.0
 11
176.0491227875
 21
82.5669531754
 31
0.0
  0
LINE
  5
1F7
330
1F
100
AcDbEntity
  8
0
  6
Continuous
 62
     7
370
    25
100
AcDbLine
 10
176.5320973615
 20
91.5616973347
 30
0.0
 11
179.2088451008
 21
91.5616973347
 31
0.0
  0
LINE
  5
1F8
330
1F
100
AcDbEntity
  8
0
  6
Continuous
 62
     7
370
    25
100
AcDbLine
 10
177.9259827132
 20
85.427307435
 30
0.0
 11
187.4917077045
 21
85.427307435
 31
0.0
  0
SPLINE
  5
1F9
330
1F
100
AcDbEntity
  8
0
  6
Continuous
 62
     7
370
    25
100
AcDbSpline
210
0.0
220
0.0
230
1.0
 70
     8
 71
     3
 72
    20
 73
    16
 74
     0
 42
0.000000001
 43
0.00000001
 40
0.0
 40
0.0
 40
0.0
 40
0.0
 40
0.0541983892197581
 40
0.108455006629509
 40
0.1748676456855473
 40
0.2413639609389542
 40
0.328094328685751
 40
0.4149092198426188
 40
0.503182920372413
 40
0.591455333622778
 40
0.6906632499013349
 40
0.7897037756433406
 40
0.8506104381268789
 40
0.9114495354756834
 40
0.9999999999999999
 40
0.9999999999999999
 40
0.9999999999999999
 40
0.9999999999999999
 10
185.3069213363147
 20
82.56695317539223
 30
0.0
 10
185.2532040565491
 20
82.66167956071149
 30
0.0
 10
185.1457117857091
 20
82.85123410090519
 30
0.0
 10
184.90929649805
 20
83.10895742326078
 30
0.0
 10
184.614229800937
 20
83.33805640112722
 30
0.0
 10
184.2253116228843
 20
83.54643698719681
 30
0.0
 10
183.7633197305745
 20
83.70545723574567
 30
0.0
 10
183.2341119805835
 20
83.80423919897184
 30
0.0
 10
182.6898921241866
 20
83.8354507284262
 30
0.0
 10
182.1204779708163
 20
83.7979469604887
 30
0.0
 10
181.5437940792189
 20
83.67900338043694
 30
0.0
 10
181.053466516279
 20
83.48523803075621
 30
0.0
 10
180.6805965108625
 20
83.24972433865311
 30
0.0
 10
180.3604539642802
 20
82.97594846874857
 30
0.0
 10
180.2036904477412
 20
82.71916263658844
 30
0.0
 10
180.1107690813756
 20
82.56695317539223
 30
0.0
  0
LINE
  5
1FA
330
1F
100
AcDbEntity
  8
0
  6
Continuous
 62
     7
370
    25
100
AcDbLine
 10
180.1107690814
 20
82.5669531754
 30
0.0
 11
177.290385324
 21
82.5669531754
 31
0.0
  0
LINE
  5
1FB
330
1F
100
AcDbEntity
  8
0
  6
Continuous
 62
     7
370
    25
100
AcDbLine
 10
188.1273050937
 20
82.5669531754
 30
0.0
 11
185.3069213363
 21
82.5669531754
 31
0.0
  0
LINE
  5
1FC
330
1F
100
AcDbEntity
  8
0
  6
Continuous
 62
     7
370
    25
100
AcDbLine
 10
185.3069213363
 20
82.5669531754
 30
0.0
 11
180.1107690814
 21
82.5669531754
 31
0.0
  0
LINE
  5
1FD
330
1F
100
AcDbEntity
  8
0
  6
Continuous
 62
     7
370
    25
100
AcDbLine
 10
188.6654321248
 20
90.5669535554
 30
0.0
 11
190.1588451261
 21
90.5669535554
 31
0.0
  0
LINE
  5
1FE
330
1F
100
AcDbEntity
  8
0
  6
Continuous
 62
     7
370
    25
100
AcDbLine
 10
175.2588452915
 20
90.5669535554
 30
0.0
 11
176.7522582928
 21
90.5669535554
 31
0.0
  0
LINE
  5
1FF
330
1F
100
AcDbEntity
  8
0
  6
Continuous
 62
     7
370
    25
100
AcDbLine
 10
179.2088451008
 20
98.566953004
 30
0.0
 11
177.2088452386
 21
98.566953004
 31
0.0
  0
LINE
  5
200
330
1F
100
AcDbEntity
  8
0
  6
Continuous
 62
     7
370
    25
100
AcDbLine
 10
188.208845179
 20
98.566953004
 30
0.0
 11
186.2088453169
 21
98.566953004
 31
0.0
  0
SPLINE
  5
201
330
1F
100
AcDbEntity
  8
0
  6
Continuous
 62
     7
370
    25
100
AcDbSpline
210
0.0
220
0.0
230
1.0
 70
     8
 71
     3
 72
     9
 73
     5
 74
     0
 42
0.000000001
 43
0.00000001
 40
0.0
 40
0.0
 40
0.0
 40
0.0
 40
0.4875149508301391
 40
1.0
 40
1.0
 40
1.0
 40
1.0
 10
189.3685676301635
 20
82.56695317539224
 30
0.0
 10
189.3770936828314
 20
82.56868075696373
 30
0.0
 10
189.3945824852844
 20
82.57222440535557
 30
0.0
 10
189.4109041975913
 20
82.59374267062329
 30
0.0
 10
189.4192688311255
 20
82.60477045985706
 30
0.0
  0
SPLINE
  5
202
330
1F
100
AcDbEntity
  8
0
  6
Continuous
 62
     7
370
    25
100
AcDbSpline
210
0.0
220
0.0
230
1.0
 70
     8
 71
     3
 72
     9
 73
     5
 74
     0
 42
0.000000001
 43
0.00000001
 40
0.0
 40
0.0
 40
0.0
 40
0.0
 40
0.5124863176752154
 40
1.0
 40
1.0
 40
1.0
 40
1.0
 10
175.9984215865648
 20
82.60477045985706
 30
0.0
 10
176.006786208312
 20
82.59374267103848
 30
0.0
 10
176.0231078572199
 20
82.57222445984289
 30
0.0
 10
176.0405967251316
 20
82.56868077179935
 30
0.0
 10
176.0491227875269
 20
82.56695317539223
 30
0.0
  0
LINE
  5
203
330
1F
100
AcDbEntity
  8
0
  6
Continuous
 62
     7
370
    25
100
AcDbLine
 10
189.4170490238
 20
82.5669531754
 30
0.0
 11
189.7088454249
 21
82.5669531754
 31
0.0
  0
LINE
  5
204
330
1F
100
AcDbEntity
  8
0
  6
Continuous
 62
     7
370
    25
100
AcDbLine
 10
175.7088449928
 20
82.5669531754
 30
0.0
 11
176.0006413939
 21
82.5669531754
 31
0.0
  0
LINE
  5
205
330
1F
100
AcDbEntity
  8
0
  6
Continuous
 62
     7
370
    25
100
AcDbLine
 10
189.4192688311
 20
82.6047704599
 30
0.0
 11
189.4170490238
 21
82.5669531754
 31
0.0
  0
LINE
  5
206
330
1F
100
AcDbEntity
  8
0
  6
Continuous
 62
     7
370
    25
100
AcDbLine
 10
189.4170490238
 20
82.5669531754
 30
0.0
 11
189.3685676302
 21
82.5669531754
 31
0.0
  0
LINE
  5
207
330
1F
100
AcDbEntity
  8
0
  6
Continuous
 62
     7
370
    25
100
AcDbLine
 10
176.0006413939
 20
82.5669531754
 30
0.0
 11
175.9984215866
 21
82.6047704599
 31
0.0
  0
LINE
  5
208
330
1F
100
AcDbEntity
  8
0
  6
Continuous
 62
     7
370
    25
100
AcDbLine
 10
176.0491227875
 20
82.5669531754
 30
0.0
 11
176.0006413939
 21
82.5669531754
 31
0.0
  0
LINE
  5
209
330
1F
100
AcDbEntity
  8
0
  6
Continuous
 62
     7
370
    25
100
AcDbLine
 10
186.2088453169
 20
99.4169524914
 30
0.0
 11
187.9588451381
 21
99.4169524914
 31
0.0
  0
LINE
  5
20A
330
1F
100
AcDbEntity
  8
0
  6
Continuous
 62
     7
370
    25
100
AcDbLine
 10
177.4588452796
 20
99.4169524914
 30
0.0
 11
179.2088451008
 21
99.4169524914
 31
0.0
  0
LINE
  5
20B
330
1F
100
AcDbEntity
  8
0
  6
Continuous
 62
     1
370
    25
100
AcDbLine
 10
176.8088449868
 20
81.0669529295
 30
0.0
 11
176.8088449868
 21
80.1409854597
 31
0.0
  0
LINE
  5
20C
330
1F
100
AcDbEntity
  8
0
  6
Continuous
 62
     1
370
    25
100
AcDbLine
 10
188.208845179
 20
99.1669538474
 30
0.0
 11
186.2088453169
 21
99.1669538474
 31
0.0
  0
LINE
  5
20D
330
1F
100
AcDbEntity
  8
0
  6
Continuous
 62
     1
370
    25
100
AcDbLine
 10
179.2088451008
 20
99.1669538474
 30
0.0
 11
177.2088452386
 21
99.1669538474
 31
0.0
  0
ENDSEC
  0
SECTION
  2
OBJECTS
  0
DICTIONARY
  5
C
330
0
100
AcDbDictionary
281
     1
  3
ACAD_GROUP
350
D
  3
ACAD_LAYOUT
350
1A
  3
ACAD_MLINESTYLE
350
17
  3
ACAD_PLOTSETTINGS
350
19
  3
ACAD_PLOTSTYLENAME
350
E
  3
ACAD_SCALELIST
350
47
  0
DICTIONARY
  5
D
102
{ACAD_REACTORS
330
C
102
}
330
C
100
AcDbDictionary
281
     1
  0
DICTIONARY
  5
1A
102
{ACAD_REACTORS
330
C
102
}
330
C
100
AcDbDictionary
281
     1
  3
Layout1
350
1E
  3
Layout2
350
26
  3
Model
350
22
  0
DICTIONARY
  5
17
102
{ACAD_REACTORS
330
C
102
}
330
C
100
AcDbDictionary
281
     1
  3
Standard
350
18
  0
DICTIONARY
  5
19
102
{ACAD_REACTORS
330
C
102
}
330
C
100
AcDbDictionary
281
     1
  0
ACDBDICTIONARYWDFLT
  5
E
102
{ACAD_REACTORS
330
C
102
}
330
C
100
AcDbDictionary
281
     1
  3
Normal
350
F
100
AcDbDictionaryWithDefault
340
F
  0
DICTIONARY
  5
47
102
{ACAD_REACTORS
330
C
102
}
330
C
100
AcDbDictionary
281
     1
  3
A0
350
48
  3
A1
350
49
  3
A2
350
4A
  3
A3
350
4B
  3
A4
350
4C
  3
A5
350
4D
  3
A6
350
4E
  3
A7
350
4F
  3
A8
350
50
  3
A9
350
51
  3
B0
350
52
  3
B1
350
53
  3
B2
350
54
  3
B3
350
55
  3
B4
350
56
  3
B5
350
57
  3
B6
350
58
  3
B7
350
59
  3
B8
350
5A
  3
B9
350
5B
  3
C0
350
5C
  3
C1
350
5D
  3
C2
350
5E
  3
C3
350
5F
  3
C4
350
60
  3
C5
350
61
  3
C6
350
62
  3
C7
350
63
  3
C8
350
64
  3
C9
350
65
  3
D0
350
66
  3
D1
350
67
  3
D2
350
68
  0
LAYOUT
  5
1E
102
{ACAD_REACTORS
330
1A
102
}
330
1A
100
AcDbPlotSettings
  1

  2
none_device
  4

  6

 40
0.0
 41
0.0
 42
0.0
 43
0.0
 44
0.0
 45
0.0
 46
0.0
 47
0.0
 48
0.0
 49
0.0
140
0.0
141
0.0
142
1.0
143
1.0
 70
   688
 72
     1
 73
     0
 74
     5
  7

 75
    16
147
1.0
148
0.0
149
0.0
100
AcDbLayout
  1
Layout1
 70
     1
 71
     1
 10
0.0
 20
0.0
 11
420.0
 21
297.0
 12
0.0
 22
0.0
 32
0.0
 14
1.0000000000E+20
 24
1.0000000000E+20
 34
1.0000000000E+20
 15
-1.0000000000E+20
 25
-1.0000000000E+20
 35
-1.0000000000E+20
146
0.0
 13
0.0
 23
0.0
 33
0.0
 16
1.0
 26
0.0
 36
0.0
 17
0.0
 27
1.0
 37
0.0
 76
     0
330
1B
  0
LAYOUT
  5
26
102
{ACAD_REACTORS
330
1A
102
}
330
1A
100
AcDbPlotSettings
  1

  2
none_device
  4

  6

 40
0.0
 41
0.0
 42
0.0
 43
0.0
 44
0.0
 45
0.0
 46
0.0
 47
0.0
 48
0.0
 49
0.0
140
0.0
141
0.0
142
1.0
143
1.0
 70
   688
 72
     1
 73
     0
 74
     5
  7

 75
    16
147
1.0
148
0.0
149
0.0
100
AcDbLayout
  1
Layout2
 70
     1
 71
     2
 10
0.0
 20
0.0
 11
0.0
 21
0.0
 12
0.0
 22
0.0
 32
0.0
 14
0.0
 24
0.0
 34
0.0
 15
0.0
 25
0.0
 35
0.0
146
0.0
 13
0.0
 23
0.0
 33
0.0
 16
1.0
 26
0.0
 36
0.0
 17
0.0
 27
1.0
 37
0.0
 76
     0
330
23
  0
LAYOUT
  5
22
102
{ACAD_REACTORS
330
1A
102
}
330
1A
100
AcDbPlotSettings
  1

  2
none_device
  4
Letter_(8.50_x_11.00_Inches)
  6

 40
6.35
 41
6.35
 42
6.35000508
 43
6.35000508
 44
215.9
 45
279.4
 46
0.0
 47
0.0
 48
0.0
 49
0.0
140
0.0
141
0.0
142
1.0
143
1.0
 70
  1712
 72
     1
 73
     0
 74
     0
  7

 75
     0
147
1.0
148
0.0
149
0.0
100
AcDbLayout
  1
Model
 70
     1
 71
     0
 10
0.0
 20
0.0
 11
297.0
 21
210.0
 12
0.0
 22
0.0
 32
0.0
 14
0.0
 24
0.0
 34
0.0
 15
297.0
 25
210.0
 35
0.0
146
0.0
 13
0.0
 23
0.0
 33
0.0
 16
1.0
 26
0.0
 36
0.0
 17
0.0
 27
1.0
 37
0.0
 76
     0
330
1F
331
29
  0
MLINESTYLE
  5
18
102
{ACAD_REACTORS
330
17
102
}
330
17
100
AcDbMlineStyle
  2
Standard
 70
     0
  3

 62
   256
 51
90.0
 52
90.0
 71
     2
 49
0.5
 62
   256
  6
BYLAYER
 49
-0.5
 62
   256
  6
BYLAYER
  0
ACDBPLACEHOLDER
  5
F
102
{ACAD_REACTORS
330
E
102
}
330
E
  0
SCALE
  5
48
102
{ACAD_REACTORS
330
47
102
}
330
47
100
AcDbScale
 70
     0
300
1:1
140
1.0
141
1.0
290
     1
  0
SCALE
  5
49
102
{ACAD_REACTORS
330
47
102
}
330
47
100
AcDbScale
 70
     0
300
1:2
140
1.0
141
2.0
290
     0
  0
SCALE
  5
4A
102
{ACAD_REACTORS
330
47
102
}
330
47
100
AcDbScale
 70
     0
300
1:4
140
1.0
141
4.0
290
     0
  0
SCALE
  5
4B
102
{ACAD_REACTORS
330
47
102
}
330
47
100
AcDbScale
 70
     0
300
1:5
140
1.0
141
5.0
290
     0
  0
SCALE
  5
4C
102
{ACAD_REACTORS
330
47
102
}
330
47
100
AcDbScale
 70
     0
300
1:8
140
1.0
141
8.0
290
     0
  0
SCALE
  5
4D
102
{ACAD_REACTORS
330
47
102
}
330
47
100
AcDbScale
 70
     0
300
1:10
140
1.0
141
10.0
290
     0
  0
SCALE
  5
4E
102
{ACAD_REACTORS
330
47
102
}
330
47
100
AcDbScale
 70
     0
300
1:16
140
1.0
141
16.0
290
     0
  0
SCALE
  5
4F
102
{ACAD_REACTORS
330
47
102
}
330
47
100
AcDbScale
 70
     0
300
1:20
140
1.0
141
20.0
290
     0
  0
SCALE
  5
50
102
{ACAD_REACTORS
330
47
102
}
330
47
100
AcDbScale
 70
     0
300
1:30
140
1.0
141
30.0
290
     0
  0
SCALE
  5
51
102
{ACAD_REACTORS
330
47
102
}
330
47
100
AcDbScale
 70
     0
300
1:40
140
1.0
141
40.0
290
     0
  0
SCALE
  5
52
102
{ACAD_REACTORS
330
47
102
}
330
47
100
AcDbScale
 70
     0
300
1:50
140
1.0
141
50.0
290
     0
  0
SCALE
  5
53
102
{ACAD_REACTORS
330
47
102
}
330
47
100
AcDbScale
 70
     0
300
1:100
140
1.0
141
100.0
290
     0
  0
SCALE
  5
54
102
{ACAD_REACTORS
330
47
102
}
330
47
100
AcDbScale
 70
     0
300
2:1
140
2.0
141
1.0
290
     0
  0
SCALE
  5
55
102
{ACAD_REACTORS
330
47
102
}
330
47
100
AcDbScale
 70
     0
300
4:1
140
4.0
141
1.0
290
     0
  0
SCALE
  5
56
102
{ACAD_REACTORS
330
47
102
}
330
47
100
AcDbScale
 70
     0
300
8:1
140
8.0
141
1.0
290
     0
  0
SCALE
  5
57
102
{ACAD_REACTORS
330
47
102
}
330
47
100
AcDbScale
 70
     0
300
10:1
140
10.0
141
1.0
290
     0
  0
SCALE
  5
58
102
{ACAD_REACTORS
330
47
102
}
330
47
100
AcDbScale
 70
     0
300
100:1
140
100.0
141
1.0
290
     0
  0
SCALE
  5
59
102
{ACAD_REACTORS
330
47
102
}
330
47
100
AcDbScale
 70
     0
300
1/128" = 1'-0"
140
0.0078125
141
12.0
290
     0
  0
SCALE
  5
5A
102
{ACAD_REACTORS
330
47
102
}
330
47
100
AcDbScale
 70
     0
300
1/64" = 1'-0"
140
0.015625
141
12.0
290
     0
  0
SCALE
  5
5B
102
{ACAD_REACTORS
330
47
102
}
330
47
100
AcDbScale
 70
     0
300
1/32" = 1'-0"
140
0.03125
141
12.0
290
     0
  0
SCALE
  5
5C
102
{ACAD_REACTORS
330
47
102
}
330
47
100
AcDbScale
 70
     0
300
1/16" = 1'-0"
140
0.0625
141
12.0
290
     0
  0
SCALE
  5
5D
102
{ACAD_REACTORS
330
47
102
}
330
47
100
AcDbScale
 70
     0
300
3/32" = 1'-0"
140
0.09375
141
12.0
290
     0
  0
SCALE
  5
5E
102
{ACAD_REACTORS
330
47
102
}
330
47
100
AcDbScale
 70
     0
300
1/8" = 1'-0"
140
0.125
141
12.0
290
     0
  0
SCALE
  5
5F
102
{ACAD_REACTORS
330
47
102
}
330
47
100
AcDbScale
 70
     0
300
3/16" = 1'-0"
140
0.1875
141
12.0
290
     0
  0
SCALE
  5
60
102
{ACAD_REACTORS
330
47
102
}
330
47
100
AcDbScale
 70
     0
300
1/4" = 1'-0"
140
0.25
141
12.0
290
     0
  0
SCALE
  5
61
102
{ACAD_REACTORS
330
47
102
}
330
47
100
AcDbScale
 70
     0
300
3/8" = 1'-0"
140
0.375
141
12.0
290
     0
  0
SCALE
  5
62
102
{ACAD_REACTORS
330
47
102
}
330
47
100
AcDbScale
 70
     0
300
1/2" = 1'-0"
140
0.5
141
12.0
290
     0
  0
SCALE
  5
63
102
{ACAD_REACTORS
330
47
102
}
330
47
100
AcDbScale
 70
     0
300
3/4" = 1'-0"
140
0.75
141
12.0
290
     0
  0
SCALE
  5
64
102
{ACAD_REACTORS
330
47
102
}
330
47
100
AcDbScale
 70
     0
300
1" = 1'-0"
140
1.0
141
12.0
290
     0
  0
SCALE
  5
65
102
{ACAD_REACTORS
330
47
102
}
330
47
100
AcDbScale
 70
     0
300
1-1/2" = 1'-0"
140
1.5
141
12.0
290
     0
  0
SCALE
  5
66
102
{ACAD_REACTORS
330
47
102
}
330
47
100
AcDbScale
 70
     0
300
3" = 1'-0"
140
3.0
141
12.0
290
     0
  0
SCALE
  5
67
102
{ACAD_REACTORS
330
47
102
}
330
47
100
AcDbScale
 70
     0
300
6" = 1'-0"
140
6.0
141
12.0
290
     0
  0
SCALE
  5
68
102
{ACAD_REACTORS
330
47
102
}
330
47
100
AcDbScale
 70
     0
300
1'-0" = 1'-0"
140
12.0
141
12.0
290
     0
  0
ENDSEC
  0
EOF
