  0
SECTION
  2
HEADER
  9
$ACADVER
  1
AC1015
  9
$ACADMAINTVER
 70
     6
  9
$DWGCODEPAGE
  3
DOS932
  9
$INSBASE
 10
0.0
 20
0.0
 30
0.0
  9
$EXTMIN
 10
0.0
 20
0.0
 30
0.0
  9
$EXTMAX
 10
431.8
 20
279.4
 30
0.0
  9
$LIMMIN
 10
0.0
 20
0.0
  9
$LIMMAX
 10
431.8
 20
279.4
  9
$ORTHOMODE
 70
     0
  9
$REGENMODE
 70
     1
  9
$FILLMODE
 70
     1
  9
$QTEXTMODE
 70
     0
  9
$MIRRTEXT
 70
     1
  9
$LTSCALE
 40
1.0
  9
$ATTMODE
 70
     1
  9
$TEXTSIZE
 40
3.5
  9
$TRACEWID
 40
1.0
  9
$TEXTSTYLE
  7
Standard
  9
$CLAYER
  8
0
  9
$CELTYPE
  6
ByLayer
  9
$CECOLOR
 62
   256
  9
$CELTSCALE
 40
1.0
  9
$DISPSILH
 70
     0
  9
$DIMSCALE
 40
1.0
  9
$DIMASZ
 40
3.556
  9
$DIMEXO
 40
1.0
  9
$DIMDLI
 40
3.75
  9
$DIMRND
 40
0.0
  9
$DIMDLE
 40
0.0
  9
$DIMEXE
 40
1.0
  9
$DIMTP
 40
0.0
  9
$DIMTM
 40
0.0
  9
$DIMTXT
 40
3.5
  9
$DIMCEN
 40
2.5
  9
$DIMTSZ
 40
0.0
  9
$DIMTOL
 70
     0
  9
$DIMLIM
 70
     0
  9
$DIMTIH
 70
     1
  9
$DIMTOH
 70
     1
  9
$DIMSE1
 70
     0
  9
$DIMSE2
 70
     0
  9
$DIMTAD
 70
     1
  9
$DIMZIN
 70
     0
  9
$DIMBLK
  1

  9
$DIMASO
 70
     1
  9
$DIMSHO
 70
     1
  9
$DIMPOST
  1

  9
$DIMAPOST
  1

  9
$DIMALT
 70
     0
  9
$DIMALTD
 70
     3
  9
$DIMALTF
 40
0.0393700787
  9
$DIMLFAC
 40
1.0
  9
$DIMTOFL
 70
     1
  9
$DIMTVP
 40
0.0
  9
$DIMTIX
 70
     0
  9
$DIMSOXD
 70
     0
  9
$DIMSAH
 70
     0
  9
$DIMBLK1
  1

  9
$DIMBLK2
  1

  9
$DIMSTYLE
  2
ISO-25
  9
$DIMCLRD
 70
     0
  9
$DIMCLRE
 70
     0
  9
$DIMCLRT
 70
     0
  9
$DIMTFAC
 40
1.0
  9
$DIMGAP
 40
1.524
  9
$DIMJUST
 70
     0
  9
$DIMSD1
 70
     0
  9
$DIMSD2
 70
     0
  9
$DIMTOLJ
 70
     0
  9
$DIMTZIN
 70
     0
  9
$DIMALTZ
 70
     0
  9
$DIMALTTZ
 70
     0
  9
$DIMUPT
 70
     0
  9
$DIMDEC
 70
     3
  9
$DIMTDEC
 70
     3
  9
$DIMALTU
 70
     2
  9
$DIMALTTD
 70
     3
  9
$DIMTXSTY
  7
Standard
  9
$DIMAUNIT
 70
     0
  9
$DIMADEC
 70
     2
  9
$DIMALTRND
 40
0.0
  9
$DIMAZIN
 70
     0
  9
$DIMDSEP
 70
    44
  9
$DIMATFIT
 70
     3
  9
$DIMFRAC
 70
     0
  9
$DIMLDRBLK
  1

  9
$DIMLUNIT
 70
     2
  9
$DIMLWD
 70
    -2
  9
$DIMLWE
 70
    -2
  9
$DIMTMOVE
 70
     0
  9
$LUNITS
 70
     2
  9
$LUPREC
 70
     3
  9
$SKETCHINC
 40
1.0
  9
$FILLETRAD
 40
0.0
  9
$AUNITS
 70
     0
  9
$AUPREC
 70
     2
  9
$MENU
  1
.
  9
$ELEVATION
 40
0.0
  9
$PELEVATION
 40
0.0
  9
$THICKNESS
 40
0.0
  9
$LIMCHECK
 70
     0
  9
$CHAMFERA
 40
0.0
  9
$CHAMFERB
 40
0.0
  9
$CHAMFERC
 40
0.0
  9
$CHAMFERD
 40
0.0
  9
$SKPOLY
 70
     0
  9
$TDCREATE
 40
2460277.722248287
  9
$TDUCREATE
 40
2460277.347248287
  9
$TDUPDATE
 40
2460277.72224978
  9
$TDUUPDATE
 40
2460277.34724978
  9
$TDINDWG
 40
0.0000000116
  9
$TDUSRTIMER
 40
0.0000000116
  9
$USRTIMER
 70
     1
  9
$ANGBASE
 50
0.0
  9
$ANGDIR
 70
     0
  9
$PDMODE
 70
     0
  9
$PDSIZE
 40
-1.0
  9
$PLINEWID
 40
0.0
  9
$SPLFRAME
 70
     0
  9
$SPLINETYPE
 70
     6
  9
$SPLINESEGS
 70
     8
  9
$HANDSEED
  5
2EC
  9
$SURFTAB1
 70
     6
  9
$SURFTAB2
 70
     6
  9
$SURFTYPE
 70
     6
  9
$SURFU
 70
     6
  9
$SURFV
 70
     6
  9
$UCSBASE
  2

  9
$UCSNAME
  2

  9
$UCSORG
 10
0.0
 20
0.0
 30
0.0
  9
$UCSXDIR
 10
1.0
 20
0.0
 30
0.0
  9
$UCSYDIR
 10
0.0
 20
1.0
 30
0.0
  9
$UCSORTHOREF
  2

  9
$UCSORTHOVIEW
 70
     0
  9
$UCSORGTOP
 10
0.0
 20
0.0
 30
0.0
  9
$UCSORGBOTTOM
 10
0.0
 20
0.0
 30
0.0
  9
$UCSORGLEFT
 10
0.0
 20
0.0
 30
0.0
  9
$UCSORGRIGHT
 10
0.0
 20
0.0
 30
0.0
  9
$UCSORGFRONT
 10
0.0
 20
0.0
 30
0.0
  9
$UCSORGBACK
 10
0.0
 20
0.0
 30
0.0
  9
$PUCSBASE
  2

  9
$PUCSNAME
  2

  9
$PUCSORG
 10
0.0
 20
0.0
 30
0.0
  9
$PUCSXDIR
 10
1.0
 20
0.0
 30
0.0
  9
$PUCSYDIR
 10
0.0
 20
1.0
 30
0.0
  9
$PUCSORTHOREF
  2

  9
$PUCSORTHOVIEW
 70
     0
  9
$PUCSORGTOP
 10
0.0
 20
0.0
 30
0.0
  9
$PUCSORGBOTTOM
 10
0.0
 20
0.0
 30
0.0
  9
$PUCSORGLEFT
 10
0.0
 20
0.0
 30
0.0
  9
$PUCSORGRIGHT
 10
0.0
 20
0.0
 30
0.0
  9
$PUCSORGFRONT
 10
0.0
 20
0.0
 30
0.0
  9
$PUCSORGBACK
 10
0.0
 20
0.0
 30
0.0
  9
$USERI1
 70
     0
  9
$USERI2
 70
     0
  9
$USERI3
 70
     0
  9
$USERI4
 70
     0
  9
$USERI5
 70
     0
  9
$USERR1
 40
0.0
  9
$USERR2
 40
0.0
  9
$USERR3
 40
0.0
  9
$USERR4
 40
0.0
  9
$USERR5
 40
0.0
  9
$WORLDVIEW
 70
     1
  9
$SHADEDGE
 70
     3
  9
$SHADEDIF
 70
    70
  9
$TILEMODE
 70
     1
  9
$MAXACTVP
 70
    64
  9
$PINSBASE
 10
0.0
 20
0.0
 30
0.0
  9
$PLIMCHECK
 70
     0
  9
$PEXTMIN
 10
1.0000000000E+20
 20
1.0000000000E+20
 30
1.0000000000E+20
  9
$PEXTMAX
 10
-1.0000000000E+20
 20
-1.0000000000E+20
 30
-1.0000000000E+20
  9
$PLIMMIN
 10
0.0
 20
0.0
  9
$PLIMMAX
 10
420.0
 20
297.0
  9
$UNITMODE
 70
     0
  9
$VISRETAIN
 70
     1
  9
$PLINEGEN
 70
     0
  9
$PSLTSCALE
 70
     1
  9
$TREEDEPTH
 70
  3020
  9
$CMLSTYLE
  2
Standard
  9
$CMLJUST
 70
     0
  9
$CMLSCALE
 40
20.0
  9
$PROXYGRAPHICS
 70
     1
  9
$MEASUREMENT
 70
     1
  9
$CELWEIGHT
370
    -1
  9
$ENDCAPS
280
     0
  9
$JOINSTYLE
280
     0
  9
$LWDISPLAY
290
     1
  9
$INSUNITS
 70
     4
  9
$HYPERLINKBASE
  1

  9
$STYLESHEET
  1

  9
$XEDIT
290
     1
  9
$CEPSNTYPE
380
     0
  9
$PSTYLEMODE
290
     1
  9
$FINGERPRINTGUID
  2
{988aaae7-32c8-4ae2-a994-9eb8aaca81cf}
  9
$VERSIONGUID
  2
{FAEB1C32-E019-11D5-929B-00C0DF256EC4}
  9
$EXTNAMES
290
     1
  9
$PSVPSCALE
 40
0.0
  9
$OLESTARTUP
290
     0
  0
ENDSEC
  0
SECTION
  2
CLASSES
  0
CLASS
  1
ACDBDICTIONARYWDFLT
  2
AcDbDictionaryWithDefault
  3
ObjectDBX Classes
 90
        0
280
     0
281
     0
  0
CLASS
  1
VISUALSTYLE
  2
AcDbVisualStyle
  3
ObjectDBX Classes
 90
     4095
280
     0
281
     0
  0
CLASS
  1
MATERIAL
  2
AcDbMaterial
  3
ObjectDBX Classes
 90
     1153
280
     0
281
     0
  0
CLASS
  1
SCALE
  2
AcDbScale
  3
ObjectDBX Classes
 90
     1153
280
     0
281
     0
  0
CLASS
  1
TABLESTYLE
  2
AcDbTableStyle
  3
ObjectDBX Classes
 90
     4095
280
     0
281
     0
  0
CLASS
  1
MLEADERSTYLE
  2
AcDbMLeaderStyle
  3
ACDB_MLEADERSTYLE_CLASS
 90
     4095
280
     0
281
     0
  0
CLASS
  1
SUN
  2
AcDbSun
  3
SCENEOE
 90
     1153
280
     0
281
     0
  0
CLASS
  1
ACDBPLACEHOLDER
  2
AcDbPlaceHolder
  3
ObjectDBX Classes
 90
        0
280
     0
281
     0
  0
CLASS
  1
LAYOUT
  2
AcDbLayout
  3
ObjectDBX Classes
 90
        0
280
     0
281
     0
  0
ENDSEC
  0
SECTION
  2
TABLES
  0
TABLE
  2
VPORT
  5
8
330
0
100
AcDbSymbolTable
 70
     1
  0
VPORT
  5
29
330
8
100
AcDbSymbolTableRecord
100
AcDbViewportTableRecord
  2
*Active
 70
     0
 10
0.0
 20
0.0
 11
1.0
 21
1.0
 12
215.9
 22
139.7
 13
0.0
 23
0.0
 14
10.0
 24
10.0
 15
10.0
 25
10.0
 16
0.0
 26
0.0
 36
1.0
 17
0.0
 27
0.0
 37
0.0
 40
279.4
 41
1.5454545455
 42
50.0
 43
0.0
 44
0.0
 50
0.0
 51
0.0
 71
     0
 72
  2000
 73
     1
 74
     3
 75
     0
 76
     0
 77
     0
 78
     0
281
     0
 65
     1
110
0.0
120
0.0
130
0.0
111
1.0
121
0.0
131
0.0
112
0.0
122
1.0
132
0.0
 79
     0
146
0.0
  0
ENDTAB
  0
TABLE
  2
LTYPE
  5
5
330
0
100
AcDbSymbolTable
 70
     6
  0
LTYPE
  5
14
330
5
100
AcDbSymbolTableRecord
100
AcDbLinetypeTableRecord
  2
ByBlock
 70
     0
  3

 72
    65
 73
     0
 40
0.0
  0
LTYPE
  5
15
330
5
100
AcDbSymbolTableRecord
100
AcDbLinetypeTableRecord
  2
ByLayer
 70
     0
  3

 72
    65
 73
     0
 40
0.0
  0
LTYPE
  5
16
330
5
100
AcDbSymbolTableRecord
100
AcDbLinetypeTableRecord
  2
Continuous
 70
     0
  3
Solid line
 72
    65
 73
     0
 40
0.0
  0
LTYPE
  5
5E
330
5
100
AcDbSymbolTableRecord
100
AcDbLinetypeTableRecord
  2
HIDDEN
 70
     0
  3
Hidden __ __ __ __ __ __ __ __ __ __ __ __ __ __
 72
    65
 73
     2
 40
1.905
 49
1.27
 74
     0
 49
-0.635
 74
     0
  0
LTYPE
  5
5F
330
5
100
AcDbSymbolTableRecord
100
AcDbLinetypeTableRecord
  2
PHANTOM
 70
     0
  3
Phantom ______  __  __  ______  __  __  ______
 72
    65
 73
     6
 40
12.7
 49
6.35
 74
     0
 49
-1.27
 74
     0
 49
1.27
 74
     0
 49
-1.27
 74
     0
 49
1.27
 74
     0
 49
-1.27
 74
     0
  0
LTYPE
  5
60
330
5
100
AcDbSymbolTableRecord
100
AcDbLinetypeTableRecord
  2
CENTER
 70
     0
  3
Center ____ _ ____ _ ____ _ ____ _ ____ _ ____
 72
    65
 73
     4
 40
10.16
 49
6.35
 74
     0
 49
-1.27
 74
     0
 49
1.27
 74
     0
 49
-1.27
 74
     0
  0
LTYPE
  5
61
330
5
100
AcDbSymbolTableRecord
100
AcDbLinetypeTableRecord
  2
CENTERX2
 70
     0
  3
Center (2x) ________  __  ________  __  _____
 72
    65
 73
     4
 40
20.32
 49
12.7
 74
     0
 49
-2.54
 74
     0
 49
2.54
 74
     0
 49
-2.54
 74
     0
  0
LTYPE
  5
62
330
5
100
AcDbSymbolTableRecord
100
AcDbLinetypeTableRecord
  2
DOT2
 70
     0
  3
Dot (.5x) ........................................
 72
    65
 73
     2
 40
0.635
 49
0.0
 74
     0
 49
-0.635
 74
     0
  0
ENDTAB
  0
TABLE
  2
LAYER
  5
2
330
0
100
AcDbSymbolTable
 70
     1
  0
LAYER
  5
10
330
2
100
AcDbSymbolTableRecord
100
AcDbLayerTableRecord
  2
0
 70
     0
 62
     7
  6
Continuous
370
    -3
390
F
  0
ENDTAB
  0
TABLE
  2
STYLE
  5
3
330
0
100
AcDbSymbolTable
 70
     2
  0
STYLE
  5
11
330
3
100
AcDbSymbolTableRecord
100
AcDbTextStyleTableRecord
  2
Standard
 70
     0
 40
0.0
 41
1.0
 50
0.0
 71
     0
 42
3.5
  3
txt
  4
bigfont
  0
STYLE
  5
63
330
3
100
AcDbSymbolTableRecord
100
AcDbTextStyleTableRecord
  2
SLDTEXTSTYLE0
 70
     0
 40
0.0
 41
0.7
 50
0.0
 71
     0
 42
3.5
  3
TXT
  4
bigfont
  0
ENDTAB
  0
TABLE
  2
VIEW
  5
6
330
0
100
AcDbSymbolTable
 70
     0
  0
ENDTAB
  0
TABLE
  2
UCS
  5
7
330
0
100
AcDbSymbolTable
 70
     0
  0
ENDTAB
  0
TABLE
  2
APPID
  5
9
330
0
100
AcDbSymbolTable
 70
     1
  0
APPID
  5
12
330
9
100
AcDbSymbolTableRecord
100
AcDbRegAppTableRecord
  2
ACAD
 70
     0
  0
ENDTAB
  0
TABLE
  2
DIMSTYLE
  5
A
330
0
100
AcDbSymbolTable
 70
     1
100
AcDbDimStyleTable
  0
DIMSTYLE
105
27
330
A
100
AcDbSymbolTableRecord
100
AcDbDimStyleTableRecord
  2
ISO-25
 70
     0
 41
2.5
 42
0.625
 43
3.75
 44
1.25
 73
     0
 74
     0
 77
     1
 78
     8
140
2.5
141
2.5
143
0.0393700787
147
0.625
171
     3
172
     1
178
     0
271
     2
272
     2
274
     3
278
    44
283
     0
284
     8
340
11
  0
ENDTAB
  0
TABLE
  2
BLOCK_RECORD
  5
1
330
0
100
AcDbSymbolTable
 70
     4
  0
BLOCK_RECORD
  5
1F
330
1
100
AcDbSymbolTableRecord
100
AcDbBlockTableRecord
  2
*Model_Space
340
22
  0
BLOCK_RECORD
  5
1B
330
1
100
AcDbSymbolTableRecord
100
AcDbBlockTableRecord
  2
*Paper_Space
340
1E
  0
BLOCK_RECORD
  5
23
330
1
100
AcDbSymbolTableRecord
100
AcDbBlockTableRecord
  2
*Paper_Space0
340
26
  0
BLOCK_RECORD
  5
1B5
330
1
100
AcDbSymbolTableRecord
100
AcDbBlockTableRecord
  2
SW_CENTERMARKSYMBOL_0
340
0
102
{BLKREFS
331
1C0
102
}
  0
BLOCK_RECORD
  5
212
330
1
100
AcDbSymbolTableRecord
100
AcDbBlockTableRecord
  2
SW_CENTERMARKSYMBOL_1
340
0
102
{BLKREFS
331
21D
102
}
  0
BLOCK_RECORD
  5
2DD
330
1
100
AcDbSymbolTableRecord
100
AcDbBlockTableRecord
  2
SW_CENTERMARKSYMBOL_2
340
0
102
{BLKREFS
331
2E8
102
}
  0
ENDTAB
  0
ENDSEC
  0
SECTION
  2
BLOCKS
  0
BLOCK
  5
20
330
1F
100
AcDbEntity
  8
0
100
AcDbBlockBegin
  2
*Model_Space
 70
     0
 10
0.0
 20
0.0
 30
0.0
  3
*Model_Space
  1

  0
ENDBLK
  5
21
330
1F
100
AcDbEntity
  8
0
100
AcDbBlockEnd
  0
BLOCK
  5
1C
330
1B
100
AcDbEntity
 67
     1
  8
0
100
AcDbBlockBegin
  2
*Paper_Space
 70
     0
 10
0.0
 20
0.0
 30
0.0
  3
*Paper_Space
  1

  0
ENDBLK
  5
1D
330
1B
100
AcDbEntity
 67
     1
  8
0
100
AcDbBlockEnd
  0
BLOCK
  5
24
330
23
100
AcDbEntity
  8
0
100
AcDbBlockBegin
  2
*Paper_Space0
 70
     0
 10
0.0
 20
0.0
 30
0.0
  3
*Paper_Space0
  1

  0
ENDBLK
  5
25
330
23
100
AcDbEntity
  8
0
100
AcDbBlockEnd
  0
BLOCK
  5
1B6
330
1B5
100
AcDbEntity
  8
0
100
AcDbBlockBegin
  2
SW_CENTERMARKSYMBOL_0
 70
     0
 10
0.0
 20
0.0
 30
0.0
  3
SW_CENTERMARKSYMBOL_0
  1

  0
LINE
  5
1B8
330
1B5
100
AcDbEntity
  8
0
  6
Continuous
 62
     0
370
    18
100
AcDbLine
 10
0.0
 20
0.0
 30
0.0
 11
0.0
 21
2.5
 31
0.0
  0
LINE
  5
1B9
330
1B5
100
AcDbEntity
  8
0
  6
Continuous
 62
     0
370
    18
100
AcDbLine
 10
0.0
 20
0.0
 30
0.0
 11
-2.5
 21
0.0
 31
0.0
  0
LINE
  5
1BA
330
1B5
100
AcDbEntity
  8
0
  6
Continuous
 62
     0
370
    18
100
AcDbLine
 10
0.0
 20
0.0
 30
0.0
 11
0.0
 21
-2.5
 31
0.0
  0
LINE
  5
1BB
330
1B5
100
AcDbEntity
  8
0
  6
Continuous
 62
     0
370
    18
100
AcDbLine
 10
0.0
 20
0.0
 30
0.0
 11
2.5
 21
0.0
 31
0.0
  0
LINE
  5
1BC
330
1B5
100
AcDbEntity
  8
0
  6
Continuous
 62
     0
370
    18
100
AcDbLine
 10
0.0
 20
5.0
 30
0.0
 11
0.0
 21
30.054525997
 31
0.0
  0
LINE
  5
1BD
330
1B5
100
AcDbEntity
  8
0
  6
Continuous
 62
     0
370
    18
100
AcDbLine
 10
-5.0
 20
0.0
 30
0.0
 11
-13.0
 21
0.0
 31
0.0
  0
LINE
  5
1BE
330
1B5
100
AcDbEntity
  8
0
  6
Continuous
 62
     0
370
    18
100
AcDbLine
 10
0.0
 20
-5.0
 30
0.0
 11
0.0
 21
-13.0
 31
0.0
  0
LINE
  5
1BF
330
1B5
100
AcDbEntity
  8
0
  6
Continuous
 62
     0
370
    18
100
AcDbLine
 10
5.0
 20
0.0
 30
0.0
 11
13.0
 21
0.0
 31
0.0
  0
ENDBLK
  5
1B7
330
1B5
100
AcDbEntity
  8
0
100
AcDbBlockEnd
  0
BLOCK
  5
213
330
212
100
AcDbEntity
  8
0
100
AcDbBlockBegin
  2
SW_CENTERMARKSYMBOL_1
 70
     0
 10
0.0
 20
0.0
 30
0.0
  3
SW_CENTERMARKSYMBOL_1
  1

  0
LINE
  5
215
330
212
100
AcDbEntity
  8
0
  6
Continuous
 62
     0
370
    18
100
AcDbLine
 10
0.0
 20
0.0
 30
0.0
 11
0.0
 21
2.5
 31
0.0
  0
LINE
  5
216
330
212
100
AcDbEntity
  8
0
  6
Continuous
 62
     0
370
    18
100
AcDbLine
 10
0.0
 20
0.0
 30
0.0
 11
-2.5
 21
0.0
 31
0.0
  0
LINE
  5
217
330
212
100
AcDbEntity
  8
0
  6
Continuous
 62
     0
370
    18
100
AcDbLine
 10
0.0
 20
0.0
 30
0.0
 11
0.0
 21
-2.5
 31
0.0
  0
LINE
  5
218
330
212
100
AcDbEntity
  8
0
  6
Continuous
 62
     0
370
    18
100
AcDbLine
 10
0.0
 20
0.0
 30
0.0
 11
2.5
 21
0.0
 31
0.0
  0
LINE
  5
219
330
212
100
AcDbEntity
  8
0
  6
Continuous
 62
     0
370
    18
100
AcDbLine
 10
0.0
 20
5.0
 30
0.0
 11
0.0
 21
30.3237806892
 31
0.0
  0
LINE
  5
21A
330
212
100
AcDbEntity
  8
0
  6
Continuous
 62
     0
370
    18
100
AcDbLine
 10
-5.0
 20
0.0
 30
0.0
 11
-13.0
 21
0.0
 31
0.0
  0
LINE
  5
21B
330
212
100
AcDbEntity
  8
0
  6
Continuous
 62
     0
370
    18
100
AcDbLine
 10
0.0
 20
-5.0
 30
0.0
 11
0.0
 21
-13.0
 31
0.0
  0
LINE
  5
21C
330
212
100
AcDbEntity
  8
0
  6
Continuous
 62
     0
370
    18
100
AcDbLine
 10
5.0
 20
0.0
 30
0.0
 11
13.0
 21
0.0
 31
0.0
  0
ENDBLK
  5
214
330
212
100
AcDbEntity
  8
0
100
AcDbBlockEnd
  0
BLOCK
  5
2DE
330
2DD
100
AcDbEntity
  8
0
100
AcDbBlockBegin
  2
SW_CENTERMARKSYMBOL_2
 70
     0
 10
0.0
 20
0.0
 30
0.0
  3
SW_CENTERMARKSYMBOL_2
  1

  0
LINE
  5
2E0
330
2DD
100
AcDbEntity
  8
0
  6
Continuous
 62
     0
370
    18
100
AcDbLine
 10
0.0
 20
0.0
 30
0.0
 11
0.0
 21
2.5
 31
0.0
  0
LINE
  5
2E1
330
2DD
100
AcDbEntity
  8
0
  6
Continuous
 62
     0
370
    18
100
AcDbLine
 10
0.0
 20
0.0
 30
0.0
 11
-2.5
 21
0.0
 31
0.0
  0
LINE
  5
2E2
330
2DD
100
AcDbEntity
  8
0
  6
Continuous
 62
     0
370
    18
100
AcDbLine
 10
0.0
 20
0.0
 30
0.0
 11
0.0
 21
-2.5
 31
0.0
  0
LINE
  5
2E3
330
2DD
100
AcDbEntity
  8
0
  6
Continuous
 62
     0
370
    18
100
AcDbLine
 10
0.0
 20
0.0
 30
0.0
 11
2.5
 21
0.0
 31
0.0
  0
LINE
  5
2E4
330
2DD
100
AcDbEntity
  8
0
  6
Continuous
 62
     0
370
    18
100
AcDbLine
 10
0.0
 20
5.0
 30
0.0
 11
0.0
 21
9.95
 31
0.0
  0
LINE
  5
2E5
330
2DD
100
AcDbEntity
  8
0
  6
Continuous
 62
     0
370
    18
100
AcDbLine
 10
-5.0
 20
0.0
 30
0.0
 11
-41.6711855059
 21
0.0
 31
0.0
  0
LINE
  5
2E6
330
2DD
100
AcDbEntity
  8
0
  6
Continuous
 62
     0
370
    18
100
AcDbLine
 10
0.0
 20
-5.0
 30
0.0
 11
0.0
 21
-9.95
 31
0.0
  0
LINE
  5
2E7
330
2DD
100
AcDbEntity
  8
0
  6
Continuous
 62
     0
370
    18
100
AcDbLine
 10
5.0
 20
0.0
 30
0.0
 11
38.5667127578
 21
0.0
 31
0.0
  0
ENDBLK
  5
2DF
330
2DD
100
AcDbEntity
  8
0
100
AcDbBlockEnd
  0
ENDSEC
  0
SECTION
  2
ENTITIES
  0
MTEXT
  5
64
330
1F
100
AcDbEntity
  8
0
  6
Continuous
 62
     7
370
     0
100
AcDbMText
 10
214.4062974446
 20
124.1408121879
 30
0.0
 40
3.5
 41
0.0
 71
     1
 72
     1
  1
エースボールRV
  7
SLDTEXTSTYLE0
 73
     1
 44
1.0
  0
MTEXT
  5
65
330
1F
100
AcDbEntity
  8
0
  6
Continuous
 62
     7
370
     0
100
AcDbMText
 10
214.4062974446
 20
119.6408123816
 30
0.0
 40
3.5
 41
0.0
 71
     1
 72
     1
  1
BH-7107R
  7
SLDTEXTSTYLE0
 73
     1
 44
1.0
  0
LINE
  5
66
330
1F
100
AcDbEntity
  8
0
  6
Continuous
 62
     7
370
    25
100
AcDbLine
 10
157.688104944
 20
80.7738499393
 30
0.0
 11
154.888104944
 21
80.7738499393
 31
0.0
  0
LINE
  5
67
330
1F
100
AcDbEntity
  8
0
  6
Continuous
 62
     7
370
    25
100
AcDbLine
 10
154.888104944
 20
64.7738499393
 30
0.0
 11
157.688104944
 21
64.7738499393
 31
0.0
  0
LINE
  5
68
330
1F
100
AcDbEntity
  8
0
  6
Continuous
 62
     7
370
    25
100
AcDbLine
 10
154.888104944
 20
80.7738499393
 30
0.0
 11
154.688104944
 21
80.5738499393
 31
0.0
  0
LINE
  5
69
330
1F
100
AcDbEntity
  8
0
  6
Continuous
 62
     7
370
    25
100
AcDbLine
 10
154.688104944
 20
64.9738499393
 30
0.0
 11
154.888104944
 21
64.7738499393
 31
0.0
  0
LINE
  5
6A
330
1F
100
AcDbEntity
  8
0
  6
Continuous
 62
     7
370
    25
100
AcDbLine
 10
154.688104944
 20
76.2738499393
 30
0.0
 11
151.688104944
 21
76.2738499393
 31
0.0
  0
LINE
  5
6B
330
1F
100
AcDbEntity
  8
0
  6
Continuous
 62
     7
370
    25
100
AcDbLine
 10
151.688104944
 20
69.2738499393
 30
0.0
 11
154.688104944
 21
69.2738499393
 31
0.0
  0
LINE
  5
6C
330
1F
100
AcDbEntity
  8
0
  6
Continuous
 62
     7
370
    25
100
AcDbLine
 10
135.688104944
 20
76.2738499393
 30
0.0
 11
132.1804126363
 21
75.6161576316
 31
0.0
  0
LINE
  5
6D
330
1F
100
AcDbEntity
  8
0
  6
Continuous
 62
     7
370
    25
100
AcDbLine
 10
132.1804126363
 20
69.931542247
 30
0.0
 11
135.688104944
 21
69.2738499393
 31
0.0
  0
LINE
  5
6E
330
1F
100
AcDbEntity
  8
0
  6
Continuous
 62
     7
370
    25
100
AcDbLine
 10
139.688104944
 20
76.2738499393
 30
0.0
 11
135.688104944
 21
75.5238499393
 31
0.0
  0
LINE
  5
6F
330
1F
100
AcDbEntity
  8
0
  6
Continuous
 62
     7
370
    25
100
AcDbLine
 10
135.688104944
 20
70.0238499393
 30
0.0
 11
139.688104944
 21
69.2738499393
 31
0.0
  0
LINE
  5
70
330
1F
100
AcDbEntity
  8
0
  6
Continuous
 62
     7
370
    25
100
AcDbLine
 10
147.688104944
 20
76.2738499393
 30
0.0
 11
143.688104944
 21
75.5238499393
 31
0.0
  0
LINE
  5
71
330
1F
100
AcDbEntity
  8
0
  6
Continuous
 62
     7
370
    25
100
AcDbLine
 10
143.688104944
 20
70.0238499393
 30
0.0
 11
147.688104944
 21
69.2738499393
 31
0.0
  0
LINE
  5
72
330
1F
100
AcDbEntity
  8
0
  6
Continuous
 62
     7
370
    25
100
AcDbLine
 10
151.688104944
 20
76.2738499393
 30
0.0
 11
147.688104944
 21
75.5238499393
 31
0.0
  0
LINE
  5
73
330
1F
100
AcDbEntity
  8
0
  6
Continuous
 62
     7
370
    25
100
AcDbLine
 10
147.688104944
 20
70.0238499393
 30
0.0
 11
151.688104944
 21
69.2738499393
 31
0.0
  0
LINE
  5
74
330
1F
100
AcDbEntity
  8
0
  6
Continuous
 62
     7
370
    25
100
AcDbLine
 10
143.688104944
 20
76.2738499393
 30
0.0
 11
139.688104944
 21
75.5238499393
 31
0.0
  0
LINE
  5
75
330
1F
100
AcDbEntity
  8
0
  6
Continuous
 62
     7
370
    25
100
AcDbLine
 10
139.688104944
 20
70.0238499393
 30
0.0
 11
143.688104944
 21
69.2738499393
 31
0.0
  0
LINE
  5
76
330
1F
100
AcDbEntity
  8
0
  6
Continuous
 62
     7
370
    25
100
AcDbLine
 10
132.1804126363
 20
75.6161576316
 30
0.0
 11
131.688104944
 21
75.1238499393
 31
0.0
  0
LINE
  5
77
330
1F
100
AcDbEntity
  8
0
  6
Continuous
 62
     7
370
    25
100
AcDbLine
 10
131.688104944
 20
70.4238499393
 30
0.0
 11
132.1804126363
 21
69.931542247
 31
0.0
  0
LINE
  5
78
330
1F
100
AcDbEntity
  8
0
  6
Continuous
 62
     7
370
    25
100
AcDbLine
 10
174.688104944
 20
83.2738499393
 30
0.0
 11
175.138104944
 21
91.2738499393
 31
0.0
  0
LINE
  5
79
330
1F
100
AcDbEntity
  8
0
  6
Continuous
 62
     7
370
    25
100
AcDbLine
 10
175.138104944
 20
91.2738499393
 30
0.0
 11
173.1881049439
 21
99.2738499392
 31
0.0
  0
LINE
  5
7A
330
1F
100
AcDbEntity
  8
0
  6
Continuous
 62
     7
370
    25
100
AcDbLine
 10
160.6193595264
 20
84.4959906965
 30
0.0
 11
160.688104944
 21
83.2738499393
 31
0.0
  0
LINE
  5
7B
330
1F
100
AcDbEntity
  8
0
  6
Continuous
 62
     7
370
    25
100
AcDbLine
 10
162.188104944
 20
99.2738499392
 30
0.0
 11
161.9348734094
 21
98.2349513361
 31
0.0
  0
LINE
  5
7C
330
1F
100
AcDbEntity
  8
0
  6
Continuous
 62
     7
370
    25
100
AcDbLine
 10
194.0871831967
 20
63.4830229416
 30
0.0
 11
194.688104944
 21
64.5238499393
 31
0.0
  0
LINE
  5
7D
330
1F
100
AcDbEntity
  8
0
  6
Continuous
 62
     7
370
    25
100
AcDbLine
 10
194.688104944
 20
81.0238499393
 30
0.0
 11
194.1343261529
 21
81.9830229416
 31
0.0
  0
LINE
  5
7E
330
1F
100
AcDbEntity
  8
0
  6
Continuous
 62
     7
370
    25
100
AcDbLine
 10
185.241883735
 20
81.9830229416
 30
0.0
 11
184.688104944
 21
81.0238499393
 31
0.0
  0
LINE
  5
7F
330
1F
100
AcDbEntity
  8
0
  6
Continuous
 62
     7
370
    25
100
AcDbLine
 10
184.688104944
 20
64.5238499393
 30
0.0
 11
185.2890266912
 21
63.4830229416
 31
0.0
  0
LINE
  5
80
330
1F
100
AcDbEntity
  8
0
  6
Continuous
 62
     7
370
    25
100
AcDbLine
 10
180.188104944
 20
81.0238499393
 30
0.0
 11
179.688104944
 21
80.5238499393
 31
0.0
  0
LINE
  5
81
330
1F
100
AcDbEntity
  8
0
  6
Continuous
 62
     7
370
    25
100
AcDbLine
 10
179.688104944
 20
65.0238499393
 30
0.0
 11
180.188104944
 21
64.5238499393
 31
0.0
  0
LINE
  5
82
330
1F
100
AcDbEntity
  8
0
  6
Continuous
 62
     7
370
    25
100
AcDbLine
 10
184.688104944
 20
81.0238499393
 30
0.0
 11
180.188104944
 21
81.0238499393
 31
0.0
  0
LINE
  5
83
330
1F
100
AcDbEntity
  8
0
  6
Continuous
 62
     7
370
    25
100
AcDbLine
 10
180.188104944
 20
64.5238499393
 30
0.0
 11
184.688104944
 21
64.5238499393
 31
0.0
  0
LINE
  5
84
330
1F
100
AcDbEntity
  8
0
  6
Continuous
 62
     7
370
    25
100
AcDbLine
 10
194.688104944
 20
67.7214124393
 30
0.0
 11
203.3331568845
 21
67.9915703124
 31
0.0
  0
LINE
  5
85
330
1F
100
AcDbEntity
  8
0
  6
Continuous
 62
     7
370
    25
100
AcDbLine
 10
203.3331568845
 20
77.5561295661
 30
0.0
 11
194.688104944
 21
77.8262874393
 31
0.0
  0
LINE
  5
86
330
1F
100
AcDbEntity
  8
0
  6
Continuous
 62
     7
370
    25
100
AcDbLine
 10
203.3331568845
 20
67.9915703124
 30
0.0
 11
204.688104944
 21
68.7738499393
 31
0.0
  0
LINE
  5
87
330
1F
100
AcDbEntity
  8
0
  6
Continuous
 62
     7
370
    25
100
AcDbLine
 10
204.688104944
 20
76.7738499393
 30
0.0
 11
203.3331568845
 21
77.5561295661
 31
0.0
  0
LINE
  5
88
330
1F
100
AcDbEntity
  8
0
  6
Continuous
 62
     7
370
    25
100
AcDbLine
 10
185.2418836816
 20
63.4830229416
 30
0.0
 11
194.1343262063
 21
63.4830229416
 31
0.0
  0
LINE
  5
89
330
1F
100
AcDbEntity
  8
0
  6
Continuous
 62
     7
370
    25
100
AcDbLine
 10
194.1343262063
 20
81.9830229416
 30
0.0
 11
185.2418836816
 21
81.9830229416
 31
0.0
  0
LINE
  5
8A
330
1F
100
AcDbEntity
  8
0
  6
Continuous
 62
     7
370
    25
100
AcDbLine
 10
157.938104944
 20
83.2738499393
 30
0.0
 11
157.688104944
 21
83.0238499393
 31
0.0
  0
LINE
  5
8B
330
1F
100
AcDbEntity
  8
0
  6
Continuous
 62
     7
370
    25
100
AcDbLine
 10
157.688104944
 20
62.5238499393
 30
0.0
 11
157.938104944
 21
62.2738499393
 31
0.0
  0
ARC
  5
8C
330
1F
100
AcDbEntity
  8
0
  6
Continuous
 62
     7
370
    25
100
AcDbCircle
 10
158.688104944
 20
63.7738499393
 30
0.0
 40
1.5
100
AcDbArc
 50
270.0
 51
0.0
  0
ARC
  5
8D
330
1F
100
AcDbEntity
  8
0
  6
Continuous
 62
     7
370
    25
100
AcDbCircle
 10
158.688104944
 20
81.7738499393
 30
0.0
 40
1.5
100
AcDbArc
 50
0.0
 51
90.0
  0
LINE
  5
8E
330
1F
100
AcDbEntity
  8
0
  6
Continuous
 62
     7
370
    25
100
AcDbLine
 10
158.688104944
 20
83.2738499393
 30
0.0
 11
157.938104944
 21
83.2738499393
 31
0.0
  0
LINE
  5
8F
330
1F
100
AcDbEntity
  8
0
  6
Continuous
 62
     7
370
    25
100
AcDbLine
 10
157.938104944
 20
62.2738499393
 30
0.0
 11
158.688104944
 21
62.2738499393
 31
0.0
  0
LINE
  5
90
330
1F
100
AcDbEntity
  8
0
  6
Continuous
 62
     7
370
    25
100
AcDbLine
 10
177.6385114883
 20
62.7738499393
 30
0.0
 11
179.688104944
 21
66.3238499393
 31
0.0
  0
LINE
  5
91
330
1F
100
AcDbEntity
  8
0
  6
Continuous
 62
     7
370
    25
100
AcDbLine
 10
179.688104944
 20
79.2238499393
 30
0.0
 11
177.6385114883
 21
82.7738499393
 31
0.0
  0
ARC
  5
92
330
1F
100
AcDbEntity
  8
0
  6
Continuous
 62
     7
370
    25
100
AcDbCircle
 10
176.688104944
 20
81.7738499393
 30
0.0
 40
1.500000000000014
100
AcDbArc
 50
138.1896851042
 51
180.0
  0
ARC
  5
93
330
1F
100
AcDbEntity
  8
0
  6
Continuous
 62
     7
370
    25
100
AcDbCircle
 10
176.688104944
 20
63.7738499393
 30
0.0
 40
1.500000000000014
100
AcDbArc
 50
180.0
 51
221.8103148958
  0
LINE
  5
94
330
1F
100
AcDbEntity
  8
0
  6
Continuous
 62
     7
370
    25
100
AcDbLine
 10
175.5700709552
 20
62.7738499393
 30
0.0
 11
177.6385114883
 21
62.7738499393
 31
0.0
  0
LINE
  5
95
330
1F
100
AcDbEntity
  8
0
  6
Continuous
 62
     7
370
    25
100
AcDbLine
 10
177.6385114883
 20
82.7738499393
 30
0.0
 11
175.5700709552
 21
82.7738499393
 31
0.0
  0
ARC
  5
96
330
1F
100
AcDbEntity
  8
0
  6
Continuous
 62
     7
370
    25
100
AcDbCircle
 10
160.688104944
 20
63.7738499393
 30
0.0
 40
0.5
100
AcDbArc
 50
90.0
 51
180.0
  0
ARC
  5
97
330
1F
100
AcDbEntity
  8
0
  6
Continuous
 62
     7
370
    25
100
AcDbCircle
 10
174.688104944
 20
63.7738499393
 30
0.0
 40
0.5
100
AcDbArc
 50
0.0
 51
90.0
  0
ARC
  5
98
330
1F
100
AcDbEntity
  8
0
  6
Continuous
 62
     7
370
    25
100
AcDbCircle
 10
174.688104944
 20
81.7738499393
 30
0.0
 40
0.5
100
AcDbArc
 50
270.0
 51
0.0
  0
ARC
  5
99
330
1F
100
AcDbEntity
  8
0
  6
Continuous
 62
     7
370
    25
100
AcDbCircle
 10
160.688104944
 20
81.7738499393
 30
0.0
 40
0.5
100
AcDbArc
 50
180.0
 51
270.0
  0
LINE
  5
9A
330
1F
100
AcDbEntity
  8
0
  6
Continuous
 62
     7
370
    25
100
AcDbLine
 10
160.688104944
 20
64.2738499393
 30
0.0
 11
174.688104944
 21
64.2738499393
 31
0.0
  0
LINE
  5
9B
330
1F
100
AcDbEntity
  8
0
  6
Continuous
 62
     7
370
    25
100
AcDbLine
 10
161.7909206071
 20
81.2738499393
 30
0.0
 11
160.688104944
 21
81.2738499393
 31
0.0
  0
LINE
  5
9C
330
1F
100
AcDbEntity
  8
0
  6
Continuous
 62
     7
370
    25
100
AcDbLine
 10
174.688104944
 20
81.2738499393
 30
0.0
 11
173.588104944
 21
81.2738499393
 31
0.0
  0
LINE
  5
9D
330
1F
100
AcDbEntity
  8
0
  6
Continuous
 62
     7
370
    25
100
AcDbLine
 10
173.588104944
 20
81.2738499393
 30
0.0
 11
173.588104944
 21
83.2738499393
 31
0.0
  0
LINE
  5
9E
330
1F
100
AcDbEntity
  8
0
  6
Continuous
 62
     7
370
    25
100
AcDbLine
 10
161.788104944
 20
83.2738499393
 30
0.0
 11
161.788104944
 21
81.271904626
 31
0.0
  0
LINE
  5
9F
330
1F
100
AcDbEntity
  8
0
  6
Continuous
 62
     7
370
    25
100
AcDbLine
 10
154.888104944
 20
80.7738499393
 30
0.0
 11
154.888104944
 21
64.7738499393
 31
0.0
  0
LINE
  5
A0
330
1F
100
AcDbEntity
  8
0
  6
Continuous
 62
     7
370
    25
100
AcDbLine
 10
154.688104944
 20
64.9738499393
 30
0.0
 11
154.688104944
 21
80.5738499393
 31
0.0
  0
LINE
  5
A1
330
1F
100
AcDbEntity
  8
0
  6
Continuous
 62
     7
370
    25
100
AcDbLine
 10
151.688104944
 20
76.2738499393
 30
0.0
 11
151.688104944
 21
69.2738499393
 31
0.0
  0
LINE
  5
A2
330
1F
100
AcDbEntity
  8
0
  6
Continuous
 62
     7
370
    25
100
AcDbLine
 10
132.1804126363
 20
70.2829335945
 30
0.0
 11
132.1804126363
 21
69.931542247
 31
0.0
  0
LINE
  5
A3
330
1F
100
AcDbEntity
  8
0
  6
Continuous
 62
     7
370
    25
100
AcDbLine
 10
132.1804126363
 20
75.6161576316
 30
0.0
 11
132.1804126363
 21
70.2829335945
 31
0.0
  0
LINE
  5
A4
330
1F
100
AcDbEntity
  8
0
  6
Continuous
 62
     7
370
    25
100
AcDbLine
 10
135.688104944
 20
76.2738499393
 30
0.0
 11
135.688104944
 21
69.2738499393
 31
0.0
  0
LINE
  5
A5
330
1F
100
AcDbEntity
  8
0
  6
Continuous
 62
     7
370
    25
100
AcDbLine
 10
139.688104944
 20
76.2738499393
 30
0.0
 11
139.688104944
 21
69.2738499393
 31
0.0
  0
LINE
  5
A6
330
1F
100
AcDbEntity
  8
0
  6
Continuous
 62
     7
370
    25
100
AcDbLine
 10
147.688104944
 20
76.2738499393
 30
0.0
 11
147.688104944
 21
69.2738499393
 31
0.0
  0
LINE
  5
A7
330
1F
100
AcDbEntity
  8
0
  6
Continuous
 62
     7
370
    25
100
AcDbLine
 10
143.688104944
 20
76.2738499393
 30
0.0
 11
143.688104944
 21
69.2738499393
 31
0.0
  0
LINE
  5
A8
330
1F
100
AcDbEntity
  8
0
  6
Continuous
 62
     7
370
    25
100
AcDbLine
 10
131.688104944
 20
70.4238499393
 30
0.0
 11
131.688104944
 21
75.1238499393
 31
0.0
  0
SPLINE
  5
A9
330
1F
100
AcDbEntity
  8
0
  6
Continuous
 62
     7
370
    25
100
AcDbSpline
210
0.0
220
0.0
230
1.0
 70
     8
 71
     3
 72
    15
 73
    11
 74
     0
 42
0.00000001
 43
0.00000001
 40
0.0
 40
0.0
 40
0.0
 40
0.0
 40
0.0081667445812695
 40
0.3321939991490075
 40
0.4756279600585577
 40
0.6866830973284901
 40
0.8457435502264808
 40
0.8967566214763126
 40
0.9909540928118029
 40
1.0
 40
1.0
 40
1.0
 40
1.0
 10
162.5890854303635
 20
100.1238499392626
 30
0.0
 10
162.5885978962206
 20
100.1238472629168
 30
0.0
 10
162.5687667486885
 20
100.1237383987301
 30
0.0
 10
162.5404859686792
 20
100.1141923864606
 30
0.0
 10
162.5026566701904
 20
100.076830003206
 30
0.0
 10
162.4760727736229
 20
100.0319644884713
 30
0.0
 10
162.458902949868
 20
99.97408818889443
 30
0.0
 10
162.4510859536515
 20
99.92341214892252
 30
0.0
 10
162.4490902672156
 20
99.89471786940247
 30
0.0
 10
162.4490253032648
 20
99.87553103784701
 30
0.0
 10
162.4490196112981
 20
99.87384993926258
 30
0.0
  0
LINE
  5
AA
330
1F
100
AcDbEntity
  8
0
  6
Continuous
 62
     7
370
    25
100
AcDbLine
 10
162.5890854304
 20
100.1238499393
 30
0.0
 11
172.7871244575
 21
100.1238499393
 31
0.0
  0
SPLINE
  5
AB
330
1F
100
AcDbEntity
  8
0
  6
Continuous
 62
     7
370
    25
100
AcDbSpline
210
0.0
220
0.0
230
1.0
 70
     8
 71
     3
 72
    15
 73
    11
 74
     0
 42
0.00000001
 43
0.00000001
 40
0.0
 40
0.0
 40
0.0
 40
0.0
 40
0.0090459071881971
 40
0.1032433785236816
 40
0.1542564497735189
 40
0.3133169026715102
 40
0.5243720399414394
 40
0.6678060008509896
 40
0.9918332554187292
 40
1.0
 40
1.0
 40
1.0
 40
1.0
 10
172.9271902766143
 20
99.87384993926258
 30
0.0
 10
172.9271845846477
 20
99.87553103784701
 30
0.0
 10
172.9271196206969
 20
99.89471786940251
 30
0.0
 10
172.925123934261
 20
99.92341214892251
 30
0.0
 10
172.9173069380446
 20
99.97408818889446
 30
0.0
 10
172.9001371142896
 20
100.0319644884713
 30
0.0
 10
172.8735532177221
 20
100.076830003206
 30
0.0
 10
172.8357239192332
 20
100.1141923864605
 30
0.0
 10
172.807443139224
 20
100.1237383987301
 30
0.0
 10
172.7876119916919
 20
100.1238472629168
 30
0.0
 10
172.787124457549
 20
100.1238499392626
 30
0.0
  0
LINE
  5
AC
330
1F
100
AcDbEntity
  8
0
  6
Continuous
 62
     7
370
    25
100
AcDbLine
 10
172.9271902766
 20
99.8738499393
 30
0.0
 11
162.4490196113
 21
99.8738499393
 31
0.0
  0
LINE
  5
AD
330
1F
100
AcDbEntity
  8
0
  6
Continuous
 62
     7
370
    25
100
AcDbLine
 10
162.4490196113
 20
99.8738499393
 30
0.0
 11
162.4490196113
 21
99.2738499393
 31
0.0
  0
LINE
  5
AE
330
1F
100
AcDbEntity
  8
0
  6
Continuous
 62
     7
370
    25
100
AcDbLine
 10
172.9271902766
 20
99.2738499393
 30
0.0
 11
172.9271902766
 21
99.8738499393
 31
0.0
  0
LINE
  5
AF
330
1F
100
AcDbEntity
  8
0
  6
Continuous
 62
     7
370
    25
100
AcDbLine
 10
162.4490196113
 20
99.2738499393
 30
0.0
 11
172.9271902766
 21
99.2738499393
 31
0.0
  0
LINE
  5
B0
330
1F
100
AcDbEntity
  8
0
  6
Continuous
 62
     7
370
    25
100
AcDbLine
 10
162.2108793689
 20
99.8738499393
 30
0.0
 11
162.4490196113
 21
99.8738499393
 31
0.0
  0
SPLINE
  5
B1
330
1F
100
AcDbEntity
  8
0
  6
Continuous
 62
     7
370
    25
100
AcDbSpline
210
0.0
220
0.0
230
1.0
 70
     8
 71
     3
 72
    15
 73
    11
 74
     0
 42
0.00000001
 43
0.00000001
 40
0.0
 40
0.0
 40
0.0
 40
0.0
 40
0.0089557228015919
 40
0.0999003359608146
 40
0.1531632460581687
 40
0.3125636920784844
 40
0.524966693569502
 40
0.6689893599352451
 40
0.9919152533810159
 40
1.0
 40
1.0
 40
1.0
 40
1.0
 10
162.2108793689046
 20
99.87384993926258
 30
0.0
 10
162.2108951244832
 20
99.87553106483549
 30
0.0
 10
162.2110708766398
 20
99.89428387945992
 30
0.0
 10
162.2164998926593
 20
99.92304610856742
 30
0.0
 10
162.2380353763666
 20
99.97393318203574
 30
0.0
 10
162.2857408046314
 20
100.0320688321684
 30
0.0
 10
162.3581317496233
 20
100.0767767053518
 30
0.0
 10
162.4600508616411
 20
100.1140585288135
 30
0.0
 10
162.5354059530956
 20
100.1237376836512
 30
0.0
 10
162.5878055988193
 20
100.1238472628529
 30
0.0
 10
162.5890854303635
 20
100.1238499392626
 30
0.0
  0
LINE
  5
B2
330
1F
100
AcDbEntity
  8
0
  6
Continuous
 62
     7
370
    25
100
AcDbLine
 10
172.9271902766
 20
99.8738499393
 30
0.0
 11
173.165330519
 21
99.8738499393
 31
0.0
  0
SPLINE
  5
B3
330
1F
100
AcDbEntity
  8
0
  6
Continuous
 62
     7
370
    25
100
AcDbSpline
210
0.0
220
0.0
230
1.0
 70
     8
 71
     3
 72
    15
 73
    11
 74
     0
 42
0.00000001
 43
0.00000001
 40
0.0
 40
0.0
 40
0.0
 40
0.0
 40
0.0080847466189819
 40
0.3310106400647581
 40
0.4750333064304993
 40
0.6874363079215137
 40
0.8468367539418307
 40
0.9000996640391851
 40
0.991044277198408
 40
1.0
 40
1.0
 40
1.0
 40
1.0
 10
172.787124457549
 20
100.1238499392626
 30
0.0
 10
172.7884042890932
 20
100.1238472628529
 30
0.0
 10
172.840803934817
 20
100.123737683651
 30
0.0
 10
172.9161590262714
 20
100.1140585288136
 30
0.0
 10
173.0180781382892
 20
100.0767767053518
 30
0.0
 10
173.0904690832811
 20
100.0320688321684
 30
0.0
 10
173.1381745115459
 20
99.97393318203574
 30
0.0
 10
173.1597099952532
 20
99.92304610856742
 30
0.0
 10
173.1651390112727
 20
99.89428387945998
 30
0.0
 10
173.1653147634293
 20
99.87553106483549
 30
0.0
 10
173.1653305190079
 20
99.87384993926258
 30
0.0
  0
LINE
  5
B4
330
1F
100
AcDbEntity
  8
0
  6
Continuous
 62
     7
370
    25
100
AcDbLine
 10
162.2108793689
 20
99.2738499393
 30
0.0
 11
162.2108793689
 21
99.8738499393
 31
0.0
  0
LINE
  5
B5
330
1F
100
AcDbEntity
  8
0
  6
Continuous
 62
     7
370
    25
100
AcDbLine
 10
162.4490196113
 20
99.2738499393
 30
0.0
 11
162.2108793689
 21
99.2738499393
 31
0.0
  0
LINE
  5
B6
330
1F
100
AcDbEntity
  8
0
  6
Continuous
 62
     7
370
    25
100
AcDbLine
 10
173.165330519
 20
99.8738499393
 30
0.0
 11
173.165330519
 21
99.2738499393
 31
0.0
  0
LINE
  5
B7
330
1F
100
AcDbEntity
  8
0
  6
Continuous
 62
     7
370
    25
100
AcDbLine
 10
173.165330519
 20
99.2738499393
 30
0.0
 11
172.9271902766
 21
99.2738499393
 31
0.0
  0
LINE
  5
B8
330
1F
100
AcDbEntity
  8
0
  6
Continuous
 62
     7
370
    25
100
AcDbLine
 10
161.938104944
 20
100.1238499393
 30
0.0
 11
161.938104944
 21
99.8738499393
 31
0.0
  0
LINE
  5
B9
330
1F
100
AcDbEntity
  8
0
  6
Continuous
 62
     7
370
    25
100
AcDbLine
 10
162.2108793689
 20
99.8738499393
 30
0.0
 11
161.938104944
 21
99.8738499393
 31
0.0
  0
LINE
  5
BA
330
1F
100
AcDbEntity
  8
0
  6
Continuous
 62
     7
370
    25
100
AcDbLine
 10
161.938104944
 20
100.1238499393
 30
0.0
 11
162.5890854304
 21
100.1238499393
 31
0.0
  0
LINE
  5
BB
330
1F
100
AcDbEntity
  8
0
  6
Continuous
 62
     7
370
    25
100
AcDbLine
 10
161.688104944
 20
99.2738499393
 30
0.0
 11
161.688104944
 21
99.8738499393
 31
0.0
  0
LINE
  5
BC
330
1F
100
AcDbEntity
  8
0
  6
Continuous
 62
     7
370
    25
100
AcDbLine
 10
161.688104944
 20
99.8738499393
 30
0.0
 11
161.938104944
 21
99.8738499393
 31
0.0
  0
LINE
  5
BD
330
1F
100
AcDbEntity
  8
0
  6
Continuous
 62
     7
370
    25
100
AcDbLine
 10
161.938104944
 20
99.8738499393
 30
0.0
 11
161.938104944
 21
99.2738499393
 31
0.0
  0
LINE
  5
BE
330
1F
100
AcDbEntity
  8
0
  6
Continuous
 62
     7
370
    25
100
AcDbLine
 10
161.938104944
 20
99.2738499393
 30
0.0
 11
161.688104944
 21
99.2738499393
 31
0.0
  0
LINE
  5
BF
330
1F
100
AcDbEntity
  8
0
  6
Continuous
 62
     7
370
    25
100
AcDbLine
 10
162.2108793689
 20
99.2738499393
 30
0.0
 11
161.938104944
 21
99.2738499393
 31
0.0
  0
ARC
  5
C0
330
1F
100
AcDbEntity
  8
0
  6
Continuous
 62
     7
370
    25
100
AcDbCircle
 10
161.938104944
 20
99.8738499393
 30
0.0
 40
0.25
100
AcDbArc
 50
90.0
 51
180.0
  0
LINE
  5
C1
330
1F
100
AcDbEntity
  8
0
  6
Continuous
 62
     7
370
    25
100
AcDbLine
 10
173.438104944
 20
99.8738499393
 30
0.0
 11
173.438104944
 21
100.1238499393
 31
0.0
  0
LINE
  5
C2
330
1F
100
AcDbEntity
  8
0
  6
Continuous
 62
     7
370
    25
100
AcDbLine
 10
173.438104944
 20
99.8738499393
 30
0.0
 11
173.165330519
 21
99.8738499393
 31
0.0
  0
LINE
  5
C3
330
1F
100
AcDbEntity
  8
0
  6
Continuous
 62
     7
370
    25
100
AcDbLine
 10
172.7871244575
 20
100.1238499393
 30
0.0
 11
173.438104944
 21
100.1238499393
 31
0.0
  0
ARC
  5
C4
330
1F
100
AcDbEntity
  8
0
  6
Continuous
 62
     7
370
    25
100
AcDbCircle
 10
173.438104944
 20
99.8738499393
 30
0.0
 40
0.25
100
AcDbArc
 50
0.0
 51
90.0
  0
LINE
  5
C5
330
1F
100
AcDbEntity
  8
0
  6
Continuous
 62
     7
370
    25
100
AcDbLine
 10
173.438104944
 20
99.8738499393
 30
0.0
 11
173.688104944
 21
99.8738499393
 31
0.0
  0
LINE
  5
C6
330
1F
100
AcDbEntity
  8
0
  6
Continuous
 62
     7
370
    25
100
AcDbLine
 10
173.438104944
 20
99.2738499393
 30
0.0
 11
173.438104944
 21
99.8738499393
 31
0.0
  0
LINE
  5
C7
330
1F
100
AcDbEntity
  8
0
  6
Continuous
 62
     7
370
    25
100
AcDbLine
 10
173.688104944
 20
99.8738499393
 30
0.0
 11
173.688104944
 21
99.2738499393
 31
0.0
  0
LINE
  5
C8
330
1F
100
AcDbEntity
  8
0
  6
Continuous
 62
     7
370
    25
100
AcDbLine
 10
173.688104944
 20
99.2738499393
 30
0.0
 11
173.438104944
 21
99.2738499393
 31
0.0
  0
LINE
  5
C9
330
1F
100
AcDbEntity
  8
0
  6
Continuous
 62
     7
370
    25
100
AcDbLine
 10
173.438104944
 20
99.2738499393
 30
0.0
 11
173.165330519
 21
99.2738499393
 31
0.0
  0
LINE
  5
CA
330
1F
100
AcDbEntity
  8
0
  6
Continuous
 62
     7
370
    25
100
AcDbLine
 10
162.688104944
 20
100.1338499393
 30
0.0
 11
172.688104944
 21
100.1338499393
 31
0.0
  0
LINE
  5
CB
330
1F
100
AcDbEntity
  8
0
  6
Continuous
 62
     7
370
    25
100
AcDbLine
 10
162.688104944
 20
100.1238499393
 30
0.0
 11
162.688104944
 21
100.1338499393
 31
0.0
  0
LINE
  5
CC
330
1F
100
AcDbEntity
  8
0
  6
Continuous
 62
     7
370
    25
100
AcDbLine
 10
172.688104944
 20
100.1238499393
 30
0.0
 11
172.688104944
 21
100.1338499393
 31
0.0
  0
LINE
  5
CD
330
1F
100
AcDbEntity
  8
0
  6
Continuous
 62
     7
370
    25
100
AcDbLine
 10
165.688104944
 20
83.2738499393
 30
0.0
 11
174.688104944
 21
83.2738499393
 31
0.0
  0
LINE
  5
CE
330
1F
100
AcDbEntity
  8
0
  6
Continuous
 62
     7
370
    25
100
AcDbLine
 10
165.688104944
 20
83.3116668631
 30
0.0
 11
165.688104944
 21
83.2738499393
 31
0.0
  0
SPLINE
  5
CF
330
1F
100
AcDbEntity
  8
0
  6
Continuous
 62
     7
370
    25
100
AcDbSpline
210
0.0
220
0.0
230
1.0
 70
     8
 71
     3
 72
     9
 73
     5
 74
     0
 42
0.00000001
 43
0.00000001
 40
0.0
 40
0.0
 40
0.0
 40
0.0
 40
0.4875141023677128
 40
0.9999999999999999
 40
0.9999999999999999
 40
0.9999999999999999
 40
0.9999999999999999
 10
165.5321596935291
 20
83.27384993926265
 30
0.0
 10
165.5584662674516
 20
83.27557728523435
 30
0.0
 10
165.6124269093999
 20
83.27912045652583
 30
0.0
 10
165.6624624400946
 20
83.30063894247513
 30
0.0
 10
165.6881049439563
 20
83.31166686306257
 30
0.0
  0
SPLINE
  5
D0
330
1F
100
AcDbEntity
  8
0
  6
Continuous
 62
     7
370
    25
100
AcDbSpline
210
0.0
220
0.0
230
1.0
 70
     8
 71
     3
 72
    17
 73
    13
 74
     0
 42
0.00000001
 43
0.00000001
 40
0.0
 40
0.0
 40
0.0
 40
0.0
 40
0.3241697628029873
 40
0.5422758463620719
 40
0.689509052693928
 40
0.7894036290694505
 40
0.8577090008137825
 40
0.9049823971474137
 40
0.9551712229700868
 40
0.9753097783197817
 40
0.9919572060138848
 40
1.0
 40
1.0
 40
1.0
 40
1.0
 10
163.2135580598741
 20
91.27384993926022
 30
0.0
 10
163.3562734198913
 20
90.36123643665454
 30
0.0
 10
163.5950097288332
 20
88.8346034303932
 30
0.0
 10
163.9745969232849
 20
86.90783052811223
 30
0.0
 10
164.283731131632
 20
85.62019505717947
 30
0.0
 10
164.5398446598321
 20
84.76104309045772
 30
0.0
 10
164.7541556627271
 20
84.18757520208031
 30
0.0
 10
164.957389883755
 20
83.76604304805035
 30
0.0
 10
165.1419351482976
 20
83.48555050525492
 30
0.0
 10
165.3280062346657
 20
83.33000183667426
 30
0.0
 10
165.4432168339216
 20
83.27939123747676
 30
0.0
 10
165.5103056393945
 20
83.27521148567213
 30
0.0
 10
165.5321596935291
 20
83.27384993926265
 30
0.0
  0
LINE
  5
D1
330
1F
100
AcDbEntity
  8
0
  6
Continuous
 62
     7
370
    25
100
AcDbLine
 10
163.2135580599
 20
91.2738499393
 30
0.0
 11
175.138104944
 21
91.2738499392
 31
0.0
  0
LINE
  5
D2
330
1F
100
AcDbEntity
  8
0
  6
Continuous
 62
     7
370
    25
100
AcDbLine
 10
163.9737688156
 20
92.2685935172
 30
0.0
 11
163.2135580599
 21
91.2738499393
 31
0.0
  0
LINE
  5
D3
330
1F
100
AcDbEntity
  8
0
  6
Continuous
 62
     7
370
    25
100
AcDbLine
 10
162.4643027696
 20
99.2738499392
 30
0.0
 11
160.7361641056
 21
92.2685935172
 31
0.0
  0
LINE
  5
D4
330
1F
100
AcDbEntity
  8
0
  6
Continuous
 62
     7
370
    25
100
AcDbLine
 10
172.9271902766
 20
99.2738499392
 30
0.0
 11
162.4643027696
 21
99.2738499392
 31
0.0
  0
SPLINE
  5
D5
330
1F
100
AcDbEntity
  8
0
  6
Continuous
 62
     7
370
    25
100
AcDbSpline
210
0.0
220
0.0
230
1.0
 70
     8
 71
     3
 72
    14
 73
    10
 74
     0
 42
0.00000001
 43
0.00000001
 40
0.0
 40
0.0
 40
0.0
 40
0.0
 40
0.1576095309202822
 40
0.3152382602707094
 40
0.4726926441579498
 40
0.6301650083177254
 40
0.7907313191165901
 40
0.9513050385928076
 40
1.0
 40
1.0
 40
1.0
 40
1.0
 10
161.1881049439562
 20
83.27384993926258
 30
0.0
 10
161.1215339291742
 20
83.48735172773998
 30
0.0
 10
160.9883837905893
 20
83.9143813113655
 30
0.0
 10
160.6598168288386
 20
84.49962839022182
 30
0.0
 10
160.2464271881066
 20
85.02178293104423
 30
0.0
 10
159.7507522691619
 20
85.4707610584641
 30
0.0
 10
159.1844625638774
 20
85.83004279027048
 30
0.0
 10
158.7082119074844
 20
86.03460896937166
 30
0.0
 10
158.4280173392916
 20
86.11540351772297
 30
0.0
 10
158.3628185545186
 20
86.13420369076974
 30
0.0
  0
LINE
  5
D6
330
1F
100
AcDbEntity
  8
0
  6
Continuous
 62
     7
370
    25
100
AcDbLine
 10
158.3628185545
 20
86.1342036908
 30
0.0
 11
152.5830617047
 21
87.7028251313
 31
0.0
  0
SPLINE
  5
D7
330
1F
100
AcDbEntity
  8
0
  6
Continuous
 62
     7
370
    25
100
AcDbSpline
210
0.0
220
0.0
230
1.0
 70
     8
 71
     3
 72
     9
 73
     5
 74
     0
 42
0.00000001
 43
0.00000001
 40
0.0
 40
0.0
 40
0.0
 40
0.0
 40
0.4976931370791441
 40
0.9999999999999999
 40
0.9999999999999999
 40
0.9999999999999999
 40
0.9999999999999999
 10
145.5126680824196
 20
89.02602563223813
 30
0.0
 10
146.7013050462008
 20
88.8765787512377
 30
0.0
 10
149.0895979022307
 20
88.57629958348079
 30
0.0
 10
151.4149975184186
 20
87.99487745609338
 30
0.0
 10
152.5830617046633
 20
87.70282513125262
 30
0.0
  0
LINE
  5
D8
330
1F
100
AcDbEntity
  8
0
  6
Continuous
 62
     7
370
    25
100
AcDbLine
 10
145.5126680824
 20
89.0260256322
 30
0.0
 11
145.5126680824
 21
92.2685935173
 31
0.0
  0
LINE
  5
D9
330
1F
100
AcDbEntity
  8
0
  6
Continuous
 62
     7
370
    25
100
AcDbLine
 10
145.5126680824
 20
92.2685935173
 30
0.0
 11
163.9737688156
 21
92.2685935172
 31
0.0
  0
LINE
  5
DA
330
1F
100
AcDbEntity
  8
0
  6
Continuous
 62
     7
370
    25
100
AcDbLine
 10
165.5321596935
 20
83.2738499393
 30
0.0
 11
161.188104944
 21
83.2738499393
 31
0.0
  0
LINE
  5
DB
330
1F
100
AcDbEntity
  8
0
  6
Continuous
 62
     7
370
    25
100
AcDbLine
 10
165.688104944
 20
83.3116668631
 30
0.0
 11
165.681305586
 21
83.2738499393
 31
0.0
  0
LINE
  5
DC
330
1F
100
AcDbEntity
  8
0
  6
Continuous
 62
     7
370
    25
100
AcDbLine
 10
165.681305586
 20
83.2738499393
 30
0.0
 11
165.5321596935
 21
83.2738499393
 31
0.0
  0
LINE
  5
DD
330
1F
100
AcDbEntity
  8
0
  6
Continuous
 62
     7
370
    25
100
AcDbLine
 10
165.688104944
 20
83.2738499393
 30
0.0
 11
165.681305586
 21
83.2738499393
 31
0.0
  0
LINE
  5
DE
330
1F
100
AcDbEntity
  8
0
  6
Continuous
 62
     7
370
    25
100
AcDbLine
 10
127.688104944
 20
101.2738499393
 30
0.0
 11
145.5126680824
 21
101.2738499393
 31
0.0
  0
LINE
  5
DF
330
1F
100
AcDbEntity
  8
0
  6
Continuous
 62
     7
370
    25
100
AcDbLine
 10
145.5126680824
 20
101.2738499393
 30
0.0
 11
145.5126680824
 21
92.2685935173
 31
0.0
  0
LINE
  5
E0
330
1F
100
AcDbEntity
  8
0
  6
Continuous
 62
     7
370
    25
100
AcDbLine
 10
140.7964370862
 20
89.2738499393
 30
0.0
 11
132.688104944
 21
89.2738499393
 31
0.0
  0
ARC
  5
E1
330
1F
100
AcDbEntity
  8
0
  6
Continuous
 62
     7
370
    25
100
AcDbCircle
 10
132.688104944
 20
94.2738499393
 30
0.0
 40
5.000000000000014
100
AcDbArc
 50
180.0
 51
270.0
  0
LINE
  5
E2
330
1F
100
AcDbEntity
  8
0
  6
Continuous
 62
     7
370
    25
100
AcDbLine
 10
127.688104944
 20
94.2738499393
 30
0.0
 11
127.688104944
 21
101.2738499393
 31
0.0
  0
ARC
  5
E3
330
1F
100
AcDbEntity
  8
0
  6
Continuous
 62
     7
370
    25
100
AcDbCircle
 10
140.7964370862
 20
44.2737206851
 30
0.0
 40
45.00012925418375
100
AcDbArc
 50
83.9840777705
 51
90.0
  0
LINE
  5
E4
330
1F
100
AcDbEntity
  8
0
  6
Continuous
 62
     7
370
    25
100
AcDbLine
 10
145.5126680824
 20
101.2738499393
 30
0.0
 11
147.688104944
 21
101.2738499393
 31
0.0
  0
LINE
  5
E5
330
1F
100
AcDbEntity
  8
0
  6
Continuous
 62
     7
370
    25
100
AcDbLine
 10
147.688104944
 20
101.2738499393
 30
0.0
 11
147.688104944
 21
99.2928054626
 31
0.0
  0
ARC
  5
E6
330
1F
100
AcDbEntity
  8
0
  6
Continuous
 62
     7
370
    25
100
AcDbCircle
 10
153.688104944
 20
99.2928054626
 30
0.0
 40
6.000000000000005
100
AcDbArc
 50
180.0
 51
275.5801667845
  0
ARC
  5
E7
330
1F
100
AcDbEntity
  8
0
  6
Continuous
 62
     7
370
    25
100
AcDbCircle
 10
153.2991513797
 20
103.2738499393
 30
0.0
 40
10.00000000000848
100
AcDbArc
 50
275.5801667845
 51
336.4218215217
  0
LINE
  5
E8
330
1F
100
AcDbEntity
  8
0
  6
Continuous
 62
     7
370
    25
100
AcDbLine
 10
161.188104944
 20
83.2738499393
 30
0.0
 11
160.688104944
 21
83.2738499393
 31
0.0
  0
LINE
  5
E9
330
1F
100
AcDbEntity
  8
0
  6
Continuous
 62
     7
370
    25
100
AcDbLine
 10
185.2562477211
 20
76.3816528214
 30
0.0
 11
194.1199621668
 21
76.3816528214
 31
0.0
  0
SPLINE
  5
EA
330
1F
100
AcDbEntity
  8
0
  6
Continuous
 62
     7
370
    25
100
AcDbSpline
210
0.0
220
0.0
230
1.0
 70
     8
 71
     3
 72
    13
 73
     9
 74
     0
 42
0.00000001
 43
0.00000001
 40
0.0
 40
0.0
 40
0.0
 40
0.0
 40
0.2259831252362619
 40
0.3898943757553665
 40
0.5537885622271109
 40
0.7219554984999765
 40
0.8901576543432105
 40
1.0
 40
1.0
 40
1.0
 40
1.0
 10
194.1199621668218
 20
76.38165282141121
 30
0.0
 10
194.2296025869441
 20
75.83755408787707
 30
0.0
 10
194.4187679642988
 20
74.89880684363577
 30
0.0
 10
194.5383324333425
 20
73.54299571284032
 30
0.0
 10
194.5546016000485
 20
72.3247726077206
 30
0.0
 10
194.4642839718732
 20
71.09906360084923
 30
0.0
 10
194.3039095457611
 20
70.014622761192
 30
0.0
 10
194.1587233614601
 20
69.3478168229182
 30
0.0
 10
194.1013671074989
 20
69.08439306174785
 30
0.0
  0
LINE
  5
EB
330
1F
100
AcDbEntity
  8
0
  6
Continuous
 62
     7
370
    25
100
AcDbLine
 10
185.2748427804
 20
69.0843930617
 30
0.0
 11
194.1013671075
 21
69.0843930617
 31
0.0
  0
SPLINE
  5
EC
330
1F
100
AcDbEntity
  8
0
  6
Continuous
 62
     7
370
    25
100
AcDbSpline
210
0.0
220
0.0
230
1.0
 70
     8
 71
     3
 72
    13
 73
     9
 74
     0
 42
0.00000001
 43
0.00000001
 40
0.0
 40
0.0
 40
0.0
 40
0.0
 40
0.1098424160860285
 40
0.2738283121920673
 40
0.4377819566873922
 40
0.6058902757370972
 40
0.7740167298668005
 40
1.0
 40
1.0
 40
1.0
 40
1.0
 10
185.2748427804136
 20
69.08439306174785
 30
0.0
 10
185.2174828039954
 20
69.34781642604264
 30
0.0
 10
185.074488994412
 20
70.0045096945183
 30
0.0
 10
184.9161599777306
 20
71.06826037613276
 30
0.0
 10
184.8229556166606
 20
72.28328564543537
 30
0.0
 10
184.835529621167
 20
73.51198143306597
 30
0.0
 10
184.9554390220644
 20
74.88865202979585
 30
0.0
 10
185.1466226582295
 20
75.83755184905742
 30
0.0
 10
185.2562477210907
 20
76.38165282141121
 30
0.0
  0
SPLINE
  5
ED
330
1F
100
AcDbEntity
  8
0
  6
Continuous
 62
     7
370
    25
100
AcDbSpline
210
0.0
220
0.0
230
1.0
 70
     8
 71
     3
 72
     9
 73
     5
 74
     0
 42
0.00000001
 43
0.00000001
 40
0.0
 40
0.0
 40
0.0
 40
0.0
 40
0.9929089899948365
 40
1.0
 40
1.0
 40
1.0
 40
1.0
 10
194.0873408731436
 20
63.54749206949607
 30
0.0
 10
194.0872345465979
 20
63.50481532197333
 30
0.0
 10
194.0871274607051
 20
63.46183379199144
 30
0.0
 10
194.0871839561262
 20
63.48332769092058
 30
0.0
 10
194.0871843567358
 20
63.48348010437294
 30
0.0
  0
SPLINE
  5
EE
330
1F
100
AcDbEntity
  8
0
  6
Continuous
 62
     7
370
    25
100
AcDbSpline
210
0.0
220
0.0
230
1.0
 70
     8
 71
     3
 72
    12
 73
     8
 74
     0
 42
0.00000001
 43
0.00000001
 40
0.0
 40
0.0
 40
0.0
 40
0.0
 40
0.1693350376211747
 40
0.3386280970084138
 40
0.5121324530343734
 40
0.6856399200578756
 40
1.0
 40
1.0
 40
1.0
 40
1.0
 10
194.0965717832856
 20
67.19612194932769
 30
0.0
 10
194.180831072679
 20
66.99263247495911
 30
0.0
 10
194.3493287635491
 20
66.58570397135654
 30
0.0
 10
194.4953815892983
 20
65.9607476489171
 30
0.0
 10
194.5396419258051
 20
65.32726964137605
 30
0.0
 10
194.4650837474942
 20
64.51509846681412
 30
0.0
 10
194.2353628013289
 20
63.92665730167074
 30
0.0
 10
194.0873408731436
 20
63.54749206949607
 30
0.0
  0
SPLINE
  5
EF
330
1F
100
AcDbEntity
  8
0
  6
Continuous
 62
     7
370
    25
100
AcDbSpline
210
0.0
220
0.0
230
1.0
 70
     8
 71
     3
 72
     9
 73
     5
 74
     0
 42
0.00000001
 43
0.00000001
 40
0.0
 40
0.0
 40
0.0
 40
0.0
 40
0.4965031364210181
 40
1.0
 40
1.0
 40
1.0
 40
1.0
 10
194.1013671074989
 20
69.08439306174785
 30
0.0
 10
194.100532299262
 20
68.75585191849773
 30
0.0
 10
194.0988509237064
 20
68.09414181205537
 30
0.0
 10
194.0973350306733
 20
67.49685432547558
 30
0.0
 10
194.0965717832856
 20
67.19612194932769
 30
0.0
  0
SPLINE
  5
F0
330
1F
100
AcDbEntity
  8
0
  6
Continuous
 62
     7
370
    25
100
AcDbSpline
210
0.0
220
0.0
230
1.0
 70
     8
 71
     3
 72
     9
 73
     5
 74
     0
 42
0.00000001
 43
0.00000001
 40
0.0
 40
0.0
 40
0.0
 40
0.0
 40
0.4965031344853179
 40
1.0
 40
1.0
 40
1.0
 40
1.0
 10
194.1247904086634
 20
78.26992393383154
 30
0.0
 10
194.1240319041514
 20
77.97346637527693
 30
0.0
 10
194.1225042108513
 20
77.37637536423644
 30
0.0
 10
194.1208134563923
 20
76.71476936714997
 30
0.0
 10
194.1199621668218
 20
76.38165282141121
 30
0.0
  0
SPLINE
  5
F1
330
1F
100
AcDbEntity
  8
0
  6
Continuous
 62
     7
370
    25
100
AcDbSpline
210
0.0
220
0.0
230
1.0
 70
     8
 71
     3
 72
    12
 73
     8
 74
     0
 42
0.00000001
 43
0.00000001
 40
0.0
 40
0.0
 40
0.0
 40
0.0
 40
0.1681235458336802
 40
0.3362051388288545
 40
0.5084618328601784
 40
0.6807208858054717
 40
0.9999999999999999
 40
0.9999999999999999
 40
0.9999999999999999
 40
0.9999999999999999
 10
194.1341552019484
 20
81.91855381366314
 30
0.0
 10
194.2184594671618
 20
81.71656229488237
 30
0.0
 10
194.3870469606587
 20
81.31262966143002
 30
0.0
 10
194.5342993028248
 20
80.69221026140492
 30
0.0
 10
194.5805397038545
 20
80.06324817883781
 30
0.0
 10
194.5085287558576
 20
79.24791747227408
 30
0.0
 10
194.2758967582629
 20
78.65503278366764
 30
0.0
 10
194.1247904086634
 20
78.26992393383154
 30
0.0
  0
LINE
  5
F2
330
1F
100
AcDbEntity
  8
0
  6
Continuous
 62
     7
370
    25
100
AcDbLine
 10
194.1343250091
 20
81.9825759845
 30
0.0
 11
194.1341552019
 21
81.9185538137
 31
0.0
  0
LINE
  5
F3
330
1F
100
AcDbEntity
  8
0
  6
Continuous
 62
     7
370
    25
100
AcDbLine
 10
194.688104944
 20
81.0238499393
 30
0.0
 11
194.688104944
 21
64.5238499393
 31
0.0
  0
SPLINE
  5
F4
330
1F
100
AcDbEntity
  8
0
  6
Continuous
 62
     7
370
    25
100
AcDbSpline
210
0.0
220
0.0
230
1.0
 70
     8
 71
     3
 72
    12
 73
     8
 74
     0
 42
0.00000001
 43
0.00000001
 40
0.0
 40
0.0
 40
0.0
 40
0.0
 40
0.1684163411452855
 40
0.3367902904656618
 40
0.5093379512424927
 40
0.6818869650201569
 40
1.0
 40
1.0
 40
1.0
 40
1.0
 10
185.2514194792491
 20
78.26992393383154
 30
0.0
 10
185.1660981325285
 20
78.47217531912719
 30
0.0
 10
184.9954769151957
 20
78.8766271813253
 30
0.0
 10
184.844923199854
 20
79.49792899602194
 30
0.0
 10
184.7954651823015
 20
80.12790287529604
 30
0.0
 10
184.8635293492603
 20
80.94260925969145
 30
0.0
 10
185.0931704706898
 20
81.53468852122442
 30
0.0
 10
185.2420546859641
 20
81.91855381366314
 30
0.0
  0
SPLINE
  5
F5
330
1F
100
AcDbEntity
  8
0
  6
Continuous
 62
     7
370
    25
100
AcDbSpline
210
0.0
220
0.0
230
1.0
 70
     8
 71
     3
 72
     9
 73
     5
 74
     0
 42
0.00000001
 43
0.00000001
 40
0.0
 40
0.0
 40
0.0
 40
0.0
 40
0.4965031368291203
 40
1.0
 40
1.0
 40
1.0
 40
1.0
 10
185.2562477210907
 20
76.38165282141121
 30
0.0
 10
185.2554081264838
 20
76.71019396565961
 30
0.0
 10
185.2537171107689
 20
77.37190407356873
 30
0.0
 10
185.2521889190074
 20
77.96919155867121
 30
0.0
 10
185.2514194792491
 20
78.26992393383154
 30
0.0
  0
SPLINE
  5
F6
330
1F
100
AcDbEntity
  8
0
  6
Continuous
 62
     7
370
    25
100
AcDbSpline
210
0.0
220
0.0
230
1.0
 70
     8
 71
     3
 72
     9
 73
     5
 74
     0
 42
0.00000001
 43
0.00000001
 40
0.0
 40
0.0
 40
0.0
 40
0.0
 40
0.4965031340656596
 40
1.0
 40
1.0
 40
1.0
 40
1.0
 10
185.2796381046269
 20
67.19612194932769
 30
0.0
 10
185.2788857086324
 20
67.49257950835263
 30
0.0
 10
185.2773703184106
 20
68.0896705208451
 30
0.0
 10
185.2756892121481
 20
68.75127651646822
 30
0.0
 10
185.2748427804136
 20
69.08439306174785
 30
0.0
  0
SPLINE
  5
F7
330
1F
100
AcDbEntity
  8
0
  6
Continuous
 62
     7
370
    25
100
AcDbSpline
210
0.0
220
0.0
230
1.0
 70
     8
 71
     3
 72
    12
 73
     8
 74
     0
 42
0.00000001
 43
0.00000001
 40
0.0
 40
0.0
 40
0.0
 40
0.0
 40
0.1696236854717776
 40
0.339204948657811
 40
0.512996386568421
 40
0.6867899464667273
 40
1.0
 40
1.0
 40
1.0
 40
1.0
 10
185.2888690147689
 20
63.54749206949607
 30
0.0
 10
185.2035993161393
 20
63.75123759203458
 30
0.0
 10
185.0330812445313
 20
64.15867768107469
 30
0.0
 10
184.8837510509747
 20
64.78450550518771
 30
0.0
 10
184.8363003313392
 20
65.4189840513111
 30
0.0
 10
184.9069866686366
 20
66.23054267561118
 30
0.0
 10
185.1337793408564
 20
66.81818646972202
 30
0.0
 10
185.2796381046269
 20
67.19612194932769
 30
0.0
  0
LINE
  5
F8
330
1F
100
AcDbEntity
  8
0
  6
Continuous
 62
     7
370
    25
100
AcDbLine
 10
185.289025557
 20
63.4834699056
 30
0.0
 11
185.2888690148
 21
63.5474920695
 31
0.0
  0
SPLINE
  5
F9
330
1F
100
AcDbEntity
  8
0
  6
Continuous
 62
     7
370
    25
100
AcDbSpline
210
0.0
220
0.0
230
1.0
 70
     8
 71
     3
 72
     9
 73
     5
 74
     0
 42
0.00000001
 43
0.00000001
 40
0.0
 40
0.0
 40
0.0
 40
0.0
 40
0.9929090954006842
 40
1.0
 40
1.0
 40
1.0
 40
1.0
 10
185.2420546859641
 20
81.91855381366314
 30
0.0
 10
185.2419434875809
 20
81.96123056341736
 30
0.0
 10
185.2418314950694
 20
82.00421209108382
 30
0.0
 10
185.2418845288895
 20
81.98271819673587
 30
0.0
 10
185.2418849049473
 20
81.98256578558158
 30
0.0
  0
LINE
  5
FA
330
1F
100
AcDbEntity
  8
0
  6
Continuous
 62
     7
370
    25
100
AcDbLine
 10
184.688104944
 20
72.7738499393
 30
0.0
 11
184.688104944
 21
81.0238499393
 31
0.0
  0
LINE
  5
FB
330
1F
100
AcDbEntity
  8
0
  6
Continuous
 62
     7
370
    25
100
AcDbLine
 10
184.688104944
 20
64.5238499393
 30
0.0
 11
184.688104944
 21
72.7738499393
 31
0.0
  0
LINE
  5
FC
330
1F
100
AcDbEntity
  8
0
  6
Continuous
 62
     7
370
    25
100
AcDbLine
 10
185.2514194792
 20
78.2699239338
 30
0.0
 11
194.1247904087
 21
78.2699239338
 31
0.0
  0
LINE
  5
FD
330
1F
100
AcDbEntity
  8
0
  6
Continuous
 62
     7
370
    25
100
AcDbLine
 10
185.2796381046
 20
67.1961219493
 30
0.0
 11
194.0965717833
 21
67.1961219493
 31
0.0
  0
LINE
  5
FE
330
1F
100
AcDbEntity
  8
0
  6
Continuous
 62
     7
370
    25
100
AcDbLine
 10
179.688104944
 20
72.7738499393
 30
0.0
 11
179.688104944
 21
80.5238499393
 31
0.0
  0
LINE
  5
FF
330
1F
100
AcDbEntity
  8
0
  6
Continuous
 62
     7
370
    25
100
AcDbLine
 10
179.688104944
 20
65.0238499393
 30
0.0
 11
179.688104944
 21
72.7738499393
 31
0.0
  0
LINE
  5
100
330
1F
100
AcDbEntity
  8
0
  6
Continuous
 62
     7
370
    25
100
AcDbLine
 10
180.188104944
 20
72.7738499393
 30
0.0
 11
180.188104944
 21
64.5238499393
 31
0.0
  0
LINE
  5
101
330
1F
100
AcDbEntity
  8
0
  6
Continuous
 62
     7
370
    25
100
AcDbLine
 10
180.188104944
 20
81.0238499393
 30
0.0
 11
180.188104944
 21
72.7738499393
 31
0.0
  0
LINE
  5
102
330
1F
100
AcDbEntity
  8
0
  6
Continuous
 62
     7
370
    25
100
AcDbLine
 10
185.242054686
 20
81.9185538137
 30
0.0
 11
194.1341552019
 21
81.9185538137
 31
0.0
  0
LINE
  5
103
330
1F
100
AcDbEntity
  8
0
  6
Continuous
 62
     7
370
    25
100
AcDbLine
 10
185.2888690148
 20
63.5474920695
 30
0.0
 11
194.0873408731
 21
63.5474920695
 31
0.0
  0
LINE
  5
104
330
1F
100
AcDbEntity
  8
0
  6
Continuous
 62
     7
370
    25
100
AcDbLine
 10
203.3331568845
 20
72.7738499393
 30
0.0
 11
203.3331568845
 21
67.9915703124
 31
0.0
  0
LINE
  5
105
330
1F
100
AcDbEntity
  8
0
  6
Continuous
 62
     7
370
    25
100
AcDbLine
 10
203.3331568845
 20
77.5561295661
 30
0.0
 11
203.3331568845
 21
72.7738499393
 31
0.0
  0
LINE
  5
106
330
1F
100
AcDbEntity
  8
0
  6
Continuous
 62
     7
370
    25
100
AcDbLine
 10
204.688104944
 20
76.7738499393
 30
0.0
 11
204.688104944
 21
68.7738499393
 31
0.0
  0
LINE
  5
107
330
1F
100
AcDbEntity
  8
0
  6
Continuous
 62
     7
370
    25
100
AcDbLine
 10
157.938104944
 20
72.7738499393
 30
0.0
 11
157.938104944
 21
62.2738499393
 31
0.0
  0
LINE
  5
108
330
1F
100
AcDbEntity
  8
0
  6
Continuous
 62
     7
370
    25
100
AcDbLine
 10
157.938104944
 20
83.2738499393
 30
0.0
 11
157.938104944
 21
72.7738499393
 31
0.0
  0
LINE
  5
109
330
1F
100
AcDbEntity
  8
0
  6
Continuous
 62
     7
370
    25
100
AcDbLine
 10
157.688104944
 20
72.7738499393
 30
0.0
 11
157.688104944
 21
83.0238499393
 31
0.0
  0
LINE
  5
10A
330
1F
100
AcDbEntity
  8
0
  6
Continuous
 62
     7
370
    25
100
AcDbLine
 10
157.688104944
 20
62.5238499393
 30
0.0
 11
157.688104944
 21
72.7738499393
 31
0.0
  0
SPLINE
  5
10B
330
1F
100
AcDbEntity
  8
0
  6
Continuous
 62
     7
370
    25
100
AcDbSpline
210
0.0
220
0.0
230
1.0
 70
     8
 71
     3
 72
     8
 73
     4
 74
     0
 42
0.00000001
 43
0.00000001
 40
0.0
 40
0.0
 40
0.0
 40
0.0
 40
1.0
 40
1.0
 40
1.0
 40
1.0
 10
160.0909038185845
 20
78.17353979480669
 30
0.0
 10
160.1587402366804
 20
78.20490273593892
 30
0.0
 10
160.1881049439562
 20
78.2383708967271
 30
0.0
 10
160.1881049439562
 20
78.273849943724
 30
0.0
  0
SPLINE
  5
10C
330
1F
100
AcDbEntity
  8
0
  6
Continuous
 62
     7
370
    25
100
AcDbSpline
210
0.0
220
0.0
230
1.0
 70
     8
 71
     3
 72
    14
 73
    10
 74
     0
 42
0.00000001
 43
0.00000001
 40
0.0
 40
0.0
 40
0.0
 40
0.0
 40
0.25
 40
0.25
 40
0.5
 40
0.5
 40
0.75
 40
0.75
 40
1.0
 40
1.0
 40
1.0
 40
1.0
 10
159.9590188759161
 20
77.15508053328165
 30
0.0
 10
159.9314978880763
 20
77.27665858925769
 30
0.0
 10
159.9115779661585
 20
77.39718332627834
 30
0.0
 10
159.8959109242454
 20
77.62415958539454
 30
0.0
 10
159.9004027560471
 20
77.73112956296336
 30
0.0
 10
159.9316591013863
 20
77.91659511473352
 30
0.0
 10
159.9580316848291
 20
77.9954803758313
 30
0.0
 10
160.0208682361383
 20
78.1161181669672
 30
0.0
 10
160.0569078150981
 20
78.15782235738875
 30
0.0
 10
160.0909038185845
 20
78.17353979480669
 30
0.0
  0
LINE
  5
10D
330
1F
100
AcDbEntity
  8
0
  6
Continuous
 62
     7
370
    25
100
AcDbLine
 10
160.188104944
 20
72.7738499393
 30
0.0
 11
160.1875516984
 21
72.901102427
 31
0.0
  0
LINE
  5
10E
330
1F
100
AcDbEntity
  8
0
  6
Continuous
 62
     7
370
    25
100
AcDbLine
 10
160.1879966949
 20
72.2027715638
 30
0.0
 11
160.188104944
 21
72.7738499393
 31
0.0
  0
SPLINE
  5
10F
330
1F
100
AcDbEntity
  8
0
  6
Continuous
 62
     7
370
    25
100
AcDbSpline
210
0.0
220
0.0
230
1.0
 70
     8
 71
     3
 72
    12
 73
     8
 74
     0
 42
0.00000001
 43
0.00000001
 40
0.0
 40
0.0
 40
0.0
 40
0.0
 40
0.5000000000000018
 40
0.5000000000000018
 40
0.7500000000000009
 40
0.7500000000000009
 40
1.0
 40
1.0
 40
1.0
 40
1.0
 10
160.0909038200201
 20
67.37416009181487
 30
0.0
 10
160.0230340602506
 20
67.40553844810483
 30
0.0
 10
159.9469995091783
 20
67.53924696866615
 30
0.0
 10
159.9003549108819
 20
67.81727307834878
 30
0.0
 10
159.8959159143479
 20
67.92411926234932
 30
0.0
 10
159.911646528046
 20
68.15100073640559
 30
0.0
 10
159.9315269579068
 20
68.27116970871052
 30
0.0
 10
159.9590188777923
 20
68.39261935353183
 30
0.0
  0
SPLINE
  5
110
330
1F
100
AcDbEntity
  8
0
  6
Continuous
 62
     7
370
    25
100
AcDbSpline
210
0.0
220
0.0
230
1.0
 70
     8
 71
     3
 72
     8
 73
     4
 74
     0
 42
0.00000001
 43
0.00000001
 40
0.0
 40
0.0
 40
0.0
 40
0.0
 40
1.0
 40
1.0
 40
1.0
 40
1.0
 10
160.1881049439562
 20
67.27384994372402
 30
0.0
 10
160.1881049439562
 20
67.30932899041464
 30
0.0
 10
160.1587402370764
 20
67.34279715092558
 30
0.0
 10
160.0909038200201
 20
67.37416009181487
 30
0.0
  0
LINE
  5
111
330
1F
100
AcDbEntity
  8
0
  6
Continuous
 62
     7
370
    25
100
AcDbLine
 10
160.188104944
 20
67.2738499437
 30
0.0
 11
160.188104944
 21
63.7738499393
 31
0.0
  0
LINE
  5
112
330
1F
100
AcDbEntity
  8
0
  6
Continuous
 62
     7
370
    25
100
AcDbLine
 10
160.188104944
 20
81.7738499393
 30
0.0
 11
160.188104944
 21
78.2738499437
 31
0.0
  0
LINE
  5
113
330
1F
100
AcDbEntity
  8
0
  6
Continuous
 62
     7
370
    25
100
AcDbLine
 10
177.6385114883
 20
62.7738499393
 30
0.0
 11
177.6385114883
 21
82.7738499393
 31
0.0
  0
LINE
  5
114
330
1F
100
AcDbEntity
  8
0
  6
Continuous
 62
     7
370
    25
100
AcDbLine
 10
175.188104944
 20
63.7738499393
 30
0.0
 11
175.188104944
 21
67.2738499437
 31
0.0
  0
SPLINE
  5
115
330
1F
100
AcDbEntity
  8
0
  6
Continuous
 62
     7
370
    25
100
AcDbSpline
210
0.0
220
0.0
230
1.0
 70
     8
 71
     3
 72
     8
 73
     4
 74
     0
 42
0.00000001
 43
0.00000001
 40
0.0
 40
0.0
 40
0.0
 40
0.0
 40
1.0
 40
1.0
 40
1.0
 40
1.0
 10
175.2853060678923
 20
67.37416009181487
 30
0.0
 10
175.2174696508361
 20
67.34279715092556
 30
0.0
 10
175.1881049439563
 20
67.30932899041464
 30
0.0
 10
175.1881049439563
 20
67.27384994372402
 30
0.0
  0
SPLINE
  5
116
330
1F
100
AcDbEntity
  8
0
  6
Continuous
 62
     7
370
    25
100
AcDbSpline
210
0.0
220
0.0
230
1.0
 70
     8
 71
     3
 72
    12
 73
     8
 74
     0
 42
0.00000001
 43
0.00000001
 40
0.0
 40
0.0
 40
0.0
 40
0.0
 40
0.2499999999999993
 40
0.2499999999999993
 40
0.4999999999999987
 40
0.4999999999999987
 40
1.0
 40
1.0
 40
1.0
 40
1.0
 10
175.4171910101202
 20
68.39261935353183
 30
0.0
 10
175.4446829300057
 20
68.27116970871052
 30
0.0
 10
175.4645633598665
 20
68.15100073640558
 30
0.0
 10
175.4802939735646
 20
67.92411926234931
 30
0.0
 10
175.4758549770306
 20
67.81727307834878
 30
0.0
 10
175.4292103787342
 20
67.53924696866612
 30
0.0
 10
175.3531758276619
 20
67.40553844810479
 30
0.0
 10
175.2853060678923
 20
67.37416009181484
 30
0.0
  0
LINE
  5
117
330
1F
100
AcDbEntity
  8
0
  6
Continuous
 62
     7
370
    25
100
AcDbLine
 10
175.188104944
 20
72.7738499393
 30
0.0
 11
175.1886581895
 21
72.6465974517
 31
0.0
  0
LINE
  5
118
330
1F
100
AcDbEntity
  8
0
  6
Continuous
 62
     7
370
    25
100
AcDbLine
 10
175.1882131931
 20
73.3449282755
 30
0.0
 11
175.188104944
 21
72.7738499393
 31
0.0
  0
SPLINE
  5
119
330
1F
100
AcDbEntity
  8
0
  6
Continuous
 62
     7
370
    25
100
AcDbSpline
210
0.0
220
0.0
230
1.0
 70
     8
 71
     3
 72
    14
 73
    10
 74
     0
 42
0.00000001
 43
0.00000001
 40
0.0
 40
0.0
 40
0.0
 40
0.0
 40
0.25
 40
0.25
 40
0.5
 40
0.5
 40
0.75
 40
0.75
 40
1.0
 40
1.0
 40
1.0
 40
1.0
 10
175.285306069328
 20
78.17353979480669
 30
0.0
 10
175.3193020728144
 20
78.15782235738875
 30
0.0
 10
175.3553416517742
 20
78.1161181669672
 30
0.0
 10
175.4181782030833
 20
77.9954803758313
 30
0.0
 10
175.4445507865262
 20
77.91659511473352
 30
0.0
 10
175.4758071318654
 20
77.73112956296336
 30
0.0
 10
175.4802989636671
 20
77.62415958539454
 30
0.0
 10
175.464631921754
 20
77.39718332627834
 30
0.0
 10
175.4447119998362
 20
77.27665858925768
 30
0.0
 10
175.4171910119964
 20
77.15508053328165
 30
0.0
  0
SPLINE
  5
11A
330
1F
100
AcDbEntity
  8
0
  6
Continuous
 62
     7
370
    25
100
AcDbSpline
210
0.0
220
0.0
230
1.0
 70
     8
 71
     3
 72
     8
 73
     4
 74
     0
 42
0.00000001
 43
0.00000001
 40
0.0
 40
0.0
 40
0.0
 40
0.0
 40
1.0
 40
1.0
 40
1.0
 40
1.0
 10
175.1881049439563
 20
78.273849943724
 30
0.0
 10
175.1881049439563
 20
78.23837089672709
 30
0.0
 10
175.2174696512321
 20
78.20490273593892
 30
0.0
 10
175.285306069328
 20
78.17353979480669
 30
0.0
  0
LINE
  5
11B
330
1F
100
AcDbEntity
  8
0
  6
Continuous
 62
     7
370
    25
100
AcDbLine
 10
175.188104944
 20
78.2738499437
 30
0.0
 11
175.188104944
 21
81.7738499393
 31
0.0
  0
LINE
  5
11C
330
1F
100
AcDbEntity
  8
0
  6
Continuous
 62
     7
370
    25
100
AcDbLine
 10
175.5700709552
 20
82.7738499393
 30
0.0
 11
175.5700709552
 21
62.7738499393
 31
0.0
  0
LINE
  5
11D
330
1F
100
AcDbEntity
  8
0
  6
Continuous
 62
     7
370
    25
100
AcDbLine
 10
160.188104944
 20
72.7738499393
 30
0.0
 11
160.688104944
 21
72.7738499393
 31
0.0
  0
SPLINE
  5
11E
330
1F
100
AcDbEntity
  8
0
  6
Continuous
 62
     7
370
    25
100
AcDbSpline
210
0.0
220
0.0
230
1.0
 70
     8
 71
     3
 72
    14
 73
    10
 74
     0
 42
0.00000001
 43
0.00000001
 40
0.0
 40
0.0
 40
0.0
 40
0.0
 40
0.25
 40
0.25
 40
0.5
 40
0.5
 40
0.75
 40
0.75
 40
1.0
 40
1.0
 40
1.0
 40
1.0
 10
160.6881049439562
 20
72.77384993926259
 30
0.0
 10
160.6881049439562
 20
72.39683745258276
 30
0.0
 10
160.6885162346417
 20
72.0197729259726
 30
0.0
 10
160.6851876491007
 20
71.26595389013879
 30
0.0
 10
160.6813996628778
 20
70.8892145238252
 30
0.0
 10
160.6555364678374
 20
70.13720097452814
 30
0.0
 10
160.6335354766005
 20
69.76192084518723
 30
0.0
 10
160.5484025807258
 20
69.01465602015344
 30
0.0
 10
160.4860408097221
 20
68.64260962088825
 30
0.0
 10
160.3826568557382
 20
68.27384994372402
 30
0.0
  0
LINE
  5
11F
330
1F
100
AcDbEntity
  8
0
  6
Continuous
 62
     7
370
    25
100
AcDbLine
 10
159.9590188778
 20
68.3926193535
 30
0.0
 11
160.3826568557
 21
68.2738499437
 31
0.0
  0
SPLINE
  5
120
330
1F
100
AcDbEntity
  8
0
  6
Continuous
 62
     7
370
    25
100
AcDbSpline
210
0.0
220
0.0
230
1.0
 70
     8
 71
     3
 72
    14
 73
    10
 74
     0
 42
0.00000001
 43
0.00000001
 40
0.0
 40
0.0
 40
0.0
 40
0.0
 40
0.25
 40
0.25
 40
0.5
 40
0.5
 40
0.75
 40
0.75
 40
1.0
 40
1.0
 40
1.0
 40
1.0
 10
174.6881049439563
 20
72.77384993926259
 30
0.0
 10
174.6881049439563
 20
73.150862426734
 30
0.0
 10
174.6876936532674
 20
73.52792695413815
 30
0.0
 10
174.6910222388362
 20
74.28174599156185
 30
0.0
 10
174.6948102250911
 20
74.6584853586658
 30
0.0
 10
174.7206734203445
 20
75.410498909505
 30
0.0
 10
174.7426744117611
 20
75.78577903959784
 30
0.0
 10
174.8278073083254
 20
76.53304386604896
 30
0.0
 10
174.890169079825
 20
76.90509026598177
 30
0.0
 10
174.9935530346758
 20
77.273849943724
 30
0.0
  0
LINE
  5
121
330
1F
100
AcDbEntity
  8
0
  6
Continuous
 62
     7
370
    25
100
AcDbLine
 10
174.9935530347
 20
77.2738499437
 30
0.0
 11
175.417191012
 21
77.1550805333
 31
0.0
  0
LINE
  5
122
330
1F
100
AcDbEntity
  8
0
  6
Continuous
 62
     7
370
    25
100
AcDbLine
 10
174.688104944
 20
72.7738499393
 30
0.0
 11
175.188104944
 21
72.7738499393
 31
0.0
  0
LINE
  5
123
330
1F
100
AcDbEntity
  8
0
  6
Continuous
 62
     7
370
    25
100
AcDbLine
 10
159.9590188759
 20
77.1550805333
 30
0.0
 11
160.3826568532
 21
77.2738499437
 31
0.0
  0
SPLINE
  5
124
330
1F
100
AcDbEntity
  8
0
  6
Continuous
 62
     7
370
    25
100
AcDbSpline
210
0.0
220
0.0
230
1.0
 70
     8
 71
     3
 72
    14
 73
    10
 74
     0
 42
0.00000001
 43
0.00000001
 40
0.0
 40
0.0
 40
0.0
 40
0.0
 40
0.25
 40
0.25
 40
0.5
 40
0.5
 40
0.75
 40
0.75
 40
1.0
 40
1.0
 40
1.0
 40
1.0
 10
160.3826568532361
 20
77.273849943724
 30
0.0
 10
160.4852173714893
 20
76.90802737759466
 30
0.0
 10
160.5485303578985
 20
76.53241946178211
 30
0.0
 10
160.6337480214296
 20
75.78341422176308
 30
0.0
 10
160.6556661161952
 20
75.40793356373486
 30
0.0
 10
160.6814393720784
 20
74.6561184242579
 30
0.0
 10
160.6852028575582
 20
74.27977960935993
 30
0.0
 10
160.6885142056775
 20
73.52690270974529
 30
0.0
 10
160.6881049439562
 20
73.1503666517329
 30
0.0
 10
160.6881049439562
 20
72.77384993926259
 30
0.0
  0
SPLINE
  5
125
330
1F
100
AcDbEntity
  8
0
  6
Continuous
 62
     7
370
    25
100
AcDbSpline
210
0.0
220
0.0
230
1.0
 70
     8
 71
     3
 72
    14
 73
    10
 74
     0
 42
0.00000001
 43
0.00000001
 40
0.0
 40
0.0
 40
0.0
 40
0.0
 40
0.25
 40
0.25
 40
0.5
 40
0.5
 40
0.75
 40
0.75
 40
1.0
 40
1.0
 40
1.0
 40
1.0
 10
174.9935530321748
 20
68.27384994372402
 30
0.0
 10
174.8909925147799
 20
68.63967250928637
 30
0.0
 10
174.8276795288872
 20
69.01528042435675
 30
0.0
 10
174.7424618660478
 20
69.76428566287507
 30
0.0
 10
174.7205437714564
 20
70.13976632014484
 30
0.0
 10
174.6947705157801
 20
70.89158145809819
 30
0.0
 10
174.6910070303307
 20
71.26792027223091
 30
0.0
 10
174.6876956822382
 20
72.02079717031343
 30
0.0
 10
174.6881049439563
 20
72.39733322755896
 30
0.0
 10
174.6881049439563
 20
72.77384993926259
 30
0.0
  0
LINE
  5
126
330
1F
100
AcDbEntity
  8
0
  6
Continuous
 62
     7
370
    25
100
AcDbLine
 10
174.9935530322
 20
68.2738499437
 30
0.0
 11
175.4171910101
 21
68.3926193535
 31
0.0
  0
SPLINE
  5
127
330
1F
100
AcDbEntity
  8
0
  6
Continuous
 62
     7
370
    25
100
AcDbSpline
210
0.0
220
0.0
230
1.0
 70
     8
 71
     3
 72
    14
 73
    10
 74
     0
 42
0.00000001
 43
0.00000001
 40
0.0
 40
0.0
 40
0.0
 40
0.0
 40
0.25
 40
0.25
 40
0.5
 40
0.5
 40
0.75
 40
0.75
 40
1.0
 40
1.0
 40
1.0
 40
1.0
 10
174.9935530346764
 20
77.273849943724
 30
0.0
 10
175.0291412530676
 20
77.33731965700923
 30
0.0
 10
175.0584837070168
 20
77.40482257042183
 30
0.0
 10
175.0786535086536
 20
77.53610190174403
 30
0.0
 10
175.0667287602372
 20
77.59727434629123
 30
0.0
 10
175.0136950864527
 20
77.68893423696373
 30
0.0
 10
174.9765152510442
 20
77.72015854081175
 30
0.0
 10
174.8972491279863
 20
77.76306899415671
 30
0.0
 10
174.8561721953228
 20
77.773849943724
 30
0.0
 10
174.8177064444519
 20
77.773849943724
 30
0.0
  0
ARC
  5
128
330
1F
100
AcDbEntity
  8
0
  6
Continuous
 62
     7
370
    25
100
AcDbCircle
 10
174.8091578609
 20
78.2572197543
 30
0.0
 40
0.4834453971801592
100
AcDbArc
 50
271.01319258
 51
350.0324253513
  0
ARC
  5
129
330
1F
100
AcDbEntity
  8
0
  6
Continuous
 62
     7
370
    25
100
AcDbCircle
 10
160.5670520271
 20
78.2572197543
 30
0.0
 40
0.483445397180236
100
AcDbArc
 50
189.9675746487
 51
268.98680742
  0
SPLINE
  5
12A
330
1F
100
AcDbEntity
  8
0
  6
Continuous
 62
     7
370
    25
100
AcDbSpline
210
0.0
220
0.0
230
1.0
 70
     8
 71
     3
 72
    14
 73
    10
 74
     0
 42
0.00000001
 43
0.00000001
 40
0.0
 40
0.0
 40
0.0
 40
0.0
 40
0.25
 40
0.25
 40
0.5
 40
0.5
 40
0.75
 40
0.75
 40
1.0
 40
1.0
 40
1.0
 40
1.0
 10
160.5585034434606
 20
77.773849943724
 30
0.0
 10
160.5200279597138
 20
77.773849943724
 30
0.0
 10
160.4789390381393
 20
77.76306337275437
 30
0.0
 10
160.3996561904967
 20
77.72013158572119
 30
0.0
 10
160.3623732892967
 20
77.6887140774435
 30
0.0
 10
160.3095675298486
 20
77.59739923185923
 30
0.0
 10
160.2975982697431
 20
77.53616874905778
 30
0.0
 10
160.3176000582577
 20
77.4053053883491
 30
0.0
 10
160.3470565139327
 20
77.33734127401776
 30
0.0
 10
160.3826568532361
 20
77.273849943724
 30
0.0
  0
SPLINE
  5
12B
330
1F
100
AcDbEntity
  8
0
  6
Continuous
 62
     7
370
    25
100
AcDbSpline
210
0.0
220
0.0
230
1.0
 70
     8
 71
     3
 72
    16
 73
    12
 74
     0
 42
0.00000001
 43
0.00000001
 40
0.0
 40
0.0
 40
0.0
 40
0.0
 40
0.2499999999999974
 40
0.2499999999999974
 40
0.3749999999999961
 40
0.3749999999999961
 40
0.4999999999999948
 40
0.4999999999999948
 40
0.7499999999999973
 40
0.7499999999999973
 40
1.0
 40
1.0
 40
1.0
 40
1.0
 10
160.3826568557377
 20
68.27384994372402
 30
0.0
 10
160.3471029263981
 20
68.21044138272423
 30
0.0
 10
160.3178307852914
 20
68.14317408239737
 30
0.0
 10
160.3026182351788
 20
68.04473477129197
 30
0.0
 10
160.3025575670244
 20
68.01225936495914
 30
0.0
 10
160.3127681514981
 20
67.95363415785225
 30
0.0
 10
160.3225514810027
 20
67.92801134630675
 30
0.0
 10
160.3617160294299
 20
67.85980250262766
 30
0.0
 10
160.3995891026077
 20
67.8276397474346
 30
0.0
 10
160.4786620754073
 20
67.78475152828197
 30
0.0
 10
160.520049207887
 20
67.77384994372402
 30
0.0
 10
160.5585034453747
 20
67.77384994372402
 30
0.0
  0
ARC
  5
12C
330
1F
100
AcDbEntity
  8
0
  6
Continuous
 62
     7
370
    25
100
AcDbCircle
 10
160.5670520289
 20
67.2904801329
 30
0.0
 40
0.4834453974581917
100
AcDbArc
 50
91.0131925675
 51
170.0324254228
  0
SPLINE
  5
12D
330
1F
100
AcDbEntity
  8
0
  6
Continuous
 62
     7
370
    25
100
AcDbSpline
210
0.0
220
0.0
230
1.0
 70
     8
 71
     3
 72
    14
 73
    10
 74
     0
 42
0.00000001
 43
0.00000001
 40
0.0
 40
0.0
 40
0.0
 40
0.0
 40
0.25
 40
0.25
 40
0.5
 40
0.5
 40
0.75
 40
0.75
 40
1.0
 40
1.0
 40
1.0
 40
1.0
 10
174.8177064425377
 20
67.77384994372402
 30
0.0
 10
174.8561703785724
 20
67.77384994372402
 30
0.0
 10
174.897568586297
 20
67.78475669952435
 30
0.0
 10
174.9766598398902
 20
67.82766703098977
 30
0.0
 10
175.0144947527059
 20
67.85976959901609
 30
0.0
 10
175.0667894914859
 20
67.9509149101594
 30
0.0
 10
175.078674864163
 20
68.01176436096434
 30
0.0
 10
175.0583861625907
 20
68.14320564089951
 30
0.0
 10
175.0290635374237
 20
68.21051882730363
 30
0.0
 10
174.9935530321748
 20
68.27384994372402
 30
0.0
  0
ARC
  5
12E
330
1F
100
AcDbEntity
  8
0
  6
Continuous
 62
     7
370
    25
100
AcDbCircle
 10
174.809157859
 20
67.2904801329
 30
0.0
 40
0.4834453974581917
100
AcDbArc
 50
9.9675745772
 51
88.9868074325
  0
LINE
  5
12F
330
1F
100
AcDbEntity
  8
0
  6
Continuous
 62
     7
370
    25
100
AcDbLine
 10
164.121650198
 20
71.972373652
 30
0.0
 11
164.607528885
 21
71.972373652
 31
0.0
  0
ELLIPSE
  5
130
330
1F
100
AcDbEntity
  8
0
  6
Continuous
 62
     7
370
    25
100
AcDbEllipse
 10
164.121650198
 20
72.0370470257
 30
0.0
 11
0.06784129479237322
 21
0.0
 31
0.0
210
0.0
220
0.0
230
1.0
 40
0.9533039403
 41
2.798568711309743
 42
4.712388980384703
  0
ELLIPSE
  5
131
330
1F
100
AcDbEntity
  8
0
  6
Continuous
 62
     7
370
    25
100
AcDbEllipse
 10
164.607528885
 20
72.0370470257
 30
0.0
 11
-0.06784129479231638
 21
0.0
 31
0.0
210
0.0
220
0.0
230
1.0
 40
0.9533039403
 41
1.570796326794897
 42
3.484616592148284
  0
ELLIPSE
  5
132
330
1F
100
AcDbEntity
  8
0
  6
Continuous
 62
     7
370
    25
100
AcDbEllipse
 10
164.3645895429
 20
72.6855131193
 30
0.0
 11
0.06784129479271428
 21
0.0
 31
0.0
210
0.0
220
0.0
230
1.0
 40
0.9533039403
 41
0.3430239404191595
 42
2.798568713170634
  0
LINE
  5
133
330
1F
100
AcDbEntity
  8
0
  6
Continuous
 62
     7
370
    25
100
AcDbLine
 10
164.6714178757
 20
72.058799035
 30
0.0
 11
164.4284785336
 21
72.7072651288
 31
0.0
  0
LINE
  5
134
330
1F
100
AcDbEntity
  8
0
  6
Continuous
 62
     7
370
    25
100
AcDbLine
 10
164.3007005523
 20
72.7072651288
 30
0.0
 11
164.0577612074
 21
72.0587990352
 31
0.0
  0
LINE
  5
135
330
1F
100
AcDbEntity
  8
0
  6
Continuous
 62
     7
370
    25
100
AcDbLine
 10
160.3826568557
 20
68.2738499437
 30
0.0
 11
174.9935530322
 21
68.2738499437
 31
0.0
  0
LINE
  5
136
330
1F
100
AcDbEntity
  8
0
  6
Continuous
 62
     7
370
    25
100
AcDbLine
 10
174.8177064425
 20
67.7738499437
 30
0.0
 11
160.5585034454
 21
67.7738499437
 31
0.0
  0
LINE
  5
137
330
1F
100
AcDbEntity
  8
0
  6
Continuous
 62
     7
370
    25
100
AcDbLine
 10
160.5585034435
 20
77.7738499437
 30
0.0
 11
174.8177064445
 21
77.7738499437
 31
0.0
  0
LINE
  5
138
330
1F
100
AcDbEntity
  8
0
  6
Continuous
 62
     7
370
    25
100
AcDbLine
 10
174.9935530347
 20
77.2738499437
 30
0.0
 11
160.3826568532
 21
77.2738499437
 31
0.0
  0
LINE
  5
139
330
1F
100
AcDbEntity
  8
0
  6
Continuous
 62
     7
370
    25
100
AcDbLine
 10
163.8918038404
 20
74.7893913819
 30
0.0
 11
162.8843149676
 21
71.9720915857
 31
0.0
  0
LINE
  5
13A
330
1F
100
AcDbEntity
  8
0
  6
Continuous
 62
     7
370
    25
100
AcDbLine
 10
162.0992499748
 20
71.6909686014
 30
0.0
 11
162.0579855183
 21
71.7136801574
 31
0.0
  0
LINE
  5
13B
330
1F
100
AcDbEntity
  8
0
  6
Continuous
 62
     7
370
    25
100
AcDbLine
 10
172.1551424161
 20
70.846284484
 30
0.0
 11
171.7818541076
 21
71.2195727925
 31
0.0
  0
LINE
  5
13C
330
1F
100
AcDbEntity
  8
0
  6
Continuous
 62
     7
370
    25
100
AcDbLine
 10
165.8450989516
 20
71.9714348986
 30
0.0
 11
164.8373752422
 21
74.7893913819
 31
0.0
  0
LINE
  5
13D
330
1F
100
AcDbEntity
  8
0
  6
Continuous
 62
     7
370
    25
100
AcDbLine
 10
171.7818541076
 20
72.2253614781
 30
0.0
 11
172.1551424161
 21
72.5986497866
 31
0.0
  0
ELLIPSE
  5
13E
330
1F
100
AcDbEntity
  8
0
  6
Continuous
 62
     7
370
    25
100
AcDbEllipse
 10
165.9734995379
 20
70.5280652883
 30
0.0
 11
0.06784129479237322
 21
0.0
 31
0.0
210
0.0
220
0.0
230
1.0
 40
0.9533039403
 41
3.962594650552564
 42
5.819537698178531
  0
LINE
  5
13F
330
1F
100
AcDbEntity
  8
0
  6
Continuous
 62
     7
370
    25
100
AcDbLine
 10
162.0579855183
 20
71.7136801574
 30
0.0
 11
162.695000446
 21
70.4991424763
 31
0.0
  0
ARC
  5
140
330
1F
100
AcDbEntity
  8
0
  6
Continuous
 62
     7
370
    25
100
AcDbCircle
 10
171.2789597648
 20
71.7224671353
 30
0.0
 40
0.7112000000000946
100
AcDbArc
 50
200.9248324276
 51
315.0
  0
ARC
  5
141
330
1F
100
AcDbEntity
  8
0
  6
Continuous
 62
     7
370
    25
100
AcDbCircle
 10
168.6052440878
 20
71.7224671353
 30
0.0
 40
0.7111999999997725
100
AcDbArc
 50
45.0
 51
315.0
  0
ARC
  5
142
330
1F
100
AcDbEntity
  8
0
  6
Continuous
 62
     7
370
    25
100
AcDbCircle
 10
171.2789597648
 20
71.7224671353
 30
0.0
 40
1.239109388553826
100
AcDbArc
 50
45.0
 51
315.0
  0
LINE
  5
143
330
1F
100
AcDbEntity
  8
0
  6
Continuous
 62
     7
370
    25
100
AcDbLine
 10
169.1081384305
 20
72.2253614781
 30
0.0
 11
169.481426739
 21
72.5986497866
 31
0.0
  0
ELLIPSE
  5
144
330
1F
100
AcDbEntity
  8
0
  6
Continuous
 62
     7
370
    25
100
AcDbEllipse
 10
164.3645895413
 20
68.8809863918
 30
0.0
 11
2.293035763987604
 21
-1.065814103640150E-12
 31
0.0
210
0.0
220
0.0
230
1.0
 40
0.9533039403
 41
0.8210019969646709
 42
2.320590656625884
  0
LINE
  5
145
330
1F
100
AcDbEntity
  8
0
  6
Continuous
 62
     7
370
    25
100
AcDbLine
 10
166.6711935642
 20
71.7136801574
 30
0.0
 11
166.6378733088
 21
71.6946362136
 31
0.0
  0
LINE
  5
146
330
1F
100
AcDbEntity
  8
0
  6
Continuous
 62
     7
370
    25
100
AcDbLine
 10
172.1551424161
 20
71.9764671353
 30
0.0
 11
170.6146635658
 21
71.9764671353
 31
0.0
  0
LINE
  5
147
330
1F
100
AcDbEntity
  8
0
  6
Continuous
 62
     7
370
    25
100
AcDbLine
 10
170.6146635658
 20
71.4684671353
 30
0.0
 11
172.1551424161
 21
71.4684671353
 31
0.0
  0
ELLIPSE
  5
148
330
1F
100
AcDbEntity
  8
0
  6
Continuous
 62
     7
370
    25
100
AcDbEllipse
 10
164.3645895413
 20
74.579519027
 30
0.0
 11
0.5215299537176463
 21
0.0
 31
0.0
210
0.0
220
0.0
230
1.0
 40
0.9533039403
 41
0.4357918987553248
 42
2.705800754834471
  0
LINE
  5
149
330
1F
100
AcDbEntity
  8
0
  6
Continuous
 62
     7
370
    25
100
AcDbLine
 10
172.1551424161
 20
71.4684671353
 30
0.0
 11
172.1551424161
 21
71.9764671353
 31
0.0
  0
ELLIPSE
  5
14A
330
1F
100
AcDbEntity
  8
0
  6
Continuous
 62
     7
370
    25
100
AcDbEllipse
 10
162.3706151539
 20
72.1390388776
 30
0.0
 11
-0.5427303583406058
 21
3.410605131648481E-13
 31
0.0
210
0.0
220
0.0
230
1.0
 40
0.9533039403
 41
1.047197551197423
 42
2.813039483038397
  0
LINE
  5
14B
330
1F
100
AcDbEntity
  8
0
  6
Continuous
 62
     7
370
    25
100
AcDbLine
 10
169.481426739
 20
70.846284484
 30
0.0
 11
169.1081384305
 21
71.2195727925
 31
0.0
  0
LINE
  5
14C
330
1F
100
AcDbEntity
  8
0
  6
Continuous
 62
     7
370
    25
100
AcDbLine
 10
166.0341786366
 20
70.4991424763
 30
0.0
 11
166.6711935642
 21
71.7136801574
 31
0.0
  0
ELLIPSE
  5
14D
330
1F
100
AcDbEntity
  8
0
  6
Continuous
 62
     7
370
    25
100
AcDbEllipse
 10
162.7556795447
 20
70.5280652883
 30
0.0
 11
0.0678412947923448
 21
0.0
 31
0.0
210
0.0
220
0.0
230
1.0
 40
0.9533039403
 41
3.605240262598566
 42
5.462183310200948
  0
ELLIPSE
  5
14E
330
1F
100
AcDbEntity
  8
0
  6
Continuous
 62
     7
370
    25
100
AcDbEllipse
 10
166.3587987652
 20
72.1383821905
 30
0.0
 11
0.5427303583402932
 21
3.552713678800501E-13
 31
0.0
210
0.0
220
0.0
230
1.0
 40
0.9533039404
 41
3.470145824138425
 42
5.252469180539519
  0
ARC
  5
14F
330
1F
100
AcDbEntity
  8
0
  6
Continuous
 62
     7
370
    25
100
AcDbCircle
 10
171.2789597648
 20
71.7224671353
 30
0.0
 40
0.7112000000000337
100
AcDbArc
 50
45.0
 51
159.0751675723
  0
ARC
  5
150
330
1F
100
AcDbEntity
  8
0
  6
Continuous
 62
     7
370
    25
100
AcDbCircle
 10
168.6052440878
 20
71.7224671353
 30
0.0
 40
1.239109388553836
100
AcDbArc
 50
45.0
 51
315.0
  0
ARC
  5
151
330
1F
100
AcDbEntity
  8
0
  6
Continuous
 62
     7
370
    25
100
AcDbCircle
 10
174.688104944
 20
78.2738499437
 30
0.0
 40
0.5
100
AcDbArc
 50
270.0
 51
0.0
  0
ARC
  5
152
330
1F
100
AcDbEntity
  8
0
  6
Continuous
 62
     7
370
    25
100
AcDbCircle
 10
174.688104944
 20
67.2738499437
 30
0.0
 40
0.5
100
AcDbArc
 50
0.0
 51
90.0
  0
ARC
  5
153
330
1F
100
AcDbEntity
  8
0
  6
Continuous
 62
     7
370
    25
100
AcDbCircle
 10
160.688104944
 20
78.2738499437
 30
0.0
 40
0.5
100
AcDbArc
 50
180.0
 51
270.0
  0
ARC
  5
154
330
1F
100
AcDbEntity
  8
0
  6
Continuous
 62
     7
370
    25
100
AcDbCircle
 10
160.688104944
 20
67.2738499437
 30
0.0
 40
0.5
100
AcDbArc
 50
90.0
 51
180.0
  0
LINE
  5
155
330
1F
100
AcDbEntity
  8
0
  6
Continuous
 62
     7
370
    25
100
AcDbLine
 10
160.688104944
 20
67.7738499437
 30
0.0
 11
160.688104944
 21
67.579405499
 31
0.0
  0
LWPOLYLINE
  5
156
330
1F
100
AcDbEntity
  8
0
  6
Continuous
 62
     7
370
    25
100
AcDbPolyline
 90
        9
 70
   128
 43
0.0
 10
160.188104944
 20
67.2738499437
 10
160.1977123038
 20
67.3334608754
 10
160.2261651777
 20
67.3907809924
 10
160.2723701378
 20
67.4436075148
 10
160.3345515534
 20
67.4899103489
 10
160.4103198274
 20
67.5279101028
 10
160.4967632278
 20
67.5561464673
 10
160.5905597829
 20
67.5735343347
 10
160.688104944
 20
67.579405499
  0
LWPOLYLINE
  5
157
330
1F
100
AcDbEntity
  8
0
  6
Continuous
 62
     7
370
    25
100
AcDbPolyline
 90
        9
 70
   128
 43
0.0
 10
175.188104944
 20
67.2738499437
 10
175.1784975842
 20
67.3334608754
 10
175.1500447102
 20
67.3907809924
 10
175.1038397501
 20
67.4436075148
 10
175.0416583345
 20
67.4899103489
 10
174.9658900605
 20
67.5279101028
 10
174.8794466601
 20
67.5561464673
 10
174.785650105
 20
67.5735343347
 10
174.688104944
 20
67.579405499
  0
LINE
  5
158
330
1F
100
AcDbEntity
  8
0
  6
Continuous
 62
     7
370
    25
100
AcDbLine
 10
174.688104944
 20
67.579405499
 30
0.0
 11
174.688104944
 21
67.7738499437
 31
0.0
  0
LINE
  5
159
330
1F
100
AcDbEntity
  8
0
  6
Continuous
 62
     7
370
    25
100
AcDbLine
 10
174.688104944
 20
67.579405499
 30
0.0
 11
160.688104944
 21
67.579405499
 31
0.0
  0
LINE
  5
15A
330
1F
100
AcDbEntity
  8
0
  6
Continuous
 62
     7
370
    25
100
AcDbLine
 10
160.688104944
 20
77.9682943879
 30
0.0
 11
160.688104944
 21
77.7738499437
 31
0.0
  0
LINE
  5
15B
330
1F
100
AcDbEntity
  8
0
  6
Continuous
 62
     7
370
    25
100
AcDbLine
 10
160.688104944
 20
77.9682943879
 30
0.0
 11
174.688104944
 21
77.9682943879
 31
0.0
  0
LINE
  5
15C
330
1F
100
AcDbEntity
  8
0
  6
Continuous
 62
     7
370
    25
100
AcDbLine
 10
174.688104944
 20
77.7738499437
 30
0.0
 11
174.688104944
 21
77.9682943879
 31
0.0
  0
LWPOLYLINE
  5
15D
330
1F
100
AcDbEntity
  8
0
  6
Continuous
 62
     7
370
    25
100
AcDbPolyline
 90
        9
 70
   128
 43
0.0
 10
174.688104944
 20
77.9682943879
 10
174.785650105
 20
77.9741655522
 10
174.8794466601
 20
77.9915534197
 10
174.9658900605
 20
78.0197897842
 10
175.0416583345
 20
78.0577895382
 10
175.1038397501
 20
78.1040923724
 10
175.1500447102
 20
78.1569188949
 10
175.1784975842
 20
78.2142390119
 10
175.188104944
 20
78.2738499437
  0
LWPOLYLINE
  5
15E
330
1F
100
AcDbEntity
  8
0
  6
Continuous
 62
     7
370
    25
100
AcDbPolyline
 90
        9
 70
   128
 43
0.0
 10
160.688104944
 20
77.9682943879
 10
160.5905597829
 20
77.9741655522
 10
160.4967632278
 20
77.9915534197
 10
160.4103198274
 20
78.0197897842
 10
160.3345515534
 20
78.0577895382
 10
160.2723701378
 20
78.1040923724
 10
160.2261651777
 20
78.1569188949
 10
160.1977123038
 20
78.2142390119
 10
160.188104944
 20
78.2738499437
  0
SPLINE
  5
15F
330
1F
100
AcDbEntity
  8
0
  6
Continuous
 62
     7
370
    25
100
AcDbSpline
210
0.0
220
0.0
230
1.0
 70
     8
 71
     3
 72
    28
 73
    24
 74
     0
 42
0.00000001
 43
0.00000001
 40
0.0
 40
0.0
 40
0.0
 40
0.0
 40
0.0450263262565544
 40
0.0915186667264723
 40
0.1365116341195073
 40
0.1826221029637283
 40
0.231690315051322
 40
0.2818017740372087
 40
0.3390806882997813
 40
0.3981090522829573
 40
0.4377789925736678
 40
0.4784893079509385
 40
0.5182093479522535
 40
0.5592538472551618
 40
0.5967878622787073
 40
0.6350789154299916
 40
0.6918929179413384
 40
0.7503378635038505
 40
0.8076849083827202
 40
0.8668403377344106
 40
0.9115064177489279
 40
0.9574071370657188
 40
1.0
 40
1.0
 40
1.0
 40
1.0
 10
173.5881049439562
 20
81.27384993926258
 30
0.0
 10
173.5757346735147
 20
81.26523989519048
 30
0.0
 10
173.5505913684314
 20
81.24773947222802
 30
0.0
 10
173.350607798442
 20
81.1100532421597
 30
0.0
 10
173.0413055222922
 20
80.90237159449433
 30
0.0
 10
172.6185691807667
 20
80.62903446663199
 30
0.0
 10
172.0817840348583
 20
80.3015970682971
 30
0.0
 10
171.4055393912678
 20
79.9242261859343
 30
0.0
 10
170.5833736334332
 20
79.5263300188927
 30
0.0
 10
169.7137554228831
 20
79.20104052046491
 30
0.0
 10
168.8717122682172
 20
78.99164419055818
 30
0.0
 10
168.1109098794216
 20
78.89093491689975
 30
0.0
 10
167.3273514732459
 20
78.88674746193806
 30
0.0
 10
166.5759404387472
 20
78.9789493184944
 30
0.0
 10
165.8660840626069
 20
79.14735628503496
 30
0.0
 10
165.107377170144
 20
79.4008966245326
 30
0.0
 10
164.3043022678054
 20
79.75290219139875
 30
0.0
 10
163.5127617947475
 20
80.17332771395056
 30
0.0
 10
162.833749610361
 20
80.57956610484345
 30
0.0
 10
162.3379744633877
 20
80.90005651844068
 30
0.0
 10
162.0101052083924
 20
81.12064197134
 30
0.0
 10
161.8214483712803
 20
81.25064795850234
 30
0.0
 10
161.8008397476402
 20
81.2649948861016
 30
0.0
 10
161.7909206070694
 20
81.27190020855797
 30
0.0
  0
CIRCLE
  5
160
330
1F
100
AcDbEntity
  8
0
  6
Continuous
 62
     7
370
    25
100
AcDbCircle
 10
167.688104944
 20
80.7738499393
 30
0.0
 40
0.5
  0
ARC
  5
161
330
1F
100
AcDbEntity
  8
0
  6
Continuous
 62
     7
370
    25
100
AcDbCircle
 10
167.688104944
 20
80.7738499393
 30
0.0
 40
1.000000000008114
100
AcDbArc
 50
90.0
 51
270.0000000001
  0
ARC
  5
162
330
1F
100
AcDbEntity
  8
0
  6
Continuous
 62
     7
370
    25
100
AcDbCircle
 10
167.688104944
 20
80.7738499393
 30
0.0
 40
1.000000000008114
100
AcDbArc
 50
270.0000000001
 51
90.0
  0
LINE
  5
163
330
1F
100
AcDbEntity
  8
0
  6
Continuous
 62
     7
370
    25
100
AcDbLine
 10
158.688104944
 20
72.7738499393
 30
0.0
 11
158.688104944
 21
83.2738499393
 31
0.0
  0
LINE
  5
164
330
1F
100
AcDbEntity
  8
0
  6
Continuous
 62
     7
370
    25
100
AcDbLine
 10
158.688104944
 20
62.2738499393
 30
0.0
 11
158.688104944
 21
72.7738499393
 31
0.0
  0
SPLINE
  5
165
330
1F
100
AcDbEntity
  8
0
  6
Continuous
 62
     7
370
    25
100
AcDbSpline
210
0.0
220
0.0
230
1.0
 70
     8
 71
     3
 72
    11
 73
     7
 74
     0
 42
0.00000001
 43
0.00000001
 40
0.0
 40
0.0
 40
0.0
 40
0.0
 40
0.4280890641519809
 40
0.6583218369955273
 40
0.8883198673510647
 40
1.0
 40
1.0
 40
1.0
 40
1.0
 10
160.1875516984288
 20
72.90110242703669
 30
0.0
 10
160.1890420771323
 20
73.51135963943595
 30
0.0
 10
160.1913340040419
 20
74.44982240979958
 30
0.0
 10
160.1547748689646
 20
75.71258734358781
 30
0.0
 10
160.0847742221808
 20
76.52389634979153
 30
0.0
 10
159.9899974063341
 20
76.99959483022091
 30
0.0
 10
159.9590188759161
 20
77.15508053328165
 30
0.0
  0
SPLINE
  5
166
330
1F
100
AcDbEntity
  8
0
  6
Continuous
 62
     7
370
    25
100
AcDbSpline
210
0.0
220
0.0
230
1.0
 70
     8
 71
     3
 72
    11
 73
     7
 74
     0
 42
0.00000001
 43
0.00000001
 40
0.0
 40
0.0
 40
0.0
 40
0.0
 40
0.240141126311842
 40
0.4806977577712299
 40
0.9691396098643452
 40
1.0
 40
1.0
 40
1.0
 40
1.0
 10
159.9590188777923
 20
68.39261935353183
 30
0.0
 10
160.0134269437173
 20
68.69349006449923
 30
0.0
 10
160.1223372153417
 20
69.29575206918916
 30
0.0
 10
160.1831404324416
 20
70.53070569583028
 30
0.0
 10
160.1879309137219
 20
71.50012910375406
 30
0.0
 10
160.1879930049998
 20
72.16335809006762
 30
0.0
 10
160.1879966948762
 20
72.20277156376854
 30
0.0
  0
SPLINE
  5
167
330
1F
100
AcDbEntity
  8
0
  6
Continuous
 62
     7
370
    25
100
AcDbSpline
210
0.0
220
0.0
230
1.0
 70
     8
 71
     3
 72
    11
 73
     7
 74
     0
 42
0.00000001
 43
0.00000001
 40
0.0
 40
0.0
 40
0.0
 40
0.0
 40
0.4280890650283285
 40
0.6583218383221644
 40
0.8883198691275321
 40
0.9999999999999999
 40
0.9999999999999999
 40
0.9999999999999999
 40
0.9999999999999999
 10
175.1886581894829
 20
72.64659745165555
 30
0.0
 10
175.1871678107838
 20
72.03634023920164
 30
0.0
 10
175.1848758838809
 20
71.09787746878389
 30
0.0
 10
175.221435018925
 20
69.83511253493205
 30
0.0
 10
175.2914356655561
 20
69.02380353157946
 30
0.0
 10
175.3862124804018
 20
68.54810505384285
 30
0.0
 10
175.4171910101202
 20
68.39261935353183
 30
0.0
  0
SPLINE
  5
168
330
1F
100
AcDbEntity
  8
0
  6
Continuous
 62
     7
370
    25
100
AcDbSpline
210
0.0
220
0.0
230
1.0
 70
     8
 71
     3
 72
    11
 73
     7
 74
     0
 42
0.00000001
 43
0.00000001
 40
0.0
 40
0.0
 40
0.0
 40
0.0
 40
0.2401411207700791
 40
0.4806977466744683
 40
0.9691395875588217
 40
1.0
 40
1.0
 40
1.0
 40
1.0
 10
175.4171910119964
 20
77.15508053328165
 30
0.0
 10
175.3627829461491
 20
76.8542098255981
 30
0.0
 10
175.2538726746811
 20
76.25194782748619
 30
0.0
 10
175.1930694561393
 20
75.01699421399944
 30
0.0
 10
175.1882789741819
 20
74.04757078693972
 30
0.0
 10
175.1882168829288
 20
73.3843417781734
 30
0.0
 10
175.1882131930513
 20
73.34492827549282
 30
0.0
  0
LINE
  5
169
330
1F
100
AcDbEntity
  8
0
  6
Continuous
 62
     7
370
    25
100
AcDbLine
 10
160.688104944
 20
67.579405499
 30
0.0
 11
160.688104944
 21
64.2738499393
 31
0.0
  0
LINE
  5
16A
330
1F
100
AcDbEntity
  8
0
  6
Continuous
 62
     7
370
    25
100
AcDbLine
 10
174.688104944
 20
64.2738499393
 30
0.0
 11
174.688104944
 21
67.579405499
 31
0.0
  0
LINE
  5
16B
330
1F
100
AcDbEntity
  8
0
  6
Continuous
 62
     7
370
    25
100
AcDbLine
 10
174.688104944
 20
77.9682943879
 30
0.0
 11
174.688104944
 21
81.2738499393
 31
0.0
  0
LINE
  5
16C
330
1F
100
AcDbEntity
  8
0
  6
Continuous
 62
     7
370
    25
100
AcDbLine
 10
160.688104944
 20
81.2738499393
 30
0.0
 11
160.688104944
 21
77.9682943879
 31
0.0
  0
LINE
  5
16D
330
1F
100
AcDbEntity
  8
0
  6
Continuous
 62
     7
370
    18
100
AcDbLine
 10
194.688104944
 20
68.1813499393
 30
0.0
 11
204.1753785898
 21
68.4778272407
 31
0.0
  0
LINE
  5
16E
330
1F
100
AcDbEntity
  8
0
  6
Continuous
 62
     7
370
    18
100
AcDbLine
 10
204.1753785898
 20
77.0698726378
 30
0.0
 11
194.688104944
 21
77.3663499393
 31
0.0
  0
LINE
  5
16F
330
1F
100
AcDbEntity
  8
0
  6
CENTERX2
 62
     7
370
    18
100
AcDbLine
 10
205.8933501462
 20
72.7738499393
 30
0.0
 11
129.688104944
 21
72.7738499393
 31
0.0
  0
LINE
  5
170
330
1F
100
AcDbEntity
  8
0
  6
CENTERX2
 62
     7
370
    18
100
AcDbLine
 10
167.688104944
 20
61.8252909012
 30
0.0
 11
167.688104944
 21
102.1791510145
 31
0.0
  0
ARC
  5
171
330
1F
100
AcDbEntity
  8
0
  6
Continuous
 62
     7
370
    25
100
AcDbCircle
 10
102.7099722864
 20
99.8738499393
 30
0.0
 40
0.25
100
AcDbArc
 50
90.0
 51
180.0
  0
ARC
  5
172
330
1F
100
AcDbEntity
  8
0
  6
Continuous
 62
     7
370
    25
100
AcDbCircle
 10
113.2099722864
 20
99.8738499393
 30
0.0
 40
0.25
100
AcDbArc
 50
0.0
 51
90.0
  0
LINE
  5
173
330
1F
100
AcDbEntity
  8
0
  6
Continuous
 62
     7
370
    25
100
AcDbLine
 10
102.4599722864
 20
99.8738499393
 30
0.0
 11
102.4599722864
 21
99.2738499393
 31
0.0
  0
LINE
  5
174
330
1F
100
AcDbEntity
  8
0
  6
Continuous
 62
     7
370
    25
100
AcDbLine
 10
113.4599722864
 20
99.2738499393
 30
0.0
 11
113.4599722864
 21
99.8738499393
 31
0.0
  0
LINE
  5
175
330
1F
100
AcDbEntity
  8
0
  6
Continuous
 62
     7
370
    25
100
AcDbLine
 10
115.4099722864
 20
91.2738499393
 30
0.0
 11
113.4599722864
 21
99.2738499392
 31
0.0
  0
LINE
  5
176
330
1F
100
AcDbEntity
  8
0
  6
Continuous
 62
     7
370
    25
100
AcDbLine
 10
102.4599722864
 20
99.2738499392
 30
0.0
 11
100.5099722864
 21
91.2738499393
 31
0.0
  0
LINE
  5
177
330
1F
100
AcDbEntity
  8
0
  6
Continuous
 62
     7
370
    25
100
AcDbLine
 10
100.5099722864
 20
91.2738499393
 30
0.0
 11
100.9599722864
 21
83.2738499393
 31
0.0
  0
LINE
  5
178
330
1F
100
AcDbEntity
  8
0
  6
Continuous
 62
     7
370
    25
100
AcDbLine
 10
114.9599722864
 20
83.2738499393
 30
0.0
 11
115.4099722864
 21
91.2738499393
 31
0.0
  0
LINE
  5
179
330
1F
100
AcDbEntity
  8
0
  6
Continuous
 62
     7
370
    25
100
AcDbLine
 10
113.8599722864
 20
81.7738499393
 30
0.0
 11
113.8599722864
 21
83.2738499393
 31
0.0
  0
LINE
  5
17A
330
1F
100
AcDbEntity
  8
0
  6
Continuous
 62
     7
370
    25
100
AcDbLine
 10
102.0599722864
 20
83.2738499393
 30
0.0
 11
102.0599722864
 21
81.4594702395
 31
0.0
  0
ARC
  5
17B
330
1F
100
AcDbEntity
  8
0
  6
Continuous
 62
     7
370
    25
100
AcDbCircle
 10
113.8599722864
 20
81.2738499393
 30
0.0
 40
0.5
100
AcDbArc
 50
0.0
 51
90.0
  0
CIRCLE
  5
17C
330
1F
100
AcDbEntity
  8
0
  6
Continuous
 62
     7
370
    25
100
AcDbCircle
 10
107.9599722864
 20
72.7738499393
 30
0.0
 40
2.09999999999998
  0
CIRCLE
  5
17D
330
1F
100
AcDbEntity
  8
0
  6
Continuous
 62
     7
370
    25
100
AcDbCircle
 10
107.9599722864
 20
72.7738499393
 30
0.0
 40
1.99999999999999
  0
CIRCLE
  5
17E
330
1F
100
AcDbEntity
  8
0
  6
Continuous
 62
     7
370
    25
100
AcDbCircle
 10
107.9599722864
 20
72.7738499393
 30
0.0
 40
2.842307692307691
  0
CIRCLE
  5
17F
330
1F
100
AcDbEntity
  8
0
  6
Continuous
 62
     7
370
    25
100
AcDbCircle
 10
107.9599722864
 20
72.7738499393
 30
0.0
 40
2.349999999999994
  0
CIRCLE
  5
180
330
1F
100
AcDbEntity
  8
0
  6
Continuous
 62
     7
370
    25
100
AcDbCircle
 10
107.9599722864
 20
72.7738499393
 30
0.0
 40
3.499999999999996
  0
CIRCLE
  5
181
330
1F
100
AcDbEntity
  8
0
  6
Continuous
 62
     7
370
    25
100
AcDbCircle
 10
107.9599722864
 20
72.7738499393
 30
0.0
 40
7.800000000000002
  0
CIRCLE
  5
182
330
1F
100
AcDbEntity
  8
0
  6
Continuous
 62
     7
370
    25
100
AcDbCircle
 10
107.9599722864
 20
72.7738499393
 30
0.0
 40
7.999999999999996
  0
LINE
  5
183
330
1F
100
AcDbEntity
  8
0
  6
Continuous
 62
     7
370
    25
100
AcDbLine
 10
102.7099722864
 20
100.1238499393
 30
0.0
 11
104.4599722864
 21
100.1238499393
 31
0.0
  0
LINE
  5
184
330
1F
100
AcDbEntity
  8
0
  6
Continuous
 62
     7
370
    25
100
AcDbLine
 10
111.4599722864
 20
100.1238499393
 30
0.0
 11
113.2099722864
 21
100.1238499393
 31
0.0
  0
LINE
  5
185
330
1F
100
AcDbEntity
  8
0
  6
Continuous
 62
     7
370
    25
100
AcDbLine
 10
102.4599722864
 20
99.2738499393
 30
0.0
 11
104.4599722864
 21
99.2738499393
 31
0.0
  0
LINE
  5
186
330
1F
100
AcDbEntity
  8
0
  6
Continuous
 62
     7
370
    25
100
AcDbLine
 10
111.4599722864
 20
99.2738499393
 30
0.0
 11
113.4599722864
 21
99.2738499393
 31
0.0
  0
LINE
  5
187
330
1F
100
AcDbEntity
  8
0
  6
Continuous
 62
     7
370
    25
100
AcDbLine
 10
104.4599722864
 20
101.2738499393
 30
0.0
 11
111.4599722864
 21
101.2738499393
 31
0.0
  0
LINE
  5
188
330
1F
100
AcDbEntity
  8
0
  6
Continuous
 62
     7
370
    25
100
AcDbLine
 10
111.4599722864
 20
94.2738499393
 30
0.0
 11
111.4599722864
 21
101.2738499393
 31
0.0
  0
LINE
  5
189
330
1F
100
AcDbEntity
  8
0
  6
Continuous
 62
     7
370
    25
100
AcDbLine
 10
104.4599722864
 20
94.2738499393
 30
0.0
 11
111.4599722864
 21
94.2738499393
 31
0.0
  0
LINE
  5
18A
330
1F
100
AcDbEntity
  8
0
  6
Continuous
 62
     7
370
    25
100
AcDbLine
 10
104.4599722864
 20
101.2738499393
 30
0.0
 11
104.4599722864
 21
94.2738499393
 31
0.0
  0
LINE
  5
18B
330
1F
100
AcDbEntity
  8
0
  6
Continuous
 62
     7
370
    25
100
AcDbLine
 10
111.4599722864
 20
89.2738499393
 30
0.0
 11
104.4599722864
 21
89.2738499393
 31
0.0
  0
LINE
  5
18C
330
1F
100
AcDbEntity
  8
0
  6
Continuous
 62
     7
370
    25
100
AcDbLine
 10
111.4599722864
 20
94.2738499393
 30
0.0
 11
111.4599722864
 21
89.2738499393
 31
0.0
  0
LINE
  5
18D
330
1F
100
AcDbEntity
  8
0
  6
Continuous
 62
     7
370
    25
100
AcDbLine
 10
104.4599722864
 20
89.2738499393
 30
0.0
 11
104.4599722864
 21
94.2738499393
 31
0.0
  0
SPLINE
  5
18E
330
1F
100
AcDbEntity
  8
0
  6
Continuous
 62
     7
370
    25
100
AcDbSpline
210
0.0
220
0.0
230
1.0
 70
     8
 71
     3
 72
     9
 73
     5
 74
     0
 42
0.00000001
 43
0.00000001
 40
0.0
 40
0.0
 40
0.0
 40
0.0
 40
0.4976931370791441
 40
0.9999999999999999
 40
0.9999999999999999
 40
0.9999999999999999
 40
0.9999999999999999
 10
111.4599722863742
 20
89.02602563223813
 30
0.0
 10
111.4766417995913
 20
88.8765787512377
 30
0.0
 10
111.5101353561129
 20
88.57629958348079
 30
0.0
 10
111.7334740397546
 20
87.99487745609338
 30
0.0
 10
111.8456585933035
 20
87.70282513125262
 30
0.0
  0
LINE
  5
18F
330
1F
100
AcDbEntity
  8
0
  6
Continuous
 62
     7
370
    25
100
AcDbLine
 10
111.8456585933
 20
87.7028251313
 30
0.0
 11
104.0742859794
 21
87.7028251313
 31
0.0
  0
SPLINE
  5
190
330
1F
100
AcDbEntity
  8
0
  6
Continuous
 62
     7
370
    25
100
AcDbSpline
210
0.0
220
0.0
230
1.0
 70
     8
 71
     3
 72
     9
 73
     5
 74
     0
 42
0.00000001
 43
0.00000001
 40
0.0
 40
0.0
 40
0.0
 40
0.0
 40
0.4977232396629078
 40
1.0
 40
1.0
 40
1.0
 40
1.0
 10
104.0742859794448
 20
87.70282513125262
 30
0.0
 10
104.1855826555587
 20
87.99241753187678
 30
0.0
 10
104.4091942277033
 20
88.57425172716226
 30
0.0
 10
104.442994962702
 20
88.87497787630039
 30
0.0
 10
104.4599722863741
 20
89.02602563223813
 30
0.0
  0
LINE
  5
191
330
1F
100
AcDbEntity
  8
0
  6
Continuous
 62
     7
370
    25
100
AcDbLine
 10
111.4599722864
 20
89.2738499393
 30
0.0
 11
111.4599722864
 21
89.0260256322
 31
0.0
  0
LINE
  5
192
330
1F
100
AcDbEntity
  8
0
  6
Continuous
 62
     7
370
    25
100
AcDbLine
 10
104.4599722864
 20
89.0260256322
 30
0.0
 11
104.4599722864
 21
89.2738499393
 31
0.0
  0
SPLINE
  5
193
330
1F
100
AcDbEntity
  8
0
  6
Continuous
 62
     7
370
    25
100
AcDbSpline
210
0.0
220
0.0
230
1.0
 70
     8
 71
     3
 72
    16
 73
    12
 74
     0
 42
0.00000001
 43
0.00000001
 40
0.0
 40
0.0
 40
0.0
 40
0.0
 40
0.0155634360124117
 40
0.0359329243097674
 40
0.0739120889290614
 40
0.1570057548437684
 40
0.2406581385754913
 40
0.4592958294318596
 40
0.6783839187935412
 40
0.8974954344294845
 40
1.0
 40
1.0
 40
1.0
 40
1.0
 10
101.3002500641519
 20
83.27384993926267
 30
0.0
 10
101.3139437311652
 20
83.27904331104185
 30
0.0
 10
101.3455597252119
 20
83.29103378890962
 30
0.0
 10
101.401039415522
 20
83.40935971290658
 30
0.0
 10
101.4796402260124
 20
83.72061102035553
 30
0.0
 10
101.5589804126415
 20
84.24625852172059
 30
0.0
 10
101.6642081207447
 20
85.28480468599074
 30
0.0
 10
101.779201521964
 20
86.71987872833687
 30
0.0
 10
101.8816015223789
 20
88.55813082977629
 30
0.0
 10
101.9513504022593
 20
90.07931367859574
 30
0.0
 10
101.990809021688
 20
90.98514571939226
 30
0.0
 10
102.003385161001
 20
91.27384993926022
 30
0.0
  0
LINE
  5
194
330
1F
100
AcDbEntity
  8
0
  6
Continuous
 62
     7
370
    25
100
AcDbLine
 10
102.003385161
 20
91.2738499393
 30
0.0
 11
101.7832244457
 21
92.2685935172
 31
0.0
  0
ELLIPSE
  5
195
330
1F
100
AcDbEntity
  8
0
  6
Continuous
 62
     7
370
    25
100
AcDbEllipse
 10
39.4599722864
 20
89.6217243716
 30
0.0
 11
65.0
 21
0.0
 31
0.0
210
0.0
220
0.0
230
1.0
 40
0.2713992096
 41
6.084179739699223
 42
6.174194364446292
  0
SPLINE
  5
196
330
1F
100
AcDbEntity
  8
0
  6
Continuous
 62
     7
370
    25
100
AcDbSpline
210
0.0
220
0.0
230
1.0
 70
     8
 71
     3
 72
    13
 73
     9
 74
     0
 42
0.00000001
 43
0.00000001
 40
0.0
 40
0.0
 40
0.0
 40
0.0
 40
0.1610294006389558
 40
0.3266880383557516
 40
0.4877296220820637
 40
0.6535536198224136
 40
0.8237602734841889
 40
1.0
 40
1.0
 40
1.0
 40
1.0
 10
103.1771099562696
 20
86.13420369076974
 30
0.0
 10
103.1333061888372
 20
86.0648067961925
 30
0.0
 10
103.0444393930949
 20
85.92401800068394
 30
0.0
 10
102.915419374423
 20
85.5778931829763
 30
0.0
 10
102.7944092786556
 20
85.13868653992427
 30
0.0
 10
102.687728295531
 20
84.60508470298467
 30
0.0
 10
102.5970610081752
 20
83.98125839628499
 30
0.0
 10
102.5602421992784
 20
83.51237449808299
 30
0.0
 10
102.541512210507
 20
83.27384993926258
 30
0.0
  0
LINE
  5
197
330
1F
100
AcDbEntity
  8
0
  6
Continuous
 62
     7
370
    25
100
AcDbLine
 10
102.5415122105
 20
83.2738499393
 30
0.0
 11
101.3002500642
 21
83.2738499393
 31
0.0
  0
LINE
  5
198
330
1F
100
AcDbEntity
  8
0
  6
Continuous
 62
     7
370
    25
100
AcDbLine
 10
101.7832244457
 20
92.2685935172
 30
0.0
 11
104.4599722864
 21
92.2685935173
 31
0.0
  0
SPLINE
  5
199
330
1F
100
AcDbEntity
  8
0
  6
Continuous
 62
     7
370
    25
100
AcDbSpline
210
0.0
220
0.0
230
1.0
 70
     8
 71
     3
 72
    17
 73
    13
 74
     0
 42
0.00000001
 43
0.00000001
 40
0.0
 40
0.0
 40
0.0
 40
0.0
 40
0.3241697628029873
 40
0.5422758463620719
 40
0.689509052693928
 40
0.7894036290694505
 40
0.8577090008137825
 40
0.9049823971474137
 40
0.9551712229700868
 40
0.9753097783197817
 40
0.9919572060138848
 40
1.0
 40
1.0
 40
1.0
 40
1.0
 10
113.9165594117472
 20
91.27384993926022
 30
0.0
 10
113.957209850474
 20
90.36123643665454
 30
0.0
 10
114.0252104896296
 20
88.8346034303932
 30
0.0
 10
114.136643388946
 20
86.90783052811223
 30
0.0
 10
114.2291480490046
 20
85.62019505717947
 30
0.0
 10
114.3070495053219
 20
84.76104309045772
 30
0.0
 10
114.3731020047443
 20
84.18757520208031
 30
0.0
 10
114.4364586121067
 20
83.76604304805035
 30
0.0
 10
114.4945850798006
 20
83.48555050525492
 30
0.0
 10
114.5539269081234
 20
83.33000183667426
 30
0.0
 10
114.5909329767461
 20
83.27939123747676
 30
0.0
 10
114.6126275436166
 20
83.27521148567213
 30
0.0
 10
114.6196945085964
 20
83.27384993926265
 30
0.0
  0
LINE
  5
19A
330
1F
100
AcDbEntity
  8
0
  6
Continuous
 62
     7
370
    25
100
AcDbLine
 10
114.6196945086
 20
83.2738499393
 30
0.0
 11
113.3784323622
 21
83.2738499393
 31
0.0
  0
SPLINE
  5
19B
330
1F
100
AcDbEntity
  8
0
  6
Continuous
 62
     7
370
    25
100
AcDbSpline
210
0.0
220
0.0
230
1.0
 70
     8
 71
     3
 72
    14
 73
    10
 74
     0
 42
0.00000001
 43
0.00000001
 40
0.0
 40
0.0
 40
0.0
 40
0.0
 40
0.1576095309202822
 40
0.3152382602707094
 40
0.4726926441579498
 40
0.6301650083177254
 40
0.7907313191165901
 40
0.9513050385928076
 40
1.0
 40
1.0
 40
1.0
 40
1.0
 10
113.3784323622412
 20
83.27384993926258
 30
0.0
 10
113.3619270253988
 20
83.48735172773998
 30
0.0
 10
113.3289143411974
 20
83.9143813113655
 30
0.0
 10
113.2491106512855
 20
84.49962839022182
 30
0.0
 10
113.1513232437993
 20
85.02178293104423
 30
0.0
 10
113.0377334041173
 20
85.4707610584641
 30
0.0
 10
112.9131913050855
 20
85.83004279027048
 30
0.0
 10
112.8128339643091
 20
86.03460896937166
 30
0.0
 10
112.756048166694
 20
86.11540351772297
 30
0.0
 10
112.7428346164787
 20
86.13420369076974
 30
0.0
  0
ELLIPSE
  5
19C
330
1F
100
AcDbEntity
  8
0
  6
Continuous
 62
     7
370
    25
100
AcDbEllipse
 10
176.4599722864
 20
89.6217243716
 30
0.0
 11
65.00000000000003
 21
0.0
 31
0.0
210
0.0
220
0.0
230
1.0
 40
0.2713992096
 41
3.250583596323188
 42
3.340598221070255
  0
LINE
  5
19D
330
1F
100
AcDbEntity
  8
0
  6
Continuous
 62
     7
370
    25
100
AcDbLine
 10
111.4599722864
 20
92.2685935173
 30
0.0
 11
114.136720127
 21
92.2685935172
 31
0.0
  0
LINE
  5
19E
330
1F
100
AcDbEntity
  8
0
  6
Continuous
 62
     7
370
    25
100
AcDbLine
 10
114.136720127
 20
92.2685935172
 30
0.0
 11
113.9165594117
 21
91.2738499393
 31
0.0
  0
LINE
  5
19F
330
1F
100
AcDbEntity
  8
0
  6
Continuous
 62
     7
370
    25
100
AcDbLine
 10
103.1771099563
 20
86.1342036908
 30
0.0
 11
112.7428346165
 21
86.1342036908
 31
0.0
  0
SPLINE
  5
1A0
330
1F
100
AcDbEntity
  8
0
  6
Continuous
 62
     7
370
    25
100
AcDbSpline
210
0.0
220
0.0
230
1.0
 70
     8
 71
     3
 72
    15
 73
    11
 74
     0
 42
0.00000001
 43
0.00000001
 40
0.0
 40
0.0
 40
0.0
 40
0.0
 40
0.108302867318557
 40
0.2410753171544203
 40
0.4144372864330101
 40
0.5908932123492212
 40
0.6903297377178795
 40
0.7895984437307898
 40
0.9112454994513551
 40
0.9999999999999999
 40
0.9999999999999999
 40
0.9999999999999999
 40
0.9999999999999999
 10
110.5580484977275
 20
83.27384993926258
 30
0.0
 10
110.4398889342646
 20
83.45689131928884
 30
0.0
 10
110.1768732363252
 20
83.86432982793349
 30
0.0
 10
109.4505330483327
 20
84.29960997768136
 30
0.0
 10
108.4887247152683
 20
84.5458049582295
 30
0.0
 10
107.5481363839131
 20
84.54083286817527
 30
0.0
 10
106.7941648398364
 20
84.38625794492762
 30
0.0
 10
106.1937893151211
 20
84.1456703753208
 30
0.0
 10
105.6771350008905
 20
83.7852408923983
 30
0.0
 10
105.4554220885559
 20
83.42557091430636
 30
0.0
 10
105.3618960750208
 20
83.27384993926258
 30
0.0
  0
LINE
  5
1A1
330
1F
100
AcDbEntity
  8
0
  6
Continuous
 62
     7
370
    25
100
AcDbLine
 10
105.361896075
 20
83.2738499393
 30
0.0
 11
102.5415122105
 21
83.2738499393
 31
0.0
  0
LINE
  5
1A2
330
1F
100
AcDbEntity
  8
0
  6
Continuous
 62
     7
370
    25
100
AcDbLine
 10
113.3784323622
 20
83.2738499393
 30
0.0
 11
110.5580484977
 21
83.2738499393
 31
0.0
  0
LINE
  5
1A3
330
1F
100
AcDbEntity
  8
0
  6
Continuous
 62
     7
370
    25
100
AcDbLine
 10
110.5580484977
 20
83.2738499393
 30
0.0
 11
105.361896075
 21
83.2738499393
 31
0.0
  0
LINE
  5
1A4
330
1F
100
AcDbEntity
  8
0
  6
Continuous
 62
     7
370
    25
100
AcDbLine
 10
113.9165594117
 20
91.2738499393
 30
0.0
 11
115.4099722864
 21
91.2738499392
 31
0.0
  0
LINE
  5
1A5
330
1F
100
AcDbEntity
  8
0
  6
Continuous
 62
     7
370
    25
100
AcDbLine
 10
100.5099722864
 20
91.2738499392
 30
0.0
 11
102.003385161
 21
91.2738499393
 31
0.0
  0
SPLINE
  5
1A6
330
1F
100
AcDbEntity
  8
0
  6
Continuous
 62
     7
370
    25
100
AcDbSpline
210
0.0
220
0.0
230
1.0
 70
     8
 71
     3
 72
     9
 73
     5
 74
     0
 42
0.00000001
 43
0.00000001
 40
0.0
 40
0.0
 40
0.0
 40
0.0
 40
0.4875141023677128
 40
0.9999999999999999
 40
0.9999999999999999
 40
0.9999999999999999
 40
0.9999999999999999
 10
114.6196945085964
 20
83.27384993926265
 30
0.0
 10
114.6282206201321
 20
83.27557728523435
 30
0.0
 10
114.6457095737734
 20
83.27912045652583
 30
0.0
 10
114.6620312776598
 20
83.30063894247513
 30
0.0
 10
114.6703959207269
 20
83.31166686306257
 30
0.0
  0
SPLINE
  5
1A7
330
1F
100
AcDbEntity
  8
0
  6
Continuous
 62
     7
370
    25
100
AcDbSpline
210
0.0
220
0.0
230
1.0
 70
     8
 71
     3
 72
     9
 73
     5
 74
     0
 42
0.00000001
 43
0.00000001
 40
0.0
 40
0.0
 40
0.0
 40
0.0
 40
0.5124861829376838
 40
0.9999999999999999
 40
0.9999999999999999
 40
0.9999999999999999
 40
0.9999999999999999
 10
101.2495486828876
 20
83.31166681720279
 30
0.0
 10
101.2579133260112
 20
83.30063890425163
 30
0.0
 10
101.2742350209215
 20
83.27912044518223
 30
0.0
 10
101.2917239631632
 20
83.27557728083707
 30
0.0
 10
101.3002500641519
 20
83.27384993926267
 30
0.0
  0
LINE
  5
1A8
330
1F
100
AcDbEntity
  8
0
  6
Continuous
 62
     7
370
    25
100
AcDbLine
 10
114.6681762189
 20
83.2738499393
 30
0.0
 11
114.9599722864
 21
83.2738499393
 31
0.0
  0
LINE
  5
1A9
330
1F
100
AcDbEntity
  8
0
  6
Continuous
 62
     7
370
    25
100
AcDbLine
 10
100.9599722864
 20
83.2738499393
 30
0.0
 11
101.2517683539
 21
83.2738499393
 31
0.0
  0
LINE
  5
1AA
330
1F
100
AcDbEntity
  8
0
  6
Continuous
 62
     7
370
    25
100
AcDbLine
 10
114.6703959207
 20
83.3116668631
 30
0.0
 11
114.6681762189
 21
83.2738499393
 31
0.0
  0
LINE
  5
1AB
330
1F
100
AcDbEntity
  8
0
  6
Continuous
 62
     7
370
    25
100
AcDbLine
 10
114.6681762189
 20
83.2738499393
 30
0.0
 11
114.6196945086
 21
83.2738499393
 31
0.0
  0
LINE
  5
1AC
330
1F
100
AcDbEntity
  8
0
  6
Continuous
 62
     7
370
    25
100
AcDbLine
 10
101.2517683539
 20
83.2738499393
 30
0.0
 11
101.2495486829
 21
83.3116668172
 31
0.0
  0
LINE
  5
1AD
330
1F
100
AcDbEntity
  8
0
  6
Continuous
 62
     7
370
    25
100
AcDbLine
 10
101.3002500642
 20
83.2738499393
 30
0.0
 11
101.2517683539
 21
83.2738499393
 31
0.0
  0
CIRCLE
  5
1AE
330
1F
100
AcDbEntity
  8
0
  6
Continuous
 62
     7
370
    25
100
AcDbCircle
 10
107.9599722864
 20
72.7738499393
 30
0.0
 40
10.24999999999997
  0
CIRCLE
  5
1AF
330
1F
100
AcDbEntity
  8
0
  6
Continuous
 62
     7
370
    25
100
AcDbCircle
 10
107.9599722864
 20
72.7738499393
 30
0.0
 40
10.5
  0
SPLINE
  5
1B0
330
1F
100
AcDbEntity
  8
0
  6
Continuous
 62
     7
370
    25
100
AcDbSpline
210
0.0
220
0.0
230
1.0
 70
     8
 71
     3
 72
    10
 73
     6
 74
     0
 42
0.00000001
 43
0.00000001
 40
0.0
 40
0.0
 40
0.0
 40
0.0
 40
0.4051295655797126
 40
0.8244717782146267
 40
1.0
 40
1.0
 40
1.0
 40
1.0
 10
113.8599722863741
 20
81.77384993926258
 30
0.0
 10
113.8582331083385
 20
81.76294056048927
 30
0.0
 10
113.8546937388885
 20
81.74073908303457
 30
0.0
 10
113.8339888719734
 20
81.6203091978329
 30
0.0
 10
113.8207720139197
 20
81.50105447465639
 30
0.0
 10
113.8168721199974
 20
81.46586602304158
 30
0.0
  0
LINE
  5
1B1
330
1F
100
AcDbEntity
  8
0
  6
Continuous
 62
     7
370
    25
100
AcDbLine
 10
114.3599722864
 20
81.2738499393
 30
0.0
 11
114.3599722864
 21
81.0979114479
 31
0.0
  0
LINE
  5
1B2
330
1F
100
AcDbEntity
  8
0
  6
Continuous
 62
     7
370
    25
100
AcDbLine
 10
104.4599722864
 20
99.8738499393
 30
0.0
 11
102.4599722864
 21
99.8738499393
 31
0.0
  0
LINE
  5
1B3
330
1F
100
AcDbEntity
  8
0
  6
Continuous
 62
     7
370
    25
100
AcDbLine
 10
113.4599722864
 20
99.8738499393
 30
0.0
 11
111.4599722864
 21
99.8738499393
 31
0.0
  0
LINE
  5
1B4
330
1F
100
AcDbEntity
  8
0
  6
Continuous
 62
     7
370
    25
100
AcDbLine
 10
113.8599722864
 20
81.4594702395
 30
0.0
 11
113.8599722864
 21
81.7738499393
 31
0.0
  0
INSERT
  5
1C0
330
1F
100
AcDbEntity
  8
0
  6
Continuous
 62
     7
370
    18
100
AcDbBlockReference
  2
SW_CENTERMARKSYMBOL_0
 10
107.9599722864
 20
72.7738499393
 30
0.0
  0
ARC
  5
1C1
330
1F
100
AcDbEntity
  8
0
  6
Continuous
 62
     7
370
    25
100
AcDbCircle
 10
230.0353071594
 20
99.8738499393
 30
0.0
 40
0.25
100
AcDbArc
 50
0.0
 51
90.0
  0
ARC
  5
1C2
330
1F
100
AcDbEntity
  8
0
  6
Continuous
 62
     7
370
    25
100
AcDbCircle
 10
219.5353071594
 20
99.8738499393
 30
0.0
 40
0.25
100
AcDbArc
 50
90.0
 51
180.0
  0
LINE
  5
1C3
330
1F
100
AcDbEntity
  8
0
  6
Continuous
 62
     7
370
    25
100
AcDbLine
 10
230.2853071594
 20
99.2738499393
 30
0.0
 11
230.2853071594
 21
99.8738499393
 31
0.0
  0
LINE
  5
1C4
330
1F
100
AcDbEntity
  8
0
  6
Continuous
 62
     7
370
    25
100
AcDbLine
 10
219.2853071594
 20
99.8738499393
 30
0.0
 11
219.2853071594
 21
99.2738499393
 31
0.0
  0
LINE
  5
1C5
330
1F
100
AcDbEntity
  8
0
  6
Continuous
 62
     7
370
    25
100
AcDbLine
 10
217.3353071594
 20
91.2738499393
 30
0.0
 11
217.7853071594
 21
83.2738499393
 31
0.0
  0
LINE
  5
1C6
330
1F
100
AcDbEntity
  8
0
  6
Continuous
 62
     7
370
    25
100
AcDbLine
 10
231.7853071594
 20
83.2738499393
 30
0.0
 11
232.2353071594
 21
91.2738499393
 31
0.0
  0
LINE
  5
1C7
330
1F
100
AcDbEntity
  8
0
  6
Continuous
 62
     7
370
    25
100
AcDbLine
 10
232.2353071594
 20
91.2738499393
 30
0.0
 11
230.2853071593
 21
99.2738499392
 31
0.0
  0
LINE
  5
1C8
330
1F
100
AcDbEntity
  8
0
  6
Continuous
 62
     7
370
    25
100
AcDbLine
 10
219.2853071594
 20
99.2738499392
 30
0.0
 11
217.3353071594
 21
91.2738499393
 31
0.0
  0
LINE
  5
1C9
330
1F
100
AcDbEntity
  8
0
  6
Continuous
 62
     7
370
    25
100
AcDbLine
 10
230.6853071594
 20
80.847882389
 30
0.0
 11
230.6853071594
 21
83.2738499393
 31
0.0
  0
LINE
  5
1CA
330
1F
100
AcDbEntity
  8
0
  6
Continuous
 62
     7
370
    25
100
AcDbLine
 10
218.8853071594
 20
83.2738499393
 30
0.0
 11
218.8853071594
 21
81.7738499393
 31
0.0
  0
ARC
  5
1CB
330
1F
100
AcDbEntity
  8
0
  6
Continuous
 62
     7
370
    25
100
AcDbCircle
 10
218.8853071594
 20
81.2738499393
 30
0.0
 40
0.5
100
AcDbArc
 50
90.0
 51
180.0
  0
CIRCLE
  5
1CC
330
1F
100
AcDbEntity
  8
0
  6
Continuous
 62
     7
370
    25
100
AcDbCircle
 10
224.7853071594
 20
72.7738499393
 30
0.0
 40
2.499999999999998
  0
CIRCLE
  5
1CD
330
1F
100
AcDbEntity
  8
0
  6
Continuous
 62
     7
370
    25
100
AcDbCircle
 10
224.7853071594
 20
72.7738499393
 30
0.0
 40
1.999999999999977
  0
LINE
  5
1CE
330
1F
100
AcDbEntity
  8
0
  6
Continuous
 62
     7
370
    25
100
AcDbLine
 10
226.0353071594
 20
99.8738499393
 30
0.0
 11
226.0353071594
 21
100.1238499393
 31
0.0
  0
ARC
  5
1CF
330
1F
100
AcDbEntity
  8
0
  6
Continuous
 62
     7
370
    25
100
AcDbCircle
 10
226.0353071594
 20
99.8738499393
 30
0.0
 40
0.25
100
AcDbArc
 50
0.0
 51
90.0
  0
LINE
  5
1D0
330
1F
100
AcDbEntity
  8
0
  6
Continuous
 62
     7
370
    25
100
AcDbLine
 10
226.0353071594
 20
99.8738499393
 30
0.0
 11
226.2853071594
 21
99.8738499393
 31
0.0
  0
LINE
  5
1D1
330
1F
100
AcDbEntity
  8
0
  6
Continuous
 62
     7
370
    25
100
AcDbLine
 10
226.0353071594
 20
99.2738499393
 30
0.0
 11
226.0353071594
 21
99.8738499393
 31
0.0
  0
LINE
  5
1D2
330
1F
100
AcDbEntity
  8
0
  6
Continuous
 62
     7
370
    25
100
AcDbLine
 10
226.2853071594
 20
99.8738499393
 30
0.0
 11
226.2853071594
 21
99.2738499393
 31
0.0
  0
LINE
  5
1D3
330
1F
100
AcDbEntity
  8
0
  6
Continuous
 62
     7
370
    25
100
AcDbLine
 10
226.2853071594
 20
99.2738499393
 30
0.0
 11
226.0353071594
 21
99.2738499393
 31
0.0
  0
LINE
  5
1D4
330
1F
100
AcDbEntity
  8
0
  6
Continuous
 62
     7
370
    25
100
AcDbLine
 10
226.0353071594
 20
99.8738499393
 30
0.0
 11
223.5353071594
 21
99.8738499393
 31
0.0
  0
LINE
  5
1D5
330
1F
100
AcDbEntity
  8
0
  6
Continuous
 62
     7
370
    25
100
AcDbLine
 10
223.5353071594
 20
100.1238499393
 30
0.0
 11
223.5353071594
 21
99.8738499393
 31
0.0
  0
LINE
  5
1D6
330
1F
100
AcDbEntity
  8
0
  6
Continuous
 62
     7
370
    25
100
AcDbLine
 10
223.5353071594
 20
100.1238499393
 30
0.0
 11
226.0353071594
 21
100.1238499393
 31
0.0
  0
LINE
  5
1D7
330
1F
100
AcDbEntity
  8
0
  6
Continuous
 62
     7
370
    25
100
AcDbLine
 10
223.5353071594
 20
99.8738499393
 30
0.0
 11
223.5353071594
 21
99.2738499393
 31
0.0
  0
LINE
  5
1D8
330
1F
100
AcDbEntity
  8
0
  6
Continuous
 62
     7
370
    25
100
AcDbLine
 10
226.0353071594
 20
99.2738499393
 30
0.0
 11
223.5353071594
 21
99.2738499393
 31
0.0
  0
LINE
  5
1D9
330
1F
100
AcDbEntity
  8
0
  6
Continuous
 62
     7
370
    25
100
AcDbLine
 10
223.2853071594
 20
99.2738499393
 30
0.0
 11
223.2853071594
 21
99.8738499393
 31
0.0
  0
LINE
  5
1DA
330
1F
100
AcDbEntity
  8
0
  6
Continuous
 62
     7
370
    25
100
AcDbLine
 10
223.2853071594
 20
99.8738499393
 30
0.0
 11
223.5353071594
 21
99.8738499393
 31
0.0
  0
LINE
  5
1DB
330
1F
100
AcDbEntity
  8
0
  6
Continuous
 62
     7
370
    25
100
AcDbLine
 10
223.5353071594
 20
99.2738499393
 30
0.0
 11
223.2853071594
 21
99.2738499393
 31
0.0
  0
ARC
  5
1DC
330
1F
100
AcDbEntity
  8
0
  6
Continuous
 62
     7
370
    25
100
AcDbCircle
 10
223.5353071594
 20
99.8738499393
 30
0.0
 40
0.25
100
AcDbArc
 50
90.0
 51
180.0
  0
SPLINE
  5
1DD
330
1F
100
AcDbEntity
  8
0
  6
Continuous
 62
     7
370
    25
100
AcDbSpline
210
0.0
220
0.0
230
1.0
 70
     8
 71
     3
 72
    15
 73
    11
 74
     0
 42
0.00000001
 43
0.00000001
 40
0.0
 40
0.0
 40
0.0
 40
0.0
 40
0.0081667445812973
 40
0.3321939991490812
 40
0.4756279600585594
 40
0.6866830973284901
 40
0.8457435502264811
 40
0.8967566214763184
 40
0.9909540928118028
 40
1.0
 40
1.0
 40
1.0
 40
1.0
 10
226.0353071593533
 20
100.1238499392626
 30
0.0
 10
226.0367446222923
 20
100.1238472629168
 30
0.0
 10
226.0952154802443
 20
100.1237383987302
 30
0.0
 10
226.1796406579635
 20
100.1141923864605
 30
0.0
 10
226.294219729986
 20
100.076830003206
 30
0.0
 10
226.3755906171826
 20
100.0319644884713
 30
0.0
 10
226.4286096091842
 20
99.97408818889444
 30
0.0
 10
226.4528115410284
 20
99.92341214892252
 30
0.0
 10
226.4590011616946
 20
99.8947178694025
 30
0.0
 10
226.4592025571071
 20
99.87553103784701
 30
0.0
 10
226.4592202028316
 20
99.87384993926258
 30
0.0
  0
LINE
  5
1DE
330
1F
100
AcDbEntity
  8
0
  6
Continuous
 62
     7
370
    25
100
AcDbLine
 10
226.2853071594
 20
99.8738499393
 30
0.0
 11
226.4592202028
 21
99.8738499393
 31
0.0
  0
LINE
  5
1DF
330
1F
100
AcDbEntity
  8
0
  6
Continuous
 62
     7
370
    25
100
AcDbLine
 10
223.1113941159
 20
99.8738499393
 30
0.0
 11
223.2853071594
 21
99.8738499393
 31
0.0
  0
SPLINE
  5
1E0
330
1F
100
AcDbEntity
  8
0
  6
Continuous
 62
     7
370
    25
100
AcDbSpline
210
0.0
220
0.0
230
1.0
 70
     8
 71
     3
 72
    15
 73
    11
 74
     0
 42
0.00000001
 43
0.00000001
 40
0.0
 40
0.0
 40
0.0
 40
0.0
 40
0.0090459071881971
 40
0.1032433785236816
 40
0.1542564497735189
 40
0.3133169026715102
 40
0.5243720399414394
 40
0.6678060008509896
 40
0.9918332554187292
 40
1.0
 40
1.0
 40
1.0
 40
1.0
 10
223.111394115875
 20
99.87384993926258
 30
0.0
 10
223.1114117615995
 20
99.87553103784701
 30
0.0
 10
223.1116131570121
 20
99.89471786940251
 30
0.0
 10
223.1178027776783
 20
99.92341214892251
 30
0.0
 10
223.1420047095224
 20
99.97408818889446
 30
0.0
 10
223.1950237015241
 20
100.0319644884713
 30
0.0
 10
223.2763945887207
 20
100.076830003206
 30
0.0
 10
223.3909736607431
 20
100.1141923864605
 30
0.0
 10
223.4753988384626
 20
100.1237383987301
 30
0.0
 10
223.5338696964143
 20
100.1238472629168
 30
0.0
 10
223.5353071593533
 20
100.1238499392626
 30
0.0
  0
LINE
  5
1E1
330
1F
100
AcDbEntity
  8
0
  6
Continuous
 62
     7
370
    25
100
AcDbLine
 10
226.4592202028
 20
99.8738499393
 30
0.0
 11
226.4592202028
 21
99.2738499393
 31
0.0
  0
LINE
  5
1E2
330
1F
100
AcDbEntity
  8
0
  6
Continuous
 62
     7
370
    25
100
AcDbLine
 10
226.4592202028
 20
99.2738499393
 30
0.0
 11
226.2853071594
 21
99.2738499393
 31
0.0
  0
LINE
  5
1E3
330
1F
100
AcDbEntity
  8
0
  6
Continuous
 62
     7
370
    25
100
AcDbLine
 10
223.1113941159
 20
99.2738499393
 30
0.0
 11
223.1113941159
 21
99.8738499393
 31
0.0
  0
LINE
  5
1E4
330
1F
100
AcDbEntity
  8
0
  6
Continuous
 62
     7
370
    25
100
AcDbLine
 10
223.2853071594
 20
99.2738499393
 30
0.0
 11
223.1113941159
 21
99.2738499393
 31
0.0
  0
LINE
  5
1E5
330
1F
100
AcDbEntity
  8
0
  6
Continuous
 62
     7
370
    25
100
AcDbLine
 10
226.0353071594
 20
100.1238499393
 30
0.0
 11
230.0353071594
 21
100.1238499393
 31
0.0
  0
LINE
  5
1E6
330
1F
100
AcDbEntity
  8
0
  6
Continuous
 62
     7
370
    25
100
AcDbLine
 10
219.5353071594
 20
100.1238499393
 30
0.0
 11
223.5353071594
 21
100.1238499393
 31
0.0
  0
LINE
  5
1E7
330
1F
100
AcDbEntity
  8
0
  6
Continuous
 62
     7
370
    25
100
AcDbLine
 10
226.4592202028
 20
99.2738499393
 30
0.0
 11
230.2853071594
 21
99.2738499393
 31
0.0
  0
LINE
  5
1E8
330
1F
100
AcDbEntity
  8
0
  6
Continuous
 62
     7
370
    25
100
AcDbLine
 10
219.2853071594
 20
99.2738499393
 30
0.0
 11
223.1113941159
 21
99.2738499393
 31
0.0
  0
LINE
  5
1E9
330
1F
100
AcDbEntity
  8
0
  6
Continuous
 62
     7
370
    25
100
AcDbLine
 10
224.1853071594
 20
100.1338499393
 30
0.0
 11
225.3853071594
 21
100.1338499393
 31
0.0
  0
LINE
  5
1EA
330
1F
100
AcDbEntity
  8
0
  6
Continuous
 62
     7
370
    25
100
AcDbLine
 10
224.1853071594
 20
100.1238499393
 30
0.0
 11
224.1853071594
 21
100.1338499393
 31
0.0
  0
LINE
  5
1EB
330
1F
100
AcDbEntity
  8
0
  6
Continuous
 62
     7
370
    25
100
AcDbLine
 10
225.3853071594
 20
100.1238499393
 30
0.0
 11
225.3853071594
 21
100.1338499393
 31
0.0
  0
LINE
  5
1EC
330
1F
100
AcDbEntity
  8
0
  6
Continuous
 62
     7
370
    25
100
AcDbLine
 10
217.7853071594
 20
83.2738499393
 30
0.0
 11
231.7853071594
 21
83.2738499393
 31
0.0
  0
LINE
  5
1ED
330
1F
100
AcDbEntity
  8
0
  6
Continuous
 62
     7
370
    25
100
AcDbLine
 10
217.3353071593
 20
91.2738499392
 30
0.0
 11
232.2353071594
 21
91.2738499392
 31
0.0
  0
LINE
  5
1EE
330
1F
100
AcDbEntity
  8
0
  6
Continuous
 62
     7
370
    25
100
AcDbLine
 10
230.2853071594
 20
99.2738499392
 30
0.0
 11
226.5063216402
 21
99.2738499392
 31
0.0
  0
LINE
  5
1EF
330
1F
100
AcDbEntity
  8
0
  6
Continuous
 62
     7
370
    25
100
AcDbLine
 10
223.0642926785
 20
99.2738499392
 30
0.0
 11
219.2853071594
 21
99.2738499392
 31
0.0
  0
LINE
  5
1F0
330
1F
100
AcDbEntity
  8
0
  6
Continuous
 62
     7
370
    25
100
AcDbLine
 10
228.0570064234
 20
101.2738499393
 30
0.0
 11
228.0570064234
 21
100.1238499393
 31
0.0
  0
LINE
  5
1F1
330
1F
100
AcDbEntity
  8
0
  6
Continuous
 62
     7
370
    25
100
AcDbLine
 10
228.0570064234
 20
101.2738499393
 30
0.0
 11
228.2853071594
 21
101.2738499393
 31
0.0
  0
LINE
  5
1F2
330
1F
100
AcDbEntity
  8
0
  6
Continuous
 62
     7
370
    25
100
AcDbLine
 10
228.2853071594
 20
100.1238499393
 30
0.0
 11
228.2853071594
 21
101.2738499393
 31
0.0
  0
LINE
  5
1F3
330
1F
100
AcDbEntity
  8
0
  6
Continuous
 62
     7
370
    25
100
AcDbLine
 10
221.2853071594
 20
101.2738499393
 30
0.0
 11
221.2853071594
 21
100.1238499393
 31
0.0
  0
LINE
  5
1F4
330
1F
100
AcDbEntity
  8
0
  6
Continuous
 62
     7
370
    25
100
AcDbLine
 10
221.2853071594
 20
101.2738499393
 30
0.0
 11
221.5136078953
 21
101.2738499393
 31
0.0
  0
LINE
  5
1F5
330
1F
100
AcDbEntity
  8
0
  6
Continuous
 62
     7
370
    25
100
AcDbLine
 10
221.5136078953
 20
101.2738499393
 30
0.0
 11
221.5136078953
 21
100.1238499393
 31
0.0
  0
LINE
  5
1F6
330
1F
100
AcDbEntity
  8
0
  6
Continuous
 62
     7
370
    25
100
AcDbLine
 10
221.5136078953
 20
101.2738499393
 30
0.0
 11
228.0570064234
 21
101.2738499393
 31
0.0
  0
CIRCLE
  5
1F7
330
1F
100
AcDbEntity
  8
0
  6
Continuous
 62
     7
370
    25
100
AcDbCircle
 10
224.7853071594
 20
72.7738499393
 30
0.0
 40
3.0
  0
CIRCLE
  5
1F8
330
1F
100
AcDbEntity
  8
0
  6
Continuous
 62
     7
370
    25
100
AcDbCircle
 10
224.7853071594
 20
72.7738499393
 30
0.0
 40
3.25
  0
CIRCLE
  5
1F9
330
1F
100
AcDbEntity
  8
0
  6
Continuous
 62
     7
370
    25
100
AcDbCircle
 10
224.7853071594
 20
72.7738499393
 30
0.0
 40
4.782279626857616
  0
CIRCLE
  5
1FA
330
1F
100
AcDbEntity
  8
0
  6
Continuous
 62
     7
370
    25
100
AcDbCircle
 10
224.7853071594
 20
72.7738499393
 30
0.0
 40
4.0
  0
CIRCLE
  5
1FB
330
1F
100
AcDbEntity
  8
0
  6
Continuous
 62
     7
370
    25
100
AcDbCircle
 10
224.7853071594
 20
72.7738499393
 30
0.0
 40
5.052437499999996
  0
SPLINE
  5
1FC
330
1F
100
AcDbEntity
  8
0
  6
Continuous
 62
     7
370
    25
100
AcDbSpline
210
0.0
220
0.0
230
1.0
 70
    24
 71
     3
 72
    12
 73
     8
 74
     0
 42
0.00000001
 43
0.00000001
 40
0.0
 40
0.0
 40
0.0
 40
0.0
 40
0.1684137776957918
 40
0.3367851652016844
 40
0.5093302250217296
 40
0.6818766406170169
 40
1.0
 40
1.0
 40
1.0
 40
1.0
 10
232.195026408129
 20
78.26992393383154
 30
0.0
 10
231.8447215760938
 20
78.47217252290548
 30
0.0
 10
231.1442000846692
 20
78.87661879455264
 30
0.0
 10
230.0680890475891
 20
79.49791179148875
 30
0.0
 10
228.9769583309951
 20
80.12787640443533
 30
0.0
 10
227.5658347868549
 20
80.94258896250454
 30
0.0
 10
226.5403088353192
 20
81.5346766466846
 30
0.0
 10
225.8754140782468
 20
81.91855381366314
 30
0.0
  0
SPLINE
  5
1FD
330
1F
100
AcDbEntity
  8
0
  6
Continuous
 62
     7
370
    25
100
AcDbSpline
210
0.0
220
0.0
230
1.0
 70
     8
 71
     3
 72
     9
 73
     5
 74
     0
 42
0.00000001
 43
0.00000001
 40
0.0
 40
0.0
 40
0.0
 40
0.0
 40
0.4965031366680178
 40
1.0
 40
1.0
 40
1.0
 40
1.0
 10
233.2852202431879
 20
76.38165282141121
 30
0.0
 10
233.1325840368951
 20
76.71019396516131
 30
0.0
 10
232.8251615957861
 20
77.37190407228151
 30
0.0
 10
232.4060485247681
 20
77.96919155817614
 30
0.0
 10
232.195026408129
 20
78.26992393383154
 30
0.0
  0
SPLINE
  5
1FE
330
1F
100
AcDbEntity
  8
0
  6
Continuous
 62
     7
370
    25
100
AcDbSpline
210
0.0
220
0.0
230
1.0
 70
    24
 71
     3
 72
    13
 73
     9
 74
     0
 42
0.00000001
 43
0.00000001
 40
0.0
 40
0.0
 40
0.0
 40
0.0
 40
0.1098398876032357
 40
0.273822832170895
 40
0.4377735245891832
 40
0.6058788156659196
 40
0.7740022400724289
 40
1.0
 40
1.0
 40
1.0
 40
1.0
 10
233.2852202431879
 20
69.084393061748
 30
0.0
 10
233.2852202431879
 20
69.34781021991934
 30
0.0
 10
233.2852202431879
 20
70.00448999141936
 30
0.0
 10
233.2852202431879
 20
71.0682197667633
 30
0.0
 10
233.2852202431879
 20
72.28322309098667
 30
0.0
 10
233.2852202431879
 20
73.51189718831802
 30
0.0
 10
233.2852202431879
 20
74.88858949159017
 30
0.0
 10
233.2852202431879
 20
75.83751694055803
 30
0.0
 10
233.2852202431879
 20
76.38165282141121
 30
0.0
  0
SPLINE
  5
1FF
330
1F
100
AcDbEntity
  8
0
  6
Continuous
 62
     7
370
    25
100
AcDbSpline
210
0.0
220
0.0
230
1.0
 70
     8
 71
     3
 72
     9
 73
     5
 74
     0
 42
0.00000001
 43
0.00000001
 40
0.0
 40
0.0
 40
0.0
 40
0.0
 40
0.4965031342379448
 40
1.0
 40
1.0
 40
1.0
 40
1.0
 10
232.195026408129
 20
67.19612194932768
 30
0.0
 10
232.4032333710216
 20
67.49257950808253
 30
0.0
 10
232.8225800952111
 20
68.08967051982383
 30
0.0
 10
233.1302895148395
 20
68.75127651620214
 30
0.0
 10
233.2852202431879
 20
69.084393061748
 30
0.0
  0
SPLINE
  5
200
330
1F
100
AcDbEntity
  8
0
  6
Continuous
 62
     7
370
    25
100
AcDbSpline
210
0.0
220
0.0
230
1.0
 70
    24
 71
     3
 72
    12
 73
     8
 74
     0
 42
0.00000001
 43
0.00000001
 40
0.0
 40
0.0
 40
0.0
 40
0.0
 40
0.1696232709534311
 40
0.3392041180340893
 40
0.5129950903131885
 40
0.686788179959305
 40
0.9999999999999999
 40
0.9999999999999999
 40
0.9999999999999999
 40
0.9999999999999999
 10
225.8754140782468
 20
63.54749206949607
 30
0.0
 10
226.2283101402414
 20
63.75123670588467
 30
0.0
 10
226.9340140026524
 20
64.15867502081578
 30
0.0
 10
228.0179755505724
 20
64.78450051229864
 30
0.0
 10
229.1169214582761
 20
65.41897722793615
 30
0.0
 10
230.5225849941689
 20
66.2305374487739
 30
0.0
 10
231.540418225473
 20
66.81818373885748
 30
0.0
 10
232.195026408129
 20
67.19612194932769
 30
0.0
  0
SPLINE
  5
201
330
1F
100
AcDbEntity
  8
0
  6
Continuous
 62
     7
370
    25
100
AcDbSpline
210
0.0
220
0.0
230
1.0
 70
     8
 71
     3
 72
     9
 73
     5
 74
     0
 42
0.00000001
 43
0.00000001
 40
0.0
 40
0.0
 40
0.0
 40
0.0
 40
0.4965031017023401
 40
1.0
 40
1.0
 40
1.0
 40
1.0
 10
223.695026408129
 20
63.54749206949607
 30
0.0
 10
224.0558695529527
 20
63.51540833124636
 30
0.0
 10
224.7826387183143
 20
63.45078891972665
 30
0.0
 10
225.5094612087164
 20
63.51510774198622
 30
0.0
 10
225.8754140782468
 20
63.54749206949609
 30
0.0
  0
SPLINE
  5
202
330
1F
100
AcDbEntity
  8
0
  6
Continuous
 62
     7
370
    25
100
AcDbSpline
210
0.0
220
0.0
230
1.0
 70
    24
 71
     3
 72
    12
 73
     8
 74
     0
 42
0.00000001
 43
0.00000001
 40
0.0
 40
0.0
 40
0.0
 40
0.0
 40
0.1693350376211747
 40
0.3386280970084138
 40
0.5121324530343734
 40
0.6856399200578756
 40
1.0
 40
1.0
 40
1.0
 40
1.0
 10
217.3754140782468
 20
67.19612194932769
 30
0.0
 10
217.7278681866586
 20
66.99263247495911
 30
0.0
 10
218.4326890299463
 20
66.58570397135654
 30
0.0
 10
219.5151451329228
 20
65.9607476489171
 30
0.0
 10
220.6123612274613
 20
65.32726964137605
 30
0.0
 10
222.0190829662455
 20
64.51509846681412
 30
0.0
 10
223.0382929615388
 20
63.92665730167074
 30
0.0
 10
223.695026408129
 20
63.54749206949607
 30
0.0
  0
SPLINE
  5
203
330
1F
100
AcDbEntity
  8
0
  6
Continuous
 62
     7
370
    25
100
AcDbSpline
210
0.0
220
0.0
230
1.0
 70
     8
 71
     3
 72
     9
 73
     5
 74
     0
 42
0.00000001
 43
0.00000001
 40
0.0
 40
0.0
 40
0.0
 40
0.0
 40
0.4965031364210181
 40
1.0
 40
1.0
 40
1.0
 40
1.0
 10
216.2852202431879
 20
69.08439306174785
 30
0.0
 10
216.4378564492047
 20
68.75585191849773
 30
0.0
 10
216.745278889911
 20
68.09414181205537
 30
0.0
 10
217.1643919613116
 20
67.49685432547558
 30
0.0
 10
217.3754140782468
 20
67.19612194932769
 30
0.0
  0
SPLINE
  5
204
330
1F
100
AcDbEntity
  8
0
  6
Continuous
 62
     7
370
    25
100
AcDbSpline
210
0.0
220
0.0
230
1.0
 70
    24
 71
     3
 72
    13
 73
     9
 74
     0
 42
0.00000001
 43
0.00000001
 40
0.0
 40
0.0
 40
0.0
 40
0.0
 40
0.2259831252362619
 40
0.3898943757553665
 40
0.5537885622271109
 40
0.7219554984999765
 40
0.8901576543432105
 40
1.0
 40
1.0
 40
1.0
 40
1.0
 10
216.2852202431879
 20
76.38165282141121
 30
0.0
 10
216.2852202431879
 20
75.83755408787707
 30
0.0
 10
216.2852202431879
 20
74.89880684363577
 30
0.0
 10
216.2852202431879
 20
73.54299571284032
 30
0.0
 10
216.2852202431879
 20
72.3247726077206
 30
0.0
 10
216.2852202431879
 20
71.09906360084923
 30
0.0
 10
216.2852202431879
 20
70.014622761192
 30
0.0
 10
216.2852202431879
 20
69.3478168229182
 30
0.0
 10
216.2852202431879
 20
69.08439306174785
 30
0.0
  0
SPLINE
  5
205
330
1F
100
AcDbEntity
  8
0
  6
Continuous
 62
     7
370
    25
100
AcDbSpline
210
0.0
220
0.0
230
1.0
 70
     8
 71
     3
 72
     9
 73
     5
 74
     0
 42
0.00000001
 43
0.00000001
 40
0.0
 40
0.0
 40
0.0
 40
0.0
 40
0.4965031344853179
 40
1.0
 40
1.0
 40
1.0
 40
1.0
 10
217.3754140782468
 20
78.26992393383154
 30
0.0
 10
217.1672071154579
 20
77.97346637527693
 30
0.0
 10
216.747860391686
 20
77.37637536423644
 30
0.0
 10
216.4401509716602
 20
76.71476936714997
 30
0.0
 10
216.2852202431879
 20
76.38165282141121
 30
0.0
  0
SPLINE
  5
206
330
1F
100
AcDbEntity
  8
0
  6
Continuous
 62
     7
370
    25
100
AcDbSpline
210
0.0
220
0.0
230
1.0
 70
    24
 71
     3
 72
    12
 73
     8
 74
     0
 42
0.00000001
 43
0.00000001
 40
0.0
 40
0.0
 40
0.0
 40
0.0
 40
0.1681235458336802
 40
0.3362051388288545
 40
0.5084618328601784
 40
0.6807208858054717
 40
0.9999999999999999
 40
0.9999999999999999
 40
0.9999999999999999
 40
0.9999999999999999
 10
223.6950264081291
 20
81.91855381366314
 30
0.0
 10
223.3451668349027
 20
81.71656229488237
 30
0.0
 10
222.6455349909282
 20
81.31262966143002
 30
0.0
 10
221.5709370680833
 20
80.69221026140492
 30
0.0
 10
220.4815427850427
 20
80.06324817883781
 30
0.0
 10
219.0693485763033
 20
79.24791747227408
 30
0.0
 10
218.0424421726073
 20
78.65503278366764
 30
0.0
 10
217.3754140782468
 20
78.26992393383154
 30
0.0
  0
SPLINE
  5
207
330
1F
100
AcDbEntity
  8
0
  6
Continuous
 62
     7
370
    25
100
AcDbSpline
210
0.0
220
0.0
230
1.0
 70
     8
 71
     3
 72
     9
 73
     5
 74
     0
 42
0.00000001
 43
0.00000001
 40
0.0
 40
0.0
 40
0.0
 40
0.0
 40
0.4965031013048033
 40
1.0
 40
1.0
 40
1.0
 40
1.0
 10
225.8754140782468
 20
81.91855381366314
 30
0.0
 10
225.5145709337073
 20
81.95063755189567
 30
0.0
 10
224.787801768336
 20
82.01525696343246
 30
0.0
 10
224.0609792779436
 20
81.95093814118997
 30
0.0
 10
223.6950264081291
 20
81.91855381366314
 30
0.0
  0
CIRCLE
  5
208
330
1F
100
AcDbEntity
  8
0
  6
Continuous
 62
     7
370
    25
100
AcDbCircle
 10
224.7853071594
 20
72.7738499393
 30
0.0
 40
8.25
  0
CIRCLE
  5
209
330
1F
100
AcDbEntity
  8
0
  6
Continuous
 62
     7
370
    25
100
AcDbCircle
 10
224.7853071594
 20
72.7738499393
 30
0.0
 40
10.00000000000001
  0
SPLINE
  5
20A
330
1F
100
AcDbEntity
  8
0
  6
Continuous
 62
     7
370
    25
100
AcDbSpline
210
0.0
220
0.0
230
1.0
 70
     8
 71
     3
 72
    13
 73
     9
 74
     0
 42
0.00000001
 43
0.00000001
 40
0.0
 40
0.0
 40
0.0
 40
0.0
 40
0.0948915335289253
 40
0.3166686354496371
 40
0.5405748754413776
 40
0.7668729964871202
 40
0.9921223739349622
 40
0.9999999999999999
 40
0.9999999999999999
 40
0.9999999999999999
 40
0.9999999999999999
 10
218.9678902162853
 20
80.84634148463242
 30
0.0
 10
218.9678435381772
 20
80.89382661052369
 30
0.0
 10
218.9676877656628
 20
81.05229227612026
 30
0.0
 10
218.9480863451568
 20
81.30515328291274
 30
0.0
 10
218.9190206380133
 20
81.56172774961652
 30
0.0
 10
218.8926726735784
 20
81.73110836324233
 30
0.0
 10
218.8853845498372
 20
81.77338901300108
 30
0.0
 10
218.8853096889864
 20
81.77383487314232
 30
0.0
 10
218.8853071593533
 20
81.77384993926258
 30
0.0
  0
LINE
  5
20B
330
1F
100
AcDbEntity
  8
0
  6
Continuous
 62
     7
370
    25
100
AcDbLine
 10
218.3853071594
 20
80.7738499393
 30
0.0
 11
218.3853071594
 21
81.2738499393
 31
0.0
  0
LINE
  5
20C
330
1F
100
AcDbEntity
  8
0
  6
Continuous
 62
     7
370
    25
100
AcDbLine
 10
218.3853071594
 20
80.4575990242
 30
0.0
 11
218.3853071594
 21
80.7738499393
 31
0.0
  0
ARC
  5
20D
330
1F
100
AcDbEntity
  8
0
  6
Continuous
 62
     7
370
    25
100
AcDbCircle
 10
224.7853071594
 20
72.7738499393
 30
0.0
 40
10.5
100
AcDbArc
 50
127.5550792527
 51
180.0
  0
ARC
  5
20E
330
1F
100
AcDbEntity
  8
0
  6
Continuous
 62
     7
370
    25
100
AcDbCircle
 10
224.7853071594
 20
72.7738499393
 30
0.0
 40
10.5
100
AcDbArc
 50
180.0
 51
55.8123726629
  0
LINE
  5
20F
330
1F
100
AcDbEntity
  8
0
  6
Continuous
 62
     7
370
    25
100
AcDbLine
 10
230.2853071594
 20
99.8738499393
 30
0.0
 11
226.4592202028
 21
99.8738499393
 31
0.0
  0
LINE
  5
210
330
1F
100
AcDbEntity
  8
0
  6
Continuous
 62
     7
370
    25
100
AcDbLine
 10
223.1113941159
 20
99.8738499393
 30
0.0
 11
219.2853071594
 21
99.8738499393
 31
0.0
  0
LINE
  5
211
330
1F
100
AcDbEntity
  8
0
  6
Continuous
 62
     7
370
    25
100
AcDbLine
 10
218.8853071594
 20
81.7738499393
 30
0.0
 11
218.8853071594
 21
80.847882389
 31
0.0
  0
INSERT
  5
21D
330
1F
100
AcDbEntity
  8
0
  6
Continuous
 62
     7
370
    18
100
AcDbBlockReference
  2
SW_CENTERMARKSYMBOL_1
 10
224.7853071594
 20
72.7738499393
 30
0.0
  0
LINE
  5
21E
330
1F
100
AcDbEntity
  8
0
  6
Continuous
 62
     7
370
    25
100
AcDbLine
 10
154.888104944
 20
131.8639142759
 30
0.0
 11
154.688104944
 21
131.6639142759
 31
0.0
  0
LINE
  5
21F
330
1F
100
AcDbEntity
  8
0
  6
Continuous
 62
     7
370
    25
100
AcDbLine
 10
154.688104944
 20
116.0639142759
 30
0.0
 11
154.888104944
 21
115.8639142759
 31
0.0
  0
LINE
  5
220
330
1F
100
AcDbEntity
  8
0
  6
Continuous
 62
     7
370
    25
100
AcDbLine
 10
157.688104944
 20
131.8639142759
 30
0.0
 11
154.888104944
 21
131.8639142759
 31
0.0
  0
LINE
  5
221
330
1F
100
AcDbEntity
  8
0
  6
Continuous
 62
     7
370
    25
100
AcDbLine
 10
154.888104944
 20
115.8639142759
 30
0.0
 11
157.688104944
 21
115.8639142759
 31
0.0
  0
LINE
  5
222
330
1F
100
AcDbEntity
  8
0
  6
Continuous
 62
     7
370
    25
100
AcDbLine
 10
184.8323923302
 20
132.3638273597
 30
0.0
 11
184.688104944
 21
132.1139142759
 31
0.0
  0
LINE
  5
223
330
1F
100
AcDbEntity
  8
0
  6
Continuous
 62
     7
370
    25
100
AcDbLine
 10
184.688104944
 20
115.6139142759
 30
0.0
 11
184.8324926923
 21
115.3638273597
 31
0.0
  0
LINE
  5
224
330
1F
100
AcDbEntity
  8
0
  6
Continuous
 62
     7
370
    25
100
AcDbLine
 10
194.5437171956
 20
115.3638273597
 30
0.0
 11
194.688104944
 21
115.6139142759
 31
0.0
  0
LINE
  5
225
330
1F
100
AcDbEntity
  8
0
  6
Continuous
 62
     7
370
    25
100
AcDbLine
 10
194.688104944
 20
132.1139142759
 30
0.0
 11
194.5438175577
 21
132.3638273597
 31
0.0
  0
LINE
  5
226
330
1F
100
AcDbEntity
  8
0
  6
Continuous
 62
     7
370
    25
100
AcDbLine
 10
184.688104944
 20
132.1139142759
 30
0.0
 11
180.188104944
 21
132.1139142759
 31
0.0
  0
LINE
  5
227
330
1F
100
AcDbEntity
  8
0
  6
Continuous
 62
     7
370
    25
100
AcDbLine
 10
180.188104944
 20
115.6139142759
 30
0.0
 11
184.688104944
 21
115.6139142759
 31
0.0
  0
LINE
  5
228
330
1F
100
AcDbEntity
  8
0
  6
Continuous
 62
     7
370
    25
100
AcDbLine
 10
180.188104944
 20
132.1139142759
 30
0.0
 11
179.688104944
 21
131.6139142759
 31
0.0
  0
LINE
  5
229
330
1F
100
AcDbEntity
  8
0
  6
Continuous
 62
     7
370
    25
100
AcDbLine
 10
179.688104944
 20
116.1139142759
 30
0.0
 11
180.188104944
 21
115.6139142759
 31
0.0
  0
LINE
  5
22A
330
1F
100
AcDbEntity
  8
0
  6
Continuous
 62
     7
370
    25
100
AcDbLine
 10
194.688104944
 20
118.8114767759
 30
0.0
 11
203.3331568845
 21
119.081634649
 31
0.0
  0
LINE
  5
22B
330
1F
100
AcDbEntity
  8
0
  6
Continuous
 62
     7
370
    25
100
AcDbLine
 10
203.3331568845
 20
128.6461939028
 30
0.0
 11
194.688104944
 21
128.9163517759
 31
0.0
  0
LINE
  5
22C
330
1F
100
AcDbEntity
  8
0
  6
Continuous
 62
     7
370
    25
100
AcDbLine
 10
203.3331568845
 20
119.081634649
 30
0.0
 11
204.688104944
 21
119.8639142759
 31
0.0
  0
LINE
  5
22D
330
1F
100
AcDbEntity
  8
0
  6
Continuous
 62
     7
370
    25
100
AcDbLine
 10
204.688104944
 20
127.8639142759
 30
0.0
 11
203.3331568845
 21
128.6461939028
 31
0.0
  0
ARC
  5
22E
330
1F
100
AcDbEntity
  8
0
  6
Continuous
 62
     7
370
    25
100
AcDbCircle
 10
158.688104944
 20
114.8639142759
 30
0.0
 40
1.5
100
AcDbArc
 50
270.0
 51
0.0
  0
ARC
  5
22F
330
1F
100
AcDbEntity
  8
0
  6
Continuous
 62
     7
370
    25
100
AcDbCircle
 10
158.688104944
 20
132.8639142759
 30
0.0
 40
1.5
100
AcDbArc
 50
0.0
 51
90.0
  0
LINE
  5
230
330
1F
100
AcDbEntity
  8
0
  6
Continuous
 62
     7
370
    25
100
AcDbLine
 10
157.938104944
 20
134.3639142759
 30
0.0
 11
157.688104944
 21
134.1139142759
 31
0.0
  0
LINE
  5
231
330
1F
100
AcDbEntity
  8
0
  6
Continuous
 62
     7
370
    25
100
AcDbLine
 10
157.688104944
 20
113.6139142759
 30
0.0
 11
157.938104944
 21
113.3639142759
 31
0.0
  0
LINE
  5
232
330
1F
100
AcDbEntity
  8
0
  6
Continuous
 62
     7
370
    25
100
AcDbLine
 10
158.688104944
 20
134.3639142759
 30
0.0
 11
157.938104944
 21
134.3639142759
 31
0.0
  0
LINE
  5
233
330
1F
100
AcDbEntity
  8
0
  6
Continuous
 62
     7
370
    25
100
AcDbLine
 10
157.938104944
 20
113.3639142759
 30
0.0
 11
158.688104944
 21
113.3639142759
 31
0.0
  0
LINE
  5
234
330
1F
100
AcDbEntity
  8
0
  6
Continuous
 62
     7
370
    25
100
AcDbLine
 10
175.5700709552
 20
113.8639142759
 30
0.0
 11
177.6385114883
 21
113.8639142759
 31
0.0
  0
LINE
  5
235
330
1F
100
AcDbEntity
  8
0
  6
Continuous
 62
     7
370
    25
100
AcDbLine
 10
177.6385114883
 20
133.8639142759
 30
0.0
 11
175.5700709552
 21
133.8639142759
 31
0.0
  0
ARC
  5
236
330
1F
100
AcDbEntity
  8
0
  6
Continuous
 62
     7
370
    25
100
AcDbCircle
 10
176.688104944
 20
132.8639142759
 30
0.0
 40
1.500000000000014
100
AcDbArc
 50
138.1896851042
 51
180.0
  0
ARC
  5
237
330
1F
100
AcDbEntity
  8
0
  6
Continuous
 62
     7
370
    25
100
AcDbCircle
 10
176.688104944
 20
114.8639142759
 30
0.0
 40
1.500000000000014
100
AcDbArc
 50
180.0
 51
221.8103148958
  0
LINE
  5
238
330
1F
100
AcDbEntity
  8
0
  6
Continuous
 62
     7
370
    25
100
AcDbLine
 10
177.6385114883
 20
113.8639142759
 30
0.0
 11
179.688104944
 21
117.4139142759
 31
0.0
  0
LINE
  5
239
330
1F
100
AcDbEntity
  8
0
  6
Continuous
 62
     7
370
    25
100
AcDbLine
 10
179.688104944
 20
130.3139142759
 30
0.0
 11
177.6385114883
 21
133.8639142759
 31
0.0
  0
LINE
  5
23A
330
1F
100
AcDbEntity
  8
0
  6
Continuous
 62
     7
370
    25
100
AcDbLine
 10
154.888104944
 20
119.6842157651
 30
0.0
 11
154.888104944
 21
115.8639142759
 31
0.0
  0
LINE
  5
23B
330
1F
100
AcDbEntity
  8
0
  6
Continuous
 62
     7
370
    25
100
AcDbLine
 10
154.888104944
 20
131.8639142759
 30
0.0
 11
154.888104944
 21
128.0436127868
 31
0.0
  0
LINE
  5
23C
330
1F
100
AcDbEntity
  8
0
  6
Continuous
 62
     7
370
    25
100
AcDbLine
 10
154.688104944
 20
128.0147778528
 30
0.0
 11
154.688104944
 21
131.6639142759
 31
0.0
  0
LINE
  5
23D
330
1F
100
AcDbEntity
  8
0
  6
Continuous
 62
     7
370
    25
100
AcDbLine
 10
154.688104944
 20
116.0639142759
 30
0.0
 11
154.688104944
 21
119.713050699
 31
0.0
  0
SPLINE
  5
23E
330
1F
100
AcDbEntity
  8
0
  6
Continuous
 62
     7
370
    25
100
AcDbSpline
210
0.0
220
0.0
230
1.0
 70
     8
 71
     3
 72
    15
 73
    11
 74
     0
 42
0.00000001
 43
0.00000001
 40
0.0
 40
0.0
 40
0.0
 40
0.0
 40
0.0090459071881971
 40
0.1032433785236875
 40
0.1542564497735247
 40
0.3133169026715109
 40
0.5243720399414432
 40
0.667806000850919
 40
0.9918332554187028
 40
1.0
 40
1.0
 40
1.0
 40
1.0
 10
162.4490196112981
 20
125.5378273193816
 30
0.0
 10
162.4490253032648
 20
125.5378096736571
 30
0.0
 10
162.4490902672156
 20
125.5376082782446
 30
0.0
 10
162.4510859536515
 20
125.5314186575784
 30
0.0
 10
162.458902949868
 20
125.5072167257342
 30
0.0
 10
162.4760727736229
 20
125.4541977337326
 30
0.0
 10
162.5026566701904
 20
125.372826846536
 30
0.0
 10
162.5404859686791
 20
125.2582477745135
 30
0.0
 10
162.5687667486893
 20
125.1738225967943
 30
0.0
 10
162.5885978962206
 20
125.1153517388423
 30
0.0
 10
162.5890854303635
 20
125.1139142759033
 30
0.0
  0
ARC
  5
23F
330
1F
100
AcDbEntity
  8
0
  6
Continuous
 62
     7
370
    25
100
AcDbCircle
 10
167.688104944
 20
123.8639142759
 30
0.0
 40
5.50000000000002
100
AcDbArc
 50
17.7189318734
 51
162.2810681266
  0
SPLINE
  5
240
330
1F
100
AcDbEntity
  8
0
  6
Continuous
 62
     7
370
    25
100
AcDbSpline
210
0.0
220
0.0
230
1.0
 70
     8
 71
     3
 72
    15
 73
    11
 74
     0
 42
0.00000001
 43
0.00000001
 40
0.0
 40
0.0
 40
0.0
 40
0.0
 40
0.0081667445812973
 40
0.3321939991490812
 40
0.4756279600585594
 40
0.6866830973284901
 40
0.8457435502264811
 40
0.8967566214763184
 40
0.9909540928118028
 40
1.0
 40
1.0
 40
1.0
 40
1.0
 10
172.787124457549
 20
125.1139142759033
 30
0.0
 10
172.7876119916919
 20
125.1153517388423
 30
0.0
 10
172.8074431392232
 20
125.1738225967944
 30
0.0
 10
172.8357239192334
 20
125.2582477745135
 30
0.0
 10
172.873553217722
 20
125.372826846536
 30
0.0
 10
172.9001371142896
 20
125.4541977337326
 30
0.0
 10
172.9173069380446
 20
125.5072167257342
 30
0.0
 10
172.925123934261
 20
125.5314186575784
 30
0.0
 10
172.9271196206969
 20
125.5376082782446
 30
0.0
 10
172.9271845846477
 20
125.5378096736571
 30
0.0
 10
172.9271902766143
 20
125.5378273193816
 30
0.0
  0
ARC
  5
241
330
1F
100
AcDbEntity
  8
0
  6
Continuous
 62
     7
370
    25
100
AcDbCircle
 10
167.688104944
 20
123.8639142759
 30
0.0
 40
5.250000000000012
100
AcDbArc
 50
13.774146998
 51
166.225853002
  0
SPLINE
  5
242
330
1F
100
AcDbEntity
  8
0
  6
Continuous
 62
     7
370
    25
100
AcDbSpline
210
0.0
220
0.0
230
1.0
 70
     8
 71
     3
 72
    15
 73
    11
 74
     0
 42
0.00000001
 43
0.00000001
 40
0.0
 40
0.0
 40
0.0
 40
0.0
 40
0.0080847466189581
 40
0.3310106400648237
 40
0.4750333064304936
 40
0.6874363079215092
 40
0.8468367539418249
 40
0.9000996640391791
 40
0.9910442771984082
 40
1.0
 40
1.0
 40
1.0
 40
1.0
 10
162.5890854303635
 20
125.1139142759033
 30
0.0
 10
162.5878055988193
 20
125.1147302118916
 30
0.0
 10
162.5354059530961
 20
125.1481367620861
 30
0.0
 10
162.460050861641
 20
125.1969503268199
 30
0.0
 10
162.3581317496233
 20
125.2643207990883
 30
0.0
 10
162.2857408046314
 20
125.3129048394317
 30
0.0
 10
162.2380353763666
 20
125.3453537008903
 30
0.0
 10
162.2164998926593
 20
125.3600647419565
 30
0.0
 10
162.2110708766398
 20
125.3637831928746
 30
0.0
 10
162.2108951244832
 20
125.3639034915402
 30
0.0
 10
162.2108793689046
 20
125.3639142759033
 30
0.0
  0
ARC
  5
243
330
1F
100
AcDbEntity
  8
0
  6
Continuous
 62
     7
370
    25
100
AcDbCircle
 10
162.2108793689
 20
125.6139142759
 30
0.0
 40
0.25
100
AcDbArc
 50
270.0
 51
342.2810681266
  0
SPLINE
  5
244
330
1F
100
AcDbEntity
  8
0
  6
Continuous
 62
     7
370
    25
100
AcDbSpline
210
0.0
220
0.0
230
1.0
 70
     8
 71
     3
 72
    15
 73
    11
 74
     0
 42
0.00000001
 43
0.00000001
 40
0.0
 40
0.0
 40
0.0
 40
0.0
 40
0.0089557228015919
 40
0.0999003359608152
 40
0.1531632460581696
 40
0.3125636920784856
 40
0.5249666935695051
 40
0.6689893599351772
 40
0.9919152533810449
 40
1.0
 40
1.0
 40
1.0
 40
1.0
 10
173.1653305190079
 20
125.3639142759033
 30
0.0
 10
173.1653147634293
 20
125.3639034915402
 30
0.0
 10
173.1651390112727
 20
125.3637831928746
 30
0.0
 10
173.1597099952532
 20
125.3600647419565
 30
0.0
 10
173.1381745115459
 20
125.3453537008903
 30
0.0
 10
173.0904690832811
 20
125.3129048394317
 30
0.0
 10
173.0180781382892
 20
125.2643207990883
 30
0.0
 10
172.9161590262715
 20
125.1969503268199
 30
0.0
 10
172.8408039348164
 20
125.148136762086
 30
0.0
 10
172.7884042890931
 20
125.1147302118916
 30
0.0
 10
172.787124457549
 20
125.1139142759033
 30
0.0
  0
ARC
  5
245
330
1F
100
AcDbEntity
  8
0
  6
Continuous
 62
     7
370
    25
100
AcDbCircle
 10
173.165330519
 20
125.6139142759
 30
0.0
 40
0.2500000000000256
100
AcDbArc
 50
197.7189318734
 51
270.0
  0
SPLINE
  5
246
330
1F
100
AcDbEntity
  8
0
  6
Continuous
 62
     7
370
    25
100
AcDbSpline
210
0.0
220
0.0
230
1.0
 70
     8
 71
     3
 72
    15
 73
    11
 74
     0
 42
0.00000001
 43
0.00000001
 40
0.0
 40
0.0
 40
0.0
 40
0.0
 40
0.0081667445812695
 40
0.3321939991490075
 40
0.4756279600585577
 40
0.6866830973284901
 40
0.8457435502264808
 40
0.8967566214763126
 40
0.9909540928118029
 40
1.0
 40
1.0
 40
1.0
 40
1.0
 10
162.5890854303635
 20
122.6139142759033
 30
0.0
 10
162.5885978962206
 20
122.6124768129643
 30
0.0
 10
162.5687667486885
 20
122.5540059550126
 30
0.0
 10
162.5404859686792
 20
122.4695807772931
 30
0.0
 10
162.5026566701904
 20
122.3550017052707
 30
0.0
 10
162.4760727736229
 20
122.2736308180741
 30
0.0
 10
162.458902949868
 20
122.2206118260724
 30
0.0
 10
162.4510859536515
 20
122.1964098942282
 30
0.0
 10
162.4490902672156
 20
122.1902202735621
 30
0.0
 10
162.4490253032648
 20
122.1900188781495
 30
0.0
 10
162.4490196112981
 20
122.190001232425
 30
0.0
  0
ARC
  5
247
330
1F
100
AcDbEntity
  8
0
  6
Continuous
 62
     7
370
    25
100
AcDbCircle
 10
167.688104944
 20
123.8639142759
 30
0.0
 40
5.250000000000012
100
AcDbArc
 50
193.774146998
 51
346.225853002
  0
SPLINE
  5
248
330
1F
100
AcDbEntity
  8
0
  6
Continuous
 62
     7
370
    25
100
AcDbSpline
210
0.0
220
0.0
230
1.0
 70
     8
 71
     3
 72
    15
 73
    11
 74
     0
 42
0.00000001
 43
0.00000001
 40
0.0
 40
0.0
 40
0.0
 40
0.0
 40
0.0090459071881971
 40
0.1032433785236816
 40
0.1542564497735189
 40
0.3133169026715102
 40
0.5243720399414394
 40
0.6678060008509896
 40
0.9918332554187292
 40
1.0
 40
1.0
 40
1.0
 40
1.0
 10
172.9271902766143
 20
122.190001232425
 30
0.0
 10
172.9271845846477
 20
122.1900188781495
 30
0.0
 10
172.9271196206969
 20
122.1902202735621
 30
0.0
 10
172.925123934261
 20
122.1964098942283
 30
0.0
 10
172.9173069380446
 20
122.2206118260724
 30
0.0
 10
172.9001371142896
 20
122.2736308180741
 30
0.0
 10
172.8735532177221
 20
122.3550017052707
 30
0.0
 10
172.8357239192332
 20
122.4695807772931
 30
0.0
 10
172.807443139224
 20
122.5540059550126
 30
0.0
 10
172.7876119916919
 20
122.6124768129643
 30
0.0
 10
172.787124457549
 20
122.6139142759033
 30
0.0
  0
ARC
  5
249
330
1F
100
AcDbEntity
  8
0
  6
Continuous
 62
     7
370
    25
100
AcDbCircle
 10
167.688104944
 20
123.8639142759
 30
0.0
 40
5.500000000000025
100
AcDbArc
 50
197.7189318734
 51
342.2810681266
  0
ARC
  5
24A
330
1F
100
AcDbEntity
  8
0
  6
Continuous
 62
     7
370
    25
100
AcDbCircle
 10
162.2108793689
 20
122.1139142759
 30
0.0
 40
0.25
100
AcDbArc
 50
17.7189318734
 51
90.0
  0
SPLINE
  5
24B
330
1F
100
AcDbEntity
  8
0
  6
Continuous
 62
     7
370
    25
100
AcDbSpline
210
0.0
220
0.0
230
1.0
 70
     8
 71
     3
 72
    15
 73
    11
 74
     0
 42
0.00000001
 43
0.00000001
 40
0.0
 40
0.0
 40
0.0
 40
0.0
 40
0.0089557228015919
 40
0.0999003359608146
 40
0.1531632460581687
 40
0.3125636920784844
 40
0.524966693569502
 40
0.6689893599352451
 40
0.9919152533810159
 40
1.0
 40
1.0
 40
1.0
 40
1.0
 10
162.2108793689046
 20
122.3639142759033
 30
0.0
 10
162.2108951244832
 20
122.3639250602665
 30
0.0
 10
162.2110708766398
 20
122.364045358932
 30
0.0
 10
162.2164998926593
 20
122.3677638098501
 30
0.0
 10
162.2380353763666
 20
122.3824748509164
 30
0.0
 10
162.2857408046314
 20
122.4149237123749
 30
0.0
 10
162.3581317496233
 20
122.4635077527184
 30
0.0
 10
162.4600508616411
 20
122.5308782249865
 30
0.0
 10
162.5354059530956
 20
122.5796917897213
 30
0.0
 10
162.5878055988193
 20
122.613098339915
 30
0.0
 10
162.5890854303635
 20
122.6139142759033
 30
0.0
  0
ARC
  5
24C
330
1F
100
AcDbEntity
  8
0
  6
Continuous
 62
     7
370
    25
100
AcDbCircle
 10
173.165330519
 20
122.1139142759
 30
0.0
 40
0.2500000000000213
100
AcDbArc
 50
90.0
 51
162.2810681266
  0
SPLINE
  5
24D
330
1F
100
AcDbEntity
  8
0
  6
Continuous
 62
     7
370
    25
100
AcDbSpline
210
0.0
220
0.0
230
1.0
 70
     8
 71
     3
 72
    15
 73
    11
 74
     0
 42
0.00000001
 43
0.00000001
 40
0.0
 40
0.0
 40
0.0
 40
0.0
 40
0.0080847466189819
 40
0.3310106400647581
 40
0.4750333064304993
 40
0.6874363079215137
 40
0.8468367539418307
 40
0.9000996640391851
 40
0.991044277198408
 40
1.0
 40
1.0
 40
1.0
 40
1.0
 10
172.787124457549
 20
122.6139142759033
 30
0.0
 10
172.7884042890932
 20
122.613098339915
 30
0.0
 10
172.840803934817
 20
122.5796917897214
 30
0.0
 10
172.9161590262714
 20
122.5308782249865
 30
0.0
 10
173.0180781382892
 20
122.4635077527184
 30
0.0
 10
173.0904690832811
 20
122.4149237123749
 30
0.0
 10
173.1381745115459
 20
122.3824748509164
 30
0.0
 10
173.1597099952532
 20
122.3677638098501
 30
0.0
 10
173.1651390112727
 20
122.364045358932
 30
0.0
 10
173.1653147634293
 20
122.3639250602665
 30
0.0
 10
173.1653305190079
 20
122.3639142759033
 30
0.0
  0
LINE
  5
24E
330
1F
100
AcDbEntity
  8
0
  6
Continuous
 62
     7
370
    25
100
AcDbLine
 10
162.688104944
 20
123.2639142759
 30
0.0
 11
172.688104944
 21
123.2639142759
 31
0.0
  0
LINE
  5
24F
330
1F
100
AcDbEntity
  8
0
  6
Continuous
 62
     7
370
    25
100
AcDbLine
 10
162.688104944
 20
124.4639142759
 30
0.0
 11
162.688104944
 21
123.2639142759
 31
0.0
  0
LINE
  5
250
330
1F
100
AcDbEntity
  8
0
  6
Continuous
 62
     7
370
    25
100
AcDbLine
 10
172.688104944
 20
123.2639142759
 30
0.0
 11
172.688104944
 21
124.4639142759
 31
0.0
  0
LINE
  5
251
330
1F
100
AcDbEntity
  8
0
  6
Continuous
 62
     7
370
    25
100
AcDbLine
 10
172.688104944
 20
124.4639142759
 30
0.0
 11
162.688104944
 21
124.4639142759
 31
0.0
  0
LINE
  5
252
330
1F
100
AcDbEntity
  8
0
  6
Continuous
 62
     7
370
    25
100
AcDbLine
 10
161.938104944
 20
122.6139142759
 30
0.0
 11
162.5890854304
 21
122.6139142759
 31
0.0
  0
LINE
  5
253
330
1F
100
AcDbEntity
  8
0
  6
Continuous
 62
     7
370
    25
100
AcDbLine
 10
161.938104944
 20
125.1139142759
 30
0.0
 11
161.938104944
 21
122.6139142759
 31
0.0
  0
LINE
  5
254
330
1F
100
AcDbEntity
  8
0
  6
Continuous
 62
     7
370
    25
100
AcDbLine
 10
162.5890854304
 20
125.1139142759
 30
0.0
 11
161.938104944
 21
125.1139142759
 31
0.0
  0
LINE
  5
255
330
1F
100
AcDbEntity
  8
0
  6
Continuous
 62
     7
370
    25
100
AcDbLine
 10
173.438104944
 20
125.1139142759
 30
0.0
 11
172.7871244575
 21
125.1139142759
 31
0.0
  0
LINE
  5
256
330
1F
100
AcDbEntity
  8
0
  6
Continuous
 62
     7
370
    25
100
AcDbLine
 10
173.438104944
 20
122.6139142759
 30
0.0
 11
173.438104944
 21
125.1139142759
 31
0.0
  0
LINE
  5
257
330
1F
100
AcDbEntity
  8
0
  6
Continuous
 62
     7
370
    25
100
AcDbLine
 10
172.7871244575
 20
122.6139142759
 30
0.0
 11
173.438104944
 21
122.6139142759
 31
0.0
  0
LINE
  5
258
330
1F
100
AcDbEntity
  8
0
  6
Continuous
 62
     7
370
    25
100
AcDbLine
 10
161.938104944
 20
125.3639142759
 30
0.0
 11
161.938104944
 21
125.1139142759
 31
0.0
  0
LINE
  5
259
330
1F
100
AcDbEntity
  8
0
  6
Continuous
 62
     7
370
    25
100
AcDbLine
 10
161.938104944
 20
125.3639142759
 30
0.0
 11
162.2108793689
 21
125.3639142759
 31
0.0
  0
ARC
  5
25A
330
1F
100
AcDbEntity
  8
0
  6
Continuous
 62
     7
370
    25
100
AcDbCircle
 10
161.938104944
 20
125.1139142759
 30
0.0
 40
0.25
100
AcDbArc
 50
90.0
 51
180.0
  0
LINE
  5
25B
330
1F
100
AcDbEntity
  8
0
  6
Continuous
 62
     7
370
    25
100
AcDbLine
 10
161.938104944
 20
125.1139142759
 30
0.0
 11
161.688104944
 21
125.1139142759
 31
0.0
  0
LINE
  5
25C
330
1F
100
AcDbEntity
  8
0
  6
Continuous
 62
     7
370
    25
100
AcDbLine
 10
173.688104944
 20
125.1139142759
 30
0.0
 11
173.438104944
 21
125.1139142759
 31
0.0
  0
LINE
  5
25D
330
1F
100
AcDbEntity
  8
0
  6
Continuous
 62
     7
370
    25
100
AcDbLine
 10
173.438104944
 20
125.1139142759
 30
0.0
 11
173.438104944
 21
125.3639142759
 31
0.0
  0
ARC
  5
25E
330
1F
100
AcDbEntity
  8
0
  6
Continuous
 62
     7
370
    25
100
AcDbCircle
 10
173.438104944
 20
125.1139142759
 30
0.0
 40
0.25
100
AcDbArc
 50
0.0
 51
90.0
  0
LINE
  5
25F
330
1F
100
AcDbEntity
  8
0
  6
Continuous
 62
     7
370
    25
100
AcDbLine
 10
173.165330519
 20
125.3639142759
 30
0.0
 11
173.438104944
 21
125.3639142759
 31
0.0
  0
LINE
  5
260
330
1F
100
AcDbEntity
  8
0
  6
Continuous
 62
     7
370
    25
100
AcDbLine
 10
173.688104944
 20
125.1139142759
 30
0.0
 11
173.688104944
 21
122.6139142759
 31
0.0
  0
LINE
  5
261
330
1F
100
AcDbEntity
  8
0
  6
Continuous
 62
     7
370
    25
100
AcDbLine
 10
173.438104944
 20
122.6139142759
 30
0.0
 11
173.688104944
 21
122.6139142759
 31
0.0
  0
LINE
  5
262
330
1F
100
AcDbEntity
  8
0
  6
Continuous
 62
     7
370
    25
100
AcDbLine
 10
161.688104944
 20
122.6139142759
 30
0.0
 11
161.938104944
 21
122.6139142759
 31
0.0
  0
LINE
  5
263
330
1F
100
AcDbEntity
  8
0
  6
Continuous
 62
     7
370
    25
100
AcDbLine
 10
161.688104944
 20
122.6139142759
 30
0.0
 11
161.688104944
 21
125.1139142759
 31
0.0
  0
LINE
  5
264
330
1F
100
AcDbEntity
  8
0
  6
Continuous
 62
     7
370
    25
100
AcDbLine
 10
173.438104944
 20
122.3639142759
 30
0.0
 11
173.438104944
 21
122.6139142759
 31
0.0
  0
ARC
  5
265
330
1F
100
AcDbEntity
  8
0
  6
Continuous
 62
     7
370
    25
100
AcDbCircle
 10
173.438104944
 20
122.6139142759
 30
0.0
 40
0.25
100
AcDbArc
 50
270.0
 51
0.0
  0
LINE
  5
266
330
1F
100
AcDbEntity
  8
0
  6
Continuous
 62
     7
370
    25
100
AcDbLine
 10
173.438104944
 20
122.3639142759
 30
0.0
 11
173.165330519
 21
122.3639142759
 31
0.0
  0
LINE
  5
267
330
1F
100
AcDbEntity
  8
0
  6
Continuous
 62
     7
370
    25
100
AcDbLine
 10
161.938104944
 20
122.6139142759
 30
0.0
 11
161.938104944
 21
122.3639142759
 31
0.0
  0
LINE
  5
268
330
1F
100
AcDbEntity
  8
0
  6
Continuous
 62
     7
370
    25
100
AcDbLine
 10
162.2108793689
 20
122.3639142759
 30
0.0
 11
161.938104944
 21
122.3639142759
 31
0.0
  0
ARC
  5
269
330
1F
100
AcDbEntity
  8
0
  6
Continuous
 62
     7
370
    25
100
AcDbCircle
 10
161.938104944
 20
122.6139142759
 30
0.0
 40
0.25
100
AcDbArc
 50
180.0
 51
270.0
  0
LINE
  5
26A
330
1F
100
AcDbEntity
  8
0
  6
Continuous
 62
     7
370
    25
100
AcDbLine
 10
147.688104944
 20
127.13561354
 30
0.0
 11
145.5126680824
 21
127.3639142759
 31
0.0
  0
LINE
  5
26B
330
1F
100
AcDbEntity
  8
0
  6
Continuous
 62
     7
370
    25
100
AcDbLine
 10
147.688104944
 20
120.5922150118
 30
0.0
 11
147.688104944
 21
127.13561354
 31
0.0
  0
LINE
  5
26C
330
1F
100
AcDbEntity
  8
0
  6
Continuous
 62
     7
370
    25
100
AcDbLine
 10
145.5126680824
 20
120.3639142759
 30
0.0
 11
147.688104944
 21
120.5922150118
 31
0.0
  0
LINE
  5
26D
330
1F
100
AcDbEntity
  8
0
  6
Continuous
 62
     7
370
    25
100
AcDbLine
 10
127.688104944
 20
120.3639142759
 30
0.0
 11
145.5126680824
 21
120.3639142759
 31
0.0
  0
LINE
  5
26E
330
1F
100
AcDbEntity
  8
0
  6
Continuous
 62
     7
370
    25
100
AcDbLine
 10
145.5126680824
 20
127.3639142759
 30
0.0
 11
127.688104944
 21
127.3639142759
 31
0.0
  0
LINE
  5
26F
330
1F
100
AcDbEntity
  8
0
  6
Continuous
 62
     7
370
    25
100
AcDbLine
 10
127.688104944
 20
127.3639142759
 30
0.0
 11
127.688104944
 21
120.3639142759
 31
0.0
  0
LINE
  5
270
330
1F
100
AcDbEntity
  8
0
  6
Continuous
 62
     7
370
    25
100
AcDbLine
 10
162.4643027696
 20
125.5849287567
 30
0.0
 11
162.3677384523
 21
125.4255294365
 31
0.0
  0
LINE
  5
271
330
1F
100
AcDbEntity
  8
0
  6
Continuous
 62
     7
370
    25
100
AcDbLine
 10
162.3454610717
 20
122.3186966085
 30
0.0
 11
162.4643027696
 21
122.1428997951
 31
0.0
  0
LINE
  5
272
330
1F
100
AcDbEntity
  8
0
  6
Continuous
 62
     7
370
    25
100
AcDbLine
 10
154.2715352904
 20
126.4447169115
 30
0.0
 11
154.2715352904
 21
121.2831116403
 31
0.0
  0
LINE
  5
273
330
1F
100
AcDbEntity
  8
0
  6
Continuous
 62
     7
370
    25
100
AcDbLine
 10
162.4643027696
 20
122.1428997951
 30
0.0
 11
154.2715352904
 21
121.2831116403
 31
0.0
  0
LINE
  5
274
330
1F
100
AcDbEntity
  8
0
  6
Continuous
 62
     7
370
    25
100
AcDbLine
 10
154.2715352904
 20
126.4447169115
 30
0.0
 11
162.4643027696
 21
125.5849287567
 31
0.0
  0
LINE
  5
275
330
1F
100
AcDbEntity
  8
0
  6
Continuous
 62
     7
370
    25
100
AcDbLine
 10
154.2715352904
 20
121.2831116403
 30
0.0
 11
147.688104944
 21
120.5922150118
 31
0.0
  0
LINE
  5
276
330
1F
100
AcDbEntity
  8
0
  6
Continuous
 62
     7
370
    25
100
AcDbLine
 10
147.688104944
 20
127.13561354
 30
0.0
 11
154.2715352904
 21
126.4447169115
 31
0.0
  0
ARC
  5
277
330
1F
100
AcDbEntity
  8
0
  6
Continuous
 62
     7
370
    25
100
AcDbCircle
 10
167.688104944
 20
123.8639142759
 30
0.0
 40
7.450000000000656
100
AcDbArc
 50
233.0863788866
 51
126.9136211134
  0
ARC
  5
278
330
1F
100
AcDbEntity
  8
0
  6
Continuous
 62
     7
370
    25
100
AcDbCircle
 10
167.688104944
 20
123.8639142759
 30
0.0
 40
7.207531252870806
100
AcDbArc
 50
195.3041237151
 51
238.9797515565
  0
ARC
  5
279
330
1F
100
AcDbEntity
  8
0
  6
Continuous
 62
     7
370
    25
100
AcDbCircle
 10
167.688104944
 20
123.8639142759
 30
0.0
 40
7.207531252872454
100
AcDbArc
 50
121.0202484435
 51
164.6958762849
  0
ARC
  5
27A
330
1F
100
AcDbEntity
  8
0
  6
Continuous
 62
     7
370
    25
100
AcDbCircle
 10
145.5126680824
 20
192.3639142759
 30
0.0
 40
64.99999999999999
100
AcDbArc
 50
270.0
 51
286.5000949923
  0
ARC
  5
27B
330
1F
100
AcDbEntity
  8
0
  6
Continuous
 62
     7
370
    25
100
AcDbCircle
 10
145.5126680824
 20
55.3639142759
 30
0.0
 40
65.0
100
AcDbArc
 50
73.4999050077
 51
90.0
  0
SPLINE
  5
27C
330
1F
100
AcDbEntity
  8
0
  6
Continuous
 62
     7
370
    25
100
AcDbSpline
210
0.0
220
0.0
230
1.0
 70
     8
 71
     3
 72
    12
 73
     8
 74
     0
 42
0.00000001
 43
0.00000001
 40
0.0
 40
0.0
 40
0.0
 40
0.0
 40
0.1684163411452855
 40
0.3367902904656618
 40
0.5093379512424927
 40
0.6818869650201569
 40
1.0
 40
1.0
 40
1.0
 40
1.0
 10
185.2514194792491
 20
116.4540211947967
 30
0.0
 10
185.1660981325285
 20
116.80433087003
 30
0.0
 10
184.9954769151957
 20
117.504862044573
 30
0.0
 10
184.844923199854
 20
118.5809883544623
 30
0.0
 10
184.7954651823015
 20
119.6721351208063
 30
0.0
 10
184.8635293492603
 20
121.0832479718299
 30
0.0
 10
185.0931704706898
 20
122.1087593349129
 30
0.0
 10
185.2420546859641
 20
122.773633524679
 30
0.0
  0
SPLINE
  5
27D
330
1F
100
AcDbEntity
  8
0
  6
Continuous
 62
     7
370
    25
100
AcDbSpline
210
0.0
220
0.0
230
1.0
 70
     8
 71
     3
 72
     9
 73
     5
 74
     0
 42
0.00000001
 43
0.00000001
 40
0.0
 40
0.0
 40
0.0
 40
0.0
 40
0.4965031368291203
 40
1.0
 40
1.0
 40
1.0
 40
1.0
 10
185.2562477210907
 20
115.3638273597379
 30
0.0
 10
185.2554081264838
 20
115.5164635663098
 30
0.0
 10
185.2537171107689
 20
115.8238860078814
 30
0.0
 10
185.2521889190074
 20
116.242999078451
 30
0.0
 10
185.2514194792491
 20
116.4540211947967
 30
0.0
  0
SPLINE
  5
27E
330
1F
100
AcDbEntity
  8
0
  6
Continuous
 62
     7
370
    25
100
AcDbSpline
210
0.0
220
0.0
230
1.0
 70
    24
 71
     3
 72
    10
 73
     6
 74
     0
 42
0.00000001
 43
0.00000001
 40
0.0
 40
0.0
 40
0.0
 40
0.0
 40
0.2026983695205363
 40
0.5428257192200397
 40
1.0
 40
1.0
 40
1.0
 40
1.0
 10
184.8451671220667
 20
115.3638273597379
 30
0.0
 10
184.8441245453545
 20
115.3638273597379
 30
0.0
 10
184.841332527565
 20
115.3638273597379
 30
0.0
 10
184.9590968173235
 20
115.3638273597379
 30
0.0
 10
185.1479556849555
 20
115.3638273597379
 30
0.0
 10
185.2562477210907
 20
115.3638273597379
 30
0.0
  0
SPLINE
  5
27F
330
1F
100
AcDbEntity
  8
0
  6
Continuous
 62
     7
370
    25
100
AcDbSpline
210
0.0
220
0.0
230
1.0
 70
    24
 71
     3
 72
    10
 73
     6
 74
     0
 42
0.00000001
 43
0.00000001
 40
0.0
 40
0.0
 40
0.0
 40
0.0
 40
0.4571941636583859
 40
0.788781348387655
 40
1.0
 40
1.0
 40
1.0
 40
1.0
 10
185.2561553363399
 20
132.3638273597379
 30
0.0
 10
185.1477305345316
 20
132.3638273597379
 30
0.0
 10
184.9606689572694
 20
132.3638273597379
 30
0.0
 10
184.8427722870872
 20
132.3638273597379
 30
0.0
 10
184.8436138643295
 20
132.3638273597379
 30
0.0
 10
184.843941342036
 20
132.3638273597379
 30
0.0
  0
SPLINE
  5
280
330
1F
100
AcDbEntity
  8
0
  6
Continuous
 62
     7
370
    25
100
AcDbSpline
210
0.0
220
0.0
230
1.0
 70
     8
 71
     3
 72
     9
 73
     5
 74
     0
 42
0.00000001
 43
0.00000001
 40
0.0
 40
0.0
 40
0.0
 40
0.0
 40
0.4965031343123559
 40
1.0
 40
1.0
 40
1.0
 40
1.0
 10
185.2513388706765
 20
131.273633524679
 30
0.0
 10
185.2520951221691
 20
131.4818404876247
 30
0.0
 10
185.253618277695
 20
131.9011872118583
 30
0.0
 10
185.2553057162941
 20
132.2088966314373
 30
0.0
 10
185.2561553363399
 20
132.3638273597379
 30
0.0
  0
SPLINE
  5
281
330
1F
100
AcDbEntity
  8
0
  6
Continuous
 62
     7
370
    25
100
AcDbSpline
210
0.0
220
0.0
230
1.0
 70
     8
 71
     3
 72
    12
 73
     8
 74
     0
 42
0.00000001
 43
0.00000001
 40
0.0
 40
0.0
 40
0.0
 40
0.0
 40
0.168123131245374
 40
0.336204308051493
 40
0.5084605368611831
 40
0.6807191199800867
 40
0.9999999999999999
 40
0.9999999999999999
 40
0.9999999999999999
 40
0.9999999999999999
 10
185.2420428053323
 20
124.9540211947968
 30
0.0
 10
185.1577347420605
 20
125.3038792278927
 30
0.0
 10
184.989139654249
 20
126.0035079884443
 30
0.0
 10
184.841873693606
 20
127.0781018589353
 30
0.0
 10
184.7956190311054
 20
128.167492960539
 30
0.0
 10
184.8676122772504
 20
129.5796899325491
 30
0.0
 10
185.1002368843118
 20
130.6066006790398
 30
0.0
 10
185.2513388706765
 20
131.273633524679
 30
0.0
  0
SPLINE
  5
282
330
1F
100
AcDbEntity
  8
0
  6
Continuous
 62
     7
370
    25
100
AcDbSpline
210
0.0
220
0.0
230
1.0
 70
     8
 71
     3
 72
     9
 73
     5
 74
     0
 42
0.00000001
 43
0.00000001
 40
0.0
 40
0.0
 40
0.0
 40
0.0
 40
0.49650310131651
 40
1.0
 40
1.0
 40
1.0
 40
1.0
 10
185.2420546859641
 20
122.773633524679
 30
0.0
 10
185.2419706006386
 20
123.1344766683322
 30
0.0
 10
185.2418012455523
 20
123.8612458319011
 30
0.0
 10
185.2419619108521
 20
124.5880683240875
 30
0.0
 10
185.2420428053323
 20
124.9540211947968
 30
0.0
  0
LINE
  5
283
330
1F
100
AcDbEntity
  8
0
  6
Continuous
 62
     7
370
    25
100
AcDbLine
 10
184.688104944
 20
115.6139142759
 30
0.0
 11
184.688104944
 21
132.1139142759
 31
0.0
  0
SPLINE
  5
284
330
1F
100
AcDbEntity
  8
0
  6
Continuous
 62
     7
370
    25
100
AcDbSpline
210
0.0
220
0.0
230
1.0
 70
     8
 71
     3
 72
    12
 73
     8
 74
     0
 42
0.00000001
 43
0.00000001
 40
0.0
 40
0.0
 40
0.0
 40
0.0
 40
0.1684137776957918
 40
0.3367851652016844
 40
0.5093302250217296
 40
0.6818766406170169
 40
1.0
 40
1.0
 40
1.0
 40
1.0
 10
194.124871017236
 20
131.273633524679
 30
0.0
 10
194.2101886879187
 20
130.9233286926438
 30
0.0
 10
194.3808025546023
 20
130.2228072012192
 30
0.0
 10
194.5313456309747
 20
129.1466961641391
 30
0.0
 10
194.5807942727316
 20
128.0555654475451
 30
0.0
 10
194.5127188652839
 20
126.6444419034048
 30
0.0
 10
194.2830632090406
 20
125.6189159518692
 30
0.0
 10
194.1341670825802
 20
124.9540211947968
 30
0.0
  0
SPLINE
  5
285
330
1F
100
AcDbEntity
  8
0
  6
Continuous
 62
     7
370
    25
100
AcDbSpline
210
0.0
220
0.0
230
1.0
 70
     8
 71
     3
 72
     9
 73
     5
 74
     0
 42
0.00000001
 43
0.00000001
 40
0.0
 40
0.0
 40
0.0
 40
0.0
 40
0.4965031366680178
 40
1.0
 40
1.0
 40
1.0
 40
1.0
 10
194.1200545515726
 20
132.3638273597379
 30
0.0
 10
194.1208925014007
 20
132.2111911534451
 30
0.0
 10
194.1225802043904
 20
131.9037687123361
 30
0.0
 10
194.1241038609417
 20
131.4846556413181
 30
0.0
 10
194.124871017236
 20
131.273633524679
 30
0.0
  0
SPLINE
  5
286
330
1F
100
AcDbEntity
  8
0
  6
Continuous
 62
     7
370
    25
100
AcDbSpline
210
0.0
220
0.0
230
1.0
 70
    24
 71
     3
 72
    10
 73
     6
 74
     0
 42
0.00000001
 43
0.00000001
 40
0.0
 40
0.0
 40
0.0
 40
0.0
 40
0.2026751525766265
 40
0.542796386962209
 40
1.0
 40
1.0
 40
1.0
 40
1.0
 10
194.5311427133256
 20
132.3638273597379
 30
0.0
 10
194.5321861758689
 20
132.3638273597379
 30
0.0
 10
194.5349807350006
 20
132.3638273597379
 30
0.0
 10
194.4172207511951
 20
132.3638273597379
 30
0.0
 10
194.2283545737898
 20
132.3638273597379
 30
0.0
 10
194.1200545515726
 20
132.3638273597379
 30
0.0
  0
SPLINE
  5
287
330
1F
100
AcDbEntity
  8
0
  6
Continuous
 62
     7
370
    25
100
AcDbSpline
210
0.0
220
0.0
230
1.0
 70
    24
 71
     3
 72
    10
 73
     6
 74
     0
 42
0.00000001
 43
0.00000001
 40
0.0
 40
0.0
 40
0.0
 40
0.0
 40
0.4571648320796964
 40
0.7887579952470644
 40
1.0
 40
1.0
 40
1.0
 40
1.0
 10
194.1199621668218
 20
115.3638273597379
 30
0.0
 10
194.2283789634711
 20
115.3638273597379
 30
0.0
 10
194.4154331924397
 20
115.3638273597379
 30
0.0
 10
194.5333342081688
 20
115.3638273597379
 30
0.0
 10
194.5324952956911
 20
115.3638273597379
 30
0.0
 10
194.5321688364562
 20
115.3638273597379
 30
0.0
  0
SPLINE
  5
288
330
1F
100
AcDbEntity
  8
0
  6
Continuous
 62
     7
370
    25
100
AcDbSpline
210
0.0
220
0.0
230
1.0
 70
     8
 71
     3
 72
     9
 73
     5
 74
     0
 42
0.00000001
 43
0.00000001
 40
0.0
 40
0.0
 40
0.0
 40
0.0
 40
0.4965031344853179
 40
1.0
 40
1.0
 40
1.0
 40
1.0
 10
194.1247904086634
 20
116.4540211947967
 30
0.0
 10
194.1240319041514
 20
116.2458142320079
 30
0.0
 10
194.1225042108513
 20
115.826467508236
 30
0.0
 10
194.1208134563923
 20
115.5187580882102
 30
0.0
 10
194.1199621668218
 20
115.3638273597379
 30
0.0
  0
SPLINE
  5
289
330
1F
100
AcDbEntity
  8
0
  6
Continuous
 62
     7
370
    25
100
AcDbSpline
210
0.0
220
0.0
230
1.0
 70
     8
 71
     3
 72
    12
 73
     8
 74
     0
 42
0.00000001
 43
0.00000001
 40
0.0
 40
0.0
 40
0.0
 40
0.0
 40
0.1681235458336802
 40
0.3362051388288545
 40
0.5084618328601784
 40
0.6807208858054717
 40
0.9999999999999999
 40
0.9999999999999999
 40
0.9999999999999999
 40
0.9999999999999999
 10
194.1341552019484
 20
122.773633524679
 30
0.0
 10
194.2184594671618
 20
122.4237739514527
 30
0.0
 10
194.3870469606587
 20
121.7241421074782
 30
0.0
 10
194.5342993028248
 20
120.6495441846333
 30
0.0
 10
194.5805397038545
 20
119.5601499015927
 30
0.0
 10
194.5085287558576
 20
118.1479556928533
 30
0.0
 10
194.2758967582629
 20
117.1210492891573
 30
0.0
 10
194.1247904086634
 20
116.4540211947967
 30
0.0
  0
SPLINE
  5
28A
330
1F
100
AcDbEntity
  8
0
  6
Continuous
 62
     7
370
    25
100
AcDbSpline
210
0.0
220
0.0
230
1.0
 70
     8
 71
     3
 72
     9
 73
     5
 74
     0
 42
0.00000001
 43
0.00000001
 40
0.0
 40
0.0
 40
0.0
 40
0.0
 40
0.4965031013048033
 40
1.0
 40
1.0
 40
1.0
 40
1.0
 10
194.1341670825802
 20
124.9540211947968
 30
0.0
 10
194.134247235538
 20
124.5931780502572
 30
0.0
 10
194.1344086704969
 20
123.866408884886
 30
0.0
 10
194.1342400844833
 20
123.1395863944936
 30
0.0
 10
194.1341552019484
 20
122.773633524679
 30
0.0
  0
LINE
  5
28B
330
1F
100
AcDbEntity
  8
0
  6
Continuous
 62
     7
370
    25
100
AcDbLine
 10
194.688104944
 20
132.1139142759
 30
0.0
 11
194.688104944
 21
115.6139142759
 31
0.0
  0
LINE
  5
28C
330
1F
100
AcDbEntity
  8
0
  6
Continuous
 62
     7
370
    25
100
AcDbLine
 10
185.2420428053
 20
124.9540211948
 30
0.0
 11
194.1341670826
 21
124.9540211948
 31
0.0
  0
LINE
  5
28D
330
1F
100
AcDbEntity
  8
0
  6
Continuous
 62
     7
370
    25
100
AcDbLine
 10
185.242054686
 20
122.7736335247
 30
0.0
 11
194.1341552019
 21
122.7736335247
 31
0.0
  0
LINE
  5
28E
330
1F
100
AcDbEntity
  8
0
  6
Continuous
 62
     7
370
    25
100
AcDbLine
 10
185.2513388707
 20
131.2736335247
 30
0.0
 11
194.1248710172
 21
131.2736335247
 31
0.0
  0
LINE
  5
28F
330
1F
100
AcDbEntity
  8
0
  6
Continuous
 62
     7
370
    25
100
AcDbLine
 10
185.2514194792
 20
116.4540211948
 30
0.0
 11
194.1247904087
 21
116.4540211948
 31
0.0
  0
LINE
  5
290
330
1F
100
AcDbEntity
  8
0
  6
Continuous
 62
     7
370
    25
100
AcDbLine
 10
180.188104944
 20
132.1139142759
 30
0.0
 11
180.188104944
 21
115.6139142759
 31
0.0
  0
LINE
  5
291
330
1F
100
AcDbEntity
  8
0
  6
Continuous
 62
     7
370
    25
100
AcDbLine
 10
179.688104944
 20
116.1139142759
 30
0.0
 11
179.688104944
 21
131.6139142759
 31
0.0
  0
LINE
  5
292
330
1F
100
AcDbEntity
  8
0
  6
Continuous
 62
     7
370
    25
100
AcDbLine
 10
185.2561553363
 20
132.3638273597
 30
0.0
 11
194.1200545516
 21
132.3638273597
 31
0.0
  0
LINE
  5
293
330
1F
100
AcDbEntity
  8
0
  6
Continuous
 62
     7
370
    25
100
AcDbLine
 10
185.2562477211
 20
115.3638273597
 30
0.0
 11
194.1199621668
 21
115.3638273597
 31
0.0
  0
LINE
  5
294
330
1F
100
AcDbEntity
  8
0
  6
Continuous
 62
     7
370
    25
100
AcDbLine
 10
203.3331568845
 20
128.6461939028
 30
0.0
 11
203.3331568845
 21
119.081634649
 31
0.0
  0
LINE
  5
295
330
1F
100
AcDbEntity
  8
0
  6
Continuous
 62
     7
370
    25
100
AcDbLine
 10
204.688104944
 20
127.8639142759
 30
0.0
 11
204.688104944
 21
119.8639142759
 31
0.0
  0
SPLINE
  5
296
330
1F
100
AcDbEntity
  8
0
  6
Continuous
 62
     7
370
    25
100
AcDbSpline
210
0.0
220
0.0
230
1.0
 70
     8
 71
     3
 72
     8
 73
     4
 74
     0
 42
0.00000001
 43
0.00000001
 40
0.0
 40
0.0
 40
0.0
 40
0.0
 40
1.0
 40
1.0
 40
1.0
 40
1.0
 10
160.0909038185845
 20
116.0098199469374
 30
0.0
 10
160.1587402366804
 20
116.2487846472326
 30
0.0
 10
160.1881049439562
 20
116.4925813971339
 30
0.0
 10
160.1881049439562
 20
116.7400108549602
 30
0.0
  0
SPLINE
  5
297
330
1F
100
AcDbEntity
  8
0
  6
Continuous
 62
     7
370
    25
100
AcDbSpline
210
0.0
220
0.0
230
1.0
 70
     8
 71
     3
 72
    14
 73
    10
 74
     0
 42
0.00000001
 43
0.00000001
 40
0.0
 40
0.0
 40
0.0
 40
0.0
 40
0.25
 40
0.25
 40
0.5
 40
0.5
 40
0.75
 40
0.75
 40
1.0
 40
1.0
 40
1.0
 40
1.0
 10
159.9590188759161
 20
115.1014530965525
 30
0.0
 10
159.9314978880763
 20
115.1131598921031
 30
0.0
 10
159.9115779661585
 20
115.1452018451919
 30
0.0
 10
159.8959109242454
 20
115.2445255958894
 30
0.0
 10
159.9004027560471
 20
115.3123490386928
 30
0.0
 10
159.9316591013863
 20
115.4747906561484
 30
0.0
 10
159.9580316848291
 20
115.5692360528938
 30
0.0
 10
160.0208682361383
 20
115.7774651604922
 30
0.0
 10
160.0569078150981
 20
115.89006355336
 30
0.0
 10
160.0909038185845
 20
116.0098199469374
 30
0.0
  0
SPLINE
  5
298
330
1F
100
AcDbEntity
  8
0
  6
Continuous
 62
     7
370
    25
100
AcDbSpline
210
0.0
220
0.0
230
1.0
 70
     8
 71
     3
 72
    12
 73
     8
 74
     0
 42
0.00000001
 43
0.00000001
 40
0.0
 40
0.0
 40
0.0
 40
0.0
 40
0.5
 40
0.5
 40
0.75
 40
0.75
 40
1.0
 40
1.0
 40
1.0
 40
1.0
 10
160.1881049439562
 20
114.8639142759033
 30
0.0
 10
160.1881049439562
 20
114.8639142759033
 30
0.0
 10
160.1926623389733
 20
114.8869967424236
 30
0.0
 10
160.1654786744886
 20
114.9500959952775
 30
0.0
 10
160.150029003512
 20
114.9757503589513
 30
0.0
 10
160.0871654017282
 20
115.0341028872948
 30
0.0
 10
160.0401354783711
 20
115.0669479586474
 30
0.0
 10
159.9590188759161
 20
115.1014530965525
 30
0.0
  0
SPLINE
  5
299
330
1F
100
AcDbEntity
  8
0
  6
Continuous
 62
     7
370
    25
100
AcDbSpline
210
0.0
220
0.0
230
1.0
 70
     8
 71
     3
 72
    12
 73
     8
 74
     0
 42
0.00000001
 43
0.00000001
 40
0.0
 40
0.0
 40
0.0
 40
0.0
 40
0.2499999999999999
 40
0.2499999999999999
 40
0.4999999999999998
 40
0.4999999999999998
 40
1.0
 40
1.0
 40
1.0
 40
1.0
 10
159.9590188759161
 20
132.6263754552541
 30
0.0
 10
160.0405841850063
 20
132.6610714626466
 30
0.0
 10
160.0870797793138
 20
132.6936718519709
 30
0.0
 10
160.1499101021841
 20
132.7519422416676
 30
0.0
 10
160.165406636544
 20
132.7776043063026
 30
0.0
 10
160.1926660654236
 20
132.8407628283931
 30
0.0
 10
160.1881049439562
 20
132.8639142759033
 30
0.0
 10
160.1881049439562
 20
132.8639142759033
 30
0.0
  0
SPLINE
  5
29A
330
1F
100
AcDbEntity
  8
0
  6
Continuous
 62
     7
370
    25
100
AcDbSpline
210
0.0
220
0.0
230
1.0
 70
     8
 71
     3
 72
    12
 73
     8
 74
     0
 42
0.00000001
 43
0.00000001
 40
0.0
 40
0.0
 40
0.0
 40
0.0
 40
0.5000000000000011
 40
0.5000000000000011
 40
0.7500000000000006
 40
0.7500000000000006
 40
1.0
 40
1.0
 40
1.0
 40
1.0
 10
160.0909038185845
 20
131.7180086048692
 30
0.0
 10
160.0230340583344
 20
131.9570907582685
 30
0.0
 10
159.9469995068993
 20
132.1728608654554
 30
0.0
 10
159.9003549084416
 20
132.4159554582179
 30
0.0
 10
159.8959159119303
 20
132.4836207337159
 30
0.0
 10
159.911646525818
 20
132.5827738499009
 30
0.0
 10
159.9315269558419
 20
132.6146810244627
 30
0.0
 10
159.9590188759161
 20
132.6263754552541
 30
0.0
  0
SPLINE
  5
29B
330
1F
100
AcDbEntity
  8
0
  6
Continuous
 62
     7
370
    25
100
AcDbSpline
210
0.0
220
0.0
230
1.0
 70
     8
 71
     3
 72
     8
 73
     4
 74
     0
 42
0.00000001
 43
0.00000001
 40
0.0
 40
0.0
 40
0.0
 40
0.0
 40
1.0
 40
1.0
 40
1.0
 40
1.0
 10
160.1881049439562
 20
130.9878176968464
 30
0.0
 10
160.1881049439562
 20
131.2352471546727
 30
0.0
 10
160.1587402366804
 20
131.479043904574
 30
0.0
 10
160.0909038185845
 20
131.7180086048692
 30
0.0
  0
LINE
  5
29C
330
1F
100
AcDbEntity
  8
0
  6
Continuous
 62
     7
370
    25
100
AcDbLine
 10
160.188104944
 20
130.9878176968
 30
0.0
 11
160.188104944
 21
129.0422627425
 31
0.0
  0
LINE
  5
29D
330
1F
100
AcDbEntity
  8
0
  6
Continuous
 62
     7
370
    25
100
AcDbLine
 10
160.188104944
 20
118.6855658093
 30
0.0
 11
160.188104944
 21
116.740010855
 31
0.0
  0
LINE
  5
29E
330
1F
100
AcDbEntity
  8
0
  6
Continuous
 62
     7
370
    25
100
AcDbLine
 10
157.938104944
 20
134.3639142759
 30
0.0
 11
157.938104944
 21
128.5625936093
 31
0.0
  0
LINE
  5
29F
330
1F
100
AcDbEntity
  8
0
  6
Continuous
 62
     7
370
    25
100
AcDbLine
 10
157.938104944
 20
119.1652349425
 30
0.0
 11
157.938104944
 21
113.3639142759
 31
0.0
  0
LINE
  5
2A0
330
1F
100
AcDbEntity
  8
0
  6
Continuous
 62
     7
370
    25
100
AcDbLine
 10
157.688104944
 20
113.6139142759
 30
0.0
 11
157.688104944
 21
119.213414957
 31
0.0
  0
LINE
  5
2A1
330
1F
100
AcDbEntity
  8
0
  6
Continuous
 62
     7
370
    25
100
AcDbLine
 10
157.688104944
 20
128.5144135948
 30
0.0
 11
157.688104944
 21
134.1139142759
 31
0.0
  0
LINE
  5
2A2
330
1F
100
AcDbEntity
  8
0
  6
Continuous
 62
     7
370
    25
100
AcDbLine
 10
177.6385114883
 20
113.8639142759
 30
0.0
 11
177.6385114883
 21
133.8639142759
 31
0.0
  0
LINE
  5
2A3
330
1F
100
AcDbEntity
  8
0
  6
Continuous
 62
     7
370
    25
100
AcDbLine
 10
175.5700709552
 20
133.8639142759
 30
0.0
 11
175.5700709552
 21
113.8639142759
 31
0.0
  0
SPLINE
  5
2A4
330
1F
100
AcDbEntity
  8
0
  6
Continuous
 62
     7
370
    25
100
AcDbSpline
210
0.0
220
0.0
230
1.0
 70
     8
 71
     3
 72
     8
 73
     4
 74
     0
 42
0.00000001
 43
0.00000001
 40
0.0
 40
0.0
 40
0.0
 40
0.0
 40
1.0
 40
1.0
 40
1.0
 40
1.0
 10
175.285306069328
 20
131.7180086048692
 30
0.0
 10
175.2174696512321
 20
131.479043904574
 30
0.0
 10
175.1881049439563
 20
131.2352471546727
 30
0.0
 10
175.1881049439563
 20
130.9878176968464
 30
0.0
  0
SPLINE
  5
2A5
330
1F
100
AcDbEntity
  8
0
  6
Continuous
 62
     7
370
    25
100
AcDbSpline
210
0.0
220
0.0
230
1.0
 70
     8
 71
     3
 72
    12
 73
     8
 74
     0
 42
0.00000001
 43
0.00000001
 40
0.0
 40
0.0
 40
0.0
 40
0.0
 40
0.2499999999999994
 40
0.2499999999999994
 40
0.4999999999999989
 40
0.4999999999999989
 40
1.0
 40
1.0
 40
1.0
 40
1.0
 10
175.4171910119964
 20
132.6263754552541
 30
0.0
 10
175.4446829320706
 20
132.6146810244627
 30
0.0
 10
175.4645633620945
 20
132.5827738499009
 30
0.0
 10
175.4802939759822
 20
132.4836207337159
 30
0.0
 10
175.4758549794709
 20
132.4159554582179
 30
0.0
 10
175.4292103810133
 20
132.1728608654554
 30
0.0
 10
175.353175829578
 20
131.9570907582685
 30
0.0
 10
175.285306069328
 20
131.7180086048692
 30
0.0
  0
SPLINE
  5
2A6
330
1F
100
AcDbEntity
  8
0
  6
Continuous
 62
     7
370
    25
100
AcDbSpline
210
0.0
220
0.0
230
1.0
 70
     8
 71
     3
 72
    12
 73
     8
 74
     0
 42
0.00000001
 43
0.00000001
 40
0.0
 40
0.0
 40
0.0
 40
0.0
 40
0.5
 40
0.5
 40
0.75
 40
0.75
 40
1.0
 40
1.0
 40
1.0
 40
1.0
 10
175.1881049439563
 20
132.8639142759033
 30
0.0
 10
175.1881049439563
 20
132.8639142759033
 30
0.0
 10
175.1835475489392
 20
132.840831809383
 30
0.0
 10
175.2107312134239
 20
132.7777325565291
 30
0.0
 10
175.2261808844005
 20
132.7520781928554
 30
0.0
 10
175.2890444861843
 20
132.6937256645119
 30
0.0
 10
175.3360744095414
 20
132.6608805931592
 30
0.0
 10
175.4171910119964
 20
132.6263754552541
 30
0.0
  0
SPLINE
  5
2A7
330
1F
100
AcDbEntity
  8
0
  6
Continuous
 62
     7
370
    25
100
AcDbSpline
210
0.0
220
0.0
230
1.0
 70
     8
 71
     3
 72
    12
 73
     8
 74
     0
 42
0.00000001
 43
0.00000001
 40
0.0
 40
0.0
 40
0.0
 40
0.0
 40
0.2499999999999999
 40
0.2499999999999999
 40
0.4999999999999998
 40
0.4999999999999998
 40
1.0
 40
1.0
 40
1.0
 40
1.0
 10
175.4171910119964
 20
115.1014530965525
 30
0.0
 10
175.3356257029062
 20
115.06675708916
 30
0.0
 10
175.2891301085987
 20
115.0341566998358
 30
0.0
 10
175.2262997857283
 20
114.975886310139
 30
0.0
 10
175.2108032513685
 20
114.950224245504
 30
0.0
 10
175.1835438224889
 20
114.8870657234135
 30
0.0
 10
175.1881049439563
 20
114.8639142759033
 30
0.0
 10
175.1881049439563
 20
114.8639142759033
 30
0.0
  0
SPLINE
  5
2A8
330
1F
100
AcDbEntity
  8
0
  6
Continuous
 62
     7
370
    25
100
AcDbSpline
210
0.0
220
0.0
230
1.0
 70
     8
 71
     3
 72
    14
 73
    10
 74
     0
 42
0.00000001
 43
0.00000001
 40
0.0
 40
0.0
 40
0.0
 40
0.0
 40
0.25
 40
0.25
 40
0.5
 40
0.5
 40
0.75
 40
0.75
 40
1.0
 40
1.0
 40
1.0
 40
1.0
 10
175.285306069328
 20
116.0098199469374
 30
0.0
 10
175.3193020728144
 20
115.89006355336
 30
0.0
 10
175.3553416517742
 20
115.7774651604922
 30
0.0
 10
175.4181782030833
 20
115.5692360528938
 30
0.0
 10
175.4445507865262
 20
115.4747906561484
 30
0.0
 10
175.4758071318654
 20
115.3123490386928
 30
0.0
 10
175.4802989636671
 20
115.2445255958894
 30
0.0
 10
175.464631921754
 20
115.1452018451919
 30
0.0
 10
175.4447119998362
 20
115.1131598921031
 30
0.0
 10
175.4171910119964
 20
115.1014530965525
 30
0.0
  0
SPLINE
  5
2A9
330
1F
100
AcDbEntity
  8
0
  6
Continuous
 62
     7
370
    25
100
AcDbSpline
210
0.0
220
0.0
230
1.0
 70
     8
 71
     3
 72
     8
 73
     4
 74
     0
 42
0.00000001
 43
0.00000001
 40
0.0
 40
0.0
 40
0.0
 40
0.0
 40
1.0
 40
1.0
 40
1.0
 40
1.0
 10
175.1881049439563
 20
116.7400108549602
 30
0.0
 10
175.1881049439563
 20
116.4925813971339
 30
0.0
 10
175.2174696512321
 20
116.2487846472326
 30
0.0
 10
175.285306069328
 20
116.0098199469374
 30
0.0
  0
LINE
  5
2AA
330
1F
100
AcDbEntity
  8
0
  6
Continuous
 62
     7
370
    25
100
AcDbLine
 10
175.188104944
 20
116.740010855
 30
0.0
 11
175.188104944
 21
130.9878176968
 31
0.0
  0
ARC
  5
2AB
330
1F
100
AcDbEntity
  8
0
  6
Continuous
 62
     7
370
    25
100
AcDbCircle
 10
174.7347870428
 20
131.0467936353
 30
0.0
 40
0.4571381419498318
100
AcDbArc
 50
264.1388442457
 51
352.5875431367
  0
ARC
  5
2AC
330
1F
100
AcDbEntity
  8
0
  6
Continuous
 62
     7
370
    25
100
AcDbCircle
 10
174.7347870428
 20
116.6810349165
 30
0.0
 40
0.4571381419498771
100
AcDbArc
 50
7.4124568633
 51
95.8611557543
  0
ARC
  5
2AD
330
1F
100
AcDbEntity
  8
0
  6
Continuous
 62
     7
370
    25
100
AcDbCircle
 10
160.6414228451
 20
116.6810349165
 30
0.0
 40
0.4571381419498771
100
AcDbArc
 50
84.1388442457
 51
172.5875431367
  0
ARC
  5
2AE
330
1F
100
AcDbEntity
  8
0
  6
Continuous
 62
     7
370
    25
100
AcDbCircle
 10
160.6414228451
 20
131.0467936353
 30
0.0
 40
0.4571381419498318
100
AcDbArc
 50
187.4124568633
 51
275.8611557543
  0
LINE
  5
2AF
330
1F
100
AcDbEntity
  8
0
  6
Continuous
 62
     7
370
    25
100
AcDbLine
 10
174.688104944
 20
130.9878176968
 30
0.0
 11
175.188104944
 21
130.9878176968
 31
0.0
  0
SPLINE
  5
2B0
330
1F
100
AcDbEntity
  8
0
  6
Continuous
 62
     7
370
    25
100
AcDbSpline
210
0.0
220
0.0
230
1.0
 70
     8
 71
     3
 72
     8
 73
     4
 74
     0
 42
0.00000001
 43
0.00000001
 40
0.0
 40
0.0
 40
0.0
 40
0.0
 40
1.0
 40
1.0
 40
1.0
 40
1.0
 10
174.6881049439563
 20
130.9878176968464
 30
0.0
 10
174.6881049439563
 20
131.2862405661645
 30
0.0
 10
174.7286977483889
 20
131.5786585172013
 30
0.0
 10
174.8177064444519
 20
131.8639142759033
 30
0.0
  0
LINE
  5
2B1
330
1F
100
AcDbEntity
  8
0
  6
Continuous
 62
     7
370
    25
100
AcDbLine
 10
175.2853060693
 20
131.7180086049
 30
0.0
 11
174.8177064445
 21
131.8639142759
 31
0.0
  0
SPLINE
  5
2B2
330
1F
100
AcDbEntity
  8
0
  6
Continuous
 62
     7
370
    25
100
AcDbSpline
210
0.0
220
0.0
230
1.0
 70
     8
 71
     3
 72
     8
 73
     4
 74
     0
 42
0.00000001
 43
0.00000001
 40
0.0
 40
0.0
 40
0.0
 40
0.0
 40
1.0
 40
1.0
 40
1.0
 40
1.0
 10
160.5585034434606
 20
131.8639142759033
 30
0.0
 10
160.6475121395236
 20
131.5786585172013
 30
0.0
 10
160.6881049439562
 20
131.2862405661645
 30
0.0
 10
160.6881049439562
 20
130.9878176968464
 30
0.0
  0
LINE
  5
2B3
330
1F
100
AcDbEntity
  8
0
  6
Continuous
 62
     7
370
    25
100
AcDbLine
 10
160.688104944
 20
130.9878176968
 30
0.0
 11
160.188104944
 21
130.9878176968
 31
0.0
  0
LINE
  5
2B4
330
1F
100
AcDbEntity
  8
0
  6
Continuous
 62
     7
370
    25
100
AcDbLine
 10
160.5585034435
 20
131.8639142759
 30
0.0
 11
160.0909038186
 21
131.7180086049
 31
0.0
  0
SPLINE
  5
2B5
330
1F
100
AcDbEntity
  8
0
  6
Continuous
 62
     7
370
    25
100
AcDbSpline
210
0.0
220
0.0
230
1.0
 70
     8
 71
     3
 72
     8
 73
     4
 74
     0
 42
0.00000001
 43
0.00000001
 40
0.0
 40
0.0
 40
0.0
 40
0.0
 40
1.0
 40
1.0
 40
1.0
 40
1.0
 10
160.6881049439562
 20
116.7400108549602
 30
0.0
 10
160.6881049439562
 20
116.4415879856421
 30
0.0
 10
160.6475121395236
 20
116.1491700346053
 30
0.0
 10
160.5585034434606
 20
115.8639142759033
 30
0.0
  0
LINE
  5
2B6
330
1F
100
AcDbEntity
  8
0
  6
Continuous
 62
     7
370
    25
100
AcDbLine
 10
160.5585034435
 20
115.8639142759
 30
0.0
 11
160.0909038186
 21
116.0098199469
 31
0.0
  0
LINE
  5
2B7
330
1F
100
AcDbEntity
  8
0
  6
Continuous
 62
     7
370
    25
100
AcDbLine
 10
160.688104944
 20
116.740010855
 30
0.0
 11
160.188104944
 21
116.740010855
 31
0.0
  0
SPLINE
  5
2B8
330
1F
100
AcDbEntity
  8
0
  6
Continuous
 62
     7
370
    25
100
AcDbSpline
210
0.0
220
0.0
230
1.0
 70
     8
 71
     3
 72
     8
 73
     4
 74
     0
 42
0.00000001
 43
0.00000001
 40
0.0
 40
0.0
 40
0.0
 40
0.0
 40
1.0
 40
1.0
 40
1.0
 40
1.0
 10
174.8177064444519
 20
115.8639142759033
 30
0.0
 10
174.7286977483889
 20
116.1491700346053
 30
0.0
 10
174.6881049439563
 20
116.4415879856421
 30
0.0
 10
174.6881049439563
 20
116.7400108549602
 30
0.0
  0
LINE
  5
2B9
330
1F
100
AcDbEntity
  8
0
  6
Continuous
 62
     7
370
    25
100
AcDbLine
 10
174.688104944
 20
116.740010855
 30
0.0
 11
175.188104944
 21
116.740010855
 31
0.0
  0
LINE
  5
2BA
330
1F
100
AcDbEntity
  8
0
  6
Continuous
 62
     7
370
    25
100
AcDbLine
 10
174.8177064445
 20
115.8639142759
 30
0.0
 11
175.2853060693
 21
116.0098199469
 31
0.0
  0
LINE
  5
2BB
330
1F
100
AcDbEntity
  8
0
  6
Continuous
 62
     7
370
    25
100
AcDbLine
 10
174.688104944
 20
130.5920452846
 30
0.0
 11
174.688104944
 21
130.9878176968
 31
0.0
  0
LINE
  5
2BC
330
1F
100
AcDbEntity
  8
0
  6
Continuous
 62
     7
370
    25
100
AcDbLine
 10
160.688104944
 20
130.9878176968
 30
0.0
 11
160.688104944
 21
130.5920452846
 31
0.0
  0
LINE
  5
2BD
330
1F
100
AcDbEntity
  8
0
  6
Continuous
 62
     7
370
    25
100
AcDbLine
 10
174.688104944
 20
116.740010855
 30
0.0
 11
174.688104944
 21
117.1357832672
 31
0.0
  0
LINE
  5
2BE
330
1F
100
AcDbEntity
  8
0
  6
Continuous
 62
     7
370
    25
100
AcDbLine
 10
160.688104944
 20
117.1357832672
 30
0.0
 11
160.688104944
 21
116.740010855
 31
0.0
  0
SPLINE
  5
2BF
330
1F
100
AcDbEntity
  8
0
  6
Continuous
 62
     7
370
    25
100
AcDbSpline
210
0.0
220
0.0
230
1.0
 70
     8
 71
     3
 72
    14
 73
    10
 74
     0
 42
0.00000001
 43
0.00000001
 40
0.0
 40
0.0
 40
0.0
 40
0.0
 40
0.25
 40
0.25
 40
0.5
 40
0.5
 40
0.75
 40
0.75
 40
1.0
 40
1.0
 40
1.0
 40
1.0
 10
160.5585034434606
 20
115.8639142759033
 30
0.0
 10
160.5200279597138
 20
115.8022610117107
 30
0.0
 10
160.4789390381393
 20
115.7440770664677
 30
0.0
 10
160.3996561904967
 20
115.6304117450278
 30
0.0
 10
160.3623732892967
 20
115.5767351463363
 30
0.0
 10
160.3095675298486
 20
115.4767451138399
 30
0.0
 10
160.2975982697431
 20
115.4323406135786
 30
0.0
 10
160.3176000582577
 20
115.3762807580617
 30
0.0
 10
160.3470565139327
 20
115.3639142759033
 30
0.0
 10
160.3826568532361
 20
115.3639142759033
 30
0.0
  0
ARC
  5
2C0
330
1F
100
AcDbEntity
  8
0
  6
Continuous
 62
     7
370
    25
100
AcDbCircle
 10
160.3864866662
 20
114.8846054585
 30
0.0
 40
0.4793241177671411
100
AcDbArc
 50
90.457799739
 51
153.1020413591
  0
SPLINE
  5
2C1
330
1F
100
AcDbEntity
  8
0
  6
Continuous
 62
     7
370
    25
100
AcDbSpline
210
0.0
220
0.0
230
1.0
 70
     8
 71
     3
 72
    14
 73
    10
 74
     0
 42
0.00000001
 43
0.00000001
 40
0.0
 40
0.0
 40
0.0
 40
0.0
 40
0.25
 40
0.25
 40
0.5
 40
0.5
 40
0.75
 40
0.75
 40
1.0
 40
1.0
 40
1.0
 40
1.0
 10
174.9935530346764
 20
115.3639142759033
 30
0.0
 10
175.0291412530676
 20
115.3639142759033
 30
0.0
 10
175.0584837070168
 20
115.376120459802
 30
0.0
 10
175.0786535086536
 20
115.4322656381371
 30
0.0
 10
175.0667287602372
 20
115.4765941291477
 30
0.0
 10
175.0136950864527
 20
115.5769904710972
 30
0.0
 10
174.9765152510442
 20
115.6304672671635
 30
0.0
 10
174.8972491279863
 20
115.7441078052195
 30
0.0
 10
174.8561721953228
 20
115.8022766077088
 30
0.0
 10
174.8177064444519
 20
115.8639142759033
 30
0.0
  0
ARC
  5
2C2
330
1F
100
AcDbEntity
  8
0
  6
Continuous
 62
     7
370
    25
100
AcDbCircle
 10
174.9897232217
 20
114.8846054585
 30
0.0
 40
0.4793241177671269
100
AcDbArc
 50
26.8979586409
 51
89.542200261
  0
SPLINE
  5
2C3
330
1F
100
AcDbEntity
  8
0
  6
Continuous
 62
     7
370
    25
100
AcDbSpline
210
0.0
220
0.0
230
1.0
 70
     8
 71
     3
 72
    14
 73
    10
 74
     0
 42
0.00000001
 43
0.00000001
 40
0.0
 40
0.0
 40
0.0
 40
0.0
 40
0.25
 40
0.25
 40
0.5
 40
0.5
 40
0.75
 40
0.75
 40
1.0
 40
1.0
 40
1.0
 40
1.0
 10
174.8177064444519
 20
131.8639142759033
 30
0.0
 10
174.8561703807363
 20
131.9255490363975
 30
0.0
 10
174.8975685886836
 20
131.9841756219654
 30
0.0
 10
174.9766598426617
 20
132.0975717200378
 30
0.0
 10
175.014494755673
 20
132.1521571273816
 30
0.0
 10
175.0667894947164
 20
132.2515473981096
 30
0.0
 10
175.0786748674148
 20
132.2956758036425
 30
0.0
 10
175.0583861655589
 20
132.3518066161823
 30
0.0
 10
175.0290635401453
 20
132.3639142759033
 30
0.0
 10
174.9935530346764
 20
132.3639142759033
 30
0.0
  0
ARC
  5
2C4
330
1F
100
AcDbEntity
  8
0
  6
Continuous
 62
     7
370
    25
100
AcDbCircle
 10
174.9897232217
 20
132.8432230933
 30
0.0
 40
0.4793241177671056
100
AcDbArc
 50
270.457799739
 51
333.1020413591
  0
SPLINE
  5
2C5
330
1F
100
AcDbEntity
  8
0
  6
Continuous
 62
     7
370
    25
100
AcDbSpline
210
0.0
220
0.0
230
1.0
 70
     8
 71
     3
 72
    16
 73
    12
 74
     0
 42
0.00000001
 43
0.00000001
 40
0.0
 40
0.0
 40
0.0
 40
0.0
 40
0.2500000000000021
 40
0.2500000000000021
 40
0.3750000000000031
 40
0.3750000000000031
 40
0.5000000000000041
 40
0.5000000000000041
 40
0.750000000000002
 40
0.750000000000002
 40
1.0
 40
1.0
 40
1.0
 40
1.0
 10
160.3826568532361
 20
132.3639142759033
 30
0.0
 10
160.3471029236783
 20
132.3639142759033
 30
0.0
 10
160.3178307823276
 20
132.3517825254988
 30
0.0
 10
160.3026182319985
 20
132.3097608192044
 30
0.0
 10
160.3025575638058
 20
132.2915464496833
 30
0.0
 10
160.3127681482867
 20
132.2496094371339
 30
0.0
 10
160.3225514778326
 20
132.2265818736262
 30
0.0
 10
160.3617160264693
 20
132.1521731948081
 30
0.0
 10
160.399589099838
 20
132.0975153186286
 30
0.0
 10
160.4786620730216
 20
131.9841462454902
 30
0.0
 10
160.5200492057235
 20
131.9255334954077
 30
0.0
 10
160.5585034434606
 20
131.8639142759033
 30
0.0
  0
ARC
  5
2C6
330
1F
100
AcDbEntity
  8
0
  6
Continuous
 62
     7
370
    25
100
AcDbCircle
 10
160.3864866662
 20
132.8432230933
 30
0.0
 40
0.4793241177671438
100
AcDbArc
 50
206.8979586409
 51
269.542200261
  0
LINE
  5
2C7
330
1F
100
AcDbEntity
  8
0
  6
Continuous
 62
     7
370
    25
100
AcDbLine
 10
160.3826568532
 20
132.3639142759
 30
0.0
 11
174.9935530347
 21
132.3639142759
 31
0.0
  0
LINE
  5
2C8
330
1F
100
AcDbEntity
  8
0
  6
Continuous
 62
     7
370
    25
100
AcDbLine
 10
174.8177064445
 20
131.8639142759
 30
0.0
 11
160.5585034435
 21
131.8639142759
 31
0.0
  0
LINE
  5
2C9
330
1F
100
AcDbEntity
  8
0
  6
Continuous
 62
     7
370
    25
100
AcDbLine
 10
160.5585034435
 20
115.8639142759
 30
0.0
 11
174.8177064445
 21
115.8639142759
 31
0.0
  0
LINE
  5
2CA
330
1F
100
AcDbEntity
  8
0
  6
Continuous
 62
     7
370
    25
100
AcDbLine
 10
174.9935530347
 20
115.3639142759
 30
0.0
 11
160.3826568532
 21
115.3639142759
 31
0.0
  0
ARC
  5
2CB
330
1F
100
AcDbEntity
  8
0
  6
Continuous
 62
     7
370
    25
100
AcDbCircle
 10
174.688104944
 20
132.8639142759
 30
0.0
 40
0.5
100
AcDbArc
 50
270.0
 51
0.0
  0
ARC
  5
2CC
330
1F
100
AcDbEntity
  8
0
  6
Continuous
 62
     7
370
    25
100
AcDbCircle
 10
160.688104944
 20
132.8639142759
 30
0.0
 40
0.5
100
AcDbArc
 50
180.0
 51
270.0
  0
ARC
  5
2CD
330
1F
100
AcDbEntity
  8
0
  6
Continuous
 62
     7
370
    25
100
AcDbCircle
 10
174.688104944
 20
114.8639142759
 30
0.0
 40
0.5
100
AcDbArc
 50
0.0
 51
90.0
  0
ARC
  5
2CE
330
1F
100
AcDbEntity
  8
0
  6
Continuous
 62
     7
370
    25
100
AcDbCircle
 10
160.688104944
 20
114.8639142759
 30
0.0
 40
0.5
100
AcDbArc
 50
90.0
 51
180.0
  0
LINE
  5
2CF
330
1F
100
AcDbEntity
  8
0
  6
Continuous
 62
     7
370
    25
100
AcDbLine
 10
158.688104944
 20
113.3639142759
 30
0.0
 11
158.688104944
 21
119.014584842
 31
0.0
  0
LINE
  5
2D0
330
1F
100
AcDbEntity
  8
0
  6
Continuous
 62
     7
370
    25
100
AcDbLine
 10
158.688104944
 20
128.7132437099
 30
0.0
 11
158.688104944
 21
134.3639142759
 31
0.0
  0
LINE
  5
2D1
330
1F
100
AcDbEntity
  8
0
  6
Continuous
 62
     7
370
    25
100
AcDbLine
 10
174.688104944
 20
117.1357832672
 30
0.0
 11
174.688104944
 21
121.3139142759
 31
0.0
  0
LINE
  5
2D2
330
1F
100
AcDbEntity
  8
0
  6
Continuous
 62
     7
370
    25
100
AcDbLine
 10
174.688104944
 20
126.4139142759
 30
0.0
 11
174.688104944
 21
130.5920452846
 31
0.0
  0
LINE
  5
2D3
330
1F
100
AcDbEntity
  8
0
  6
Continuous
 62
     7
370
    25
100
AcDbLine
 10
160.688104944
 20
130.5920452846
 30
0.0
 11
160.688104944
 21
129.1602267564
 31
0.0
  0
LINE
  5
2D4
330
1F
100
AcDbEntity
  8
0
  6
Continuous
 62
     7
370
    25
100
AcDbLine
 10
160.688104944
 20
118.5676017954
 30
0.0
 11
160.688104944
 21
117.1357832672
 31
0.0
  0
LINE
  5
2D5
330
1F
100
AcDbEntity
  8
0
  6
Continuous
 62
     7
370
    25
100
AcDbLine
 10
174.688104944
 20
130.5920452846
 30
0.0
 11
170.8872850155
 21
130.5920452846
 31
0.0
  0
LINE
  5
2D6
330
1F
100
AcDbEntity
  8
0
  6
Continuous
 62
     7
370
    25
100
AcDbLine
 10
164.4889248724
 20
130.5920452846
 30
0.0
 11
160.688104944
 21
130.5920452846
 31
0.0
  0
LINE
  5
2D7
330
1F
100
AcDbEntity
  8
0
  6
Continuous
 62
     7
370
    25
100
AcDbLine
 10
160.688104944
 20
117.1357832672
 30
0.0
 11
164.4889248724
 21
117.1357832672
 31
0.0
  0
LINE
  5
2D8
330
1F
100
AcDbEntity
  8
0
  6
Continuous
 62
     7
370
    25
100
AcDbLine
 10
170.8872850155
 20
117.1357832672
 30
0.0
 11
174.688104944
 21
117.1357832672
 31
0.0
  0
LINE
  5
2D9
330
1F
100
AcDbEntity
  8
0
  6
Continuous
 62
     7
370
    25
100
AcDbLine
 10
160.688104944
 20
130.9878176968
 30
0.0
 11
165.508081997
 21
130.9878176968
 31
0.0
  0
LINE
  5
2DA
330
1F
100
AcDbEntity
  8
0
  6
Continuous
 62
     7
370
    25
100
AcDbLine
 10
169.8681278909
 20
130.9878176968
 30
0.0
 11
174.688104944
 21
130.9878176968
 31
0.0
  0
LINE
  5
2DB
330
1F
100
AcDbEntity
  8
0
  6
Continuous
 62
     7
370
    25
100
AcDbLine
 10
174.688104944
 20
116.740010855
 30
0.0
 11
169.8681278909
 21
116.740010855
 31
0.0
  0
LINE
  5
2DC
330
1F
100
AcDbEntity
  8
0
  6
Continuous
 62
     7
370
    25
100
AcDbLine
 10
165.508081997
 20
116.740010855
 30
0.0
 11
160.688104944
 21
116.740010855
 31
0.0
  0
INSERT
  5
2E8
330
1F
100
AcDbEntity
  8
0
  6
Continuous
 62
     7
370
    18
100
AcDbBlockReference
  2
SW_CENTERMARKSYMBOL_2
 10
167.688104944
 20
123.8639142759
 30
0.0
  0
LINE
  5
2E9
330
1F
100
AcDbEntity
  8
0
  6
Continuous
 62
     7
370
    18
100
AcDbLine
 10
194.688104944
 20
119.2714142759
 30
0.0
 11
204.1753785898
 21
119.5678915773
 31
0.0
  0
LINE
  5
2EA
330
1F
100
AcDbEntity
  8
0
  6
Continuous
 62
     7
370
    18
100
AcDbLine
 10
204.1753785898
 20
128.1599369745
 30
0.0
 11
194.688104944
 21
128.4564142759
 31
0.0
  0
ENDSEC
  0
SECTION
  2
OBJECTS
  0
DICTIONARY
  5
C
330
0
100
AcDbDictionary
281
     1
  3
ACAD_GROUP
350
D
  3
ACAD_LAYOUT
350
1A
  3
ACAD_MLINESTYLE
350
17
  3
ACAD_PLOTSETTINGS
350
19
  3
ACAD_PLOTSTYLENAME
350
E
  3
ACAD_SCALELIST
350
47
  3
DWGPROPS
350
2EB
  0
DICTIONARY
  5
D
102
{ACAD_REACTORS
330
C
102
}
330
C
100
AcDbDictionary
281
     1
  0
DICTIONARY
  5
1A
102
{ACAD_REACTORS
330
C
102
}
330
C
100
AcDbDictionary
281
     1
  3
Layout1
350
1E
  3
Layout2
350
26
  3
Model
350
22
  0
DICTIONARY
  5
17
102
{ACAD_REACTORS
330
C
102
}
330
C
100
AcDbDictionary
281
     1
  3
Standard
350
18
  0
DICTIONARY
  5
19
102
{ACAD_REACTORS
330
C
102
}
330
C
100
AcDbDictionary
281
     1
  0
ACDBDICTIONARYWDFLT
  5
E
102
{ACAD_REACTORS
330
C
102
}
330
C
100
AcDbDictionary
281
     1
  3
Normal
350
F
100
AcDbDictionaryWithDefault
340
F
  0
DICTIONARY
  5
47
102
{ACAD_REACTORS
330
C
102
}
330
C
100
AcDbDictionary
281
     1
  3
A0
350
48
  3
A1
350
49
  3
A2
350
4A
  3
A3
350
4B
  3
A4
350
4C
  3
A5
350
4D
  3
A6
350
4E
  3
A7
350
4F
  3
A8
350
50
  3
A9
350
51
  3
B0
350
52
  3
B1
350
53
  3
B2
350
54
  3
B3
350
55
  3
B4
350
56
  3
B5
350
57
  3
B6
350
58
  0
XRECORD
  5
2EB
102
{ACAD_REACTORS
330
C
102
}
330
C
100
AcDbXrecord
280
     1
  1
DWGPROPS COOKIE
  2

  3

  4

  6

  7

  8
user28
  9

300
=
301
=
302
=
303
=
304
=
305
=
306
=
307
=
308
=
309
=
 40
0.0
 41
2460277.347248287
 42
2460277.34724978
  1

 90
        0
  0
LAYOUT
  5
1E
102
{ACAD_REACTORS
330
1A
102
}
330
1A
100
AcDbPlotSettings
  1

  2
none_device
  4

  6

 40
0.0
 41
0.0
 42
0.0
 43
0.0
 44
0.0
 45
0.0
 46
0.0
 47
0.0
 48
0.0
 49
0.0
140
0.0
141
0.0
142
1.0
143
1.0
 70
   688
 72
     1
 73
     0
 74
     5
  7

 75
    16
147
1.0
148
0.0
149
0.0
100
AcDbLayout
  1
Layout1
 70
     1
 71
     1
 10
0.0
 20
0.0
 11
420.0
 21
297.0
 12
0.0
 22
0.0
 32
0.0
 14
1.0000000000E+20
 24
1.0000000000E+20
 34
1.0000000000E+20
 15
-1.0000000000E+20
 25
-1.0000000000E+20
 35
-1.0000000000E+20
146
0.0
 13
0.0
 23
0.0
 33
0.0
 16
1.0
 26
0.0
 36
0.0
 17
0.0
 27
1.0
 37
0.0
 76
     0
330
1B
  0
LAYOUT
  5
26
102
{ACAD_REACTORS
330
1A
102
}
330
1A
100
AcDbPlotSettings
  1

  2
none_device
  4

  6

 40
0.0
 41
0.0
 42
0.0
 43
0.0
 44
0.0
 45
0.0
 46
0.0
 47
0.0
 48
0.0
 49
0.0
140
0.0
141
0.0
142
1.0
143
1.0
 70
   688
 72
     1
 73
     0
 74
     5
  7

 75
    16
147
1.0
148
0.0
149
0.0
100
AcDbLayout
  1
Layout2
 70
     1
 71
     2
 10
0.0
 20
0.0
 11
0.0
 21
0.0
 12
0.0
 22
0.0
 32
0.0
 14
0.0
 24
0.0
 34
0.0
 15
0.0
 25
0.0
 35
0.0
146
0.0
 13
0.0
 23
0.0
 33
0.0
 16
1.0
 26
0.0
 36
0.0
 17
0.0
 27
1.0
 37
0.0
 76
     0
330
23
  0
LAYOUT
  5
22
102
{ACAD_REACTORS
330
1A
102
}
330
1A
100
AcDbPlotSettings
  1

  2
none_device
  4
Letter_(8.50_x_11.00_Inches)
  6

 40
6.35
 41
6.35
 42
6.35000508
 43
6.35000508
 44
215.9
 45
279.4
 46
0.0
 47
0.0
 48
0.0
 49
0.0
140
0.0
141
0.0
142
1.0
143
1.0
 70
  1712
 72
     1
 73
     0
 74
     0
  7

 75
     0
147
1.0
148
0.0
149
0.0
100
AcDbLayout
  1
Model
 70
     1
 71
     0
 10
0.0
 20
0.0
 11
431.8
 21
279.4
 12
0.0
 22
0.0
 32
0.0
 14
0.0
 24
0.0
 34
0.0
 15
431.8
 25
279.4
 35
0.0
146
0.0
 13
0.0
 23
0.0
 33
0.0
 16
1.0
 26
0.0
 36
0.0
 17
0.0
 27
1.0
 37
0.0
 76
     0
330
1F
331
29
  0
MLINESTYLE
  5
18
102
{ACAD_REACTORS
330
17
102
}
330
17
100
AcDbMlineStyle
  2
Standard
 70
     0
  3

 62
   256
 51
90.0
 52
90.0
 71
     2
 49
0.5
 62
   256
  6
BYLAYER
 49
-0.5
 62
   256
  6
BYLAYER
  0
ACDBPLACEHOLDER
  5
F
102
{ACAD_REACTORS
330
E
102
}
330
E
  0
SCALE
  5
48
102
{ACAD_REACTORS
330
47
102
}
330
47
100
AcDbScale
 70
     0
300
1:1
140
1.0
141
1.0
290
     1
  0
SCALE
  5
49
102
{ACAD_REACTORS
330
47
102
}
330
47
100
AcDbScale
 70
     0
300
1:2
140
1.0
141
2.0
290
     0
  0
SCALE
  5
4A
102
{ACAD_REACTORS
330
47
102
}
330
47
100
AcDbScale
 70
     0
300
1:4
140
1.0
141
4.0
290
     0
  0
SCALE
  5
4B
102
{ACAD_REACTORS
330
47
102
}
330
47
100
AcDbScale
 70
     0
300
1:5
140
1.0
141
5.0
290
     0
  0
SCALE
  5
4C
102
{ACAD_REACTORS
330
47
102
}
330
47
100
AcDbScale
 70
     0
300
1:8
140
1.0
141
8.0
290
     0
  0
SCALE
  5
4D
102
{ACAD_REACTORS
330
47
102
}
330
47
100
AcDbScale
 70
     0
300
1:10
140
1.0
141
10.0
290
     0
  0
SCALE
  5
4E
102
{ACAD_REACTORS
330
47
102
}
330
47
100
AcDbScale
 70
     0
300
1:16
140
1.0
141
16.0
290
     0
  0
SCALE
  5
4F
102
{ACAD_REACTORS
330
47
102
}
330
47
100
AcDbScale
 70
     0
300
1:20
140
1.0
141
20.0
290
     0
  0
SCALE
  5
50
102
{ACAD_REACTORS
330
47
102
}
330
47
100
AcDbScale
 70
     0
300
1:30
140
1.0
141
30.0
290
     0
  0
SCALE
  5
51
102
{ACAD_REACTORS
330
47
102
}
330
47
100
AcDbScale
 70
     0
300
1:40
140
1.0
141
40.0
290
     0
  0
SCALE
  5
52
102
{ACAD_REACTORS
330
47
102
}
330
47
100
AcDbScale
 70
     0
300
1:50
140
1.0
141
50.0
290
     0
  0
SCALE
  5
53
102
{ACAD_REACTORS
330
47
102
}
330
47
100
AcDbScale
 70
     0
300
1:100
140
1.0
141
100.0
290
     0
  0
SCALE
  5
54
102
{ACAD_REACTORS
330
47
102
}
330
47
100
AcDbScale
 70
     0
300
2:1
140
2.0
141
1.0
290
     0
  0
SCALE
  5
55
102
{ACAD_REACTORS
330
47
102
}
330
47
100
AcDbScale
 70
     0
300
4:1
140
4.0
141
1.0
290
     0
  0
SCALE
  5
56
102
{ACAD_REACTORS
330
47
102
}
330
47
100
AcDbScale
 70
     0
300
8:1
140
8.0
141
1.0
290
     0
  0
SCALE
  5
57
102
{ACAD_REACTORS
330
47
102
}
330
47
100
AcDbScale
 70
     0
300
10:1
140
10.0
141
1.0
290
     0
  0
SCALE
  5
58
102
{ACAD_REACTORS
330
47
102
}
330
47
100
AcDbScale
 70
     0
300
100:1
140
100.0
141
1.0
290
     0
  0
ENDSEC
  0
EOF
