  0
SECTION
  2
HEADER
  9
$ACADVER
  1
AC1015
  9
$ACADMAINTVER
 70
     6
  9
$DWGCODEPAGE
  3
DOS932
  9
$INSBASE
 10
0.0
 20
0.0
 30
0.0
  9
$EXTMIN
 10
0.0
 20
0.0
 30
0.0
  9
$EXTMAX
 10
431.8
 20
279.4
 30
0.0
  9
$LIMMIN
 10
0.0
 20
0.0
  9
$LIMMAX
 10
431.8
 20
279.4
  9
$ORTHOMODE
 70
     0
  9
$REGENMODE
 70
     1
  9
$FILLMODE
 70
     1
  9
$QTEXTMODE
 70
     0
  9
$MIRRTEXT
 70
     1
  9
$LTSCALE
 40
1.0
  9
$ATTMODE
 70
     1
  9
$TEXTSIZE
 40
3.5
  9
$TRACEWID
 40
1.0
  9
$TEXTSTYLE
  7
Standard
  9
$CLAYER
  8
0
  9
$CELTYPE
  6
ByLayer
  9
$CECOLOR
 62
   256
  9
$CELTSCALE
 40
1.0
  9
$DISPSILH
 70
     0
  9
$DIMSCALE
 40
1.0
  9
$DIMASZ
 40
3.556
  9
$DIMEXO
 40
1.0
  9
$DIMDLI
 40
3.75
  9
$DIMRND
 40
0.0
  9
$DIMDLE
 40
0.0
  9
$DIMEXE
 40
1.0
  9
$DIMTP
 40
0.0
  9
$DIMTM
 40
0.0
  9
$DIMTXT
 40
3.5
  9
$DIMCEN
 40
2.5
  9
$DIMTSZ
 40
0.0
  9
$DIMTOL
 70
     0
  9
$DIMLIM
 70
     0
  9
$DIMTIH
 70
     1
  9
$DIMTOH
 70
     1
  9
$DIMSE1
 70
     0
  9
$DIMSE2
 70
     0
  9
$DIMTAD
 70
     1
  9
$DIMZIN
 70
     0
  9
$DIMBLK
  1

  9
$DIMASO
 70
     1
  9
$DIMSHO
 70
     1
  9
$DIMPOST
  1

  9
$DIMAPOST
  1

  9
$DIMALT
 70
     0
  9
$DIMALTD
 70
     3
  9
$DIMALTF
 40
0.0393700787
  9
$DIMLFAC
 40
1.0
  9
$DIMTOFL
 70
     1
  9
$DIMTVP
 40
0.0
  9
$DIMTIX
 70
     0
  9
$DIMSOXD
 70
     0
  9
$DIMSAH
 70
     0
  9
$DIMBLK1
  1

  9
$DIMBLK2
  1

  9
$DIMSTYLE
  2
ISO-25
  9
$DIMCLRD
 70
     0
  9
$DIMCLRE
 70
     0
  9
$DIMCLRT
 70
     0
  9
$DIMTFAC
 40
1.0
  9
$DIMGAP
 40
1.524
  9
$DIMJUST
 70
     0
  9
$DIMSD1
 70
     0
  9
$DIMSD2
 70
     0
  9
$DIMTOLJ
 70
     0
  9
$DIMTZIN
 70
     0
  9
$DIMALTZ
 70
     0
  9
$DIMALTTZ
 70
     0
  9
$DIMUPT
 70
     0
  9
$DIMDEC
 70
     3
  9
$DIMTDEC
 70
     3
  9
$DIMALTU
 70
     2
  9
$DIMALTTD
 70
     3
  9
$DIMTXSTY
  7
Standard
  9
$DIMAUNIT
 70
     0
  9
$DIMADEC
 70
     2
  9
$DIMALTRND
 40
0.0
  9
$DIMAZIN
 70
     0
  9
$DIMDSEP
 70
    44
  9
$DIMATFIT
 70
     3
  9
$DIMFRAC
 70
     0
  9
$DIMLDRBLK
  1

  9
$DIMLUNIT
 70
     2
  9
$DIMLWD
 70
    -2
  9
$DIMLWE
 70
    -2
  9
$DIMTMOVE
 70
     0
  9
$LUNITS
 70
     2
  9
$LUPREC
 70
     3
  9
$SKETCHINC
 40
1.0
  9
$FILLETRAD
 40
0.0
  9
$AUNITS
 70
     0
  9
$AUPREC
 70
     2
  9
$MENU
  1
.
  9
$ELEVATION
 40
0.0
  9
$PELEVATION
 40
0.0
  9
$THICKNESS
 40
0.0
  9
$LIMCHECK
 70
     0
  9
$CHAMFERA
 40
0.0
  9
$CHAMFERB
 40
0.0
  9
$CHAMFERC
 40
0.0
  9
$CHAMFERD
 40
0.0
  9
$SKPOLY
 70
     0
  9
$TDCREATE
 40
2460276.642478773
  9
$TDUCREATE
 40
2460276.267478773
  9
$TDUPDATE
 40
2460276.642479722
  9
$TDUUPDATE
 40
2460276.267479722
  9
$TDINDWG
 40
0.0000000116
  9
$TDUSRTIMER
 40
0.0000000116
  9
$USRTIMER
 70
     1
  9
$ANGBASE
 50
0.0
  9
$ANGDIR
 70
     0
  9
$PDMODE
 70
     0
  9
$PDSIZE
 40
-1.0
  9
$PLINEWID
 40
0.0
  9
$SPLFRAME
 70
     0
  9
$SPLINETYPE
 70
     6
  9
$SPLINESEGS
 70
     8
  9
$HANDSEED
  5
33A
  9
$SURFTAB1
 70
     6
  9
$SURFTAB2
 70
     6
  9
$SURFTYPE
 70
     6
  9
$SURFU
 70
     6
  9
$SURFV
 70
     6
  9
$UCSBASE
  2

  9
$UCSNAME
  2

  9
$UCSORG
 10
0.0
 20
0.0
 30
0.0
  9
$UCSXDIR
 10
1.0
 20
0.0
 30
0.0
  9
$UCSYDIR
 10
0.0
 20
1.0
 30
0.0
  9
$UCSORTHOREF
  2

  9
$UCSORTHOVIEW
 70
     0
  9
$UCSORGTOP
 10
0.0
 20
0.0
 30
0.0
  9
$UCSORGBOTTOM
 10
0.0
 20
0.0
 30
0.0
  9
$UCSORGLEFT
 10
0.0
 20
0.0
 30
0.0
  9
$UCSORGRIGHT
 10
0.0
 20
0.0
 30
0.0
  9
$UCSORGFRONT
 10
0.0
 20
0.0
 30
0.0
  9
$UCSORGBACK
 10
0.0
 20
0.0
 30
0.0
  9
$PUCSBASE
  2

  9
$PUCSNAME
  2

  9
$PUCSORG
 10
0.0
 20
0.0
 30
0.0
  9
$PUCSXDIR
 10
1.0
 20
0.0
 30
0.0
  9
$PUCSYDIR
 10
0.0
 20
1.0
 30
0.0
  9
$PUCSORTHOREF
  2

  9
$PUCSORTHOVIEW
 70
     0
  9
$PUCSORGTOP
 10
0.0
 20
0.0
 30
0.0
  9
$PUCSORGBOTTOM
 10
0.0
 20
0.0
 30
0.0
  9
$PUCSORGLEFT
 10
0.0
 20
0.0
 30
0.0
  9
$PUCSORGRIGHT
 10
0.0
 20
0.0
 30
0.0
  9
$PUCSORGFRONT
 10
0.0
 20
0.0
 30
0.0
  9
$PUCSORGBACK
 10
0.0
 20
0.0
 30
0.0
  9
$USERI1
 70
     0
  9
$USERI2
 70
     0
  9
$USERI3
 70
     0
  9
$USERI4
 70
     0
  9
$USERI5
 70
     0
  9
$USERR1
 40
0.0
  9
$USERR2
 40
0.0
  9
$USERR3
 40
0.0
  9
$USERR4
 40
0.0
  9
$USERR5
 40
0.0
  9
$WORLDVIEW
 70
     1
  9
$SHADEDGE
 70
     3
  9
$SHADEDIF
 70
    70
  9
$TILEMODE
 70
     1
  9
$MAXACTVP
 70
    64
  9
$PINSBASE
 10
0.0
 20
0.0
 30
0.0
  9
$PLIMCHECK
 70
     0
  9
$PEXTMIN
 10
1.0000000000E+20
 20
1.0000000000E+20
 30
1.0000000000E+20
  9
$PEXTMAX
 10
-1.0000000000E+20
 20
-1.0000000000E+20
 30
-1.0000000000E+20
  9
$PLIMMIN
 10
0.0
 20
0.0
  9
$PLIMMAX
 10
420.0
 20
297.0
  9
$UNITMODE
 70
     0
  9
$VISRETAIN
 70
     1
  9
$PLINEGEN
 70
     0
  9
$PSLTSCALE
 70
     1
  9
$TREEDEPTH
 70
  3020
  9
$CMLSTYLE
  2
Standard
  9
$CMLJUST
 70
     0
  9
$CMLSCALE
 40
20.0
  9
$PROXYGRAPHICS
 70
     1
  9
$MEASUREMENT
 70
     1
  9
$CELWEIGHT
370
    -1
  9
$ENDCAPS
280
     0
  9
$JOINSTYLE
280
     0
  9
$LWDISPLAY
290
     1
  9
$INSUNITS
 70
     4
  9
$HYPERLINKBASE
  1

  9
$STYLESHEET
  1

  9
$XEDIT
290
     1
  9
$CEPSNTYPE
380
     0
  9
$PSTYLEMODE
290
     1
  9
$FINGERPRINTGUID
  2
{c21a367a-7e31-4c0e-b4ae-2f43fc6c1b44}
  9
$VERSIONGUID
  2
{FAEB1C32-E019-11D5-929B-00C0DF256EC4}
  9
$EXTNAMES
290
     1
  9
$PSVPSCALE
 40
0.0
  9
$OLESTARTUP
290
     0
  0
ENDSEC
  0
SECTION
  2
CLASSES
  0
CLASS
  1
ACDBDICTIONARYWDFLT
  2
AcDbDictionaryWithDefault
  3
ObjectDBX Classes
 90
        0
280
     0
281
     0
  0
CLASS
  1
VISUALSTYLE
  2
AcDbVisualStyle
  3
ObjectDBX Classes
 90
     4095
280
     0
281
     0
  0
CLASS
  1
MATERIAL
  2
AcDbMaterial
  3
ObjectDBX Classes
 90
     1153
280
     0
281
     0
  0
CLASS
  1
SCALE
  2
AcDbScale
  3
ObjectDBX Classes
 90
     1153
280
     0
281
     0
  0
CLASS
  1
TABLESTYLE
  2
AcDbTableStyle
  3
ObjectDBX Classes
 90
     4095
280
     0
281
     0
  0
CLASS
  1
MLEADERSTYLE
  2
AcDbMLeaderStyle
  3
ACDB_MLEADERSTYLE_CLASS
 90
     4095
280
     0
281
     0
  0
CLASS
  1
SUN
  2
AcDbSun
  3
SCENEOE
 90
     1153
280
     0
281
     0
  0
CLASS
  1
ACDBPLACEHOLDER
  2
AcDbPlaceHolder
  3
ObjectDBX Classes
 90
        0
280
     0
281
     0
  0
CLASS
  1
LAYOUT
  2
AcDbLayout
  3
ObjectDBX Classes
 90
        0
280
     0
281
     0
  0
ENDSEC
  0
SECTION
  2
TABLES
  0
TABLE
  2
VPORT
  5
8
330
0
100
AcDbSymbolTable
 70
     1
  0
VPORT
  5
29
330
8
100
AcDbSymbolTableRecord
100
AcDbViewportTableRecord
  2
*Active
 70
     0
 10
0.0
 20
0.0
 11
1.0
 21
1.0
 12
215.9
 22
139.7
 13
0.0
 23
0.0
 14
10.0
 24
10.0
 15
10.0
 25
10.0
 16
0.0
 26
0.0
 36
1.0
 17
0.0
 27
0.0
 37
0.0
 40
279.4
 41
1.5454545455
 42
50.0
 43
0.0
 44
0.0
 50
0.0
 51
0.0
 71
     0
 72
  2000
 73
     1
 74
     3
 75
     0
 76
     0
 77
     0
 78
     0
281
     0
 65
     1
110
0.0
120
0.0
130
0.0
111
1.0
121
0.0
131
0.0
112
0.0
122
1.0
132
0.0
 79
     0
146
0.0
  0
ENDTAB
  0
TABLE
  2
LTYPE
  5
5
330
0
100
AcDbSymbolTable
 70
     6
  0
LTYPE
  5
14
330
5
100
AcDbSymbolTableRecord
100
AcDbLinetypeTableRecord
  2
ByBlock
 70
     0
  3

 72
    65
 73
     0
 40
0.0
  0
LTYPE
  5
15
330
5
100
AcDbSymbolTableRecord
100
AcDbLinetypeTableRecord
  2
ByLayer
 70
     0
  3

 72
    65
 73
     0
 40
0.0
  0
LTYPE
  5
16
330
5
100
AcDbSymbolTableRecord
100
AcDbLinetypeTableRecord
  2
Continuous
 70
     0
  3
Solid line
 72
    65
 73
     0
 40
0.0
  0
LTYPE
  5
5E
330
5
100
AcDbSymbolTableRecord
100
AcDbLinetypeTableRecord
  2
HIDDEN
 70
     0
  3
Hidden __ __ __ __ __ __ __ __ __ __ __ __ __ __
 72
    65
 73
     2
 40
1.905
 49
1.27
 74
     0
 49
-0.635
 74
     0
  0
LTYPE
  5
5F
330
5
100
AcDbSymbolTableRecord
100
AcDbLinetypeTableRecord
  2
PHANTOM
 70
     0
  3
Phantom ______  __  __  ______  __  __  ______
 72
    65
 73
     6
 40
12.7
 49
6.35
 74
     0
 49
-1.27
 74
     0
 49
1.27
 74
     0
 49
-1.27
 74
     0
 49
1.27
 74
     0
 49
-1.27
 74
     0
  0
LTYPE
  5
60
330
5
100
AcDbSymbolTableRecord
100
AcDbLinetypeTableRecord
  2
CENTER
 70
     0
  3
Center ____ _ ____ _ ____ _ ____ _ ____ _ ____
 72
    65
 73
     4
 40
10.16
 49
6.35
 74
     0
 49
-1.27
 74
     0
 49
1.27
 74
     0
 49
-1.27
 74
     0
  0
LTYPE
  5
61
330
5
100
AcDbSymbolTableRecord
100
AcDbLinetypeTableRecord
  2
CENTERX2
 70
     0
  3
Center (2x) ________  __  ________  __  _____
 72
    65
 73
     4
 40
20.32
 49
12.7
 74
     0
 49
-2.54
 74
     0
 49
2.54
 74
     0
 49
-2.54
 74
     0
  0
LTYPE
  5
62
330
5
100
AcDbSymbolTableRecord
100
AcDbLinetypeTableRecord
  2
DOT2
 70
     0
  3
Dot (.5x) ........................................
 72
    65
 73
     2
 40
0.635
 49
0.0
 74
     0
 49
-0.635
 74
     0
  0
ENDTAB
  0
TABLE
  2
LAYER
  5
2
330
0
100
AcDbSymbolTable
 70
     1
  0
LAYER
  5
10
330
2
100
AcDbSymbolTableRecord
100
AcDbLayerTableRecord
  2
0
 70
     0
 62
     7
  6
Continuous
370
    -3
390
F
  0
ENDTAB
  0
TABLE
  2
STYLE
  5
3
330
0
100
AcDbSymbolTable
 70
     2
  0
STYLE
  5
11
330
3
100
AcDbSymbolTableRecord
100
AcDbTextStyleTableRecord
  2
Standard
 70
     0
 40
0.0
 41
1.0
 50
0.0
 71
     0
 42
3.5
  3
txt
  4
bigfont
  0
STYLE
  5
63
330
3
100
AcDbSymbolTableRecord
100
AcDbTextStyleTableRecord
  2
SLDTEXTSTYLE0
 70
     0
 40
0.0
 41
0.7
 50
0.0
 71
     0
 42
3.5
  3
TXT
  4
bigfont
  0
ENDTAB
  0
TABLE
  2
VIEW
  5
6
330
0
100
AcDbSymbolTable
 70
     0
  0
ENDTAB
  0
TABLE
  2
UCS
  5
7
330
0
100
AcDbSymbolTable
 70
     0
  0
ENDTAB
  0
TABLE
  2
APPID
  5
9
330
0
100
AcDbSymbolTable
 70
     1
  0
APPID
  5
12
330
9
100
AcDbSymbolTableRecord
100
AcDbRegAppTableRecord
  2
ACAD
 70
     0
  0
ENDTAB
  0
TABLE
  2
DIMSTYLE
  5
A
330
0
100
AcDbSymbolTable
 70
     1
100
AcDbDimStyleTable
  0
DIMSTYLE
105
27
330
A
100
AcDbSymbolTableRecord
100
AcDbDimStyleTableRecord
  2
ISO-25
 70
     0
 41
2.5
 42
0.625
 43
3.75
 44
1.25
 73
     0
 74
     0
 77
     1
 78
     8
140
2.5
141
2.5
143
0.0393700787
147
0.625
171
     3
172
     1
178
     0
271
     2
272
     2
274
     3
278
    44
283
     0
284
     8
340
11
  0
ENDTAB
  0
TABLE
  2
BLOCK_RECORD
  5
1
330
0
100
AcDbSymbolTable
 70
     3
  0
BLOCK_RECORD
  5
1F
330
1
100
AcDbSymbolTableRecord
100
AcDbBlockTableRecord
  2
*Model_Space
340
22
  0
BLOCK_RECORD
  5
1B
330
1
100
AcDbSymbolTableRecord
100
AcDbBlockTableRecord
  2
*Paper_Space
340
1E
  0
BLOCK_RECORD
  5
23
330
1
100
AcDbSymbolTableRecord
100
AcDbBlockTableRecord
  2
*Paper_Space0
340
26
  0
BLOCK_RECORD
  5
222
330
1
100
AcDbSymbolTableRecord
100
AcDbBlockTableRecord
  2
SW_CENTERMARKSYMBOL_0
340
0
102
{BLKREFS
331
22D
102
}
  0
BLOCK_RECORD
  5
32D
330
1
100
AcDbSymbolTableRecord
100
AcDbBlockTableRecord
  2
SW_CENTERMARKSYMBOL_1
340
0
102
{BLKREFS
331
338
102
}
  0
ENDTAB
  0
ENDSEC
  0
SECTION
  2
BLOCKS
  0
BLOCK
  5
20
330
1F
100
AcDbEntity
  8
0
100
AcDbBlockBegin
  2
*Model_Space
 70
     0
 10
0.0
 20
0.0
 30
0.0
  3
*Model_Space
  1

  0
ENDBLK
  5
21
330
1F
100
AcDbEntity
  8
0
100
AcDbBlockEnd
  0
BLOCK
  5
1C
330
1B
100
AcDbEntity
 67
     1
  8
0
100
AcDbBlockBegin
  2
*Paper_Space
 70
     0
 10
0.0
 20
0.0
 30
0.0
  3
*Paper_Space
  1

  0
ENDBLK
  5
1D
330
1B
100
AcDbEntity
 67
     1
  8
0
100
AcDbBlockEnd
  0
BLOCK
  5
24
330
23
100
AcDbEntity
  8
0
100
AcDbBlockBegin
  2
*Paper_Space0
 70
     0
 10
0.0
 20
0.0
 30
0.0
  3
*Paper_Space0
  1

  0
ENDBLK
  5
25
330
23
100
AcDbEntity
  8
0
100
AcDbBlockEnd
  0
BLOCK
  5
223
330
222
100
AcDbEntity
  8
0
100
AcDbBlockBegin
  2
SW_CENTERMARKSYMBOL_0
 70
     0
 10
0.0
 20
0.0
 30
0.0
  3
SW_CENTERMARKSYMBOL_0
  1

  0
LINE
  5
225
330
222
100
AcDbEntity
  8
0
  6
Continuous
 62
     0
370
    18
100
AcDbLine
 10
0.0
 20
0.0
 30
0.0
 11
0.0
 21
2.5
 31
0.0
  0
LINE
  5
226
330
222
100
AcDbEntity
  8
0
  6
Continuous
 62
     0
370
    18
100
AcDbLine
 10
0.0
 20
0.0
 30
0.0
 11
-2.5
 21
0.0
 31
0.0
  0
LINE
  5
227
330
222
100
AcDbEntity
  8
0
  6
Continuous
 62
     0
370
    18
100
AcDbLine
 10
0.0
 20
0.0
 30
0.0
 11
0.0
 21
-2.5
 31
0.0
  0
LINE
  5
228
330
222
100
AcDbEntity
  8
0
  6
Continuous
 62
     0
370
    18
100
AcDbLine
 10
0.0
 20
0.0
 30
0.0
 11
2.5
 21
0.0
 31
0.0
  0
LINE
  5
229
330
222
100
AcDbEntity
  8
0
  6
Continuous
 62
     0
370
    18
100
AcDbLine
 10
0.0
 20
5.0
 30
0.0
 11
0.0
 21
31.7421788071
 31
0.0
  0
LINE
  5
22A
330
222
100
AcDbEntity
  8
0
  6
Continuous
 62
     0
370
    18
100
AcDbLine
 10
-5.0
 20
0.0
 30
0.0
 11
-11.0
 21
0.0
 31
0.0
  0
LINE
  5
22B
330
222
100
AcDbEntity
  8
0
  6
Continuous
 62
     0
370
    18
100
AcDbLine
 10
0.0
 20
-5.0
 30
0.0
 11
0.0
 21
-24.8943848915
 31
0.0
  0
LINE
  5
22C
330
222
100
AcDbEntity
  8
0
  6
Continuous
 62
     0
370
    18
100
AcDbLine
 10
5.0
 20
0.0
 30
0.0
 11
11.0
 21
0.0
 31
0.0
  0
ENDBLK
  5
224
330
222
100
AcDbEntity
  8
0
100
AcDbBlockEnd
  0
BLOCK
  5
32E
330
32D
100
AcDbEntity
  8
0
100
AcDbBlockBegin
  2
SW_CENTERMARKSYMBOL_1
 70
     0
 10
0.0
 20
0.0
 30
0.0
  3
SW_CENTERMARKSYMBOL_1
  1

  0
LINE
  5
330
330
32D
100
AcDbEntity
  8
0
  6
Continuous
 62
     0
370
    18
100
AcDbLine
 10
0.0
 20
0.0
 30
0.0
 11
0.0
 21
2.5
 31
0.0
  0
LINE
  5
331
330
32D
100
AcDbEntity
  8
0
  6
Continuous
 62
     0
370
    18
100
AcDbLine
 10
0.0
 20
0.0
 30
0.0
 11
-2.5
 21
0.0
 31
0.0
  0
LINE
  5
332
330
32D
100
AcDbEntity
  8
0
  6
Continuous
 62
     0
370
    18
100
AcDbLine
 10
0.0
 20
0.0
 30
0.0
 11
0.0
 21
-2.5
 31
0.0
  0
LINE
  5
333
330
32D
100
AcDbEntity
  8
0
  6
Continuous
 62
     0
370
    18
100
AcDbLine
 10
0.0
 20
0.0
 30
0.0
 11
2.5
 21
0.0
 31
0.0
  0
LINE
  5
334
330
32D
100
AcDbEntity
  8
0
  6
Continuous
 62
     0
370
    18
100
AcDbLine
 10
0.0
 20
5.0
 30
0.0
 11
0.0
 21
10.5000000325
 31
0.0
  0
LINE
  5
335
330
32D
100
AcDbEntity
  8
0
  6
Continuous
 62
     0
370
    18
100
AcDbLine
 10
-5.0
 20
0.0
 30
0.0
 11
-43.2225429489
 21
0.0
 31
0.0
  0
LINE
  5
336
330
32D
100
AcDbEntity
  8
0
  6
Continuous
 62
     0
370
    18
100
AcDbLine
 10
0.0
 20
-5.0
 30
0.0
 11
0.0
 21
-10.5000000325
 31
0.0
  0
LINE
  5
337
330
32D
100
AcDbEntity
  8
0
  6
Continuous
 62
     0
370
    18
100
AcDbLine
 10
5.0
 20
0.0
 30
0.0
 11
43.3390136258
 21
0.0
 31
0.0
  0
ENDBLK
  5
32F
330
32D
100
AcDbEntity
  8
0
100
AcDbBlockEnd
  0
ENDSEC
  0
SECTION
  2
ENTITIES
  0
MTEXT
  5
64
330
1F
100
AcDbEntity
  8
0
  6
Continuous
 62
     7
370
     0
100
AcDbMText
 10
201.1722287123
 20
124.1124979367
 30
0.0
 40
3.5
 41
0.0
 71
     1
 72
     1
  1
エースボール　アングル型
  7
SLDTEXTSTYLE0
 73
     1
 44
1.0
  0
MTEXT
  5
65
330
1F
100
AcDbEntity
  8
0
  6
Continuous
 62
     7
370
     0
100
AcDbMText
 10
201.1722287123
 20
119.6124981304
 30
0.0
 40
3.5
 41
0.0
 71
     1
 72
     1
  1
BH-5310R
  7
SLDTEXTSTYLE0
 73
     1
 44
1.0
  0
LINE
  5
66
330
1F
100
AcDbEntity
  8
0
  6
Continuous
 62
     7
370
    25
100
AcDbLine
 10
180.7798258683
 20
65.2481170339
 30
0.0
 11
183.5798258683
 21
65.2481170339
 31
0.0
  0
LINE
  5
67
330
1F
100
AcDbEntity
  8
0
  6
Continuous
 62
     7
370
    25
100
AcDbLine
 10
183.5798258683
 20
81.2481170339
 30
0.0
 11
180.7798258683
 21
81.2481170339
 31
0.0
  0
LINE
  5
68
330
1F
100
AcDbEntity
  8
0
  6
Continuous
 62
     7
370
    25
100
AcDbLine
 10
183.5798258683
 20
65.2481170339
 30
0.0
 11
183.7798258683
 21
65.4481170339
 31
0.0
  0
LINE
  5
69
330
1F
100
AcDbEntity
  8
0
  6
Continuous
 62
     7
370
    25
100
AcDbLine
 10
183.7798258683
 20
81.0481170339
 30
0.0
 11
183.5798258683
 21
81.2481170339
 31
0.0
  0
LINE
  5
6A
330
1F
100
AcDbEntity
  8
0
  6
Continuous
 62
     7
370
    25
100
AcDbLine
 10
206.2798258683
 20
67.9981170339
 30
0.0
 11
210.2998258683
 21
68.6681170339
 31
0.0
  0
LINE
  5
6B
330
1F
100
AcDbEntity
  8
0
  6
Continuous
 62
     7
370
    25
100
AcDbLine
 10
210.2998258683
 20
77.8281170339
 30
0.0
 11
206.2798258683
 21
78.4981170339
 31
0.0
  0
LINE
  5
6C
330
1F
100
AcDbEntity
  8
0
  6
Continuous
 62
     7
370
    25
100
AcDbLine
 10
197.2798258683
 20
67.9981170339
 30
0.0
 11
201.7798258683
 21
68.7481170339
 31
0.0
  0
LINE
  5
6D
330
1F
100
AcDbEntity
  8
0
  6
Continuous
 62
     7
370
    25
100
AcDbLine
 10
201.7798258683
 20
77.7481170339
 30
0.0
 11
197.2798258683
 21
78.4981170339
 31
0.0
  0
LINE
  5
6E
330
1F
100
AcDbEntity
  8
0
  6
Continuous
 62
     7
370
    25
100
AcDbLine
 10
201.7798258683
 20
67.9981170339
 30
0.0
 11
206.2798258683
 21
68.7481170339
 31
0.0
  0
LINE
  5
6F
330
1F
100
AcDbEntity
  8
0
  6
Continuous
 62
     7
370
    25
100
AcDbLine
 10
206.2798258683
 20
77.7481170339
 30
0.0
 11
201.7798258683
 21
78.4981170339
 31
0.0
  0
LINE
  5
70
330
1F
100
AcDbEntity
  8
0
  6
Continuous
 62
     7
370
    25
100
AcDbLine
 10
192.7798258683
 20
67.9981170339
 30
0.0
 11
197.2798258683
 21
68.7481170339
 31
0.0
  0
LINE
  5
71
330
1F
100
AcDbEntity
  8
0
  6
Continuous
 62
     7
370
    25
100
AcDbLine
 10
197.2798258683
 20
77.7481170339
 30
0.0
 11
192.7798258683
 21
78.4981170339
 31
0.0
  0
LINE
  5
72
330
1F
100
AcDbEntity
  8
0
  6
Continuous
 62
     7
370
    25
100
AcDbLine
 10
183.7798258683
 20
67.9981170339
 30
0.0
 11
188.2798258683
 21
67.9981170339
 31
0.0
  0
LINE
  5
73
330
1F
100
AcDbEntity
  8
0
  6
Continuous
 62
     7
370
    25
100
AcDbLine
 10
188.2798258683
 20
78.4981170339
 30
0.0
 11
183.7798258683
 21
78.4981170339
 31
0.0
  0
LINE
  5
74
330
1F
100
AcDbEntity
  8
0
  6
Continuous
 62
     7
370
    25
100
AcDbLine
 10
188.2798258683
 20
67.9981170339
 30
0.0
 11
192.7798258683
 21
68.7481170339
 31
0.0
  0
LINE
  5
75
330
1F
100
AcDbEntity
  8
0
  6
Continuous
 62
     7
370
    25
100
AcDbLine
 10
192.7798258683
 20
77.7481170339
 30
0.0
 11
188.2798258683
 21
78.4981170339
 31
0.0
  0
LINE
  5
76
330
1F
100
AcDbEntity
  8
0
  6
Continuous
 62
     7
370
    25
100
AcDbLine
 10
210.2998258683
 20
68.6681170339
 30
0.0
 11
210.7798258683
 21
69.1481170339
 31
0.0
  0
LINE
  5
77
330
1F
100
AcDbEntity
  8
0
  6
Continuous
 62
     7
370
    25
100
AcDbLine
 10
210.7798258683
 20
77.3481170339
 30
0.0
 11
210.2998258683
 21
77.8281170339
 31
0.0
  0
LINE
  5
78
330
1F
100
AcDbEntity
  8
0
  6
Continuous
 62
     7
370
    25
100
AcDbLine
 10
154.9798258683
 20
81.2481170339
 30
0.0
 11
154.7798258683
 21
81.0481170339
 31
0.0
  0
LINE
  5
79
330
1F
100
AcDbEntity
  8
0
  6
Continuous
 62
     7
370
    25
100
AcDbLine
 10
154.7798258683
 20
65.4481170339
 30
0.0
 11
154.9798258683
 21
65.2481170339
 31
0.0
  0
LINE
  5
7A
330
1F
100
AcDbEntity
  8
0
  6
Continuous
 62
     7
370
    25
100
AcDbLine
 10
157.7798258683
 20
81.2481170339
 30
0.0
 11
154.9798258683
 21
81.2481170339
 31
0.0
  0
LINE
  5
7B
330
1F
100
AcDbEntity
  8
0
  6
Continuous
 62
     7
370
    25
100
AcDbLine
 10
154.9798258683
 20
65.2481170339
 30
0.0
 11
157.7798258683
 21
65.2481170339
 31
0.0
  0
LINE
  5
7C
330
1F
100
AcDbEntity
  8
0
  6
Continuous
 62
     7
370
    25
100
AcDbLine
 10
141.2798258683
 20
78.4981170339
 30
0.0
 11
136.7798258683
 21
77.7481170339
 31
0.0
  0
LINE
  5
7D
330
1F
100
AcDbEntity
  8
0
  6
Continuous
 62
     7
370
    25
100
AcDbLine
 10
136.7798258683
 20
68.7481170339
 30
0.0
 11
141.2798258683
 21
67.9981170339
 31
0.0
  0
LINE
  5
7E
330
1F
100
AcDbEntity
  8
0
  6
Continuous
 62
     7
370
    25
100
AcDbLine
 10
154.7798258683
 20
78.4981170339
 30
0.0
 11
150.2798258683
 21
78.4981170339
 31
0.0
  0
LINE
  5
7F
330
1F
100
AcDbEntity
  8
0
  6
Continuous
 62
     7
370
    25
100
AcDbLine
 10
150.2798258683
 20
67.9981170339
 30
0.0
 11
154.7798258683
 21
67.9981170339
 31
0.0
  0
LINE
  5
80
330
1F
100
AcDbEntity
  8
0
  6
Continuous
 62
     7
370
    25
100
AcDbLine
 10
132.2798258683
 20
78.4981170339
 30
0.0
 11
128.2598258683
 21
77.8281170339
 31
0.0
  0
LINE
  5
81
330
1F
100
AcDbEntity
  8
0
  6
Continuous
 62
     7
370
    25
100
AcDbLine
 10
128.2598258683
 20
68.6681170339
 30
0.0
 11
132.2798258683
 21
67.9981170339
 31
0.0
  0
LINE
  5
82
330
1F
100
AcDbEntity
  8
0
  6
Continuous
 62
     7
370
    25
100
AcDbLine
 10
136.7798258683
 20
78.4981170339
 30
0.0
 11
132.2798258683
 21
77.7481170339
 31
0.0
  0
LINE
  5
83
330
1F
100
AcDbEntity
  8
0
  6
Continuous
 62
     7
370
    25
100
AcDbLine
 10
132.2798258683
 20
68.7481170339
 30
0.0
 11
136.7798258683
 21
67.9981170339
 31
0.0
  0
LINE
  5
84
330
1F
100
AcDbEntity
  8
0
  6
Continuous
 62
     7
370
    25
100
AcDbLine
 10
145.7798258683
 20
78.4981170339
 30
0.0
 11
141.2798258683
 21
77.7481170339
 31
0.0
  0
LINE
  5
85
330
1F
100
AcDbEntity
  8
0
  6
Continuous
 62
     7
370
    25
100
AcDbLine
 10
141.2798258683
 20
68.7481170339
 30
0.0
 11
145.7798258683
 21
67.9981170339
 31
0.0
  0
LINE
  5
86
330
1F
100
AcDbEntity
  8
0
  6
Continuous
 62
     7
370
    25
100
AcDbLine
 10
150.2798258683
 20
78.4981170339
 30
0.0
 11
145.7798258683
 21
77.7481170339
 31
0.0
  0
LINE
  5
87
330
1F
100
AcDbEntity
  8
0
  6
Continuous
 62
     7
370
    25
100
AcDbLine
 10
145.7798258683
 20
68.7481170339
 30
0.0
 11
150.2798258683
 21
67.9981170339
 31
0.0
  0
LINE
  5
88
330
1F
100
AcDbEntity
  8
0
  6
Continuous
 62
     7
370
    25
100
AcDbLine
 10
128.2598258683
 20
77.8281170339
 30
0.0
 11
127.7798258683
 21
77.3481170339
 31
0.0
  0
LINE
  5
89
330
1F
100
AcDbEntity
  8
0
  6
Continuous
 62
     7
370
    25
100
AcDbLine
 10
127.7798258683
 20
69.1481170339
 30
0.0
 11
128.2598258683
 21
68.6681170339
 31
0.0
  0
LINE
  5
8A
330
1F
100
AcDbEntity
  8
0
  6
Continuous
 62
     7
370
    25
100
AcDbLine
 10
160.7535133683
 20
62.2481170339
 30
0.0
 11
161.0791498738
 21
51.8277488599
 31
0.0
  0
LINE
  5
8B
330
1F
100
AcDbEntity
  8
0
  6
Continuous
 62
     7
370
    25
100
AcDbLine
 10
177.4805018629
 20
51.8277488599
 30
0.0
 11
177.8061383683
 21
62.2481170339
 31
0.0
  0
LINE
  5
8C
330
1F
100
AcDbEntity
  8
0
  6
Continuous
 62
     7
370
    25
100
AcDbLine
 10
161.0791498738
 20
51.8277488599
 30
0.0
 11
162.2798258683
 21
49.7481170339
 31
0.0
  0
LINE
  5
8D
330
1F
100
AcDbEntity
  8
0
  6
Continuous
 62
     7
370
    25
100
AcDbLine
 10
176.2798258683
 20
49.7481170339
 30
0.0
 11
177.4805018629
 21
51.8277488599
 31
0.0
  0
SPLINE
  5
8E
330
1F
100
AcDbEntity
  8
0
  6
Continuous
 62
     7
370
    25
100
AcDbSpline
210
0.0
220
0.0
230
1.0
 70
     8
 71
     3
 72
    10
 73
     6
 74
     0
 42
0.00000001
 43
0.00000001
 40
0.0
 40
0.0
 40
0.0
 40
0.0
 40
0.2475305611572845
 40
0.633317421741621
 40
1.0
 40
1.0
 40
1.0
 40
1.0
 10
163.3727236583436
 20
82.7482782771392
 30
0.0
 10
163.3718550286852
 20
82.68450996348277
 30
0.0
 10
163.3696326029243
 20
82.52135603289379
 30
0.0
 10
163.2790547495578
 20
82.27180760146028
 30
0.0
 10
163.1537805580062
 20
82.12348676861266
 30
0.0
 10
163.092733741782
 20
82.05120919481294
 30
0.0
  0
SPLINE
  5
8F
330
1F
100
AcDbEntity
  8
0
  6
Continuous
 62
     7
370
    25
100
AcDbSpline
210
0.0
220
0.0
230
1.0
 70
     8
 71
     3
 72
    10
 73
     6
 74
     0
 42
0.00000001
 43
0.00000001
 40
0.0
 40
0.0
 40
0.0
 40
0.0
 40
0.3094059549833754
 40
0.7046057058128548
 40
0.9999999999999999
 40
0.9999999999999999
 40
0.9999999999999999
 40
0.9999999999999999
 10
175.4694647362177
 20
82.05444406978827
 30
0.0
 10
175.4157752230956
 20
82.1129943817605
 30
0.0
 10
175.2935088714663
 20
82.24633016030094
 30
0.0
 10
175.1966363978551
 20
82.4921959179897
 30
0.0
 10
175.1866837860951
 20
82.66879078583298
 30
0.0
 10
175.1824266617434
 20
82.74432737164642
 30
0.0
  0
LINE
  5
90
330
1F
100
AcDbEntity
  8
0
  6
Continuous
 62
     7
370
    25
100
AcDbLine
 10
175.1798258683
 20
82.7435862138
 30
0.0
 11
175.1798258683
 21
83.7481170339
 31
0.0
  0
LINE
  5
91
330
1F
100
AcDbEntity
  8
0
  6
Continuous
 62
     7
370
    25
100
AcDbLine
 10
163.3798258683
 20
83.7481170339
 30
0.0
 11
163.3798258683
 21
82.7481170339
 31
0.0
  0
LINE
  5
92
330
1F
100
AcDbEntity
  8
0
  6
Continuous
 62
     7
370
    25
100
AcDbLine
 10
163.109658961
 20
82.0428547632
 30
0.0
 11
162.5652946885
 21
82.9857213409
 31
0.0
  0
LINE
  5
93
330
1F
100
AcDbEntity
  8
0
  6
Continuous
 62
     7
370
    25
100
AcDbLine
 10
180.0652946885
 20
63.5105127269
 30
0.0
 11
180.7798258683
 21
64.7481170339
 31
0.0
  0
LINE
  5
94
330
1F
100
AcDbEntity
  8
0
  6
Continuous
 62
     7
370
    25
100
AcDbLine
 10
175.9943570482
 20
82.9857213409
 30
0.0
 11
175.4499927757
 21
82.0428547632
 31
0.0
  0
LINE
  5
95
330
1F
100
AcDbEntity
  8
0
  6
Continuous
 62
     7
370
    25
100
AcDbLine
 10
158.4943570482
 20
82.9857213409
 30
0.0
 11
157.7798258683
 21
81.7481170339
 31
0.0
  0
LINE
  5
96
330
1F
100
AcDbEntity
  8
0
  6
Continuous
 62
     7
370
    25
100
AcDbLine
 10
180.7798258683
 20
81.7481170339
 30
0.0
 11
180.0652946885
 21
82.9857213409
 31
0.0
  0
LINE
  5
97
330
1F
100
AcDbEntity
  8
0
  6
Continuous
 62
     7
370
    25
100
AcDbLine
 10
157.7798258683
 20
64.7481170339
 30
0.0
 11
158.4943570482
 21
63.5105127269
 31
0.0
  0
LINE
  5
98
330
1F
100
AcDbEntity
  8
0
  6
Continuous
 62
     7
370
    25
100
AcDbLine
 10
179.0174301754
 20
62.2481170339
 30
0.0
 11
179.0174301754
 21
63.5105127269
 31
0.0
  0
LINE
  5
99
330
1F
100
AcDbEntity
  8
0
  6
Continuous
 62
     7
370
    25
100
AcDbLine
 10
179.0174301754
 20
63.5105127269
 30
0.0
 11
180.0678550698
 21
63.5105127269
 31
0.0
  0
LINE
  5
9A
330
1F
100
AcDbEntity
  8
0
  6
Continuous
 62
     7
370
    25
100
AcDbLine
 10
162.567862744
 20
82.9857213409
 30
0.0
 11
158.4917966668
 21
82.9857213409
 31
0.0
  0
LINE
  5
9B
330
1F
100
AcDbEntity
  8
0
  6
Continuous
 62
     7
370
    25
100
AcDbLine
 10
180.0678550698
 20
82.9857213409
 30
0.0
 11
175.9917889927
 21
82.9857213409
 31
0.0
  0
LINE
  5
9C
330
1F
100
AcDbEntity
  8
0
  6
Continuous
 62
     7
370
    25
100
AcDbLine
 10
159.5422215613
 20
63.5105127269
 30
0.0
 11
159.5422215613
 21
62.2481170339
 31
0.0
  0
LINE
  5
9D
330
1F
100
AcDbEntity
  8
0
  6
Continuous
 62
     7
370
    25
100
AcDbLine
 10
158.4917966668
 20
63.5105127269
 30
0.0
 11
159.5422215613
 21
63.5105127269
 31
0.0
  0
ARC
  5
9E
330
1F
100
AcDbEntity
  8
0
  6
Continuous
 62
     7
370
    25
100
AcDbCircle
 10
169.2798258683
 20
82.2481170339
 30
0.0
 40
20.5
100
AcDbArc
 50
96.3582831464
 51
102.6803834918
  0
ARC
  5
9F
330
1F
100
AcDbEntity
  8
0
  6
Continuous
 62
     7
370
    25
100
AcDbCircle
 10
169.2798258683
 20
82.2481170339
 30
0.0
 40
20.50000000000001
100
AcDbArc
 50
77.3196165082
 51
83.6417168446
  0
ARC
  5
A0
330
1F
100
AcDbEntity
  8
0
  6
Continuous
 62
     7
370
    25
100
AcDbCircle
 10
169.2798258683
 20
82.2481170339
 30
0.0
 40
20.60000000000001
100
AcDbArc
 50
90.5277931202
 51
93.3558231766
  0
ARC
  5
A1
330
1F
100
AcDbEntity
  8
0
  6
Continuous
 62
     7
370
    25
100
AcDbCircle
 10
169.2798258683
 20
82.2481170339
 30
0.0
 40
20.6
100
AcDbArc
 50
86.6441768145
 51
89.4757392299
  0
LINE
  5
A2
330
1F
100
AcDbEntity
  8
0
  6
Continuous
 62
     7
370
    25
100
AcDbLine
 10
161.2838921451
 20
90.6911891588
 30
0.0
 11
161.7466561201
 21
84.2124935089
 31
0.0
  0
LINE
  5
A3
330
1F
100
AcDbEntity
  8
0
  6
Continuous
 62
     7
370
    25
100
AcDbLine
 10
161.2798257687
 20
90.7481184287
 30
0.0
 11
161.2838921451
 21
90.6911891588
 31
0.0
  0
LINE
  5
A4
330
1F
100
AcDbEntity
  8
0
  6
Continuous
 62
     7
370
    25
100
AcDbLine
 10
176.8129956165
 20
84.2124935089
 30
0.0
 11
177.279825968
 21
90.7481184287
 31
0.0
  0
ARC
  5
A5
330
1F
100
AcDbEntity
  8
0
  6
Continuous
 62
     7
370
    25
100
AcDbCircle
 10
176.3142662666
 20
84.2481170339
 30
0.0
 40
0.5000000000000105
100
AcDbArc
 50
270.0
 51
355.91438322
  0
ARC
  5
A6
330
1F
100
AcDbEntity
  8
0
  6
Continuous
 62
     7
370
    25
100
AcDbCircle
 10
162.24538547
 20
84.2481170339
 30
0.0
 40
0.5000000000000105
100
AcDbArc
 50
184.08561678
 51
270.0
  0
LINE
  5
A7
330
1F
100
AcDbEntity
  8
0
  6
Continuous
 62
     7
370
    25
100
AcDbLine
 10
175.2049389917
 20
100.2481170339
 30
0.0
 11
174.8640076521
 21
101.8520728793
 31
0.0
  0
LINE
  5
A8
330
1F
100
AcDbEntity
  8
0
  6
Continuous
 62
     7
370
    25
100
AcDbLine
 10
163.6956440846
 20
101.8520728793
 30
0.0
 11
163.354712745
 21
100.2481170339
 31
0.0
  0
ARC
  5
A9
330
1F
100
AcDbEntity
  8
0
  6
Continuous
 62
     7
370
    25
100
AcDbCircle
 10
164.1847178849
 20
101.7481170339
 30
0.0
 40
0.5000000000000231
100
AcDbArc
 50
90.0
 51
168.0
  0
ARC
  5
AA
330
1F
100
AcDbEntity
  8
0
  6
Continuous
 62
     7
370
    25
100
AcDbCircle
 10
174.3749338517
 20
101.7481170339
 30
0.0
 40
0.5000000000000231
100
AcDbArc
 50
12.0
 51
90.0
  0
LINE
  5
AB
330
1F
100
AcDbEntity
  8
0
  6
Continuous
 62
     7
370
    25
100
AcDbLine
 10
183.5798258683
 20
65.2481170339
 30
0.0
 11
183.5798258683
 21
81.2481170339
 31
0.0
  0
LINE
  5
AC
330
1F
100
AcDbEntity
  8
0
  6
Continuous
 62
     7
370
    25
100
AcDbLine
 10
183.7798258683
 20
81.0481170339
 30
0.0
 11
183.7798258683
 21
65.4481170339
 31
0.0
  0
LINE
  5
AD
330
1F
100
AcDbEntity
  8
0
  6
Continuous
 62
     7
370
    25
100
AcDbLine
 10
210.2998258683
 20
68.6681170339
 30
0.0
 11
210.2998258683
 21
77.8281170339
 31
0.0
  0
LINE
  5
AE
330
1F
100
AcDbEntity
  8
0
  6
Continuous
 62
     7
370
    25
100
AcDbLine
 10
206.2798258683
 20
67.9981170339
 30
0.0
 11
206.2798258683
 21
78.4981170339
 31
0.0
  0
LINE
  5
AF
330
1F
100
AcDbEntity
  8
0
  6
Continuous
 62
     7
370
    25
100
AcDbLine
 10
197.2798258683
 20
67.9981170339
 30
0.0
 11
197.2798258683
 21
78.4981170339
 31
0.0
  0
LINE
  5
B0
330
1F
100
AcDbEntity
  8
0
  6
Continuous
 62
     7
370
    25
100
AcDbLine
 10
201.7798258683
 20
67.9981170339
 30
0.0
 11
201.7798258683
 21
78.4981170339
 31
0.0
  0
LINE
  5
B1
330
1F
100
AcDbEntity
  8
0
  6
Continuous
 62
     7
370
    25
100
AcDbLine
 10
192.7798258683
 20
67.9981170339
 30
0.0
 11
192.7798258683
 21
78.4981170339
 31
0.0
  0
LINE
  5
B2
330
1F
100
AcDbEntity
  8
0
  6
Continuous
 62
     7
370
    25
100
AcDbLine
 10
188.2798258683
 20
67.9981170339
 30
0.0
 11
188.2798258683
 21
78.4981170339
 31
0.0
  0
LINE
  5
B3
330
1F
100
AcDbEntity
  8
0
  6
Continuous
 62
     7
370
    25
100
AcDbLine
 10
210.7798258683
 20
77.3481170339
 30
0.0
 11
210.7798258683
 21
69.1481170339
 31
0.0
  0
LINE
  5
B4
330
1F
100
AcDbEntity
  8
0
  6
Continuous
 62
     7
370
    25
100
AcDbLine
 10
154.9798258683
 20
76.5735859378
 30
0.0
 11
154.9798258683
 21
65.2481170339
 31
0.0
  0
LINE
  5
B5
330
1F
100
AcDbEntity
  8
0
  6
Continuous
 62
     7
370
    25
100
AcDbLine
 10
154.9798258683
 20
81.2481170339
 30
0.0
 11
154.9798258683
 21
76.5735859378
 31
0.0
  0
LINE
  5
B6
330
1F
100
AcDbEntity
  8
0
  6
Continuous
 62
     7
370
    25
100
AcDbLine
 10
154.7798258683
 20
76.4904492152
 30
0.0
 11
154.7798258683
 21
81.0481170339
 31
0.0
  0
LINE
  5
B7
330
1F
100
AcDbEntity
  8
0
  6
Continuous
 62
     7
370
    25
100
AcDbLine
 10
154.7798258683
 20
65.4481170339
 30
0.0
 11
154.7798258683
 21
76.4904492152
 31
0.0
  0
LINE
  5
B8
330
1F
100
AcDbEntity
  8
0
  6
Continuous
 62
     7
370
    25
100
AcDbLine
 10
141.2798258683
 20
75.4304560021
 30
0.0
 11
141.2798258683
 21
67.9981170339
 31
0.0
  0
LINE
  5
B9
330
1F
100
AcDbEntity
  8
0
  6
Continuous
 62
     7
370
    25
100
AcDbLine
 10
141.2798258683
 20
78.4981170339
 30
0.0
 11
141.2798258683
 21
75.4304560021
 31
0.0
  0
LINE
  5
BA
330
1F
100
AcDbEntity
  8
0
  6
Continuous
 62
     7
370
    25
100
AcDbLine
 10
150.2798258683
 20
75.4304560021
 30
0.0
 11
150.2798258683
 21
67.9981170339
 31
0.0
  0
LINE
  5
BB
330
1F
100
AcDbEntity
  8
0
  6
Continuous
 62
     7
370
    25
100
AcDbLine
 10
150.2798258683
 20
78.4981170339
 30
0.0
 11
150.2798258683
 21
75.4304560021
 31
0.0
  0
LINE
  5
BC
330
1F
100
AcDbEntity
  8
0
  6
Continuous
 62
     7
370
    25
100
AcDbLine
 10
132.2798258683
 20
75.4304560021
 30
0.0
 11
132.2798258683
 21
67.9981170339
 31
0.0
  0
LINE
  5
BD
330
1F
100
AcDbEntity
  8
0
  6
Continuous
 62
     7
370
    25
100
AcDbLine
 10
132.2798258683
 20
78.4981170339
 30
0.0
 11
132.2798258683
 21
75.4304560021
 31
0.0
  0
LINE
  5
BE
330
1F
100
AcDbEntity
  8
0
  6
Continuous
 62
     7
370
    25
100
AcDbLine
 10
128.2598258683
 20
77.8281170339
 30
0.0
 11
128.2598258683
 21
68.6681170339
 31
0.0
  0
LINE
  5
BF
330
1F
100
AcDbEntity
  8
0
  6
Continuous
 62
     7
370
    25
100
AcDbLine
 10
136.7798258683
 20
75.4304560021
 30
0.0
 11
136.7798258683
 21
67.9981170339
 31
0.0
  0
LINE
  5
C0
330
1F
100
AcDbEntity
  8
0
  6
Continuous
 62
     7
370
    25
100
AcDbLine
 10
136.7798258683
 20
78.4981170339
 30
0.0
 11
136.7798258683
 21
75.4304560021
 31
0.0
  0
LINE
  5
C1
330
1F
100
AcDbEntity
  8
0
  6
Continuous
 62
     7
370
    25
100
AcDbLine
 10
145.7798258683
 20
75.4304560021
 30
0.0
 11
145.7798258683
 21
67.9981170339
 31
0.0
  0
LINE
  5
C2
330
1F
100
AcDbEntity
  8
0
  6
Continuous
 62
     7
370
    25
100
AcDbLine
 10
145.7798258683
 20
78.4981170339
 30
0.0
 11
145.7798258683
 21
75.4304560021
 31
0.0
  0
LINE
  5
C3
330
1F
100
AcDbEntity
  8
0
  6
Continuous
 62
     7
370
    25
100
AcDbLine
 10
127.7798258683
 20
74.9524198471
 30
0.0
 11
127.7798258683
 21
77.3481170339
 31
0.0
  0
LINE
  5
C4
330
1F
100
AcDbEntity
  8
0
  6
Continuous
 62
     7
370
    25
100
AcDbLine
 10
127.7798258683
 20
69.1481170339
 30
0.0
 11
127.7798258683
 21
74.9524198471
 31
0.0
  0
LINE
  5
C5
330
1F
100
AcDbEntity
  8
0
  6
Continuous
 62
     7
370
    25
100
AcDbLine
 10
163.2798258683
 20
80.6093329661
 30
0.0
 11
163.2798258683
 21
77.2481170339
 31
0.0
  0
SPLINE
  5
C6
330
1F
100
AcDbEntity
  8
0
  6
Continuous
 62
     7
370
    25
100
AcDbSpline
210
0.0
220
0.0
230
1.0
 70
     8
 71
     3
 72
     8
 73
     4
 74
     0
 42
0.00000001
 43
0.00000001
 40
0.0
 40
0.0
 40
0.0
 40
0.0
 40
1.0
 40
1.0
 40
1.0
 40
1.0
 10
162.7635897913548
 20
77.24811703390968
 30
0.0
 10
162.7126910744323
 20
77.45516207233868
 30
0.0
 10
162.6587569381815
 20
77.66140140201531
 30
0.0
 10
162.6021044630738
 20
77.86691918742669
 30
0.0
  0
SPLINE
  5
C7
330
1F
100
AcDbEntity
  8
0
  6
Continuous
 62
     7
370
    25
100
AcDbSpline
210
0.0
220
0.0
230
1.0
 70
     8
 71
     3
 72
    10
 73
     6
 74
     0
 42
0.00000001
 43
0.00000001
 40
0.0
 40
0.0
 40
0.0
 40
0.0
 40
0.5
 40
0.5
 40
1.0
 40
1.0
 40
1.0
 40
1.0
 10
162.6021044630738
 20
78.29993188931891
 30
0.0
 10
162.5784290686495
 20
78.25698835841769
 30
0.0
 10
162.5653379587648
 20
78.19354591379356
 30
0.0
 10
162.5652516374765
 20
78.0410670766746
 30
0.0
 10
162.5784205714204
 20
77.95283707456733
 30
0.0
 10
162.6021044630738
 20
77.86691918742669
 30
0.0
  0
SPLINE
  5
C8
330
1F
100
AcDbEntity
  8
0
  6
Continuous
 62
     7
370
    25
100
AcDbSpline
210
0.0
220
0.0
230
1.0
 70
     8
 71
     3
 72
    12
 73
     8
 74
     0
 42
0.00000001
 43
0.00000001
 40
0.0
 40
0.0
 40
0.0
 40
0.0
 40
0.2500000000000001
 40
0.2500000000000001
 40
0.5000000000000002
 40
0.5000000000000002
 40
1.0
 40
1.0
 40
1.0
 40
1.0
 10
163.279825868334
 20
80.60933296607742
 30
0.0
 10
163.279825868334
 20
80.41359070319791
 30
0.0
 10
163.2639829322451
 20
80.21692409400734
 30
0.0
 10
163.2024800720074
 20
79.82765586667907
 30
0.0
 10
163.1568764309637
 20
79.63425183372615
 30
0.0
 10
162.9804254134745
 20
79.05732278246938
 30
0.0
 10
162.8100280462226
 20
78.67707334926638
 30
0.0
 10
162.6021044630738
 20
78.29993188931891
 30
0.0
  0
SPLINE
  5
C9
330
1F
100
AcDbEntity
  8
0
  6
Continuous
 62
     7
370
    25
100
AcDbSpline
210
0.0
220
0.0
230
1.0
 70
     8
 71
     3
 72
    22
 73
    18
 74
     0
 42
0.00000001
 43
0.00000001
 40
0.0
 40
0.0
 40
0.0
 40
0.0
 40
0.2500000000000008
 40
0.2500000000000008
 40
0.3750000000000012
 40
0.3750000000000012
 40
0.4375000000000006
 40
0.4375000000000006
 40
0.5
 40
0.5
 40
0.5624999999999994
 40
0.5624999999999994
 40
0.6249999999999988
 40
0.6249999999999988
 40
0.7499999999999992
 40
0.7499999999999992
 40
1.0
 40
1.0
 40
1.0
 40
1.0
 10
168.6104942258306
 20
62.24811703390969
 30
0.0
 10
168.680031375068
 20
62.07343551032615
 30
0.0
 10
168.7574564832413
 20
61.90067231098323
 30
0.0
 10
168.9068772383543
 20
61.66315525070832
 30
0.0
 10
168.9623001863404
 20
61.58686585714257
 30
0.0
 10
169.0659187628515
 20
61.48998982358959
 30
0.0
 10
169.1037389008259
 20
61.46110087297672
 30
0.0
 10
169.1884489287253
 20
61.41845791505474
 30
0.0
 10
169.2353536075065
 20
61.40565294196668
 30
0.0
 10
169.3296792316041
 20
61.40660837880582
 30
0.0
 10
169.3766152831382
 20
61.42044322673407
 30
0.0
 10
169.4604643958821
 20
61.46422485471417
 30
0.0
 10
169.4978348548688
 20
61.49336025281966
 30
0.0
 10
169.6006065508478
 20
61.59092041033243
 30
0.0
 10
169.6551888726718
 20
61.66657702020053
 30
0.0
 10
169.8042234710485
 20
61.90475789796585
 30
0.0
 10
169.8805390880109
 20
62.07574340662283
 30
0.0
 10
169.9491575108374
 20
62.24811703390966
 30
0.0
  0
LINE
  5
CA
330
1F
100
AcDbEntity
  8
0
  6
Continuous
 62
     7
370
    25
100
AcDbLine
 10
168.6104942258
 20
62.2481170339
 30
0.0
 11
164.6610237148
 21
62.2481170339
 31
0.0
  0
LINE
  5
CB
330
1F
100
AcDbEntity
  8
0
  6
Continuous
 62
     7
370
    25
100
AcDbLine
 10
164.6610237148
 20
65.2817204941
 30
0.0
 11
164.6610237148
 21
62.2481170339
 31
0.0
  0
SPLINE
  5
CC
330
1F
100
AcDbEntity
  8
0
  6
Continuous
 62
     7
370
    25
100
AcDbSpline
210
0.0
220
0.0
230
1.0
 70
     8
 71
     3
 72
     8
 73
     4
 74
     0
 42
0.00000001
 43
0.00000001
 40
0.0
 40
0.0
 40
0.0
 40
0.0
 40
1.0
 40
1.0
 40
1.0
 40
1.0
 10
164.661023714817
 20
65.28172049405468
 30
0.0
 10
164.8662095373603
 20
65.33828146117891
 30
0.0
 10
165.0724327380676
 20
65.39222153259274
 30
0.0
 10
165.279825868334
 20
65.4432058223357
 30
0.0
  0
SPLINE
  5
CD
330
1F
100
AcDbEntity
  8
0
  6
Continuous
 62
     7
370
    25
100
AcDbSpline
210
0.0
220
0.0
230
1.0
 70
     8
 71
     3
 72
     8
 73
     4
 74
     0
 42
0.00000001
 43
0.00000001
 40
0.0
 40
0.0
 40
0.0
 40
0.0
 40
1.0
 40
1.0
 40
1.0
 40
1.0
 10
162.6021044630738
 20
68.62931488039264
 30
0.0
 10
162.6586678325421
 20
68.83450941790241
 30
0.0
 10
162.7126077553633
 20
69.04073307141957
 30
0.0
 10
162.7635897913548
 20
69.24811703390968
 30
0.0
  0
LINE
  5
CE
330
1F
100
AcDbEntity
  8
0
  6
Continuous
 62
     7
370
    25
100
AcDbLine
 10
158.4575472736
 20
68.6293148804
 30
0.0
 11
162.6021044631
 21
68.6293148804
 31
0.0
  0
SPLINE
  5
CF
330
1F
100
AcDbEntity
  8
0
  6
Continuous
 62
     7
370
    25
100
AcDbSpline
210
0.0
220
0.0
230
1.0
 70
     8
 71
     3
 72
    10
 73
     6
 74
     0
 42
0.00000001
 43
0.00000001
 40
0.0
 40
0.0
 40
0.0
 40
0.0
 40
0.5
 40
0.5
 40
1.0
 40
1.0
 40
1.0
 40
1.0
 10
158.4575472735942
 20
68.62931488039267
 30
0.0
 10
158.2487419343703
 20
69.38679654059824
 30
0.0
 10
158.0781950902112
 20
70.1492640890417
 30
0.0
 10
157.8434127628293
 20
71.68772822338107
 30
0.0
 10
157.779825868334
 20
72.46385090182362
 30
0.0
 10
157.779825868334
 20
73.24811703390968
 30
0.0
  0
SPLINE
  5
D0
330
1F
100
AcDbEntity
  8
0
  6
Continuous
 62
     7
370
    25
100
AcDbSpline
210
0.0
220
0.0
230
1.0
 70
     8
 71
     3
 72
    12
 73
     8
 74
     0
 42
0.00000001
 43
0.00000001
 40
0.0
 40
0.0
 40
0.0
 40
0.0
 40
0.25
 40
0.25
 40
0.5
 40
0.5
 40
1.0
 40
1.0
 40
1.0
 40
1.0
 10
157.779825868334
 20
73.24811703390968
 30
0.0
 10
157.779825868334
 20
73.63978896028462
 30
0.0
 10
157.7957316740022
 20
74.03469185180622
 30
0.0
 10
157.8575765448946
 20
74.8156278820535
 30
0.0
 10
157.9033898857608
 20
75.20303601398479
 30
0.0
 10
158.0802230596632
 20
76.35716564064475
 30
0.0
 10
158.2505013231668
 20
77.11582004958129
 30
0.0
 10
158.4575472735942
 20
77.86691918742669
 30
0.0
  0
LINE
  5
D1
330
1F
100
AcDbEntity
  8
0
  6
Continuous
 62
     7
370
    25
100
AcDbLine
 10
162.6021044631
 20
77.8669191874
 30
0.0
 11
158.4575472736
 21
77.8669191874
 31
0.0
  0
SPLINE
  5
D2
330
1F
100
AcDbEntity
  8
0
  6
Continuous
 62
     7
370
    25
100
AcDbSpline
210
0.0
220
0.0
230
1.0
 70
     8
 71
     3
 72
     8
 73
     4
 74
     0
 42
0.00000001
 43
0.00000001
 40
0.0
 40
0.0
 40
0.0
 40
0.0
 40
1.0
 40
1.0
 40
1.0
 40
1.0
 10
175.7960619453132
 20
77.24811703390975
 30
0.0
 10
175.8469581785683
 20
77.45515196931352
 30
0.0
 10
175.9008921335319
 20
77.66139173437851
 30
0.0
 10
175.9575472735942
 20
77.8669191874267
 30
0.0
  0
LINE
  5
D3
330
1F
100
AcDbEntity
  8
0
  6
Continuous
 62
     7
370
    25
100
AcDbLine
 10
180.1021044631
 20
77.8669191874
 30
0.0
 11
175.9575472736
 21
77.8669191874
 31
0.0
  0
SPLINE
  5
D4
330
1F
100
AcDbEntity
  8
0
  6
Continuous
 62
     7
370
    25
100
AcDbSpline
210
0.0
220
0.0
230
1.0
 70
     8
 71
     3
 72
    12
 73
     8
 74
     0
 42
0.00000001
 43
0.00000001
 40
0.0
 40
0.0
 40
0.0
 40
0.0
 40
0.25
 40
0.25
 40
0.5
 40
0.5
 40
1.0
 40
1.0
 40
1.0
 40
1.0
 10
180.779825868334
 20
73.24811703390968
 30
0.0
 10
180.779825868334
 20
73.63978896028462
 30
0.0
 10
180.7639200626658
 20
74.03469185180623
 30
0.0
 10
180.7020751917734
 20
74.8156278820535
 30
0.0
 10
180.6562618509072
 20
75.20303601398479
 30
0.0
 10
180.4794286770048
 20
76.35716564064477
 30
0.0
 10
180.3091504135012
 20
77.11582004958129
 30
0.0
 10
180.1021044630738
 20
77.86691918742669
 30
0.0
  0
SPLINE
  5
D5
330
1F
100
AcDbEntity
  8
0
  6
Continuous
 62
     7
370
    25
100
AcDbSpline
210
0.0
220
0.0
230
1.0
 70
     8
 71
     3
 72
    10
 73
     6
 74
     0
 42
0.00000001
 43
0.00000001
 40
0.0
 40
0.0
 40
0.0
 40
0.0
 40
0.5
 40
0.5
 40
1.0
 40
1.0
 40
1.0
 40
1.0
 10
180.1021044630738
 20
68.62931488039267
 30
0.0
 10
180.3109098022977
 20
69.38679654059824
 30
0.0
 10
180.4814566464569
 20
70.1492640890417
 30
0.0
 10
180.7162389738387
 20
71.68772822338107
 30
0.0
 10
180.779825868334
 20
72.46385090182362
 30
0.0
 10
180.779825868334
 20
73.24811703390968
 30
0.0
  0
LINE
  5
D6
330
1F
100
AcDbEntity
  8
0
  6
Continuous
 62
     7
370
    25
100
AcDbLine
 10
175.9575472736
 20
68.6293148804
 30
0.0
 11
180.1021044631
 21
68.6293148804
 31
0.0
  0
SPLINE
  5
D7
330
1F
100
AcDbEntity
  8
0
  6
Continuous
 62
     7
370
    25
100
AcDbSpline
210
0.0
220
0.0
230
1.0
 70
     8
 71
     3
 72
     8
 73
     4
 74
     0
 42
0.00000001
 43
0.00000001
 40
0.0
 40
0.0
 40
0.0
 40
0.0
 40
1.0
 40
1.0
 40
1.0
 40
1.0
 10
175.9575472735942
 20
68.62931488039264
 30
0.0
 10
175.9009854301572
 20
68.83450388192946
 30
0.0
 10
175.8470454129009
 20
69.04072724799417
 30
0.0
 10
175.7960619453132
 20
69.24811703390962
 30
0.0
  0
SPLINE
  5
D8
330
1F
100
AcDbEntity
  8
0
  6
Continuous
 62
     7
370
    25
100
AcDbSpline
210
0.0
220
0.0
230
1.0
 70
     8
 71
     3
 72
     8
 73
     4
 74
     0
 42
0.00000001
 43
0.00000001
 40
0.0
 40
0.0
 40
0.0
 40
0.0
 40
1.0
 40
1.0
 40
1.0
 40
1.0
 10
173.279825868334
 20
65.4432058223357
 30
0.0
 10
173.4868549316694
 20
65.39231103263488
 30
0.0
 10
173.6930949489388
 20
65.33837718327344
 30
0.0
 10
173.898628021851
 20
65.28172049405468
 30
0.0
  0
LINE
  5
D9
330
1F
100
AcDbEntity
  8
0
  6
Continuous
 62
     7
370
    25
100
AcDbLine
 10
173.8986280219
 20
62.2481170339
 30
0.0
 11
173.8986280219
 21
65.2817204941
 31
0.0
  0
LINE
  5
DA
330
1F
100
AcDbEntity
  8
0
  6
Continuous
 62
     7
370
    25
100
AcDbLine
 10
173.8986280219
 20
62.2481170339
 30
0.0
 11
169.9491575108
 21
62.2481170339
 31
0.0
  0
LINE
  5
DB
330
1F
100
AcDbEntity
  8
0
  6
Continuous
 62
     7
370
    25
100
AcDbLine
 10
168.3780669544
 20
71.8257440163
 30
0.0
 11
168.3364166351
 21
71.8019390865
 31
0.0
  0
ELLIPSE
  5
DC
330
1F
100
AcDbEntity
  8
0
  6
Continuous
 62
     7
370
    25
100
AcDbEllipse
 10
167.9875734555
 20
72.3566215577
 30
0.0
 11
0.678412947925267
 21
6.110667527536863E-13
 31
0.0
210
0.0
220
0.0
230
1.0
 40
0.9533039403
 41
3.470145824140265
 42
5.252469180536262
  0
LINE
  5
DD
330
1F
100
AcDbEntity
  8
0
  6
Continuous
 62
     7
370
    25
100
AcDbLine
 10
167.3454486885
 20
72.1479374427
 30
0.0
 11
166.0857944836
 21
75.6703818394
 31
0.0
  0
ELLIPSE
  5
DE
330
1F
100
AcDbEntity
  8
0
  6
Continuous
 62
     7
370
    25
100
AcDbEllipse
 10
165.4948119257
 20
75.4080426033
 30
0.0
 11
0.6519124952381219
 21
6.110667527536862E-13
 31
0.0
210
0.0
220
0.0
230
1.0
 40
0.9533023292
 41
0.4357905044354886
 42
2.705800116361538
  0
LINE
  5
DF
330
1F
100
AcDbEntity
  8
0
  6
Continuous
 62
     7
370
    25
100
AcDbLine
 10
164.9038299272
 20
75.6703829846
 30
0.0
 11
163.6444651255
 21
72.1487595829
 31
0.0
  0
ELLIPSE
  5
E0
330
1F
100
AcDbEntity
  8
0
  6
Continuous
 62
     7
370
    25
100
AcDbEllipse
 10
163.0023439415
 20
72.3574424166
 30
0.0
 11
-0.6784085062757867
 21
3.126388037344441E-13
 31
0.0
210
0.0
220
0.0
230
1.0
 40
0.9533122623
 41
1.047193771187909
 42
2.813042320199916
  0
LINE
  5
E1
330
1F
100
AcDbEntity
  8
0
  6
Continuous
 62
     7
370
    25
100
AcDbLine
 10
162.6631374675
 20
71.7973545713
 30
0.0
 11
162.611556897
 21
71.8257440163
 31
0.0
  0
LINE
  5
E2
330
1F
100
AcDbEntity
  8
0
  6
Continuous
 62
     7
370
    25
100
AcDbLine
 10
162.611556897
 20
71.8257440163
 30
0.0
 11
163.4078255565
 21
70.3075719149
 31
0.0
  0
ELLIPSE
  5
E3
330
1F
100
AcDbEntity
  8
0
  6
Continuous
 62
     7
370
    25
100
AcDbEllipse
 10
163.48367443
 20
70.3437254298
 30
0.0
 11
0.08480161849067258
 21
-2.842170943040401E-14
 31
0.0
210
0.0
220
0.0
230
1.0
 40
0.9533039403
 41
3.605240262591132
 42
5.462183310215437
  0
ELLIPSE
  5
E4
330
1F
100
AcDbEntity
  8
0
  6
Continuous
 62
     7
370
    25
100
AcDbEllipse
 10
165.4948119257
 20
68.2848768093
 30
0.0
 11
2.866293551216188
 21
-1.492139745096211E-12
 31
0.0
210
0.0
220
0.0
230
1.0
 40
0.9533046568
 41
0.8210016221243813
 42
2.320591031466448
  0
ELLIPSE
  5
E5
330
1F
100
AcDbEntity
  8
0
  6
Continuous
 62
     7
370
    25
100
AcDbEllipse
 10
167.5059494214
 20
70.3437254298
 30
0.0
 11
0.08480161849061574
 21
0.0
 31
0.0
210
0.0
220
0.0
230
1.0
 40
0.9533039403
 41
3.962594650556404
 42
5.819537698177248
  0
LINE
  5
E6
330
1F
100
AcDbEntity
  8
0
  6
Continuous
 62
     7
370
    25
100
AcDbLine
 10
167.5817982948
 20
70.3075719149
 30
0.0
 11
168.3780669544
 21
71.8257440163
 31
0.0
  0
ARC
  5
E7
330
1F
100
AcDbEntity
  8
0
  6
Continuous
 62
     7
370
    25
100
AcDbCircle
 10
174.1727018204
 20
72.6711980406
 30
0.0
 40
0.8889999999999768
100
AcDbArc
 50
45.0
 51
159.0751675724
  0
LINE
  5
E8
330
1F
100
AcDbEntity
  8
0
  6
Continuous
 62
     7
370
    25
100
AcDbLine
 10
174.8013197489
 20
73.2998159691
 30
0.0
 11
175.2679301345
 21
73.7664263547
 31
0.0
  0
ARC
  5
E9
330
1F
100
AcDbEntity
  8
0
  6
Continuous
 62
     7
370
    25
100
AcDbCircle
 10
174.1727018204
 20
72.6711980406
 30
0.0
 40
1.548886735692373
100
AcDbArc
 50
45.0
 51
315.0
  0
LINE
  5
EA
330
1F
100
AcDbEntity
  8
0
  6
Continuous
 62
     7
370
    25
100
AcDbLine
 10
175.2679301345
 20
71.5759697265
 30
0.0
 11
174.8013197489
 21
72.0425801121
 31
0.0
  0
ARC
  5
EB
330
1F
100
AcDbEntity
  8
0
  6
Continuous
 62
     7
370
    25
100
AcDbCircle
 10
174.1727018204
 20
72.6711980406
 30
0.0
 40
0.889000000000014
100
AcDbArc
 50
200.9248324276
 51
315.0
  0
LINE
  5
EC
330
1F
100
AcDbEntity
  8
0
  6
Continuous
 62
     7
370
    25
100
AcDbLine
 10
173.3423315717
 20
72.3536980406
 30
0.0
 11
175.2679301345
 21
72.3536980406
 31
0.0
  0
LINE
  5
ED
330
1F
100
AcDbEntity
  8
0
  6
Continuous
 62
     7
370
    25
100
AcDbLine
 10
175.2679301345
 20
72.3536980406
 30
0.0
 11
175.2679301345
 21
72.9886980406
 31
0.0
  0
LINE
  5
EE
330
1F
100
AcDbEntity
  8
0
  6
Continuous
 62
     7
370
    25
100
AcDbLine
 10
175.2679301345
 20
72.9886980406
 30
0.0
 11
173.3423315717
 21
72.9886980406
 31
0.0
  0
ARC
  5
EF
330
1F
100
AcDbEntity
  8
0
  6
Continuous
 62
     7
370
    25
100
AcDbCircle
 10
170.8305572241
 20
72.6711980406
 30
0.0
 40
0.889000000000007
100
AcDbArc
 50
45.0
 51
315.0
  0
LINE
  5
F0
330
1F
100
AcDbEntity
  8
0
  6
Continuous
 62
     7
370
    25
100
AcDbLine
 10
171.4591751525
 20
73.2998159691
 30
0.0
 11
171.9257855382
 21
73.7664263547
 31
0.0
  0
ARC
  5
F1
330
1F
100
AcDbEntity
  8
0
  6
Continuous
 62
     7
370
    25
100
AcDbCircle
 10
170.8305572241
 20
72.6711980406
 30
0.0
 40
1.548886735692404
100
AcDbArc
 50
45.0
 51
315.0
  0
LINE
  5
F2
330
1F
100
AcDbEntity
  8
0
  6
Continuous
 62
     7
370
    25
100
AcDbLine
 10
171.9257855382
 20
71.5759697265
 30
0.0
 11
171.4591751525
 21
72.0425801121
 31
0.0
  0
LINE
  5
F3
330
1F
100
AcDbEntity
  8
0
  6
Continuous
 62
     7
370
    25
100
AcDbLine
 10
175.7960619453
 20
69.2481170339
 30
0.0
 11
173.2798258683
 21
69.2481170339
 31
0.0
  0
LINE
  5
F4
330
1F
100
AcDbEntity
  8
0
  6
Continuous
 62
     7
370
    25
100
AcDbLine
 10
165.2798258683
 20
69.2481170339
 30
0.0
 11
162.7635897914
 21
69.2481170339
 31
0.0
  0
LINE
  5
F5
330
1F
100
AcDbEntity
  8
0
  6
Continuous
 62
     7
370
    25
100
AcDbLine
 10
165.2798258683
 20
65.4432058223
 30
0.0
 11
165.2798258683
 21
69.2481170339
 31
0.0
  0
LINE
  5
F6
330
1F
100
AcDbEntity
  8
0
  6
Continuous
 62
     7
370
    25
100
AcDbLine
 10
173.2798258683
 20
65.4432058223
 30
0.0
 11
173.2798258683
 21
69.2481170339
 31
0.0
  0
LINE
  5
F7
330
1F
100
AcDbEntity
  8
0
  6
Continuous
 62
     7
370
    25
100
AcDbLine
 10
175.7960619453
 20
77.2481170339
 30
0.0
 11
162.7635897914
 21
77.2481170339
 31
0.0
  0
LINE
  5
F8
330
1F
100
AcDbEntity
  8
0
  6
Continuous
 62
     7
370
    25
100
AcDbLine
 10
180.7798258683
 20
73.2481170339
 30
0.0
 11
180.7798258683
 21
65.8869011017
 31
0.0
  0
SPLINE
  5
F9
330
1F
100
AcDbEntity
  8
0
  6
Continuous
 62
     7
370
    25
100
AcDbSpline
210
0.0
220
0.0
230
1.0
 70
     8
 71
     3
 72
    10
 73
     6
 74
     0
 42
0.00000001
 43
0.00000001
 40
0.0
 40
0.0
 40
0.0
 40
0.0
 40
0.5
 40
0.5
 40
1.0
 40
1.0
 40
1.0
 40
1.0
 10
180.1021044630743
 20
68.19630217850049
 30
0.0
 10
180.3109143877406
 20
67.8175530311092
 30
0.0
 10
180.4814485274878
 20
67.43634775469789
 30
0.0
 10
180.7162343325067
 20
66.66711713351012
 30
0.0
 10
180.779825868334
 20
66.2790494287118
 30
0.0
 10
180.779825868334
 20
65.88690110174196
 30
0.0
  0
SPLINE
  5
FA
330
1F
100
AcDbEntity
  8
0
  6
Continuous
 62
     7
370
    25
100
AcDbSpline
210
0.0
220
0.0
230
1.0
 70
     8
 71
     3
 72
    10
 73
     6
 74
     0
 42
0.00000001
 43
0.00000001
 40
0.0
 40
0.0
 40
0.0
 40
0.0
 40
0.5
 40
0.5
 40
1.0
 40
1.0
 40
1.0
 40
1.0
 10
180.1021044630738
 20
68.19630217850046
 30
0.0
 10
180.0784322231623
 20
68.23923998759969
 30
0.0
 10
180.065338233227
 20
68.3026805774919
 30
0.0
 10
180.0652513657656
 20
68.45516972300074
 30
0.0
 10
180.0784211555249
 20
68.54339911220406
 30
0.0
 10
180.1021044630738
 20
68.62931488039267
 30
0.0
  0
SPLINE
  5
FB
330
1F
100
AcDbEntity
  8
0
  6
Continuous
 62
     7
370
    25
100
AcDbSpline
210
0.0
220
0.0
230
1.0
 70
     8
 71
     3
 72
     8
 73
     4
 74
     0
 42
0.00000001
 43
0.00000001
 40
0.0
 40
0.0
 40
0.0
 40
0.0
 40
1.0
 40
1.0
 40
1.0
 40
1.0
 10
175.6223878271479
 20
66.2481170339097
 30
0.0
 10
175.9448671539972
 20
66.15640274617523
 30
0.0
 10
176.2601849103211
 20
66.05974595710732
 30
0.0
 10
176.5692020529686
 20
65.95874084927507
 30
0.0
  0
SPLINE
  5
FC
330
1F
100
AcDbEntity
  8
0
  6
Continuous
 62
     7
370
    25
100
AcDbSpline
210
0.0
220
0.0
230
1.0
 70
     8
 71
     3
 72
    10
 73
     6
 74
     0
 42
0.00000001
 43
0.00000001
 40
0.0
 40
0.0
 40
0.0
 40
0.0
 40
0.5
 40
0.5
 40
1.0
 40
1.0
 40
1.0
 40
1.0
 10
174.3316407237435
 20
65.28172049405484
 30
0.0
 10
174.6981586705841
 20
65.48378717960576
 30
0.0
 10
175.0672388960499
 20
65.65017995187641
 30
0.0
 10
175.8124912442773
 20
65.88422692574646
 30
0.0
 10
176.188704016225
 20
65.95131517970529
 30
0.0
 10
176.5692020529686
 20
65.95874084927507
 30
0.0
  0
SPLINE
  5
FD
330
1F
100
AcDbEntity
  8
0
  6
Continuous
 62
     7
370
    25
100
AcDbSpline
210
0.0
220
0.0
230
1.0
 70
     8
 71
     3
 72
    10
 73
     6
 74
     0
 42
0.00000001
 43
0.00000001
 40
0.0
 40
0.0
 40
0.0
 40
0.0
 40
0.5
 40
0.5
 40
1.0
 40
1.0
 40
1.0
 40
1.0
 10
173.898628021851
 20
65.28172049405465
 30
0.0
 10
173.9845150836536
 20
65.25804509963025
 30
0.0
 10
174.0719222926338
 20
65.24495398974562
 30
0.0
 10
174.2245587352276
 20
65.2448676684574
 30
0.0
 10
174.2886817801734
 20
65.25803660240135
 30
0.0
 10
174.3316407237436
 20
65.2817204940549
 30
0.0
  0
LINE
  5
FE
330
1F
100
AcDbEntity
  8
0
  6
Continuous
 62
     7
370
    25
100
AcDbLine
 10
161.0791498738
 20
51.8277488599
 30
0.0
 11
177.4805018629
 21
51.8277488599
 31
0.0
  0
SPLINE
  5
FF
330
1F
100
AcDbEntity
  8
0
  6
Continuous
 62
     7
370
    25
100
AcDbSpline
210
0.0
220
0.0
230
1.0
 70
     8
 71
     3
 72
    22
 73
    18
 74
     0
 42
0.00000001
 43
0.00000001
 40
0.0
 40
0.0
 40
0.0
 40
0.0
 40
0.249999999999998
 40
0.249999999999998
 40
0.3749999999999984
 40
0.3749999999999984
 40
0.4374999999999986
 40
0.4374999999999986
 40
0.4999999999999988
 40
0.4999999999999988
 40
0.5624999999999989
 40
0.5624999999999989
 40
0.6249999999999991
 40
0.6249999999999991
 40
0.7499999999999996
 40
0.7499999999999996
 40
1.0
 40
1.0
 40
1.0
 40
1.0
 10
162.253275757418
 20
62.24811703390967
 30
0.0
 10
162.2185415820405
 20
62.07360833627408
 30
0.0
 10
162.1799491305217
 20
61.90126987937418
 30
0.0
 10
162.1052201854761
 20
61.66353444606709
 30
0.0
 10
162.0772772641824
 20
61.58675187668506
 30
0.0
 10
162.025798687516
 20
61.49039748017547
 30
0.0
 10
162.006942961409
 20
61.46162387971339
 30
0.0
 10
161.9654663678041
 20
61.41941031468442
 30
0.0
 10
161.942087756179
 20
61.40603721672195
 30
0.0
 10
161.8946827457768
 20
61.4061976113185
 30
0.0
 10
161.8712639504136
 20
61.41970230343792
 30
0.0
 10
161.8294349409453
 20
61.46269374617538
 30
0.0
 10
161.8105177257747
 20
61.49187838234615
 30
0.0
 10
161.7592357545951
 20
61.58851103281282
 30
0.0
 10
161.7314194123217
 20
61.66517227830897
 30
0.0
 10
161.656739736103
 20
61.90338271834283
 30
0.0
 10
161.6186026579715
 20
62.07398832219842
 30
0.0
 10
161.5839441149145
 20
62.24811703390954
 30
0.0
  0
SPLINE
  5
100
330
1F
100
AcDbEntity
  8
0
  6
Continuous
 62
     7
370
    25
100
AcDbSpline
210
0.0
220
0.0
230
1.0
 70
     8
 71
     3
 72
    22
 73
    18
 74
     0
 42
0.00000001
 43
0.00000001
 40
0.0
 40
0.0
 40
0.0
 40
0.0
 40
0.2500000000000014
 40
0.2500000000000014
 40
0.3750000000000015
 40
0.3750000000000015
 40
0.4375000000000009
 40
0.4375000000000009
 40
0.5000000000000003
 40
0.5000000000000003
 40
0.5624999999999998
 40
0.5624999999999998
 40
0.6249999999999992
 40
0.6249999999999992
 40
0.7499999999999989
 40
0.7499999999999989
 40
1.0
 40
1.0
 40
1.0
 40
1.0
 10
176.9757076217534
 20
62.24811703390968
 30
0.0
 10
176.940973446376
 20
62.07360833627405
 30
0.0
 10
176.9023809948572
 20
61.90126987937411
 30
0.0
 10
176.8276520498115
 20
61.663534446067
 30
0.0
 10
176.7997091285178
 20
61.58675187668494
 30
0.0
 10
176.7482305518513
 20
61.49039748017536
 30
0.0
 10
176.7293748257443
 20
61.46162387971322
 30
0.0
 10
176.6878982321394
 20
61.41941031468426
 30
0.0
 10
176.6645196205143
 20
61.40603721672189
 30
0.0
 10
176.617114610112
 20
61.40619761131859
 30
0.0
 10
176.5936958147489
 20
61.41970230343802
 30
0.0
 10
176.5518668052807
 20
61.46269374617554
 30
0.0
 10
176.53294959011
 20
61.49187838234634
 30
0.0
 10
176.4816676189305
 20
61.58851103281302
 30
0.0
 10
176.453851276657
 20
61.66517227830926
 30
0.0
 10
176.3791716004384
 20
61.90338271834298
 30
0.0
 10
176.3410345223069
 20
62.0739883221985
 30
0.0
 10
176.3063759792499
 20
62.24811703390956
 30
0.0
  0
ELLIPSE
  5
101
330
1F
100
AcDbEntity
  8
0
  6
Continuous
 62
     7
370
    25
100
AcDbEllipse
 10
165.2260648618
 20
72.7545268945
 30
0.0
 11
0.08480161849064416
 21
-1.421085471520200E-14
 31
0.0
210
0.0
220
0.0
230
1.0
 40
0.9533039403
 41
2.798568711308604
 42
4.712388980384862
  0
LINE
  5
102
330
1F
100
AcDbEntity
  8
0
  6
Continuous
 62
     7
370
    25
100
AcDbLine
 10
165.4498778047
 20
73.5922995234
 30
0.0
 11
165.1462036236
 21
72.7817169065
 31
0.0
  0
ELLIPSE
  5
103
330
1F
100
AcDbEntity
  8
0
  6
Continuous
 62
     7
370
    25
100
AcDbEllipse
 10
165.529739043
 20
73.5651095115
 30
0.0
 11
0.08480161849064416
 21
0.0
 31
0.0
210
0.0
220
0.0
230
1.0
 40
0.9533039403
 41
0.3430239404206951
 42
2.798568713169211
  0
LINE
  5
104
330
1F
100
AcDbEntity
  8
0
  6
Continuous
 62
     7
370
    25
100
AcDbLine
 10
165.913274459
 20
72.7817169062
 30
0.0
 11
165.6096002813
 21
73.5922995234
 31
0.0
  0
ELLIPSE
  5
105
330
1F
100
AcDbEntity
  8
0
  6
Continuous
 62
     7
370
    25
100
AcDbEllipse
 10
165.8334132206
 20
72.7545268945
 30
0.0
 11
-0.08480161849067258
 21
-2.842170943040401E-14
 31
0.0
210
0.0
220
0.0
230
1.0
 40
0.9533039403
 41
1.570796326794577
 42
3.484616592149647
  0
LINE
  5
106
330
1F
100
AcDbEntity
  8
0
  6
Continuous
 62
     7
370
    25
100
AcDbLine
 10
165.2260648618
 20
72.6736851774
 30
0.0
 11
165.8334132206
 21
72.6736851774
 31
0.0
  0
SPLINE
  5
107
330
1F
100
AcDbEntity
  8
0
  6
Continuous
 62
     7
370
    25
100
AcDbSpline
210
0.0
220
0.0
230
1.0
 70
     8
 71
     3
 72
     8
 73
     4
 74
     0
 42
0.00000001
 43
0.00000001
 40
0.0
 40
0.0
 40
0.0
 40
0.0
 40
1.0
 40
1.0
 40
1.0
 40
1.0
 10
161.9904496837174
 20
65.95874084928096
 30
0.0
 10
162.2994668263592
 20
66.05974595711108
 30
0.0
 10
162.6147845826771
 20
66.15640274617701
 30
0.0
 10
162.9372639095201
 20
66.2481170339097
 30
0.0
  0
SPLINE
  5
108
330
1F
100
AcDbEntity
  8
0
  6
Continuous
 62
     7
370
    25
100
AcDbSpline
210
0.0
220
0.0
230
1.0
 70
     8
 71
     3
 72
    10
 73
     6
 74
     0
 42
0.00000001
 43
0.00000001
 40
0.0
 40
0.0
 40
0.0
 40
0.0
 40
0.5
 40
0.5
 40
1.0
 40
1.0
 40
1.0
 40
1.0
 10
164.2280110129248
 20
65.28172049405468
 30
0.0
 10
164.270954543826
 20
65.2580450996303
 30
0.0
 10
164.3343969884502
 20
65.24495398974565
 30
0.0
 10
164.4868758255691
 20
65.24486766845737
 30
0.0
 10
164.5751058276764
 20
65.25803660240122
 30
0.0
 10
164.661023714817
 20
65.28172049405467
 30
0.0
  0
SPLINE
  5
109
330
1F
100
AcDbEntity
  8
0
  6
Continuous
 62
     7
370
    25
100
AcDbSpline
210
0.0
220
0.0
230
1.0
 70
     8
 71
     3
 72
    12
 73
     8
 74
     0
 42
0.00000001
 43
0.00000001
 40
0.0
 40
0.0
 40
0.0
 40
0.0
 40
0.2500000000000002
 40
0.2500000000000002
 40
0.5000000000000004
 40
0.5000000000000004
 40
1.0
 40
1.0
 40
1.0
 40
1.0
 10
161.9904496837121
 20
65.95874084927482
 30
0.0
 10
162.1804758590154
 20
65.95503236341838
 30
0.0
 10
162.3706909217012
 20
65.93644986058071
 30
0.0
 10
162.7476276808336
 20
65.87158282361456
 30
0.0
 10
162.9349504720931
 20
65.82531727036431
 30
0.0
 10
163.4938604284072
 20
65.64959274005734
 30
0.0
 10
163.8623960865175
 20
65.48328933128059
 30
0.0
 10
164.2280110129248
 20
65.28172049405468
 30
0.0
  0
LINE
  5
10A
330
1F
100
AcDbEntity
  8
0
  6
Continuous
 62
     7
370
    25
100
AcDbLine
 10
158.4575472736
 20
78.2999318893
 30
0.0
 11
162.6021044631
 21
78.2999318893
 31
0.0
  0
SPLINE
  5
10B
330
1F
100
AcDbEntity
  8
0
  6
Continuous
 62
     7
370
    25
100
AcDbSpline
210
0.0
220
0.0
230
1.0
 70
     8
 71
     3
 72
    10
 73
     6
 74
     0
 42
0.00000001
 43
0.00000001
 40
0.0
 40
0.0
 40
0.0
 40
0.0
 40
0.5
 40
0.5
 40
1.0
 40
1.0
 40
1.0
 40
1.0
 10
158.4575472735942
 20
77.86691918742669
 30
0.0
 10
158.4812211741501
 20
77.95280082993315
 30
0.0
 10
158.4943137313293
 20
78.04021003589858
 30
0.0
 10
158.4944001453116
 20
78.19285252097352
 30
0.0
 10
158.481229753713
 20
78.25697550605588
 30
0.0
 10
158.4575472735942
 20
78.29993188931891
 30
0.0
  0
LINE
  5
10C
330
1F
100
AcDbEntity
  8
0
  6
Continuous
 62
     7
370
    25
100
AcDbLine
 10
164.2280110129
 20
62.2481170339
 30
0.0
 11
164.2280110129
 21
65.2817204941
 31
0.0
  0
LINE
  5
10D
330
1F
100
AcDbEntity
  8
0
  6
Continuous
 62
     7
370
    25
100
AcDbLine
 10
164.2280110129
 20
62.2481170339
 30
0.0
 11
164.6610237148
 21
62.2481170339
 31
0.0
  0
LINE
  5
10E
330
1F
100
AcDbEntity
  8
0
  6
Continuous
 62
     7
370
    25
100
AcDbLine
 10
174.3316407237
 20
65.2817204941
 30
0.0
 11
174.3316407237
 21
62.2481170339
 31
0.0
  0
LINE
  5
10F
330
1F
100
AcDbEntity
  8
0
  6
Continuous
 62
     7
370
    25
100
AcDbLine
 10
173.8986280219
 20
62.2481170339
 30
0.0
 11
174.3316407237
 21
62.2481170339
 31
0.0
  0
LINE
  5
110
330
1F
100
AcDbEntity
  8
0
  6
Continuous
 62
     7
370
    25
100
AcDbLine
 10
180.7798258683
 20
80.6093329661
 30
0.0
 11
180.7798258683
 21
73.2481170339
 31
0.0
  0
SPLINE
  5
111
330
1F
100
AcDbEntity
  8
0
  6
Continuous
 62
     7
370
    25
100
AcDbSpline
210
0.0
220
0.0
230
1.0
 70
     8
 71
     3
 72
    10
 73
     6
 74
     0
 42
0.00000001
 43
0.00000001
 40
0.0
 40
0.0
 40
0.0
 40
0.0
 40
0.5
 40
0.5
 40
1.0
 40
1.0
 40
1.0
 40
1.0
 10
180.1021044630738
 20
77.86691918742669
 30
0.0
 10
180.0784305625179
 20
77.95280082993315
 30
0.0
 10
180.0653380053387
 20
78.04021003589858
 30
0.0
 10
180.0652515913565
 20
78.19285252097352
 30
0.0
 10
180.0784219829551
 20
78.25697550605588
 30
0.0
 10
180.1021044630738
 20
78.29993188931891
 30
0.0
  0
SPLINE
  5
112
330
1F
100
AcDbEntity
  8
0
  6
Continuous
 62
     7
370
    25
100
AcDbSpline
210
0.0
220
0.0
230
1.0
 70
     8
 71
     3
 72
    12
 73
     8
 74
     0
 42
0.00000001
 43
0.00000001
 40
0.0
 40
0.0
 40
0.0
 40
0.0
 40
0.2500000000000001
 40
0.2500000000000001
 40
0.5000000000000002
 40
0.5000000000000002
 40
1.0
 40
1.0
 40
1.0
 40
1.0
 10
180.779825868334
 20
80.60933296607742
 30
0.0
 10
180.779825868334
 20
80.41432948607162
 30
0.0
 10
180.764079538312
 20
80.21779482704721
 30
0.0
 10
180.7026345137266
 20
79.82837513944166
 30
0.0
 10
180.6570457544729
 20
79.6348904463814
 30
0.0
 10
180.4805947522163
 20
79.05770684762581
 30
0.0
 10
180.3101370502528
 20
78.67727106584285
 30
0.0
 10
180.1021044630739
 20
78.2999318893189
 30
0.0
  0
LINE
  5
113
330
1F
100
AcDbEntity
  8
0
  6
Continuous
 62
     7
370
    25
100
AcDbLine
 10
157.7798258683
 20
80.6093329661
 30
0.0
 11
157.7798258683
 21
73.2481170339
 31
0.0
  0
SPLINE
  5
114
330
1F
100
AcDbEntity
  8
0
  6
Continuous
 62
     7
370
    25
100
AcDbSpline
210
0.0
220
0.0
230
1.0
 70
     8
 71
     3
 72
    12
 73
     8
 74
     0
 42
0.00000001
 43
0.00000001
 40
0.0
 40
0.0
 40
0.0
 40
0.0
 40
0.2499999999999998
 40
0.2499999999999998
 40
0.4999999999999996
 40
0.4999999999999996
 40
1.0
 40
1.0
 40
1.0
 40
1.0
 10
157.779825868334
 20
80.60933296607742
 30
0.0
 10
157.779825868334
 20
80.41432948607162
 30
0.0
 10
157.795572198356
 20
80.21779482704721
 30
0.0
 10
157.8570172229414
 20
79.82837513944166
 30
0.0
 10
157.9026059821951
 20
79.6348904463814
 30
0.0
 10
158.0790569844517
 20
79.05770684762581
 30
0.0
 10
158.2495146864152
 20
78.67727106584285
 30
0.0
 10
158.4575472735941
 20
78.2999318893189
 30
0.0
  0
LINE
  5
115
330
1F
100
AcDbEntity
  8
0
  6
Continuous
 62
     7
370
    25
100
AcDbLine
 10
163.2798258683
 20
69.2481170339
 30
0.0
 11
163.2798258683
 21
67.2481170339
 31
0.0
  0
SPLINE
  5
116
330
1F
100
AcDbEntity
  8
0
  6
Continuous
 62
     7
370
    25
100
AcDbSpline
210
0.0
220
0.0
230
1.0
 70
     8
 71
     3
 72
     8
 73
     4
 74
     0
 42
0.00000001
 43
0.00000001
 40
0.0
 40
0.0
 40
0.0
 40
0.0
 40
1.0
 40
1.0
 40
1.0
 40
1.0
 10
163.279825868334
 20
67.24811703390968
 30
0.0
 10
163.2400472101438
 20
67.11073194490957
 30
0.0
 10
163.1995582473156
 20
66.9740278630978
 30
0.0
 10
163.1584423768379
 20
66.83799550058444
 30
0.0
  0
SPLINE
  5
117
330
1F
100
AcDbEntity
  8
0
  6
Continuous
 62
     7
370
    25
100
AcDbSpline
210
0.0
220
0.0
230
1.0
 70
     8
 71
     3
 72
     8
 73
     4
 74
     0
 42
0.00000001
 43
0.00000001
 40
0.0
 40
0.0
 40
0.0
 40
0.0
 40
1.0
 40
1.0
 40
1.0
 40
1.0
 10
162.6021044630738
 20
68.19630217850046
 30
0.0
 10
162.8492782439578
 20
67.74796688544913
 30
0.0
 10
163.0429999122617
 20
67.29579239470554
 30
0.0
 10
163.1584423768379
 20
66.83799550058444
 30
0.0
  0
SPLINE
  5
118
330
1F
100
AcDbEntity
  8
0
  6
Continuous
 62
     7
370
    25
100
AcDbSpline
210
0.0
220
0.0
230
1.0
 70
     8
 71
     3
 72
    10
 73
     6
 74
     0
 42
0.00000001
 43
0.00000001
 40
0.0
 40
0.0
 40
0.0
 40
0.0
 40
0.5
 40
0.5
 40
1.0
 40
1.0
 40
1.0
 40
1.0
 10
162.6021044630738
 20
68.62931488039267
 30
0.0
 10
162.5784290686494
 20
68.54342781859022
 30
0.0
 10
162.5653379587648
 20
68.45602060961009
 30
0.0
 10
162.5652516374765
 20
68.30338416701635
 30
0.0
 10
162.5784205714204
 20
68.23926112207077
 30
0.0
 10
162.6021044630738
 20
68.19630217850046
 30
0.0
  0
LINE
  5
119
330
1F
100
AcDbEntity
  8
0
  6
Continuous
 62
     7
370
    25
100
AcDbLine
 10
175.2798258683
 20
80.6093329661
 30
0.0
 11
175.2798258683
 21
77.2481170339
 31
0.0
  0
SPLINE
  5
11A
330
1F
100
AcDbEntity
  8
0
  6
Continuous
 62
     7
370
    25
100
AcDbSpline
210
0.0
220
0.0
230
1.0
 70
     8
 71
     3
 72
    10
 73
     6
 74
     0
 42
0.00000001
 43
0.00000001
 40
0.0
 40
0.0
 40
0.0
 40
0.0
 40
0.5
 40
0.5
 40
1.0
 40
1.0
 40
1.0
 40
1.0
 10
175.9575472735942
 20
78.29993188931888
 30
0.0
 10
175.7491265207768
 20
78.67797513872105
 30
0.0
 10
175.5786626854994
 20
79.0587446435169
 30
0.0
 10
175.343680250561
 20
79.82789316907444
 30
0.0
 10
175.279825868334
 20
80.21631989724969
 30
0.0
 10
175.279825868334
 20
80.60933296607742
 30
0.0
  0
SPLINE
  5
11B
330
1F
100
AcDbEntity
  8
0
  6
Continuous
 62
     7
370
    25
100
AcDbSpline
210
0.0
220
0.0
230
1.0
 70
     8
 71
     3
 72
    10
 73
     6
 74
     0
 42
0.00000001
 43
0.00000001
 40
0.0
 40
0.0
 40
0.0
 40
0.0
 40
0.5
 40
0.5
 40
1.0
 40
1.0
 40
1.0
 40
1.0
 10
175.9575472735942
 20
77.86691918742669
 30
0.0
 10
175.9812226680186
 20
77.95280624922916
 30
0.0
 10
175.9943137779032
 20
78.04021345820927
 30
0.0
 10
175.9944000991915
 20
78.19284990080298
 30
0.0
 10
175.9812311652477
 20
78.25697294574857
 30
0.0
 10
175.9575472735942
 20
78.29993188931888
 30
0.0
  0
LINE
  5
11C
330
1F
100
AcDbEntity
  8
0
  6
Continuous
 62
     7
370
    25
100
AcDbLine
 10
175.9575472736
 20
78.2999318893
 30
0.0
 11
180.1021044631
 21
78.2999318893
 31
0.0
  0
SPLINE
  5
11D
330
1F
100
AcDbEntity
  8
0
  6
Continuous
 62
     7
370
    25
100
AcDbSpline
210
0.0
220
0.0
230
1.0
 70
     8
 71
     3
 72
    10
 73
     6
 74
     0
 42
0.00000001
 43
0.00000001
 40
0.0
 40
0.0
 40
0.0
 40
0.0
 40
0.5
 40
0.5
 40
1.0
 40
1.0
 40
1.0
 40
1.0
 10
158.4575472735937
 20
68.19630217850049
 30
0.0
 10
158.2487373489275
 20
67.8175530311092
 30
0.0
 10
158.0782032091802
 20
67.43634775469789
 30
0.0
 10
157.8434174041613
 20
66.66711713351012
 30
0.0
 10
157.779825868334
 20
66.2790494287118
 30
0.0
 10
157.779825868334
 20
65.88690110174196
 30
0.0
  0
LINE
  5
11E
330
1F
100
AcDbEntity
  8
0
  6
Continuous
 62
     7
370
    25
100
AcDbLine
 10
157.7798258683
 20
73.2481170339
 30
0.0
 11
157.7798258683
 21
65.8869011017
 31
0.0
  0
SPLINE
  5
11F
330
1F
100
AcDbEntity
  8
0
  6
Continuous
 62
     7
370
    25
100
AcDbSpline
210
0.0
220
0.0
230
1.0
 70
     8
 71
     3
 72
    10
 73
     6
 74
     0
 42
0.00000001
 43
0.00000001
 40
0.0
 40
0.0
 40
0.0
 40
0.0
 40
0.5
 40
0.5
 40
1.0
 40
1.0
 40
1.0
 40
1.0
 10
158.4575472735942
 20
68.19630217850045
 30
0.0
 10
158.4812195135057
 20
68.23923998759967
 30
0.0
 10
158.494313503441
 20
68.30268057749188
 30
0.0
 10
158.4944003709025
 20
68.45516972300074
 30
0.0
 10
158.4812305811431
 20
68.54339911220406
 30
0.0
 10
158.4575472735942
 20
68.62931488039267
 30
0.0
  0
SPLINE
  5
120
330
1F
100
AcDbEntity
  8
0
  6
Continuous
 62
     7
370
    25
100
AcDbSpline
210
0.0
220
0.0
230
1.0
 70
     8
 71
     3
 72
     8
 73
     4
 74
     0
 42
0.00000001
 43
0.00000001
 40
0.0
 40
0.0
 40
0.0
 40
0.0
 40
1.0
 40
1.0
 40
1.0
 40
1.0
 10
175.4012093598302
 20
66.83799550058444
 30
0.0
 10
175.3600940841889
 20
66.97402589507399
 30
0.0
 10
175.3196051013211
 20
67.11072995971143
 30
0.0
 10
175.279825868334
 20
67.24811703390968
 30
0.0
  0
LINE
  5
121
330
1F
100
AcDbEntity
  8
0
  6
Continuous
 62
     7
370
    25
100
AcDbLine
 10
175.2798258683
 20
69.2481170339
 30
0.0
 11
175.2798258683
 21
67.2481170339
 31
0.0
  0
SPLINE
  5
122
330
1F
100
AcDbEntity
  8
0
  6
Continuous
 62
     7
370
    25
100
AcDbSpline
210
0.0
220
0.0
230
1.0
 70
     8
 71
     3
 72
    10
 73
     6
 74
     0
 42
0.00000001
 43
0.00000001
 40
0.0
 40
0.0
 40
0.0
 40
0.0
 40
0.5
 40
0.5
 40
1.0
 40
1.0
 40
1.0
 40
1.0
 10
175.957547273591
 20
68.19630217850046
 30
0.0
 10
175.9812226680153
 20
68.23924570940163
 30
0.0
 10
175.9943137779032
 20
68.3026881540254
 30
0.0
 10
175.9944000991916
 20
68.4551669911445
 30
0.0
 10
175.9812311652477
 20
68.54339699325192
 30
0.0
 10
175.9575472735942
 20
68.62931488039267
 30
0.0
  0
SPLINE
  5
123
330
1F
100
AcDbEntity
  8
0
  6
Continuous
 62
     7
370
    25
100
AcDbSpline
210
0.0
220
0.0
230
1.0
 70
     8
 71
     3
 72
     8
 73
     4
 74
     0
 42
0.00000001
 43
0.00000001
 40
0.0
 40
0.0
 40
0.0
 40
0.0
 40
1.0
 40
1.0
 40
1.0
 40
1.0
 10
175.4012093598302
 20
66.83799550058444
 30
0.0
 10
175.5168419698592
 20
67.2965464326422
 30
0.0
 10
175.7107313746797
 20
67.74861602840046
 30
0.0
 10
175.9575472735941
 20
68.1963021785002
 30
0.0
  0
LINE
  5
124
330
1F
100
AcDbEntity
  8
0
  6
Continuous
 62
     7
370
    25
100
AcDbLine
 10
180.1021044631
 20
68.1963021785
 30
0.0
 11
175.9575472736
 21
68.1963021785
 31
0.0
  0
LINE
  5
125
330
1F
100
AcDbEntity
  8
0
  6
Continuous
 62
     7
370
    25
100
AcDbLine
 10
162.6021044631
 20
68.1963021785
 30
0.0
 11
158.4575472736
 21
68.1963021785
 31
0.0
  0
SPLINE
  5
126
330
1F
100
AcDbEntity
  8
0
  6
Continuous
 62
     7
370
    25
100
AcDbSpline
210
0.0
220
0.0
230
1.0
 70
     8
 71
     3
 72
    12
 73
     8
 74
     0
 42
0.00000001
 43
0.00000001
 40
0.0
 40
0.0
 40
0.0
 40
0.0
 40
0.2499999999999999
 40
0.2499999999999999
 40
0.4999999999999998
 40
0.4999999999999998
 40
1.0
 40
1.0
 40
1.0
 40
1.0
 10
175.279825868334
 20
80.60933296607742
 30
0.0
 10
175.279825868334
 20
80.80507522895694
 30
0.0
 10
175.295668804423
 20
81.00174183814748
 30
0.0
 10
175.3571716646606
 20
81.39101006547578
 30
0.0
 10
175.4027753057043
 20
81.5844140984287
 30
0.0
 10
175.5792263231935
 20
82.16134314968545
 30
0.0
 10
175.7496236904454
 20
82.54159258288846
 30
0.0
 10
175.9575472735942
 20
82.91873404283592
 30
0.0
  0
LINE
  5
127
330
1F
100
AcDbEntity
  8
0
  6
Continuous
 62
     7
370
    25
100
AcDbLine
 10
180.1021044631
 20
82.9187340428
 30
0.0
 11
175.9575472736
 21
82.9187340428
 31
0.0
  0
SPLINE
  5
128
330
1F
100
AcDbEntity
  8
0
  6
Continuous
 62
     7
370
    25
100
AcDbSpline
210
0.0
220
0.0
230
1.0
 70
     8
 71
     3
 72
    10
 73
     6
 74
     0
 42
0.00000001
 43
0.00000001
 40
0.0
 40
0.0
 40
0.0
 40
0.0
 40
0.5
 40
0.5
 40
1.0
 40
1.0
 40
1.0
 40
1.0
 10
180.1021044630743
 20
82.91873404283595
 30
0.0
 10
180.3109143877406
 20
82.53998489544466
 30
0.0
 10
180.4814485274878
 20
82.15877961903335
 30
0.0
 10
180.7162343325067
 20
81.38954899784558
 30
0.0
 10
180.779825868334
 20
81.00148129304725
 30
0.0
 10
180.779825868334
 20
80.60933296607742
 30
0.0
  0
ELLIPSE
  5
129
330
1F
100
AcDbEntity
  8
0
  6
Continuous
 62
     7
370
    25
100
AcDbEllipse
 10
169.2798258683
 20
63.4331624577
 30
0.0
 11
8.500000000000028
 21
0.0
 31
0.0
210
0.0
220
0.0
230
1.0
 40
0.5773502692
 41
2.374833212873082
 42
2.530692279913057
  0
LINE
  5
12A
330
1F
100
AcDbEntity
  8
0
  6
Continuous
 62
     7
370
    25
100
AcDbLine
 10
161.9904496837
 20
65.9587408493
 30
0.0
 11
159.6092088594
 21
63.577500025
 31
0.0
  0
LINE
  5
12B
330
1F
100
AcDbEntity
  8
0
  6
Continuous
 62
     7
370
    25
100
AcDbLine
 10
158.4575472736
 20
63.577500025
 30
0.0
 11
159.6092088594
 21
63.577500025
 31
0.0
  0
SPLINE
  5
12C
330
1F
100
AcDbEntity
  8
0
  6
Continuous
 62
     7
370
    25
100
AcDbSpline
210
0.0
220
0.0
230
1.0
 70
     8
 71
     3
 72
    12
 73
     8
 74
     0
 42
0.00000001
 43
0.00000001
 40
0.0
 40
0.0
 40
0.0
 40
0.0
 40
0.2499999999999999
 40
0.2499999999999999
 40
0.5
 40
0.5
 40
1.0
 40
1.0
 40
1.0
 40
1.0
 10
157.779825868334
 20
65.88690110174196
 30
0.0
 10
157.779825868334
 20
65.69189762173616
 30
0.0
 10
157.795572198356
 20
65.49536296271174
 30
0.0
 10
157.8570172229414
 20
65.1059432751062
 30
0.0
 10
157.9026059821951
 20
64.91245858204594
 30
0.0
 10
158.0790569844517
 20
64.33527498329033
 30
0.0
 10
158.2495146864152
 20
63.95483920150738
 30
0.0
 10
158.4575472735941
 20
63.57750002498344
 30
0.0
  0
SPLINE
  5
12D
330
1F
100
AcDbEntity
  8
0
  6
Continuous
 62
     7
370
    25
100
AcDbSpline
210
0.0
220
0.0
230
1.0
 70
     8
 71
     3
 72
    10
 73
     6
 74
     0
 42
0.00000001
 43
0.00000001
 40
0.0
 40
0.0
 40
0.0
 40
0.0
 40
0.5
 40
0.5
 40
1.0
 40
1.0
 40
1.0
 40
1.0
 10
162.6021044630738
 20
82.91873404283595
 30
0.0
 10
162.8105252158912
 20
82.5406907934338
 30
0.0
 10
162.9809890511687
 20
82.15992128863793
 30
0.0
 10
163.2159714861071
 20
81.39077276308039
 30
0.0
 10
163.279825868334
 20
81.00234603490514
 30
0.0
 10
163.279825868334
 20
80.60933296607742
 30
0.0
  0
SPLINE
  5
12E
330
1F
100
AcDbEntity
  8
0
  6
Continuous
 62
     7
370
    25
100
AcDbSpline
210
0.0
220
0.0
230
1.0
 70
     8
 71
     3
 72
    10
 73
     6
 74
     0
 42
0.00000001
 43
0.00000001
 40
0.0
 40
0.0
 40
0.0
 40
0.0
 40
0.5
 40
0.5
 40
1.0
 40
1.0
 40
1.0
 40
1.0
 10
158.4575472735937
 20
82.91873404283595
 30
0.0
 10
158.2487373489275
 20
82.53998489544466
 30
0.0
 10
158.0782032091802
 20
82.15877961903335
 30
0.0
 10
157.8434174041613
 20
81.38954899784558
 30
0.0
 10
157.779825868334
 20
81.00148129304725
 30
0.0
 10
157.779825868334
 20
80.60933296607742
 30
0.0
  0
LINE
  5
12F
330
1F
100
AcDbEntity
  8
0
  6
Continuous
 62
     7
370
    25
100
AcDbLine
 10
162.6021044631
 20
82.9187340428
 30
0.0
 11
158.4575472736
 21
82.9187340428
 31
0.0
  0
SPLINE
  5
130
330
1F
100
AcDbEntity
  8
0
  6
Continuous
 62
     7
370
    25
100
AcDbSpline
210
0.0
220
0.0
230
1.0
 70
     8
 71
     3
 72
    12
 73
     8
 74
     0
 42
0.00000001
 43
0.00000001
 40
0.0
 40
0.0
 40
0.0
 40
0.0
 40
0.2499999999999999
 40
0.2499999999999999
 40
0.5
 40
0.5
 40
1.0
 40
1.0
 40
1.0
 40
1.0
 10
180.779825868334
 20
65.88690110174196
 30
0.0
 10
180.779825868334
 20
65.69189762173616
 30
0.0
 10
180.764079538312
 20
65.49536296271174
 30
0.0
 10
180.7026345137266
 20
65.1059432751062
 30
0.0
 10
180.6570457544729
 20
64.91245858204594
 30
0.0
 10
180.4805947522163
 20
64.33527498329033
 30
0.0
 10
180.3101370502528
 20
63.95483920150738
 30
0.0
 10
180.1021044630739
 20
63.57750002498344
 30
0.0
  0
LINE
  5
131
330
1F
100
AcDbEntity
  8
0
  6
Continuous
 62
     7
370
    25
100
AcDbLine
 10
178.9504428773
 20
63.577500025
 30
0.0
 11
180.1021044631
 21
63.577500025
 31
0.0
  0
LINE
  5
132
330
1F
100
AcDbEntity
  8
0
  6
Continuous
 62
     7
370
    25
100
AcDbLine
 10
178.9504428773
 20
63.577500025
 30
0.0
 11
176.569202053
 21
65.9587408493
 31
0.0
  0
ELLIPSE
  5
133
330
1F
100
AcDbEntity
  8
0
  6
Continuous
 62
     7
370
    25
100
AcDbEllipse
 10
169.2798258683
 20
63.4331624577
 30
0.0
 11
8.500000000000028
 21
0.0
 31
0.0
210
0.0
220
0.0
230
1.0
 40
0.5773502692
 41
0.6109003736767363
 42
0.7667594407167089
  0
LINE
  5
134
330
1F
100
AcDbEntity
  8
0
  6
Continuous
 62
     7
370
    25
100
AcDbLine
 10
161.5839441149
 20
62.2481170339
 30
0.0
 11
159.6092088594
 21
62.2481170339
 31
0.0
  0
LINE
  5
135
330
1F
100
AcDbEntity
  8
0
  6
Continuous
 62
     7
370
    25
100
AcDbLine
 10
159.6092088594
 20
63.577500025
 30
0.0
 11
159.6092088594
 21
62.2481170339
 31
0.0
  0
LINE
  5
136
330
1F
100
AcDbEntity
  8
0
  6
Continuous
 62
     7
370
    25
100
AcDbLine
 10
164.2280110129
 20
62.2481170339
 30
0.0
 11
162.2532757574
 21
62.2481170339
 31
0.0
  0
LINE
  5
137
330
1F
100
AcDbEntity
  8
0
  6
Continuous
 62
     7
370
    25
100
AcDbLine
 10
178.9504428773
 20
62.2481170339
 30
0.0
 11
178.9504428773
 21
63.577500025
 31
0.0
  0
LINE
  5
138
330
1F
100
AcDbEntity
  8
0
  6
Continuous
 62
     7
370
    25
100
AcDbLine
 10
178.9504428773
 20
62.2481170339
 30
0.0
 11
176.9757076218
 21
62.2481170339
 31
0.0
  0
LINE
  5
139
330
1F
100
AcDbEntity
  8
0
  6
Continuous
 62
     7
370
    25
100
AcDbLine
 10
176.3063759793
 20
62.2481170339
 30
0.0
 11
174.3316407237
 21
62.2481170339
 31
0.0
  0
LINE
  5
13A
330
1F
100
AcDbEntity
  8
0
  6
Continuous
 62
     7
370
    25
100
AcDbLine
 10
176.2798258683
 20
49.7481170339
 30
0.0
 11
162.2798258683
 21
49.7481170339
 31
0.0
  0
LINE
  5
13B
330
1F
100
AcDbEntity
  8
0
  6
Continuous
 62
     7
370
    25
100
AcDbLine
 10
165.2798258683
 20
69.2481170339
 30
0.0
 11
163.2798258683
 21
67.2481170339
 31
0.0
  0
LINE
  5
13C
330
1F
100
AcDbEntity
  8
0
  6
Continuous
 62
     7
370
    25
100
AcDbLine
 10
162.3172047957
 20
66.2481170339
 30
0.0
 11
165.2798258683
 21
66.2481170339
 31
0.0
  0
LINE
  5
13D
330
1F
100
AcDbEntity
  8
0
  6
Continuous
 62
     7
370
    25
100
AcDbLine
 10
175.2798258683
 20
67.2481170339
 30
0.0
 11
173.2798258683
 21
69.2481170339
 31
0.0
  0
LINE
  5
13E
330
1F
100
AcDbEntity
  8
0
  6
Continuous
 62
     7
370
    25
100
AcDbLine
 10
173.2798258683
 20
66.2481170339
 30
0.0
 11
176.242446941
 21
66.2481170339
 31
0.0
  0
LINE
  5
13F
330
1F
100
AcDbEntity
  8
0
  6
Continuous
 62
     7
370
    25
100
AcDbLine
 10
163.2798258683
 20
81.1825715121
 30
0.0
 11
163.2798258683
 21
80.6093329661
 31
0.0
  0
SPLINE
  5
140
330
1F
100
AcDbEntity
  8
0
  6
Continuous
 62
     7
370
    25
100
AcDbSpline
210
0.0
220
0.0
230
1.0
 70
     8
 71
     3
 72
    32
 73
    28
 74
     0
 42
0.00000001
 43
0.00000001
 40
0.0
 40
0.0
 40
0.0
 40
0.0
 40
0.0625000000000001
 40
0.0625000000000001
 40
0.1250000000000001
 40
0.1250000000000001
 40
0.1875000000000002
 40
0.1875000000000002
 40
0.2500000000000003
 40
0.2500000000000003
 40
0.3750000000000003
 40
0.3750000000000003
 40
0.4375000000000003
 40
0.4375000000000003
 40
0.5000000000000002
 40
0.5000000000000002
 40
0.5625000000000002
 40
0.5625000000000002
 40
0.6250000000000001
 40
0.6250000000000001
 40
0.7500000000000001
 40
0.7500000000000001
 40
0.8750000000000002
 40
0.8750000000000002
 40
0.9375000000000001
 40
0.9375000000000001
 40
1.0
 40
1.0
 40
1.0
 40
1.0
 10
175.2798258683256
 20
81.18257151213034
 30
0.0
 10
175.1229695324086
 20
81.08761453423465
 30
0.0
 10
174.949971098253
 20
80.98486135960945
 30
0.0
 10
174.5732665116272
 20
80.7681501579612
 30
0.0
 10
174.3704137311705
 20
80.65473144747118
 30
0.0
 10
173.9444324683679
 20
80.42664131077301
 30
0.0
 10
173.7202545080799
 20
80.31133442832116
 30
0.0
 10
173.2489034145035
 20
80.08301132594637
 30
0.0
 10
173.0002178991384
 20
79.96936130981263
 30
0.0
 10
172.2296454144468
 20
79.64629727857859
 30
0.0
 10
171.6840080043646
 20
79.45339875441509
 30
0.0
 10
170.8012282558683
 20
79.24180482914137
 30
0.0
 10
170.5025891559954
 20
79.18616244302363
 30
0.0
 10
169.8960875552796
 20
79.1104943736598
 30
0.0
 10
169.5859403166137
 20
79.09052112788348
 30
0.0
 10
168.96585482793
 20
79.09085489413674
 30
0.0
 10
168.6592837904619
 20
79.11085385945951
 30
0.0
 10
168.0526290431537
 20
79.18689264565599
 30
0.0
 10
167.7502559785284
 20
79.24354574578754
 30
0.0
 10
166.8736196757755
 20
79.45432429583337
 30
0.0
 10
166.3255655437985
 20
79.64787012640514
 30
0.0
 10
165.2950682765553
 20
80.08048941968093
 30
0.0
 10
164.8275082412758
 20
80.31296606437135
 30
0.0
 10
164.1892946376479
 20
80.65470406529039
 30
0.0
 10
163.986084899458
 20
80.76832158071878
 30
0.0
 10
163.6097479730636
 20
80.98482397307502
 30
0.0
 10
163.4367693645721
 20
81.08756176951943
 30
0.0
 10
163.279825868334
 20
81.1825715121355
 30
0.0
  0
LINE
  5
141
330
1F
100
AcDbEntity
  8
0
  6
Continuous
 62
     7
370
    25
100
AcDbLine
 10
175.2798258683
 20
81.1825715121
 30
0.0
 11
175.2798258683
 21
80.6093329661
 31
0.0
  0
SPLINE
  5
142
330
1F
100
AcDbEntity
  8
0
  6
Continuous
 62
     7
370
    25
100
AcDbSpline
210
0.0
220
0.0
230
1.0
 70
     8
 71
     3
 72
    11
 73
     7
 74
     0
 42
0.00000001
 43
0.00000001
 40
0.0
 40
0.0
 40
0.0
 40
0.0
 40
0.0853955216049774
 40
0.3121420226732808
 40
0.5441622708157107
 40
1.0
 40
1.0
 40
1.0
 40
1.0
 10
175.4531883947372
 20
82.04106995746476
 30
0.0
 10
175.4543643657393
 20
82.0450401074961
 30
0.0
 10
175.4586628343276
 20
82.059552000366
 30
0.0
 10
175.4274943279294
 20
81.95303360956117
 30
0.0
 10
175.3450787291629
 20
81.67252662590384
 30
0.0
 10
175.305833411891
 20
81.37785075047312
 30
0.0
 10
175.279825868334
 20
81.18257151212836
 30
0.0
  0
SPLINE
  5
143
330
1F
100
AcDbEntity
  8
0
  6
Continuous
 62
     7
370
    25
100
AcDbSpline
210
0.0
220
0.0
230
1.0
 70
     8
 71
     3
 72
    11
 73
     7
 74
     0
 42
0.00000001
 43
0.00000001
 40
0.0
 40
0.0
 40
0.0
 40
0.0
 40
0.313710657935426
 40
0.628099957098855
 40
0.8549902345934369
 40
1.0
 40
1.0
 40
1.0
 40
1.0
 10
163.279825868334
 20
81.1825715121354
 30
0.0
 10
163.2661994705657
 20
81.3137933413816
 30
0.0
 10
163.2389171974354
 20
81.57652086827659
 30
0.0
 10
163.1507439076038
 20
81.88874940761752
 30
0.0
 10
163.1057902169267
 20
82.04384751397873
 30
0.0
 10
163.1063170964377
 20
82.04170663679744
 30
0.0
 10
163.1065225351726
 20
82.0408718745979
 30
0.0
  0
SPLINE
  5
144
330
1F
100
AcDbEntity
  8
0
  6
Continuous
 62
     7
370
    25
100
AcDbSpline
210
0.0
220
0.0
230
1.0
 70
     8
 71
     3
 72
    10
 73
     6
 74
     0
 42
0.00000001
 43
0.00000001
 40
0.0
 40
0.0
 40
0.0
 40
0.0
 40
0.1601790552921523
 40
0.7197651707804853
 40
1.0
 40
1.0
 40
1.0
 40
1.0
 10
162.5678750299569
 20
82.98101232158567
 30
0.0
 10
162.5671122398637
 20
82.98240454961203
 30
0.0
 10
162.5636846397899
 20
82.98866053134037
 30
0.0
 10
162.5781921045882
 20
82.96215326661245
 30
0.0
 10
162.596121657706
 20
82.9295974114673
 30
0.0
 10
162.6021044630738
 20
82.91873404283595
 30
0.0
  0
SPLINE
  5
145
330
1F
100
AcDbEntity
  8
0
  6
Continuous
 62
     7
370
    25
100
AcDbSpline
210
0.0
220
0.0
230
1.0
 70
     8
 71
     3
 72
    10
 73
     6
 74
     0
 42
0.00000001
 43
0.00000001
 40
0.0
 40
0.0
 40
0.0
 40
0.0
 40
0.1593935212994637
 40
0.7189934545690476
 40
1.0
 40
1.0
 40
1.0
 40
1.0
 10
180.0678674734964
 20
63.51520794551699
 30
0.0
 10
180.0671059464989
 20
63.51381802669037
 30
0.0
 10
180.063670844983
 20
63.50754837074345
 30
0.0
 10
180.0781654674495
 20
63.53403231256724
 30
0.0
 10
180.0961068379422
 20
63.5666097166141
 30
0.0
 10
180.1021044630738
 20
63.57750002498346
 30
0.0
  0
LINE
  5
146
330
1F
100
AcDbEntity
  8
0
  6
Continuous
 62
     7
370
    25
100
AcDbLine
 10
180.7798258683
 20
65.8869011017
 30
0.0
 11
180.7798258683
 21
64.7481170339
 31
0.0
  0
SPLINE
  5
147
330
1F
100
AcDbEntity
  8
0
  6
Continuous
 62
     7
370
    25
100
AcDbSpline
210
0.0
220
0.0
230
1.0
 70
     8
 71
     3
 72
     9
 73
     5
 74
     0
 42
0.00000001
 43
0.00000001
 40
0.0
 40
0.0
 40
0.0
 40
0.0
 40
0.5797912171256431
 40
1.0
 40
1.0
 40
1.0
 40
1.0
 10
175.9575472735942
 20
82.91873404283592
 30
0.0
 10
175.9699058769407
 20
82.94120769107705
 30
0.0
 10
175.9912214867351
 20
82.97996931349788
 30
0.0
 10
175.9916124292378
 20
82.98070371825608
 30
0.0
 10
175.9917767067111
 20
82.98101232158567
 30
0.0
  0
SPLINE
  5
148
330
1F
100
AcDbEntity
  8
0
  6
Continuous
 62
     7
370
    25
100
AcDbSpline
210
0.0
220
0.0
230
1.0
 70
     8
 71
     3
 72
     9
 73
     5
 74
     0
 42
0.00000001
 43
0.00000001
 40
0.0
 40
0.0
 40
0.0
 40
0.0
 40
0.5789479223839391
 40
1.0
 40
1.0
 40
1.0
 40
1.0
 10
158.4575472735942
 20
82.91873404283592
 30
0.0
 10
158.4698881639085
 20
82.9411754100283
 30
0.0
 10
158.4912042267824
 20
82.97993773445283
 30
0.0
 10
158.4916124006969
 20
82.9807036373122
 30
0.0
 10
158.4917842631716
 20
82.98102612230238
 30
0.0
  0
LINE
  5
149
330
1F
100
AcDbEntity
  8
0
  6
Continuous
 62
     7
370
    25
100
AcDbLine
 10
157.7798258683
 20
81.7481170339
 30
0.0
 11
157.7798258683
 21
80.6093329661
 31
0.0
  0
SPLINE
  5
14A
330
1F
100
AcDbEntity
  8
0
  6
Continuous
 62
     7
370
    25
100
AcDbSpline
210
0.0
220
0.0
230
1.0
 70
     8
 71
     3
 72
     9
 73
     5
 74
     0
 42
0.00000001
 43
0.00000001
 40
0.0
 40
0.0
 40
0.0
 40
0.0
 40
0.5789479223839434
 40
1.0
 40
1.0
 40
1.0
 40
1.0
 10
180.1021044630738
 20
82.91873404283592
 30
0.0
 10
180.0897635727596
 20
82.9411754100283
 30
0.0
 10
180.0684475098857
 20
82.97993773445285
 30
0.0
 10
180.0680393359711
 20
82.9807036373122
 30
0.0
 10
180.0678674734964
 20
82.9810261223024
 30
0.0
  0
LINE
  5
14B
330
1F
100
AcDbEntity
  8
0
  6
Continuous
 62
     7
370
    25
100
AcDbLine
 10
180.7798258683
 20
81.7481170339
 30
0.0
 11
180.7798258683
 21
80.6093329661
 31
0.0
  0
SPLINE
  5
14C
330
1F
100
AcDbEntity
  8
0
  6
Continuous
 62
     7
370
    25
100
AcDbSpline
210
0.0
220
0.0
230
1.0
 70
     8
 71
     3
 72
    10
 73
     6
 74
     0
 42
0.00000001
 43
0.00000001
 40
0.0
 40
0.0
 40
0.0
 40
0.0
 40
0.1593935212994365
 40
0.7189934545690234
 40
1.0
 40
1.0
 40
1.0
 40
1.0
 10
158.4917842631716
 20
63.51520794551699
 30
0.0
 10
158.4925457901691
 20
63.51381802669037
 30
0.0
 10
158.495980891685
 20
63.50754837074344
 30
0.0
 10
158.4814862692185
 20
63.53403231256723
 30
0.0
 10
158.4635448987258
 20
63.5666097166141
 30
0.0
 10
158.4575472735942
 20
63.57750002498346
 30
0.0
  0
LINE
  5
14D
330
1F
100
AcDbEntity
  8
0
  6
Continuous
 62
     7
370
    25
100
AcDbLine
 10
157.7798258683
 20
65.8869011017
 30
0.0
 11
157.7798258683
 21
64.7481170339
 31
0.0
  0
LINE
  5
14E
330
1F
100
AcDbEntity
  8
0
  6
Continuous
 62
     7
370
    25
100
AcDbLine
 10
179.0174301754
 20
63.5105127269
 30
0.0
 11
178.9504428773
 21
63.577500025
 31
0.0
  0
LINE
  5
14F
330
1F
100
AcDbEntity
  8
0
  6
Continuous
 62
     7
370
    25
100
AcDbLine
 10
178.9504428773
 20
62.2481170339
 30
0.0
 11
179.0174301754
 21
62.2481170339
 31
0.0
  0
LINE
  5
150
330
1F
100
AcDbEntity
  8
0
  6
Continuous
 62
     7
370
    25
100
AcDbLine
 10
159.6092088594
 20
63.577500025
 30
0.0
 11
159.5422215613
 21
63.5105127269
 31
0.0
  0
LINE
  5
151
330
1F
100
AcDbEntity
  8
0
  6
Continuous
 62
     7
370
    25
100
AcDbLine
 10
159.5422215613
 20
62.2481170339
 30
0.0
 11
159.6092088594
 21
62.2481170339
 31
0.0
  0
ARC
  5
152
330
1F
100
AcDbEntity
  8
0
  6
Continuous
 62
     7
370
    25
100
AcDbCircle
 10
167.1056511211
 20
98.19194207
 30
0.0
 40
4.408657033483586
100
AcDbArc
 50
83.0838156236
 51
91.2490959636
  0
SPLINE
  5
153
330
1F
100
AcDbEntity
  8
0
  6
Continuous
 62
     7
370
    25
100
AcDbSpline
210
0.0
220
0.0
230
1.0
 70
     8
 71
     3
 72
    15
 73
    11
 74
     0
 42
0.00000001
 43
0.00000001
 40
0.0
 40
0.0
 40
0.0
 40
0.0
 40
0.1246337044934918
 40
0.2519069547896618
 40
0.3765407248366567
 40
0.4994048858686675
 40
0.6264509366402855
 40
0.7526069675388761
 40
0.8746808545492513
 40
1.0
 40
1.0
 40
1.0
 40
1.0
 10
167.7417580050616
 20
102.5748285445577
 30
0.0
 10
167.7377437215655
 20
102.5741921802598
 30
0.0
 10
167.7296301383636
 20
102.5729059744693
 30
0.0
 10
167.7151920534521
 20
102.5711962485717
 30
0.0
 10
167.7000588450205
 20
102.5697526900994
 30
0.0
 10
167.684696218755
 20
102.5686478490955
 30
0.0
 10
167.6697653364106
 20
102.5679145012491
 30
0.0
 10
167.6562629966954
 20
102.5676431149205
 30
0.0
 10
167.6445769707189
 20
102.5677893976018
 30
0.0
 10
167.6392353578657
 20
102.5682736318677
 30
0.0
 10
167.6365295162684
 20
102.5685189250508
 30
0.0
  0
SPLINE
  5
154
330
1F
100
AcDbEntity
  8
0
  6
Continuous
 62
     7
370
    25
100
AcDbSpline
210
0.0
220
0.0
230
1.0
 70
     8
 71
     3
 72
    11
 73
     7
 74
     0
 42
0.00000001
 43
0.00000001
 40
0.0
 40
0.0
 40
0.0
 40
0.0
 40
0.250625429633313
 40
0.5000000000003831
 40
0.7493745703670929
 40
1.0
 40
1.0
 40
1.0
 40
1.0
 10
170.8178937347905
 20
102.5748285443168
 30
0.0
 10
170.588174235185
 20
102.6061865991046
 30
0.0
 10
170.1298817547655
 20
102.6687462021619
 30
0.0
 10
169.2798258699341
 20
102.6947902620705
 30
0.0
 10
168.4297699850967
 20
102.6687462022953
 30
0.0
 10
167.9714775046704
 20
102.6061865993096
 30
0.0
 10
167.7417580050616
 20
102.5748285445577
 30
0.0
  0
SPLINE
  5
155
330
1F
100
AcDbEntity
  8
0
  6
Continuous
 62
     7
370
    25
100
AcDbSpline
210
0.0
220
0.0
230
1.0
 70
     8
 71
     3
 72
    15
 73
    11
 74
     0
 42
0.00000001
 43
0.00000001
 40
0.0
 40
0.0
 40
0.0
 40
0.0
 40
0.1253187789994368
 40
0.2473923090486592
 40
0.3734477209264249
 40
0.500593709173434
 40
0.6235467583552695
 40
0.7480937818221101
 40
0.8753666599534677
 40
1.0
 40
1.0
 40
1.0
 40
1.0
 10
170.9231222235836
 20
102.5685189247934
 30
0.0
 10
170.9204163856561
 20
102.5682736307111
 30
0.0
 10
170.9150747800471
 20
102.5677893946702
 30
0.0
 10
170.9033918364534
 20
102.5676431644438
 30
0.0
 10
170.8898904168198
 20
102.5679143302704
 30
0.0
 10
170.8749560865268
 20
102.5686478072072
 30
0.0
 10
170.8595889913215
 20
102.5697527197852
 30
0.0
 10
170.8444564965549
 20
102.5711967127732
 30
0.0
 10
170.8300215713574
 20
102.5729059564493
 30
0.0
 10
170.8219080083133
 20
102.5741921741341
 30
0.0
 10
170.8178937347905
 20
102.5748285443168
 30
0.0
  0
ARC
  5
156
330
1F
100
AcDbEntity
  8
0
  6
Continuous
 62
     7
370
    25
100
AcDbCircle
 10
171.4540006181
 20
98.1919420698
 30
0.0
 40
4.408657033329509
100
AcDbArc
 50
88.7509040274
 51
96.9161843676
  0
LINE
  5
157
330
1F
100
AcDbEntity
  8
0
  6
Continuous
 62
     7
370
    25
100
AcDbLine
 10
167.6365295163
 20
102.5685189251
 30
0.0
 11
167.6365295163
 21
102.6693984094
 31
0.0
  0
SPLINE
  5
158
330
1F
100
AcDbEntity
  8
0
  6
Continuous
 62
     7
370
    25
100
AcDbSpline
210
0.0
220
0.0
230
1.0
 70
     8
 71
     3
 72
    15
 73
    11
 74
     0
 42
0.00000001
 43
0.00000001
 40
0.0
 40
0.0
 40
0.0
 40
0.0
 40
0.1253191957979138
 40
0.2473928354984065
 40
0.3734492416489706
 40
0.5005950046079967
 40
0.6235484391777611
 40
0.7480947836179483
 40
0.8753671458153899
 40
1.0
 40
1.0
 40
1.0
 40
1.0
 10
167.6365295162684
 20
102.6693984094133
 30
0.0
 10
167.6392353126008
 20
102.6691543302797
 30
0.0
 10
167.644576829698
 20
102.6686724932507
 30
0.0
 10
167.6562594022871
 20
102.6685269766972
 30
0.0
 10
167.6697603822743
 20
102.6687967710528
 30
0.0
 10
167.6846944111244
 20
102.6695265816185
 30
0.0
 10
167.7000614223134
 20
102.6706259984107
 30
0.0
 10
167.7151941587517
 20
102.6720628536891
 30
0.0
 10
167.7296295885334
 20
102.6737636892721
 30
0.0
 10
167.7377435393626
 20
102.6750436131894
 30
0.0
 10
167.7417580050616
 20
102.6756768695119
 30
0.0
  0
LINE
  5
159
330
1F
100
AcDbEntity
  8
0
  6
Continuous
 62
     7
370
    25
100
AcDbLine
 10
167.7417580051
 20
102.5748285446
 30
0.0
 11
167.7417580051
 21
102.6756768695
 31
0.0
  0
ARC
  5
15A
330
1F
100
AcDbEntity
  8
0
  6
Continuous
 62
     7
370
    25
100
AcDbCircle
 10
168.3109102652
 20
87.2582014486
 30
0.0
 40
15.49681493636721
100
AcDbArc
 50
94.6954834628
 51
94.8171561263
  0
SPLINE
  5
15B
330
1F
100
AcDbEntity
  8
0
  6
Continuous
 62
     7
370
    25
100
AcDbSpline
210
0.0
220
0.0
230
1.0
 70
     8
 71
     3
 72
    15
 73
    11
 74
     0
 42
0.00000001
 43
0.00000001
 40
0.0
 40
0.0
 40
0.0
 40
0.0
 40
0.1241930067305288
 40
0.2496556654892299
 40
0.3743703853151211
 40
0.4998404796364203
 40
0.6240146704162364
 40
0.7475381382242064
 40
0.8745858500551822
 40
1.0
 40
1.0
 40
1.0
 40
1.0
 10
167.8226315684645
 20
102.7844899048662
 30
0.0
 10
167.8070711733548
 20
102.7820942245185
 30
0.0
 10
167.7757913058433
 20
102.7772783722637
 30
0.0
 10
167.698354946355
 20
102.7676740725407
 30
0.0
 10
167.605000942616
 20
102.7569710262345
 30
0.0
 10
167.4977753365951
 20
102.7455487686943
 30
0.0
 10
167.3833894258741
 20
102.7339526656282
 30
0.0
 10
167.2657186629888
 20
102.7226680584028
 30
0.0
 10
167.1488349377636
 20
102.7119578321494
 30
0.0
 10
167.0776860868689
 20
102.7059774706942
 30
0.0
 10
167.0423418467854
 20
102.7030066380187
 30
0.0
  0
ARC
  5
15C
330
1F
100
AcDbEntity
  8
0
  6
Continuous
 62
     7
370
    25
100
AcDbCircle
 10
168.2128741991
 20
100.4491930846
 30
0.0
 40
2.367678303593966
100
AcDbArc
 50
93.3632881502
 51
99.4868245016
  0
ARC
  5
15D
330
1F
100
AcDbEntity
  8
0
  6
Continuous
 62
     7
370
    25
100
AcDbCircle
 10
170.3467812241
 20
100.4492343353
 30
0.0
 40
2.367636907667667
100
AcDbArc
 50
80.5187694298
 51
86.636742268
  0
SPLINE
  5
15E
330
1F
100
AcDbEntity
  8
0
  6
Continuous
 62
     7
370
    25
100
AcDbSpline
210
0.0
220
0.0
230
1.0
 70
     8
 71
     3
 72
    15
 73
    11
 74
     0
 42
0.00000001
 43
0.00000001
 40
0.0
 40
0.0
 40
0.0
 40
0.0
 40
0.1253320172137757
 40
0.2522975129251761
 40
0.3758847553984063
 40
0.5001929511416489
 40
0.6255758307380154
 40
0.7502289462456485
 40
0.875744493577783
 40
1.0
 40
1.0
 40
1.0
 40
1.0
 10
171.5094907975995
 20
102.7036880000607
 30
0.0
 10
171.4742398809715
 20
102.7066675922005
 30
0.0
 10
171.4032786151171
 20
102.7126656101301
 30
0.0
 10
171.2872917243288
 20
102.7233259824541
 30
0.0
 10
171.1706953580884
 20
102.7345351036651
 30
0.0
 10
171.0575747515069
 20
102.7460255308937
 30
0.0
 10
170.9516990371675
 20
102.757323291606
 30
0.0
 10
170.8595899525483
 20
102.767898305203
 30
0.0
 10
170.7831582886799
 20
102.7773893672315
 30
0.0
 10
170.7521933811806
 20
102.7821567487892
 30
0.0
 10
170.7367890330594
 20
102.7845284143639
 30
0.0
  0
ARC
  5
15F
330
1F
100
AcDbEntity
  8
0
  6
Continuous
 62
     7
370
    25
100
AcDbCircle
 10
170.2095761473
 20
86.9780246157
 30
0.0
 40
15.7792986845416
100
AcDbArc
 50
85.1265666159
 51
85.2745602134
  0
ARC
  5
160
330
1F
100
AcDbEntity
  8
0
  6
Continuous
 62
     7
370
    25
100
AcDbCircle
 10
171.4539982948
 20
98.2710210629
 30
0.0
 40
4.430299389724868
100
AcDbArc
 50
88.7569768639
 51
96.8822041625
  0
SPLINE
  5
161
330
1F
100
AcDbEntity
  8
0
  6
Continuous
 62
     7
370
    25
100
AcDbSpline
210
0.0
220
0.0
230
1.0
 70
     8
 71
     3
 72
    15
 73
    11
 74
     0
 42
0.00000001
 43
0.00000001
 40
0.0
 40
0.0
 40
0.0
 40
0.0
 40
0.124633218643854
 40
0.2519059530189772
 40
0.3765391000744918
 40
0.4994035903146518
 40
0.6264494152300148
 40
0.7526064410610419
 40
0.874680437736327
 40
1.0
 40
1.0
 40
1.0
 40
1.0
 10
170.8178937347905
 20
102.6756768692722
 30
0.0
 10
170.8219082104586
 20
102.6750436188051
 30
0.0
 10
170.8300221814373
 20
102.6737637067227
 30
0.0
 10
170.8444607732738
 20
102.6720623910184
 30
0.0
 10
170.8595942232069
 20
102.6706259682317
 30
0.0
 10
170.8749567654887
 20
102.6695266226872
 30
0.0
 10
170.8898873443254
 20
102.6687969406698
 30
0.0
 10
170.9033892443547
 20
102.6685269269108
 30
0.0
 10
170.9150748992411
 20
102.6686724956576
 30
0.0
 10
170.9204164235819
 20
102.6691543309189
 30
0.0
 10
170.9231222235836
 20
102.6693984091571
 30
0.0
  0
SPLINE
  5
162
330
1F
100
AcDbEntity
  8
0
  6
Continuous
 62
     7
370
    25
100
AcDbSpline
210
0.0
220
0.0
230
1.0
 70
     8
 71
     3
 72
    11
 73
     7
 74
     0
 42
0.00000001
 43
0.00000001
 40
0.0
 40
0.0
 40
0.0
 40
0.0
 40
0.2506252605986011
 40
0.4999999999996215
 40
0.7493747394010042
 40
1.0
 40
1.0
 40
1.0
 40
1.0
 10
167.7417580050616
 20
102.6756768695119
 30
0.0
 10
167.9714856992349
 20
102.7068812923806
 30
0.0
 10
168.4297948369979
 20
102.7691344403555
 30
0.0
 10
169.279825869934
 20
102.7950490261537
 30
0.0
 10
170.1298569028642
 20
102.7691344402228
 30
0.0
 10
170.5881660406205
 20
102.7068812921766
 30
0.0
 10
170.8178937347905
 20
102.6756768692722
 30
0.0
  0
ARC
  5
163
330
1F
100
AcDbEntity
  8
0
  6
Continuous
 62
     7
370
    25
100
AcDbCircle
 10
167.1056534444
 20
98.2710210631
 30
0.0
 40
4.430299389884214
100
AcDbArc
 50
83.1177958287
 51
91.2430231272
  0
SPLINE
  5
164
330
1F
100
AcDbEntity
  8
0
  6
Continuous
 62
     7
370
    25
100
AcDbSpline
210
0.0
220
0.0
230
1.0
 70
     8
 71
     3
 72
    15
 73
    11
 74
     0
 42
0.00000001
 43
0.00000001
 40
0.0
 40
0.0
 40
0.0
 40
0.0
 40
0.1233867499278388
 40
0.2487396502211602
 40
0.3739317114754985
 40
0.4999973617625659
 40
0.6259591330513601
 40
0.7512551380600303
 40
0.8765613478174267
 40
1.0
 40
1.0
 40
1.0
 40
1.0
 10
169.2169430035279
 20
102.8480099312142
 30
0.0
 10
169.2198212047198
 20
102.8480105902863
 30
0.0
 10
169.2256234708314
 20
102.8480119189328
 30
0.0
 10
169.2411528755522
 20
102.8480158685599
 30
0.0
 10
169.2595074574256
 20
102.8480176509093
 30
0.0
 10
169.2798202739085
 20
102.8480192044873
 30
0.0
 10
169.3001386916236
 20
102.8480176503523
 30
0.0
 10
169.3184915607878
 20
102.8480158734718
 30
0.0
 10
169.3340296651833
 20
102.8480119059536
 30
0.0
 10
169.3398302272145
 20
102.8480105861577
 30
0.0
 10
169.3427087331401
 20
102.8480099312142
 30
0.0
  0
ARC
  5
165
330
1F
100
AcDbEntity
  8
0
  6
Continuous
 62
     7
370
    25
100
AcDbCircle
 10
169.2178374312
 20
100.3036605184
 30
0.0
 40
2.544349570052101
100
AcDbArc
 50
90.0201414662
 51
95.4127462174
  0
SPLINE
  5
166
330
1F
100
AcDbEntity
  8
0
  6
Continuous
 62
     7
370
    25
100
AcDbSpline
210
0.0
220
0.0
230
1.0
 70
     8
 71
     3
 72
    15
 73
    11
 74
     0
 42
0.00000001
 43
0.00000001
 40
0.0
 40
0.0
 40
0.0
 40
0.0
 40
0.1261585224210642
 40
0.25131214515488
 40
0.3762846848783792
 40
0.4993062783340877
 40
0.6261594278645743
 40
0.7521171342021308
 40
0.8758196922692789
 40
1.0
 40
1.0
 40
1.0
 40
1.0
 10
169.0407123426562
 20
102.8347667998034
 30
0.0
 10
169.0354812461676
 20
102.834715874053
 30
0.0
 10
169.0250607208249
 20
102.8346144281946
 30
0.0
 10
169.0102741703105
 20
102.8346102465573
 30
0.0
 10
168.997083817685
 20
102.834709585378
 30
0.0
 10
168.9862132428437
 20
102.834930127581
 30
0.0
 10
168.9782056555152
 20
102.8352539949825
 30
0.0
 10
168.9740390284825
 20
102.83567386483
 30
0.0
 10
168.9734179769709
 20
102.8361525818957
 30
0.0
 10
168.9763570893257
 20
102.8364938711413
 30
0.0
 10
168.9778294778084
 20
102.8366648446509
 30
0.0
  0
ARC
  5
167
330
1F
100
AcDbEntity
  8
0
  6
Continuous
 62
     7
370
    25
100
AcDbCircle
 10
169.2798258683
 20
82.2481170339
 30
0.0
 40
20.58803836847348
100
AcDbArc
 50
89.3345405821
 51
90.66545941
  0
SPLINE
  5
168
330
1F
100
AcDbEntity
  8
0
  6
Continuous
 62
     7
370
    25
100
AcDbSpline
210
0.0
220
0.0
230
1.0
 70
     8
 71
     3
 72
    15
 73
    11
 74
     0
 42
0.00000001
 43
0.00000001
 40
0.0
 40
0.0
 40
0.0
 40
0.0
 40
0.1241186784437694
 40
0.2478474916628982
 40
0.3736574149478942
 40
0.5005082335853296
 40
0.6234527658309922
 40
0.7484986612277523
 40
0.8736976492452769
 40
1.0
 40
1.0
 40
1.0
 40
1.0
 10
169.5818222615856
 20
102.8366648446176
 30
0.0
 10
169.5832933341944
 20
102.8364939643391
 30
0.0
 10
169.5862308586728
 20
102.8361527405287
 30
0.0
 10
169.5856141241727
 20
102.8356742042412
 30
0.0
 10
169.5814521625781
 20
102.8352544143693
 30
0.0
 10
169.5734534147797
 20
102.8349306265229
 30
0.0
 10
169.5625873232429
 20
102.8347099283173
 30
0.0
 10
169.5493996054183
 20
102.8346103364071
 30
0.0
 10
169.534605158843
 20
102.8346142508057
 30
0.0
 10
169.5241765679357
 20
102.8347158016111
 30
0.0
 10
169.5189393968213
 20
102.8347667997708
 30
0.0
  0
ARC
  5
169
330
1F
100
AcDbEntity
  8
0
  6
Continuous
 62
     7
370
    25
100
AcDbCircle
 10
169.3418143054
 20
100.3036604661
 30
0.0
 40
2.544349622299205
100
AcDbArc
 50
84.5872538302
 51
89.9798585321
  0
LINE
  5
16A
330
1F
100
AcDbEntity
  8
0
  6
Continuous
 62
     7
370
    25
100
AcDbLine
 10
170.8178937348
 20
102.5748285443
 30
0.0
 11
170.8178937348
 21
102.6756768693
 31
0.0
  0
LINE
  5
16B
330
1F
100
AcDbEntity
  8
0
  6
Continuous
 62
     7
370
    25
100
AcDbLine
 10
170.9231222236
 20
102.5685189248
 30
0.0
 11
170.9231222236
 21
102.6693984092
 31
0.0
  0
LINE
  5
16C
330
1F
100
AcDbEntity
  8
0
  6
Continuous
 62
     7
370
    25
100
AcDbLine
 10
167.0095463198
 20
102.5995514794
 30
0.0
 11
167.0095463198
 21
102.7002778975
 31
0.0
  0
LINE
  5
16D
330
1F
100
AcDbEntity
  8
0
  6
Continuous
 62
     7
370
    25
100
AcDbLine
 10
171.5501054201
 20
102.599551479
 30
0.0
 11
171.5501054201
 21
102.7002778971
 31
0.0
  0
LINE
  5
16E
330
1F
100
AcDbEntity
  8
0
  6
Continuous
 62
     7
370
    25
100
AcDbLine
 10
174.3722768009
 20
100.2481170339
 30
0.0
 11
164.1873749358
 21
100.2481170339
 31
0.0
  0
SPLINE
  5
16F
330
1F
100
AcDbEntity
  8
0
  6
Continuous
 62
     7
370
    25
100
AcDbSpline
210
0.0
220
0.0
230
1.0
 70
     8
 71
     3
 72
    11
 73
     7
 74
     0
 42
0.00000001
 43
0.00000001
 40
0.0
 40
0.0
 40
0.0
 40
0.0
 40
0.2460416072901215
 40
0.4920717926348662
 40
0.7460790582811389
 40
1.0
 40
1.0
 40
1.0
 40
1.0
 10
176.2428530776714
 20
92.4812930096266
 30
0.0
 10
175.9932639589793
 20
93.09173557899416
 30
0.0
 10
175.494097308226
 20
94.31259237926345
 30
0.0
 10
174.9409154944489
 20
96.23459397999629
 30
0.0
 10
174.5275862009196
 20
98.21389671782846
 30
0.0
 10
174.4240407349596
 20
99.57012042664954
 30
0.0
 10
174.3722768009113
 20
100.2481170339097
 30
0.0
  0
SPLINE
  5
170
330
1F
100
AcDbEntity
  8
0
  6
Continuous
 62
     7
370
    25
100
AcDbSpline
210
0.0
220
0.0
230
1.0
 70
     8
 71
     3
 72
    13
 73
     9
 74
     0
 42
0.00000001
 43
0.00000001
 40
0.0
 40
0.0
 40
0.0
 40
0.0
 40
0.0164940201989931
 40
0.1958803672654719
 40
0.3763143282056555
 40
0.5827472646165622
 40
0.8280062032403772
 40
1.0
 40
1.0
 40
1.0
 40
1.0
 10
177.2798258122285
 20
90.74811686883797
 30
0.0
 10
177.2797211942819
 20
90.74825414413951
 30
0.0
 10
177.2784787681441
 20
90.74988440384321
 30
0.0
 10
177.2292957256341
 20
90.81541616504707
 30
0.0
 10
177.0562228927613
 20
91.05396278758471
 30
0.0
 10
176.7907956796699
 20
91.44880591487443
 30
0.0
 10
176.494287952144
 20
91.9419514245367
 30
0.0
 10
176.3162438170976
 20
92.3238658515361
 30
0.0
 10
176.2428530776714
 20
92.4812930096266
 30
0.0
  0
LWPOLYLINE
  5
171
330
1F
100
AcDbEntity
  8
0
  6
Continuous
 62
     7
370
    25
100
AcDbPolyline
 90
       27
 70
   128
 43
0.0
 10
177.2798258122
 20
90.7481168688
 10
177.2213643215
 20
90.74811687
 10
177.0471192377
 20
90.7481168736
 10
176.7596309657
 20
90.7481168796
 10
176.3630909382
 20
90.7481168877
 10
175.8632805073
 20
90.7481168981
 10
175.2674866548
 20
90.7481169103
 10
174.5843957524
 20
90.7481169244
 10
173.823966918
 20
90.7481169401
 10
172.9972868174
 20
90.7481169572
 10
172.1164080262
 20
90.7481169754
 10
171.1941733093
 20
90.7481169944
 10
170.24402838
 20
90.748117014
 10
169.2798258683
 20
90.7481170339
 10
168.3156233566
 20
90.7481170538
 10
167.3654784274
 20
90.7481170734
 10
166.4432437105
 20
90.7481170924
 10
165.5623649193
 20
90.7481171106
 10
164.7356848187
 20
90.7481171277
 10
163.9752559843
 20
90.7481171433
 10
163.2921650818
 20
90.7481171574
 10
162.6963712294
 20
90.7481171697
 10
162.1965607985
 20
90.7481171801
 10
161.800020771
 20
90.7481171882
 10
161.5125324989
 20
90.7481171942
 10
161.3382874152
 20
90.7481171978
 10
161.2798259244
 20
90.7481168688
  0
SPLINE
  5
172
330
1F
100
AcDbEntity
  8
0
  6
Continuous
 62
     7
370
    25
100
AcDbSpline
210
0.0
220
0.0
230
1.0
 70
     8
 71
     3
 72
    12
 73
     8
 74
     0
 42
0.00000001
 43
0.00000001
 40
0.0
 40
0.0
 40
0.0
 40
0.0
 40
0.0816308004991864
 40
0.3246136178761977
 40
0.5946331315519718
 40
0.8003997370011066
 40
1.0
 40
1.0
 40
1.0
 40
1.0
 10
162.3167986589966
 20
92.4812930096266
 30
0.0
 10
162.28285224411
 20
92.40603365540792
 30
0.0
 10
162.1478606908863
 20
92.10675677581646
 30
0.0
 10
161.8679039669328
 20
91.60243165597932
 30
0.0
 10
161.5491756246473
 20
91.11737198248356
 30
0.0
 10
161.3228878441768
 20
90.80520078897236
 30
0.0
 10
161.2940335897126
 20
90.76695089283622
 30
0.0
 10
161.2798259244396
 20
90.74811686883797
 30
0.0
  0
SPLINE
  5
173
330
1F
100
AcDbEntity
  8
0
  6
Continuous
 62
     7
370
    25
100
AcDbSpline
210
0.0
220
0.0
230
1.0
 70
     8
 71
     3
 72
    11
 73
     7
 74
     0
 42
0.00000001
 43
0.00000001
 40
0.0
 40
0.0
 40
0.0
 40
0.0
 40
0.2456902021794783
 40
0.4914572396993195
 40
0.7457216020119223
 40
1.0
 40
1.0
 40
1.0
 40
1.0
 10
164.1873749357567
 20
100.2481170339097
 30
0.0
 10
164.1379578658995
 20
99.59207746246796
 30
0.0
 10
164.0391082718554
 20
98.2797931546112
 30
0.0
 10
163.6399176149292
 20
96.32048937165575
 30
0.0
 10
163.0891654216501
 20
94.37455982858674
 30
0.0
 10
162.5742589836516
 20
93.11239356112301
 30
0.0
 10
162.3167986589966
 20
92.4812930096266
 30
0.0
  0
LINE
  5
174
330
1F
100
AcDbEntity
  8
0
  6
Continuous
 62
     7
370
    25
100
AcDbLine
 10
176.3142662666
 20
83.7481170339
 30
0.0
 11
162.24538547
 21
83.7481170339
 31
0.0
  0
LINE
  5
175
330
1F
100
AcDbEntity
  8
0
  6
Continuous
 62
     7
370
    25
100
AcDbLine
 10
169.2798258683
 20
102.2481170339
 30
0.0
 11
174.3749338517
 21
102.2481170339
 31
0.0
  0
LINE
  5
176
330
1F
100
AcDbEntity
  8
0
  6
Continuous
 62
     7
370
    25
100
AcDbLine
 10
164.1847178849
 20
102.2481170339
 30
0.0
 11
169.2798258683
 21
102.2481170339
 31
0.0
  0
LINE
  5
177
330
1F
100
AcDbEntity
  8
0
  6
Continuous
 62
     7
370
    25
100
AcDbLine
 10
174.4894440989
 20
100.2481170339
 30
0.0
 11
174.3722768009
 21
100.2481170339
 31
0.0
  0
ARC
  5
178
330
1F
100
AcDbEntity
  8
0
  6
Continuous
 62
     7
370
    25
100
AcDbCircle
 10
176.5540688223
 20
101.6578420964
 30
0.0
 40
2.500000000000025
100
AcDbArc
 50
214.3252481179
 51
328.221357821
  0
ARC
  5
179
330
1F
100
AcDbEntity
  8
0
  6
Continuous
 62
     7
370
    25
100
AcDbCircle
 10
183.7798258683
 20
97.1814110278
 30
0.0
 40
6.000000000000022
100
AcDbArc
 50
115.1026742168
 51
148.221357821
  0
LINE
  5
17A
330
1F
100
AcDbEntity
  8
0
  6
Continuous
 62
     7
370
    25
100
AcDbLine
 10
181.2343757361
 20
102.6147050218
 30
0.0
 11
186.3252760005
 21
102.6147050218
 31
0.0
  0
ARC
  5
17B
330
1F
100
AcDbEntity
  8
0
  6
Continuous
 62
     7
370
    25
100
AcDbCircle
 10
183.7798258683
 20
97.1814110278
 30
0.0
 40
6.00000000000001
100
AcDbArc
 50
308.4313932617
 51
64.8973257832
  0
LINE
  5
17C
330
1F
100
AcDbEntity
  8
0
  6
Continuous
 62
     7
370
    25
100
AcDbLine
 10
176.2428530777
 20
92.4812930096
 30
0.0
 11
187.5092883785
 21
92.4812930096
 31
0.0
  0
LINE
  5
17D
330
1F
100
AcDbEntity
  8
0
  6
Continuous
 62
     7
370
    25
100
AcDbLine
 10
151.0503633581
 20
92.4812930096
 30
0.0
 11
162.316798659
 21
92.4812930096
 31
0.0
  0
ARC
  5
17E
330
1F
100
AcDbEntity
  8
0
  6
Continuous
 62
     7
370
    25
100
AcDbCircle
 10
154.7798258683
 20
97.1814110278
 30
0.0
 40
6.00000000000001
100
AcDbArc
 50
115.1026742168
 51
231.5686067383
  0
LINE
  5
17F
330
1F
100
AcDbEntity
  8
0
  6
Continuous
 62
     7
370
    25
100
AcDbLine
 10
152.2343757361
 20
102.6147050218
 30
0.0
 11
157.3252760005
 21
102.6147050218
 31
0.0
  0
ARC
  5
180
330
1F
100
AcDbEntity
  8
0
  6
Continuous
 62
     7
370
    25
100
AcDbCircle
 10
154.7798258683
 20
97.1814110278
 30
0.0
 40
6.000000000000022
100
AcDbArc
 50
31.778642179
 51
64.8973257832
  0
ARC
  5
181
330
1F
100
AcDbEntity
  8
0
  6
Continuous
 62
     7
370
    25
100
AcDbCircle
 10
162.0055829144
 20
101.6578420964
 30
0.0
 40
2.500000000000002
100
AcDbArc
 50
211.778642179
 51
325.6747518821
  0
LINE
  5
182
330
1F
100
AcDbEntity
  8
0
  6
Continuous
 62
     7
370
    25
100
AcDbLine
 10
164.1873749358
 20
100.2481170339
 30
0.0
 11
164.0702076377
 21
100.2481170339
 31
0.0
  0
SPLINE
  5
183
330
1F
100
AcDbEntity
  8
0
  6
Continuous
 62
     7
370
    25
100
AcDbSpline
210
0.0
220
0.0
230
1.0
 70
     8
 71
     3
 72
    17
 73
    13
 74
     0
 42
0.00000001
 43
0.00000001
 40
0.0
 40
0.0
 40
0.0
 40
0.0
 40
0.0051037386011221
 40
0.0335545146957983
 40
0.0512404508407057
 40
0.0783256082042157
 40
0.1200097101225869
 40
0.1849422108378776
 40
0.2894088209386603
 40
0.6174789247950605
 40
0.835601474844878
 40
1.0
 40
1.0
 40
1.0
 40
1.0
 10
183.779825868334
 20
103.7481170339097
 30
0.0
 10
183.7753120514111
 20
103.7481105416832
 30
0.0
 10
183.7456359750853
 20
103.7480678585587
 30
0.0
 10
183.7003170580296
 20
103.7472709786265
 30
0.0
 10
183.6355687806631
 20
103.7448486219485
 30
0.0
 10
183.5591329279616
 20
103.7404653968006
 30
0.0
 10
183.4409847190113
 20
103.7300999608247
 30
0.0
 10
183.2546488079832
 20
103.7049132726823
 30
0.0
 10
182.8169510278137
 20
103.6129598344469
 30
0.0
 10
182.24890363787
 20
103.3802592540667
 30
0.0
 10
181.6534839661008
 20
102.9873206655807
 30
0.0
 10
181.360355450228
 20
102.7267095325814
 30
0.0
 10
181.2343757361309
 20
102.6147050217681
 30
0.0
  0
SPLINE
  5
184
330
1F
100
AcDbEntity
  8
0
  6
Continuous
 62
     7
370
    25
100
AcDbSpline
210
0.0
220
0.0
230
1.0
 70
     8
 71
     3
 72
    17
 73
    13
 74
     0
 42
0.00000001
 43
0.00000001
 40
0.0
 40
0.0
 40
0.0
 40
0.0
 40
0.1643985251551221
 40
0.3825210752049389
 40
0.7105911790613392
 40
0.8150577891621212
 40
0.8799902898774138
 40
0.9216743917957921
 40
0.9487595491592884
 40
0.9664454853042477
 40
0.9948962613988782
 40
1.0
 40
1.0
 40
1.0
 40
1.0
 10
186.3252760005371
 20
102.6147050217681
 30
0.0
 10
186.19929628644
 20
102.7267095325814
 30
0.0
 10
185.9061677705673
 20
102.9873206655807
 30
0.0
 10
185.3107480987981
 20
103.3802592540667
 30
0.0
 10
184.7427007088544
 20
103.6129598344469
 30
0.0
 10
184.3050029286848
 20
103.7049132726823
 30
0.0
 10
184.1186670176567
 20
103.7300999608247
 30
0.0
 10
184.0005188087064
 20
103.7404653968006
 30
0.0
 10
183.9240829560048
 20
103.7448486219485
 30
0.0
 10
183.8593346786385
 20
103.7472709786265
 30
0.0
 10
183.8140157615831
 20
103.7480678585588
 30
0.0
 10
183.784339685257
 20
103.7481105416832
 30
0.0
 10
183.779825868334
 20
103.7481170339097
 30
0.0
  0
ARC
  5
185
330
1F
100
AcDbEntity
  8
0
  6
Continuous
 62
     7
370
    25
100
AcDbCircle
 10
184.0625506226
 20
103.8416978252
 30
0.0
 40
2.573992516661997
100
AcDbArc
 50
331.5306505147
 51
344.0457565706
  0
SPLINE
  5
186
330
1F
100
AcDbEntity
  8
0
  6
Continuous
 62
     7
370
    25
100
AcDbSpline
210
0.0
220
0.0
230
1.0
 70
     8
 71
     3
 72
    11
 73
     7
 74
     0
 42
0.00000001
 43
0.00000001
 40
0.0
 40
0.0
 40
0.0
 40
0.0
 40
0.0055682347466183
 40
0.1918263368321047
 40
0.6296575784328776
 40
1.0
 40
1.0
 40
1.0
 40
1.0
 10
183.779825868334
 20
103.7481170339097
 30
0.0
 10
183.7850197916693
 20
103.7481130148361
 30
0.0
 10
183.9639510566992
 20
103.7479745572821
 30
0.0
 10
184.5507887562416
 20
103.7217357812288
 30
0.0
 10
185.4809145017996
 20
103.5676628178074
 30
0.0
 10
186.2054028786191
 20
103.2704034640485
 30
0.0
 10
186.5373968448874
 20
103.134185527333
 30
0.0
  0
SPLINE
  5
187
330
1F
100
AcDbEntity
  8
0
  6
Continuous
 62
     7
370
    25
100
AcDbSpline
210
0.0
220
0.0
230
1.0
 70
     8
 71
     3
 72
    17
 73
    13
 74
     0
 42
0.00000001
 43
0.00000001
 40
0.0
 40
0.0
 40
0.0
 40
0.0
 40
0.164398525155122
 40
0.3825210752049397
 40
0.7105911790613394
 40
0.8150577891621317
 40
0.8799902898774276
 40
0.9216743917957886
 40
0.9487595491592797
 40
0.9664454853042047
 40
0.9948962613988785
 40
1.0
 40
1.0
 40
1.0
 40
1.0
 10
157.3252760005371
 20
102.6147050217681
 30
0.0
 10
157.19929628644
 20
102.7267095325814
 30
0.0
 10
156.9061677705673
 20
102.9873206655807
 30
0.0
 10
156.3107480987981
 20
103.3802592540667
 30
0.0
 10
155.7427007088543
 20
103.6129598344468
 30
0.0
 10
155.3050029286848
 20
103.7049132726824
 30
0.0
 10
155.1186670176567
 20
103.7300999608247
 30
0.0
 10
155.0005188087064
 20
103.7404653968006
 30
0.0
 10
154.9240829560049
 20
103.7448486219485
 30
0.0
 10
154.8593346786385
 20
103.7472709786265
 30
0.0
 10
154.8140157615828
 20
103.7480678585587
 30
0.0
 10
154.7843396852569
 20
103.7481105416832
 30
0.0
 10
154.779825868334
 20
103.7481170339097
 30
0.0
  0
SPLINE
  5
188
330
1F
100
AcDbEntity
  8
0
  6
Continuous
 62
     7
370
    25
100
AcDbSpline
210
0.0
220
0.0
230
1.0
 70
     8
 71
     3
 72
    11
 73
     7
 74
     0
 42
0.00000001
 43
0.00000001
 40
0.0
 40
0.0
 40
0.0
 40
0.0
 40
0.0055682347466179
 40
0.1918263368321036
 40
0.6296575784328765
 40
1.0
 40
1.0
 40
1.0
 40
1.0
 10
154.779825868334
 20
103.7481170339097
 30
0.0
 10
154.7850197916693
 20
103.7481130148361
 30
0.0
 10
154.9639510566992
 20
103.7479745572821
 30
0.0
 10
155.5507887562415
 20
103.7217357812289
 30
0.0
 10
156.4809145017996
 20
103.5676628178074
 30
0.0
 10
157.2054028786191
 20
103.2704034640485
 30
0.0
 10
157.5373968448873
 20
103.134185527333
 30
0.0
  0
ARC
  5
189
330
1F
100
AcDbEntity
  8
0
  6
Continuous
 62
     7
370
    25
100
AcDbCircle
 10
155.0625506226
 20
103.8416978252
 30
0.0
 40
2.57399251666001
100
AcDbArc
 50
331.5306505147
 51
344.0457565706
  0
SPLINE
  5
18A
330
1F
100
AcDbEntity
  8
0
  6
Continuous
 62
     7
370
    25
100
AcDbSpline
210
0.0
220
0.0
230
1.0
 70
     8
 71
     3
 72
    17
 73
    13
 74
     0
 42
0.00000001
 43
0.00000001
 40
0.0
 40
0.0
 40
0.0
 40
0.0
 40
0.0051037386011219
 40
0.0335545146957463
 40
0.0512404508406915
 40
0.0783256082042153
 40
0.1200097101225738
 40
0.184942210837869
 40
0.2894088209386605
 40
0.6174789247950602
 40
0.8356014748448779
 40
1.0
 40
1.0
 40
1.0
 40
1.0
 10
154.779825868334
 20
103.7481170339097
 30
0.0
 10
154.7753120514111
 20
103.7481105416832
 30
0.0
 10
154.7456359750853
 20
103.7480678585587
 30
0.0
 10
154.7003170580296
 20
103.7472709786265
 30
0.0
 10
154.6355687806632
 20
103.7448486219485
 30
0.0
 10
154.5591329279616
 20
103.7404653968006
 30
0.0
 10
154.4409847190113
 20
103.7300999608247
 30
0.0
 10
154.2546488079832
 20
103.7049132726823
 30
0.0
 10
153.8169510278137
 20
103.6129598344469
 30
0.0
 10
153.24890363787
 20
103.3802592540667
 30
0.0
 10
152.6534839661008
 20
102.9873206655807
 30
0.0
 10
152.3603554502279
 20
102.7267095325814
 30
0.0
 10
152.2343757361309
 20
102.6147050217681
 30
0.0
  0
ARC
  5
18B
330
1F
100
AcDbEntity
  8
0
  6
Continuous
 62
     7
370
    25
100
AcDbCircle
 10
183.4971011141
 20
103.8416978252
 30
0.0
 40
2.57399251666001
100
AcDbArc
 50
195.9542434294
 51
208.4693494853
  0
SPLINE
  5
18C
330
1F
100
AcDbEntity
  8
0
  6
Continuous
 62
     7
370
    25
100
AcDbSpline
210
0.0
220
0.0
230
1.0
 70
     8
 71
     3
 72
    11
 73
     7
 74
     0
 42
0.00000001
 43
0.00000001
 40
0.0
 40
0.0
 40
0.0
 40
0.0
 40
0.3703424215671233
 40
0.808173663167896
 40
0.9944317652533816
 40
1.0
 40
1.0
 40
1.0
 40
1.0
 10
181.0222548917807
 20
103.134185527333
 30
0.0
 10
181.3542488580489
 20
103.2704034640485
 30
0.0
 10
182.0787372348685
 20
103.5676628178074
 30
0.0
 10
183.0088629804264
 20
103.7217357812288
 30
0.0
 10
183.5957006799689
 20
103.7479745572822
 30
0.0
 10
183.7746319449987
 20
103.7481130148361
 30
0.0
 10
183.779825868334
 20
103.7481170339097
 30
0.0
  0
ARC
  5
18D
330
1F
100
AcDbEntity
  8
0
  6
Continuous
 62
     7
370
    25
100
AcDbCircle
 10
154.4971011141
 20
103.8416978252
 30
0.0
 40
2.573992516661965
100
AcDbArc
 50
195.9542434294
 51
208.4693494853
  0
SPLINE
  5
18E
330
1F
100
AcDbEntity
  8
0
  6
Continuous
 62
     7
370
    25
100
AcDbSpline
210
0.0
220
0.0
230
1.0
 70
     8
 71
     3
 72
    11
 73
     7
 74
     0
 42
0.00000001
 43
0.00000001
 40
0.0
 40
0.0
 40
0.0
 40
0.0
 40
0.3703424215671234
 40
0.8081736631678964
 40
0.9944317652533821
 40
1.0
 40
1.0
 40
1.0
 40
1.0
 10
152.0222548917807
 20
103.134185527333
 30
0.0
 10
152.3542488580489
 20
103.2704034640485
 30
0.0
 10
153.0787372348685
 20
103.5676628178074
 30
0.0
 10
154.0088629804264
 20
103.7217357812289
 30
0.0
 10
154.5957006799689
 20
103.747974557282
 30
0.0
 10
154.7746319449987
 20
103.7481130148361
 30
0.0
 10
154.779825868334
 20
103.7481170339097
 30
0.0
  0
ARC
  5
18F
330
1F
100
AcDbEntity
  8
0
  6
Continuous
 62
     7
370
    25
100
AcDbCircle
 10
183.7798258683
 20
97.2481170339
 30
0.0
 40
6.499999999999998
100
AcDbArc
 50
308.4313932617
 51
64.8973257832
  0
ARC
  5
190
330
1F
100
AcDbEntity
  8
0
  6
Continuous
 62
     7
370
    25
100
AcDbCircle
 10
188.6098691558
 20
93.2227456293
 30
0.0
 40
1.327038068257618
100
AcDbArc
 50
213.9678392762
 51
233.4763769747
  0
ARC
  5
191
330
1F
100
AcDbEntity
  8
0
  6
Continuous
 62
     7
370
    25
100
AcDbCircle
 10
154.7798258683
 20
97.2481170339
 30
0.0
 40
6.500000000000006
100
AcDbArc
 50
31.778642179
 51
64.8973257832
  0
ARC
  5
192
330
1F
100
AcDbEntity
  8
0
  6
Continuous
 62
     7
370
    25
100
AcDbCircle
 10
159.3427688326
 20
101.4723395993
 30
0.0
 40
1.252349853183835
100
AcDbArc
 50
295.4209982681
 51
320.2340472941
  0
ARC
  5
193
330
1F
100
AcDbEntity
  8
0
  6
Continuous
 62
     7
370
    25
100
AcDbCircle
 10
179.2168829041
 20
101.4723395993
 30
0.0
 40
1.252349853183558
100
AcDbArc
 50
219.7659527059
 51
244.5790017319
  0
ARC
  5
194
330
1F
100
AcDbEntity
  8
0
  6
Continuous
 62
     7
370
    25
100
AcDbCircle
 10
183.7798258683
 20
97.2481170339
 30
0.0
 40
6.500000000000006
100
AcDbArc
 50
115.1026742168
 51
148.221357821
  0
ARC
  5
195
330
1F
100
AcDbEntity
  8
0
  6
Continuous
 62
     7
370
    25
100
AcDbCircle
 10
149.9497825808
 20
93.2227456293
 30
0.0
 40
1.32703806825762
100
AcDbArc
 50
306.5236230253
 51
326.0321607238
  0
ARC
  5
196
330
1F
100
AcDbEntity
  8
0
  6
Continuous
 62
     7
370
    25
100
AcDbCircle
 10
154.7798258683
 20
97.2481170339
 30
0.0
 40
6.499999999999998
100
AcDbArc
 50
115.1026742168
 51
231.5686067383
  0
ARC
  5
197
330
1F
100
AcDbEntity
  8
0
  6
Continuous
 62
     7
370
    25
100
AcDbCircle
 10
176.5540688223
 20
101.7245481025
 30
0.0
 40
2.000000000000001
100
AcDbArc
 50
227.5796275115
 51
328.221357821
  0
SPLINE
  5
198
330
1F
100
AcDbEntity
  8
0
  6
Continuous
 62
     7
370
    25
100
AcDbSpline
210
0.0
220
0.0
230
1.0
 70
    24
 71
     3
 72
    12
 73
     8
 74
     0
 42
0.00000001
 43
0.00000001
 40
0.0
 40
0.0
 40
0.0
 40
0.0
 40
0.2571943124574416
 40
0.524550343975796
 40
0.7385170215182983
 40
0.8882338470637771
 40
1.0
 40
1.0
 40
1.0
 40
1.0
 10
174.4894440989405
 20
100.2481170339097
 30
0.0
 10
174.5741423764616
 20
100.2481170339097
 30
0.0
 10
174.746885351154
 20
100.2481170339097
 30
0.0
 10
174.9661103799189
 20
100.2481170339097
 30
0.0
 10
175.1154901552982
 20
100.2481170339097
 30
0.0
 10
175.1928866718923
 20
100.2481170339097
 30
0.0
 10
175.2013300310561
 20
100.2481170339097
 30
0.0
 10
175.2049389916741
 20
100.2481170339097
 30
0.0
  0
ARC
  5
199
330
1F
100
AcDbEntity
  8
0
  6
Continuous
 62
     7
370
    25
100
AcDbCircle
 10
162.0055829144
 20
101.7245481025
 30
0.0
 40
2.000000000000001
100
AcDbArc
 50
211.778642179
 51
312.4203724885
  0
SPLINE
  5
19A
330
1F
100
AcDbEntity
  8
0
  6
Continuous
 62
     7
370
    25
100
AcDbSpline
210
0.0
220
0.0
230
1.0
 70
    24
 71
     3
 72
    12
 73
     8
 74
     0
 42
0.00000001
 43
0.00000001
 40
0.0
 40
0.0
 40
0.0
 40
0.0
 40
0.144300502635625
 40
0.2873275205918761
 40
0.5201185386439748
 40
0.7602843466484799
 40
1.0
 40
1.0
 40
1.0
 40
1.0
 10
163.354712744994
 20
100.2481170339097
 30
0.0
 10
163.3606970050185
 20
100.2481170339097
 30
0.0
 10
163.3726127126148
 20
100.2481170339097
 30
0.0
 10
163.4659979348112
 20
100.2481170339097
 30
0.0
 10
163.6187558782129
 20
100.2481170339097
 30
0.0
 10
163.8332217934012
 20
100.2481170339097
 30
0.0
 10
163.9912617729559
 20
100.2481170339097
 30
0.0
 10
164.0702076377275
 20
100.2481170339097
 30
0.0
  0
SPLINE
  5
19B
330
1F
100
AcDbEntity
  8
0
  6
Continuous
 62
     7
370
    25
100
AcDbSpline
210
0.0
220
0.0
230
1.0
 70
     8
 71
     3
 72
    15
 73
    11
 74
     0
 42
0.00000001
 43
0.00000001
 40
0.0
 40
0.0
 40
0.0
 40
0.0
 40
0.1525119975281641
 40
0.3103908680493854
 40
0.5397217434700959
 40
0.7785238912153802
 40
0.9076867233570571
 40
0.9610458274988164
 40
0.9967059666277488
 40
1.0
 40
1.0
 40
1.0
 40
1.0
 10
151.0503633581489
 20
92.4812930096266
 30
0.0
 10
151.2189422017608
 20
92.31385709213667
 30
0.0
 10
151.5620321517419
 20
91.97309321378839
 30
0.0
 10
152.2108636674513
 20
91.49425902976944
 30
0.0
 10
152.9962924593565
 20
91.07505995977117
 30
0.0
 10
153.7693538167099
 20
90.84215667355284
 30
0.0
 10
154.3188555809585
 20
90.76671038712183
 30
0.0
 10
154.603938444082
 20
90.75042555453462
 30
0.0
 10
154.7246034440866
 20
90.74816862911281
 30
0.0
 10
154.7755202533474
 20
90.74812105671532
 30
0.0
 10
154.779825868334
 20
90.74811703390966
 30
0.0
  0
SPLINE
  5
19C
330
1F
100
AcDbEntity
  8
0
  6
Continuous
 62
     7
370
    25
100
AcDbSpline
210
0.0
220
0.0
230
1.0
 70
     8
 71
     3
 72
    14
 73
    10
 74
     0
 42
0.00000001
 43
0.00000001
 40
0.0
 40
0.0
 40
0.0
 40
0.0
 40
0.0034863124123955
 40
0.0203208135699722
 40
0.2238589767031064
 40
0.4593718547945684
 40
0.6945922354894416
 40
0.8474054947372496
 40
0.9999999999999999
 40
0.9999999999999999
 40
0.9999999999999999
 40
0.9999999999999999
 10
154.779825868334
 20
90.74811703390966
 30
0.0
 10
154.7749451398676
 20
90.74812053902681
 30
0.0
 10
154.7464966356831
 20
90.7481409694482
 30
0.0
 10
154.4331135610899
 20
90.75060281617134
 30
0.0
 10
153.7945117633481
 20
90.80090846462966
 30
0.0
 10
152.8588983368094
 20
91.01079773147649
 30
0.0
 10
152.0126831466769
 20
91.34654708949998
 30
0.0
 10
151.3037978676686
 20
91.73745104134001
 30
0.0
 10
150.9275593370328
 20
92.0167653779273
 30
0.0
 10
150.7395748156335
 20
92.15632251417968
 30
0.0
  0
SPLINE
  5
19D
330
1F
100
AcDbEntity
  8
0
  6
Continuous
 62
     7
370
    25
100
AcDbSpline
210
0.0
220
0.0
230
1.0
 70
     8
 71
     3
 72
    16
 73
    12
 74
     0
 42
0.00000001
 43
0.00000001
 40
0.0
 40
0.0
 40
0.0
 40
0.0
 40
0.0093770372722071
 40
0.1449784074793553
 40
0.2782522792466382
 40
0.4010913490990483
 40
0.5131542856948397
 40
0.6266888454485822
 40
0.7537408321063427
 40
0.8891748694388528
 40
1.0
 40
1.0
 40
1.0
 40
1.0
 10
158.302358292259
 20
91.78535534018764
 30
0.0
 10
158.3141860292867
 20
91.79287016867758
 30
0.0
 10
158.4970547146272
 20
91.90905695937977
 30
0.0
 10
158.9021729507448
 20
92.07949173838732
 30
0.0
 10
159.5199795350446
 20
92.13044291527895
 30
0.0
 10
160.0871380600443
 20
92.00444745545298
 30
0.0
 10
160.5612863524623
 20
91.74959694825603
 30
0.0
 10
160.9325176282385
 20
91.40274080873907
 30
0.0
 10
161.1674233056682
 20
91.03924598925137
 30
0.0
 10
161.2661021797112
 20
90.79057610370577
 30
0.0
 10
161.2755666058196
 20
90.76129457020458
 30
0.0
 10
161.2798259244396
 20
90.74811686883797
 30
0.0
  0
SPLINE
  5
19E
330
1F
100
AcDbEntity
  8
0
  6
Continuous
 62
     7
370
    25
100
AcDbSpline
210
0.0
220
0.0
230
1.0
 70
     8
 71
     3
 72
    12
 73
     8
 74
     0
 42
0.00000001
 43
0.00000001
 40
0.0
 40
0.0
 40
0.0
 40
0.0
 40
0.0039142694629097
 40
0.2613995162853427
 40
0.5232483696209407
 40
0.7589647179150547
 40
1.0
 40
1.0
 40
1.0
 40
1.0
 10
154.779825868334
 20
90.74811703390966
 30
0.0
 10
154.7845259991307
 20
90.7481204401645
 30
0.0
 10
155.0984062591299
 20
90.74834791386638
 30
0.0
 10
155.7275254076714
 20
90.79411176902377
 30
0.0
 10
156.6269479881617
 20
90.99539206484884
 30
0.0
 10
157.494808693641
 20
91.31219379070767
 30
0.0
 10
158.0311803954201
 20
91.62646608549343
 30
0.0
 10
158.302358292259
 20
91.78535534018764
 30
0.0
  0
SPLINE
  5
19F
330
1F
100
AcDbEntity
  8
0
  6
Continuous
 62
     7
370
    25
100
AcDbSpline
210
0.0
220
0.0
230
1.0
 70
     8
 71
     3
 72
    15
 73
    11
 74
     0
 42
0.00000001
 43
0.00000001
 40
0.0
 40
0.0
 40
0.0
 40
0.0
 40
0.0032941481656678
 40
0.0389555300109776
 40
0.0923164936584507
 40
0.2214838269818526
 40
0.455755886074647
 40
0.6896123828215205
 40
0.8449486292273378
 40
1.0
 40
1.0
 40
1.0
 40
1.0
 10
183.779825868334
 20
90.74811703390966
 30
0.0
 10
183.7841314823982
 20
90.7481210579639
 30
0.0
 10
183.8350482807505
 20
90.74816864512681
 30
0.0
 10
183.9557141720122
 20
90.75042436416446
 30
0.0
 10
184.2407883196521
 20
90.7667209938203
 30
0.0
 10
184.7844829911936
 20
90.841203269616
 30
0.0
 10
185.5567650313656
 20
91.07366291122298
 30
0.0
 10
186.3404645539773
 20
91.48818547687212
 30
0.0
 10
186.9941422150686
 20
91.97112399172764
 30
0.0
 10
187.3376780904706
 20
92.31134075466149
 30
0.0
 10
187.5092883785191
 20
92.4812930096266
 30
0.0
  0
SPLINE
  5
1A0
330
1F
100
AcDbEntity
  8
0
  6
Continuous
 62
     7
370
    25
100
AcDbSpline
210
0.0
220
0.0
230
1.0
 70
     8
 71
     3
 72
    14
 73
    10
 74
     0
 42
0.00000001
 43
0.00000001
 40
0.0
 40
0.0
 40
0.0
 40
0.0
 40
0.1525945052627504
 40
0.3054077645105584
 40
0.5406281452054322
 40
0.7761410232968943
 40
0.9796791864300268
 40
0.9965136875876045
 40
0.9999999999999999
 40
0.9999999999999999
 40
0.9999999999999999
 40
0.9999999999999999
 10
187.8200769210345
 20
92.15632251417968
 30
0.0
 10
187.6320923996352
 20
92.0167653779273
 30
0.0
 10
187.2558538689995
 20
91.73745104134001
 30
0.0
 10
186.5469685899911
 20
91.34654708949996
 30
0.0
 10
185.7007533998587
 20
91.0107977314765
 30
0.0
 10
184.7651399733199
 20
90.80090846462964
 30
0.0
 10
184.1265381755781
 20
90.75060281617135
 30
0.0
 10
183.8131551009849
 20
90.74814096944819
 30
0.0
 10
183.7847065968005
 20
90.74812053902681
 30
0.0
 10
183.779825868334
 20
90.74811703390966
 30
0.0
  0
SPLINE
  5
1A1
330
1F
100
AcDbEntity
  8
0
  6
Continuous
 62
     7
370
    25
100
AcDbSpline
210
0.0
220
0.0
230
1.0
 70
     8
 71
     3
 72
    16
 73
    12
 74
     0
 42
0.00000001
 43
0.00000001
 40
0.0
 40
0.0
 40
0.0
 40
0.0
 40
0.0400879241033625
 40
0.1620524644868244
 40
0.273689418946181
 40
0.3878458116547636
 40
0.5157289207825617
 40
0.6512866697179734
 40
0.7845176689407766
 40
0.9073172229945062
 40
1.0
 40
1.0
 40
1.0
 40
1.0
 10
177.2798258122285
 20
90.74811686883797
 30
0.0
 10
177.2804488268954
 20
90.74991813632373
 30
0.0
 10
177.2829673175493
 20
90.75719962674253
 30
0.0
 10
177.3184925764722
 20
90.86229168342558
 30
0.0
 10
177.4407943497207
 20
91.12315968721225
 30
0.0
 10
177.6883888394127
 20
91.4741316855654
 30
0.0
 10
178.1136736860544
 20
91.83674308538524
 30
0.0
 10
178.6892135371313
 20
92.07973027849897
 30
0.0
 10
179.3059894620015
 20
92.12925791637319
 30
0.0
 10
179.848660896156
 20
92.01476779471017
 30
0.0
 10
180.1343943933621
 20
91.85435271467409
 30
0.0
 10
180.257293444409
 20
91.78535534018768
 30
0.0
  0
SPLINE
  5
1A2
330
1F
100
AcDbEntity
  8
0
  6
Continuous
 62
     7
370
    25
100
AcDbSpline
210
0.0
220
0.0
230
1.0
 70
     8
 71
     3
 72
    12
 73
     8
 74
     0
 42
0.00000001
 43
0.00000001
 40
0.0
 40
0.0
 40
0.0
 40
0.0
 40
0.235365305091999
 40
0.47675333331241
 40
0.7341407436541079
 40
0.9960857492732753
 40
1.0
 40
1.0
 40
1.0
 40
1.0
 10
180.257293444409
 20
91.78535534018768
 30
0.0
 10
180.5219919621041
 20
91.62994863198386
 30
0.0
 10
181.0581623232568
 20
91.31515853950903
 30
0.0
 10
181.920734828145
 20
90.99881022609998
 30
0.0
 10
182.8267177833922
 20
90.79489411450875
 30
0.0
 10
183.4558889290749
 20
90.74835178274473
 30
0.0
 10
183.7751257389044
 20
90.74812043997356
 30
0.0
 10
183.779825868334
 20
90.74811703390966
 30
0.0
  0
SPLINE
  5
1A3
330
1F
100
AcDbEntity
  8
0
  6
Continuous
 62
     7
370
    25
100
AcDbSpline
210
0.0
220
0.0
230
1.0
 70
     8
 71
     3
 72
    30
 73
    26
 74
     0
 42
0.00000001
 43
0.00000001
 40
0.0
 40
0.0
 40
0.0
 40
0.0
 40
0.0110578343668329
 40
0.0534059134659487
 40
0.0957811965268606
 40
0.1525718699989581
 40
0.2094624542425375
 40
0.2167093625958925
 40
0.2775916614818626
 40
0.3384731847464376
 40
0.3856900743111865
 40
0.4328119795669854
 40
0.4698998134000764
 40
0.5069488143240071
 40
0.5439556353731083
 40
0.5810116518867618
 40
0.6306660016077684
 40
0.6804123239040017
 40
0.7335756269519579
 40
0.7867302256945073
 40
0.8314766074593299
 40
0.8761881053394813
 40
0.9187707265799749
 40
0.9613182550699955
 40
1.0
 40
1.0
 40
1.0
 40
1.0
 10
163.379825868334
 20
82.7481170339097
 30
0.0
 10
163.3806499156802
 20
82.74741920201198
 30
0.0
 10
163.3846298090125
 20
82.74404889018538
 30
0.0
 10
163.4554115179417
 20
82.68369924658005
 30
0.0
 10
163.6767002480409
 20
82.49816915092212
 30
0.0
 10
164.0672632634375
 20
82.1776232059805
 30
0.0
 10
164.4705053495236
 20
81.86394630244011
 30
0.0
 10
164.9373195886126
 20
81.51755701455029
 30
0.0
 10
165.4729474226869
 20
81.13713206754363
 30
0.0
 10
166.2886978007051
 20
80.63910851729628
 30
0.0
 10
167.130257606424
 20
80.2269906441839
 30
0.0
 10
167.9136645251991
 20
79.94999152809442
 30
0.0
 10
168.6866494018606
 20
79.7985743752575
 30
0.0
 10
169.4172397076979
 20
79.76042490604337
 30
0.0
 10
170.1419621643186
 20
79.83975679754506
 30
0.0
 10
170.915331778311
 20
80.03226000134237
 30
0.0
 10
171.7057266255682
 20
80.34941949147212
 30
0.0
 10
172.5025310721256
 20
80.77469794456444
 30
0.0
 10
173.2298985768447
 20
81.23715899172471
 30
0.0
 10
173.8441029860284
 20
81.67757116001255
 30
0.0
 10
174.3375657357892
 20
82.05603416833509
 30
0.0
 10
174.7126180836889
 20
82.35779156208764
 30
0.0
 10
174.9828639850525
 20
82.58142928352137
 30
0.0
 10
175.1517675316776
 20
82.72429634971459
 30
0.0
 10
175.1671812694127
 20
82.73731448411378
 30
0.0
 10
175.1745213605692
 20
82.74351377819941
 30
0.0
  0
LINE
  5
1A4
330
1F
100
AcDbEntity
  8
0
  6
Continuous
 62
     7
370
    25
100
AcDbLine
 10
169.2169430035
 20
102.8360593693
 30
0.0
 11
169.2169430035
 21
102.8480099312
 31
0.0
  0
LINE
  5
1A5
330
1F
100
AcDbEntity
  8
0
  6
Continuous
 62
     7
370
    25
100
AcDbLine
 10
169.3427087331
 20
102.8360593693
 30
0.0
 11
169.3427087331
 21
102.8480099312
 31
0.0
  0
LINE
  5
1A6
330
1F
100
AcDbEntity
  8
0
  6
Continuous
 62
     7
370
    25
100
AcDbLine
 10
161.7466561201
 20
84.2124935089
 30
0.0
 11
176.8129956165
 21
84.2124935089
 31
0.0
  0
LINE
  5
1A7
330
1F
100
AcDbEntity
  8
0
  6
Continuous
 62
     7
370
    25
100
AcDbLine
 10
169.2798258683
 20
101.8520728793
 30
0.0
 11
163.6956440846
 21
101.8520728793
 31
0.0
  0
LINE
  5
1A8
330
1F
100
AcDbEntity
  8
0
  6
Continuous
 62
     7
370
    25
100
AcDbLine
 10
174.8640076521
 20
101.8520728793
 30
0.0
 11
169.2798258683
 21
101.8520728793
 31
0.0
  0
LINE
  5
1A9
330
1F
100
AcDbEntity
  8
0
  6
Continuous
 62
     7
370
    18
100
AcDbLine
 10
161.4298258683
 20
61.7481170339
 30
0.0
 11
161.7776445047
 21
50.6179206703
 31
0.0
  0
LINE
  5
1AA
330
1F
100
AcDbEntity
  8
0
  6
Continuous
 62
     7
370
    18
100
AcDbLine
 10
176.782007232
 20
50.6179206703
 30
0.0
 11
177.1298258683
 21
61.7481170339
 31
0.0
  0
LINE
  5
1AB
330
1F
100
AcDbEntity
  8
0
  6
Continuous
 62
     7
370
    25
100
AcDbLine
 10
176.8542328666
 20
61.7481170339
 30
0.0
 11
176.4278507344
 21
61.7481170339
 31
0.0
  0
LINE
  5
1AC
330
1F
100
AcDbEntity
  8
0
  6
Continuous
 62
     7
370
    25
100
AcDbLine
 10
169.7062080005
 20
61.7481170339
 30
0.0
 11
168.8534437361
 21
61.7481170339
 31
0.0
  0
LINE
  5
1AD
330
1F
100
AcDbEntity
  8
0
  6
Continuous
 62
     7
370
    25
100
AcDbLine
 10
162.1318010023
 20
61.7481170339
 30
0.0
 11
161.7054188701
 21
61.7481170339
 31
0.0
  0
LINE
  5
1AE
330
1F
100
AcDbEntity
  8
0
  6
CENTERX2
 62
     7
370
    18
100
AcDbLine
 10
169.2798258683
 20
47.2053267138
 30
0.0
 11
169.2798258683
 21
106.1045985986
 31
0.0
  0
LINE
  5
1AF
330
1F
100
AcDbEntity
  8
0
  6
CENTERX2
 62
     7
370
    18
100
AcDbLine
 10
125.9875235051
 20
73.2481170339
 30
0.0
 11
212.7798258683
 21
73.2481170339
 31
0.0
  0
LINE
  5
1B0
330
1F
100
AcDbEntity
  8
0
  6
Continuous
 62
     7
370
    25
100
AcDbLine
 10
228.6368726519
 20
61.4061170339
 30
0.0
 11
228.9361966573
 21
51.8277488599
 31
0.0
  0
LINE
  5
1B1
330
1F
100
AcDbEntity
  8
0
  6
Continuous
 62
     7
370
    25
100
AcDbLine
 10
245.3375486465
 20
51.8277488599
 30
0.0
 11
245.6368726519
 21
61.4061170339
 31
0.0
  0
LINE
  5
1B2
330
1F
100
AcDbEntity
  8
0
  6
Continuous
 62
     7
370
    25
100
AcDbLine
 10
228.9361966573
 20
51.8277488599
 30
0.0
 11
230.1368726519
 21
49.7481170339
 31
0.0
  0
LINE
  5
1B3
330
1F
100
AcDbEntity
  8
0
  6
Continuous
 62
     7
370
    25
100
AcDbLine
 10
244.1368726519
 20
49.7481170339
 30
0.0
 11
245.3375486465
 21
51.8277488599
 31
0.0
  0
LINE
  5
1B4
330
1F
100
AcDbEntity
  8
0
  6
Continuous
 62
     7
370
    25
100
AcDbLine
 10
231.2333946055
 20
79.8215788101
 30
0.0
 11
231.2292526721
 21
79.6523056246
 31
0.0
  0
LINE
  5
1B5
330
1F
100
AcDbEntity
  8
0
  6
Continuous
 62
     7
370
    25
100
AcDbLine
 10
243.0368726519
 20
79.7866456978
 30
0.0
 11
243.0368726519
 21
83.7481170339
 31
0.0
  0
LINE
  5
1B6
330
1F
100
AcDbEntity
  8
0
  6
Continuous
 62
     7
370
    25
100
AcDbLine
 10
231.2368726519
 20
83.7481170339
 30
0.0
 11
231.2368726519
 21
79.8206040404
 31
0.0
  0
ARC
  5
1B7
330
1F
100
AcDbEntity
  8
0
  6
Continuous
 62
     7
370
    25
100
AcDbCircle
 10
237.1368726519
 20
82.2481170339
 30
0.0
 40
20.50000000000001
100
AcDbArc
 50
99.3449833975
 51
102.6803834918
  0
ARC
  5
1B8
330
1F
100
AcDbEntity
  8
0
  6
Continuous
 62
     7
370
    25
100
AcDbCircle
 10
237.1368726519
 20
82.2481170339
 30
0.0
 40
20.5
100
AcDbArc
 50
77.3196165082
 51
80.6550166025
  0
LINE
  5
1B9
330
1F
100
AcDbEntity
  8
0
  6
Continuous
 62
     7
370
    25
100
AcDbLine
 10
237.1356818246
 20
90.7481170339
 30
0.0
 11
237.1380634792
 21
90.7481170339
 31
0.0
  0
LINE
  5
1BA
330
1F
100
AcDbEntity
  8
0
  6
Continuous
 62
     7
370
    25
100
AcDbLine
 10
239.4932372963
 20
103.7481170339
 30
0.0
 11
234.7805080075
 21
103.7481170339
 31
0.0
  0
ARC
  5
1BB
330
1F
100
AcDbEntity
  8
0
  6
Continuous
 62
     7
370
    25
100
AcDbCircle
 10
211.2210776054
 20
99.6376776447
 30
0.0
 40
19.99999999999999
100
AcDbArc
 50
333.6100518522
 51
1.749051671
  0
ARC
  5
1BC
330
1F
100
AcDbEntity
  8
0
  6
Continuous
 62
     7
370
    25
100
AcDbCircle
 10
263.0526676984
 20
99.6376776447
 30
0.0
 40
20.00000000000002
100
AcDbArc
 50
178.250948329
 51
206.3899481478
  0
LINE
  5
1BD
330
1F
100
AcDbEntity
  8
0
  6
Continuous
 62
     7
370
    25
100
AcDbLine
 10
229.1368726637
 20
90.7481168688
 30
0.0
 11
229.6037029037
 21
84.2124935089
 31
0.0
  0
LINE
  5
1BE
330
1F
100
AcDbEntity
  8
0
  6
Continuous
 62
     7
370
    25
100
AcDbLine
 10
244.6700424001
 20
84.2124935089
 30
0.0
 11
245.1368726401
 21
90.7481168688
 31
0.0
  0
ARC
  5
1BF
330
1F
100
AcDbEntity
  8
0
  6
Continuous
 62
     7
370
    25
100
AcDbCircle
 10
244.1713130502
 20
84.2481170339
 30
0.0
 40
0.5000000000000105
100
AcDbArc
 50
270.0
 51
355.91438322
  0
ARC
  5
1C0
330
1F
100
AcDbEntity
  8
0
  6
Continuous
 62
     7
370
    25
100
AcDbCircle
 10
230.1024322536
 20
84.2481170339
 30
0.0
 40
0.5000000000000105
100
AcDbArc
 50
184.08561678
 51
270.0
  0
LINE
  5
1C1
330
1F
100
AcDbEntity
  8
0
  6
Continuous
 62
     7
370
    25
100
AcDbLine
 10
243.0619857752
 20
100.2481170339
 30
0.0
 11
242.7210544357
 21
101.8520728793
 31
0.0
  0
LINE
  5
1C2
330
1F
100
AcDbEntity
  8
0
  6
Continuous
 62
     7
370
    25
100
AcDbLine
 10
231.5526908681
 20
101.8520728793
 30
0.0
 11
231.2117595286
 21
100.2481170339
 31
0.0
  0
ARC
  5
1C3
330
1F
100
AcDbEntity
  8
0
  6
Continuous
 62
     7
370
    25
100
AcDbCircle
 10
232.0417646685
 20
101.7481170339
 30
0.0
 40
0.5000000000000231
100
AcDbArc
 50
90.0
 51
168.0
  0
ARC
  5
1C4
330
1F
100
AcDbEntity
  8
0
  6
Continuous
 62
     7
370
    25
100
AcDbCircle
 10
242.2319806353
 20
101.7481170339
 30
0.0
 40
0.5
100
AcDbArc
 50
12.0
 51
90.0
  0
CIRCLE
  5
1C5
330
1F
100
AcDbEntity
  8
0
  6
Continuous
 62
     7
370
    25
100
AcDbCircle
 10
237.1368726519
 20
73.2481170339
 30
0.0
 40
4.580000000000001
  0
CIRCLE
  5
1C6
330
1F
100
AcDbEntity
  8
0
  6
Continuous
 62
     7
370
    25
100
AcDbCircle
 10
237.1368726519
 20
73.2481170339
 30
0.0
 40
4.099999999999985
  0
CIRCLE
  5
1C7
330
1F
100
AcDbEntity
  8
0
  6
Continuous
 62
     7
370
    25
100
AcDbCircle
 10
237.1368726519
 20
73.2481170339
 30
0.0
 40
3.099999999999972
  0
CIRCLE
  5
1C8
330
1F
100
AcDbEntity
  8
0
  6
Continuous
 62
     7
370
    25
100
AcDbCircle
 10
237.1368726519
 20
73.2481170339
 30
0.0
 40
3.00000000000001
  0
CIRCLE
  5
1C9
330
1F
100
AcDbEntity
  8
0
  6
Continuous
 62
     7
370
    25
100
AcDbCircle
 10
237.1368726519
 20
73.2481170339
 30
0.0
 40
5.249999999999989
  0
CIRCLE
  5
1CA
330
1F
100
AcDbEntity
  8
0
  6
Continuous
 62
     7
370
    25
100
AcDbCircle
 10
237.1368726519
 20
73.2481170339
 30
0.0
 40
7.799999999999986
  0
CIRCLE
  5
1CB
330
1F
100
AcDbEntity
  8
0
  6
Continuous
 62
     7
370
    25
100
AcDbCircle
 10
237.1368726519
 20
73.2481170339
 30
0.0
 40
8.000000000000005
  0
SPLINE
  5
1CC
330
1F
100
AcDbEntity
  8
0
  6
Continuous
 62
     7
370
    25
100
AcDbSpline
210
0.0
220
0.0
230
1.0
 70
     8
 71
     3
 72
    10
 73
     6
 74
     0
 42
0.00000001
 43
0.00000001
 40
0.0
 40
0.0
 40
0.0
 40
0.0
 40
0.5
 40
0.5
 40
1.0
 40
1.0
 40
1.0
 40
1.0
 10
228.6368726518992
 20
68.62931488039267
 30
0.0
 10
228.6368726518992
 20
68.54343323788622
 30
0.0
 10
228.6596632235467
 20
68.45602403192079
 30
0.0
 10
228.7476092208455
 20
68.30338154684586
 30
0.0
 10
228.8124700135783
 20
68.23925856176349
 30
0.0
 10
228.8868726518992
 20
68.19630217850046
 30
0.0
  0
SPLINE
  5
1CD
330
1F
100
AcDbEntity
  8
0
  6
Continuous
 62
     7
370
    25
100
AcDbSpline
210
0.0
220
0.0
230
1.0
 70
    24
 71
     3
 72
    10
 73
     6
 74
     0
 42
0.00000001
 43
0.00000001
 40
0.0
 40
0.0
 40
0.0
 40
0.0
 40
0.4999999999999999
 40
0.4999999999999999
 40
1.0
 40
1.0
 40
1.0
 40
1.0
 10
228.6368726518992
 20
68.62931488039267
 30
0.0
 10
228.6368726518992
 20
69.38679654059824
 30
0.0
 10
228.6368726518992
 20
70.1492640890417
 30
0.0
 10
228.6368726518992
 20
71.68772822338107
 30
0.0
 10
228.6368726518992
 20
72.46385090182362
 30
0.0
 10
228.6368726518992
 20
73.24811703390968
 30
0.0
  0
ARC
  5
1CE
330
1F
100
AcDbEntity
  8
0
  6
Continuous
 62
     7
370
    25
100
AcDbCircle
 10
237.1368726519
 20
73.2481170339
 30
0.0
 40
8.500000000000028
100
AcDbArc
 50
180.0
 51
240.0
  0
SPLINE
  5
1CF
330
1F
100
AcDbEntity
  8
0
  6
Continuous
 62
     7
370
    25
100
AcDbSpline
210
0.0
220
0.0
230
1.0
 70
    24
 71
     3
 72
    12
 73
     8
 74
     0
 42
0.00000001
 43
0.00000001
 40
0.0
 40
0.0
 40
0.0
 40
0.0
 40
0.25
 40
0.25
 40
0.5
 40
0.5
 40
1.0
 40
1.0
 40
1.0
 40
1.0
 10
232.8868726518992
 20
65.88690110174196
 30
0.0
 10
232.5491167168765
 20
66.08190458174776
 30
0.0
 10
232.208708701998
 20
66.27843924077216
 30
0.0
 10
231.5342140175975
 20
66.66785892837771
 30
0.0
 10
231.1990886987303
 20
66.86134362143797
 30
0.0
 10
230.1993773803902
 20
67.43852722019356
 30
0.0
 10
229.5404432773249
 20
67.81896300197654
 30
0.0
 10
228.8868726518992
 20
68.19630217850047
 30
0.0
  0
SPLINE
  5
1D0
330
1F
100
AcDbEntity
  8
0
  6
Continuous
 62
     7
370
    25
100
AcDbSpline
210
0.0
220
0.0
230
1.0
 70
    24
 71
     3
 72
    12
 73
     8
 74
     0
 42
0.00000001
 43
0.00000001
 40
0.0
 40
0.0
 40
0.0
 40
0.0
 40
0.25
 40
0.25
 40
0.5
 40
0.5
 40
1.0
 40
1.0
 40
1.0
 40
1.0
 10
228.6368726518992
 20
73.24811703390968
 30
0.0
 10
228.6368726518992
 20
73.63978896028462
 30
0.0
 10
228.6368726518992
 20
74.03469185180623
 30
0.0
 10
228.6368726518992
 20
74.8156278820535
 30
0.0
 10
228.6368726518992
 20
75.20303601398479
 30
0.0
 10
228.6368726518992
 20
76.35716564064477
 30
0.0
 10
228.6368726518992
 20
77.11582004958129
 30
0.0
 10
228.6368726518992
 20
77.86691918742669
 30
0.0
  0
SPLINE
  5
1D1
330
1F
100
AcDbEntity
  8
0
  6
Continuous
 62
     7
370
    25
100
AcDbSpline
210
0.0
220
0.0
230
1.0
 70
     8
 71
     3
 72
    10
 73
     6
 74
     0
 42
0.00000001
 43
0.00000001
 40
0.0
 40
0.0
 40
0.0
 40
0.0
 40
0.5
 40
0.5
 40
1.0
 40
1.0
 40
1.0
 40
1.0
 10
228.8868726518992
 20
78.29993188931891
 30
0.0
 10
228.8125021849737
 20
78.25699408021968
 30
0.0
 10
228.7481965886858
 20
78.19355349032749
 30
0.0
 10
228.65997380088
 20
78.04106434481864
 30
0.0
 10
228.6368726518992
 20
77.9528349556153
 30
0.0
 10
228.6368726518992
 20
77.86691918742669
 30
0.0
  0
ARC
  5
1D2
330
1F
100
AcDbEntity
  8
0
  6
Continuous
 62
     7
370
    25
100
AcDbCircle
 10
237.1368726519
 20
73.2481170339
 30
0.0
 40
8.500000000000028
100
AcDbArc
 50
120.0
 51
180.0
  0
SPLINE
  5
1D3
330
1F
100
AcDbEntity
  8
0
  6
Continuous
 62
     7
370
    25
100
AcDbSpline
210
0.0
220
0.0
230
1.0
 70
    24
 71
     3
 72
    10
 73
     6
 74
     0
 42
0.00000001
 43
0.00000001
 40
0.0
 40
0.0
 40
0.0
 40
0.0
 40
0.5
 40
0.5
 40
1.0
 40
1.0
 40
1.0
 40
1.0
 10
228.8868726518992
 20
78.29993188931888
 30
0.0
 10
229.5428854185043
 20
78.67868103671017
 30
0.0
 10
230.203152325362
 20
79.05988631312148
 30
0.0
 10
231.535498843997
 20
79.82911693430925
 30
0.0
 10
232.2076518254844
 20
80.21718463910759
 30
0.0
 10
232.8868726518992
 20
80.60933296607742
 30
0.0
  0
ARC
  5
1D4
330
1F
100
AcDbEntity
  8
0
  6
Continuous
 62
     7
370
    25
100
AcDbCircle
 10
237.1368726519
 20
73.2481170339
 30
0.0
 40
8.50000000000001
100
AcDbArc
 50
240.0
 51
300.0
  0
ARC
  5
1D5
330
1F
100
AcDbEntity
  8
0
  6
Continuous
 62
     7
370
    25
100
AcDbCircle
 10
237.1368726519
 20
73.2481170339
 30
0.0
 40
8.500000000000023
100
AcDbArc
 50
60.0
 51
120.0
  0
ARC
  5
1D6
330
1F
100
AcDbEntity
  8
0
  6
Continuous
 62
     7
370
    25
100
AcDbCircle
 10
237.1368726519
 20
73.2481170339
 30
0.0
 40
8.500000000000009
100
AcDbArc
 50
0.0
 51
60.0
  0
ARC
  5
1D7
330
1F
100
AcDbEntity
  8
0
  6
Continuous
 62
     7
370
    25
100
AcDbCircle
 10
237.1368726519
 20
73.2481170339
 30
0.0
 40
8.5
100
AcDbArc
 50
300.0
 51
0.0
  0
SPLINE
  5
1D8
330
1F
100
AcDbEntity
  8
0
  6
Continuous
 62
     7
370
    25
100
AcDbSpline
210
0.0
220
0.0
230
1.0
 70
    24
 71
     3
 72
    12
 73
     8
 74
     0
 42
0.00000001
 43
0.00000001
 40
0.0
 40
0.0
 40
0.0
 40
0.0
 40
0.2499999999999999
 40
0.2499999999999999
 40
0.5
 40
0.5
 40
1.0
 40
1.0
 40
1.0
 40
1.0
 10
241.3868726518993
 20
65.88690110174196
 30
0.0
 10
241.0491167168765
 20
65.69189762173616
 30
0.0
 10
240.708708701998
 20
65.49536296271174
 30
0.0
 10
240.0342140175975
 20
65.1059432751062
 30
0.0
 10
239.6990886987303
 20
64.91245858204594
 30
0.0
 10
238.6993773803902
 20
64.33527498329033
 30
0.0
 10
238.0404432773249
 20
63.95483920150738
 30
0.0
 10
237.3868726518992
 20
63.57750002498344
 30
0.0
  0
SPLINE
  5
1D9
330
1F
100
AcDbEntity
  8
0
  6
Continuous
 62
     7
370
    25
100
AcDbSpline
210
0.0
220
0.0
230
1.0
 70
     8
 71
     3
 72
    10
 73
     6
 74
     0
 42
0.00000001
 43
0.00000001
 40
0.0
 40
0.0
 40
0.0
 40
0.0
 40
0.5
 40
0.5
 40
1.0
 40
1.0
 40
1.0
 40
1.0
 10
236.8868726518993
 20
63.57750002498346
 30
0.0
 10
236.9612474058893
 20
63.53455974074641
 30
0.0
 10
237.0483411374552
 20
63.51059195617059
 30
0.0
 10
237.2245069659997
 20
63.51043390006507
 30
0.0
 10
237.31246798989
 20
63.53454247334344
 30
0.0
 10
237.3868726518993
 20
63.57750002498346
 30
0.0
  0
SPLINE
  5
1DA
330
1F
100
AcDbEntity
  8
0
  6
Continuous
 62
     7
370
    25
100
AcDbSpline
210
0.0
220
0.0
230
1.0
 70
    24
 71
     3
 72
    10
 73
     6
 74
     0
 42
0.00000001
 43
0.00000001
 40
0.0
 40
0.0
 40
0.0
 40
0.0
 40
0.5
 40
0.5
 40
1.0
 40
1.0
 40
1.0
 40
1.0
 10
236.8868726518993
 20
63.57750002498342
 30
0.0
 10
236.2308598852942
 20
63.95624917237472
 30
0.0
 10
235.5705929784365
 20
64.337454448786
 30
0.0
 10
234.2382464598015
 20
65.1066850699738
 30
0.0
 10
233.5660934783141
 20
65.49475277477212
 30
0.0
 10
232.8868726518992
 20
65.88690110174196
 30
0.0
  0
SPLINE
  5
1DB
330
1F
100
AcDbEntity
  8
0
  6
Continuous
 62
     7
370
    25
100
AcDbSpline
210
0.0
220
0.0
230
1.0
 70
     8
 71
     3
 72
    10
 73
     6
 74
     0
 42
0.00000001
 43
0.00000001
 40
0.0
 40
0.0
 40
0.0
 40
0.0
 40
0.5
 40
0.5
 40
1.0
 40
1.0
 40
1.0
 40
1.0
 10
237.3868726518993
 20
82.91873404283592
 30
0.0
 10
237.3124978979093
 20
82.96167432707297
 30
0.0
 10
237.2254041663433
 20
82.98564211164879
 30
0.0
 10
237.0492383377988
 20
82.9858001677543
 30
0.0
 10
236.9612773139085
 20
82.96169159447594
 30
0.0
 10
236.8868726518993
 20
82.91873404283592
 30
0.0
  0
SPLINE
  5
1DC
330
1F
100
AcDbEntity
  8
0
  6
Continuous
 62
     7
370
    25
100
AcDbSpline
210
0.0
220
0.0
230
1.0
 70
    24
 71
     3
 72
    10
 73
     6
 74
     0
 42
0.00000001
 43
0.00000001
 40
0.0
 40
0.0
 40
0.0
 40
0.0
 40
0.5
 40
0.5
 40
1.0
 40
1.0
 40
1.0
 40
1.0
 10
237.3868726518992
 20
82.91873404283595
 30
0.0
 10
238.0428854185043
 20
82.53998489544466
 30
0.0
 10
238.703152325362
 20
82.15877961903335
 30
0.0
 10
240.035498843997
 20
81.38954899784558
 30
0.0
 10
240.7076518254844
 20
81.00148129304725
 30
0.0
 10
241.3868726518993
 20
80.60933296607742
 30
0.0
  0
SPLINE
  5
1DD
330
1F
100
AcDbEntity
  8
0
  6
Continuous
 62
     7
370
    25
100
AcDbSpline
210
0.0
220
0.0
230
1.0
 70
    24
 71
     3
 72
    12
 73
     8
 74
     0
 42
0.00000001
 43
0.00000001
 40
0.0
 40
0.0
 40
0.0
 40
0.0
 40
0.2500000000000003
 40
0.2500000000000003
 40
0.5000000000000002
 40
0.5000000000000002
 40
1.0
 40
1.0
 40
1.0
 40
1.0
 10
232.8868726518992
 20
80.60933296607742
 30
0.0
 10
233.224628586922
 20
80.80433644608321
 30
0.0
 10
233.5650366018005
 20
81.00087110510762
 30
0.0
 10
234.239531286201
 20
81.39029079271317
 30
0.0
 10
234.5746566050682
 20
81.58377548577343
 30
0.0
 10
235.5743679234083
 20
82.16095908452903
 30
0.0
 10
236.2333020264736
 20
82.54139486631199
 30
0.0
 10
236.8868726518993
 20
82.91873404283594
 30
0.0
  0
SPLINE
  5
1DE
330
1F
100
AcDbEntity
  8
0
  6
Continuous
 62
     7
370
    25
100
AcDbSpline
210
0.0
220
0.0
230
1.0
 70
    24
 71
     3
 72
    10
 73
     6
 74
     0
 42
0.00000001
 43
0.00000001
 40
0.0
 40
0.0
 40
0.0
 40
0.0
 40
0.5
 40
0.5
 40
1.0
 40
1.0
 40
1.0
 40
1.0
 10
245.6368726518993
 20
68.62931488039267
 30
0.0
 10
245.6368726518993
 20
69.38679654059824
 30
0.0
 10
245.6368726518993
 20
70.1492640890417
 30
0.0
 10
245.6368726518993
 20
71.68772822338107
 30
0.0
 10
245.6368726518993
 20
72.46385090182362
 30
0.0
 10
245.6368726518993
 20
73.24811703390968
 30
0.0
  0
SPLINE
  5
1DF
330
1F
100
AcDbEntity
  8
0
  6
Continuous
 62
     7
370
    25
100
AcDbSpline
210
0.0
220
0.0
230
1.0
 70
     8
 71
     3
 72
    10
 73
     6
 74
     0
 42
0.00000001
 43
0.00000001
 40
0.0
 40
0.0
 40
0.0
 40
0.0
 40
0.5
 40
0.5
 40
1.0
 40
1.0
 40
1.0
 40
1.0
 10
245.3868726518993
 20
68.19630217850045
 30
0.0
 10
245.4612431188248
 20
68.23923998759967
 30
0.0
 10
245.5255487151127
 20
68.30268057749188
 30
0.0
 10
245.6137715029185
 20
68.45516972300074
 30
0.0
 10
245.6368726518993
 20
68.54339911220406
 30
0.0
 10
245.6368726518993
 20
68.62931488039267
 30
0.0
  0
SPLINE
  5
1E0
330
1F
100
AcDbEntity
  8
0
  6
Continuous
 62
     7
370
    25
100
AcDbSpline
210
0.0
220
0.0
230
1.0
 70
    24
 71
     3
 72
    10
 73
     6
 74
     0
 42
0.00000001
 43
0.00000001
 40
0.0
 40
0.0
 40
0.0
 40
0.0
 40
0.5
 40
0.5
 40
1.0
 40
1.0
 40
1.0
 40
1.0
 10
245.3868726518993
 20
68.19630217850049
 30
0.0
 10
244.7308598852942
 20
67.8175530311092
 30
0.0
 10
244.0705929784365
 20
67.43634775469789
 30
0.0
 10
242.7382464598015
 20
66.66711713351012
 30
0.0
 10
242.0660934783141
 20
66.2790494287118
 30
0.0
 10
241.3868726518993
 20
65.88690110174196
 30
0.0
  0
SPLINE
  5
1E1
330
1F
100
AcDbEntity
  8
0
  6
Continuous
 62
     7
370
    25
100
AcDbSpline
210
0.0
220
0.0
230
1.0
 70
    24
 71
     3
 72
    12
 73
     8
 74
     0
 42
0.00000001
 43
0.00000001
 40
0.0
 40
0.0
 40
0.0
 40
0.0
 40
0.25
 40
0.25
 40
0.5
 40
0.5
 40
1.0
 40
1.0
 40
1.0
 40
1.0
 10
245.6368726518993
 20
73.24811703390968
 30
0.0
 10
245.6368726518993
 20
73.63978896028462
 30
0.0
 10
245.6368726518993
 20
74.03469185180622
 30
0.0
 10
245.6368726518993
 20
74.8156278820535
 30
0.0
 10
245.6368726518993
 20
75.20303601398479
 30
0.0
 10
245.6368726518993
 20
76.35716564064475
 30
0.0
 10
245.6368726518993
 20
77.11582004958129
 30
0.0
 10
245.6368726518993
 20
77.86691918742669
 30
0.0
  0
SPLINE
  5
1E2
330
1F
100
AcDbEntity
  8
0
  6
Continuous
 62
     7
370
    25
100
AcDbSpline
210
0.0
220
0.0
230
1.0
 70
     8
 71
     3
 72
    10
 73
     6
 74
     0
 42
0.00000001
 43
0.00000001
 40
0.0
 40
0.0
 40
0.0
 40
0.0
 40
0.5
 40
0.5
 40
1.0
 40
1.0
 40
1.0
 40
1.0
 10
245.6368726518993
 20
77.86691918742669
 30
0.0
 10
245.6368726518993
 20
77.95280082993315
 30
0.0
 10
245.6140820802518
 20
78.04021003589858
 30
0.0
 10
245.526136082953
 20
78.19285252097352
 30
0.0
 10
245.4612752902202
 20
78.25697550605588
 30
0.0
 10
245.3868726518993
 20
78.29993188931891
 30
0.0
  0
SPLINE
  5
1E3
330
1F
100
AcDbEntity
  8
0
  6
Continuous
 62
     7
370
    25
100
AcDbSpline
210
0.0
220
0.0
230
1.0
 70
    24
 71
     3
 72
    12
 73
     8
 74
     0
 42
0.00000001
 43
0.00000001
 40
0.0
 40
0.0
 40
0.0
 40
0.0
 40
0.2499999999999998
 40
0.2499999999999998
 40
0.4999999999999996
 40
0.4999999999999996
 40
1.0
 40
1.0
 40
1.0
 40
1.0
 10
241.3868726518993
 20
80.60933296607742
 30
0.0
 10
241.724628586922
 20
80.41432948607162
 30
0.0
 10
242.0650366018005
 20
80.21779482704721
 30
0.0
 10
242.739531286201
 20
79.82837513944166
 30
0.0
 10
243.0746566050682
 20
79.6348904463814
 30
0.0
 10
244.0743679234083
 20
79.05770684762581
 30
0.0
 10
244.7333020264736
 20
78.67727106584285
 30
0.0
 10
245.3868726518993
 20
78.2999318893189
 30
0.0
  0
LINE
  5
1E4
330
1F
100
AcDbEntity
  8
0
  6
Continuous
 62
     7
370
    25
100
AcDbLine
 10
237.3868726519
 20
63.577500025
 30
0.0
 11
237.3868726519
 21
62.2481170339
 31
0.0
  0
LINE
  5
1E5
330
1F
100
AcDbEntity
  8
0
  6
Continuous
 62
     7
370
    25
100
AcDbLine
 10
236.8868726519
 20
62.2481170339
 30
0.0
 11
236.8868726519
 21
63.577500025
 31
0.0
  0
LINE
  5
1E6
330
1F
100
AcDbEntity
  8
0
  6
Continuous
 62
     7
370
    25
100
AcDbLine
 10
236.8868726519
 20
62.2481170339
 30
0.0
 11
237.3868726519
 21
62.2481170339
 31
0.0
  0
SPLINE
  5
1E7
330
1F
100
AcDbEntity
  8
0
  6
Continuous
 62
     7
370
    25
100
AcDbSpline
210
0.0
220
0.0
230
1.0
 70
     8
 71
     3
 72
    22
 73
    18
 74
     0
 42
0.00000001
 43
0.00000001
 40
0.0
 40
0.0
 40
0.0
 40
0.0
 40
0.2500000000000013
 40
0.2500000000000013
 40
0.3750000000000018
 40
0.3750000000000018
 40
0.4375000000000018
 40
0.4375000000000018
 40
0.5000000000000019
 40
0.5000000000000019
 40
0.562500000000002
 40
0.562500000000002
 40
0.6250000000000021
 40
0.6250000000000021
 40
0.7500000000000014
 40
0.7500000000000014
 40
1.0
 40
1.0
 40
1.0
 40
1.0
 10
233.4665308578639
 20
62.24811703390967
 30
0.0
 10
233.4063695013512
 20
62.07360833627409
 30
0.0
 10
233.339525414532
 20
61.90126987937421
 30
0.0
 10
233.2100910849169
 20
61.66353444606715
 30
0.0
 10
233.1616925255244
 20
61.5867518766851
 30
0.0
 10
233.0725290152368
 20
61.49039748017553
 30
0.0
 10
233.0398699396059
 20
61.46162387971343
 30
0.0
 10
232.9680303721574
 20
61.41941031468446
 30
0.0
 10
232.9275374290123
 20
61.40603721672194
 30
0.0
 10
232.8454295424623
 20
61.40619761131849
 30
0.0
 10
232.8048669990412
 20
61.41970230343794
 30
0.0
 10
232.7324170294119
 20
61.46269374617539
 30
0.0
 10
232.6996514515986
 20
61.49187838234614
 30
0.0
 10
232.6108284720033
 20
61.58851103281282
 30
0.0
 10
232.562649153905
 20
61.66517227830899
 30
0.0
 10
232.4333001604013
 20
61.90338271834284
 30
0.0
 10
232.3672448034254
 20
62.07398832219842
 30
0.0
 10
232.3072144459344
 20
62.24811703390954
 30
0.0
  0
LINE
  5
1E8
330
1F
100
AcDbEntity
  8
0
  6
Continuous
 62
     7
370
    25
100
AcDbLine
 10
232.3072144459
 20
62.2481170339
 30
0.0
 11
228.8868726519
 21
62.2481170339
 31
0.0
  0
LINE
  5
1E9
330
1F
100
AcDbEntity
  8
0
  6
Continuous
 62
     7
370
    25
100
AcDbLine
 10
228.8868726519
 20
65.2817204941
 30
0.0
 11
228.8868726519
 21
62.2481170339
 31
0.0
  0
SPLINE
  5
1EA
330
1F
100
AcDbEntity
  8
0
  6
Continuous
 62
     7
370
    25
100
AcDbSpline
210
0.0
220
0.0
230
1.0
 70
     8
 71
     3
 72
    10
 73
     6
 74
     0
 42
0.00000001
 43
0.00000001
 40
0.0
 40
0.0
 40
0.0
 40
0.0
 40
0.5
 40
0.5
 40
1.0
 40
1.0
 40
1.0
 40
1.0
 10
228.8868726518998
 20
65.28172049405484
 30
0.0
 10
229.5217003577134
 20
65.48378717960576
 30
0.0
 10
230.1609660602892
 20
65.65017995187641
 30
0.0
 10
231.451780991879
 20
65.88422692574646
 30
0.0
 10
232.1034006273489
 20
65.95131517970529
 30
0.0
 10
232.762442559169
 20
65.95874084927507
 30
0.0
  0
LINE
  5
1EB
330
1F
100
AcDbEntity
  8
0
  6
Continuous
 62
     7
370
    25
100
AcDbLine
 10
236.8868726519
 20
62.2481170339
 30
0.0
 11
233.4665308579
 21
62.2481170339
 31
0.0
  0
SPLINE
  5
1EC
330
1F
100
AcDbEntity
  8
0
  6
Continuous
 62
     7
370
    25
100
AcDbSpline
210
0.0
220
0.0
230
1.0
 70
     8
 71
     3
 72
    22
 73
    18
 74
     0
 42
0.00000001
 43
0.00000001
 40
0.0
 40
0.0
 40
0.0
 40
0.0
 40
0.249999999999998
 40
0.249999999999998
 40
0.3749999999999984
 40
0.3749999999999984
 40
0.4374999999999986
 40
0.4374999999999986
 40
0.4999999999999988
 40
0.4999999999999988
 40
0.5624999999999989
 40
0.5624999999999989
 40
0.6249999999999991
 40
0.6249999999999991
 40
0.7499999999999996
 40
0.7499999999999996
 40
1.0
 40
1.0
 40
1.0
 40
1.0
 10
241.966530857864
 20
62.24811703390967
 30
0.0
 10
241.9063695013512
 20
62.07360833627408
 30
0.0
 10
241.839525414532
 20
61.90126987937418
 30
0.0
 10
241.7100910849169
 20
61.66353444606709
 30
0.0
 10
241.6616925255244
 20
61.58675187668506
 30
0.0
 10
241.5725290152367
 20
61.49039748017547
 30
0.0
 10
241.5398699396059
 20
61.46162387971339
 30
0.0
 10
241.4680303721574
 20
61.41941031468442
 30
0.0
 10
241.4275374290123
 20
61.40603721672195
 30
0.0
 10
241.3454295424623
 20
61.4061976113185
 30
0.0
 10
241.3048669990412
 20
61.41970230343792
 30
0.0
 10
241.2324170294119
 20
61.46269374617538
 30
0.0
 10
241.1996514515986
 20
61.49187838234615
 30
0.0
 10
241.1108284720034
 20
61.58851103281282
 30
0.0
 10
241.062649153905
 20
61.66517227830897
 30
0.0
 10
240.9333001604013
 20
61.90338271834283
 30
0.0
 10
240.8672448034254
 20
62.07398832219842
 30
0.0
 10
240.8072144459343
 20
62.24811703390954
 30
0.0
  0
SPLINE
  5
1ED
330
1F
100
AcDbEntity
  8
0
  6
Continuous
 62
     7
370
    25
100
AcDbSpline
210
0.0
220
0.0
230
1.0
 70
     8
 71
     3
 72
    12
 73
     8
 74
     0
 42
0.00000001
 43
0.00000001
 40
0.0
 40
0.0
 40
0.0
 40
0.0
 40
0.2500000000000002
 40
0.2500000000000002
 40
0.5000000000000004
 40
0.5000000000000004
 40
1.0
 40
1.0
 40
1.0
 40
1.0
 10
241.5113027446516
 20
65.95874084927482
 30
0.0
 10
241.8404377350448
 20
65.95503236341838
 30
0.0
 10
242.1698998879815
 20
65.93644986058071
 30
0.0
 10
242.8227735060392
 20
65.87158282361456
 30
0.0
 10
243.1472260979162
 20
65.82531727036431
 30
0.0
 10
244.1152865391084
 20
65.64959274005734
 30
0.0
 10
244.7536090233563
 20
65.48328933128059
 30
0.0
 10
245.3868726518993
 20
65.28172049405468
 30
0.0
  0
LINE
  5
1EE
330
1F
100
AcDbEntity
  8
0
  6
Continuous
 62
     7
370
    25
100
AcDbLine
 10
245.3868726519
 20
62.2481170339
 30
0.0
 11
245.3868726519
 21
65.2817204941
 31
0.0
  0
LINE
  5
1EF
330
1F
100
AcDbEntity
  8
0
  6
Continuous
 62
     7
370
    25
100
AcDbLine
 10
245.3868726519
 20
62.2481170339
 30
0.0
 11
241.9665308579
 21
62.2481170339
 31
0.0
  0
LINE
  5
1F0
330
1F
100
AcDbEntity
  8
0
  6
Continuous
 62
     7
370
    25
100
AcDbLine
 10
240.8072144459
 20
62.2481170339
 30
0.0
 11
237.3868726519
 21
62.2481170339
 31
0.0
  0
LINE
  5
1F1
330
1F
100
AcDbEntity
  8
0
  6
Continuous
 62
     7
370
    25
100
AcDbLine
 10
228.9361966573
 20
51.8277488599
 30
0.0
 11
245.3375486465
 21
51.8277488599
 31
0.0
  0
SPLINE
  5
1F2
330
1F
100
AcDbEntity
  8
0
  6
Continuous
 62
     7
370
    25
100
AcDbSpline
210
0.0
220
0.0
230
1.0
 70
    24
 71
     3
 72
    13
 73
     9
 74
     0
 42
0.00000001
 43
0.00000001
 40
0.0
 40
0.0
 40
0.0
 40
0.0
 40
0.0602812539209275
 40
0.1404620521351646
 40
0.2723595231616874
 40
0.633184961148007
 40
0.9919514292193994
 40
1.0
 40
1.0
 40
1.0
 40
1.0
 10
245.6368726518993
 20
61.4095943964825
 30
0.0
 10
245.6368726518993
 20
61.40977596201537
 30
0.0
 10
245.6368726518993
 20
61.41019902997905
 30
0.0
 10
245.6368726518993
 20
61.45395004689111
 30
0.0
 10
245.6368726518993
 20
61.59118406385436
 30
0.0
 10
245.6368726518993
 20
61.86938144859928
 30
0.0
 10
245.6368726518993
 20
62.11752273729719
 30
0.0
 10
245.6368726518993
 20
62.24531308758675
 30
0.0
 10
245.6368726518993
 20
62.24811703390969
 30
0.0
  0
SPLINE
  5
1F3
330
1F
100
AcDbEntity
  8
0
  6
Continuous
 62
     7
370
    25
100
AcDbSpline
210
0.0
220
0.0
230
1.0
 70
    24
 71
     3
 72
    13
 73
     9
 74
     0
 42
0.00000001
 43
0.00000001
 40
0.0
 40
0.0
 40
0.0
 40
0.0
 40
0.0080485707806003
 40
0.3668150388519739
 40
0.7276404768382745
 40
0.8595379478647904
 40
0.9397187460790233
 40
1.0
 40
1.0
 40
1.0
 40
1.0
 10
228.6368726518992
 20
62.24811703390969
 30
0.0
 10
228.6368726518992
 20
62.24531308758675
 30
0.0
 10
228.6368726518992
 20
62.11752273729716
 30
0.0
 10
228.6368726518993
 20
61.86938144859928
 30
0.0
 10
228.6368726518992
 20
61.59118406385436
 30
0.0
 10
228.6368726518992
 20
61.4539500468911
 30
0.0
 10
228.6368726518992
 20
61.41019902997904
 30
0.0
 10
228.6368726518992
 20
61.40977596201537
 30
0.0
 10
228.6368726518992
 20
61.4095943964825
 30
0.0
  0
LINE
  5
1F4
330
1F
100
AcDbEntity
  8
0
  6
Continuous
 62
     7
370
    25
100
AcDbLine
 10
237.1368726519
 20
49.7481170339
 30
0.0
 11
230.1368726519
 21
49.7481170339
 31
0.0
  0
LINE
  5
1F5
330
1F
100
AcDbEntity
  8
0
  6
Continuous
 62
     7
370
    25
100
AcDbLine
 10
244.1368726519
 20
49.7481170339
 30
0.0
 11
237.1368726519
 21
49.7481170339
 31
0.0
  0
SPLINE
  5
1F6
330
1F
100
AcDbEntity
  8
0
  6
Continuous
 62
     7
370
    25
100
AcDbSpline
210
0.0
220
0.0
230
1.0
 70
     8
 71
     3
 72
     8
 73
     4
 74
     0
 42
0.00000001
 43
0.00000001
 40
0.0
 40
0.0
 40
0.0
 40
0.0
 40
1.0
 40
1.0
 40
1.0
 40
1.0
 10
230.2086694216237
 20
66.2481170339097
 30
0.0
 10
229.6822485604145
 20
65.98490660330508
 30
0.0
 10
229.1587041037008
 20
65.71580917491838
 30
0.0
 10
228.6368726518992
 20
65.44320582233571
 30
0.0
  0
SPLINE
  5
1F7
330
1F
100
AcDbEntity
  8
0
  6
Continuous
 62
     7
370
    25
100
AcDbSpline
210
0.0
220
0.0
230
1.0
 70
     8
 71
     3
 72
    10
 73
     6
 74
     0
 42
0.00000001
 43
0.00000001
 40
0.0
 40
0.0
 40
0.0
 40
0.0
 40
0.5
 40
0.5
 40
1.0
 40
1.0
 40
1.0
 40
1.0
 10
228.6368726518992
 20
65.28172049405462
 30
0.0
 10
228.6368726518992
 20
65.25804509963021
 30
0.0
 10
228.6596651012291
 20
65.24495398974562
 30
0.0
 10
228.7476078053224
 20
65.2448676684574
 30
0.0
 10
228.8124655789966
 20
65.25803660240135
 30
0.0
 10
228.8868726518999
 20
65.2817204940549
 30
0.0
  0
SPLINE
  5
1F8
330
1F
100
AcDbEntity
  8
0
  6
Continuous
 62
     7
370
    25
100
AcDbSpline
210
0.0
220
0.0
230
1.0
 70
    24
 71
     3
 72
     8
 73
     4
 74
     0
 42
0.00000001
 43
0.00000001
 40
0.0
 40
0.0
 40
0.0
 40
0.0
 40
1.0
 40
1.0
 40
1.0
 40
1.0
 10
228.6368726518992
 20
65.28172049405468
 30
0.0
 10
228.6368726518992
 20
65.3382814611789
 30
0.0
 10
228.6368726518992
 20
65.39222153259274
 30
0.0
 10
228.6368726518992
 20
65.4432058223357
 30
0.0
  0
SPLINE
  5
1F9
330
1F
100
AcDbEntity
  8
0
  6
Continuous
 62
     7
370
    25
100
AcDbSpline
210
0.0
220
0.0
230
1.0
 70
     8
 71
     3
 72
     8
 73
     4
 74
     0
 42
0.00000001
 43
0.00000001
 40
0.0
 40
0.0
 40
0.0
 40
0.0
 40
1.0
 40
1.0
 40
1.0
 40
1.0
 10
245.6368726518993
 20
65.4432058223357
 30
0.0
 10
245.1150665005974
 20
65.71579595800506
 30
0.0
 10
244.5914130317413
 20
65.98494845912644
 30
0.0
 10
244.0650758821748
 20
66.2481170339097
 30
0.0
  0
SPLINE
  5
1FA
330
1F
100
AcDbEntity
  8
0
  6
Continuous
 62
     7
370
    25
100
AcDbSpline
210
0.0
220
0.0
230
1.0
 70
     8
 71
     3
 72
    10
 73
     6
 74
     0
 42
0.00000001
 43
0.00000001
 40
0.0
 40
0.0
 40
0.0
 40
0.0
 40
0.5
 40
0.5
 40
1.0
 40
1.0
 40
1.0
 40
1.0
 10
245.3868726518993
 20
65.28172049405468
 30
0.0
 10
245.4612530292766
 20
65.2580450996303
 30
0.0
 10
245.5255536680624
 20
65.24495398974565
 30
0.0
 10
245.6137693528453
 20
65.24486766845737
 30
0.0
 10
245.6368726518993
 20
65.25803660240122
 30
0.0
 10
245.6368726518993
 20
65.28172049405467
 30
0.0
  0
SPLINE
  5
1FB
330
1F
100
AcDbEntity
  8
0
  6
Continuous
 62
     7
370
    25
100
AcDbSpline
210
0.0
220
0.0
230
1.0
 70
    24
 71
     3
 72
     8
 73
     4
 74
     0
 42
0.00000001
 43
0.00000001
 40
0.0
 40
0.0
 40
0.0
 40
0.0
 40
1.0
 40
1.0
 40
1.0
 40
1.0
 10
245.6368726518993
 20
65.28172049405468
 30
0.0
 10
245.6368726518993
 20
65.33828146117891
 30
0.0
 10
245.6368726518993
 20
65.39222153259274
 30
0.0
 10
245.6368726518993
 20
65.4432058223357
 30
0.0
  0
LINE
  5
1FC
330
1F
100
AcDbEntity
  8
0
  6
Continuous
 62
     7
370
    25
100
AcDbLine
 10
229.6368726519
 20
66.2481170339
 30
0.0
 11
232.2612283049
 21
66.2481170339
 31
0.0
  0
LINE
  5
1FD
330
1F
100
AcDbEntity
  8
0
  6
Continuous
 62
     7
370
    25
100
AcDbLine
 10
229.6368726519
 20
67.7632894766
 30
0.0
 11
229.6368726519
 21
66.2481170339
 31
0.0
  0
LINE
  5
1FE
330
1F
100
AcDbEntity
  8
0
  6
Continuous
 62
     7
370
    25
100
AcDbLine
 10
244.6368726519
 20
66.2481170339
 30
0.0
 11
244.6368726519
 21
67.7632894766
 31
0.0
  0
LINE
  5
1FF
330
1F
100
AcDbEntity
  8
0
  6
Continuous
 62
     7
370
    25
100
AcDbLine
 10
242.0125169989
 20
66.2481170339
 30
0.0
 11
244.6368726519
 21
66.2481170339
 31
0.0
  0
LINE
  5
200
330
1F
100
AcDbEntity
  8
0
  6
Continuous
 62
     7
370
    25
100
AcDbLine
 10
228.6368726519
 20
62.2481170339
 30
0.0
 11
228.8868726519
 21
62.2481170339
 31
0.0
  0
LINE
  5
201
330
1F
100
AcDbEntity
  8
0
  6
Continuous
 62
     7
370
    25
100
AcDbLine
 10
228.6368726519
 20
62.2481170339
 30
0.0
 11
228.6368726519
 21
65.2817204941
 31
0.0
  0
LINE
  5
202
330
1F
100
AcDbEntity
  8
0
  6
Continuous
 62
     7
370
    25
100
AcDbLine
 10
245.3868726519
 20
62.2481170339
 30
0.0
 11
245.6368726519
 21
62.2481170339
 31
0.0
  0
LINE
  5
203
330
1F
100
AcDbEntity
  8
0
  6
Continuous
 62
     7
370
    25
100
AcDbLine
 10
245.6368726519
 20
65.2817204941
 30
0.0
 11
245.6368726519
 21
62.2481170339
 31
0.0
  0
LINE
  5
204
330
1F
100
AcDbEntity
  8
0
  6
Continuous
 62
     7
370
    25
100
AcDbLine
 10
228.6368726519
 20
65.4432058223
 30
0.0
 11
228.6368726519
 21
68.5722421346
 31
0.0
  0
LINE
  5
205
330
1F
100
AcDbEntity
  8
0
  6
Continuous
 62
     7
370
    25
100
AcDbLine
 10
245.6368726519
 20
65.4432058223
 30
0.0
 11
245.6368726519
 21
68.5722421346
 31
0.0
  0
SPLINE
  5
206
330
1F
100
AcDbEntity
  8
0
  6
Continuous
 62
     7
370
    25
100
AcDbSpline
210
0.0
220
0.0
230
1.0
 70
     8
 71
     3
 72
    11
 73
     7
 74
     0
 42
0.00000001
 43
0.00000001
 40
0.0
 40
0.0
 40
0.0
 40
0.0
 40
0.0055682347466184
 40
0.1918263368321039
 40
0.6296575784328784
 40
1.0
 40
1.0
 40
1.0
 40
1.0
 10
234.7805080074642
 20
103.7481170339097
 30
0.0
 10
234.7791237893884
 20
103.7481130148361
 30
0.0
 10
234.731437315137
 20
103.7479745572821
 30
0.0
 10
234.5774671322987
 20
103.7217357812288
 30
0.0
 10
234.3318920575341
 20
103.5676628178074
 30
0.0
 10
234.2997202717238
 20
103.2704034640485
 30
0.0
 10
234.2849776766528
 20
103.134185527333
 30
0.0
  0
SPLINE
  5
207
330
1F
100
AcDbEntity
  8
0
  6
Continuous
 62
     7
370
    25
100
AcDbSpline
210
0.0
220
0.0
230
1.0
 70
     8
 71
     3
 72
    11
 73
     7
 74
     0
 42
0.00000001
 43
0.00000001
 40
0.0
 40
0.0
 40
0.0
 40
0.0
 40
0.3703424215671234
 40
0.8081736631678964
 40
0.9944317652533821
 40
1.0
 40
1.0
 40
1.0
 40
1.0
 10
239.9887676271457
 20
103.134185527333
 30
0.0
 10
239.9740250320747
 20
103.2704034640485
 30
0.0
 10
239.9418532462643
 20
103.5676628178074
 30
0.0
 10
239.6962781715003
 20
103.7217357812289
 30
0.0
 10
239.5423079886611
 20
103.747974557282
 30
0.0
 10
239.4946215144101
 20
103.7481130148361
 30
0.0
 10
239.4932372963343
 20
103.7481170339097
 30
0.0
  0
LINE
  5
208
330
1F
100
AcDbEntity
  8
0
  6
Continuous
 62
     7
370
    25
100
AcDbLine
 10
238.6246544717
 20
92.1563225142
 30
0.0
 11
239.9887676271
 21
103.1341855273
 31
0.0
  0
SPLINE
  5
209
330
1F
100
AcDbEntity
  8
0
  6
Continuous
 62
     7
370
    25
100
AcDbSpline
210
0.0
220
0.0
230
1.0
 70
     8
 71
     3
 72
    14
 73
    10
 74
     0
 42
0.00000001
 43
0.00000001
 40
0.0
 40
0.0
 40
0.0
 40
0.0
 40
0.0034863238848208
 40
0.0203208804397725
 40
0.2238597133569324
 40
0.4563556157495303
 40
0.6945924899112474
 40
0.845724996562609
 40
1.0
 40
1.0
 40
1.0
 40
1.0
 10
237.1380634792308
 20
90.74811703390966
 30
0.0
 10
237.1403161206316
 20
90.7481205402586
 30
0.0
 10
237.1534461848745
 20
90.7481409778598
 30
0.0
 10
237.2980823681308
 20
90.750601520613
 30
0.0
 10
237.5901016273168
 20
90.8006447854208
 30
0.0
 10
238.0014860408551
 20
91.0092474226106
 30
0.0
 10
238.3234432706395
 20
91.34362373773938
 30
0.0
 10
238.5398712343508
 20
91.73582532831065
 30
0.0
 10
238.5962001932376
 20
92.01519857997184
 30
0.0
 10
238.6246544716651
 20
92.15632251417968
 30
0.0
  0
SPLINE
  5
20A
330
1F
100
AcDbEntity
  8
0
  6
Continuous
 62
     7
370
    25
100
AcDbSpline
210
0.0
220
0.0
230
1.0
 70
     8
 71
     3
 72
    14
 73
    10
 74
     0
 42
0.00000001
 43
0.00000001
 40
0.0
 40
0.0
 40
0.0
 40
0.0
 40
0.1509076573000546
 40
0.3054080403738433
 40
0.5376023347316409
 40
0.7761416404828171
 40
0.9796792424551188
 40
0.9965136971994736
 40
1.0
 40
1.0
 40
1.0
 40
1.0
 10
235.6490908321334
 20
92.15632251417968
 30
0.0
 10
235.6767399699028
 20
92.01816313221605
 30
0.0
 10
235.7326965007724
 20
91.73855514638086
 30
0.0
 10
235.9461705979798
 20
91.34978603636534
 30
0.0
 10
236.2686146648972
 20
91.01180363682595
 30
0.0
 10
236.6797624841352
 20
90.80130596352261
 30
0.0
 10
236.9756626287289
 20
90.7506016458776
 30
0.0
 10
237.1202991209166
 20
90.74814097704652
 30
0.0
 10
237.1334291834587
 20
90.74812054013951
 30
0.0
 10
237.1356818245677
 20
90.74811703390966
 30
0.0
  0
LINE
  5
20B
330
1F
100
AcDbEntity
  8
0
  6
Continuous
 62
     7
370
    25
100
AcDbLine
 10
234.2849776767
 20
103.1341855273
 30
0.0
 11
235.6490908321
 21
92.1563225142
 31
0.0
  0
LINE
  5
20C
330
1F
100
AcDbEntity
  8
0
  6
Continuous
 62
     7
370
    25
100
AcDbLine
 10
235.1535605013
 20
92.4812930096
 30
0.0
 11
233.7894473458
 21
102.6147050218
 31
0.0
  0
ARC
  5
20D
330
1F
100
AcDbEntity
  8
0
  6
Continuous
 62
     7
370
    25
100
AcDbCircle
 10
234.2724143303
 20
102.6500872208
 30
0.0
 40
0.4842613014163577
100
AcDbArc
 50
88.5133904064
 51
184.1900080067
  0
ARC
  5
20E
330
1F
100
AcDbEntity
  8
0
  6
Continuous
 62
     7
370
    25
100
AcDbCircle
 10
235.5812743889
 20
92.5932020565
 30
0.0
 40
0.4421117555840515
100
AcDbArc
 50
194.6624451414
 51
278.823554246
  0
LINE
  5
20F
330
1F
100
AcDbEntity
  8
0
  6
Continuous
 62
     7
370
    25
100
AcDbLine
 10
240.484297958
 20
102.6147050218
 30
0.0
 11
239.1201848025
 21
92.4812930096
 31
0.0
  0
ARC
  5
210
330
1F
100
AcDbEntity
  8
0
  6
Continuous
 62
     7
370
    25
100
AcDbCircle
 10
238.6924709149
 20
92.5932020565
 30
0.0
 40
0.4421117555840746
100
AcDbArc
 50
261.176445754
 51
345.3375548586
  0
ARC
  5
211
330
1F
100
AcDbEntity
  8
0
  6
Continuous
 62
     7
370
    25
100
AcDbCircle
 10
240.0013309735
 20
102.6500872208
 30
0.0
 40
0.4842613014163577
100
AcDbArc
 50
355.8099919933
 51
91.4866095936
  0
SPLINE
  5
212
330
1F
100
AcDbEntity
  8
0
  6
Continuous
 62
     7
370
    25
100
AcDbSpline
210
0.0
220
0.0
230
1.0
 70
     8
 71
     3
 72
    15
 73
    11
 74
     0
 42
0.00000001
 43
0.00000001
 40
0.0
 40
0.0
 40
0.0
 40
0.0
 40
0.0032941481656695
 40
0.0389555300109692
 40
0.0923164936584479
 40
0.2214838269818532
 40
0.4557558860746477
 40
0.689612382821521
 40
0.8449486292273382
 40
1.0
 40
1.0
 40
1.0
 40
1.0
 10
237.1356818245677
 20
90.74811703390966
 30
0.0
 10
237.1328114133139
 20
90.74812105796391
 30
0.0
 10
237.0988668588748
 20
90.74816864512681
 30
0.0
 10
237.0184297046158
 20
90.75042436416445
 30
0.0
 10
236.828691191178
 20
90.7667209938203
 30
0.0
 10
236.4700362175933
 20
90.841203269616
 30
0.0
 10
235.9792033994425
 20
91.07366291122298
 30
0.0
 10
235.5491646024973
 20
91.4881854768721
 30
0.0
 10
235.2639786358911
 20
91.97112399172764
 30
0.0
 10
235.1903440187459
 20
92.31134075466149
 30
0.0
 10
235.153560501322
 20
92.4812930096266
 30
0.0
  0
SPLINE
  5
213
330
1F
100
AcDbEntity
  8
0
  6
Continuous
 62
     7
370
    25
100
AcDbSpline
210
0.0
220
0.0
230
1.0
 70
     8
 71
     3
 72
    15
 73
    11
 74
     0
 42
0.00000001
 43
0.00000001
 40
0.0
 40
0.0
 40
0.0
 40
0.0
 40
0.1525119975281641
 40
0.3103908680493854
 40
0.5397217434700959
 40
0.7785238912153802
 40
0.9076867233570571
 40
0.9610458274988164
 40
0.9967059666277488
 40
1.0
 40
1.0
 40
1.0
 40
1.0
 10
239.1201848024765
 20
92.4812930096266
 30
0.0
 10
239.0842166476086
 20
92.31385709213667
 30
0.0
 10
239.0110146242103
 20
91.97309321378839
 30
0.0
 10
238.728706600739
 20
91.49425902976944
 30
0.0
 10
238.2978767810561
 20
91.07505995977117
 30
0.0
 10
237.8076572193397
 20
90.84215667355284
 30
0.0
 10
237.4450509207158
 20
90.76671038712183
 30
0.0
 10
237.2553159574051
 20
90.75042555453462
 30
0.0
 10
237.174878440103
 20
90.74816862911281
 30
0.0
 10
237.1409338901087
 20
90.74812105671532
 30
0.0
 10
237.1380634792308
 20
90.74811703390966
 30
0.0
  0
SPLINE
  5
214
330
1F
100
AcDbEntity
  8
0
  6
Continuous
 62
     7
370
    25
100
AcDbSpline
210
0.0
220
0.0
230
1.0
 70
     8
 71
     3
 72
    17
 73
    13
 74
     0
 42
0.00000001
 43
0.00000001
 40
0.0
 40
0.0
 40
0.0
 40
0.0
 40
0.164398525155122
 40
0.3825210752049383
 40
0.7105911790613387
 40
0.8150577891621212
 40
0.8799902898774311
 40
0.9216743917957981
 40
0.948759549159293
 40
0.9664454853042714
 40
0.9948962613988914
 40
0.9999999999999999
 40
0.9999999999999999
 40
0.9999999999999999
 40
0.9999999999999999
 10
233.7894473458414
 20
102.6147050217681
 30
0.0
 10
233.7862320254652
 20
102.7267095325814
 30
0.0
 10
233.7787506456521
 20
102.9873206655807
 30
0.0
 10
233.9621078606696
 20
103.3802592540667
 30
0.0
 10
234.2381059955442
 20
103.6129598344468
 30
0.0
 10
234.4799709995964
 20
103.7049132726824
 30
0.0
 10
234.5855926677805
 20
103.7300999608246
 30
0.0
 10
234.653289730611
 20
103.7404653968006
 30
0.0
 10
234.6972765799342
 20
103.7448486219485
 30
0.0
 10
234.7346072042455
 20
103.7472709786265
 30
0.0
 10
234.7607684627467
 20
103.7480678585588
 30
0.0
 10
234.7779019539633
 20
103.7481105416832
 30
0.0
 10
234.7805080074642
 20
103.7481170339097
 30
0.0
  0
SPLINE
  5
215
330
1F
100
AcDbEntity
  8
0
  6
Continuous
 62
     7
370
    25
100
AcDbSpline
210
0.0
220
0.0
230
1.0
 70
     8
 71
     3
 72
    17
 73
    13
 74
     0
 42
0.00000001
 43
0.00000001
 40
0.0
 40
0.0
 40
0.0
 40
0.0
 40
0.0051037386011219
 40
0.0335545146957463
 40
0.0512404508406915
 40
0.0783256082042153
 40
0.1200097101225738
 40
0.184942210837869
 40
0.2894088209386605
 40
0.6174789247950602
 40
0.8356014748448779
 40
1.0
 40
1.0
 40
1.0
 40
1.0
 10
239.4932372963343
 20
103.7481170339097
 30
0.0
 10
239.4958433498352
 20
103.7481105416832
 30
0.0
 10
239.5129768410523
 20
103.7480678585587
 30
0.0
 10
239.5391380995529
 20
103.7472709786265
 30
0.0
 10
239.5764687238644
 20
103.7448486219485
 30
0.0
 10
239.6204555731875
 20
103.7404653968006
 30
0.0
 10
239.688152636018
 20
103.7300999608247
 30
0.0
 10
239.7937743042021
 20
103.7049132726823
 30
0.0
 10
240.0356393082544
 20
103.6129598344469
 30
0.0
 10
240.3116374431289
 20
103.3802592540667
 30
0.0
 10
240.4949946581464
 20
102.9873206655807
 30
0.0
 10
240.4875132783333
 20
102.7267095325814
 30
0.0
 10
240.4842979579571
 20
102.6147050217681
 30
0.0
  0
LWPOLYLINE
  5
216
330
1F
100
AcDbEntity
  8
0
  6
Continuous
 62
     7
370
    25
100
AcDbPolyline
 90
       14
 70
   128
 43
0.0
 10
237.1356818247
 20
90.7481168688
 10
236.1714880045
 20
90.74811687
 10
235.2213690017
 20
90.7481168736
 10
234.2991770682
 20
90.7481168796
 10
233.4183572935
 20
90.7481168877
 10
232.5917515823
 20
90.7481168981
 10
231.8314114254
 20
90.7481169103
 10
231.1484221958
 20
90.7481169244
 10
230.5527415292
 20
90.7481169401
 10
230.0530541468
 20
90.7481169572
 10
229.6566452368
 20
90.7481169754
 10
229.3692942393
 20
90.7481169944
 10
229.1951905859
 20
90.748117014
 10
229.1368726194
 20
90.7481170339
  0
LINE
  5
217
330
1F
100
AcDbEntity
  8
0
  6
Continuous
 62
     7
370
    25
100
AcDbLine
 10
234.1080264981
 20
100.2481170339
 30
0.0
 11
231.2117595286
 21
100.2481170339
 31
0.0
  0
LINE
  5
218
330
1F
100
AcDbEntity
  8
0
  6
Continuous
 62
     7
370
    25
100
AcDbLine
 10
243.0619857752
 20
100.2481170339
 30
0.0
 11
240.1657188057
 21
100.2481170339
 31
0.0
  0
LWPOLYLINE
  5
219
330
1F
100
AcDbEntity
  8
0
  6
Continuous
 62
     7
370
    25
100
AcDbPolyline
 90
       14
 70
   128
 43
0.0
 10
245.1368726844
 20
90.7481170339
 10
245.0785547179
 20
90.7481170538
 10
244.9044510645
 20
90.7481170734
 10
244.617100067
 20
90.7481170924
 10
244.220691157
 20
90.7481171106
 10
243.7210037746
 20
90.7481171277
 10
243.125323108
 20
90.7481171433
 10
242.4423338784
 20
90.7481171574
 10
241.6819937215
 20
90.7481171697
 10
240.8553880103
 20
90.7481171801
 10
239.9745682356
 20
90.7481171882
 10
239.0523763021
 20
90.7481171942
 10
238.1022572993
 20
90.7481171978
 10
237.1380634791
 20
90.7481168688
  0
LINE
  5
21A
330
1F
100
AcDbEntity
  8
0
  6
Continuous
 62
     7
370
    25
100
AcDbLine
 10
244.1713130102
 20
83.7481170339
 30
0.0
 11
230.1024322536
 21
83.7481170339
 31
0.0
  0
LINE
  5
21B
330
1F
100
AcDbEntity
  8
0
  6
Continuous
 62
     7
370
    25
100
AcDbLine
 10
232.0417646691
 20
102.2481170339
 30
0.0
 11
233.8387957288
 21
102.2481170339
 31
0.0
  0
LINE
  5
21C
330
1F
100
AcDbEntity
  8
0
  6
Continuous
 62
     7
370
    25
100
AcDbLine
 10
240.434949575
 20
102.2481170339
 30
0.0
 11
242.2319806353
 21
102.2481170339
 31
0.0
  0
SPLINE
  5
21D
330
1F
100
AcDbEntity
  8
0
  6
Continuous
 62
     7
370
    25
100
AcDbSpline
210
0.0
220
0.0
230
1.0
 70
     8
 71
     3
 72
    18
 73
    14
 74
     0
 42
0.00000001
 43
0.00000001
 40
0.0
 40
0.0
 40
0.0
 40
0.0
 40
0.0467311931385247
 40
0.1371363376315373
 40
0.2582958596510224
 40
0.3796685353553864
 40
0.3951293830356468
 40
0.5250181443671319
 40
0.6549052509565305
 40
0.7556396747826986
 40
0.8561714552386065
 40
0.9352961414806736
 40
1.0
 40
1.0
 40
1.0
 40
1.0
 10
237.7513304388858
 20
82.708314241411
 30
0.0
 10
237.8939786688364
 20
82.69764413319147
 30
0.0
 10
238.3125910455216
 20
82.66633186690669
 30
0.0
 10
239.0662817709576
 20
82.4937888827422
 30
0.0
 10
239.9638076620608
 20
82.17900832833628
 30
0.0
 10
240.5735912556594
 20
81.86391070194597
 30
0.0
 10
241.149329095018
 20
81.51758578016029
 30
0.0
 10
241.6866971855744
 20
81.13703452583286
 30
0.0
 10
242.2526350310664
 20
80.63938699671394
 30
0.0
 10
242.6541618535693
 20
80.2262162398882
 30
0.0
 10
242.8936701957082
 20
79.95263594012023
 30
0.0
 10
243.0196235520349
 20
79.79996984177133
 30
0.0
 10
243.0268646569369
 20
79.79061946468639
 30
0.0
 10
243.0301221982537
 20
79.78641302932954
 30
0.0
  0
SPLINE
  5
21E
330
1F
100
AcDbEntity
  8
0
  6
Continuous
 62
     7
370
    25
100
AcDbSpline
210
0.0
220
0.0
230
1.0
 70
     8
 71
     3
 72
    19
 73
    15
 74
     0
 42
0.00000001
 43
0.00000001
 40
0.0
 40
0.0
 40
0.0
 40
0.0
 40
0.06546783790229
 40
0.1050912223195682
 40
0.1945591331185492
 40
0.284193456356619
 40
0.4052995868303989
 40
0.5264920278834155
 40
0.6280209788839801
 40
0.7294825898899144
 40
0.8189771108742904
 40
0.9083975864021118
 40
0.9868601313581894
 40
1.0
 40
1.0
 40
1.0
 40
1.0
 10
231.2715611596719
 20
79.82064582953673
 30
0.0
 10
231.2620075013834
 20
79.8090004569193
 30
0.0
 10
231.2466716409162
 20
79.79030690475776
 30
0.0
 10
231.3349239812484
 20
79.89785165859165
 30
0.0
 10
231.481165174774
 20
80.07050698281303
 30
0.0
 10
231.7907691004607
 20
80.40880047844175
 30
0.0
 10
232.2475812905931
 20
80.8488617557926
 30
0.0
 10
232.8460312315188
 20
81.33103002431106
 30
0.0
 10
233.5158881453351
 20
81.76692408612897
 30
0.0
 10
234.2060489356876
 20
82.12328315385001
 30
0.0
 10
234.9421339413523
 20
82.41012336950314
 30
0.0
 10
235.6749412416696
 20
82.60210669042586
 30
0.0
 10
236.2155025412217
 20
82.70180708766036
 30
0.0
 10
236.496471940735
 20
82.71474890939936
 30
0.0
 10
236.5367754748556
 20
82.71660534342723
 30
0.0
  0
LINE
  5
21F
330
1F
100
AcDbEntity
  8
0
  6
Continuous
 62
     7
370
    25
100
AcDbLine
 10
229.6037029037
 20
84.2124935089
 30
0.0
 11
244.6700424001
 21
84.2124935089
 31
0.0
  0
LINE
  5
220
330
1F
100
AcDbEntity
  8
0
  6
Continuous
 62
     7
370
    25
100
AcDbLine
 10
242.7210544357
 20
101.8520728793
 30
0.0
 11
240.3816359388
 21
101.8520728793
 31
0.0
  0
LINE
  5
221
330
1F
100
AcDbEntity
  8
0
  6
Continuous
 62
     7
370
    25
100
AcDbLine
 10
233.892109365
 20
101.8520728793
 30
0.0
 11
231.5526908681
 21
101.8520728793
 31
0.0
  0
INSERT
  5
22D
330
1F
100
AcDbEntity
  8
0
  6
Continuous
 62
     7
370
    18
100
AcDbBlockReference
  2
SW_CENTERMARKSYMBOL_0
 10
237.1368726519
 20
73.2481170339
 30
0.0
  0
LINE
  5
22E
330
1F
100
AcDbEntity
  8
0
  6
Continuous
 62
     7
370
    18
100
AcDbLine
 10
229.2868726519
 20
61.7481170339
 30
0.0
 11
229.6346912883
 21
50.6179206703
 31
0.0
  0
LINE
  5
22F
330
1F
100
AcDbEntity
  8
0
  6
Continuous
 62
     7
370
    18
100
AcDbLine
 10
244.6390540155
 20
50.6179206703
 30
0.0
 11
244.9868726519
 21
61.7481170339
 31
0.0
  0
LINE
  5
230
330
1F
100
AcDbEntity
  8
0
  6
Continuous
 62
     7
370
    25
100
AcDbLine
 10
241.7561304101
 20
61.7481170339
 30
0.0
 11
241.0176148937
 21
61.7481170339
 31
0.0
  0
LINE
  5
231
330
1F
100
AcDbEntity
  8
0
  6
Continuous
 62
     7
370
    25
100
AcDbLine
 10
233.2561304101
 20
61.7481170339
 30
0.0
 11
232.5176148937
 21
61.7481170339
 31
0.0
  0
LINE
  5
232
330
1F
100
AcDbEntity
  8
0
  6
Continuous
 62
     7
370
    25
100
AcDbLine
 10
183.5798258683
 20
130.5115498809
 30
0.0
 11
183.7798258683
 21
130.7115498809
 31
0.0
  0
LINE
  5
233
330
1F
100
AcDbEntity
  8
0
  6
Continuous
 62
     7
370
    25
100
AcDbLine
 10
183.7798258683
 20
146.3115498809
 30
0.0
 11
183.5798258683
 21
146.5115498809
 31
0.0
  0
LINE
  5
234
330
1F
100
AcDbEntity
  8
0
  6
Continuous
 62
     7
370
    25
100
AcDbLine
 10
180.7798258683
 20
130.5115498809
 30
0.0
 11
183.5798258683
 21
130.5115498809
 31
0.0
  0
LINE
  5
235
330
1F
100
AcDbEntity
  8
0
  6
Continuous
 62
     7
370
    25
100
AcDbLine
 10
183.5798258683
 20
146.5115498809
 30
0.0
 11
180.7798258683
 21
146.5115498809
 31
0.0
  0
LINE
  5
236
330
1F
100
AcDbEntity
  8
0
  6
Continuous
 62
     7
370
    25
100
AcDbLine
 10
183.7798258683
 20
133.2615498809
 30
0.0
 11
188.2798258683
 21
133.2615498809
 31
0.0
  0
LINE
  5
237
330
1F
100
AcDbEntity
  8
0
  6
Continuous
 62
     7
370
    25
100
AcDbLine
 10
188.2798258683
 20
143.7615498809
 30
0.0
 11
183.7798258683
 21
143.7615498809
 31
0.0
  0
LINE
  5
238
330
1F
100
AcDbEntity
  8
0
  6
Continuous
 62
     7
370
    25
100
AcDbLine
 10
197.2798258683
 20
133.2615498809
 30
0.0
 11
201.7798258683
 21
134.0115498809
 31
0.0
  0
LINE
  5
239
330
1F
100
AcDbEntity
  8
0
  6
Continuous
 62
     7
370
    25
100
AcDbLine
 10
201.7798258683
 20
143.0115498809
 30
0.0
 11
197.2798258683
 21
143.7615498809
 31
0.0
  0
LINE
  5
23A
330
1F
100
AcDbEntity
  8
0
  6
Continuous
 62
     7
370
    25
100
AcDbLine
 10
188.2798258683
 20
133.2615498809
 30
0.0
 11
192.7798258683
 21
134.0115498809
 31
0.0
  0
LINE
  5
23B
330
1F
100
AcDbEntity
  8
0
  6
Continuous
 62
     7
370
    25
100
AcDbLine
 10
192.7798258683
 20
143.0115498809
 30
0.0
 11
188.2798258683
 21
143.7615498809
 31
0.0
  0
LINE
  5
23C
330
1F
100
AcDbEntity
  8
0
  6
Continuous
 62
     7
370
    25
100
AcDbLine
 10
201.7798258683
 20
133.2615498809
 30
0.0
 11
206.2798258683
 21
134.0115498809
 31
0.0
  0
LINE
  5
23D
330
1F
100
AcDbEntity
  8
0
  6
Continuous
 62
     7
370
    25
100
AcDbLine
 10
206.2798258683
 20
143.0115498809
 30
0.0
 11
201.7798258683
 21
143.7615498809
 31
0.0
  0
LINE
  5
23E
330
1F
100
AcDbEntity
  8
0
  6
Continuous
 62
     7
370
    25
100
AcDbLine
 10
206.2798258683
 20
133.2615498809
 30
0.0
 11
210.2998258683
 21
133.9315498809
 31
0.0
  0
LINE
  5
23F
330
1F
100
AcDbEntity
  8
0
  6
Continuous
 62
     7
370
    25
100
AcDbLine
 10
210.2998258683
 20
143.0915498809
 30
0.0
 11
206.2798258683
 21
143.7615498809
 31
0.0
  0
LINE
  5
240
330
1F
100
AcDbEntity
  8
0
  6
Continuous
 62
     7
370
    25
100
AcDbLine
 10
192.7798258683
 20
133.2615498809
 30
0.0
 11
197.2798258683
 21
134.0115498809
 31
0.0
  0
LINE
  5
241
330
1F
100
AcDbEntity
  8
0
  6
Continuous
 62
     7
370
    25
100
AcDbLine
 10
197.2798258683
 20
143.0115498809
 30
0.0
 11
192.7798258683
 21
143.7615498809
 31
0.0
  0
LINE
  5
242
330
1F
100
AcDbEntity
  8
0
  6
Continuous
 62
     7
370
    25
100
AcDbLine
 10
210.2998258683
 20
133.9315498809
 30
0.0
 11
210.7798258683
 21
134.4115498809
 31
0.0
  0
LINE
  5
243
330
1F
100
AcDbEntity
  8
0
  6
Continuous
 62
     7
370
    25
100
AcDbLine
 10
210.7798258683
 20
142.6115498809
 30
0.0
 11
210.2998258683
 21
143.0915498809
 31
0.0
  0
LINE
  5
244
330
1F
100
AcDbEntity
  8
0
  6
Continuous
 62
     7
370
    25
100
AcDbLine
 10
154.9798258683
 20
146.5115498809
 30
0.0
 11
154.7798258683
 21
146.3115498809
 31
0.0
  0
LINE
  5
245
330
1F
100
AcDbEntity
  8
0
  6
Continuous
 62
     7
370
    25
100
AcDbLine
 10
154.7798258683
 20
130.7115498809
 30
0.0
 11
154.9798258683
 21
130.5115498809
 31
0.0
  0
LINE
  5
246
330
1F
100
AcDbEntity
  8
0
  6
Continuous
 62
     7
370
    25
100
AcDbLine
 10
157.7798258683
 20
146.5115498809
 30
0.0
 11
154.9798258683
 21
146.5115498809
 31
0.0
  0
LINE
  5
247
330
1F
100
AcDbEntity
  8
0
  6
Continuous
 62
     7
370
    25
100
AcDbLine
 10
154.9798258683
 20
130.5115498809
 30
0.0
 11
157.7798258683
 21
130.5115498809
 31
0.0
  0
LINE
  5
248
330
1F
100
AcDbEntity
  8
0
  6
Continuous
 62
     7
370
    25
100
AcDbLine
 10
141.2798258683
 20
143.7615498809
 30
0.0
 11
136.7798258683
 21
143.0115498809
 31
0.0
  0
LINE
  5
249
330
1F
100
AcDbEntity
  8
0
  6
Continuous
 62
     7
370
    25
100
AcDbLine
 10
136.7798258683
 20
134.0115498809
 30
0.0
 11
141.2798258683
 21
133.2615498809
 31
0.0
  0
LINE
  5
24A
330
1F
100
AcDbEntity
  8
0
  6
Continuous
 62
     7
370
    25
100
AcDbLine
 10
132.2798258683
 20
143.7615498809
 30
0.0
 11
128.2598258683
 21
143.0915498809
 31
0.0
  0
LINE
  5
24B
330
1F
100
AcDbEntity
  8
0
  6
Continuous
 62
     7
370
    25
100
AcDbLine
 10
128.2598258683
 20
133.9315498809
 30
0.0
 11
132.2798258683
 21
133.2615498809
 31
0.0
  0
LINE
  5
24C
330
1F
100
AcDbEntity
  8
0
  6
Continuous
 62
     7
370
    25
100
AcDbLine
 10
154.7798258683
 20
143.7615498809
 30
0.0
 11
150.2798258683
 21
143.7615498809
 31
0.0
  0
LINE
  5
24D
330
1F
100
AcDbEntity
  8
0
  6
Continuous
 62
     7
370
    25
100
AcDbLine
 10
150.2798258683
 20
133.2615498809
 30
0.0
 11
154.7798258683
 21
133.2615498809
 31
0.0
  0
LINE
  5
24E
330
1F
100
AcDbEntity
  8
0
  6
Continuous
 62
     7
370
    25
100
AcDbLine
 10
150.2798258683
 20
143.7615498809
 30
0.0
 11
145.7798258683
 21
143.0115498809
 31
0.0
  0
LINE
  5
24F
330
1F
100
AcDbEntity
  8
0
  6
Continuous
 62
     7
370
    25
100
AcDbLine
 10
145.7798258683
 20
134.0115498809
 30
0.0
 11
150.2798258683
 21
133.2615498809
 31
0.0
  0
LINE
  5
250
330
1F
100
AcDbEntity
  8
0
  6
Continuous
 62
     7
370
    25
100
AcDbLine
 10
136.7798258683
 20
143.7615498809
 30
0.0
 11
132.2798258683
 21
143.0115498809
 31
0.0
  0
LINE
  5
251
330
1F
100
AcDbEntity
  8
0
  6
Continuous
 62
     7
370
    25
100
AcDbLine
 10
132.2798258683
 20
134.0115498809
 30
0.0
 11
136.7798258683
 21
133.2615498809
 31
0.0
  0
LINE
  5
252
330
1F
100
AcDbEntity
  8
0
  6
Continuous
 62
     7
370
    25
100
AcDbLine
 10
145.7798258683
 20
143.7615498809
 30
0.0
 11
141.2798258683
 21
143.0115498809
 31
0.0
  0
LINE
  5
253
330
1F
100
AcDbEntity
  8
0
  6
Continuous
 62
     7
370
    25
100
AcDbLine
 10
141.2798258683
 20
134.0115498809
 30
0.0
 11
145.7798258683
 21
133.2615498809
 31
0.0
  0
LINE
  5
254
330
1F
100
AcDbEntity
  8
0
  6
Continuous
 62
     7
370
    25
100
AcDbLine
 10
128.2598258683
 20
143.0915498809
 30
0.0
 11
127.7798258683
 21
142.6115498809
 31
0.0
  0
LINE
  5
255
330
1F
100
AcDbEntity
  8
0
  6
Continuous
 62
     7
370
    25
100
AcDbLine
 10
127.7798258683
 20
134.4115498809
 30
0.0
 11
128.2598258683
 21
133.9315498809
 31
0.0
  0
LINE
  5
256
330
1F
100
AcDbEntity
  8
0
  6
Continuous
 62
     7
370
    25
100
AcDbLine
 10
186.3561134123
 20
141.8586995022
 30
0.0
 11
186.1673418756
 21
141.8614161854
 31
0.0
  0
LINE
  5
257
330
1F
100
AcDbEntity
  8
0
  6
Continuous
 62
     7
370
    25
100
AcDbLine
 10
181.3914383455
 20
141.8628943013
 30
0.0
 11
181.2038567833
 21
141.8537004274
 31
0.0
  0
LINE
  5
258
330
1F
100
AcDbEntity
  8
0
  6
Continuous
 62
     7
370
    25
100
AcDbLine
 10
157.3559152732
 20
141.8587023537
 30
0.0
 11
157.1673418756
 21
141.8614161854
 31
0.0
  0
LINE
  5
259
330
1F
100
AcDbEntity
  8
0
  6
Continuous
 62
     7
370
    25
100
AcDbLine
 10
148.2798258683
 20
140.6320398954
 30
0.0
 11
148.2798258683
 21
136.3910598663
 31
0.0
  0
LINE
  5
25A
330
1F
100
AcDbEntity
  8
0
  6
Continuous
 62
     7
370
    25
100
AcDbLine
 10
190.2798258683
 20
136.3910598663
 30
0.0
 11
190.2798258683
 21
140.6320398954
 31
0.0
  0
LINE
  5
25B
330
1F
100
AcDbEntity
  8
0
  6
Continuous
 62
     7
370
    25
100
AcDbLine
 10
152.3914383455
 20
141.8628943013
 30
0.0
 11
152.2038567833
 21
141.8537004274
 31
0.0
  0
LINE
  5
25C
330
1F
100
AcDbEntity
  8
0
  6
Continuous
 62
     7
370
    25
100
AcDbLine
 10
157.1694556999
 20
141.8679145253
 30
0.0
 11
152.3901960368
 21
141.8679145253
 31
0.0
  0
LINE
  5
25D
330
1F
100
AcDbEntity
  8
0
  6
Continuous
 62
     7
370
    25
100
AcDbLine
 10
186.1694556999
 20
141.8679145253
 30
0.0
 11
181.3901960368
 21
141.8679145253
 31
0.0
  0
LINE
  5
25E
330
1F
100
AcDbEntity
  8
0
  6
Continuous
 62
     7
370
    25
100
AcDbLine
 10
186.1682133912
 20
135.1602054604
 30
0.0
 11
186.3557949534
 21
135.1693993344
 31
0.0
  0
LINE
  5
25F
330
1F
100
AcDbEntity
  8
0
  6
Continuous
 62
     7
370
    25
100
AcDbLine
 10
152.2037364635
 20
135.164397408
 30
0.0
 11
152.3923098611
 21
135.1616835763
 31
0.0
  0
LINE
  5
260
330
1F
100
AcDbEntity
  8
0
  6
Continuous
 62
     7
370
    25
100
AcDbLine
 10
181.2037364635
 20
135.164397408
 30
0.0
 11
181.3923098611
 21
135.1616835763
 31
0.0
  0
LINE
  5
261
330
1F
100
AcDbEntity
  8
0
  6
Continuous
 62
     7
370
    25
100
AcDbLine
 10
157.1682133912
 20
135.1602054604
 30
0.0
 11
157.3556994837
 21
135.1693946551
 31
0.0
  0
LINE
  5
262
330
1F
100
AcDbEntity
  8
0
  6
Continuous
 62
     7
370
    25
100
AcDbLine
 10
181.3901960368
 20
135.1551852364
 30
0.0
 11
186.1694556999
 21
135.1551852364
 31
0.0
  0
LINE
  5
263
330
1F
100
AcDbEntity
  8
0
  6
Continuous
 62
     7
370
    25
100
AcDbLine
 10
152.3901960368
 20
135.1551852364
 30
0.0
 11
157.1694556999
 21
135.1551852364
 31
0.0
  0
SPLINE
  5
264
330
1F
100
AcDbEntity
  8
0
  6
Continuous
 62
     7
370
    25
100
AcDbSpline
210
0.0
220
0.0
230
1.0
 70
     8
 71
     3
 72
    12
 73
     8
 74
     0
 42
0.00000001
 43
0.00000001
 40
0.0
 40
0.0
 40
0.0
 40
0.0
 40
0.1180291684572702
 40
0.3436919532382327
 40
0.5704412740359905
 40
0.7989344161514891
 40
1.0
 40
1.0
 40
1.0
 40
1.0
 10
181.2029052005215
 20
141.8624534786567
 30
0.0
 10
181.0780703503518
 20
141.8541509662849
 30
0.0
 10
180.7145607700689
 20
141.829974682311
 30
0.0
 10
180.1476645118549
 20
141.7803395071299
 30
0.0
 10
179.5312255808979
 20
141.7099059556512
 30
0.0
 10
178.999879825143
 20
141.6320904986631
 30
0.0
 10
178.7091879491486
 20
141.5734489021497
 30
0.0
 10
178.5731224283385
 20
141.5460002528077
 30
0.0
  0
SPLINE
  5
265
330
1F
100
AcDbEntity
  8
0
  6
Continuous
 62
     7
370
    25
100
AcDbSpline
210
0.0
220
0.0
230
1.0
 70
     8
 71
     3
 72
    12
 73
     8
 74
     0
 42
0.00000001
 43
0.00000001
 40
0.0
 40
0.0
 40
0.0
 40
0.0
 40
0.1197144154954392
 40
0.3550555888792765
 40
0.5858517308465819
 40
0.8137024211672929
 40
1.0
 40
1.0
 40
1.0
 40
1.0
 10
159.9865293083296
 20
141.5460002528077
 30
0.0
 10
159.906904725442
 20
141.5625212604086
 30
0.0
 10
159.6707497640752
 20
141.6115201721797
 30
0.0
 10
159.2192857467764
 20
141.6841775611421
 30
0.0
 10
158.61235235275
 20
141.7594998250148
 30
0.0
 10
157.9887498509493
 20
141.8192480516907
 30
0.0
 10
157.552835305445
 20
141.8490483290279
 30
0.0
 10
157.3567465361465
 20
141.8624534786567
 30
0.0
  0
SPLINE
  5
266
330
1F
100
AcDbEntity
  8
0
  6
Continuous
 62
     7
370
    25
100
AcDbSpline
210
0.0
220
0.0
230
1.0
 70
     8
 71
     3
 72
    19
 73
    15
 74
     0
 42
0.00000001
 43
0.00000001
 40
0.0
 40
0.0
 40
0.0
 40
0.0
 40
0.0031754417892277
 40
0.0621215670881276
 40
0.1178559130679398
 40
0.1784265971814824
 40
0.2554406561147262
 40
0.3676418607627034
 40
0.4821125985432082
 40
0.602794784053103
 40
0.7183472037168623
 40
0.8315955282931704
 40
0.9436357454895529
 40
1.0
 40
1.0
 40
1.0
 40
1.0
 10
190.2771448824853
 20
140.6136371779055
 30
0.0
 10
190.2780729680177
 20
140.6179799874132
 30
0.0
 10
190.2962292220097
 20
140.7029389159933
 30
0.0
 10
190.2385889797349
 20
140.8780680336191
 30
0.0
 10
190.1243815768873
 20
141.0597925490777
 30
0.0
 10
189.970437815198
 20
141.1937672903992
 30
0.0
 10
189.7677006281186
 20
141.3116115772468
 30
0.0
 10
189.4856178533661
 20
141.4208107104006
 30
0.0
 10
189.0888600783825
 20
141.5283723057414
 30
0.0
 10
188.6024122615226
 20
141.6247058798
 30
0.0
 10
188.0341755484641
 20
141.7095252276195
 30
0.0
 10
187.4070259644363
 20
141.7808359899954
 30
0.0
 10
186.8390040602396
 20
141.8304338877994
 30
0.0
 10
186.477680112116
 20
141.8544240681654
 30
0.0
 10
186.3567465361465
 20
141.8624534786567
 30
0.0
  0
SPLINE
  5
267
330
1F
100
AcDbEntity
  8
0
  6
Continuous
 62
     7
370
    25
100
AcDbSpline
210
0.0
220
0.0
230
1.0
 70
     8
 71
     3
 72
    18
 73
    14
 74
     0
 42
0.00000001
 43
0.00000001
 40
0.0
 40
0.0
 40
0.0
 40
0.0
 40
0.0586440918220648
 40
0.1707671309359811
 40
0.2834300274323592
 40
0.3969593607495238
 40
0.5118901407385238
 40
0.6293931872426924
 40
0.752613177772548
 40
0.835751910851644
 40
0.8981083022975715
 40
0.9559030791082831
 40
1.0
 40
1.0
 40
1.0
 40
1.0
 10
152.2029052005216
 20
141.8624534786567
 30
0.0
 10
152.0780632207898
 20
141.8541519642953
 30
0.0
 10
151.7145328797649
 20
141.8299785864517
 30
0.0
 10
151.14790317732
 20
141.7803060982602
 30
0.0
 10
150.5303417457
 20
141.7100296766721
 30
0.0
 10
149.9787306142659
 20
141.6280366223887
 30
0.0
 10
149.4979557533512
 20
141.5343530874108
 30
0.0
 10
149.0881229525475
 20
141.4260073525952
 30
0.0
 10
148.7895654056648
 20
141.3115987691312
 30
0.0
 10
148.572346539994
 20
141.1838486580756
 30
0.0
 10
148.4175570996227
 20
141.0365738505067
 30
0.0
 10
148.3017745923619
 20
140.8538876716021
 30
0.0
 10
148.2919716919385
 20
140.7075321643469
 30
0.0
 10
148.2877291703766
 20
140.6441920947335
 30
0.0
  0
SPLINE
  5
268
330
1F
100
AcDbEntity
  8
0
  6
Continuous
 62
     7
370
    25
100
AcDbSpline
210
0.0
220
0.0
230
1.0
 70
     8
 71
     3
 72
    18
 73
    14
 74
     0
 42
0.00000001
 43
0.00000001
 40
0.0
 40
0.0
 40
0.0
 40
0.0
 40
0.0586440918220648
 40
0.1707671309359814
 40
0.28343002743236
 40
0.3969593607495164
 40
0.511890140738517
 40
0.6293931872426798
 40
0.7526131777725287
 40
0.8357519108516352
 40
0.8981083022975636
 40
0.9559030791082774
 40
0.9999999999999999
 40
0.9999999999999999
 40
0.9999999999999999
 40
0.9999999999999999
 10
186.3567465361465
 20
135.1606462830454
 30
0.0
 10
186.4815885158783
 20
135.1689477974067
 30
0.0
 10
186.8451188569031
 20
135.1931211752504
 30
0.0
 10
187.411748559348
 20
135.2427936634419
 30
0.0
 10
188.029309990968
 20
135.3130700850299
 30
0.0
 10
188.580921122402
 20
135.3950631393134
 30
0.0
 10
189.0616959833167
 20
135.4887466742912
 30
0.0
 10
189.4715287841205
 20
135.5970924091068
 30
0.0
 10
189.7700863310032
 20
135.7115009925708
 30
0.0
 10
189.987305196674
 20
135.8392511036264
 30
0.0
 10
190.1420946370453
 20
135.9865259111953
 30
0.0
 10
190.2578771443061
 20
136.1692120901
 30
0.0
 10
190.2676800447296
 20
136.3155675973551
 30
0.0
 10
190.2719225662915
 20
136.3789076669686
 30
0.0
  0
SPLINE
  5
269
330
1F
100
AcDbEntity
  8
0
  6
Continuous
 62
     7
370
    25
100
AcDbSpline
210
0.0
220
0.0
230
1.0
 70
     8
 71
     3
 72
    19
 73
    15
 74
     0
 42
0.00000001
 43
0.00000001
 40
0.0
 40
0.0
 40
0.0
 40
0.0
 40
0.0031754417892353
 40
0.0621215670881346
 40
0.1178559130679479
 40
0.178426597181492
 40
0.2554406561147385
 40
0.3676418607627224
 40
0.4821125985432287
 40
0.6027947840531234
 40
0.7183472037168817
 40
0.8315955282931909
 40
0.9436357454895681
 40
1.0
 40
1.0
 40
1.0
 40
1.0
 10
148.2825068541827
 20
136.4094625837965
 30
0.0
 10
148.2815787686504
 20
136.4051197742888
 30
0.0
 10
148.2634225146583
 20
136.3201608457088
 30
0.0
 10
148.3210627569331
 20
136.1450317280829
 30
0.0
 10
148.4352701597807
 20
135.9633072126243
 30
0.0
 10
148.58921392147
 20
135.8293324713028
 30
0.0
 10
148.7919511085495
 20
135.7114881844552
 30
0.0
 10
149.0740338833019
 20
135.6022890513015
 30
0.0
 10
149.4707916582855
 20
135.4947274559606
 30
0.0
 10
149.9572394751455
 20
135.398393881902
 30
0.0
 10
150.5254761882041
 20
135.3135745340825
 30
0.0
 10
151.1526257722318
 20
135.2422637717066
 30
0.0
 10
151.7206476764285
 20
135.1926658739027
 30
0.0
 10
152.0819716245521
 20
135.1686756935366
 30
0.0
 10
152.2029052005215
 20
135.1606462830454
 30
0.0
  0
SPLINE
  5
26A
330
1F
100
AcDbEntity
  8
0
  6
Continuous
 62
     7
370
    25
100
AcDbSpline
210
0.0
220
0.0
230
1.0
 70
     8
 71
     3
 72
    12
 73
     8
 74
     0
 42
0.00000001
 43
0.00000001
 40
0.0
 40
0.0
 40
0.0
 40
0.0
 40
0.11802916845727
 40
0.3436919532382327
 40
0.5704412740359914
 40
0.7989344161514738
 40
1.0
 40
1.0
 40
1.0
 40
1.0
 10
157.3567465361465
 20
135.1606462830454
 30
0.0
 10
157.4815813863162
 20
135.1689487954171
 30
0.0
 10
157.8450909665991
 20
135.193125079391
 30
0.0
 10
158.4119872248132
 20
135.2427602545721
 30
0.0
 10
159.0284261557701
 20
135.3131938060509
 30
0.0
 10
159.5597719115251
 20
135.391009263039
 30
0.0
 10
159.8504637875194
 20
135.4496508595523
 30
0.0
 10
159.9865293083296
 20
135.4770995088943
 30
0.0
  0
SPLINE
  5
26B
330
1F
100
AcDbEntity
  8
0
  6
Continuous
 62
     7
370
    25
100
AcDbSpline
210
0.0
220
0.0
230
1.0
 70
     8
 71
     3
 72
    12
 73
     8
 74
     0
 42
0.00000001
 43
0.00000001
 40
0.0
 40
0.0
 40
0.0
 40
0.0
 40
0.119714415495439
 40
0.3550555888792771
 40
0.5858517308465835
 40
0.8137024211672783
 40
1.0
 40
1.0
 40
1.0
 40
1.0
 10
178.5731224283385
 20
135.4770995088943
 30
0.0
 10
178.6527470112259
 20
135.4605785012934
 30
0.0
 10
178.8889019725928
 20
135.4115795895223
 30
0.0
 10
179.3403659898916
 20
135.3389222005599
 30
0.0
 10
179.947299383918
 20
135.2635999366872
 30
0.0
 10
180.5709018857187
 20
135.2038517100114
 30
0.0
 10
181.006816431223
 20
135.1740514326741
 30
0.0
 10
181.2029052005215
 20
135.1606462830454
 30
0.0
  0
LINE
  5
26C
330
1F
100
AcDbEntity
  8
0
  6
Continuous
 62
     7
370
    25
100
AcDbLine
 10
178.5731224283
 20
141.5460002528
 30
0.0
 11
178.5392633494
 21
141.53945522
 31
0.0
  0
LINE
  5
26D
330
1F
100
AcDbEntity
  8
0
  6
Continuous
 62
     7
370
    25
100
AcDbLine
 10
160.0060678334
 20
141.5422086112
 30
0.0
 11
159.9865293083
 21
141.5460002528
 31
0.0
  0
LINE
  5
26E
330
1F
100
AcDbEntity
  8
0
  6
Continuous
 62
     7
370
    25
100
AcDbLine
 10
178.5535839033
 20
135.4808911505
 30
0.0
 11
178.5731224283
 21
135.4770995089
 31
0.0
  0
LINE
  5
26F
330
1F
100
AcDbEntity
  8
0
  6
Continuous
 62
     7
370
    25
100
AcDbLine
 10
159.9865293083
 20
135.4770995089
 30
0.0
 11
160.0203883873
 21
135.4836445417
 31
0.0
  0
LINE
  5
270
330
1F
100
AcDbEntity
  8
0
  6
Continuous
 62
     7
370
    25
100
AcDbLine
 10
183.5798258683
 20
141.8679145253
 30
0.0
 11
183.5798258683
 21
146.5115498809
 31
0.0
  0
LINE
  5
271
330
1F
100
AcDbEntity
  8
0
  6
Continuous
 62
     7
370
    25
100
AcDbLine
 10
183.5798258683
 20
130.5115498809
 30
0.0
 11
183.5798258683
 21
135.1551852364
 31
0.0
  0
LINE
  5
272
330
1F
100
AcDbEntity
  8
0
  6
Continuous
 62
     7
370
    25
100
AcDbLine
 10
183.7798258683
 20
135.1551852364
 30
0.0
 11
183.7798258683
 21
130.7115498809
 31
0.0
  0
LINE
  5
273
330
1F
100
AcDbEntity
  8
0
  6
Continuous
 62
     7
370
    25
100
AcDbLine
 10
183.7798258683
 20
146.3115498809
 30
0.0
 11
183.7798258683
 21
141.8679145253
 31
0.0
  0
LINE
  5
274
330
1F
100
AcDbEntity
  8
0
  6
Continuous
 62
     7
370
    25
100
AcDbLine
 10
188.2798258683
 20
141.693336629
 30
0.0
 11
188.2798258683
 21
143.7615498809
 31
0.0
  0
LINE
  5
275
330
1F
100
AcDbEntity
  8
0
  6
Continuous
 62
     7
370
    25
100
AcDbLine
 10
188.2798258683
 20
133.2615498809
 30
0.0
 11
188.2798258683
 21
135.3435211021
 31
0.0
  0
LINE
  5
276
330
1F
100
AcDbEntity
  8
0
  6
Continuous
 62
     7
370
    25
100
AcDbLine
 10
197.2798258683
 20
138.5115498809
 30
0.0
 11
197.2798258683
 21
143.7615498809
 31
0.0
  0
LINE
  5
277
330
1F
100
AcDbEntity
  8
0
  6
Continuous
 62
     7
370
    25
100
AcDbLine
 10
197.2798258683
 20
133.2615498809
 30
0.0
 11
197.2798258683
 21
138.5115498809
 31
0.0
  0
LINE
  5
278
330
1F
100
AcDbEntity
  8
0
  6
Continuous
 62
     7
370
    25
100
AcDbLine
 10
201.7798258683
 20
138.5115498809
 30
0.0
 11
201.7798258683
 21
143.7615498809
 31
0.0
  0
LINE
  5
279
330
1F
100
AcDbEntity
  8
0
  6
Continuous
 62
     7
370
    25
100
AcDbLine
 10
201.7798258683
 20
133.2615498809
 30
0.0
 11
201.7798258683
 21
138.5115498809
 31
0.0
  0
LINE
  5
27A
330
1F
100
AcDbEntity
  8
0
  6
Continuous
 62
     7
370
    25
100
AcDbLine
 10
210.2998258683
 20
133.9315498809
 30
0.0
 11
210.2998258683
 21
143.0915498809
 31
0.0
  0
LINE
  5
27B
330
1F
100
AcDbEntity
  8
0
  6
Continuous
 62
     7
370
    25
100
AcDbLine
 10
206.2798258683
 20
138.5115498809
 30
0.0
 11
206.2798258683
 21
143.7615498809
 31
0.0
  0
LINE
  5
27C
330
1F
100
AcDbEntity
  8
0
  6
Continuous
 62
     7
370
    25
100
AcDbLine
 10
206.2798258683
 20
133.2615498809
 30
0.0
 11
206.2798258683
 21
138.5115498809
 31
0.0
  0
LINE
  5
27D
330
1F
100
AcDbEntity
  8
0
  6
Continuous
 62
     7
370
    25
100
AcDbLine
 10
192.7798258683
 20
138.5115498809
 30
0.0
 11
192.7798258683
 21
143.7615498809
 31
0.0
  0
LINE
  5
27E
330
1F
100
AcDbEntity
  8
0
  6
Continuous
 62
     7
370
    25
100
AcDbLine
 10
192.7798258683
 20
133.2615498809
 30
0.0
 11
192.7798258683
 21
138.5115498809
 31
0.0
  0
LINE
  5
27F
330
1F
100
AcDbEntity
  8
0
  6
Continuous
 62
     7
370
    25
100
AcDbLine
 10
210.7798258683
 20
138.5115498809
 30
0.0
 11
210.7798258683
 21
134.4115498809
 31
0.0
  0
LINE
  5
280
330
1F
100
AcDbEntity
  8
0
  6
Continuous
 62
     7
370
    25
100
AcDbLine
 10
210.7798258683
 20
142.6115498809
 30
0.0
 11
210.7798258683
 21
138.5115498809
 31
0.0
  0
LINE
  5
281
330
1F
100
AcDbEntity
  8
0
  6
Continuous
 62
     7
370
    25
100
AcDbLine
 10
154.9798258683
 20
131.2354756255
 30
0.0
 11
154.9798258683
 21
130.5115498809
 31
0.0
  0
LINE
  5
282
330
1F
100
AcDbEntity
  8
0
  6
Continuous
 62
     7
370
    25
100
AcDbLine
 10
154.9798258683
 20
146.5115498809
 30
0.0
 11
154.9798258683
 21
141.8679145253
 31
0.0
  0
LINE
  5
283
330
1F
100
AcDbEntity
  8
0
  6
Continuous
 62
     7
370
    25
100
AcDbLine
 10
154.9798258683
 20
135.1551852364
 30
0.0
 11
154.9798258683
 21
131.2354756255
 31
0.0
  0
LINE
  5
284
330
1F
100
AcDbEntity
  8
0
  6
Continuous
 62
     7
370
    25
100
AcDbLine
 10
154.7798258683
 20
131.4173774819
 30
0.0
 11
154.7798258683
 21
135.1551852364
 31
0.0
  0
LINE
  5
285
330
1F
100
AcDbEntity
  8
0
  6
Continuous
 62
     7
370
    25
100
AcDbLine
 10
154.7798258683
 20
141.8679145253
 30
0.0
 11
154.7798258683
 21
146.3115498809
 31
0.0
  0
LINE
  5
286
330
1F
100
AcDbEntity
  8
0
  6
Continuous
 62
     7
370
    25
100
AcDbLine
 10
154.7798258683
 20
130.7115498809
 30
0.0
 11
154.7798258683
 21
131.4173774819
 31
0.0
  0
LINE
  5
287
330
1F
100
AcDbEntity
  8
0
  6
Continuous
 62
     7
370
    25
100
AcDbLine
 10
141.2798258683
 20
133.7366261508
 30
0.0
 11
141.2798258683
 21
133.2615498809
 31
0.0
  0
LINE
  5
288
330
1F
100
AcDbEntity
  8
0
  6
Continuous
 62
     7
370
    25
100
AcDbLine
 10
141.2798258683
 20
143.7615498809
 30
0.0
 11
141.2798258683
 21
133.7366261508
 31
0.0
  0
LINE
  5
289
330
1F
100
AcDbEntity
  8
0
  6
Continuous
 62
     7
370
    25
100
AcDbLine
 10
132.2798258683
 20
133.7366261508
 30
0.0
 11
132.2798258683
 21
133.2615498809
 31
0.0
  0
LINE
  5
28A
330
1F
100
AcDbEntity
  8
0
  6
Continuous
 62
     7
370
    25
100
AcDbLine
 10
132.2798258683
 20
143.7615498809
 30
0.0
 11
132.2798258683
 21
133.7366261508
 31
0.0
  0
LINE
  5
28B
330
1F
100
AcDbEntity
  8
0
  6
Continuous
 62
     7
370
    25
100
AcDbLine
 10
128.2598258683
 20
143.0915498809
 30
0.0
 11
128.2598258683
 21
133.9315498809
 31
0.0
  0
LINE
  5
28C
330
1F
100
AcDbEntity
  8
0
  6
Continuous
 62
     7
370
    25
100
AcDbLine
 10
150.2798258683
 20
133.7366261508
 30
0.0
 11
150.2798258683
 21
133.2615498809
 31
0.0
  0
LINE
  5
28D
330
1F
100
AcDbEntity
  8
0
  6
Continuous
 62
     7
370
    25
100
AcDbLine
 10
150.2798258683
 20
143.7615498809
 30
0.0
 11
150.2798258683
 21
141.6907324701
 31
0.0
  0
LINE
  5
28E
330
1F
100
AcDbEntity
  8
0
  6
Continuous
 62
     7
370
    25
100
AcDbLine
 10
150.2798258683
 20
135.3228588171
 30
0.0
 11
150.2798258683
 21
133.7366261508
 31
0.0
  0
LINE
  5
28F
330
1F
100
AcDbEntity
  8
0
  6
Continuous
 62
     7
370
    25
100
AcDbLine
 10
136.7798258683
 20
133.7366261508
 30
0.0
 11
136.7798258683
 21
133.2615498809
 31
0.0
  0
LINE
  5
290
330
1F
100
AcDbEntity
  8
0
  6
Continuous
 62
     7
370
    25
100
AcDbLine
 10
136.7798258683
 20
143.7615498809
 30
0.0
 11
136.7798258683
 21
133.7366261508
 31
0.0
  0
LINE
  5
291
330
1F
100
AcDbEntity
  8
0
  6
Continuous
 62
     7
370
    25
100
AcDbLine
 10
145.7798258683
 20
133.7366261508
 30
0.0
 11
145.7798258683
 21
133.2615498809
 31
0.0
  0
LINE
  5
292
330
1F
100
AcDbEntity
  8
0
  6
Continuous
 62
     7
370
    25
100
AcDbLine
 10
145.7798258683
 20
143.7615498809
 30
0.0
 11
145.7798258683
 21
133.7366261508
 31
0.0
  0
LINE
  5
293
330
1F
100
AcDbEntity
  8
0
  6
Continuous
 62
     7
370
    25
100
AcDbLine
 10
127.7798258683
 20
134.782561825
 30
0.0
 11
127.7798258683
 21
142.6115498809
 31
0.0
  0
LINE
  5
294
330
1F
100
AcDbEntity
  8
0
  6
Continuous
 62
     7
370
    25
100
AcDbLine
 10
127.7798258683
 20
134.4115498809
 30
0.0
 11
127.7798258683
 21
134.782561825
 31
0.0
  0
SPLINE
  5
295
330
1F
100
AcDbEntity
  8
0
  6
Continuous
 62
     7
370
    25
100
AcDbSpline
210
0.0
220
0.0
230
1.0
 70
     8
 71
     3
 72
     9
 73
     5
 74
     0
 42
0.00000001
 43
0.00000001
 40
0.0
 40
0.0
 40
0.0
 40
0.0
 40
0.5312899948944276
 40
1.0
 40
1.0
 40
1.0
 40
1.0
 10
180.779825868334
 20
142.761549880851
 30
0.0
 10
180.7804302394428
 20
142.5953711150389
 30
0.0
 10
180.7815677935368
 20
142.2825875742062
 30
0.0
 10
180.7365684604461
 20
141.9722935563224
 30
0.0
 10
180.7154768228034
 20
141.8268556456159
 30
0.0
  0
LINE
  5
296
330
1F
100
AcDbEntity
  8
0
  6
Continuous
 62
     7
370
    25
100
AcDbLine
 10
180.7798258683
 20
142.7615498809
 30
0.0
 11
180.7798258683
 21
141.8549791401
 31
0.0
  0
LINE
  5
297
330
1F
100
AcDbEntity
  8
0
  6
Continuous
 62
     7
370
    25
100
AcDbLine
 10
180.7798258683
 20
135.1904132886
 30
0.0
 11
180.7798258683
 21
134.2615498809
 31
0.0
  0
LINE
  5
298
330
1F
100
AcDbEntity
  8
0
  6
Continuous
 62
     7
370
    25
100
AcDbLine
 10
180.6951087827
 20
135.1973042266
 30
0.0
 11
180.7798258683
 21
134.2615498809
 31
0.0
  0
SPLINE
  5
299
330
1F
100
AcDbEntity
  8
0
  6
Continuous
 62
     7
370
    25
100
AcDbSpline
210
0.0
220
0.0
230
1.0
 70
     8
 71
     3
 72
     9
 73
     5
 74
     0
 42
0.00000001
 43
0.00000001
 40
0.0
 40
0.0
 40
0.0
 40
0.0
 40
0.5315260311764256
 40
1.0
 40
1.0
 40
1.0
 40
1.0
 10
157.779825868334
 20
142.761549880851
 30
0.0
 10
157.7792195686462
 20
142.5953710109738
 30
0.0
 10
157.778078891328
 20
142.2827261730354
 30
0.0
 10
157.8230546130553
 20
141.9725697525163
 30
0.0
 10
157.8441245679135
 20
141.8272695432396
 30
0.0
  0
LINE
  5
29A
330
1F
100
AcDbEntity
  8
0
  6
Continuous
 62
     7
370
    25
100
AcDbLine
 10
157.8646073527
 20
135.1980155523
 30
0.0
 11
157.7798258683
 21
134.2615498809
 31
0.0
  0
LINE
  5
29B
330
1F
100
AcDbEntity
  8
0
  6
Continuous
 62
     7
370
    25
100
AcDbLine
 10
157.7798258683
 20
142.7615498809
 30
0.0
 11
157.7798258683
 21
141.8544539437
 31
0.0
  0
LINE
  5
29C
330
1F
100
AcDbEntity
  8
0
  6
Continuous
 62
     7
370
    25
100
AcDbLine
 10
157.7798258683
 20
135.1899098283
 30
0.0
 11
157.7798258683
 21
134.2615498809
 31
0.0
  0
SPLINE
  5
29D
330
1F
100
AcDbEntity
  8
0
  6
Continuous
 62
     7
370
    25
100
AcDbSpline
210
0.0
220
0.0
230
1.0
 70
     8
 71
     3
 72
     9
 73
     5
 74
     0
 42
0.00000001
 43
0.00000001
 40
0.0
 40
0.0
 40
0.0
 40
0.0
 40
0.3987331067027604
 40
1.0
 40
1.0
 40
1.0
 40
1.0
 10
175.3496521752496
 20
143.6670602452651
 30
0.0
 10
175.3831977386564
 20
144.0847859551619
 30
0.0
 10
175.4673281076751
 20
145.1324183259754
 30
0.0
 10
175.773472678559
 20
146.1498199607029
 30
0.0
 10
175.9575472735942
 20
146.761549880851
 30
0.0
  0
LINE
  5
29E
330
1F
100
AcDbEntity
  8
0
  6
Continuous
 62
     7
370
    25
100
AcDbLine
 10
180.1021044631
 20
146.7615498809
 30
0.0
 11
175.9575472736
 21
146.7615498809
 31
0.0
  0
SPLINE
  5
29F
330
1F
100
AcDbEntity
  8
0
  6
Continuous
 62
     7
370
    25
100
AcDbSpline
210
0.0
220
0.0
230
1.0
 70
     8
 71
     3
 72
    10
 73
     6
 74
     0
 42
0.00000001
 43
0.00000001
 40
0.0
 40
0.0
 40
0.0
 40
0.0
 40
0.5
 40
0.5
 40
1.0
 40
1.0
 40
1.0
 40
1.0
 10
180.1021044630743
 20
146.7615498808511
 30
0.0
 10
180.3109143877406
 20
146.105537114246
 30
0.0
 10
180.4814485274878
 20
145.4452702073883
 30
0.0
 10
180.7162343325067
 20
144.1129236887533
 30
0.0
 10
180.779825868334
 20
143.4407707072659
 30
0.0
 10
180.779825868334
 20
142.761549880851
 30
0.0
  0
SPLINE
  5
2A0
330
1F
100
AcDbEntity
  8
0
  6
Continuous
 62
     7
370
    25
100
AcDbSpline
210
0.0
220
0.0
230
1.0
 70
     8
 71
     3
 72
     9
 73
     5
 74
     0
 42
0.00000001
 43
0.00000001
 40
0.0
 40
0.0
 40
0.0
 40
0.0
 40
0.6435954154769037
 40
1.0
 40
1.0
 40
1.0
 40
1.0
 10
162.6021044630738
 20
146.761549880851
 30
0.0
 10
162.8000084706037
 20
146.1114435474867
 30
0.0
 10
163.1075060114046
 20
145.1013270710002
 30
0.0
 10
163.1726276323995
 20
144.0602884739073
 30
0.0
 10
163.1958372766736
 20
143.6892575452379
 30
0.0
  0
SPLINE
  5
2A1
330
1F
100
AcDbEntity
  8
0
  6
Continuous
 62
     7
370
    25
100
AcDbSpline
210
0.0
220
0.0
230
1.0
 70
     8
 71
     3
 72
    10
 73
     6
 74
     0
 42
0.00000001
 43
0.00000001
 40
0.0
 40
0.0
 40
0.0
 40
0.0
 40
0.5
 40
0.5
 40
1.0
 40
1.0
 40
1.0
 40
1.0
 10
158.4575472735937
 20
146.7615498808511
 30
0.0
 10
158.2487373489275
 20
146.105537114246
 30
0.0
 10
158.0782032091802
 20
145.4452702073883
 30
0.0
 10
157.8434174041613
 20
144.1129236887533
 30
0.0
 10
157.779825868334
 20
143.4407707072659
 30
0.0
 10
157.779825868334
 20
142.761549880851
 30
0.0
  0
LINE
  5
2A2
330
1F
100
AcDbEntity
  8
0
  6
Continuous
 62
     7
370
    25
100
AcDbLine
 10
162.6021044631
 20
146.7615498809
 30
0.0
 11
158.4575472736
 21
146.7615498809
 31
0.0
  0
SPLINE
  5
2A3
330
1F
100
AcDbEntity
  8
0
  6
Continuous
 62
     7
370
    25
100
AcDbSpline
210
0.0
220
0.0
230
1.0
 70
     8
 71
     3
 72
     9
 73
     5
 74
     0
 42
0.00000001
 43
0.00000001
 40
0.0
 40
0.0
 40
0.0
 40
0.0
 40
0.3987331067027468
 40
1.0
 40
1.0
 40
1.0
 40
1.0
 10
163.2099995614185
 20
133.3560395164369
 30
0.0
 10
163.1764539980116
 20
132.9383138065401
 30
0.0
 10
163.0923236289929
 20
131.8906814357266
 30
0.0
 10
162.786179058109
 20
130.8732798009992
 30
0.0
 10
162.6021044630738
 20
130.261549880851
 30
0.0
  0
LINE
  5
2A4
330
1F
100
AcDbEntity
  8
0
  6
Continuous
 62
     7
370
    25
100
AcDbLine
 10
158.4575472736
 20
130.2615498809
 30
0.0
 11
162.6021044631
 21
130.2615498809
 31
0.0
  0
SPLINE
  5
2A5
330
1F
100
AcDbEntity
  8
0
  6
Continuous
 62
     7
370
    25
100
AcDbSpline
210
0.0
220
0.0
230
1.0
 70
     8
 71
     3
 72
    12
 73
     8
 74
     0
 42
0.00000001
 43
0.00000001
 40
0.0
 40
0.0
 40
0.0
 40
0.0
 40
0.2499999999999998
 40
0.2499999999999998
 40
0.4999999999999996
 40
0.4999999999999996
 40
1.0
 40
1.0
 40
1.0
 40
1.0
 10
157.779825868334
 20
134.261549880851
 30
0.0
 10
157.779825868334
 20
133.9237939458282
 30
0.0
 10
157.795572198356
 20
133.5833859309497
 30
0.0
 10
157.8570172229414
 20
132.9088912465493
 30
0.0
 10
157.9026059821951
 20
132.5737659276821
 30
0.0
 10
158.0790569844517
 20
131.5740546093419
 30
0.0
 10
158.2495146864152
 20
130.9151205062767
 30
0.0
 10
158.4575472735941
 20
130.261549880851
 30
0.0
  0
SPLINE
  5
2A6
330
1F
100
AcDbEntity
  8
0
  6
Continuous
 62
     7
370
    25
100
AcDbSpline
210
0.0
220
0.0
230
1.0
 70
     8
 71
     3
 72
    12
 73
     8
 74
     0
 42
0.00000001
 43
0.00000001
 40
0.0
 40
0.0
 40
0.0
 40
0.0
 40
0.2500000000000001
 40
0.2500000000000001
 40
0.5000000000000002
 40
0.5000000000000002
 40
1.0
 40
1.0
 40
1.0
 40
1.0
 10
180.779825868334
 20
134.261549880851
 30
0.0
 10
180.779825868334
 20
133.9237939458282
 30
0.0
 10
180.764079538312
 20
133.5833859309497
 30
0.0
 10
180.7026345137266
 20
132.9088912465493
 30
0.0
 10
180.6570457544729
 20
132.5737659276821
 30
0.0
 10
180.4805947522163
 20
131.5740546093419
 30
0.0
 10
180.3101370502528
 20
130.9151205062767
 30
0.0
 10
180.1021044630739
 20
130.261549880851
 30
0.0
  0
LINE
  5
2A7
330
1F
100
AcDbEntity
  8
0
  6
Continuous
 62
     7
370
    25
100
AcDbLine
 10
175.9575472736
 20
130.2615498809
 30
0.0
 11
180.1021044631
 21
130.2615498809
 31
0.0
  0
SPLINE
  5
2A8
330
1F
100
AcDbEntity
  8
0
  6
Continuous
 62
     7
370
    25
100
AcDbSpline
210
0.0
220
0.0
230
1.0
 70
     8
 71
     3
 72
     9
 73
     5
 74
     0
 42
0.00000001
 43
0.00000001
 40
0.0
 40
0.0
 40
0.0
 40
0.0
 40
0.6435954154769172
 40
0.9999999999999999
 40
0.9999999999999999
 40
0.9999999999999999
 40
0.9999999999999999
 10
175.9575472735942
 20
130.261549880851
 30
0.0
 10
175.7596432660643
 20
130.9116562142154
 30
0.0
 10
175.4521457252634
 20
131.9217726907018
 30
0.0
 10
175.3870241042685
 20
132.9628112877947
 30
0.0
 10
175.3638144599944
 20
133.3338422164641
 30
0.0
  0
LINE
  5
2A9
330
1F
100
AcDbEntity
  8
0
  6
Continuous
 62
     7
370
    25
100
AcDbLine
 10
175.2798258683
 20
133.2200472587
 30
0.0
 11
175.2798258683
 21
131.0115498809
 31
0.0
  0
LINE
  5
2AA
330
1F
100
AcDbEntity
  8
0
  6
Continuous
 62
     7
370
    25
100
AcDbLine
 10
175.2798258683
 20
131.0115498809
 30
0.0
 11
172.0637080497
 21
131.0115498809
 31
0.0
  0
LINE
  5
2AB
330
1F
100
AcDbEntity
  8
0
  6
Continuous
 62
     7
370
    25
100
AcDbLine
 10
166.4959436869
 20
131.0115498809
 30
0.0
 11
163.2798258683
 21
131.0115498809
 31
0.0
  0
LINE
  5
2AC
330
1F
100
AcDbEntity
  8
0
  6
Continuous
 62
     7
370
    25
100
AcDbLine
 10
163.2798258683
 20
133.2200472587
 30
0.0
 11
163.2798258683
 21
131.0115498809
 31
0.0
  0
LINE
  5
2AD
330
1F
100
AcDbEntity
  8
0
  6
Continuous
 62
     7
370
    25
100
AcDbLine
 10
163.2798258683
 20
146.0115498809
 30
0.0
 11
163.2798258683
 21
143.803052503
 31
0.0
  0
LINE
  5
2AE
330
1F
100
AcDbEntity
  8
0
  6
Continuous
 62
     7
370
    25
100
AcDbLine
 10
163.2798258683
 20
146.0115498809
 30
0.0
 11
166.4959436869
 21
146.0115498809
 31
0.0
  0
LINE
  5
2AF
330
1F
100
AcDbEntity
  8
0
  6
Continuous
 62
     7
370
    25
100
AcDbLine
 10
172.0637080497
 20
146.0115498809
 30
0.0
 11
175.2798258683
 21
146.0115498809
 31
0.0
  0
LINE
  5
2B0
330
1F
100
AcDbEntity
  8
0
  6
Continuous
 62
     7
370
    25
100
AcDbLine
 10
175.2798258683
 20
146.0115498809
 30
0.0
 11
175.2798258683
 21
143.803052503
 31
0.0
  0
SPLINE
  5
2B1
330
1F
100
AcDbEntity
  8
0
  6
Continuous
 62
     7
370
    25
100
AcDbSpline
210
0.0
220
0.0
230
1.0
 70
     8
 71
     3
 72
     8
 73
     4
 74
     0
 42
0.00000001
 43
0.00000001
 40
0.0
 40
0.0
 40
0.0
 40
0.0
 40
1.0
 40
1.0
 40
1.0
 40
1.0
 10
162.7635897913548
 20
147.011549880851
 30
0.0
 10
162.9372928675746
 20
146.6790384587155
 30
0.0
 10
163.1095950866373
 20
146.3457113588167
 30
0.0
 10
163.279825868334
 20
146.011549880851
 30
0.0
  0
SPLINE
  5
2B2
330
1F
100
AcDbEntity
  8
0
  6
Continuous
 62
     7
370
    25
100
AcDbSpline
210
0.0
220
0.0
230
1.0
 70
     8
 71
     3
 72
    10
 73
     6
 74
     0
 42
0.00000001
 43
0.00000001
 40
0.0
 40
0.0
 40
0.0
 40
0.0
 40
0.5
 40
0.5
 40
1.0
 40
1.0
 40
1.0
 40
1.0
 10
162.6021044630795
 20
147.011549880851
 30
0.0
 10
162.5784290686552
 20
147.011549880851
 30
0.0
 10
162.5653379587648
 20
146.9887574315215
 30
0.0
 10
162.5652516374765
 20
146.9008147274285
 30
0.0
 10
162.5784205714203
 20
146.8359569537545
 30
0.0
 10
162.6021044630738
 20
146.7615498808511
 30
0.0
  0
SPLINE
  5
2B3
330
1F
100
AcDbEntity
  8
0
  6
Continuous
 62
     7
370
    25
100
AcDbSpline
210
0.0
220
0.0
230
1.0
 70
    24
 71
     3
 72
     8
 73
     4
 74
     0
 42
0.00000001
 43
0.00000001
 40
0.0
 40
0.0
 40
0.0
 40
0.0
 40
1.0
 40
1.0
 40
1.0
 40
1.0
 10
162.7635897913548
 20
147.011549880851
 30
0.0
 10
162.7126910744324
 20
147.011549880851
 30
0.0
 10
162.6587569381818
 20
147.011549880851
 30
0.0
 10
162.6021044630742
 20
147.011549880851
 30
0.0
  0
SPLINE
  5
2B4
330
1F
100
AcDbEntity
  8
0
  6
Continuous
 62
     7
370
    25
100
AcDbSpline
210
0.0
220
0.0
230
1.0
 70
     8
 71
     3
 72
     8
 73
     4
 74
     0
 42
0.00000001
 43
0.00000001
 40
0.0
 40
0.0
 40
0.0
 40
0.0
 40
1.0
 40
1.0
 40
1.0
 40
1.0
 10
175.279825868334
 20
146.011549880851
 30
0.0
 10
175.4501034756777
 20
146.3458032771364
 30
0.0
 10
175.6223752243034
 20
146.6790697667053
 30
0.0
 10
175.7960619453131
 20
147.0115498808508
 30
0.0
  0
SPLINE
  5
2B5
330
1F
100
AcDbEntity
  8
0
  6
Continuous
 62
     7
370
    25
100
AcDbSpline
210
0.0
220
0.0
230
1.0
 70
    24
 71
     3
 72
     8
 73
     4
 74
     0
 42
0.00000001
 43
0.00000001
 40
0.0
 40
0.0
 40
0.0
 40
0.0
 40
1.0
 40
1.0
 40
1.0
 40
1.0
 10
175.7960619453127
 20
147.011549880851
 30
0.0
 10
175.8469581785679
 20
147.011549880851
 30
0.0
 10
175.9008921335317
 20
147.011549880851
 30
0.0
 10
175.9575472735942
 20
147.011549880851
 30
0.0
  0
SPLINE
  5
2B6
330
1F
100
AcDbEntity
  8
0
  6
Continuous
 62
     7
370
    25
100
AcDbSpline
210
0.0
220
0.0
230
1.0
 70
     8
 71
     3
 72
    10
 73
     6
 74
     0
 42
0.00000001
 43
0.00000001
 40
0.0
 40
0.0
 40
0.0
 40
0.0
 40
0.5
 40
0.5
 40
1.0
 40
1.0
 40
1.0
 40
1.0
 10
175.9575472735942
 20
146.761549880851
 30
0.0
 10
175.9812226680186
 20
146.8359302582284
 30
0.0
 10
175.9943137779032
 20
146.9002308970141
 30
0.0
 10
175.9944000991915
 20
146.9884465817971
 30
0.0
 10
175.9812311652477
 20
147.011549880851
 30
0.0
 10
175.9575472735942
 20
147.011549880851
 30
0.0
  0
SPLINE
  5
2B7
330
1F
100
AcDbEntity
  8
0
  6
Continuous
 62
     7
370
    25
100
AcDbSpline
210
0.0
220
0.0
230
1.0
 70
    24
 71
     3
 72
    12
 73
     8
 74
     0
 42
0.00000001
 43
0.00000001
 40
0.0
 40
0.0
 40
0.0
 40
0.0
 40
0.25
 40
0.25
 40
0.5
 40
0.5
 40
1.0
 40
1.0
 40
1.0
 40
1.0
 10
157.779825868334
 20
147.011549880851
 30
0.0
 10
157.779825868334
 20
147.011549880851
 30
0.0
 10
157.7957316740022
 20
147.011549880851
 30
0.0
 10
157.8575765448946
 20
147.011549880851
 30
0.0
 10
157.9033898857608
 20
147.011549880851
 30
0.0
 10
158.0802230596632
 20
147.011549880851
 30
0.0
 10
158.2505013231668
 20
147.011549880851
 30
0.0
 10
158.4575472735942
 20
147.011549880851
 30
0.0
  0
SPLINE
  5
2B8
330
1F
100
AcDbEntity
  8
0
  6
Continuous
 62
     7
370
    25
100
AcDbSpline
210
0.0
220
0.0
230
1.0
 70
     8
 71
     3
 72
    10
 73
     6
 74
     0
 42
0.00000001
 43
0.00000001
 40
0.0
 40
0.0
 40
0.0
 40
0.0
 40
0.5
 40
0.5
 40
1.0
 40
1.0
 40
1.0
 40
1.0
 10
158.4575472735942
 20
146.761549880851
 30
0.0
 10
158.4812195135058
 20
146.8359203477766
 30
0.0
 10
158.494313503441
 20
146.9002259440645
 30
0.0
 10
158.4944003709025
 20
146.9884487318703
 30
0.0
 10
158.4812305811431
 20
147.011549880851
 30
0.0
 10
158.4575472735942
 20
147.011549880851
 30
0.0
  0
LINE
  5
2B9
330
1F
100
AcDbEntity
  8
0
  6
Continuous
 62
     7
370
    25
100
AcDbLine
 10
157.7798258683
 20
147.0115498809
 30
0.0
 11
157.7798258683
 21
142.7615498809
 31
0.0
  0
SPLINE
  5
2BA
330
1F
100
AcDbEntity
  8
0
  6
Continuous
 62
     7
370
    25
100
AcDbSpline
210
0.0
220
0.0
230
1.0
 70
     8
 71
     3
 72
    10
 73
     6
 74
     0
 42
0.00000001
 43
0.00000001
 40
0.0
 40
0.0
 40
0.0
 40
0.0
 40
0.5
 40
0.5
 40
1.0
 40
1.0
 40
1.0
 40
1.0
 10
180.1021044630738
 20
146.761549880851
 30
0.0
 10
180.0784322231623
 20
146.8359203477766
 30
0.0
 10
180.065338233227
 20
146.9002259440644
 30
0.0
 10
180.0652513657656
 20
146.9884487318703
 30
0.0
 10
180.0784211555249
 20
147.011549880851
 30
0.0
 10
180.1021044630738
 20
147.011549880851
 30
0.0
  0
SPLINE
  5
2BB
330
1F
100
AcDbEntity
  8
0
  6
Continuous
 62
     7
370
    25
100
AcDbSpline
210
0.0
220
0.0
230
1.0
 70
    24
 71
     3
 72
    12
 73
     8
 74
     0
 42
0.00000001
 43
0.00000001
 40
0.0
 40
0.0
 40
0.0
 40
0.0
 40
0.25
 40
0.25
 40
0.5
 40
0.5
 40
1.0
 40
1.0
 40
1.0
 40
1.0
 10
180.779825868334
 20
147.011549880851
 30
0.0
 10
180.779825868334
 20
147.011549880851
 30
0.0
 10
180.7639200626658
 20
147.011549880851
 30
0.0
 10
180.7020751917734
 20
147.011549880851
 30
0.0
 10
180.6562618509072
 20
147.011549880851
 30
0.0
 10
180.4794286770048
 20
147.011549880851
 30
0.0
 10
180.3091504135012
 20
147.011549880851
 30
0.0
 10
180.1021044630738
 20
147.011549880851
 30
0.0
  0
LINE
  5
2BC
330
1F
100
AcDbEntity
  8
0
  6
Continuous
 62
     7
370
    25
100
AcDbLine
 10
180.7798258683
 20
147.0115498809
 30
0.0
 11
180.7798258683
 21
142.7615498809
 31
0.0
  0
SPLINE
  5
2BD
330
1F
100
AcDbEntity
  8
0
  6
Continuous
 62
     7
370
    25
100
AcDbSpline
210
0.0
220
0.0
230
1.0
 70
     8
 71
     3
 72
     8
 73
     4
 74
     0
 42
0.00000001
 43
0.00000001
 40
0.0
 40
0.0
 40
0.0
 40
0.0
 40
1.0
 40
1.0
 40
1.0
 40
1.0
 10
163.279825868334
 20
131.011549880851
 30
0.0
 10
163.1095482609902
 20
130.6772964845656
 30
0.0
 10
162.9372765123645
 20
130.3440299949966
 30
0.0
 10
162.7635897913548
 20
130.011549880851
 30
0.0
  0
SPLINE
  5
2BE
330
1F
100
AcDbEntity
  8
0
  6
Continuous
 62
     7
370
    25
100
AcDbSpline
210
0.0
220
0.0
230
1.0
 70
    24
 71
     3
 72
     8
 73
     4
 74
     0
 42
0.00000001
 43
0.00000001
 40
0.0
 40
0.0
 40
0.0
 40
0.0
 40
1.0
 40
1.0
 40
1.0
 40
1.0
 10
162.7635897913548
 20
130.011549880851
 30
0.0
 10
162.7126910744323
 20
130.011549880851
 30
0.0
 10
162.6587569381815
 20
130.011549880851
 30
0.0
 10
162.6021044630738
 20
130.011549880851
 30
0.0
  0
SPLINE
  5
2BF
330
1F
100
AcDbEntity
  8
0
  6
Continuous
 62
     7
370
    25
100
AcDbSpline
210
0.0
220
0.0
230
1.0
 70
     8
 71
     3
 72
    10
 73
     6
 74
     0
 42
0.00000001
 43
0.00000001
 40
0.0
 40
0.0
 40
0.0
 40
0.0
 40
0.5
 40
0.5
 40
1.0
 40
1.0
 40
1.0
 40
1.0
 10
162.6021044630738
 20
130.261549880851
 30
0.0
 10
162.5784290686495
 20
130.1871695034737
 30
0.0
 10
162.5653379587648
 20
130.1228688646879
 30
0.0
 10
162.5652516374765
 20
130.034653179905
 30
0.0
 10
162.5784205714204
 20
130.011549880851
 30
0.0
 10
162.6021044630738
 20
130.011549880851
 30
0.0
  0
SPLINE
  5
2C0
330
1F
100
AcDbEntity
  8
0
  6
Continuous
 62
     7
370
    25
100
AcDbSpline
210
0.0
220
0.0
230
1.0
 70
     8
 71
     3
 72
     8
 73
     4
 74
     0
 42
0.00000001
 43
0.00000001
 40
0.0
 40
0.0
 40
0.0
 40
0.0
 40
1.0
 40
1.0
 40
1.0
 40
1.0
 10
175.7960619453132
 20
130.011549880851
 30
0.0
 10
175.6223588690934
 20
130.3440613029865
 30
0.0
 10
175.4500566500307
 20
130.6773884028854
 30
0.0
 10
175.279825868334
 20
131.011549880851
 30
0.0
  0
SPLINE
  5
2C1
330
1F
100
AcDbEntity
  8
0
  6
Continuous
 62
     7
370
    25
100
AcDbSpline
210
0.0
220
0.0
230
1.0
 70
     8
 71
     3
 72
    10
 73
     6
 74
     0
 42
0.00000001
 43
0.00000001
 40
0.0
 40
0.0
 40
0.0
 40
0.0
 40
0.5
 40
0.5
 40
1.0
 40
1.0
 40
1.0
 40
1.0
 10
175.9575472735942
 20
130.011549880851
 30
0.0
 10
175.9812226680186
 20
130.011549880851
 30
0.0
 10
175.9943137779032
 20
130.0343423301808
 30
0.0
 10
175.9944000991915
 20
130.1222850342739
 30
0.0
 10
175.9812311652477
 20
130.1871428079477
 30
0.0
 10
175.9575472735942
 20
130.261549880851
 30
0.0
  0
SPLINE
  5
2C2
330
1F
100
AcDbEntity
  8
0
  6
Continuous
 62
     7
370
    25
100
AcDbSpline
210
0.0
220
0.0
230
1.0
 70
    24
 71
     3
 72
     8
 73
     4
 74
     0
 42
0.00000001
 43
0.00000001
 40
0.0
 40
0.0
 40
0.0
 40
0.0
 40
1.0
 40
1.0
 40
1.0
 40
1.0
 10
175.7960619453132
 20
130.011549880851
 30
0.0
 10
175.8469581785683
 20
130.011549880851
 30
0.0
 10
175.9008921335319
 20
130.011549880851
 30
0.0
 10
175.9575472735942
 20
130.011549880851
 30
0.0
  0
SPLINE
  5
2C3
330
1F
100
AcDbEntity
  8
0
  6
Continuous
 62
     7
370
    25
100
AcDbSpline
210
0.0
220
0.0
230
1.0
 70
    24
 71
     3
 72
    12
 73
     8
 74
     0
 42
0.00000001
 43
0.00000001
 40
0.0
 40
0.0
 40
0.0
 40
0.0
 40
0.25
 40
0.25
 40
0.5
 40
0.5
 40
1.0
 40
1.0
 40
1.0
 40
1.0
 10
157.779825868334
 20
130.011549880851
 30
0.0
 10
157.779825868334
 20
130.011549880851
 30
0.0
 10
157.7957316740022
 20
130.011549880851
 30
0.0
 10
157.8575765448946
 20
130.011549880851
 30
0.0
 10
157.9033898857608
 20
130.011549880851
 30
0.0
 10
158.0802230596632
 20
130.011549880851
 30
0.0
 10
158.2505013231668
 20
130.011549880851
 30
0.0
 10
158.4575472735942
 20
130.011549880851
 30
0.0
  0
SPLINE
  5
2C4
330
1F
100
AcDbEntity
  8
0
  6
Continuous
 62
     7
370
    25
100
AcDbSpline
210
0.0
220
0.0
230
1.0
 70
     8
 71
     3
 72
    10
 73
     6
 74
     0
 42
0.00000001
 43
0.00000001
 40
0.0
 40
0.0
 40
0.0
 40
0.0
 40
0.5
 40
0.5
 40
1.0
 40
1.0
 40
1.0
 40
1.0
 10
158.4575472735942
 20
130.011549880851
 30
0.0
 10
158.4812211741501
 20
130.011549880851
 30
0.0
 10
158.4943137313293
 20
130.0343404524984
 30
0.0
 10
158.4944001453116
 20
130.1222864497973
 30
0.0
 10
158.481229753713
 20
130.18714724253
 30
0.0
 10
158.4575472735942
 20
130.261549880851
 30
0.0
  0
LINE
  5
2C5
330
1F
100
AcDbEntity
  8
0
  6
Continuous
 62
     7
370
    25
100
AcDbLine
 10
157.7798258683
 20
134.2615498809
 30
0.0
 11
157.7798258683
 21
130.0115498809
 31
0.0
  0
SPLINE
  5
2C6
330
1F
100
AcDbEntity
  8
0
  6
Continuous
 62
     7
370
    25
100
AcDbSpline
210
0.0
220
0.0
230
1.0
 70
    24
 71
     3
 72
    12
 73
     8
 74
     0
 42
0.00000001
 43
0.00000001
 40
0.0
 40
0.0
 40
0.0
 40
0.0
 40
0.25
 40
0.25
 40
0.5
 40
0.5
 40
1.0
 40
1.0
 40
1.0
 40
1.0
 10
180.779825868334
 20
130.011549880851
 30
0.0
 10
180.779825868334
 20
130.011549880851
 30
0.0
 10
180.7639200626658
 20
130.011549880851
 30
0.0
 10
180.7020751917734
 20
130.011549880851
 30
0.0
 10
180.6562618509072
 20
130.011549880851
 30
0.0
 10
180.4794286770048
 20
130.011549880851
 30
0.0
 10
180.3091504135012
 20
130.011549880851
 30
0.0
 10
180.1021044630738
 20
130.011549880851
 30
0.0
  0
SPLINE
  5
2C7
330
1F
100
AcDbEntity
  8
0
  6
Continuous
 62
     7
370
    25
100
AcDbSpline
210
0.0
220
0.0
230
1.0
 70
     8
 71
     3
 72
    10
 73
     6
 74
     0
 42
0.00000001
 43
0.00000001
 40
0.0
 40
0.0
 40
0.0
 40
0.0
 40
0.5
 40
0.5
 40
1.0
 40
1.0
 40
1.0
 40
1.0
 10
180.1021044630738
 20
130.011549880851
 30
0.0
 10
180.0784305625179
 20
130.011549880851
 30
0.0
 10
180.0653380053387
 20
130.0343404524984
 30
0.0
 10
180.0652515913565
 20
130.1222864497973
 30
0.0
 10
180.0784219829551
 20
130.18714724253
 30
0.0
 10
180.1021044630738
 20
130.261549880851
 30
0.0
  0
LINE
  5
2C8
330
1F
100
AcDbEntity
  8
0
  6
Continuous
 62
     7
370
    25
100
AcDbLine
 10
180.7798258683
 20
134.2615498809
 30
0.0
 11
180.7798258683
 21
130.0115498809
 31
0.0
  0
LINE
  5
2C9
330
1F
100
AcDbEntity
  8
0
  6
Continuous
 62
     7
370
    25
100
AcDbLine
 10
175.9575472736
 20
147.0115498809
 30
0.0
 11
180.1021044631
 21
147.0115498809
 31
0.0
  0
LINE
  5
2CA
330
1F
100
AcDbEntity
  8
0
  6
Continuous
 62
     7
370
    25
100
AcDbLine
 10
158.4575472736
 20
147.0115498809
 30
0.0
 11
162.6021044631
 21
147.0115498809
 31
0.0
  0
LINE
  5
2CB
330
1F
100
AcDbEntity
  8
0
  6
Continuous
 62
     7
370
    25
100
AcDbLine
 10
162.6021044631
 20
130.0115498809
 30
0.0
 11
158.4575472736
 21
130.0115498809
 31
0.0
  0
LINE
  5
2CC
330
1F
100
AcDbEntity
  8
0
  6
Continuous
 62
     7
370
    25
100
AcDbLine
 10
180.1021044631
 20
130.0115498809
 30
0.0
 11
175.9575472736
 21
130.0115498809
 31
0.0
  0
LINE
  5
2CD
330
1F
100
AcDbEntity
  8
0
  6
Continuous
 62
     7
370
    25
100
AcDbLine
 10
175.7960619453
 20
147.0115498809
 30
0.0
 11
162.7635897914
 21
147.0115498809
 31
0.0
  0
LINE
  5
2CE
330
1F
100
AcDbEntity
  8
0
  6
Continuous
 62
     7
370
    25
100
AcDbLine
 10
175.7960619453
 20
130.0115498809
 30
0.0
 11
162.7635897914
 21
130.0115498809
 31
0.0
  0
LINE
  5
2CF
330
1F
100
AcDbEntity
  8
0
  6
Continuous
 62
     7
370
    25
100
AcDbLine
 10
167.0423418468
 20
137.5362773359
 30
0.0
 11
167.0095463198
 21
137.5550213751
 31
0.0
  0
SPLINE
  5
2D0
330
1F
100
AcDbEntity
  8
0
  6
Continuous
 62
     7
370
    25
100
AcDbSpline
210
0.0
220
0.0
230
1.0
 70
     8
 71
     3
 72
    15
 73
    11
 74
     0
 42
0.00000001
 43
0.00000001
 40
0.0
 40
0.0
 40
0.0
 40
0.0
 40
0.1241930067305288
 40
0.2496556654892299
 40
0.3743703853151211
 40
0.4998404796364203
 40
0.6240146704162364
 40
0.7475381382242064
 40
0.8745858500551822
 40
1.0
 40
1.0
 40
1.0
 40
1.0
 10
167.8226315684645
 20
137.8087169864368
 30
0.0
 10
167.8070711733548
 20
137.7728697836929
 30
0.0
 10
167.7757913058433
 20
137.7008089044811
 30
0.0
 10
167.698354946355
 20
137.6109333911382
 30
0.0
 10
167.605000942616
 20
137.5386096133439
 30
0.0
 10
167.4977753365951
 20
137.4896821948393
 30
0.0
 10
167.3833894258741
 20
137.4633541413845
 30
0.0
 10
167.2657186629888
 20
137.4624950473819
 30
0.0
 10
167.1488349377636
 20
137.4838778080115
 30
0.0
 10
167.0776860868689
 20
137.5188863344723
 30
0.0
 10
167.0423418467854
 20
137.5362773358537
 30
0.0
  0
LINE
  5
2D1
330
1F
100
AcDbEntity
  8
0
  6
Continuous
 62
     7
370
    25
100
AcDbLine
 10
168.8144856132
 20
140.5822962024
 30
0.0
 11
167.8226315685
 21
137.8087169864
 31
0.0
  0
SPLINE
  5
2D2
330
1F
100
AcDbEntity
  8
0
  6
Continuous
 62
     7
370
    25
100
AcDbSpline
210
0.0
220
0.0
230
1.0
 70
     8
 71
     3
 72
    15
 73
    11
 74
     0
 42
0.00000001
 43
0.00000001
 40
0.0
 40
0.0
 40
0.0
 40
0.0
 40
0.1233025178081761
 40
0.2485158700387113
 40
0.3756924668130947
 40
0.4999990880429329
 40
0.6243057092728392
 40
0.751482306047304
 40
0.8766757256079954
 40
1.0
 40
1.0
 40
1.0
 40
1.0
 10
169.7451661266857
 20
140.5822962023502
 30
0.0
 10
169.7210151547233
 20
140.6229413382859
 30
0.0
 10
169.6723389401886
 20
140.7048614928738
 30
0.0
 10
169.5569882819835
 20
140.7946804486863
 30
0.0
 10
169.4238286597216
 20
140.8522545968474
 30
0.0
 10
169.2798260163528
 20
140.8714132925175
 30
0.0
 10
169.1358224876543
 20
140.8522551896324
 30
0.0
 10
169.0026726146888
 20
140.7946810758939
 30
0.0
 10
168.8873102571544
 20
140.7048755137472
 30
0.0
 10
168.8386384714832
 20
140.6229505822224
 30
0.0
 10
168.8144856131664
 20
140.5822962023503
 30
0.0
  0
LINE
  5
2D3
330
1F
100
AcDbEntity
  8
0
  6
Continuous
 62
     7
370
    25
100
AcDbLine
 10
170.7367890331
 20
137.809363332
 30
0.0
 11
169.7451661267
 21
140.5822962024
 31
0.0
  0
SPLINE
  5
2D4
330
1F
100
AcDbEntity
  8
0
  6
Continuous
 62
     7
370
    25
100
AcDbSpline
210
0.0
220
0.0
230
1.0
 70
     8
 71
     3
 72
    15
 73
    11
 74
     0
 42
0.00000001
 43
0.00000001
 40
0.0
 40
0.0
 40
0.0
 40
0.0
 40
0.1253320172137757
 40
0.2522975129251761
 40
0.3758847553984063
 40
0.5001929511416489
 40
0.6255758307380154
 40
0.7502289462456485
 40
0.875744493577783
 40
1.0
 40
1.0
 40
1.0
 40
1.0
 10
171.5094907975995
 20
137.5326674813959
 30
0.0
 10
171.4742398809715
 20
137.5159931729131
 30
0.0
 10
171.4032786151171
 20
137.4824272361838
 30
0.0
 10
171.2872917243288
 20
137.4626456199296
 30
0.0
 10
171.1706953580884
 20
137.4647184002763
 30
0.0
 10
171.0575747515069
 20
137.4917964266268
 30
0.0
 10
170.9516990371675
 20
137.541009242334
 30
0.0
 10
170.8595899525483
 20
137.6130950062079
 30
0.0
 10
170.7831582886799
 20
137.7023825277073
 30
0.0
 10
170.7521933811806
 20
137.7738231981444
 30
0.0
 10
170.7367890330594
 20
137.8093633320024
 30
0.0
  0
LINE
  5
2D5
330
1F
100
AcDbEntity
  8
0
  6
Continuous
 62
     7
370
    25
100
AcDbLine
 10
171.5501054201
 20
137.5550213751
 30
0.0
 11
171.5094907976
 21
137.5326674814
 31
0.0
  0
LINE
  5
2D6
330
1F
100
AcDbEntity
  8
0
  6
Continuous
 62
     7
370
    25
100
AcDbLine
 10
170.9231222236
 20
136.3596102716
 30
0.0
 11
171.5501054201
 21
137.5550213751
 31
0.0
  0
SPLINE
  5
2D7
330
1F
100
AcDbEntity
  8
0
  6
Continuous
 62
     7
370
    25
100
AcDbSpline
210
0.0
220
0.0
230
1.0
 70
     8
 71
     3
 72
    15
 73
    11
 74
     0
 42
0.00000001
 43
0.00000001
 40
0.0
 40
0.0
 40
0.0
 40
0.0
 40
0.124633218643854
 40
0.2519059530189772
 40
0.3765391000744918
 40
0.4994035903146518
 40
0.6264494152300148
 40
0.7526064410610419
 40
0.874680437736327
 40
1.0
 40
1.0
 40
1.0
 40
1.0
 10
170.8178937347905
 20
136.3414931048984
 30
0.0
 10
170.8219082104586
 20
136.3383878700457
 30
0.0
 10
170.8300221814373
 20
136.3321116368439
 30
0.0
 10
170.8444607732738
 20
136.326498623364
 30
0.0
 10
170.8595942232069
 20
136.3239622707373
 30
0.0
 10
170.8749567654887
 20
136.3248476743051
 30
0.0
 10
170.8898873443254
 20
136.3289787448207
 30
0.0
 10
170.9033892443547
 20
136.3364694447666
 30
0.0
 10
170.9150748992411
 20
136.3466080266809
 30
0.0
 10
170.9204164235819
 20
136.3552384490237
 30
0.0
 10
170.9231222235836
 20
136.359610271616
 30
0.0
  0
SPLINE
  5
2D8
330
1F
100
AcDbEntity
  8
0
  6
Continuous
 62
     7
370
    25
100
AcDbSpline
210
0.0
220
0.0
230
1.0
 70
     8
 71
     3
 72
    11
 73
     7
 74
     0
 42
0.00000001
 43
0.00000001
 40
0.0
 40
0.0
 40
0.0
 40
0.0
 40
0.2506252605986011
 40
0.4999999999996215
 40
0.7493747394010042
 40
1.0
 40
1.0
 40
1.0
 40
1.0
 10
167.7417580050616
 20
136.3414931048983
 30
0.0
 10
167.9714856992349
 20
136.5043473968593
 30
0.0
 10
168.4297948369979
 20
136.8292434020981
 30
0.0
 10
169.279825869934
 20
136.9629753490353
 30
0.0
 10
170.1298569028642
 20
136.829243402093
 30
0.0
 10
170.5881660406205
 20
136.5043473968576
 30
0.0
 10
170.8178937347905
 20
136.3414931048984
 30
0.0
  0
SPLINE
  5
2D9
330
1F
100
AcDbEntity
  8
0
  6
Continuous
 62
     7
370
    25
100
AcDbSpline
210
0.0
220
0.0
230
1.0
 70
     8
 71
     3
 72
    15
 73
    11
 74
     0
 42
0.00000001
 43
0.00000001
 40
0.0
 40
0.0
 40
0.0
 40
0.0
 40
0.1253191957979138
 40
0.2473928354984065
 40
0.3734492416489706
 40
0.5005950046079967
 40
0.6235484391777611
 40
0.7480947836179483
 40
0.8753671458153899
 40
1.0
 40
1.0
 40
1.0
 40
1.0
 10
167.6365295162684
 20
136.359610271616
 30
0.0
 10
167.6392353126008
 20
136.3552384433321
 30
0.0
 10
167.644576829698
 20
136.3466080097533
 30
0.0
 10
167.6562594022871
 20
136.3364722322535
 30
0.0
 10
167.6697603822743
 20
136.3289801163799
 30
0.0
 10
167.6846944111244
 20
136.3248476710878
 30
0.0
 10
167.7000614223134
 20
136.3239597293142
 30
0.0
 10
167.7151941587517
 20
136.3265006715718
 30
0.0
 10
167.7296295885334
 20
136.3321114498389
 30
0.0
 10
167.7377435393626
 20
136.3383878081477
 30
0.0
 10
167.7417580050616
 20
136.3414931048983
 30
0.0
  0
LINE
  5
2DA
330
1F
100
AcDbEntity
  8
0
  6
Continuous
 62
     7
370
    25
100
AcDbLine
 10
167.0095463198
 20
137.5550213751
 30
0.0
 11
167.6365295163
 21
136.3596102716
 31
0.0
  0
SPLINE
  5
2DB
330
1F
100
AcDbEntity
  8
0
  6
Continuous
 62
     7
370
    25
100
AcDbSpline
210
0.0
220
0.0
230
1.0
 70
     8
 71
     3
 72
    15
 73
    11
 74
     0
 42
0.00000001
 43
0.00000001
 40
0.0
 40
0.0
 40
0.0
 40
0.0
 40
0.1233867499278388
 40
0.2487396502211602
 40
0.3739317114754985
 40
0.4999973617625659
 40
0.6259591330513601
 40
0.7512551380600303
 40
0.8765613478174267
 40
1.0
 40
1.0
 40
1.0
 40
1.0
 10
169.2169430035279
 20
138.5329593389938
 30
0.0
 10
169.2198212047198
 20
138.5389741350768
 30
0.0
 10
169.2256234708314
 20
138.5510995721655
 30
0.0
 10
169.2411528755522
 20
138.5644908325155
 30
0.0
 10
169.2595074574256
 20
138.5733685440955
 30
0.0
 10
169.2798202739085
 20
138.5761252073919
 30
0.0
 10
169.3001386916236
 20
138.5733705261914
 30
0.0
 10
169.3184915607878
 20
138.5644948279019
 30
0.0
 10
169.3340296651833
 20
138.5511044606482
 30
0.0
 10
169.3398302272145
 20
138.5389773631021
 30
0.0
 10
169.3427087331401
 20
138.5329593389938
 30
0.0
  0
LINE
  5
2DC
330
1F
100
AcDbEntity
  8
0
  6
Continuous
 62
     7
370
    25
100
AcDbLine
 10
168.9778294778
 20
137.8947053097
 30
0.0
 11
169.2169430035
 21
138.532959339
 31
0.0
  0
SPLINE
  5
2DD
330
1F
100
AcDbEntity
  8
0
  6
Continuous
 62
     7
370
    25
100
AcDbSpline
210
0.0
220
0.0
230
1.0
 70
     8
 71
     3
 72
    15
 73
    11
 74
     0
 42
0.00000001
 43
0.00000001
 40
0.0
 40
0.0
 40
0.0
 40
0.0
 40
0.1261585224210642
 40
0.25131214515488
 40
0.3762846848783792
 40
0.4993062783340877
 40
0.6261594278645743
 40
0.7521171342021308
 40
0.8758196922692789
 40
1.0
 40
1.0
 40
1.0
 40
1.0
 10
169.0407123426562
 20
137.8096409563713
 30
0.0
 10
169.0354812461676
 20
137.8099632629636
 30
0.0
 10
169.0250607208249
 20
137.8106053088561
 30
0.0
 10
169.0102741703105
 20
137.8160535492313
 30
0.0
 10
168.997083817685
 20
137.8242761518169
 30
0.0
 10
168.9862132428437
 20
137.8355327581295
 30
0.0
 10
168.9782056555152
 20
137.8490535034706
 30
0.0
 10
168.9740390284825
 20
137.8641903910474
 30
0.0
 10
168.9734179769709
 20
137.8798795226186
 30
0.0
 10
168.9763570893257
 20
137.8897570349772
 30
0.0
 10
168.9778294778084
 20
137.8947053097212
 30
0.0
  0
LINE
  5
2DE
330
1F
100
AcDbEntity
  8
0
  6
Continuous
 62
     7
370
    25
100
AcDbLine
 10
169.5189393968
 20
137.8096409564
 30
0.0
 11
169.0407123427
 21
137.8096409564
 31
0.0
  0
SPLINE
  5
2DF
330
1F
100
AcDbEntity
  8
0
  6
Continuous
 62
     7
370
    25
100
AcDbSpline
210
0.0
220
0.0
230
1.0
 70
     8
 71
     3
 72
    15
 73
    11
 74
     0
 42
0.00000001
 43
0.00000001
 40
0.0
 40
0.0
 40
0.0
 40
0.0
 40
0.1241186784437694
 40
0.2478474916628982
 40
0.3736574149478942
 40
0.5005082335853296
 40
0.6234527658309922
 40
0.7484986612277523
 40
0.8736976492452769
 40
1.0
 40
1.0
 40
1.0
 40
1.0
 10
169.5818222615856
 20
137.8947053099443
 30
0.0
 10
169.5832933341944
 20
137.8897594642862
 30
0.0
 10
169.5862308586728
 20
137.8798833082081
 30
0.0
 10
169.5856141241727
 20
137.8642019125824
 30
0.0
 10
169.5814521625781
 20
137.849069380502
 30
0.0
 10
169.5734534147797
 20
137.8355544728877
 30
0.0
 10
169.5625873232429
 20
137.8242944116917
 30
0.0
 10
169.5493996054183
 20
137.8160646992582
 30
0.0
 10
169.534605158843
 20
137.8106051288731
 30
0.0
 10
169.5241765679357
 20
137.8099632858162
 30
0.0
 10
169.5189393968213
 20
137.8096409563713
 30
0.0
  0
LINE
  5
2E0
330
1F
100
AcDbEntity
  8
0
  6
Continuous
 62
     7
370
    25
100
AcDbLine
 10
169.3427087331
 20
138.532959339
 30
0.0
 11
169.5818222616
 21
137.8947053099
 31
0.0
  0
CIRCLE
  5
2E1
330
1F
100
AcDbEntity
  8
0
  6
Continuous
 62
     7
370
    25
100
AcDbCircle
 10
169.2798258683
 20
138.5115498809
 30
0.0
 40
4.5
  0
SPLINE
  5
2E2
330
1F
100
AcDbEntity
  8
0
  6
Continuous
 62
     7
370
    25
100
AcDbSpline
210
0.0
220
0.0
230
1.0
 70
     8
 71
     3
 72
    11
 73
     7
 74
     0
 42
0.00000001
 43
0.00000001
 40
0.0
 40
0.0
 40
0.0
 40
0.0
 40
0.3703424215671223
 40
0.8081736631678952
 40
0.9944317652533818
 40
1.0
 40
1.0
 40
1.0
 40
1.0
 10
186.5373968448874
 20
141.3634448560975
 30
0.0
 10
186.2054028786191
 20
141.3487022610265
 30
0.0
 10
185.4809145017995
 20
141.3165304752162
 30
0.0
 10
184.5507887562417
 20
141.0709554004517
 30
0.0
 10
183.9639510566991
 20
140.9169852176132
 30
0.0
 10
183.7850197916693
 20
140.8692987433619
 30
0.0
 10
183.779825868334
 20
140.867914525286
 30
0.0
  0
LINE
  5
2E3
330
1F
100
AcDbEntity
  8
0
  6
Continuous
 62
     7
370
    25
100
AcDbLine
 10
181.202957948
 20
141.8624567896
 30
0.0
 11
181.2343757361
 21
141.8589751869
 31
0.0
  0
SPLINE
  5
2E4
330
1F
100
AcDbEntity
  8
0
  6
Continuous
 62
     7
370
    25
100
AcDbSpline
210
0.0
220
0.0
230
1.0
 70
     8
 71
     3
 72
    11
 73
     7
 74
     0
 42
0.00000001
 43
0.00000001
 40
0.0
 40
0.0
 40
0.0
 40
0.0
 40
0.0055682347466183
 40
0.1918263368321041
 40
0.6296575784328767
 40
1.0
 40
1.0
 40
1.0
 40
1.0
 10
183.779825868334
 20
140.867914525286
 30
0.0
 10
183.7746319449987
 20
140.8692987433619
 30
0.0
 10
183.595700679969
 20
140.9169852176132
 30
0.0
 10
183.0088629804263
 20
141.0709554004516
 30
0.0
 10
182.0787372348685
 20
141.3165304752162
 30
0.0
 10
181.3542488580489
 20
141.3487022610265
 30
0.0
 10
181.0222548917807
 20
141.3634448560975
 30
0.0
  0
LINE
  5
2E5
330
1F
100
AcDbEntity
  8
0
  6
Continuous
 62
     7
370
    25
100
AcDbLine
 10
157.3252760005
 20
141.8589751869
 30
0.0
 11
157.3564158661
 21
141.8624737197
 31
0.0
  0
SPLINE
  5
2E6
330
1F
100
AcDbEntity
  8
0
  6
Continuous
 62
     7
370
    25
100
AcDbSpline
210
0.0
220
0.0
230
1.0
 70
     8
 71
     3
 72
    11
 73
     7
 74
     0
 42
0.00000001
 43
0.00000001
 40
0.0
 40
0.0
 40
0.0
 40
0.0
 40
0.3703424215671238
 40
0.8081736631678934
 40
0.9944317652533823
 40
0.9999999999999999
 40
0.9999999999999999
 40
0.9999999999999999
 40
0.9999999999999999
 10
157.5373968448873
 20
141.3634448560975
 30
0.0
 10
157.2054028786191
 20
141.3487022610265
 30
0.0
 10
156.4809145017995
 20
141.3165304752162
 30
0.0
 10
155.5507887562416
 20
141.0709554004515
 30
0.0
 10
154.9639510566991
 20
140.9169852176133
 30
0.0
 10
154.7850197916693
 20
140.8692987433619
 30
0.0
 10
154.779825868334
 20
140.867914525286
 30
0.0
  0
SPLINE
  5
2E7
330
1F
100
AcDbEntity
  8
0
  6
Continuous
 62
     7
370
    25
100
AcDbSpline
210
0.0
220
0.0
230
1.0
 70
     8
 71
     3
 72
    11
 73
     7
 74
     0
 42
0.00000001
 43
0.00000001
 40
0.0
 40
0.0
 40
0.0
 40
0.0
 40
0.0055682347466184
 40
0.1918263368321039
 40
0.6296575784328784
 40
1.0
 40
1.0
 40
1.0
 40
1.0
 10
154.779825868334
 20
140.867914525286
 30
0.0
 10
154.7746319449987
 20
140.8692987433619
 30
0.0
 10
154.5957006799689
 20
140.9169852176132
 30
0.0
 10
154.0088629804264
 20
141.0709554004516
 30
0.0
 10
153.0787372348685
 20
141.3165304752162
 30
0.0
 10
152.3542488580489
 20
141.3487022610265
 30
0.0
 10
152.0222548917807
 20
141.3634448560975
 30
0.0
  0
ELLIPSE
  5
2E8
330
1F
100
AcDbEntity
  8
0
  6
Continuous
 62
     7
370
    25
100
AcDbEllipse
 10
154.7798258683
 20
140.6320398954
 30
0.0
 11
6.5
 21
0.0
 31
0.0
210
0.0
220
0.0
230
1.0
 40
0.124260355
 41
0.5546419378370152
 42
1.132672010655797
  0
LINE
  5
2E9
330
1F
100
AcDbEntity
  8
0
  6
Continuous
 62
     7
370
    25
100
AcDbLine
 10
160.3054047859
 20
141.0574021236
 30
0.0
 11
160.3054047859
 21
135.9656976381
 31
0.0
  0
ELLIPSE
  5
2EA
330
1F
100
AcDbEntity
  8
0
  6
Continuous
 62
     7
370
    25
100
AcDbEllipse
 10
154.7798258683
 20
136.3910598663
 30
0.0
 11
6.5
 21
0.0
 31
0.0
210
0.0
220
0.0
230
1.0
 40
0.124260355
 41
5.150513296523825
 42
5.728543369342637
  0
SPLINE
  5
2EB
330
1F
100
AcDbEntity
  8
0
  6
Continuous
 62
     7
370
    25
100
AcDbSpline
210
0.0
220
0.0
230
1.0
 70
     8
 71
     3
 72
    11
 73
     7
 74
     0
 42
0.00000001
 43
0.00000001
 40
0.0
 40
0.0
 40
0.0
 40
0.0
 40
0.0055682347466179
 40
0.1918263368321036
 40
0.6296575784328765
 40
1.0
 40
1.0
 40
1.0
 40
1.0
 10
154.779825868334
 20
136.155185236416
 30
0.0
 10
154.7850197916693
 20
136.1538010183401
 30
0.0
 10
154.9639510566992
 20
136.1061145440892
 30
0.0
 10
155.5507887562415
 20
135.95214436125
 30
0.0
 10
156.4809145017996
 20
135.706569286486
 30
0.0
 10
157.2054028786191
 20
135.6743975006756
 30
0.0
 10
157.5373968448873
 20
135.6596549056046
 30
0.0
  0
SPLINE
  5
2EC
330
1F
100
AcDbEntity
  8
0
  6
Continuous
 62
     7
370
    25
100
AcDbSpline
210
0.0
220
0.0
230
1.0
 70
     8
 71
     3
 72
    11
 73
     7
 74
     0
 42
0.00000001
 43
0.00000001
 40
0.0
 40
0.0
 40
0.0
 40
0.0
 40
0.3703424215671234
 40
0.8081736631678964
 40
0.9944317652533821
 40
1.0
 40
1.0
 40
1.0
 40
1.0
 10
152.0222548917807
 20
135.6596549056046
 30
0.0
 10
152.3542488580489
 20
135.6743975006756
 30
0.0
 10
153.0787372348685
 20
135.706569286486
 30
0.0
 10
154.0088629804264
 20
135.95214436125
 30
0.0
 10
154.5957006799689
 20
136.1061145440892
 30
0.0
 10
154.7746319449987
 20
136.1538010183401
 30
0.0
 10
154.779825868334
 20
136.155185236416
 30
0.0
  0
SPLINE
  5
2ED
330
1F
100
AcDbEntity
  8
0
  6
Continuous
 62
     7
370
    25
100
AcDbSpline
210
0.0
220
0.0
230
1.0
 70
     8
 71
     3
 72
    11
 73
     7
 74
     0
 42
0.00000001
 43
0.00000001
 40
0.0
 40
0.0
 40
0.0
 40
0.0
 40
0.0055682347466183
 40
0.1918263368321047
 40
0.6296575784328776
 40
1.0
 40
1.0
 40
1.0
 40
1.0
 10
183.779825868334
 20
136.155185236416
 30
0.0
 10
183.7850197916693
 20
136.1538010183401
 30
0.0
 10
183.9639510566992
 20
136.106114544089
 30
0.0
 10
184.5507887562416
 20
135.9521443612502
 30
0.0
 10
185.4809145017996
 20
135.7065692864859
 30
0.0
 10
186.2054028786191
 20
135.6743975006756
 30
0.0
 10
186.5373968448874
 20
135.6596549056046
 30
0.0
  0
SPLINE
  5
2EE
330
1F
100
AcDbEntity
  8
0
  6
Continuous
 62
     7
370
    25
100
AcDbSpline
210
0.0
220
0.0
230
1.0
 70
     8
 71
     3
 72
    11
 73
     7
 74
     0
 42
0.00000001
 43
0.00000001
 40
0.0
 40
0.0
 40
0.0
 40
0.0
 40
0.3703424215671233
 40
0.808173663167896
 40
0.9944317652533816
 40
1.0
 40
1.0
 40
1.0
 40
1.0
 10
181.0222548917807
 20
135.6596549056046
 30
0.0
 10
181.3542488580489
 20
135.6743975006756
 30
0.0
 10
182.0787372348685
 20
135.7065692864859
 30
0.0
 10
183.0088629804264
 20
135.9521443612502
 30
0.0
 10
183.5957006799689
 20
136.106114544089
 30
0.0
 10
183.7746319449987
 20
136.1538010183401
 30
0.0
 10
183.779825868334
 20
136.155185236416
 30
0.0
  0
ELLIPSE
  5
2EF
330
1F
100
AcDbEntity
  8
0
  6
Continuous
 62
     7
370
    25
100
AcDbEllipse
 10
183.7798258683
 20
136.3910598663
 30
0.0
 11
6.499999999999972
 21
0.0
 31
0.0
210
0.0
220
0.0
230
1.0
 40
0.124260355
 41
3.696234591426902
 42
4.274264664245596
  0
LINE
  5
2F0
330
1F
100
AcDbEntity
  8
0
  6
Continuous
 62
     7
370
    25
100
AcDbLine
 10
178.2542469508
 20
141.0574021236
 30
0.0
 11
178.2542469508
 21
135.9656976381
 31
0.0
  0
ELLIPSE
  5
2F1
330
1F
100
AcDbEntity
  8
0
  6
Continuous
 62
     7
370
    25
100
AcDbEllipse
 10
183.7798258683
 20
140.6320398954
 30
0.0
 11
6.499999999999972
 21
0.0
 31
0.0
210
0.0
220
0.0
230
1.0
 40
0.124260355
 41
2.008920642933999
 42
2.586950715752779
  0
LINE
  5
2F2
330
1F
100
AcDbEntity
  8
0
  6
Continuous
 62
     7
370
    25
100
AcDbLine
 10
152.202957948
 20
141.8624567896
 30
0.0
 11
152.2343757361
 21
141.8589751869
 31
0.0
  0
LINE
  5
2F3
330
1F
100
AcDbEntity
  8
0
  6
Continuous
 62
     7
370
    25
100
AcDbLine
 10
186.3566937886
 20
135.1606429721
 30
0.0
 11
186.3252760005
 21
135.1641245748
 31
0.0
  0
LINE
  5
2F4
330
1F
100
AcDbEntity
  8
0
  6
Continuous
 62
     7
370
    25
100
AcDbLine
 10
152.2343757361
 20
135.1641245748
 30
0.0
 11
152.2032358706
 21
135.160626042
 31
0.0
  0
LINE
  5
2F5
330
1F
100
AcDbEntity
  8
0
  6
Continuous
 62
     7
370
    25
100
AcDbLine
 10
181.2343757361
 20
135.1641245748
 30
0.0
 11
181.2032358706
 21
135.160626042
 31
0.0
  0
LINE
  5
2F6
330
1F
100
AcDbEntity
  8
0
  6
Continuous
 62
     7
370
    25
100
AcDbLine
 10
157.3252760005
 20
135.1641245748
 30
0.0
 11
157.3563848633
 21
135.1606242071
 31
0.0
  0
CIRCLE
  5
2F7
330
1F
100
AcDbEntity
  8
0
  6
Continuous
 62
     7
370
    25
100
AcDbCircle
 10
169.2798258683
 20
138.5115498809
 30
0.0
 40
5.584181783769424
  0
CIRCLE
  5
2F8
330
1F
100
AcDbEntity
  8
0
  6
Continuous
 62
     7
370
    25
100
AcDbCircle
 10
169.2798258683
 20
138.5115498809
 30
0.0
 40
5.095107983402499
  0
ARC
  5
2F9
330
1F
100
AcDbEntity
  8
0
  6
Continuous
 62
     7
370
    25
100
AcDbCircle
 10
169.2798258683
 20
138.5115498809
 30
0.0
 40
5.925113123340036
100
AcDbArc
 50
210.7429878176
 51
329.2570121825
  0
ARC
  5
2FA
330
1F
100
AcDbEntity
  8
0
  6
Continuous
 62
     7
370
    25
100
AcDbCircle
 10
169.2798258683
 20
138.5115498809
 30
0.0
 40
5.925113123340036
100
AcDbArc
 50
180.0
 51
210.7429878176
  0
ARC
  5
2FB
330
1F
100
AcDbEntity
  8
0
  6
Continuous
 62
     7
370
    25
100
AcDbCircle
 10
169.2798258683
 20
138.5115498809
 30
0.0
 40
5.925113123340036
100
AcDbArc
 50
149.2570121824
 51
180.0
  0
ARC
  5
2FC
330
1F
100
AcDbEntity
  8
0
  6
Continuous
 62
     7
370
    25
100
AcDbCircle
 10
169.2798258683
 20
138.5115498809
 30
0.0
 40
5.925113123340036
100
AcDbArc
 50
30.7429878176
 51
149.2570121824
  0
ARC
  5
2FD
330
1F
100
AcDbEntity
  8
0
  6
Continuous
 62
     7
370
    25
100
AcDbCircle
 10
169.2798258683
 20
138.5115498809
 30
0.0
 40
5.925113123340054
100
AcDbArc
 50
0.0
 51
30.7429878176
  0
ARC
  5
2FE
330
1F
100
AcDbEntity
  8
0
  6
Continuous
 62
     7
370
    25
100
AcDbCircle
 10
169.2798258683
 20
138.5115498809
 30
0.0
 40
5.925113123340054
100
AcDbArc
 50
329.2570121825
 51
0.0
  0
ELLIPSE
  5
2FF
330
1F
100
AcDbEntity
  8
0
  6
Continuous
 62
     7
370
    25
100
AcDbEllipse
 10
176.5540688223
 20
141.2346363854
 30
0.0
 11
2.0
 21
0.0
 31
0.0
210
0.0
220
0.0
230
1.0
 40
0.1682692308
 41
3.972013810537711
 42
5.728543369342644
  0
SPLINE
  5
300
330
1F
100
AcDbEntity
  8
0
  6
Continuous
 62
     7
370
    25
100
AcDbSpline
210
0.0
220
0.0
230
1.0
 70
     8
 71
     3
 72
    12
 73
     8
 74
     0
 42
0.00000001
 43
0.00000001
 40
0.0
 40
0.0
 40
0.0
 40
0.0
 40
0.1443005026356244
 40
0.2873275205918753
 40
0.5201185386439743
 40
0.7602843466484757
 40
1.0
 40
1.0
 40
1.0
 40
1.0
 10
175.2049389916741
 20
140.9861984651848
 30
0.0
 10
175.1989547316496
 20
141.0337699156308
 30
0.0
 10
175.1870390240532
 20
141.128492987678
 30
0.0
 10
175.0936538018568
 20
141.2765499510042
 30
0.0
 10
174.9408958584551
 20
141.4120495475425
 30
0.0
 10
174.7264299432669
 20
141.5179452286472
 30
0.0
 10
174.5683899637121
 20
141.5329171141588
 30
0.0
 10
174.4894440989405
 20
141.5403960346972
 30
0.0
  0
ELLIPSE
  5
301
330
1F
100
AcDbEntity
  8
0
  6
Continuous
 62
     7
370
    25
100
AcDbEllipse
 10
176.5540688223
 20
141.7301667162
 30
0.0
 11
2.5
 21
0.0
 31
0.0
210
0.0
220
0.0
230
1.0
 40
0.1346153846
 41
3.740681249811703
 42
5.652445905465608
  0
ELLIPSE
  5
302
330
1F
100
AcDbEntity
  8
0
  6
Continuous
 62
     7
370
    25
100
AcDbEllipse
 10
162.0055829144
 20
141.2346363854
 30
0.0
 11
2.0
 21
0.0
 31
0.0
210
0.0
220
0.0
230
1.0
 40
0.1682692308
 41
3.696234591426855
 42
5.452764150231746
  0
SPLINE
  5
303
330
1F
100
AcDbEntity
  8
0
  6
Continuous
 62
     7
370
    25
100
AcDbSpline
210
0.0
220
0.0
230
1.0
 70
     8
 71
     3
 72
    12
 73
     8
 74
     0
 42
0.00000001
 43
0.00000001
 40
0.0
 40
0.0
 40
0.0
 40
0.0
 40
0.2571943124574413
 40
0.5245503439757948
 40
0.7385170215182973
 40
0.8882338470637767
 40
1.0
 40
1.0
 40
1.0
 40
1.0
 10
164.0702076377275
 20
141.5403960346972
 30
0.0
 10
163.9855093602064
 20
141.5317807604543
 30
0.0
 10
163.812766385514
 20
141.5142098234286
 30
0.0
 10
163.5935413567492
 20
141.3956994177007
 30
0.0
 10
163.4441615813698
 20
141.2497112730217
 30
0.0
 10
163.3667650647757
 20
141.1091288100322
 30
0.0
 10
163.3583217056119
 20
141.0230088702634
 30
0.0
 10
163.354712744994
 20
140.9861984651848
 30
0.0
  0
ELLIPSE
  5
304
330
1F
100
AcDbEntity
  8
0
  6
Continuous
 62
     7
370
    25
100
AcDbEllipse
 10
162.0055829144
 20
141.7301667162
 30
0.0
 11
2.5
 21
0.0
 31
0.0
210
0.0
220
0.0
230
1.0
 40
0.1346153846
 41
3.763069173895717
 42
5.684096710957819
  0
ELLIPSE
  5
305
330
1F
100
AcDbEntity
  8
0
  6
Continuous
 62
     7
370
    25
100
AcDbEllipse
 10
176.5540688223
 20
135.7884633763
 30
0.0
 11
2.0
 21
0.0
 31
0.0
210
0.0
220
0.0
230
1.0
 40
0.1682692308
 41
0.5546419378370021
 42
2.311171496641914
  0
LINE
  5
306
330
1F
100
AcDbEntity
  8
0
  6
Continuous
 62
     7
370
    25
100
AcDbLine
 10
175.2049389917
 20
138.5115498809
 30
0.0
 11
175.2049389917
 21
136.0369012965
 31
0.0
  0
LINE
  5
307
330
1F
100
AcDbEntity
  8
0
  6
Continuous
 62
     7
370
    25
100
AcDbLine
 10
175.2049389917
 20
140.9861984652
 30
0.0
 11
175.2049389917
 21
138.5115498809
 31
0.0
  0
LINE
  5
308
330
1F
100
AcDbEntity
  8
0
  6
Continuous
 62
     7
370
    25
100
AcDbLine
 10
163.354712745
 20
138.5115498809
 30
0.0
 11
163.354712745
 21
136.0369012965
 31
0.0
  0
ELLIPSE
  5
309
330
1F
100
AcDbEntity
  8
0
  6
Continuous
 62
     7
370
    25
100
AcDbEllipse
 10
162.0055829144
 20
135.7884633763
 30
0.0
 11
2.0
 21
0.0
 31
0.0
210
0.0
220
0.0
230
1.0
 40
0.1682692308
 41
0.8304211569478793
 42
2.586950715752792
  0
LINE
  5
30A
330
1F
100
AcDbEntity
  8
0
  6
Continuous
 62
     7
370
    25
100
AcDbLine
 10
163.354712745
 20
140.9861984652
 30
0.0
 11
163.354712745
 21
138.5115498809
 31
0.0
  0
SPLINE
  5
30B
330
1F
100
AcDbEntity
  8
0
  6
Continuous
 62
     7
370
    25
100
AcDbSpline
210
0.0
220
0.0
230
1.0
 70
     8
 71
     3
 72
    12
 73
     8
 74
     0
 42
0.00000001
 43
0.00000001
 40
0.0
 40
0.0
 40
0.0
 40
0.0
 40
0.2571943124574416
 40
0.524550343975796
 40
0.7385170215182983
 40
0.8882338470637771
 40
1.0
 40
1.0
 40
1.0
 40
1.0
 10
174.4894440989405
 20
135.4827037270049
 30
0.0
 10
174.5741423764616
 20
135.4913190012478
 30
0.0
 10
174.746885351154
 20
135.5088899382735
 30
0.0
 10
174.9661103799189
 20
135.6274003440013
 30
0.0
 10
175.1154901552982
 20
135.7733884886804
 30
0.0
 10
175.1928866718923
 20
135.9139709516699
 30
0.0
 10
175.2013300310561
 20
136.0000908914387
 30
0.0
 10
175.2049389916741
 20
136.0369012965172
 30
0.0
  0
ELLIPSE
  5
30C
330
1F
100
AcDbEntity
  8
0
  6
Continuous
 62
     7
370
    25
100
AcDbEllipse
 10
176.5540688223
 20
135.2929330455
 30
0.0
 11
2.5
 21
0.0
 31
0.0
210
0.0
220
0.0
230
1.0
 40
0.1346153846
 41
0.6214765203059306
 42
2.542504057367891
  0
SPLINE
  5
30D
330
1F
100
AcDbEntity
  8
0
  6
Continuous
 62
     7
370
    25
100
AcDbSpline
210
0.0
220
0.0
230
1.0
 70
     8
 71
     3
 72
    12
 73
     8
 74
     0
 42
0.00000001
 43
0.00000001
 40
0.0
 40
0.0
 40
0.0
 40
0.0
 40
0.144300502635625
 40
0.2873275205918761
 40
0.5201185386439748
 40
0.7602843466484799
 40
1.0
 40
1.0
 40
1.0
 40
1.0
 10
163.354712744994
 20
136.0369012965172
 30
0.0
 10
163.3606970050185
 20
135.9893298460712
 30
0.0
 10
163.3726127126148
 20
135.894606774024
 30
0.0
 10
163.4659979348112
 20
135.7465498106979
 30
0.0
 10
163.6187558782129
 20
135.6110502141595
 30
0.0
 10
163.8332217934012
 20
135.5051545330548
 30
0.0
 10
163.9912617729559
 20
135.4901826475432
 30
0.0
 10
164.0702076377275
 20
135.4827037270049
 30
0.0
  0
ELLIPSE
  5
30E
330
1F
100
AcDbEntity
  8
0
  6
Continuous
 62
     7
370
    25
100
AcDbEllipse
 10
162.0055829144
 20
135.2929330455
 30
0.0
 11
2.5
 21
0.0
 31
0.0
210
0.0
220
0.0
230
1.0
 40
0.1346153846
 41
0.5990885962219149
 42
2.510853251875681
  0
ARC
  5
30F
330
1F
100
AcDbEntity
  8
0
  6
Continuous
 62
     7
370
    25
100
AcDbCircle
 10
169.2798258683
 20
138.5115498809
 30
0.0
 40
7.999999999999989
100
AcDbArc
 50
21.1234840263
 51
158.8765159737
  0
LINE
  5
310
330
1F
100
AcDbEntity
  8
0
  6
Continuous
 62
     7
370
    25
100
AcDbLine
 10
174.3722768009
 20
141.5403960347
 30
0.0
 11
174.4894440989
 21
141.5403960347
 31
0.0
  0
LINE
  5
311
330
1F
100
AcDbEntity
  8
0
  6
Continuous
 62
     7
370
    25
100
AcDbLine
 10
164.0702076377
 20
141.5403960347
 30
0.0
 11
164.1873749358
 21
141.5403960347
 31
0.0
  0
LINE
  5
312
330
1F
100
AcDbEntity
  8
0
  6
Continuous
 62
     7
370
    25
100
AcDbLine
 10
174.4894440989
 20
135.482703727
 30
0.0
 11
174.3722768009
 21
135.482703727
 31
0.0
  0
LINE
  5
313
330
1F
100
AcDbEntity
  8
0
  6
Continuous
 62
     7
370
    25
100
AcDbLine
 10
164.1873749358
 20
135.482703727
 30
0.0
 11
164.0702076377
 21
135.482703727
 31
0.0
  0
ARC
  5
314
330
1F
100
AcDbEntity
  8
0
  6
Continuous
 62
     7
370
    25
100
AcDbCircle
 10
169.2798258683
 20
138.5115498809
 30
0.0
 40
7.999999999999987
100
AcDbArc
 50
201.1234840263
 51
338.8765159737
  0
LWPOLYLINE
  5
315
330
1F
100
AcDbEntity
  8
0
  6
Continuous
 62
     7
370
    25
100
AcDbPolyline
 90
        9
 70
   128
 43
0.0
 10
186.5373968449
 20
141.3634448561
 10
186.5380898086
 20
141.4682315593
 10
186.5292996455
 20
141.5683488964
 10
186.5114180514
 20
141.6593355713
 10
186.4852418419
 20
141.7371371565
 10
186.4519374468
 20
141.798286761
 10
186.4129889322
 20
141.840059517
 10
186.3701318703
 20
141.8605940025
 10
186.3565381722
 20
141.8624663759
  0
SPLINE
  5
316
330
1F
100
AcDbEntity
  8
0
  6
Continuous
 62
     7
370
    25
100
AcDbSpline
210
0.0
220
0.0
230
1.0
 70
     8
 71
     3
 72
    17
 73
    13
 74
     0
 42
0.00000001
 43
0.00000001
 40
0.0
 40
0.0
 40
0.0
 40
0.0
 40
0.0054756366650065
 40
0.0359995574429691
 40
0.0549742283615283
 40
0.0840330208131631
 40
0.1287545503919846
 40
0.1984185378050573
 40
0.3104973970970493
 40
0.6624732386846867
 40
0.8964898931148341
 40
1.0
 40
1.0
 40
1.0
 40
1.0
 10
183.779825868334
 20
140.867914525286
 30
0.0
 10
183.7843396852917
 20
140.8705205789218
 30
0.0
 10
183.8140157618465
 20
140.8876540710253
 30
0.0
 10
183.8593346723607
 20
140.9138153041708
 30
0.0
 10
183.9240829723152
 20
140.9511460160381
 30
0.0
 10
184.0005186857335
 20
140.9951323254722
 30
0.0
 10
184.1186679257721
 20
141.0628333850044
 30
0.0
 10
184.3049960248563
 20
141.1684247725497
 30
0.0
 10
184.7427841392519
 20
141.4106399299221
 30
0.0
 10
185.3098452537764
 20
141.6828150662771
 30
0.0
 10
185.8508682900359
 20
141.8583912675312
 30
0.0
 10
186.0928399158422
 20
141.8556867678155
 30
0.0
 10
186.1670459099174
 20
141.854857372678
 30
0.0
  0
LWPOLYLINE
  5
317
330
1F
100
AcDbEntity
  8
0
  6
Continuous
 62
     7
370
    25
100
AcDbPolyline
 90
        9
 70
   128
 43
0.0
 10
181.0222548918
 20
141.3634448561
 10
181.0215619281
 20
141.4682315593
 10
181.0303520911
 20
141.5683488964
 10
181.0482336853
 20
141.6593355713
 10
181.0744098948
 20
141.7371371565
 10
181.1077142899
 20
141.798286761
 10
181.1466628045
 20
141.840059517
 10
181.1895198664
 20
141.8605940025
 10
181.202957948
 20
141.8624567896
  0
SPLINE
  5
318
330
1F
100
AcDbEntity
  8
0
  6
Continuous
 62
     7
370
    25
100
AcDbSpline
210
0.0
220
0.0
230
1.0
 70
     8
 71
     3
 72
    17
 73
    13
 74
     0
 42
0.00000001
 43
0.00000001
 40
0.0
 40
0.0
 40
0.0
 40
0.0
 40
0.1036342429462504
 40
0.3376184933237347
 40
0.6895455971677481
 40
0.8016089370119134
 40
0.8712632781221517
 40
0.9159786151553904
 40
0.945033383865026
 40
0.9640054273798337
 40
0.9945251215409395
 40
1.0
 40
1.0
 40
1.0
 40
1.0
 10
181.3923051039994
 20
141.8548651987521
 30
0.0
 10
181.4666097391197
 20
141.8556981866186
 30
0.0
 10
181.7086785596473
 20
141.8584118852999
 30
0.0
 10
182.2498043659286
 20
141.6828232720443
 30
0.0
 10
182.8168677930411
 20
141.4106391716409
 30
0.0
 10
183.2546556956239
 20
141.1684248352971
 30
0.0
 10
183.4409838130253
 20
141.0628333767507
 30
0.0
 10
183.5591330506462
 20
140.9951323265899
 30
0.0
 10
183.6355687643911
 20
140.9511460158899
 30
0.0
 10
183.7003170642926
 20
140.9138153042278
 30
0.0
 10
183.7456359748221
 20
140.8876540710229
 30
0.0
 10
183.7753120513764
 20
140.8705205789215
 30
0.0
 10
183.779825868334
 20
140.867914525286
 30
0.0
  0
LWPOLYLINE
  5
319
330
1F
100
AcDbEntity
  8
0
  6
Continuous
 62
     7
370
    25
100
AcDbPolyline
 90
        9
 70
   128
 43
0.0
 10
157.3564158661
 20
141.8624737197
 10
157.3701318703
 20
141.8605940025
 10
157.4129889322
 20
141.840059517
 10
157.4519374468
 20
141.798286761
 10
157.4852418419
 20
141.7371371565
 10
157.5114180514
 20
141.6593355713
 10
157.5292996455
 20
141.5683488964
 10
157.5380898086
 20
141.4682315593
 10
157.5373968449
 20
141.3634448561
  0
SPLINE
  5
31A
330
1F
100
AcDbEntity
  8
0
  6
Continuous
 62
     7
370
    25
100
AcDbSpline
210
0.0
220
0.0
230
1.0
 70
     8
 71
     3
 72
    17
 73
    13
 74
     0
 42
0.00000001
 43
0.00000001
 40
0.0
 40
0.0
 40
0.0
 40
0.0
 40
0.0054756366650061
 40
0.035999557443011
 40
0.0549742283615154
 40
0.0840330208131663
 40
0.1287545503919944
 40
0.1984185378050543
 40
0.3104973970970531
 40
0.6624732386846821
 40
0.8964898931148312
 40
1.0
 40
1.0
 40
1.0
 40
1.0
 10
154.779825868334
 20
140.867914525286
 30
0.0
 10
154.7843396852917
 20
140.8705205789218
 30
0.0
 10
154.8140157618465
 20
140.8876540710253
 30
0.0
 10
154.8593346723606
 20
140.9138153041709
 30
0.0
 10
154.9240829723152
 20
140.9511460160382
 30
0.0
 10
155.0005186857335
 20
140.9951323254722
 30
0.0
 10
155.1186679257721
 20
141.0628333850044
 30
0.0
 10
155.3049960248563
 20
141.1684247725497
 30
0.0
 10
155.7427841392519
 20
141.4106399299221
 30
0.0
 10
156.3098452537764
 20
141.6828150662771
 30
0.0
 10
156.8508682900359
 20
141.8583912675312
 30
0.0
 10
157.0928399158422
 20
141.8556867678155
 30
0.0
 10
157.1670459099174
 20
141.854857372678
 30
0.0
  0
ELLIPSE
  5
31B
330
1F
100
AcDbEntity
  8
0
  6
Continuous
 62
     7
370
    25
100
AcDbEllipse
 10
154.7798258683
 20
136.3910598663
 30
0.0
 11
6.5
 21
0.0
 31
0.0
210
0.0
220
0.0
230
1.0
 40
0.124260355
 41
3.141592653589792
 42
4.274264664245598
  0
ELLIPSE
  5
31C
330
1F
100
AcDbEntity
  8
0
  6
Continuous
 62
     7
370
    25
100
AcDbEllipse
 10
154.7798258683
 20
140.6320398954
 30
0.0
 11
6.5
 21
0.0
 31
0.0
210
0.0
220
0.0
230
1.0
 40
0.124260355
 41
2.008920642933993
 42
3.141592653589792
  0
ELLIPSE
  5
31D
330
1F
100
AcDbEntity
  8
0
  6
Continuous
 62
     7
370
    25
100
AcDbEllipse
 10
183.7798258683
 20
136.3910598663
 30
0.0
 11
6.499999999999972
 21
0.0
 31
0.0
210
0.0
220
0.0
230
1.0
 40
0.124260355
 41
5.150513296523827
 42
6.283185307179586
  0
ELLIPSE
  5
31E
330
1F
100
AcDbEntity
  8
0
  6
Continuous
 62
     7
370
    25
100
AcDbEllipse
 10
183.7798258683
 20
140.6320398954
 30
0.0
 11
6.499999999999972
 21
0.0
 31
0.0
210
0.0
220
0.0
230
1.0
 40
0.124260355
 41
0.0
 42
1.132672010655799
  0
LWPOLYLINE
  5
31F
330
1F
100
AcDbEntity
  8
0
  6
Continuous
 62
     7
370
    25
100
AcDbPolyline
 90
        9
 70
   128
 43
0.0
 10
152.0222548918
 20
141.3634448561
 10
152.0215619281
 20
141.4682315593
 10
152.0303520911
 20
141.5683488964
 10
152.0482336853
 20
141.6593355713
 10
152.0744098948
 20
141.7371371565
 10
152.1077142899
 20
141.798286761
 10
152.1466628045
 20
141.840059517
 10
152.1895198664
 20
141.8605940025
 10
152.202957948
 20
141.8624567896
  0
SPLINE
  5
320
330
1F
100
AcDbEntity
  8
0
  6
Continuous
 62
     7
370
    25
100
AcDbSpline
210
0.0
220
0.0
230
1.0
 70
     8
 71
     3
 72
    17
 73
    13
 74
     0
 42
0.00000001
 43
0.00000001
 40
0.0
 40
0.0
 40
0.0
 40
0.0
 40
0.1036342429462493
 40
0.3376184933237324
 40
0.689545597167747
 40
0.8016089370119118
 40
0.8712632781221604
 40
0.9159786151554025
 40
0.9450333838650388
 40
0.9640054273798505
 40
0.9945251215409397
 40
1.0
 40
1.0
 40
1.0
 40
1.0
 10
152.3923051039994
 20
141.8548651987521
 30
0.0
 10
152.4666097391196
 20
141.8556981866186
 30
0.0
 10
152.7086785596473
 20
141.8584118852999
 30
0.0
 10
153.2498043659286
 20
141.6828232720443
 30
0.0
 10
153.8168677930411
 20
141.4106391716409
 30
0.0
 10
154.2546556956239
 20
141.1684248352971
 30
0.0
 10
154.4409838130253
 20
141.0628333767507
 30
0.0
 10
154.5591330506462
 20
140.9951323265898
 30
0.0
 10
154.6355687643911
 20
140.9511460158899
 30
0.0
 10
154.7003170642927
 20
140.9138153042279
 30
0.0
 10
154.7456359748221
 20
140.8876540710229
 30
0.0
 10
154.7753120513763
 20
140.8705205789215
 30
0.0
 10
154.779825868334
 20
140.867914525286
 30
0.0
  0
LWPOLYLINE
  5
321
330
1F
100
AcDbEntity
  8
0
  6
Continuous
 62
     7
370
    25
100
AcDbPolyline
 90
        9
 70
   128
 43
0.0
 10
186.5373968449
 20
135.6596549056
 10
186.5380898086
 20
135.5548682024
 10
186.5292996455
 20
135.4547508653
 10
186.5114180514
 20
135.3637641904
 10
186.4852418419
 20
135.2859626052
 10
186.4519374468
 20
135.2248130007
 10
186.4129889322
 20
135.1830402447
 10
186.3701318703
 20
135.1625057592
 10
186.3566937886
 20
135.1606429721
  0
SPLINE
  5
322
330
1F
100
AcDbEntity
  8
0
  6
Continuous
 62
     7
370
    25
100
AcDbSpline
210
0.0
220
0.0
230
1.0
 70
     8
 71
     3
 72
    17
 73
    13
 74
     0
 42
0.00000001
 43
0.00000001
 40
0.0
 40
0.0
 40
0.0
 40
0.0
 40
0.103634242946257
 40
0.3376184933237388
 40
0.6895455971677502
 40
0.8016089370119135
 40
0.871263278122143
 40
0.9159786151553967
 40
0.9450333838650344
 40
0.9640054273798254
 40
0.9945251215409258
 40
1.0
 40
1.0
 40
1.0
 40
1.0
 10
186.1673466326687
 20
135.1682345629499
 30
0.0
 10
186.0930419975484
 20
135.1674015750835
 30
0.0
 10
185.8509731770208
 20
135.1646878764021
 30
0.0
 10
185.3098473707394
 20
135.3402764896578
 30
0.0
 10
184.742783943627
 20
135.6124605900611
 30
0.0
 10
184.3049960410442
 20
135.8546749264049
 30
0.0
 10
184.1186679236428
 20
135.9602663849513
 30
0.0
 10
184.0005186860219
 20
136.0279674351123
 30
0.0
 10
183.924082972277
 20
136.0719537458121
 30
0.0
 10
183.8593346723754
 20
136.1092844574742
 30
0.0
 10
183.814015761846
 20
136.1354456906793
 30
0.0
 10
183.7843396852917
 20
136.1525791827806
 30
0.0
 10
183.779825868334
 20
136.155185236416
 30
0.0
  0
LWPOLYLINE
  5
323
330
1F
100
AcDbEntity
  8
0
  6
Continuous
 62
     7
370
    25
100
AcDbPolyline
 90
        9
 70
   128
 43
0.0
 10
152.2032358706
 20
135.160626042
 10
152.1895198664
 20
135.1625057592
 10
152.1466628045
 20
135.1830402447
 10
152.1077142899
 20
135.2248130007
 10
152.0744098948
 20
135.2859626052
 10
152.0482336853
 20
135.3637641904
 10
152.0303520911
 20
135.4547508653
 10
152.0215619281
 20
135.5548682024
 10
152.0222548918
 20
135.6596549056
  0
SPLINE
  5
324
330
1F
100
AcDbEntity
  8
0
  6
Continuous
 62
     7
370
    25
100
AcDbSpline
210
0.0
220
0.0
230
1.0
 70
     8
 71
     3
 72
    17
 73
    13
 74
     0
 42
0.00000001
 43
0.00000001
 40
0.0
 40
0.0
 40
0.0
 40
0.0
 40
0.0054756366650205
 40
0.0359995574429714
 40
0.0549742283614989
 40
0.0840330208131657
 40
0.1287545503919812
 40
0.1984185378050485
 40
0.3104973970970499
 40
0.6624732386846872
 40
0.8964898931148362
 40
1.0
 40
1.0
 40
1.0
 40
1.0
 10
154.779825868334
 20
136.155185236416
 30
0.0
 10
154.7753120513763
 20
136.1525791827802
 30
0.0
 10
154.7456359748217
 20
136.1354456906764
 30
0.0
 10
154.7003170643074
 20
136.1092844575313
 30
0.0
 10
154.6355687643529
 20
136.0719537456638
 30
0.0
 10
154.5591330509345
 20
136.02796743623
 30
0.0
 10
154.4409838108959
 20
135.9602663766976
 30
0.0
 10
154.2546557118118
 20
135.8546749891524
 30
0.0
 10
153.8168675974161
 20
135.61245983178
 30
0.0
 10
153.2498064828917
 20
135.3402846954249
 30
0.0
 10
152.7087834466321
 20
135.1647084941708
 30
0.0
 10
152.4668118208258
 20
135.1674129938865
 30
0.0
 10
152.3926058267506
 20
135.1682423890241
 30
0.0
  0
LWPOLYLINE
  5
325
330
1F
100
AcDbEntity
  8
0
  6
Continuous
 62
     7
370
    25
100
AcDbPolyline
 90
        9
 70
   128
 43
0.0
 10
181.2032358706
 20
135.160626042
 10
181.1895198664
 20
135.1625057592
 10
181.1466628045
 20
135.1830402447
 10
181.1077142899
 20
135.2248130007
 10
181.0744098948
 20
135.2859626052
 10
181.0482336853
 20
135.3637641904
 10
181.0303520911
 20
135.4547508653
 10
181.0215619281
 20
135.5548682024
 10
181.0222548918
 20
135.6596549056
  0
SPLINE
  5
326
330
1F
100
AcDbEntity
  8
0
  6
Continuous
 62
     7
370
    25
100
AcDbSpline
210
0.0
220
0.0
230
1.0
 70
     8
 71
     3
 72
    17
 73
    13
 74
     0
 42
0.00000001
 43
0.00000001
 40
0.0
 40
0.0
 40
0.0
 40
0.0
 40
0.0054756366650207
 40
0.0359995574430272
 40
0.0549742283615141
 40
0.0840330208131661
 40
0.1287545503919953
 40
0.1984185378050578
 40
0.3104973970970497
 40
0.6624732386846878
 40
0.8964898931148367
 40
1.0
 40
1.0
 40
1.0
 40
1.0
 10
183.779825868334
 20
136.155185236416
 30
0.0
 10
183.7753120513763
 20
136.1525791827802
 30
0.0
 10
183.7456359748217
 20
136.1354456906763
 30
0.0
 10
183.7003170643073
 20
136.1092844575312
 30
0.0
 10
183.6355687643528
 20
136.0719537456638
 30
0.0
 10
183.5591330509345
 20
136.0279674362299
 30
0.0
 10
183.4409838108959
 20
135.9602663766976
 30
0.0
 10
183.2546557118118
 20
135.8546749891524
 30
0.0
 10
182.8168675974161
 20
135.6124598317799
 30
0.0
 10
182.2498064828917
 20
135.3402846954249
 30
0.0
 10
181.7087834466321
 20
135.1647084941708
 30
0.0
 10
181.4668118208258
 20
135.1674129938865
 30
0.0
 10
181.3926058267506
 20
135.1682423890241
 30
0.0
  0
SPLINE
  5
327
330
1F
100
AcDbEntity
  8
0
  6
Continuous
 62
     7
370
    25
100
AcDbSpline
210
0.0
220
0.0
230
1.0
 70
     8
 71
     3
 72
    17
 73
    13
 74
     0
 42
0.00000001
 43
0.00000001
 40
0.0
 40
0.0
 40
0.0
 40
0.0
 40
0.1036342429462558
 40
0.3376184933237387
 40
0.6895455971677498
 40
0.8016089370119243
 40
0.8712632781221573
 40
0.9159786151553926
 40
0.9450333838650249
 40
0.9640054273797791
 40
0.9945251215409259
 40
0.9999999999999999
 40
0.9999999999999999
 40
0.9999999999999999
 40
0.9999999999999999
 10
157.1673466326687
 20
135.1682345629499
 30
0.0
 10
157.0930419975484
 20
135.1674015750835
 30
0.0
 10
156.8509731770208
 20
135.1646878764021
 30
0.0
 10
156.3098473707394
 20
135.3402764896578
 30
0.0
 10
155.7427839436269
 20
135.6124605900612
 30
0.0
 10
155.3049960410442
 20
135.8546749264049
 30
0.0
 10
155.1186679236428
 20
135.9602663849513
 30
0.0
 10
155.0005186860219
 20
136.0279674351123
 30
0.0
 10
154.924082972277
 20
136.071953745812
 30
0.0
 10
154.8593346723754
 20
136.1092844574742
 30
0.0
 10
154.8140157618457
 20
136.1354456906788
 30
0.0
 10
154.7843396852917
 20
136.1525791827805
 30
0.0
 10
154.779825868334
 20
136.155185236416
 30
0.0
  0
LWPOLYLINE
  5
328
330
1F
100
AcDbEntity
  8
0
  6
Continuous
 62
     7
370
    25
100
AcDbPolyline
 90
        9
 70
   128
 43
0.0
 10
157.3563848633
 20
135.1606242071
 10
157.3701318703
 20
135.1625057592
 10
157.4129889322
 20
135.1830402447
 10
157.4519374468
 20
135.2248130007
 10
157.4852418419
 20
135.2859626052
 10
157.5114180514
 20
135.3637641904
 10
157.5292996455
 20
135.4547508653
 10
157.5380898086
 20
135.5548682024
 10
157.5373968449
 20
135.6596549056
  0
ARC
  5
329
330
1F
100
AcDbEntity
  8
0
  6
Continuous
 62
     7
370
    25
100
AcDbCircle
 10
178.7048648788
 20
141.1116769315
 30
0.0
 40
0.4538747314144715
100
AcDbArc
 50
106.8903149212
 51
186.8679232636
  0
ARC
  5
32A
330
1F
100
AcDbEntity
  8
0
  6
Continuous
 62
     7
370
    25
100
AcDbCircle
 10
159.8670719655
 20
141.1196866842
 30
0.0
 40
0.4427358444598574
100
AcDbArc
 50
351.912740178
 51
74.3423737986
  0
ARC
  5
32B
330
1F
100
AcDbEntity
  8
0
  6
Continuous
 62
     7
370
    25
100
AcDbCircle
 10
159.8547868579
 20
135.9114228302
 30
0.0
 40
0.4538747314144526
100
AcDbArc
 50
286.8903149212
 51
6.8679232636
  0
ARC
  5
32C
330
1F
100
AcDbEntity
  8
0
  6
Continuous
 62
     7
370
    25
100
AcDbCircle
 10
178.6925797712
 20
135.9034130775
 30
0.0
 40
0.4427358444599505
100
AcDbArc
 50
171.912740178
 51
254.3423737986
  0
INSERT
  5
338
330
1F
100
AcDbEntity
  8
0
  6
Continuous
 62
     7
370
    18
100
AcDbBlockReference
  2
SW_CENTERMARKSYMBOL_1
 10
169.2798258683
 20
138.5115498809
 30
0.0
  0
ENDSEC
  0
SECTION
  2
OBJECTS
  0
DICTIONARY
  5
C
330
0
100
AcDbDictionary
281
     1
  3
ACAD_GROUP
350
D
  3
ACAD_LAYOUT
350
1A
  3
ACAD_MLINESTYLE
350
17
  3
ACAD_PLOTSETTINGS
350
19
  3
ACAD_PLOTSTYLENAME
350
E
  3
ACAD_SCALELIST
350
47
  3
DWGPROPS
350
339
  0
DICTIONARY
  5
D
102
{ACAD_REACTORS
330
C
102
}
330
C
100
AcDbDictionary
281
     1
  0
DICTIONARY
  5
1A
102
{ACAD_REACTORS
330
C
102
}
330
C
100
AcDbDictionary
281
     1
  3
Layout1
350
1E
  3
Layout2
350
26
  3
Model
350
22
  0
DICTIONARY
  5
17
102
{ACAD_REACTORS
330
C
102
}
330
C
100
AcDbDictionary
281
     1
  3
Standard
350
18
  0
DICTIONARY
  5
19
102
{ACAD_REACTORS
330
C
102
}
330
C
100
AcDbDictionary
281
     1
  0
ACDBDICTIONARYWDFLT
  5
E
102
{ACAD_REACTORS
330
C
102
}
330
C
100
AcDbDictionary
281
     1
  3
Normal
350
F
100
AcDbDictionaryWithDefault
340
F
  0
DICTIONARY
  5
47
102
{ACAD_REACTORS
330
C
102
}
330
C
100
AcDbDictionary
281
     1
  3
A0
350
48
  3
A1
350
49
  3
A2
350
4A
  3
A3
350
4B
  3
A4
350
4C
  3
A5
350
4D
  3
A6
350
4E
  3
A7
350
4F
  3
A8
350
50
  3
A9
350
51
  3
B0
350
52
  3
B1
350
53
  3
B2
350
54
  3
B3
350
55
  3
B4
350
56
  3
B5
350
57
  3
B6
350
58
  0
XRECORD
  5
339
102
{ACAD_REACTORS
330
C
102
}
330
C
100
AcDbXrecord
280
     1
  1
DWGPROPS COOKIE
  2

  3

  4

  6

  7

  8
user28
  9

300
=
301
=
302
=
303
=
304
=
305
=
306
=
307
=
308
=
309
=
 40
0.0
 41
2460276.267478773
 42
2460276.267479722
  1

 90
        0
  0
LAYOUT
  5
1E
102
{ACAD_REACTORS
330
1A
102
}
330
1A
100
AcDbPlotSettings
  1

  2
none_device
  4

  6

 40
0.0
 41
0.0
 42
0.0
 43
0.0
 44
0.0
 45
0.0
 46
0.0
 47
0.0
 48
0.0
 49
0.0
140
0.0
141
0.0
142
1.0
143
1.0
 70
   688
 72
     1
 73
     0
 74
     5
  7

 75
    16
147
1.0
148
0.0
149
0.0
100
AcDbLayout
  1
Layout1
 70
     1
 71
     1
 10
0.0
 20
0.0
 11
420.0
 21
297.0
 12
0.0
 22
0.0
 32
0.0
 14
1.0000000000E+20
 24
1.0000000000E+20
 34
1.0000000000E+20
 15
-1.0000000000E+20
 25
-1.0000000000E+20
 35
-1.0000000000E+20
146
0.0
 13
0.0
 23
0.0
 33
0.0
 16
1.0
 26
0.0
 36
0.0
 17
0.0
 27
1.0
 37
0.0
 76
     0
330
1B
  0
LAYOUT
  5
26
102
{ACAD_REACTORS
330
1A
102
}
330
1A
100
AcDbPlotSettings
  1

  2
none_device
  4

  6

 40
0.0
 41
0.0
 42
0.0
 43
0.0
 44
0.0
 45
0.0
 46
0.0
 47
0.0
 48
0.0
 49
0.0
140
0.0
141
0.0
142
1.0
143
1.0
 70
   688
 72
     1
 73
     0
 74
     5
  7

 75
    16
147
1.0
148
0.0
149
0.0
100
AcDbLayout
  1
Layout2
 70
     1
 71
     2
 10
0.0
 20
0.0
 11
0.0
 21
0.0
 12
0.0
 22
0.0
 32
0.0
 14
0.0
 24
0.0
 34
0.0
 15
0.0
 25
0.0
 35
0.0
146
0.0
 13
0.0
 23
0.0
 33
0.0
 16
1.0
 26
0.0
 36
0.0
 17
0.0
 27
1.0
 37
0.0
 76
     0
330
23
  0
LAYOUT
  5
22
102
{ACAD_REACTORS
330
1A
102
}
330
1A
100
AcDbPlotSettings
  1

  2
none_device
  4
Letter_(8.50_x_11.00_Inches)
  6

 40
6.35
 41
6.35
 42
6.35000508
 43
6.35000508
 44
215.9
 45
279.4
 46
0.0
 47
0.0
 48
0.0
 49
0.0
140
0.0
141
0.0
142
1.0
143
1.0
 70
  1712
 72
     1
 73
     0
 74
     0
  7

 75
     0
147
1.0
148
0.0
149
0.0
100
AcDbLayout
  1
Model
 70
     1
 71
     0
 10
0.0
 20
0.0
 11
431.8
 21
279.4
 12
0.0
 22
0.0
 32
0.0
 14
0.0
 24
0.0
 34
0.0
 15
431.8
 25
279.4
 35
0.0
146
0.0
 13
0.0
 23
0.0
 33
0.0
 16
1.0
 26
0.0
 36
0.0
 17
0.0
 27
1.0
 37
0.0
 76
     0
330
1F
331
29
  0
MLINESTYLE
  5
18
102
{ACAD_REACTORS
330
17
102
}
330
17
100
AcDbMlineStyle
  2
Standard
 70
     0
  3

 62
   256
 51
90.0
 52
90.0
 71
     2
 49
0.5
 62
   256
  6
BYLAYER
 49
-0.5
 62
   256
  6
BYLAYER
  0
ACDBPLACEHOLDER
  5
F
102
{ACAD_REACTORS
330
E
102
}
330
E
  0
SCALE
  5
48
102
{ACAD_REACTORS
330
47
102
}
330
47
100
AcDbScale
 70
     0
300
1:1
140
1.0
141
1.0
290
     1
  0
SCALE
  5
49
102
{ACAD_REACTORS
330
47
102
}
330
47
100
AcDbScale
 70
     0
300
1:2
140
1.0
141
2.0
290
     0
  0
SCALE
  5
4A
102
{ACAD_REACTORS
330
47
102
}
330
47
100
AcDbScale
 70
     0
300
1:4
140
1.0
141
4.0
290
     0
  0
SCALE
  5
4B
102
{ACAD_REACTORS
330
47
102
}
330
47
100
AcDbScale
 70
     0
300
1:5
140
1.0
141
5.0
290
     0
  0
SCALE
  5
4C
102
{ACAD_REACTORS
330
47
102
}
330
47
100
AcDbScale
 70
     0
300
1:8
140
1.0
141
8.0
290
     0
  0
SCALE
  5
4D
102
{ACAD_REACTORS
330
47
102
}
330
47
100
AcDbScale
 70
     0
300
1:10
140
1.0
141
10.0
290
     0
  0
SCALE
  5
4E
102
{ACAD_REACTORS
330
47
102
}
330
47
100
AcDbScale
 70
     0
300
1:16
140
1.0
141
16.0
290
     0
  0
SCALE
  5
4F
102
{ACAD_REACTORS
330
47
102
}
330
47
100
AcDbScale
 70
     0
300
1:20
140
1.0
141
20.0
290
     0
  0
SCALE
  5
50
102
{ACAD_REACTORS
330
47
102
}
330
47
100
AcDbScale
 70
     0
300
1:30
140
1.0
141
30.0
290
     0
  0
SCALE
  5
51
102
{ACAD_REACTORS
330
47
102
}
330
47
100
AcDbScale
 70
     0
300
1:40
140
1.0
141
40.0
290
     0
  0
SCALE
  5
52
102
{ACAD_REACTORS
330
47
102
}
330
47
100
AcDbScale
 70
     0
300
1:50
140
1.0
141
50.0
290
     0
  0
SCALE
  5
53
102
{ACAD_REACTORS
330
47
102
}
330
47
100
AcDbScale
 70
     0
300
1:100
140
1.0
141
100.0
290
     0
  0
SCALE
  5
54
102
{ACAD_REACTORS
330
47
102
}
330
47
100
AcDbScale
 70
     0
300
2:1
140
2.0
141
1.0
290
     0
  0
SCALE
  5
55
102
{ACAD_REACTORS
330
47
102
}
330
47
100
AcDbScale
 70
     0
300
4:1
140
4.0
141
1.0
290
     0
  0
SCALE
  5
56
102
{ACAD_REACTORS
330
47
102
}
330
47
100
AcDbScale
 70
     0
300
8:1
140
8.0
141
1.0
290
     0
  0
SCALE
  5
57
102
{ACAD_REACTORS
330
47
102
}
330
47
100
AcDbScale
 70
     0
300
10:1
140
10.0
141
1.0
290
     0
  0
SCALE
  5
58
102
{ACAD_REACTORS
330
47
102
}
330
47
100
AcDbScale
 70
     0
300
100:1
140
100.0
141
1.0
290
     0
  0
ENDSEC
  0
EOF
