  0
SECTION
  2
HEADER
  9
$ACADVER
  1
AC1015
  9
$ACADMAINTVER
 70
     6
  9
$DWGCODEPAGE
  3
DOS932
  9
$INSBASE
 10
0.0
 20
0.0
 30
0.0
  9
$EXTMIN
 10
0.0
 20
0.0
 30
0.0
  9
$EXTMAX
 10
431.8
 20
279.4
 30
0.0
  9
$LIMMIN
 10
0.0
 20
0.0
  9
$LIMMAX
 10
431.8
 20
279.4
  9
$ORTHOMODE
 70
     0
  9
$REGENMODE
 70
     1
  9
$FILLMODE
 70
     1
  9
$QTEXTMODE
 70
     0
  9
$MIRRTEXT
 70
     1
  9
$LTSCALE
 40
1.0
  9
$ATTMODE
 70
     1
  9
$TEXTSIZE
 40
3.5
  9
$TRACEWID
 40
1.0
  9
$TEXTSTYLE
  7
Standard
  9
$CLAYER
  8
0
  9
$CELTYPE
  6
ByLayer
  9
$CECOLOR
 62
   256
  9
$CELTSCALE
 40
1.0
  9
$DISPSILH
 70
     0
  9
$DIMSCALE
 40
1.0
  9
$DIMASZ
 40
3.556
  9
$DIMEXO
 40
1.0
  9
$DIMDLI
 40
3.75
  9
$DIMRND
 40
0.0
  9
$DIMDLE
 40
0.0
  9
$DIMEXE
 40
1.0
  9
$DIMTP
 40
0.0
  9
$DIMTM
 40
0.0
  9
$DIMTXT
 40
3.5
  9
$DIMCEN
 40
2.5
  9
$DIMTSZ
 40
0.0
  9
$DIMTOL
 70
     0
  9
$DIMLIM
 70
     0
  9
$DIMTIH
 70
     1
  9
$DIMTOH
 70
     1
  9
$DIMSE1
 70
     0
  9
$DIMSE2
 70
     0
  9
$DIMTAD
 70
     1
  9
$DIMZIN
 70
     0
  9
$DIMBLK
  1

  9
$DIMASO
 70
     1
  9
$DIMSHO
 70
     1
  9
$DIMPOST
  1

  9
$DIMAPOST
  1

  9
$DIMALT
 70
     0
  9
$DIMALTD
 70
     3
  9
$DIMALTF
 40
0.0393700787
  9
$DIMLFAC
 40
1.0
  9
$DIMTOFL
 70
     1
  9
$DIMTVP
 40
0.0
  9
$DIMTIX
 70
     0
  9
$DIMSOXD
 70
     0
  9
$DIMSAH
 70
     0
  9
$DIMBLK1
  1

  9
$DIMBLK2
  1

  9
$DIMSTYLE
  2
ISO-25
  9
$DIMCLRD
 70
     0
  9
$DIMCLRE
 70
     0
  9
$DIMCLRT
 70
     0
  9
$DIMTFAC
 40
1.0
  9
$DIMGAP
 40
1.524
  9
$DIMJUST
 70
     0
  9
$DIMSD1
 70
     0
  9
$DIMSD2
 70
     0
  9
$DIMTOLJ
 70
     0
  9
$DIMTZIN
 70
     0
  9
$DIMALTZ
 70
     0
  9
$DIMALTTZ
 70
     0
  9
$DIMUPT
 70
     0
  9
$DIMDEC
 70
     3
  9
$DIMTDEC
 70
     3
  9
$DIMALTU
 70
     2
  9
$DIMALTTD
 70
     3
  9
$DIMTXSTY
  7
Standard
  9
$DIMAUNIT
 70
     0
  9
$DIMADEC
 70
     2
  9
$DIMALTRND
 40
0.0
  9
$DIMAZIN
 70
     0
  9
$DIMDSEP
 70
    44
  9
$DIMATFIT
 70
     3
  9
$DIMFRAC
 70
     0
  9
$DIMLDRBLK
  1

  9
$DIMLUNIT
 70
     2
  9
$DIMLWD
 70
    -2
  9
$DIMLWE
 70
    -2
  9
$DIMTMOVE
 70
     0
  9
$LUNITS
 70
     2
  9
$LUPREC
 70
     3
  9
$SKETCHINC
 40
1.0
  9
$FILLETRAD
 40
0.0
  9
$AUNITS
 70
     0
  9
$AUPREC
 70
     2
  9
$MENU
  1
.
  9
$ELEVATION
 40
0.0
  9
$PELEVATION
 40
0.0
  9
$THICKNESS
 40
0.0
  9
$LIMCHECK
 70
     0
  9
$CHAMFERA
 40
0.0
  9
$CHAMFERB
 40
0.0
  9
$CHAMFERC
 40
0.0
  9
$CHAMFERD
 40
0.0
  9
$SKPOLY
 70
     0
  9
$TDCREATE
 40
2460276.641002951
  9
$TDUCREATE
 40
2460276.266002951
  9
$TDUPDATE
 40
2460276.641003854
  9
$TDUUPDATE
 40
2460276.266003854
  9
$TDINDWG
 40
0.0000000116
  9
$TDUSRTIMER
 40
0.0000000116
  9
$USRTIMER
 70
     1
  9
$ANGBASE
 50
0.0
  9
$ANGDIR
 70
     0
  9
$PDMODE
 70
     0
  9
$PDSIZE
 40
-1.0
  9
$PLINEWID
 40
0.0
  9
$SPLFRAME
 70
     0
  9
$SPLINETYPE
 70
     6
  9
$SPLINESEGS
 70
     8
  9
$HANDSEED
  5
321
  9
$SURFTAB1
 70
     6
  9
$SURFTAB2
 70
     6
  9
$SURFTYPE
 70
     6
  9
$SURFU
 70
     6
  9
$SURFV
 70
     6
  9
$UCSBASE
  2

  9
$UCSNAME
  2

  9
$UCSORG
 10
0.0
 20
0.0
 30
0.0
  9
$UCSXDIR
 10
1.0
 20
0.0
 30
0.0
  9
$UCSYDIR
 10
0.0
 20
1.0
 30
0.0
  9
$UCSORTHOREF
  2

  9
$UCSORTHOVIEW
 70
     0
  9
$UCSORGTOP
 10
0.0
 20
0.0
 30
0.0
  9
$UCSORGBOTTOM
 10
0.0
 20
0.0
 30
0.0
  9
$UCSORGLEFT
 10
0.0
 20
0.0
 30
0.0
  9
$UCSORGRIGHT
 10
0.0
 20
0.0
 30
0.0
  9
$UCSORGFRONT
 10
0.0
 20
0.0
 30
0.0
  9
$UCSORGBACK
 10
0.0
 20
0.0
 30
0.0
  9
$PUCSBASE
  2

  9
$PUCSNAME
  2

  9
$PUCSORG
 10
0.0
 20
0.0
 30
0.0
  9
$PUCSXDIR
 10
1.0
 20
0.0
 30
0.0
  9
$PUCSYDIR
 10
0.0
 20
1.0
 30
0.0
  9
$PUCSORTHOREF
  2

  9
$PUCSORTHOVIEW
 70
     0
  9
$PUCSORGTOP
 10
0.0
 20
0.0
 30
0.0
  9
$PUCSORGBOTTOM
 10
0.0
 20
0.0
 30
0.0
  9
$PUCSORGLEFT
 10
0.0
 20
0.0
 30
0.0
  9
$PUCSORGRIGHT
 10
0.0
 20
0.0
 30
0.0
  9
$PUCSORGFRONT
 10
0.0
 20
0.0
 30
0.0
  9
$PUCSORGBACK
 10
0.0
 20
0.0
 30
0.0
  9
$USERI1
 70
     0
  9
$USERI2
 70
     0
  9
$USERI3
 70
     0
  9
$USERI4
 70
     0
  9
$USERI5
 70
     0
  9
$USERR1
 40
0.0
  9
$USERR2
 40
0.0
  9
$USERR3
 40
0.0
  9
$USERR4
 40
0.0
  9
$USERR5
 40
0.0
  9
$WORLDVIEW
 70
     1
  9
$SHADEDGE
 70
     3
  9
$SHADEDIF
 70
    70
  9
$TILEMODE
 70
     1
  9
$MAXACTVP
 70
    64
  9
$PINSBASE
 10
0.0
 20
0.0
 30
0.0
  9
$PLIMCHECK
 70
     0
  9
$PEXTMIN
 10
1.0000000000E+20
 20
1.0000000000E+20
 30
1.0000000000E+20
  9
$PEXTMAX
 10
-1.0000000000E+20
 20
-1.0000000000E+20
 30
-1.0000000000E+20
  9
$PLIMMIN
 10
0.0
 20
0.0
  9
$PLIMMAX
 10
420.0
 20
297.0
  9
$UNITMODE
 70
     0
  9
$VISRETAIN
 70
     1
  9
$PLINEGEN
 70
     0
  9
$PSLTSCALE
 70
     1
  9
$TREEDEPTH
 70
  3020
  9
$CMLSTYLE
  2
Standard
  9
$CMLJUST
 70
     0
  9
$CMLSCALE
 40
20.0
  9
$PROXYGRAPHICS
 70
     1
  9
$MEASUREMENT
 70
     1
  9
$CELWEIGHT
370
    -1
  9
$ENDCAPS
280
     0
  9
$JOINSTYLE
280
     0
  9
$LWDISPLAY
290
     1
  9
$INSUNITS
 70
     4
  9
$HYPERLINKBASE
  1

  9
$STYLESHEET
  1

  9
$XEDIT
290
     1
  9
$CEPSNTYPE
380
     0
  9
$PSTYLEMODE
290
     1
  9
$FINGERPRINTGUID
  2
{7a4d4dab-8c61-4ee0-b015-9dddec0885d1}
  9
$VERSIONGUID
  2
{FAEB1C32-E019-11D5-929B-00C0DF256EC4}
  9
$EXTNAMES
290
     1
  9
$PSVPSCALE
 40
0.0
  9
$OLESTARTUP
290
     0
  0
ENDSEC
  0
SECTION
  2
CLASSES
  0
CLASS
  1
ACDBDICTIONARYWDFLT
  2
AcDbDictionaryWithDefault
  3
ObjectDBX Classes
 90
        0
280
     0
281
     0
  0
CLASS
  1
VISUALSTYLE
  2
AcDbVisualStyle
  3
ObjectDBX Classes
 90
     4095
280
     0
281
     0
  0
CLASS
  1
MATERIAL
  2
AcDbMaterial
  3
ObjectDBX Classes
 90
     1153
280
     0
281
     0
  0
CLASS
  1
SCALE
  2
AcDbScale
  3
ObjectDBX Classes
 90
     1153
280
     0
281
     0
  0
CLASS
  1
TABLESTYLE
  2
AcDbTableStyle
  3
ObjectDBX Classes
 90
     4095
280
     0
281
     0
  0
CLASS
  1
MLEADERSTYLE
  2
AcDbMLeaderStyle
  3
ACDB_MLEADERSTYLE_CLASS
 90
     4095
280
     0
281
     0
  0
CLASS
  1
SUN
  2
AcDbSun
  3
SCENEOE
 90
     1153
280
     0
281
     0
  0
CLASS
  1
ACDBPLACEHOLDER
  2
AcDbPlaceHolder
  3
ObjectDBX Classes
 90
        0
280
     0
281
     0
  0
CLASS
  1
LAYOUT
  2
AcDbLayout
  3
ObjectDBX Classes
 90
        0
280
     0
281
     0
  0
ENDSEC
  0
SECTION
  2
TABLES
  0
TABLE
  2
VPORT
  5
8
330
0
100
AcDbSymbolTable
 70
     1
  0
VPORT
  5
29
330
8
100
AcDbSymbolTableRecord
100
AcDbViewportTableRecord
  2
*Active
 70
     0
 10
0.0
 20
0.0
 11
1.0
 21
1.0
 12
215.9
 22
139.7
 13
0.0
 23
0.0
 14
10.0
 24
10.0
 15
10.0
 25
10.0
 16
0.0
 26
0.0
 36
1.0
 17
0.0
 27
0.0
 37
0.0
 40
279.4
 41
1.5454545455
 42
50.0
 43
0.0
 44
0.0
 50
0.0
 51
0.0
 71
     0
 72
  2000
 73
     1
 74
     3
 75
     0
 76
     0
 77
     0
 78
     0
281
     0
 65
     1
110
0.0
120
0.0
130
0.0
111
1.0
121
0.0
131
0.0
112
0.0
122
1.0
132
0.0
 79
     0
146
0.0
  0
ENDTAB
  0
TABLE
  2
LTYPE
  5
5
330
0
100
AcDbSymbolTable
 70
     6
  0
LTYPE
  5
14
330
5
100
AcDbSymbolTableRecord
100
AcDbLinetypeTableRecord
  2
ByBlock
 70
     0
  3

 72
    65
 73
     0
 40
0.0
  0
LTYPE
  5
15
330
5
100
AcDbSymbolTableRecord
100
AcDbLinetypeTableRecord
  2
ByLayer
 70
     0
  3

 72
    65
 73
     0
 40
0.0
  0
LTYPE
  5
16
330
5
100
AcDbSymbolTableRecord
100
AcDbLinetypeTableRecord
  2
Continuous
 70
     0
  3
Solid line
 72
    65
 73
     0
 40
0.0
  0
LTYPE
  5
5E
330
5
100
AcDbSymbolTableRecord
100
AcDbLinetypeTableRecord
  2
HIDDEN
 70
     0
  3
Hidden __ __ __ __ __ __ __ __ __ __ __ __ __ __
 72
    65
 73
     2
 40
1.905
 49
1.27
 74
     0
 49
-0.635
 74
     0
  0
LTYPE
  5
5F
330
5
100
AcDbSymbolTableRecord
100
AcDbLinetypeTableRecord
  2
PHANTOM
 70
     0
  3
Phantom ______  __  __  ______  __  __  ______
 72
    65
 73
     6
 40
12.7
 49
6.35
 74
     0
 49
-1.27
 74
     0
 49
1.27
 74
     0
 49
-1.27
 74
     0
 49
1.27
 74
     0
 49
-1.27
 74
     0
  0
LTYPE
  5
60
330
5
100
AcDbSymbolTableRecord
100
AcDbLinetypeTableRecord
  2
CENTER
 70
     0
  3
Center ____ _ ____ _ ____ _ ____ _ ____ _ ____
 72
    65
 73
     4
 40
10.16
 49
6.35
 74
     0
 49
-1.27
 74
     0
 49
1.27
 74
     0
 49
-1.27
 74
     0
  0
LTYPE
  5
61
330
5
100
AcDbSymbolTableRecord
100
AcDbLinetypeTableRecord
  2
CENTERX2
 70
     0
  3
Center (2x) ________  __  ________  __  _____
 72
    65
 73
     4
 40
20.32
 49
12.7
 74
     0
 49
-2.54
 74
     0
 49
2.54
 74
     0
 49
-2.54
 74
     0
  0
LTYPE
  5
62
330
5
100
AcDbSymbolTableRecord
100
AcDbLinetypeTableRecord
  2
DOT2
 70
     0
  3
Dot (.5x) ........................................
 72
    65
 73
     2
 40
0.635
 49
0.0
 74
     0
 49
-0.635
 74
     0
  0
ENDTAB
  0
TABLE
  2
LAYER
  5
2
330
0
100
AcDbSymbolTable
 70
     1
  0
LAYER
  5
10
330
2
100
AcDbSymbolTableRecord
100
AcDbLayerTableRecord
  2
0
 70
     0
 62
     7
  6
Continuous
370
    -3
390
F
  0
ENDTAB
  0
TABLE
  2
STYLE
  5
3
330
0
100
AcDbSymbolTable
 70
     2
  0
STYLE
  5
11
330
3
100
AcDbSymbolTableRecord
100
AcDbTextStyleTableRecord
  2
Standard
 70
     0
 40
0.0
 41
1.0
 50
0.0
 71
     0
 42
3.5
  3
txt
  4
bigfont
  0
STYLE
  5
63
330
3
100
AcDbSymbolTableRecord
100
AcDbTextStyleTableRecord
  2
SLDTEXTSTYLE0
 70
     0
 40
0.0
 41
0.7
 50
0.0
 71
     0
 42
3.5
  3
TXT
  4
bigfont
  0
ENDTAB
  0
TABLE
  2
VIEW
  5
6
330
0
100
AcDbSymbolTable
 70
     0
  0
ENDTAB
  0
TABLE
  2
UCS
  5
7
330
0
100
AcDbSymbolTable
 70
     0
  0
ENDTAB
  0
TABLE
  2
APPID
  5
9
330
0
100
AcDbSymbolTable
 70
     1
  0
APPID
  5
12
330
9
100
AcDbSymbolTableRecord
100
AcDbRegAppTableRecord
  2
ACAD
 70
     0
  0
ENDTAB
  0
TABLE
  2
DIMSTYLE
  5
A
330
0
100
AcDbSymbolTable
 70
     1
100
AcDbDimStyleTable
  0
DIMSTYLE
105
27
330
A
100
AcDbSymbolTableRecord
100
AcDbDimStyleTableRecord
  2
ISO-25
 70
     0
 41
2.5
 42
0.625
 43
3.75
 44
1.25
 73
     0
 74
     0
 77
     1
 78
     8
140
2.5
141
2.5
143
0.0393700787
147
0.625
171
     3
172
     1
178
     0
271
     2
272
     2
274
     3
278
    44
283
     0
284
     8
340
11
  0
ENDTAB
  0
TABLE
  2
BLOCK_RECORD
  5
1
330
0
100
AcDbSymbolTable
 70
     3
  0
BLOCK_RECORD
  5
1F
330
1
100
AcDbSymbolTableRecord
100
AcDbBlockTableRecord
  2
*Model_Space
340
22
  0
BLOCK_RECORD
  5
1B
330
1
100
AcDbSymbolTableRecord
100
AcDbBlockTableRecord
  2
*Paper_Space
340
1E
  0
BLOCK_RECORD
  5
23
330
1
100
AcDbSymbolTableRecord
100
AcDbBlockTableRecord
  2
*Paper_Space0
340
26
  0
BLOCK_RECORD
  5
20C
330
1
100
AcDbSymbolTableRecord
100
AcDbBlockTableRecord
  2
SW_CENTERMARKSYMBOL_0
340
0
102
{BLKREFS
331
217
102
}
  0
BLOCK_RECORD
  5
314
330
1
100
AcDbSymbolTableRecord
100
AcDbBlockTableRecord
  2
SW_CENTERMARKSYMBOL_1
340
0
102
{BLKREFS
331
31F
102
}
  0
ENDTAB
  0
ENDSEC
  0
SECTION
  2
BLOCKS
  0
BLOCK
  5
20
330
1F
100
AcDbEntity
  8
0
100
AcDbBlockBegin
  2
*Model_Space
 70
     0
 10
0.0
 20
0.0
 30
0.0
  3
*Model_Space
  1

  0
ENDBLK
  5
21
330
1F
100
AcDbEntity
  8
0
100
AcDbBlockEnd
  0
BLOCK
  5
1C
330
1B
100
AcDbEntity
 67
     1
  8
0
100
AcDbBlockBegin
  2
*Paper_Space
 70
     0
 10
0.0
 20
0.0
 30
0.0
  3
*Paper_Space
  1

  0
ENDBLK
  5
1D
330
1B
100
AcDbEntity
 67
     1
  8
0
100
AcDbBlockEnd
  0
BLOCK
  5
24
330
23
100
AcDbEntity
  8
0
100
AcDbBlockBegin
  2
*Paper_Space0
 70
     0
 10
0.0
 20
0.0
 30
0.0
  3
*Paper_Space0
  1

  0
ENDBLK
  5
25
330
23
100
AcDbEntity
  8
0
100
AcDbBlockEnd
  0
BLOCK
  5
20D
330
20C
100
AcDbEntity
  8
0
100
AcDbBlockBegin
  2
SW_CENTERMARKSYMBOL_0
 70
     0
 10
0.0
 20
0.0
 30
0.0
  3
SW_CENTERMARKSYMBOL_0
  1

  0
LINE
  5
20F
330
20C
100
AcDbEntity
  8
0
  6
Continuous
 62
     0
370
    18
100
AcDbLine
 10
0.0
 20
0.0
 30
0.0
 11
0.0
 21
2.5
 31
0.0
  0
LINE
  5
210
330
20C
100
AcDbEntity
  8
0
  6
Continuous
 62
     0
370
    18
100
AcDbLine
 10
0.0
 20
0.0
 30
0.0
 11
-2.5
 21
0.0
 31
0.0
  0
LINE
  5
211
330
20C
100
AcDbEntity
  8
0
  6
Continuous
 62
     0
370
    18
100
AcDbLine
 10
0.0
 20
0.0
 30
0.0
 11
0.0
 21
-2.5
 31
0.0
  0
LINE
  5
212
330
20C
100
AcDbEntity
  8
0
  6
Continuous
 62
     0
370
    18
100
AcDbLine
 10
0.0
 20
0.0
 30
0.0
 11
2.5
 21
0.0
 31
0.0
  0
LINE
  5
213
330
20C
100
AcDbEntity
  8
0
  6
Continuous
 62
     0
370
    18
100
AcDbLine
 10
0.0
 20
5.0
 30
0.0
 11
0.0
 21
31.784127838
 31
0.0
  0
LINE
  5
214
330
20C
100
AcDbEntity
  8
0
  6
Continuous
 62
     0
370
    18
100
AcDbLine
 10
-5.0
 20
0.0
 30
0.0
 11
-11.0
 21
0.0
 31
0.0
  0
LINE
  5
215
330
20C
100
AcDbEntity
  8
0
  6
Continuous
 62
     0
370
    18
100
AcDbLine
 10
0.0
 20
-5.0
 30
0.0
 11
0.0
 21
-24.6871596888
 31
0.0
  0
LINE
  5
216
330
20C
100
AcDbEntity
  8
0
  6
Continuous
 62
     0
370
    18
100
AcDbLine
 10
5.0
 20
0.0
 30
0.0
 11
11.0
 21
0.0
 31
0.0
  0
ENDBLK
  5
20E
330
20C
100
AcDbEntity
  8
0
100
AcDbBlockEnd
  0
BLOCK
  5
315
330
314
100
AcDbEntity
  8
0
100
AcDbBlockBegin
  2
SW_CENTERMARKSYMBOL_1
 70
     0
 10
0.0
 20
0.0
 30
0.0
  3
SW_CENTERMARKSYMBOL_1
  1

  0
LINE
  5
317
330
314
100
AcDbEntity
  8
0
  6
Continuous
 62
     0
370
    18
100
AcDbLine
 10
0.0
 20
0.0
 30
0.0
 11
0.0
 21
2.5
 31
0.0
  0
LINE
  5
318
330
314
100
AcDbEntity
  8
0
  6
Continuous
 62
     0
370
    18
100
AcDbLine
 10
0.0
 20
0.0
 30
0.0
 11
-2.5
 21
0.0
 31
0.0
  0
LINE
  5
319
330
314
100
AcDbEntity
  8
0
  6
Continuous
 62
     0
370
    18
100
AcDbLine
 10
0.0
 20
0.0
 30
0.0
 11
0.0
 21
-2.5
 31
0.0
  0
LINE
  5
31A
330
314
100
AcDbEntity
  8
0
  6
Continuous
 62
     0
370
    18
100
AcDbLine
 10
0.0
 20
0.0
 30
0.0
 11
2.5
 21
0.0
 31
0.0
  0
LINE
  5
31B
330
314
100
AcDbEntity
  8
0
  6
Continuous
 62
     0
370
    18
100
AcDbLine
 10
0.0
 20
5.0
 30
0.0
 11
0.0
 21
10.5000000325
 31
0.0
  0
LINE
  5
31C
330
314
100
AcDbEntity
  8
0
  6
Continuous
 62
     0
370
    18
100
AcDbLine
 10
-5.0
 20
0.0
 30
0.0
 11
-41.022805367
 21
0.0
 31
0.0
  0
LINE
  5
31D
330
314
100
AcDbEntity
  8
0
  6
Continuous
 62
     0
370
    18
100
AcDbLine
 10
0.0
 20
-5.0
 30
0.0
 11
0.0
 21
-10.5000000325
 31
0.0
  0
LINE
  5
31E
330
314
100
AcDbEntity
  8
0
  6
Continuous
 62
     0
370
    18
100
AcDbLine
 10
5.0
 20
0.0
 30
0.0
 11
41.0308466354
 21
0.0
 31
0.0
  0
ENDBLK
  5
316
330
314
100
AcDbEntity
  8
0
100
AcDbBlockEnd
  0
ENDSEC
  0
SECTION
  2
ENTITIES
  0
MTEXT
  5
64
330
1F
100
AcDbEntity
  8
0
  6
Continuous
 62
     7
370
     0
100
AcDbMText
 10
201.1722287123
 20
124.1124979367
 30
0.0
 40
3.5
 41
0.0
 71
     1
 72
     1
  1
エースボール　アングル型
  7
SLDTEXTSTYLE0
 73
     1
 44
1.0
  0
MTEXT
  5
65
330
1F
100
AcDbEntity
  8
0
  6
Continuous
 62
     7
370
     0
100
AcDbMText
 10
201.1722287123
 20
119.6124981304
 30
0.0
 40
3.5
 41
0.0
 71
     1
 72
     1
  1
BH-5299R
  7
SLDTEXTSTYLE0
 73
     1
 44
1.0
  0
LINE
  5
66
330
1F
100
AcDbEntity
  8
0
  6
Continuous
 62
     7
370
    25
100
AcDbLine
 10
176.6580670684
 20
65.3243454099
 30
0.0
 11
179.4580670684
 21
65.3243454099
 31
0.0
  0
LINE
  5
67
330
1F
100
AcDbEntity
  8
0
  6
Continuous
 62
     7
370
    25
100
AcDbLine
 10
179.4580670684
 20
81.3243454099
 30
0.0
 11
176.6580670684
 21
81.3243454099
 31
0.0
  0
LINE
  5
68
330
1F
100
AcDbEntity
  8
0
  6
Continuous
 62
     7
370
    25
100
AcDbLine
 10
179.4580670684
 20
65.3243454099
 30
0.0
 11
179.6580670684
 21
65.5243454099
 31
0.0
  0
LINE
  5
69
330
1F
100
AcDbEntity
  8
0
  6
Continuous
 62
     7
370
    25
100
AcDbLine
 10
179.6580670684
 20
81.1243454099
 30
0.0
 11
179.4580670684
 21
81.3243454099
 31
0.0
  0
LINE
  5
6A
330
1F
100
AcDbEntity
  8
0
  6
Continuous
 62
     7
370
    25
100
AcDbLine
 10
200.1580670684
 20
68.8243454099
 30
0.0
 11
204.1780670684
 21
69.4943454099
 31
0.0
  0
LINE
  5
6B
330
1F
100
AcDbEntity
  8
0
  6
Continuous
 62
     7
370
    25
100
AcDbLine
 10
204.1780670684
 20
77.1543454099
 30
0.0
 11
200.1580670684
 21
77.8243454099
 31
0.0
  0
LINE
  5
6C
330
1F
100
AcDbEntity
  8
0
  6
Continuous
 62
     7
370
    25
100
AcDbLine
 10
195.6580670684
 20
68.8243454099
 30
0.0
 11
200.1580670684
 21
69.5743454099
 31
0.0
  0
LINE
  5
6D
330
1F
100
AcDbEntity
  8
0
  6
Continuous
 62
     7
370
    25
100
AcDbLine
 10
200.1580670684
 20
77.0743454099
 30
0.0
 11
195.6580670684
 21
77.8243454099
 31
0.0
  0
LINE
  5
6E
330
1F
100
AcDbEntity
  8
0
  6
Continuous
 62
     7
370
    25
100
AcDbLine
 10
191.1580670684
 20
68.8243454099
 30
0.0
 11
195.6580670684
 21
69.5743454099
 31
0.0
  0
LINE
  5
6F
330
1F
100
AcDbEntity
  8
0
  6
Continuous
 62
     7
370
    25
100
AcDbLine
 10
195.6580670684
 20
77.0743454099
 30
0.0
 11
191.1580670684
 21
77.8243454099
 31
0.0
  0
LINE
  5
70
330
1F
100
AcDbEntity
  8
0
  6
Continuous
 62
     7
370
    25
100
AcDbLine
 10
186.6580670684
 20
68.8243454099
 30
0.0
 11
191.1580670684
 21
69.5743454099
 31
0.0
  0
LINE
  5
71
330
1F
100
AcDbEntity
  8
0
  6
Continuous
 62
     7
370
    25
100
AcDbLine
 10
191.1580670684
 20
77.0743454099
 30
0.0
 11
186.6580670684
 21
77.8243454099
 31
0.0
  0
LINE
  5
72
330
1F
100
AcDbEntity
  8
0
  6
Continuous
 62
     7
370
    25
100
AcDbLine
 10
182.1580670684
 20
68.8243454099
 30
0.0
 11
186.6580670684
 21
69.5743454099
 31
0.0
  0
LINE
  5
73
330
1F
100
AcDbEntity
  8
0
  6
Continuous
 62
     7
370
    25
100
AcDbLine
 10
186.6580670684
 20
77.0743454099
 30
0.0
 11
182.1580670684
 21
77.8243454099
 31
0.0
  0
LINE
  5
74
330
1F
100
AcDbEntity
  8
0
  6
Continuous
 62
     7
370
    25
100
AcDbLine
 10
179.6580670684
 20
68.8243454099
 30
0.0
 11
182.1580670684
 21
68.8243454099
 31
0.0
  0
LINE
  5
75
330
1F
100
AcDbEntity
  8
0
  6
Continuous
 62
     7
370
    25
100
AcDbLine
 10
182.1580670684
 20
77.8243454099
 30
0.0
 11
179.6580670684
 21
77.8243454099
 31
0.0
  0
LINE
  5
76
330
1F
100
AcDbEntity
  8
0
  6
Continuous
 62
     7
370
    25
100
AcDbLine
 10
204.1780670684
 20
69.4943454099
 30
0.0
 11
204.6580670684
 21
69.9743454099
 31
0.0
  0
LINE
  5
77
330
1F
100
AcDbEntity
  8
0
  6
Continuous
 62
     7
370
    25
100
AcDbLine
 10
204.6580670684
 20
76.6743454099
 30
0.0
 11
204.1780670684
 21
77.1543454099
 31
0.0
  0
LINE
  5
78
330
1F
100
AcDbEntity
  8
0
  6
Continuous
 62
     7
370
    25
100
AcDbLine
 10
150.8580670684
 20
81.3243454099
 30
0.0
 11
150.6580670684
 21
81.1243454099
 31
0.0
  0
LINE
  5
79
330
1F
100
AcDbEntity
  8
0
  6
Continuous
 62
     7
370
    25
100
AcDbLine
 10
150.6580670684
 20
65.5243454099
 30
0.0
 11
150.8580670684
 21
65.3243454099
 31
0.0
  0
LINE
  5
7A
330
1F
100
AcDbEntity
  8
0
  6
Continuous
 62
     7
370
    25
100
AcDbLine
 10
153.6580670684
 20
81.3243454099
 30
0.0
 11
150.8580670684
 21
81.3243454099
 31
0.0
  0
LINE
  5
7B
330
1F
100
AcDbEntity
  8
0
  6
Continuous
 62
     7
370
    25
100
AcDbLine
 10
150.8580670684
 20
65.3243454099
 30
0.0
 11
153.6580670684
 21
65.3243454099
 31
0.0
  0
LINE
  5
7C
330
1F
100
AcDbEntity
  8
0
  6
Continuous
 62
     7
370
    25
100
AcDbLine
 10
130.1580670684
 20
77.8243454099
 30
0.0
 11
126.1380670684
 21
77.1543454099
 31
0.0
  0
LINE
  5
7D
330
1F
100
AcDbEntity
  8
0
  6
Continuous
 62
     7
370
    25
100
AcDbLine
 10
126.1380670684
 20
69.4943454099
 30
0.0
 11
130.1580670684
 21
68.8243454099
 31
0.0
  0
LINE
  5
7E
330
1F
100
AcDbEntity
  8
0
  6
Continuous
 62
     7
370
    25
100
AcDbLine
 10
139.1580670684
 20
77.8243454099
 30
0.0
 11
134.6580670684
 21
77.0743454099
 31
0.0
  0
LINE
  5
7F
330
1F
100
AcDbEntity
  8
0
  6
Continuous
 62
     7
370
    25
100
AcDbLine
 10
134.6580670684
 20
69.5743454099
 30
0.0
 11
139.1580670684
 21
68.8243454099
 31
0.0
  0
LINE
  5
80
330
1F
100
AcDbEntity
  8
0
  6
Continuous
 62
     7
370
    25
100
AcDbLine
 10
143.6580670684
 20
77.8243454099
 30
0.0
 11
139.1580670684
 21
77.0743454099
 31
0.0
  0
LINE
  5
81
330
1F
100
AcDbEntity
  8
0
  6
Continuous
 62
     7
370
    25
100
AcDbLine
 10
139.1580670684
 20
69.5743454099
 30
0.0
 11
143.6580670684
 21
68.8243454099
 31
0.0
  0
LINE
  5
82
330
1F
100
AcDbEntity
  8
0
  6
Continuous
 62
     7
370
    25
100
AcDbLine
 10
134.6580670684
 20
77.8243454099
 30
0.0
 11
130.1580670684
 21
77.0743454099
 31
0.0
  0
LINE
  5
83
330
1F
100
AcDbEntity
  8
0
  6
Continuous
 62
     7
370
    25
100
AcDbLine
 10
130.1580670684
 20
69.5743454099
 30
0.0
 11
134.6580670684
 21
68.8243454099
 31
0.0
  0
LINE
  5
84
330
1F
100
AcDbEntity
  8
0
  6
Continuous
 62
     7
370
    25
100
AcDbLine
 10
150.6580670684
 20
77.8243454099
 30
0.0
 11
148.1580670684
 21
77.8243454099
 31
0.0
  0
LINE
  5
85
330
1F
100
AcDbEntity
  8
0
  6
Continuous
 62
     7
370
    25
100
AcDbLine
 10
148.1580670684
 20
68.8243454099
 30
0.0
 11
150.6580670684
 21
68.8243454099
 31
0.0
  0
LINE
  5
86
330
1F
100
AcDbEntity
  8
0
  6
Continuous
 62
     7
370
    25
100
AcDbLine
 10
148.1580670684
 20
77.8243454099
 30
0.0
 11
143.6580670684
 21
77.0743454099
 31
0.0
  0
LINE
  5
87
330
1F
100
AcDbEntity
  8
0
  6
Continuous
 62
     7
370
    25
100
AcDbLine
 10
143.6580670684
 20
69.5743454099
 30
0.0
 11
148.1580670684
 21
68.8243454099
 31
0.0
  0
LINE
  5
88
330
1F
100
AcDbEntity
  8
0
  6
Continuous
 62
     7
370
    25
100
AcDbLine
 10
126.1380670684
 20
77.1543454099
 30
0.0
 11
125.6580670684
 21
76.6743454099
 31
0.0
  0
LINE
  5
89
330
1F
100
AcDbEntity
  8
0
  6
Continuous
 62
     7
370
    25
100
AcDbLine
 10
125.6580670684
 20
69.9743454099
 30
0.0
 11
126.1380670684
 21
69.4943454099
 31
0.0
  0
LINE
  5
8A
330
1F
100
AcDbEntity
  8
0
  6
Continuous
 62
     7
370
    25
100
AcDbLine
 10
158.4080045684
 20
61.3243454099
 30
0.0
 11
158.7021049542
 21
51.9131330637
 31
0.0
  0
LINE
  5
8B
330
1F
100
AcDbEntity
  8
0
  6
Continuous
 62
     7
370
    25
100
AcDbLine
 10
171.6140291826
 20
51.9131330637
 30
0.0
 11
171.9081295684
 21
61.3243454099
 31
0.0
  0
SPLINE
  5
8C
330
1F
100
AcDbEntity
  8
0
  6
Continuous
 62
     7
370
    25
100
AcDbSpline
210
0.0
220
0.0
230
1.0
 70
     8
 71
     3
 72
    10
 73
     6
 74
     0
 42
0.00000001
 43
0.00000001
 40
0.0
 40
0.0
 40
0.0
 40
0.0
 40
0.3767226843530308
 40
0.7477144918417249
 40
0.9999999999999999
 40
0.9999999999999999
 40
0.9999999999999999
 40
0.9999999999999999
 10
171.3214465206177
 20
82.10904154761663
 30
0.0
 10
171.2590562430151
 20
82.18571996824956
 30
0.0
 10
171.1352247970973
 20
82.33791034249592
 30
0.0
 10
171.0475836190846
 20
82.59221694085475
 30
0.0
 10
171.0454305233649
 20
82.75538351083877
 30
0.0
 10
171.0445590094591
 20
82.82142884890811
 30
0.0
  0
SPLINE
  5
8D
330
1F
100
AcDbEntity
  8
0
  6
Continuous
 62
     7
370
    25
100
AcDbSpline
210
0.0
220
0.0
230
1.0
 70
     8
 71
     3
 72
    11
 73
     7
 74
     0
 42
0.00000001
 43
0.00000001
 40
0.0
 40
0.0
 40
0.0
 40
0.0
 40
0.2242903588499795
 40
0.5955822250555631
 40
0.9777786459912858
 40
1.0
 40
1.0
 40
1.0
 40
1.0
 10
159.2643663241786
 20
82.82608214550294
 30
0.0
 10
159.2655186850523
 20
82.76686215545283
 30
0.0
 10
159.2685786723684
 20
82.60960896979358
 30
0.0
 10
159.1780435384326
 20
82.36659290478683
 30
0.0
 10
159.0761268758783
 20
82.18151209338043
 30
0.0
 10
158.9925840487893
 20
82.11606850433286
 30
0.0
 10
158.9879936602093
 20
82.11247260610602
 30
0.0
  0
LINE
  5
8E
330
1F
100
AcDbEntity
  8
0
  6
Continuous
 62
     7
370
    25
100
AcDbLine
 10
158.7021049542
 20
51.9131330637
 30
0.0
 11
159.9080670684
 21
49.8243454099
 31
0.0
  0
LINE
  5
8F
330
1F
100
AcDbEntity
  8
0
  6
Continuous
 62
     7
370
    25
100
AcDbLine
 10
170.4080670684
 20
49.8243454099
 30
0.0
 11
171.6140291826
 21
51.9131330637
 31
0.0
  0
LINE
  5
90
330
1F
100
AcDbEntity
  8
0
  6
Continuous
 62
     7
370
    25
100
AcDbLine
 10
171.0580670684
 20
82.8198145898
 30
0.0
 11
171.0580670684
 21
83.8243454099
 31
0.0
  0
LINE
  5
91
330
1F
100
AcDbEntity
  8
0
  6
Continuous
 62
     7
370
    25
100
AcDbLine
 10
159.2580670684
 20
83.8243454099
 30
0.0
 11
159.2580670684
 21
82.8243454099
 31
0.0
  0
LINE
  5
92
330
1F
100
AcDbEntity
  8
0
  6
Continuous
 62
     7
370
    25
100
AcDbLine
 10
158.987900161
 20
82.1190831392
 30
0.0
 11
158.4435358886
 21
83.0619497169
 31
0.0
  0
LINE
  5
93
330
1F
100
AcDbEntity
  8
0
  6
Continuous
 62
     7
370
    25
100
AcDbLine
 10
175.9435358886
 20
63.5867411029
 30
0.0
 11
176.6580670684
 21
64.8243454099
 31
0.0
  0
LINE
  5
94
330
1F
100
AcDbEntity
  8
0
  6
Continuous
 62
     7
370
    25
100
AcDbLine
 10
171.8725982482
 20
83.0619497169
 30
0.0
 11
171.3282339757
 21
82.1190831392
 31
0.0
  0
LINE
  5
95
330
1F
100
AcDbEntity
  8
0
  6
Continuous
 62
     7
370
    25
100
AcDbLine
 10
154.3725982482
 20
83.0619497169
 30
0.0
 11
153.6580670684
 21
81.8243454099
 31
0.0
  0
LINE
  5
96
330
1F
100
AcDbEntity
  8
0
  6
Continuous
 62
     7
370
    25
100
AcDbLine
 10
153.6580670684
 20
64.8243454099
 30
0.0
 11
154.3725982482
 21
63.5867411029
 31
0.0
  0
LINE
  5
97
330
1F
100
AcDbEntity
  8
0
  6
Continuous
 62
     7
370
    25
100
AcDbLine
 10
176.6580670684
 20
81.8243454099
 30
0.0
 11
175.9435358886
 21
83.0619497169
 31
0.0
  0
LINE
  5
98
330
1F
100
AcDbEntity
  8
0
  6
Continuous
 62
     7
370
    25
100
AcDbLine
 10
174.8956713754
 20
61.3243454099
 30
0.0
 11
174.8956713754
 21
63.5867411029
 31
0.0
  0
LINE
  5
99
330
1F
100
AcDbEntity
  8
0
  6
Continuous
 62
     7
370
    25
100
AcDbLine
 10
174.8956713754
 20
63.5867411029
 30
0.0
 11
175.9460962699
 21
63.5867411029
 31
0.0
  0
LINE
  5
9A
330
1F
100
AcDbEntity
  8
0
  6
Continuous
 62
     7
370
    25
100
AcDbLine
 10
158.446103944
 20
83.0619497169
 30
0.0
 11
154.3700378669
 21
83.0619497169
 31
0.0
  0
LINE
  5
9B
330
1F
100
AcDbEntity
  8
0
  6
Continuous
 62
     7
370
    25
100
AcDbLine
 10
175.9460962699
 20
83.0619497169
 30
0.0
 11
171.8700301927
 21
83.0619497169
 31
0.0
  0
LINE
  5
9C
330
1F
100
AcDbEntity
  8
0
  6
Continuous
 62
     7
370
    25
100
AcDbLine
 10
155.4204627614
 20
63.5867411029
 30
0.0
 11
155.4204627614
 21
61.3243454099
 31
0.0
  0
LINE
  5
9D
330
1F
100
AcDbEntity
  8
0
  6
Continuous
 62
     7
370
    25
100
AcDbLine
 10
154.3700378669
 20
63.5867411029
 30
0.0
 11
155.4204627614
 21
63.5867411029
 31
0.0
  0
ARC
  5
9E
330
1F
100
AcDbEntity
  8
0
  6
Continuous
 62
     7
370
    25
100
AcDbCircle
 10
165.1580670684
 20
82.3243454099
 30
0.0
 40
20.50000000000001
100
AcDbArc
 50
96.3582831464
 51
102.6803834918
  0
ARC
  5
9F
330
1F
100
AcDbEntity
  8
0
  6
Continuous
 62
     7
370
    25
100
AcDbCircle
 10
165.1580670684
 20
82.3243454099
 30
0.0
 40
20.50000000000001
100
AcDbArc
 50
77.3196165082
 51
83.6417168446
  0
ARC
  5
A0
330
1F
100
AcDbEntity
  8
0
  6
Continuous
 62
     7
370
    25
100
AcDbCircle
 10
165.1580670684
 20
82.3243454099
 30
0.0
 40
20.60000000000001
100
AcDbArc
 50
90.5372339785
 51
93.3558231766
  0
ARC
  5
A1
330
1F
100
AcDbEntity
  8
0
  6
Continuous
 62
     7
370
    25
100
AcDbCircle
 10
165.1580670684
 20
82.3243454099
 30
0.0
 40
20.60000000000001
100
AcDbArc
 50
86.6441768145
 51
89.4745323928
  0
LINE
  5
A2
330
1F
100
AcDbEntity
  8
0
  6
Continuous
 62
     7
370
    25
100
AcDbLine
 10
157.1620117821
 20
90.7691194182
 30
0.0
 11
157.6248973202
 21
84.2887218849
 31
0.0
  0
LINE
  5
A3
330
1F
100
AcDbEntity
  8
0
  6
Continuous
 62
     7
370
    25
100
AcDbLine
 10
157.1580669688
 20
90.8243468047
 30
0.0
 11
157.1620117821
 21
90.7691194182
 31
0.0
  0
LINE
  5
A4
330
1F
100
AcDbEntity
  8
0
  6
Continuous
 62
     7
370
    25
100
AcDbLine
 10
172.6912368166
 20
84.2887218849
 30
0.0
 11
173.158067168
 21
90.8243468047
 31
0.0
  0
ARC
  5
A5
330
1F
100
AcDbEntity
  8
0
  6
Continuous
 62
     7
370
    25
100
AcDbCircle
 10
172.1925074667
 20
84.3243454099
 30
0.0
 40
0.5
100
AcDbArc
 50
270.0
 51
355.91438322
  0
ARC
  5
A6
330
1F
100
AcDbEntity
  8
0
  6
Continuous
 62
     7
370
    25
100
AcDbCircle
 10
158.1236266701
 20
84.3243454099
 30
0.0
 40
0.5000000000000105
100
AcDbArc
 50
184.08561678
 51
270.0
  0
LINE
  5
A7
330
1F
100
AcDbEntity
  8
0
  6
Continuous
 62
     7
370
    25
100
AcDbLine
 10
171.0831801917
 20
100.3243454099
 30
0.0
 11
170.7422488522
 21
101.9283012553
 31
0.0
  0
LINE
  5
A8
330
1F
100
AcDbEntity
  8
0
  6
Continuous
 62
     7
370
    25
100
AcDbLine
 10
159.5738852846
 20
101.9283012553
 30
0.0
 11
159.232953945
 21
100.3243454099
 31
0.0
  0
ARC
  5
A9
330
1F
100
AcDbEntity
  8
0
  6
Continuous
 62
     7
370
    25
100
AcDbCircle
 10
160.062959085
 20
101.8243454099
 30
0.0
 40
0.5000000000000231
100
AcDbArc
 50
90.0
 51
168.0
  0
ARC
  5
AA
330
1F
100
AcDbEntity
  8
0
  6
Continuous
 62
     7
370
    25
100
AcDbCircle
 10
170.2531750518
 20
101.8243454099
 30
0.0
 40
0.5
100
AcDbArc
 50
12.0
 51
90.0
  0
LINE
  5
AB
330
1F
100
AcDbEntity
  8
0
  6
Continuous
 62
     7
370
    25
100
AcDbLine
 10
179.4580670684
 20
65.3243454099
 30
0.0
 11
179.4580670684
 21
81.3243454099
 31
0.0
  0
LINE
  5
AC
330
1F
100
AcDbEntity
  8
0
  6
Continuous
 62
     7
370
    25
100
AcDbLine
 10
179.6580670684
 20
81.1243454099
 30
0.0
 11
179.6580670684
 21
65.5243454099
 31
0.0
  0
LINE
  5
AD
330
1F
100
AcDbEntity
  8
0
  6
Continuous
 62
     7
370
    25
100
AcDbLine
 10
200.1580670684
 20
68.8243454099
 30
0.0
 11
200.1580670684
 21
77.8243454099
 31
0.0
  0
LINE
  5
AE
330
1F
100
AcDbEntity
  8
0
  6
Continuous
 62
     7
370
    25
100
AcDbLine
 10
204.1780670684
 20
70.1507105463
 30
0.0
 11
204.1780670684
 21
77.1543454099
 31
0.0
  0
LINE
  5
AF
330
1F
100
AcDbEntity
  8
0
  6
Continuous
 62
     7
370
    25
100
AcDbLine
 10
204.1780670684
 20
69.4943454099
 30
0.0
 11
204.1780670684
 21
70.1507105463
 31
0.0
  0
LINE
  5
B0
330
1F
100
AcDbEntity
  8
0
  6
Continuous
 62
     7
370
    25
100
AcDbLine
 10
195.6580670684
 20
68.8243454099
 30
0.0
 11
195.6580670684
 21
77.8243454099
 31
0.0
  0
LINE
  5
B1
330
1F
100
AcDbEntity
  8
0
  6
Continuous
 62
     7
370
    25
100
AcDbLine
 10
191.1580670684
 20
68.8243454099
 30
0.0
 11
191.1580670684
 21
77.8243454099
 31
0.0
  0
LINE
  5
B2
330
1F
100
AcDbEntity
  8
0
  6
Continuous
 62
     7
370
    25
100
AcDbLine
 10
186.6580670684
 20
68.8243454099
 30
0.0
 11
186.6580670684
 21
77.8243454099
 31
0.0
  0
LINE
  5
B3
330
1F
100
AcDbEntity
  8
0
  6
Continuous
 62
     7
370
    25
100
AcDbLine
 10
182.1580670684
 20
68.8243454099
 30
0.0
 11
182.1580670684
 21
77.8243454099
 31
0.0
  0
LINE
  5
B4
330
1F
100
AcDbEntity
  8
0
  6
Continuous
 62
     7
370
    25
100
AcDbLine
 10
204.6580670684
 20
76.6743454099
 30
0.0
 11
204.6580670684
 21
69.9743454099
 31
0.0
  0
LINE
  5
B5
330
1F
100
AcDbEntity
  8
0
  6
Continuous
 62
     7
370
    25
100
AcDbLine
 10
150.8580670684
 20
81.3243454099
 30
0.0
 11
150.8580670684
 21
65.3243454099
 31
0.0
  0
LINE
  5
B6
330
1F
100
AcDbEntity
  8
0
  6
Continuous
 62
     7
370
    25
100
AcDbLine
 10
150.6580670684
 20
65.5243454099
 30
0.0
 11
150.6580670684
 21
81.1243454099
 31
0.0
  0
LINE
  5
B7
330
1F
100
AcDbEntity
  8
0
  6
Continuous
 62
     7
370
    25
100
AcDbLine
 10
126.1380670684
 20
69.5009969252
 30
0.0
 11
126.1380670684
 21
69.4943454099
 31
0.0
  0
LINE
  5
B8
330
1F
100
AcDbEntity
  8
0
  6
Continuous
 62
     7
370
    25
100
AcDbLine
 10
126.1380670684
 20
77.1543454099
 30
0.0
 11
126.1380670684
 21
69.5009969252
 31
0.0
  0
LINE
  5
B9
330
1F
100
AcDbEntity
  8
0
  6
Continuous
 62
     7
370
    25
100
AcDbLine
 10
130.1580670684
 20
77.8243454099
 30
0.0
 11
130.1580670684
 21
68.8243454099
 31
0.0
  0
LINE
  5
BA
330
1F
100
AcDbEntity
  8
0
  6
Continuous
 62
     7
370
    25
100
AcDbLine
 10
139.1580670684
 20
77.8243454099
 30
0.0
 11
139.1580670684
 21
68.8243454099
 31
0.0
  0
LINE
  5
BB
330
1F
100
AcDbEntity
  8
0
  6
Continuous
 62
     7
370
    25
100
AcDbLine
 10
143.6580670684
 20
77.8243454099
 30
0.0
 11
143.6580670684
 21
68.8243454099
 31
0.0
  0
LINE
  5
BC
330
1F
100
AcDbEntity
  8
0
  6
Continuous
 62
     7
370
    25
100
AcDbLine
 10
134.6580670684
 20
77.8243454099
 30
0.0
 11
134.6580670684
 21
68.8243454099
 31
0.0
  0
LINE
  5
BD
330
1F
100
AcDbEntity
  8
0
  6
Continuous
 62
     7
370
    25
100
AcDbLine
 10
148.1580670684
 20
77.8243454099
 30
0.0
 11
148.1580670684
 21
68.8243454099
 31
0.0
  0
LINE
  5
BE
330
1F
100
AcDbEntity
  8
0
  6
Continuous
 62
     7
370
    25
100
AcDbLine
 10
125.6580670684
 20
69.9743454099
 30
0.0
 11
125.6580670684
 21
76.6743454099
 31
0.0
  0
LINE
  5
BF
330
1F
100
AcDbEntity
  8
0
  6
Continuous
 62
     7
370
    25
100
AcDbLine
 10
159.1580670684
 20
80.6855613421
 30
0.0
 11
159.1580670684
 21
77.3243454099
 31
0.0
  0
SPLINE
  5
C0
330
1F
100
AcDbEntity
  8
0
  6
Continuous
 62
     7
370
    25
100
AcDbSpline
210
0.0
220
0.0
230
1.0
 70
     8
 71
     3
 72
     8
 73
     4
 74
     0
 42
0.00000001
 43
0.00000001
 40
0.0
 40
0.0
 40
0.0
 40
0.0
 40
1.0
 40
1.0
 40
1.0
 40
1.0
 10
158.6418309914105
 20
77.32434540991257
 30
0.0
 10
158.590932274488
 20
77.53139044834157
 30
0.0
 10
158.5369981382372
 20
77.73762977801819
 30
0.0
 10
158.4803456631295
 20
77.94314756342958
 30
0.0
  0
SPLINE
  5
C1
330
1F
100
AcDbEntity
  8
0
  6
Continuous
 62
     7
370
    25
100
AcDbSpline
210
0.0
220
0.0
230
1.0
 70
     8
 71
     3
 72
    10
 73
     6
 74
     0
 42
0.00000001
 43
0.00000001
 40
0.0
 40
0.0
 40
0.0
 40
0.0
 40
0.5
 40
0.5
 40
1.0
 40
1.0
 40
1.0
 40
1.0
 10
158.4803456631295
 20
78.37616026532179
 30
0.0
 10
158.4566702687051
 20
78.33321673442056
 30
0.0
 10
158.4435791588204
 20
78.26977428979643
 30
0.0
 10
158.4434928375321
 20
78.11729545267747
 30
0.0
 10
158.456661771476
 20
78.0290654505702
 30
0.0
 10
158.4803456631295
 20
77.94314756342958
 30
0.0
  0
SPLINE
  5
C2
330
1F
100
AcDbEntity
  8
0
  6
Continuous
 62
     7
370
    25
100
AcDbSpline
210
0.0
220
0.0
230
1.0
 70
     8
 71
     3
 72
    12
 73
     8
 74
     0
 42
0.00000001
 43
0.00000001
 40
0.0
 40
0.0
 40
0.0
 40
0.0
 40
0.2500000000000001
 40
0.2500000000000001
 40
0.5000000000000002
 40
0.5000000000000002
 40
1.0
 40
1.0
 40
1.0
 40
1.0
 10
159.1580670683897
 20
80.68556134208029
 30
0.0
 10
159.1580670683897
 20
80.48981907920079
 30
0.0
 10
159.1422241323007
 20
80.29315247001021
 30
0.0
 10
159.080721272063
 20
79.90388424268194
 30
0.0
 10
159.0351176310193
 20
79.71048020972903
 30
0.0
 10
158.8586666135301
 20
79.13355115847226
 30
0.0
 10
158.6882692462783
 20
78.75330172526925
 30
0.0
 10
158.4803456631295
 20
78.37616026532179
 30
0.0
  0
SPLINE
  5
C3
330
1F
100
AcDbEntity
  8
0
  6
Continuous
 62
     7
370
    25
100
AcDbSpline
210
0.0
220
0.0
230
1.0
 70
     8
 71
     3
 72
     8
 73
     4
 74
     0
 42
0.00000001
 43
0.00000001
 40
0.0
 40
0.0
 40
0.0
 40
0.0
 40
1.0
 40
1.0
 40
1.0
 40
1.0
 10
160.5392649148726
 20
65.35794887005757
 30
0.0
 10
160.7444507374159
 20
65.4145098371818
 30
0.0
 10
160.9506739381232
 20
65.46844990859563
 30
0.0
 10
161.1580670683897
 20
65.51943419833859
 30
0.0
  0
SPLINE
  5
C4
330
1F
100
AcDbEntity
  8
0
  6
Continuous
 62
     7
370
    25
100
AcDbSpline
210
0.0
220
0.0
230
1.0
 70
     8
 71
     3
 72
     8
 73
     4
 74
     0
 42
0.00000001
 43
0.00000001
 40
0.0
 40
0.0
 40
0.0
 40
0.0
 40
1.0
 40
1.0
 40
1.0
 40
1.0
 10
158.4803456631295
 20
68.70554325639553
 30
0.0
 10
158.5369090325977
 20
68.91073779390528
 30
0.0
 10
158.5908489554189
 20
69.11696144742245
 30
0.0
 10
158.6418309914105
 20
69.32434540991255
 30
0.0
  0
LINE
  5
C5
330
1F
100
AcDbEntity
  8
0
  6
Continuous
 62
     7
370
    25
100
AcDbLine
 10
154.3357884736
 20
68.7055432564
 30
0.0
 11
158.4803456631
 21
68.7055432564
 31
0.0
  0
SPLINE
  5
C6
330
1F
100
AcDbEntity
  8
0
  6
Continuous
 62
     7
370
    25
100
AcDbSpline
210
0.0
220
0.0
230
1.0
 70
     8
 71
     3
 72
    10
 73
     6
 74
     0
 42
0.00000001
 43
0.00000001
 40
0.0
 40
0.0
 40
0.0
 40
0.0
 40
0.5
 40
0.5
 40
1.0
 40
1.0
 40
1.0
 40
1.0
 10
154.3357884736498
 20
68.70554325639556
 30
0.0
 10
154.126983134426
 20
69.46302491660111
 30
0.0
 10
153.9564362902668
 20
70.22549246504457
 30
0.0
 10
153.721653962885
 20
71.76395659938395
 30
0.0
 10
153.6580670683897
 20
72.54007927782651
 30
0.0
 10
153.6580670683897
 20
73.32434540991257
 30
0.0
  0
SPLINE
  5
C7
330
1F
100
AcDbEntity
  8
0
  6
Continuous
 62
     7
370
    25
100
AcDbSpline
210
0.0
220
0.0
230
1.0
 70
     8
 71
     3
 72
    12
 73
     8
 74
     0
 42
0.00000001
 43
0.00000001
 40
0.0
 40
0.0
 40
0.0
 40
0.0
 40
0.25
 40
0.25
 40
0.5
 40
0.5
 40
1.0
 40
1.0
 40
1.0
 40
1.0
 10
153.6580670683897
 20
73.32434540991257
 30
0.0
 10
153.6580670683897
 20
73.71601733628749
 30
0.0
 10
153.6739728740579
 20
74.11092022780909
 30
0.0
 10
153.7358177449503
 20
74.8918562580564
 30
0.0
 10
153.7816310858164
 20
75.27926438998766
 30
0.0
 10
153.9584642597188
 20
76.43339401664763
 30
0.0
 10
154.1287425232225
 20
77.19204842558416
 30
0.0
 10
154.3357884736498
 20
77.94314756342958
 30
0.0
  0
LINE
  5
C8
330
1F
100
AcDbEntity
  8
0
  6
Continuous
 62
     7
370
    25
100
AcDbLine
 10
158.4803456631
 20
77.9431475634
 30
0.0
 11
154.3357884736
 21
77.9431475634
 31
0.0
  0
LINE
  5
C9
330
1F
100
AcDbEntity
  8
0
  6
Continuous
 62
     7
370
    25
100
AcDbLine
 10
171.6743031454
 20
77.3243454099
 30
0.0
 11
158.6418309914
 21
77.3243454099
 31
0.0
  0
SPLINE
  5
CA
330
1F
100
AcDbEntity
  8
0
  6
Continuous
 62
     7
370
    25
100
AcDbSpline
210
0.0
220
0.0
230
1.0
 70
     8
 71
     3
 72
     8
 73
     4
 74
     0
 42
0.00000001
 43
0.00000001
 40
0.0
 40
0.0
 40
0.0
 40
0.0
 40
1.0
 40
1.0
 40
1.0
 40
1.0
 10
171.6743031453689
 20
77.32434540991264
 30
0.0
 10
171.7251993786239
 20
77.53138034531639
 30
0.0
 10
171.7791333335876
 20
77.73762011038139
 30
0.0
 10
171.8357884736499
 20
77.94314756342959
 30
0.0
  0
LINE
  5
CB
330
1F
100
AcDbEntity
  8
0
  6
Continuous
 62
     7
370
    25
100
AcDbLine
 10
175.9803456631
 20
77.9431475634
 30
0.0
 11
171.8357884736
 21
77.9431475634
 31
0.0
  0
SPLINE
  5
CC
330
1F
100
AcDbEntity
  8
0
  6
Continuous
 62
     7
370
    25
100
AcDbSpline
210
0.0
220
0.0
230
1.0
 70
     8
 71
     3
 72
    12
 73
     8
 74
     0
 42
0.00000001
 43
0.00000001
 40
0.0
 40
0.0
 40
0.0
 40
0.0
 40
0.2500000000000001
 40
0.2500000000000001
 40
0.5000000000000001
 40
0.5000000000000001
 40
1.0
 40
1.0
 40
1.0
 40
1.0
 10
176.6580670683897
 20
73.32434540991257
 30
0.0
 10
176.6580670683897
 20
73.71601733628749
 30
0.0
 10
176.6421612627215
 20
74.1109202278091
 30
0.0
 10
176.5803163918291
 20
74.8918562580564
 30
0.0
 10
176.5345030509629
 20
75.27926438998766
 30
0.0
 10
176.3576698770605
 20
76.43339401664764
 30
0.0
 10
176.1873916135569
 20
77.19204842558416
 30
0.0
 10
175.9803456631294
 20
77.94314756342958
 30
0.0
  0
SPLINE
  5
CD
330
1F
100
AcDbEntity
  8
0
  6
Continuous
 62
     7
370
    25
100
AcDbSpline
210
0.0
220
0.0
230
1.0
 70
     8
 71
     3
 72
    10
 73
     6
 74
     0
 42
0.00000001
 43
0.00000001
 40
0.0
 40
0.0
 40
0.0
 40
0.0
 40
0.5
 40
0.5
 40
1.0
 40
1.0
 40
1.0
 40
1.0
 10
175.9803456631295
 20
68.70554325639557
 30
0.0
 10
176.1891510023534
 20
69.46302491660111
 30
0.0
 10
176.3596978465125
 20
70.22549246504457
 30
0.0
 10
176.5944801738943
 20
71.76395659938395
 30
0.0
 10
176.6580670683897
 20
72.54007927782651
 30
0.0
 10
176.6580670683897
 20
73.32434540991257
 30
0.0
  0
LINE
  5
CE
330
1F
100
AcDbEntity
  8
0
  6
Continuous
 62
     7
370
    25
100
AcDbLine
 10
171.8357884736
 20
68.7055432564
 30
0.0
 11
175.9803456631
 21
68.7055432564
 31
0.0
  0
SPLINE
  5
CF
330
1F
100
AcDbEntity
  8
0
  6
Continuous
 62
     7
370
    25
100
AcDbSpline
210
0.0
220
0.0
230
1.0
 70
     8
 71
     3
 72
     8
 73
     4
 74
     0
 42
0.00000001
 43
0.00000001
 40
0.0
 40
0.0
 40
0.0
 40
0.0
 40
1.0
 40
1.0
 40
1.0
 40
1.0
 10
171.8357884736498
 20
68.70554325639553
 30
0.0
 10
171.7792266302129
 20
68.91073225793234
 30
0.0
 10
171.7252866129565
 20
69.11695562399704
 30
0.0
 10
171.6743031453688
 20
69.3243454099125
 30
0.0
  0
SPLINE
  5
D0
330
1F
100
AcDbEntity
  8
0
  6
Continuous
 62
     7
370
    25
100
AcDbSpline
210
0.0
220
0.0
230
1.0
 70
     8
 71
     3
 72
     8
 73
     4
 74
     0
 42
0.00000001
 43
0.00000001
 40
0.0
 40
0.0
 40
0.0
 40
0.0
 40
1.0
 40
1.0
 40
1.0
 40
1.0
 10
169.1580670683896
 20
65.51943419833859
 30
0.0
 10
169.365096131725
 20
65.46853940863775
 30
0.0
 10
169.5713361489944
 20
65.41460555927632
 30
0.0
 10
169.7768692219067
 20
65.35794887005757
 30
0.0
  0
LINE
  5
D1
330
1F
100
AcDbEntity
  8
0
  6
Continuous
 62
     7
370
    25
100
AcDbLine
 10
169.7768692219
 20
61.3243454099
 30
0.0
 11
169.7768692219
 21
65.3579488701
 31
0.0
  0
LINE
  5
D2
330
1F
100
AcDbEntity
  8
0
  6
Continuous
 62
     7
370
    25
100
AcDbLine
 10
160.5392649149
 20
61.3243454099
 30
0.0
 11
169.7768692219
 21
61.3243454099
 31
0.0
  0
LINE
  5
D3
330
1F
100
AcDbEntity
  8
0
  6
Continuous
 62
     7
370
    25
100
AcDbLine
 10
160.5392649149
 20
65.3579488701
 30
0.0
 11
160.5392649149
 21
61.3243454099
 31
0.0
  0
ARC
  5
D4
330
1F
100
AcDbEntity
  8
0
  6
Continuous
 62
     7
370
    25
100
AcDbCircle
 10
166.7087984241
 20
72.7474264166
 30
0.0
 40
0.889000000000007
100
AcDbArc
 50
45.0
 51
315.0
  0
LINE
  5
D5
330
1F
100
AcDbEntity
  8
0
  6
Continuous
 62
     7
370
    25
100
AcDbLine
 10
167.3374163526
 20
73.3760443451
 30
0.0
 11
167.8040267382
 21
73.8426547307
 31
0.0
  0
ARC
  5
D6
330
1F
100
AcDbEntity
  8
0
  6
Continuous
 62
     7
370
    25
100
AcDbCircle
 10
166.7087984241
 20
72.7474264166
 30
0.0
 40
1.548886735692394
100
AcDbArc
 50
45.0
 51
315.0
  0
LINE
  5
D7
330
1F
100
AcDbEntity
  8
0
  6
Continuous
 62
     7
370
    25
100
AcDbLine
 10
167.8040267382
 20
71.6521981025
 30
0.0
 11
167.3374163526
 21
72.1188084881
 31
0.0
  0
ARC
  5
D8
330
1F
100
AcDbEntity
  8
0
  6
Continuous
 62
     7
370
    25
100
AcDbCircle
 10
170.0509430205
 20
72.7474264166
 30
0.0
 40
0.8889999999999875
100
AcDbArc
 50
45.0
 51
159.0751675724
  0
LINE
  5
D9
330
1F
100
AcDbEntity
  8
0
  6
Continuous
 62
     7
370
    25
100
AcDbLine
 10
170.6795609489
 20
73.3760443451
 30
0.0
 11
171.1461713346
 21
73.8426547307
 31
0.0
  0
ARC
  5
DA
330
1F
100
AcDbEntity
  8
0
  6
Continuous
 62
     7
370
    25
100
AcDbCircle
 10
170.0509430205
 20
72.7474264166
 30
0.0
 40
1.548886735692384
100
AcDbArc
 50
45.0
 51
315.0
  0
LINE
  5
DB
330
1F
100
AcDbEntity
  8
0
  6
Continuous
 62
     7
370
    25
100
AcDbLine
 10
171.1461713346
 20
71.6521981025
 30
0.0
 11
170.6795609489
 21
72.1188084881
 31
0.0
  0
ARC
  5
DC
330
1F
100
AcDbEntity
  8
0
  6
Continuous
 62
     7
370
    25
100
AcDbCircle
 10
170.0509430205
 20
72.7474264166
 30
0.0
 40
0.8890000000000405
100
AcDbArc
 50
200.9248324276
 51
315.0
  0
LINE
  5
DD
330
1F
100
AcDbEntity
  8
0
  6
Continuous
 62
     7
370
    25
100
AcDbLine
 10
169.2205727717
 20
72.4299264166
 30
0.0
 11
171.1461713346
 21
72.4299264166
 31
0.0
  0
LINE
  5
DE
330
1F
100
AcDbEntity
  8
0
  6
Continuous
 62
     7
370
    25
100
AcDbLine
 10
171.1461713346
 20
72.4299264166
 30
0.0
 11
171.1461713346
 21
73.0649264166
 31
0.0
  0
LINE
  5
DF
330
1F
100
AcDbEntity
  8
0
  6
Continuous
 62
     7
370
    25
100
AcDbLine
 10
171.1461713346
 20
73.0649264166
 30
0.0
 11
169.2205727717
 21
73.0649264166
 31
0.0
  0
LINE
  5
E0
330
1F
100
AcDbEntity
  8
0
  6
Continuous
 62
     7
370
    25
100
AcDbLine
 10
164.2563081544
 20
71.9019723923
 30
0.0
 11
164.2146578351
 21
71.8781674625
 31
0.0
  0
ELLIPSE
  5
E1
330
1F
100
AcDbEntity
  8
0
  6
Continuous
 62
     7
370
    25
100
AcDbEllipse
 10
163.8658146556
 20
72.4328499337
 30
0.0
 11
0.678412947925267
 21
6.110667527536863E-13
 31
0.0
210
0.0
220
0.0
230
1.0
 40
0.9533039403
 41
3.470145824140265
 42
5.252469180536309
  0
LINE
  5
E2
330
1F
100
AcDbEntity
  8
0
  6
Continuous
 62
     7
370
    25
100
AcDbLine
 10
163.2236898886
 20
72.2241658187
 30
0.0
 11
161.9640356837
 21
75.7466102154
 31
0.0
  0
ELLIPSE
  5
E3
330
1F
100
AcDbEntity
  8
0
  6
Continuous
 62
     7
370
    25
100
AcDbEllipse
 10
161.3730531257
 20
75.4842709793
 30
0.0
 11
0.6519124952381786
 21
6.110667527536860E-13
 31
0.0
210
0.0
220
0.0
230
1.0
 40
0.9533023292
 41
0.4357905044354733
 42
2.705800116361498
  0
LINE
  5
E4
330
1F
100
AcDbEntity
  8
0
  6
Continuous
 62
     7
370
    25
100
AcDbLine
 10
160.7820711272
 20
75.7466113606
 30
0.0
 11
159.5227063256
 21
72.2249879589
 31
0.0
  0
ELLIPSE
  5
E5
330
1F
100
AcDbEntity
  8
0
  6
Continuous
 62
     7
370
    25
100
AcDbEllipse
 10
158.8805851416
 20
72.4336707926
 30
0.0
 11
-0.6784085062757583
 21
3.268496584496461E-13
 31
0.0
210
0.0
220
0.0
230
1.0
 40
0.9533122623
 41
1.047193771187948
 42
2.81304232019995
  0
LINE
  5
E6
330
1F
100
AcDbEntity
  8
0
  6
Continuous
 62
     7
370
    25
100
AcDbLine
 10
158.5413786676
 20
71.8735829473
 30
0.0
 11
158.4897980971
 21
71.9019723923
 31
0.0
  0
LINE
  5
E7
330
1F
100
AcDbEntity
  8
0
  6
Continuous
 62
     7
370
    25
100
AcDbLine
 10
158.4897980971
 20
71.9019723923
 30
0.0
 11
159.2860667566
 21
70.3838002909
 31
0.0
  0
ELLIPSE
  5
E8
330
1F
100
AcDbEntity
  8
0
  6
Continuous
 62
     7
370
    25
100
AcDbEllipse
 10
159.36191563
 20
70.4199538058
 30
0.0
 11
0.08480161849064416
 21
-2.842170943040401E-14
 31
0.0
210
0.0
220
0.0
230
1.0
 40
0.9533039403
 41
3.605240262590777
 42
5.462183310215446
  0
ELLIPSE
  5
E9
330
1F
100
AcDbEntity
  8
0
  6
Continuous
 62
     7
370
    25
100
AcDbEllipse
 10
161.3730531257
 20
68.3611051853
 30
0.0
 11
2.866293551216216
 21
-1.477928890381008E-12
 31
0.0
210
0.0
220
0.0
230
1.0
 40
0.9533046568
 41
0.8210016221243804
 42
2.320591031466428
  0
ELLIPSE
  5
EA
330
1F
100
AcDbEntity
  8
0
  6
Continuous
 62
     7
370
    25
100
AcDbEllipse
 10
163.3841906215
 20
70.4199538058
 30
0.0
 11
0.08480161849061574
 21
0.0
 31
0.0
210
0.0
220
0.0
230
1.0
 40
0.9533039403
 41
3.962594650556491
 42
5.819537698177178
  0
LINE
  5
EB
330
1F
100
AcDbEntity
  8
0
  6
Continuous
 62
     7
370
    25
100
AcDbLine
 10
163.4600394949
 20
70.3838002909
 30
0.0
 11
164.2563081544
 21
71.9019723923
 31
0.0
  0
LINE
  5
EC
330
1F
100
AcDbEntity
  8
0
  6
Continuous
 62
     7
370
    25
100
AcDbLine
 10
171.6743031454
 20
69.3243454099
 30
0.0
 11
169.1580670684
 21
69.3243454099
 31
0.0
  0
LINE
  5
ED
330
1F
100
AcDbEntity
  8
0
  6
Continuous
 62
     7
370
    25
100
AcDbLine
 10
169.1580670684
 20
65.5194341983
 30
0.0
 11
169.1580670684
 21
69.3243454099
 31
0.0
  0
LINE
  5
EE
330
1F
100
AcDbEntity
  8
0
  6
Continuous
 62
     7
370
    25
100
AcDbLine
 10
161.1580670684
 20
65.5194341983
 30
0.0
 11
161.1580670684
 21
69.3243454099
 31
0.0
  0
LINE
  5
EF
330
1F
100
AcDbEntity
  8
0
  6
Continuous
 62
     7
370
    25
100
AcDbLine
 10
161.1580670684
 20
69.3243454099
 30
0.0
 11
158.6418309914
 21
69.3243454099
 31
0.0
  0
SPLINE
  5
F0
330
1F
100
AcDbEntity
  8
0
  6
Continuous
 62
     7
370
    25
100
AcDbSpline
210
0.0
220
0.0
230
1.0
 70
     8
 71
     3
 72
    10
 73
     6
 74
     0
 42
0.00000001
 43
0.00000001
 40
0.0
 40
0.0
 40
0.0
 40
0.0
 40
0.5
 40
0.5
 40
1.0
 40
1.0
 40
1.0
 40
1.0
 10
169.7768692219067
 20
65.35794887005754
 30
0.0
 10
169.8627562837092
 20
65.33427347563313
 30
0.0
 10
169.9501634926894
 20
65.32118236574851
 30
0.0
 10
170.1027999352833
 20
65.32109604446028
 30
0.0
 10
170.166922980229
 20
65.33426497840422
 30
0.0
 10
170.2098819237993
 20
65.35794887005777
 30
0.0
  0
LINE
  5
F1
330
1F
100
AcDbEntity
  8
0
  6
Continuous
 62
     7
370
    25
100
AcDbLine
 10
170.2098819238
 20
65.3579488701
 30
0.0
 11
170.2098819238
 21
61.3243454099
 31
0.0
  0
LINE
  5
F2
330
1F
100
AcDbEntity
  8
0
  6
Continuous
 62
     7
370
    25
100
AcDbLine
 10
170.2098819238
 20
61.3243454099
 30
0.0
 11
169.7768692219
 21
61.3243454099
 31
0.0
  0
LINE
  5
F3
330
1F
100
AcDbEntity
  8
0
  6
Continuous
 62
     7
370
    25
100
AcDbLine
 10
161.1043060619
 20
72.7499135534
 30
0.0
 11
161.7116544207
 21
72.7499135534
 31
0.0
  0
LINE
  5
F4
330
1F
100
AcDbEntity
  8
0
  6
Continuous
 62
     7
370
    25
100
AcDbLine
 10
161.791515659
 20
72.8579452822
 30
0.0
 11
161.4878414814
 21
73.6685278994
 31
0.0
  0
ELLIPSE
  5
F5
330
1F
100
AcDbEntity
  8
0
  6
Continuous
 62
     7
370
    25
100
AcDbEllipse
 10
161.7116544207
 20
72.8307552705
 30
0.0
 11
-0.08480161849067258
 21
-4.263256414560601E-14
 31
0.0
210
0.0
220
0.0
230
1.0
 40
0.9533039403
 41
1.570796326794417
 42
3.484616592149252
  0
ELLIPSE
  5
F6
330
1F
100
AcDbEntity
  8
0
  6
Continuous
 62
     7
370
    25
100
AcDbEllipse
 10
161.1043060619
 20
72.8307552705
 30
0.0
 11
0.08480161849067258
 21
-1.421085471520200E-14
 31
0.0
210
0.0
220
0.0
230
1.0
 40
0.9533039403
 41
2.798568711308443
 42
4.712388980384862
  0
LINE
  5
F7
330
1F
100
AcDbEntity
  8
0
  6
Continuous
 62
     7
370
    25
100
AcDbLine
 10
161.3281190048
 20
73.6685278994
 30
0.0
 11
161.0244448236
 21
72.8579452825
 31
0.0
  0
ELLIPSE
  5
F8
330
1F
100
AcDbEntity
  8
0
  6
Continuous
 62
     7
370
    25
100
AcDbEllipse
 10
161.4079802431
 20
73.6413378875
 30
0.0
 11
0.08480161849067258
 21
0.0
 31
0.0
210
0.0
220
0.0
230
1.0
 40
0.9533039403
 41
0.3430239404206913
 42
2.798568713169102
  0
LINE
  5
F9
330
1F
100
AcDbEntity
  8
0
  6
Continuous
 62
     7
370
    25
100
AcDbLine
 10
175.9803456631
 20
68.2725305545
 30
0.0
 11
171.8357884736
 21
68.2725305545
 31
0.0
  0
SPLINE
  5
FA
330
1F
100
AcDbEntity
  8
0
  6
Continuous
 62
     7
370
    25
100
AcDbSpline
210
0.0
220
0.0
230
1.0
 70
     8
 71
     3
 72
    10
 73
     6
 74
     0
 42
0.00000001
 43
0.00000001
 40
0.0
 40
0.0
 40
0.0
 40
0.0
 40
0.5
 40
0.5
 40
1.0
 40
1.0
 40
1.0
 40
1.0
 10
171.8357884736466
 20
68.27253055450335
 30
0.0
 10
171.8594638680709
 20
68.3154740854045
 30
0.0
 10
171.8725549779588
 20
68.37891653002828
 30
0.0
 10
171.8726412992472
 20
68.53139536714738
 30
0.0
 10
171.8594723653034
 20
68.61962536925479
 30
0.0
 10
171.8357884736499
 20
68.70554325639556
 30
0.0
  0
SPLINE
  5
FB
330
1F
100
AcDbEntity
  8
0
  6
Continuous
 62
     7
370
    25
100
AcDbSpline
210
0.0
220
0.0
230
1.0
 70
     8
 71
     3
 72
    10
 73
     6
 74
     0
 42
0.00000001
 43
0.00000001
 40
0.0
 40
0.0
 40
0.0
 40
0.0
 40
0.5
 40
0.5
 40
1.0
 40
1.0
 40
1.0
 40
1.0
 10
175.9803456631295
 20
68.70554325639557
 30
0.0
 10
175.9566717625735
 20
68.61966161388911
 30
0.0
 10
175.9435792053944
 20
68.53225240792366
 30
0.0
 10
175.9434927914121
 20
68.37960992284873
 30
0.0
 10
175.9566631830107
 20
68.31548693776638
 30
0.0
 10
175.9803456631294
 20
68.27253055450335
 30
0.0
  0
LINE
  5
FC
330
1F
100
AcDbEntity
  8
0
  6
Continuous
 62
     7
370
    25
100
AcDbLine
 10
160.106252213
 20
61.3243454099
 30
0.0
 11
160.106252213
 21
65.3579488701
 31
0.0
  0
SPLINE
  5
FD
330
1F
100
AcDbEntity
  8
0
  6
Continuous
 62
     7
370
    25
100
AcDbSpline
210
0.0
220
0.0
230
1.0
 70
     8
 71
     3
 72
    10
 73
     6
 74
     0
 42
0.00000001
 43
0.00000001
 40
0.0
 40
0.0
 40
0.0
 40
0.0
 40
0.5
 40
0.5
 40
1.0
 40
1.0
 40
1.0
 40
1.0
 10
160.1062522129804
 20
65.35794887005757
 30
0.0
 10
160.1491957438816
 20
65.33427347563317
 30
0.0
 10
160.2126381885058
 20
65.32118236574854
 30
0.0
 10
160.3651170256247
 20
65.32109604446025
 30
0.0
 10
160.453347027732
 20
65.3342649784041
 30
0.0
 10
160.5392649148726
 20
65.35794887005756
 30
0.0
  0
LINE
  5
FE
330
1F
100
AcDbEntity
  8
0
  6
Continuous
 62
     7
370
    25
100
AcDbLine
 10
160.5392649149
 20
61.3243454099
 30
0.0
 11
160.106252213
 21
61.3243454099
 31
0.0
  0
LINE
  5
FF
330
1F
100
AcDbEntity
  8
0
  6
Continuous
 62
     7
370
    25
100
AcDbLine
 10
159.1580670684
 20
69.3243454099
 30
0.0
 11
159.1580670684
 21
67.3243454099
 31
0.0
  0
SPLINE
  5
100
330
1F
100
AcDbEntity
  8
0
  6
Continuous
 62
     7
370
    25
100
AcDbSpline
210
0.0
220
0.0
230
1.0
 70
     8
 71
     3
 72
     8
 73
     4
 74
     0
 42
0.00000001
 43
0.00000001
 40
0.0
 40
0.0
 40
0.0
 40
0.0
 40
1.0
 40
1.0
 40
1.0
 40
1.0
 10
159.1580670683896
 20
67.32434540991255
 30
0.0
 10
159.1182884101995
 20
67.18696032091245
 30
0.0
 10
159.0777994473712
 20
67.05025623910069
 30
0.0
 10
159.0366835768935
 20
66.91422387658733
 30
0.0
  0
SPLINE
  5
101
330
1F
100
AcDbEntity
  8
0
  6
Continuous
 62
     7
370
    25
100
AcDbSpline
210
0.0
220
0.0
230
1.0
 70
     8
 71
     3
 72
     8
 73
     4
 74
     0
 42
0.00000001
 43
0.00000001
 40
0.0
 40
0.0
 40
0.0
 40
0.0
 40
1.0
 40
1.0
 40
1.0
 40
1.0
 10
158.4803456631295
 20
68.27253055450335
 30
0.0
 10
158.7275194440134
 20
67.82419526145202
 30
0.0
 10
158.9212411123174
 20
67.37202077070842
 30
0.0
 10
159.0366835768935
 20
66.91422387658733
 30
0.0
  0
SPLINE
  5
102
330
1F
100
AcDbEntity
  8
0
  6
Continuous
 62
     7
370
    25
100
AcDbSpline
210
0.0
220
0.0
230
1.0
 70
     8
 71
     3
 72
    10
 73
     6
 74
     0
 42
0.00000001
 43
0.00000001
 40
0.0
 40
0.0
 40
0.0
 40
0.0
 40
0.5
 40
0.5
 40
1.0
 40
1.0
 40
1.0
 40
1.0
 10
158.4803456631294
 20
68.70554325639556
 30
0.0
 10
158.456670268705
 20
68.61965619459309
 30
0.0
 10
158.4435791588204
 20
68.53224898561297
 30
0.0
 10
158.4434928375321
 20
68.37961254301923
 30
0.0
 10
158.456661771476
 20
68.31548949807365
 30
0.0
 10
158.4803456631295
 20
68.27253055450335
 30
0.0
  0
SPLINE
  5
103
330
1F
100
AcDbEntity
  8
0
  6
Continuous
 62
     7
370
    25
100
AcDbSpline
210
0.0
220
0.0
230
1.0
 70
     8
 71
     3
 72
     8
 73
     4
 74
     0
 42
0.00000001
 43
0.00000001
 40
0.0
 40
0.0
 40
0.0
 40
0.0
 40
1.0
 40
1.0
 40
1.0
 40
1.0
 10
157.868690883773
 20
66.03496922528383
 30
0.0
 10
158.1777080264148
 20
66.13597433311395
 30
0.0
 10
158.4930257827328
 20
66.2326311221799
 30
0.0
 10
158.8155051095758
 20
66.32434540991257
 30
0.0
  0
SPLINE
  5
104
330
1F
100
AcDbEntity
  8
0
  6
Continuous
 62
     7
370
    25
100
AcDbSpline
210
0.0
220
0.0
230
1.0
 70
     8
 71
     3
 72
    12
 73
     8
 74
     0
 42
0.00000001
 43
0.00000001
 40
0.0
 40
0.0
 40
0.0
 40
0.0
 40
0.2500000000000002
 40
0.2500000000000002
 40
0.5000000000000004
 40
0.5000000000000004
 40
1.0
 40
1.0
 40
1.0
 40
1.0
 10
157.8686908837678
 20
66.03496922527769
 30
0.0
 10
158.058717059071
 20
66.03126073942127
 30
0.0
 10
158.2489321217568
 20
66.0126782365836
 30
0.0
 10
158.6258688808892
 20
65.94781119961745
 30
0.0
 10
158.8131916721487
 20
65.90154564636718
 30
0.0
 10
159.3721016284628
 20
65.72582111606022
 30
0.0
 10
159.7406372865731
 20
65.55951770728346
 30
0.0
 10
160.1062522129804
 20
65.35794887005757
 30
0.0
  0
SPLINE
  5
105
330
1F
100
AcDbEntity
  8
0
  6
Continuous
 62
     7
370
    25
100
AcDbSpline
210
0.0
220
0.0
230
1.0
 70
     8
 71
     3
 72
    10
 73
     6
 74
     0
 42
0.00000001
 43
0.00000001
 40
0.0
 40
0.0
 40
0.0
 40
0.0
 40
0.5
 40
0.5
 40
1.0
 40
1.0
 40
1.0
 40
1.0
 10
154.3357884736498
 20
78.37616026532179
 30
0.0
 10
154.3594607135614
 20
78.33322245622256
 30
0.0
 10
154.3725547034967
 20
78.26978186633035
 30
0.0
 10
154.3726415709581
 20
78.11729272082152
 30
0.0
 10
154.3594717811987
 20
78.0290633316182
 30
0.0
 10
154.3357884736498
 20
77.94314756342958
 30
0.0
  0
LINE
  5
106
330
1F
100
AcDbEntity
  8
0
  6
Continuous
 62
     7
370
    25
100
AcDbLine
 10
154.3357884736
 20
78.3761602653
 30
0.0
 11
158.4803456631
 21
78.3761602653
 31
0.0
  0
LINE
  5
107
330
1F
100
AcDbEntity
  8
0
  6
Continuous
 62
     7
370
    25
100
AcDbLine
 10
171.1580670684
 20
80.6855613421
 30
0.0
 11
171.1580670684
 21
77.3243454099
 31
0.0
  0
SPLINE
  5
108
330
1F
100
AcDbEntity
  8
0
  6
Continuous
 62
     7
370
    25
100
AcDbSpline
210
0.0
220
0.0
230
1.0
 70
     8
 71
     3
 72
    10
 73
     6
 74
     0
 42
0.00000001
 43
0.00000001
 40
0.0
 40
0.0
 40
0.0
 40
0.0
 40
0.5
 40
0.5
 40
1.0
 40
1.0
 40
1.0
 40
1.0
 10
171.8357884736499
 20
78.37616026532176
 30
0.0
 10
171.6273677208324
 20
78.75420351472393
 30
0.0
 10
171.456903885555
 20
79.13497301951979
 30
0.0
 10
171.2219214506166
 20
79.90412154507733
 30
0.0
 10
171.1580670683896
 20
80.29254827325256
 30
0.0
 10
171.1580670683896
 20
80.68556134208029
 30
0.0
  0
SPLINE
  5
109
330
1F
100
AcDbEntity
  8
0
  6
Continuous
 62
     7
370
    25
100
AcDbSpline
210
0.0
220
0.0
230
1.0
 70
     8
 71
     3
 72
    10
 73
     6
 74
     0
 42
0.00000001
 43
0.00000001
 40
0.0
 40
0.0
 40
0.0
 40
0.0
 40
0.5
 40
0.5
 40
1.0
 40
1.0
 40
1.0
 40
1.0
 10
171.8357884736499
 20
77.94314756342958
 30
0.0
 10
171.8594638680742
 20
78.02903462523203
 30
0.0
 10
171.8725549779589
 20
78.11644183421214
 30
0.0
 10
171.8726412992471
 20
78.26907827680586
 30
0.0
 10
171.8594723653033
 20
78.33320132175145
 30
0.0
 10
171.8357884736499
 20
78.37616026532176
 30
0.0
  0
SPLINE
  5
10A
330
1F
100
AcDbEntity
  8
0
  6
Continuous
 62
     7
370
    25
100
AcDbSpline
210
0.0
220
0.0
230
1.0
 70
     8
 71
     3
 72
    10
 73
     6
 74
     0
 42
0.00000001
 43
0.00000001
 40
0.0
 40
0.0
 40
0.0
 40
0.0
 40
0.5
 40
0.5
 40
1.0
 40
1.0
 40
1.0
 40
1.0
 10
175.9803456631294
 20
78.37616026532179
 30
0.0
 10
175.9566734232179
 20
78.33322245622256
 30
0.0
 10
175.9435794332827
 20
78.26978186633036
 30
0.0
 10
175.9434925658212
 20
78.11729272082152
 30
0.0
 10
175.9566623555806
 20
78.0290633316182
 30
0.0
 10
175.9803456631294
 20
77.94314756342958
 30
0.0
  0
SPLINE
  5
10B
330
1F
100
AcDbEntity
  8
0
  6
Continuous
 62
     7
370
    25
100
AcDbSpline
210
0.0
220
0.0
230
1.0
 70
     8
 71
     3
 72
    10
 73
     6
 74
     0
 42
0.00000001
 43
0.00000001
 40
0.0
 40
0.0
 40
0.0
 40
0.0
 40
0.5
 40
0.5
 40
1.0
 40
1.0
 40
1.0
 40
1.0
 10
175.9803456631299
 20
78.37616026532176
 30
0.0
 10
176.1891555877962
 20
78.75490941271306
 30
0.0
 10
176.3596897275434
 20
79.13611468912437
 30
0.0
 10
176.5944755325623
 20
79.90534531031214
 30
0.0
 10
176.6580670683897
 20
80.29341301511046
 30
0.0
 10
176.6580670683897
 20
80.68556134208029
 30
0.0
  0
LINE
  5
10C
330
1F
100
AcDbEntity
  8
0
  6
Continuous
 62
     7
370
    25
100
AcDbLine
 10
176.6580670684
 20
73.3243454099
 30
0.0
 11
176.6580670684
 21
80.6855613421
 31
0.0
  0
SPLINE
  5
10D
330
1F
100
AcDbEntity
  8
0
  6
Continuous
 62
     7
370
    25
100
AcDbSpline
210
0.0
220
0.0
230
1.0
 70
     8
 71
     3
 72
    12
 73
     8
 74
     0
 42
0.00000001
 43
0.00000001
 40
0.0
 40
0.0
 40
0.0
 40
0.0
 40
0.2499999999999998
 40
0.2499999999999998
 40
0.4999999999999996
 40
0.4999999999999996
 40
1.0
 40
1.0
 40
1.0
 40
1.0
 10
176.6580670683897
 20
65.96312947774484
 30
0.0
 10
176.6580670683897
 20
66.15813295775064
 30
0.0
 10
176.6423207383677
 20
66.35466761677505
 30
0.0
 10
176.5808757137823
 20
66.74408730438059
 30
0.0
 10
176.5352869545285
 20
66.93757199744086
 30
0.0
 10
176.358835952272
 20
67.51475559619645
 30
0.0
 10
176.1883782503085
 20
67.89519137797942
 30
0.0
 10
175.9803456631296
 20
68.27253055450336
 30
0.0
  0
LINE
  5
10E
330
1F
100
AcDbEntity
  8
0
  6
Continuous
 62
     7
370
    25
100
AcDbLine
 10
176.6580670684
 20
65.9631294777
 30
0.0
 11
176.6580670684
 21
73.3243454099
 31
0.0
  0
SPLINE
  5
10F
330
1F
100
AcDbEntity
  8
0
  6
Continuous
 62
     7
370
    25
100
AcDbSpline
210
0.0
220
0.0
230
1.0
 70
     8
 71
     3
 72
    10
 73
     6
 74
     0
 42
0.00000001
 43
0.00000001
 40
0.0
 40
0.0
 40
0.0
 40
0.0
 40
0.5
 40
0.5
 40
1.0
 40
1.0
 40
1.0
 40
1.0
 10
154.3357884736494
 20
78.37616026532176
 30
0.0
 10
154.1269785489831
 20
78.75490941271306
 30
0.0
 10
153.9564444092359
 20
79.13611468912435
 30
0.0
 10
153.7216586042169
 20
79.90534531031214
 30
0.0
 10
153.6580670683897
 20
80.29341301511046
 30
0.0
 10
153.6580670683897
 20
80.68556134208029
 30
0.0
  0
LINE
  5
110
330
1F
100
AcDbEntity
  8
0
  6
Continuous
 62
     7
370
    25
100
AcDbLine
 10
153.6580670684
 20
73.3243454099
 30
0.0
 11
153.6580670684
 21
80.6855613421
 31
0.0
  0
SPLINE
  5
111
330
1F
100
AcDbEntity
  8
0
  6
Continuous
 62
     7
370
    25
100
AcDbSpline
210
0.0
220
0.0
230
1.0
 70
     8
 71
     3
 72
     8
 73
     4
 74
     0
 42
0.00000001
 43
0.00000001
 40
0.0
 40
0.0
 40
0.0
 40
0.0
 40
1.0
 40
1.0
 40
1.0
 40
1.0
 10
171.2794505598858
 20
66.91422387658733
 30
0.0
 10
171.2383352842445
 20
67.05025427107687
 30
0.0
 10
171.1978463013767
 20
67.18695833571431
 30
0.0
 10
171.1580670683896
 20
67.32434540991255
 30
0.0
  0
LINE
  5
112
330
1F
100
AcDbEntity
  8
0
  6
Continuous
 62
     7
370
    25
100
AcDbLine
 10
171.1580670684
 20
69.3243454099
 30
0.0
 11
171.1580670684
 21
67.3243454099
 31
0.0
  0
SPLINE
  5
113
330
1F
100
AcDbEntity
  8
0
  6
Continuous
 62
     7
370
    25
100
AcDbSpline
210
0.0
220
0.0
230
1.0
 70
     8
 71
     3
 72
     8
 73
     4
 74
     0
 42
0.00000001
 43
0.00000001
 40
0.0
 40
0.0
 40
0.0
 40
0.0
 40
1.0
 40
1.0
 40
1.0
 40
1.0
 10
171.2794505598858
 20
66.91422387658733
 30
0.0
 10
171.3950831699149
 20
67.37277480864508
 30
0.0
 10
171.5889725747353
 20
67.82484440440334
 30
0.0
 10
171.8357884736497
 20
68.27253055450308
 30
0.0
  0
SPLINE
  5
114
330
1F
100
AcDbEntity
  8
0
  6
Continuous
 62
     7
370
    25
100
AcDbSpline
210
0.0
220
0.0
230
1.0
 70
     8
 71
     3
 72
    10
 73
     6
 74
     0
 42
0.00000001
 43
0.00000001
 40
0.0
 40
0.0
 40
0.0
 40
0.0
 40
0.5
 40
0.5
 40
1.0
 40
1.0
 40
1.0
 40
1.0
 10
154.3357884736498
 20
68.70554325639556
 30
0.0
 10
154.3594623742058
 20
68.61966161388911
 30
0.0
 10
154.3725549313849
 20
68.53225240792366
 30
0.0
 10
154.3726413453672
 20
68.37960992284873
 30
0.0
 10
154.3594709537686
 20
68.31548693776638
 30
0.0
 10
154.3357884736498
 20
68.27253055450335
 30
0.0
  0
SPLINE
  5
115
330
1F
100
AcDbEntity
  8
0
  6
Continuous
 62
     7
370
    25
100
AcDbSpline
210
0.0
220
0.0
230
1.0
 70
     8
 71
     3
 72
    12
 73
     8
 74
     0
 42
0.00000001
 43
0.00000001
 40
0.0
 40
0.0
 40
0.0
 40
0.0
 40
0.2499999999999999
 40
0.2499999999999999
 40
0.4999999999999998
 40
0.4999999999999998
 40
1.0
 40
1.0
 40
1.0
 40
1.0
 10
153.6580670683897
 20
65.96312947774483
 30
0.0
 10
153.6580670683897
 20
66.15813295775062
 30
0.0
 10
153.6738133984116
 20
66.35466761677505
 30
0.0
 10
153.735258422997
 20
66.74408730438059
 30
0.0
 10
153.7808471822508
 20
66.93757199744086
 30
0.0
 10
153.9572981845074
 20
67.51475559619645
 30
0.0
 10
154.1277558864709
 20
67.89519137797942
 30
0.0
 10
154.3357884736497
 20
68.27253055450336
 30
0.0
  0
LINE
  5
116
330
1F
100
AcDbEntity
  8
0
  6
Continuous
 62
     7
370
    25
100
AcDbLine
 10
153.6580670684
 20
65.9631294777
 30
0.0
 11
153.6580670684
 21
73.3243454099
 31
0.0
  0
LINE
  5
117
330
1F
100
AcDbEntity
  8
0
  6
Continuous
 62
     7
370
    25
100
AcDbLine
 10
171.8357884736
 20
78.3761602653
 30
0.0
 11
175.9803456631
 21
78.3761602653
 31
0.0
  0
LINE
  5
118
330
1F
100
AcDbEntity
  8
0
  6
Continuous
 62
     7
370
    25
100
AcDbLine
 10
158.4803456631
 20
68.2725305545
 30
0.0
 11
154.3357884736
 21
68.2725305545
 31
0.0
  0
SPLINE
  5
119
330
1F
100
AcDbEntity
  8
0
  6
Continuous
 62
     7
370
    25
100
AcDbSpline
210
0.0
220
0.0
230
1.0
 70
     8
 71
     3
 72
     8
 73
     4
 74
     0
 42
0.00000001
 43
0.00000001
 40
0.0
 40
0.0
 40
0.0
 40
0.0
 40
1.0
 40
1.0
 40
1.0
 40
1.0
 10
171.5006290272035
 20
66.32434540991257
 30
0.0
 10
171.8231083540528
 20
66.23263112217812
 30
0.0
 10
172.1384261103767
 20
66.13597433311021
 30
0.0
 10
172.4474432530243
 20
66.03496922527795
 30
0.0
  0
SPLINE
  5
11A
330
1F
100
AcDbEntity
  8
0
  6
Continuous
 62
     7
370
    25
100
AcDbSpline
210
0.0
220
0.0
230
1.0
 70
     8
 71
     3
 72
    10
 73
     6
 74
     0
 42
0.00000001
 43
0.00000001
 40
0.0
 40
0.0
 40
0.0
 40
0.0
 40
0.5
 40
0.5
 40
1.0
 40
1.0
 40
1.0
 40
1.0
 10
170.2098819237991
 20
65.35794887005773
 30
0.0
 10
170.5763998706397
 20
65.56001555560864
 30
0.0
 10
170.9454800961055
 20
65.7264083278793
 30
0.0
 10
171.6907324443329
 20
65.96045530174933
 30
0.0
 10
172.0669452162807
 20
66.02754355570816
 30
0.0
 10
172.4474432530243
 20
66.03496922527795
 30
0.0
  0
SPLINE
  5
11B
330
1F
100
AcDbEntity
  8
0
  6
Continuous
 62
     7
370
    25
100
AcDbSpline
210
0.0
220
0.0
230
1.0
 70
     8
 71
     3
 72
    12
 73
     8
 74
     0
 42
0.00000001
 43
0.00000001
 40
0.0
 40
0.0
 40
0.0
 40
0.0
 40
0.2499999999999999
 40
0.2499999999999999
 40
0.4999999999999998
 40
0.4999999999999998
 40
1.0
 40
1.0
 40
1.0
 40
1.0
 10
171.1580670683896
 20
80.68556134208029
 30
0.0
 10
171.1580670683896
 20
80.88130360495983
 30
0.0
 10
171.1739100044786
 20
81.07797021415037
 30
0.0
 10
171.2354128647163
 20
81.46723844147866
 30
0.0
 10
171.28101650576
 20
81.66064247443157
 30
0.0
 10
171.4574675232492
 20
82.23757152568834
 30
0.0
 10
171.6278648905011
 20
82.61782095889133
 30
0.0
 10
171.8357884736499
 20
82.9949624188388
 30
0.0
  0
LINE
  5
11C
330
1F
100
AcDbEntity
  8
0
  6
Continuous
 62
     7
370
    25
100
AcDbLine
 10
175.9803456631
 20
82.9949624188
 30
0.0
 11
171.8357884736
 21
82.9949624188
 31
0.0
  0
SPLINE
  5
11D
330
1F
100
AcDbEntity
  8
0
  6
Continuous
 62
     7
370
    25
100
AcDbSpline
210
0.0
220
0.0
230
1.0
 70
     8
 71
     3
 72
    12
 73
     8
 74
     0
 42
0.00000001
 43
0.00000001
 40
0.0
 40
0.0
 40
0.0
 40
0.0
 40
0.2500000000000002
 40
0.2500000000000002
 40
0.5
 40
0.5
 40
1.0
 40
1.0
 40
1.0
 40
1.0
 10
176.6580670683897
 20
80.68556134208029
 30
0.0
 10
176.6580670683897
 20
80.8805648220861
 30
0.0
 10
176.6423207383677
 20
81.0770994811105
 30
0.0
 10
176.5808757137823
 20
81.46651916871606
 30
0.0
 10
176.5352869545285
 20
81.66000386177632
 30
0.0
 10
176.358835952272
 20
82.23718746053191
 30
0.0
 10
176.1883782503085
 20
82.61762324231488
 30
0.0
 10
175.9803456631296
 20
82.99496241883881
 30
0.0
  0
ELLIPSE
  5
11E
330
1F
100
AcDbEntity
  8
0
  6
Continuous
 62
     7
370
    25
100
AcDbEllipse
 10
165.1580670684
 20
63.5093908337
 30
0.0
 11
8.5
 21
0.0
 31
0.0
210
0.0
220
0.0
230
1.0
 40
0.5773502692
 41
2.374833212873083
 42
2.530692279913058
  0
LINE
  5
11F
330
1F
100
AcDbEntity
  8
0
  6
Continuous
 62
     7
370
    25
100
AcDbLine
 10
157.8686908838
 20
66.0349692253
 30
0.0
 11
155.4874500595
 21
63.653728401
 31
0.0
  0
LINE
  5
120
330
1F
100
AcDbEntity
  8
0
  6
Continuous
 62
     7
370
    25
100
AcDbLine
 10
154.3357884736
 20
63.653728401
 30
0.0
 11
155.4874500595
 21
63.653728401
 31
0.0
  0
SPLINE
  5
121
330
1F
100
AcDbEntity
  8
0
  6
Continuous
 62
     7
370
    25
100
AcDbSpline
210
0.0
220
0.0
230
1.0
 70
     8
 71
     3
 72
    10
 73
     6
 74
     0
 42
0.00000001
 43
0.00000001
 40
0.0
 40
0.0
 40
0.0
 40
0.0
 40
0.5
 40
0.5
 40
1.0
 40
1.0
 40
1.0
 40
1.0
 10
154.3357884736494
 20
63.6537284009863
 30
0.0
 10
154.1269785489831
 20
64.0324775483776
 30
0.0
 10
153.9564444092359
 20
64.41368282478889
 30
0.0
 10
153.7216586042169
 20
65.18291344597667
 30
0.0
 10
153.6580670683897
 20
65.57098115077498
 30
0.0
 10
153.6580670683897
 20
65.96312947774483
 30
0.0
  0
SPLINE
  5
122
330
1F
100
AcDbEntity
  8
0
  6
Continuous
 62
     7
370
    25
100
AcDbSpline
210
0.0
220
0.0
230
1.0
 70
     8
 71
     3
 72
    12
 73
     8
 74
     0
 42
0.00000001
 43
0.00000001
 40
0.0
 40
0.0
 40
0.0
 40
0.0
 40
0.2499999999999999
 40
0.2499999999999999
 40
0.5
 40
0.5
 40
1.0
 40
1.0
 40
1.0
 40
1.0
 10
153.6580670683897
 20
80.68556134208029
 30
0.0
 10
153.6580670683897
 20
80.8805648220861
 30
0.0
 10
153.6738133984116
 20
81.0770994811105
 30
0.0
 10
153.735258422997
 20
81.46651916871606
 30
0.0
 10
153.7808471822508
 20
81.66000386177632
 30
0.0
 10
153.9572981845074
 20
82.23718746053191
 30
0.0
 10
154.1277558864709
 20
82.61762324231488
 30
0.0
 10
154.3357884736497
 20
82.99496241883881
 30
0.0
  0
LINE
  5
123
330
1F
100
AcDbEntity
  8
0
  6
Continuous
 62
     7
370
    25
100
AcDbLine
 10
158.4803456631
 20
82.9949624188
 30
0.0
 11
154.3357884736
 21
82.9949624188
 31
0.0
  0
SPLINE
  5
124
330
1F
100
AcDbEntity
  8
0
  6
Continuous
 62
     7
370
    25
100
AcDbSpline
210
0.0
220
0.0
230
1.0
 70
     8
 71
     3
 72
    10
 73
     6
 74
     0
 42
0.00000001
 43
0.00000001
 40
0.0
 40
0.0
 40
0.0
 40
0.0
 40
0.5
 40
0.5
 40
1.0
 40
1.0
 40
1.0
 40
1.0
 10
158.4803456631295
 20
82.99496241883882
 30
0.0
 10
158.6887664159469
 20
82.61691916943667
 30
0.0
 10
158.8592302512243
 20
82.2361496646408
 30
0.0
 10
159.0942126861627
 20
81.46700113908327
 30
0.0
 10
159.1580670683897
 20
81.07857441090803
 30
0.0
 10
159.1580670683897
 20
80.68556134208029
 30
0.0
  0
LINE
  5
125
330
1F
100
AcDbEntity
  8
0
  6
Continuous
 62
     7
370
    25
100
AcDbLine
 10
174.8286840773
 20
63.653728401
 30
0.0
 11
172.447443253
 21
66.0349692253
 31
0.0
  0
LINE
  5
126
330
1F
100
AcDbEntity
  8
0
  6
Continuous
 62
     7
370
    25
100
AcDbLine
 10
174.8286840773
 20
61.3243454099
 30
0.0
 11
174.8286840773
 21
63.653728401
 31
0.0
  0
LINE
  5
127
330
1F
100
AcDbEntity
  8
0
  6
Continuous
 62
     7
370
    25
100
AcDbLine
 10
170.2098819238
 20
61.3243454099
 30
0.0
 11
174.8286840773
 21
61.3243454099
 31
0.0
  0
LINE
  5
128
330
1F
100
AcDbEntity
  8
0
  6
Continuous
 62
     7
370
    25
100
AcDbLine
 10
155.4874500595
 20
63.653728401
 30
0.0
 11
155.4874500595
 21
61.3243454099
 31
0.0
  0
LINE
  5
129
330
1F
100
AcDbEntity
  8
0
  6
Continuous
 62
     7
370
    25
100
AcDbLine
 10
155.4874500595
 20
61.3243454099
 30
0.0
 11
160.106252213
 21
61.3243454099
 31
0.0
  0
ELLIPSE
  5
12A
330
1F
100
AcDbEntity
  8
0
  6
Continuous
 62
     7
370
    25
100
AcDbEllipse
 10
165.1580670684
 20
63.5093908337
 30
0.0
 11
8.5
 21
0.0
 31
0.0
210
0.0
220
0.0
230
1.0
 40
0.5773502692
 41
0.6109003736767336
 42
0.7667594407167082
  0
SPLINE
  5
12B
330
1F
100
AcDbEntity
  8
0
  6
Continuous
 62
     7
370
    25
100
AcDbSpline
210
0.0
220
0.0
230
1.0
 70
     8
 71
     3
 72
    10
 73
     6
 74
     0
 42
0.00000001
 43
0.00000001
 40
0.0
 40
0.0
 40
0.0
 40
0.0
 40
0.5000000000000001
 40
0.5000000000000001
 40
1.0
 40
1.0
 40
1.0
 40
1.0
 10
175.9803456631299
 20
63.6537284009863
 30
0.0
 10
176.1891555877962
 20
64.03247754837759
 30
0.0
 10
176.3596897275434
 20
64.41368282478889
 30
0.0
 10
176.5944755325623
 20
65.18291344597668
 30
0.0
 10
176.6580670683897
 20
65.570981150775
 30
0.0
 10
176.6580670683897
 20
65.96312947774484
 30
0.0
  0
LINE
  5
12C
330
1F
100
AcDbEntity
  8
0
  6
Continuous
 62
     7
370
    25
100
AcDbLine
 10
174.8286840773
 20
63.653728401
 30
0.0
 11
175.9803456631
 21
63.653728401
 31
0.0
  0
LINE
  5
12D
330
1F
100
AcDbEntity
  8
0
  6
Continuous
 62
     7
370
    25
100
AcDbLine
 10
171.1580670684
 20
67.3243454099
 30
0.0
 11
169.1580670684
 21
69.3243454099
 31
0.0
  0
LINE
  5
12E
330
1F
100
AcDbEntity
  8
0
  6
Continuous
 62
     7
370
    25
100
AcDbLine
 10
169.1580670684
 20
66.3243454099
 30
0.0
 11
172.120688141
 21
66.3243454099
 31
0.0
  0
LINE
  5
12F
330
1F
100
AcDbEntity
  8
0
  6
Continuous
 62
     7
370
    25
100
AcDbLine
 10
161.1580670684
 20
69.3243454099
 30
0.0
 11
159.1580670684
 21
67.3243454099
 31
0.0
  0
LINE
  5
130
330
1F
100
AcDbEntity
  8
0
  6
Continuous
 62
     7
370
    25
100
AcDbLine
 10
158.1954459957
 20
66.3243454099
 30
0.0
 11
161.1580670684
 21
66.3243454099
 31
0.0
  0
LINE
  5
131
330
1F
100
AcDbEntity
  8
0
  6
Continuous
 62
     7
370
    25
100
AcDbLine
 10
159.1580670684
 20
81.2587998881
 30
0.0
 11
159.1580670684
 21
80.6855613421
 31
0.0
  0
SPLINE
  5
132
330
1F
100
AcDbEntity
  8
0
  6
Continuous
 62
     7
370
    25
100
AcDbSpline
210
0.0
220
0.0
230
1.0
 70
     8
 71
     3
 72
    32
 73
    28
 74
     0
 42
0.00000001
 43
0.00000001
 40
0.0
 40
0.0
 40
0.0
 40
0.0
 40
0.0625000000000001
 40
0.0625000000000001
 40
0.1250000000000001
 40
0.1250000000000001
 40
0.1875000000000002
 40
0.1875000000000002
 40
0.2500000000000003
 40
0.2500000000000003
 40
0.3750000000000003
 40
0.3750000000000003
 40
0.4375000000000003
 40
0.4375000000000003
 40
0.5000000000000002
 40
0.5000000000000002
 40
0.5625000000000002
 40
0.5625000000000002
 40
0.6250000000000001
 40
0.6250000000000001
 40
0.7500000000000001
 40
0.7500000000000001
 40
0.8750000000000002
 40
0.8750000000000002
 40
0.9375000000000001
 40
0.9375000000000001
 40
1.0
 40
1.0
 40
1.0
 40
1.0
 10
171.1580670683812
 20
81.25879988813321
 30
0.0
 10
171.0012107324643
 20
81.16384291023752
 30
0.0
 10
170.8282122983087
 20
81.06108973561234
 30
0.0
 10
170.4515077116829
 20
80.84437853396408
 30
0.0
 10
170.2486549312262
 20
80.73095982347405
 30
0.0
 10
169.8226736684236
 20
80.5028696867759
 30
0.0
 10
169.5984957081355
 20
80.38756280432403
 30
0.0
 10
169.1271446145592
 20
80.15923970194926
 30
0.0
 10
168.8784590991941
 20
80.0455896858155
 30
0.0
 10
168.1078866145024
 20
79.72252565458146
 30
0.0
 10
167.5622492044203
 20
79.52962713041798
 30
0.0
 10
166.6794694559239
 20
79.31803320514426
 30
0.0
 10
166.3808303560511
 20
79.26239081902652
 30
0.0
 10
165.7743287553353
 20
79.18672274966268
 30
0.0
 10
165.4641815166694
 20
79.16674950388636
 30
0.0
 10
164.8440960279856
 20
79.16708327013961
 30
0.0
 10
164.5375249905176
 20
79.1870822354624
 30
0.0
 10
163.9308702432094
 20
79.26312102165886
 30
0.0
 10
163.6284971785841
 20
79.31977412179042
 30
0.0
 10
162.7518608758311
 20
79.53055267183626
 30
0.0
 10
162.2038067438542
 20
79.72409850240801
 30
0.0
 10
161.1733094766109
 20
80.15671779568382
 30
0.0
 10
160.7057494413314
 20
80.38919444037424
 30
0.0
 10
160.0675358377035
 20
80.73093244129328
 30
0.0
 10
159.8643260995137
 20
80.84454995672166
 30
0.0
 10
159.4879891731193
 20
81.0610523490779
 30
0.0
 10
159.3150105646277
 20
81.1637901455223
 30
0.0
 10
159.1580670683897
 20
81.25879988813837
 30
0.0
  0
LINE
  5
133
330
1F
100
AcDbEntity
  8
0
  6
Continuous
 62
     7
370
    25
100
AcDbLine
 10
171.1580670684
 20
81.2587998881
 30
0.0
 11
171.1580670684
 21
80.6855613421
 31
0.0
  0
LINE
  5
134
330
1F
100
AcDbEntity
  8
0
  6
Continuous
 62
     7
370
    25
100
AcDbLine
 10
158.7021049542
 20
51.9131330637
 30
0.0
 11
171.6140291826
 21
51.9131330637
 31
0.0
  0
SPLINE
  5
135
330
1F
100
AcDbEntity
  8
0
  6
Continuous
 62
     7
370
    25
100
AcDbSpline
210
0.0
220
0.0
230
1.0
 70
     8
 71
     3
 72
    11
 73
     7
 74
     0
 42
0.00000001
 43
0.00000001
 40
0.0
 40
0.0
 40
0.0
 40
0.0
 40
0.0860363962994498
 40
0.3126240132839471
 40
0.544481681962628
 40
1.0
 40
1.0
 40
1.0
 40
1.0
 10
171.3314142558567
 20
82.11724700361368
 30
0.0
 10
171.3326030728768
 20
82.12126062915203
 30
0.0
 10
171.3369227882981
 20
82.13584463984503
 30
0.0
 10
171.3057432799783
 20
82.02928841574277
 30
0.0
 10
171.2233156710705
 20
81.74874048388381
 30
0.0
 10
171.1840729147954
 20
81.45407334009194
 30
0.0
 10
171.1580670683896
 20
81.25879988813124
 30
0.0
  0
SPLINE
  5
136
330
1F
100
AcDbEntity
  8
0
  6
Continuous
 62
     7
370
    25
100
AcDbSpline
210
0.0
220
0.0
230
1.0
 70
     8
 71
     3
 72
    11
 73
     7
 74
     0
 42
0.00000001
 43
0.00000001
 40
0.0
 40
0.0
 40
0.0
 40
0.0
 40
0.3176434516571593
 40
0.6359740522416724
 40
0.8657087108125157
 40
1.0
 40
1.0
 40
1.0
 40
1.0
 10
159.1580670683896
 20
81.25879988813828
 30
0.0
 10
159.1444282889534
 20
81.39006459702841
 30
0.0
 10
159.1171212257022
 20
81.65287797597153
 30
0.0
 10
159.0291168804923
 20
81.96452143378306
 30
0.0
 10
158.9845572329249
 20
82.11826543469508
 30
0.0
 10
158.9849056428886
 20
82.1167531525363
 30
0.0
 10
158.9850341733504
 20
82.11619526285298
 30
0.0
  0
LINE
  5
137
330
1F
100
AcDbEntity
  8
0
  6
Continuous
 62
     7
370
    25
100
AcDbLine
 10
170.4080670684
 20
49.8243454099
 30
0.0
 11
159.9080670684
 21
49.8243454099
 31
0.0
  0
SPLINE
  5
138
330
1F
100
AcDbEntity
  8
0
  6
Continuous
 62
     7
370
    25
100
AcDbSpline
210
0.0
220
0.0
230
1.0
 70
     8
 71
     3
 72
    10
 73
     6
 74
     0
 42
0.00000001
 43
0.00000001
 40
0.0
 40
0.0
 40
0.0
 40
0.0
 40
0.1601790552921523
 40
0.7197651707804853
 40
1.0
 40
1.0
 40
1.0
 40
1.0
 10
158.4461162300126
 20
83.05724069758854
 30
0.0
 10
158.4453534399193
 20
83.05863292561492
 30
0.0
 10
158.4419258398456
 20
83.06488890734325
 30
0.0
 10
158.4564333046438
 20
83.03838164261533
 30
0.0
 10
158.4743628577617
 20
83.00582578747017
 30
0.0
 10
158.4803456631295
 20
82.99496241883882
 30
0.0
  0
SPLINE
  5
139
330
1F
100
AcDbEntity
  8
0
  6
Continuous
 62
     7
370
    25
100
AcDbSpline
210
0.0
220
0.0
230
1.0
 70
     8
 71
     3
 72
     9
 73
     5
 74
     0
 42
0.00000001
 43
0.00000001
 40
0.0
 40
0.0
 40
0.0
 40
0.0
 40
0.5789479223839301
 40
1.0
 40
1.0
 40
1.0
 40
1.0
 10
175.9803456631294
 20
63.65372840098633
 30
0.0
 10
175.9680047728152
 20
63.63128703379396
 30
0.0
 10
175.9466887099413
 20
63.59252470936941
 30
0.0
 10
175.9462805360268
 20
63.59175880651005
 30
0.0
 10
175.946108673552
 20
63.59143632151986
 30
0.0
  0
LINE
  5
13A
330
1F
100
AcDbEntity
  8
0
  6
Continuous
 62
     7
370
    25
100
AcDbLine
 10
176.6580670684
 20
64.8243454099
 30
0.0
 11
176.6580670684
 21
65.9631294777
 31
0.0
  0
SPLINE
  5
13B
330
1F
100
AcDbEntity
  8
0
  6
Continuous
 62
     7
370
    25
100
AcDbSpline
210
0.0
220
0.0
230
1.0
 70
     8
 71
     3
 72
     9
 73
     5
 74
     0
 42
0.00000001
 43
0.00000001
 40
0.0
 40
0.0
 40
0.0
 40
0.0
 40
0.5797912171256431
 40
1.0
 40
1.0
 40
1.0
 40
1.0
 10
171.8357884736499
 20
82.9949624188388
 30
0.0
 10
171.8481470769963
 20
83.01743606707994
 30
0.0
 10
171.8694626867907
 20
83.05619768950076
 30
0.0
 10
171.8698536292935
 20
83.05693209425897
 30
0.0
 10
171.8700179067667
 20
83.05724069758854
 30
0.0
  0
SPLINE
  5
13C
330
1F
100
AcDbEntity
  8
0
  6
Continuous
 62
     7
370
    25
100
AcDbSpline
210
0.0
220
0.0
230
1.0
 70
     8
 71
     3
 72
    10
 73
     6
 74
     0
 42
0.00000001
 43
0.00000001
 40
0.0
 40
0.0
 40
0.0
 40
0.0
 40
0.1593935212994522
 40
0.7189934545690309
 40
1.0
 40
1.0
 40
1.0
 40
1.0
 10
154.3700254632273
 20
83.05725449830526
 30
0.0
 10
154.3707869902248
 20
83.05864441713187
 30
0.0
 10
154.3742220917407
 20
83.06491407307881
 30
0.0
 10
154.3597274692742
 20
83.03843013125501
 30
0.0
 10
154.3417860987815
 20
83.00585272720815
 30
0.0
 10
154.3357884736498
 20
82.9949624188388
 30
0.0
  0
LINE
  5
13D
330
1F
100
AcDbEntity
  8
0
  6
Continuous
 62
     7
370
    25
100
AcDbLine
 10
153.6580670684
 20
80.6855613421
 30
0.0
 11
153.6580670684
 21
81.8243454099
 31
0.0
  0
SPLINE
  5
13E
330
1F
100
AcDbEntity
  8
0
  6
Continuous
 62
     7
370
    25
100
AcDbSpline
210
0.0
220
0.0
230
1.0
 70
     8
 71
     3
 72
     9
 73
     5
 74
     0
 42
0.00000001
 43
0.00000001
 40
0.0
 40
0.0
 40
0.0
 40
0.0
 40
0.5789479223839474
 40
0.9999999999999999
 40
0.9999999999999999
 40
0.9999999999999999
 40
0.9999999999999999
 10
154.3357884736498
 20
63.65372840098632
 30
0.0
 10
154.3481293639641
 20
63.63128703379396
 30
0.0
 10
154.369445426838
 20
63.59252470936941
 30
0.0
 10
154.3698536007525
 20
63.59175880651005
 30
0.0
 10
154.3700254632273
 20
63.59143632151986
 30
0.0
  0
LINE
  5
13F
330
1F
100
AcDbEntity
  8
0
  6
Continuous
 62
     7
370
    25
100
AcDbLine
 10
153.6580670684
 20
64.8243454099
 30
0.0
 11
153.6580670684
 21
65.9631294777
 31
0.0
  0
SPLINE
  5
140
330
1F
100
AcDbEntity
  8
0
  6
Continuous
 62
     7
370
    25
100
AcDbSpline
210
0.0
220
0.0
230
1.0
 70
     8
 71
     3
 72
    10
 73
     6
 74
     0
 42
0.00000001
 43
0.00000001
 40
0.0
 40
0.0
 40
0.0
 40
0.0
 40
0.1593935212994524
 40
0.7189934545690356
 40
1.0
 40
1.0
 40
1.0
 40
1.0
 10
175.946108673552
 20
83.05725449830527
 30
0.0
 10
175.9453471465546
 20
83.05864441713189
 30
0.0
 10
175.9419120450386
 20
83.06491407307881
 30
0.0
 10
175.9564066675051
 20
83.03843013125501
 30
0.0
 10
175.9743480379979
 20
83.00585272720815
 30
0.0
 10
175.9803456631294
 20
82.9949624188388
 30
0.0
  0
LINE
  5
141
330
1F
100
AcDbEntity
  8
0
  6
Continuous
 62
     7
370
    25
100
AcDbLine
 10
176.6580670684
 20
80.6855613421
 30
0.0
 11
176.6580670684
 21
81.8243454099
 31
0.0
  0
LINE
  5
142
330
1F
100
AcDbEntity
  8
0
  6
Continuous
 62
     7
370
    25
100
AcDbLine
 10
174.8956713754
 20
63.5867411029
 30
0.0
 11
174.8286840773
 21
63.653728401
 31
0.0
  0
LINE
  5
143
330
1F
100
AcDbEntity
  8
0
  6
Continuous
 62
     7
370
    25
100
AcDbLine
 10
174.8956713754
 20
61.3243454099
 30
0.0
 11
174.8286840773
 21
61.3243454099
 31
0.0
  0
LINE
  5
144
330
1F
100
AcDbEntity
  8
0
  6
Continuous
 62
     7
370
    25
100
AcDbLine
 10
155.4874500595
 20
63.653728401
 30
0.0
 11
155.4204627614
 21
63.5867411029
 31
0.0
  0
LINE
  5
145
330
1F
100
AcDbEntity
  8
0
  6
Continuous
 62
     7
370
    25
100
AcDbLine
 10
155.4874500595
 20
61.3243454099
 30
0.0
 11
155.4204627614
 21
61.3243454099
 31
0.0
  0
ARC
  5
146
330
1F
100
AcDbEntity
  8
0
  6
Continuous
 62
     7
370
    25
100
AcDbCircle
 10
162.9838923211
 20
98.268170446
 30
0.0
 40
4.408657033482662
100
AcDbArc
 50
83.0838156236
 51
91.2490959636
  0
SPLINE
  5
147
330
1F
100
AcDbEntity
  8
0
  6
Continuous
 62
     7
370
    25
100
AcDbSpline
210
0.0
220
0.0
230
1.0
 70
     8
 71
     3
 72
    15
 73
    11
 74
     0
 42
0.00000001
 43
0.00000001
 40
0.0
 40
0.0
 40
0.0
 40
0.0
 40
0.1246337044934918
 40
0.2519069547896618
 40
0.3765407248366567
 40
0.4994048858686675
 40
0.6264509366402855
 40
0.7526069675388761
 40
0.8746808545492513
 40
1.0
 40
1.0
 40
1.0
 40
1.0
 10
163.6199992051172
 20
102.6510569205606
 30
0.0
 10
163.6159849216211
 20
102.6504205562627
 30
0.0
 10
163.6078713384192
 20
102.6491343504721
 30
0.0
 10
163.5934332535078
 20
102.6474246245745
 30
0.0
 10
163.5783000450762
 20
102.6459810661023
 30
0.0
 10
163.5629374188106
 20
102.6448762250984
 30
0.0
 10
163.5480065364662
 20
102.644142877252
 30
0.0
 10
163.534504196751
 20
102.6438714909234
 30
0.0
 10
163.5228181707746
 20
102.6440177736047
 30
0.0
 10
163.5174765579213
 20
102.6445020078706
 30
0.0
 10
163.514770716324
 20
102.6447473010537
 30
0.0
  0
SPLINE
  5
148
330
1F
100
AcDbEntity
  8
0
  6
Continuous
 62
     7
370
    25
100
AcDbSpline
210
0.0
220
0.0
230
1.0
 70
     8
 71
     3
 72
    11
 73
     7
 74
     0
 42
0.00000001
 43
0.00000001
 40
0.0
 40
0.0
 40
0.0
 40
0.0
 40
0.250625429633313
 40
0.5000000000003831
 40
0.7493745703670929
 40
1.0
 40
1.0
 40
1.0
 40
1.0
 10
166.6961349348461
 20
102.6510569203196
 30
0.0
 10
166.4664154352406
 20
102.6824149751075
 30
0.0
 10
166.0081229548212
 20
102.7449745781648
 30
0.0
 10
165.1580670699897
 20
102.7710186380734
 30
0.0
 10
164.3080111851523
 20
102.7449745782981
 30
0.0
 10
163.8497187047261
 20
102.6824149753125
 30
0.0
 10
163.6199992051172
 20
102.6510569205606
 30
0.0
  0
SPLINE
  5
149
330
1F
100
AcDbEntity
  8
0
  6
Continuous
 62
     7
370
    25
100
AcDbSpline
210
0.0
220
0.0
230
1.0
 70
     8
 71
     3
 72
    15
 73
    11
 74
     0
 42
0.00000001
 43
0.00000001
 40
0.0
 40
0.0
 40
0.0
 40
0.0
 40
0.1253187789994368
 40
0.2473923090486592
 40
0.3734477209264249
 40
0.500593709173434
 40
0.6235467583552695
 40
0.7480937818221101
 40
0.8753666599534677
 40
1.0
 40
1.0
 40
1.0
 40
1.0
 10
166.8013634236393
 20
102.6447473007962
 30
0.0
 10
166.7986575857117
 20
102.644502006714
 30
0.0
 10
166.7933159801027
 20
102.6440177706731
 30
0.0
 10
166.781633036509
 20
102.6438715404467
 30
0.0
 10
166.7681316168755
 20
102.6441427062732
 30
0.0
 10
166.7531972865824
 20
102.6448761832101
 30
0.0
 10
166.7378301913771
 20
102.6459810957881
 30
0.0
 10
166.7226976966105
 20
102.6474250887761
 30
0.0
 10
166.708262771413
 20
102.6491343324521
 30
0.0
 10
166.7001492083689
 20
102.6504205501369
 30
0.0
 10
166.6961349348461
 20
102.6510569203196
 30
0.0
  0
ARC
  5
14A
330
1F
100
AcDbEntity
  8
0
  6
Continuous
 62
     7
370
    25
100
AcDbCircle
 10
167.3322418182
 20
98.2681704458
 30
0.0
 40
4.408657033325778
100
AcDbArc
 50
88.7509040274
 51
96.9161843676
  0
LINE
  5
14B
330
1F
100
AcDbEntity
  8
0
  6
Continuous
 62
     7
370
    25
100
AcDbLine
 10
163.5147707163
 20
102.6447473011
 30
0.0
 11
163.5147707163
 21
102.7456267854
 31
0.0
  0
SPLINE
  5
14C
330
1F
100
AcDbEntity
  8
0
  6
Continuous
 62
     7
370
    25
100
AcDbSpline
210
0.0
220
0.0
230
1.0
 70
     8
 71
     3
 72
    15
 73
    11
 74
     0
 42
0.00000001
 43
0.00000001
 40
0.0
 40
0.0
 40
0.0
 40
0.0
 40
0.1253191957979138
 40
0.2473928354984065
 40
0.3734492416489706
 40
0.5005950046079967
 40
0.6235484391777611
 40
0.7480947836179483
 40
0.8753671458153899
 40
1.0
 40
1.0
 40
1.0
 40
1.0
 10
163.514770716324
 20
102.7456267854162
 30
0.0
 10
163.5174765126565
 20
102.7453827062825
 30
0.0
 10
163.5228180297536
 20
102.7449008692536
 30
0.0
 10
163.5345006023427
 20
102.7447553527001
 30
0.0
 10
163.54800158233
 20
102.7450251470557
 30
0.0
 10
163.5629356111801
 20
102.7457549576214
 30
0.0
 10
163.5783026223691
 20
102.7468543744136
 30
0.0
 10
163.5934353588073
 20
102.748291229692
 30
0.0
 10
163.607870788589
 20
102.749992065275
 30
0.0
 10
163.6159847394183
 20
102.7512719891923
 30
0.0
 10
163.6199992051172
 20
102.7519052455148
 30
0.0
  0
LINE
  5
14D
330
1F
100
AcDbEntity
  8
0
  6
Continuous
 62
     7
370
    25
100
AcDbLine
 10
163.6199992051
 20
102.6510569206
 30
0.0
 11
163.6199992051
 21
102.7519052455
 31
0.0
  0
ARC
  5
14E
330
1F
100
AcDbEntity
  8
0
  6
Continuous
 62
     7
370
    25
100
AcDbCircle
 10
164.1891514637
 20
87.3344298428
 30
0.0
 40
15.49681491803395
100
AcDbArc
 50
94.6954834627
 51
94.8171561264
  0
SPLINE
  5
14F
330
1F
100
AcDbEntity
  8
0
  6
Continuous
 62
     7
370
    25
100
AcDbSpline
210
0.0
220
0.0
230
1.0
 70
     8
 71
     3
 72
    15
 73
    11
 74
     0
 42
0.00000001
 43
0.00000001
 40
0.0
 40
0.0
 40
0.0
 40
0.0
 40
0.1241930067305288
 40
0.2496556654892299
 40
0.3743703853151211
 40
0.4998404796364203
 40
0.6240146704162364
 40
0.7475381382242064
 40
0.8745858500551822
 40
1.0
 40
1.0
 40
1.0
 40
1.0
 10
163.7008727685202
 20
102.860718280869
 30
0.0
 10
163.6853123734105
 20
102.8583226005214
 30
0.0
 10
163.654032505899
 20
102.8535067482665
 30
0.0
 10
163.5765961464106
 20
102.8439024485436
 30
0.0
 10
163.4832421426717
 20
102.8331994022373
 30
0.0
 10
163.3760165366507
 20
102.8217771446972
 30
0.0
 10
163.2616306259298
 20
102.8101810416311
 30
0.0
 10
163.1439598630444
 20
102.7988964344057
 30
0.0
 10
163.0270761378193
 20
102.7881862081523
 30
0.0
 10
162.9559272869245
 20
102.7822058466971
 30
0.0
 10
162.9205830468411
 20
102.7792350140216
 30
0.0
  0
ARC
  5
150
330
1F
100
AcDbEntity
  8
0
  6
Continuous
 62
     7
370
    25
100
AcDbCircle
 10
164.0911153992
 20
100.5254214607
 30
0.0
 40
2.367678303582841
100
AcDbArc
 50
93.3632881502
 51
99.4868245016
  0
ARC
  5
151
330
1F
100
AcDbEntity
  8
0
  6
Continuous
 62
     7
370
    25
100
AcDbCircle
 10
166.2250224242
 20
100.5254627114
 30
0.0
 40
2.367636907586603
100
AcDbArc
 50
80.5187694297
 51
86.6367422681
  0
SPLINE
  5
152
330
1F
100
AcDbEntity
  8
0
  6
Continuous
 62
     7
370
    25
100
AcDbSpline
210
0.0
220
0.0
230
1.0
 70
     8
 71
     3
 72
    15
 73
    11
 74
     0
 42
0.00000001
 43
0.00000001
 40
0.0
 40
0.0
 40
0.0
 40
0.0
 40
0.1253320172137757
 40
0.2522975129251761
 40
0.3758847553984063
 40
0.5001929511416489
 40
0.6255758307380154
 40
0.7502289462456485
 40
0.875744493577783
 40
1.0
 40
1.0
 40
1.0
 40
1.0
 10
167.3877319976552
 20
102.7799163760636
 30
0.0
 10
167.3524810810272
 20
102.7828959682034
 30
0.0
 10
167.2815198151728
 20
102.788893986133
 30
0.0
 10
167.1655329243844
 20
102.7995543584569
 30
0.0
 10
167.048936558144
 20
102.810763479668
 30
0.0
 10
166.9358159515625
 20
102.8222539068966
 30
0.0
 10
166.8299402372231
 20
102.8335516676089
 30
0.0
 10
166.7378311526039
 20
102.8441266812059
 30
0.0
 10
166.6613994887355
 20
102.8536177432344
 30
0.0
 10
166.6304345812362
 20
102.8583851247921
 30
0.0
 10
166.615030233115
 20
102.8607567903668
 30
0.0
  0
ARC
  5
153
330
1F
100
AcDbEntity
  8
0
  6
Continuous
 62
     7
370
    25
100
AcDbCircle
 10
166.0878173487
 20
87.054253007
 30
0.0
 40
15.77929866918732
100
AcDbArc
 50
85.1265666159
 51
85.2745602135
  0
ARC
  5
154
330
1F
100
AcDbEntity
  8
0
  6
Continuous
 62
     7
370
    25
100
AcDbCircle
 10
167.3322394948
 20
98.347249439
 30
0.0
 40
4.43029938972452
100
AcDbArc
 50
88.7569768639
 51
96.8822041625
  0
SPLINE
  5
155
330
1F
100
AcDbEntity
  8
0
  6
Continuous
 62
     7
370
    25
100
AcDbSpline
210
0.0
220
0.0
230
1.0
 70
     8
 71
     3
 72
    15
 73
    11
 74
     0
 42
0.00000001
 43
0.00000001
 40
0.0
 40
0.0
 40
0.0
 40
0.0
 40
0.124633218643854
 40
0.2519059530189772
 40
0.3765391000744918
 40
0.4994035903146518
 40
0.6264494152300148
 40
0.7526064410610419
 40
0.874680437736327
 40
1.0
 40
1.0
 40
1.0
 40
1.0
 10
166.6961349348461
 20
102.7519052452751
 30
0.0
 10
166.7001494105143
 20
102.751271994808
 30
0.0
 10
166.7082633814929
 20
102.7499920827255
 30
0.0
 10
166.7227019733295
 20
102.7482907670213
 30
0.0
 10
166.7378354232626
 20
102.7468543442345
 30
0.0
 10
166.7531979655443
 20
102.7457549986901
 30
0.0
 10
166.768128544381
 20
102.7450253166727
 30
0.0
 10
166.7816304444103
 20
102.7447553029137
 30
0.0
 10
166.7933160992967
 20
102.7449008716605
 30
0.0
 10
166.7986576236375
 20
102.7453827069218
 30
0.0
 10
166.8013634236393
 20
102.74562678516
 30
0.0
  0
SPLINE
  5
156
330
1F
100
AcDbEntity
  8
0
  6
Continuous
 62
     7
370
    25
100
AcDbSpline
210
0.0
220
0.0
230
1.0
 70
     8
 71
     3
 72
    11
 73
     7
 74
     0
 42
0.00000001
 43
0.00000001
 40
0.0
 40
0.0
 40
0.0
 40
0.0
 40
0.2506252605986011
 40
0.4999999999996215
 40
0.7493747394010042
 40
1.0
 40
1.0
 40
1.0
 40
1.0
 10
163.6199992051172
 20
102.7519052455148
 30
0.0
 10
163.8497268992905
 20
102.7831096683834
 30
0.0
 10
164.3080360370535
 20
102.8453628163584
 30
0.0
 10
165.1580670699896
 20
102.8712774021566
 30
0.0
 10
166.0080981029199
 20
102.8453628162257
 30
0.0
 10
166.4664072406761
 20
102.7831096681794
 30
0.0
 10
166.6961349348461
 20
102.7519052452751
 30
0.0
  0
ARC
  5
157
330
1F
100
AcDbEntity
  8
0
  6
Continuous
 62
     7
370
    25
100
AcDbCircle
 10
162.9838946445
 20
98.3472494391
 30
0.0
 40
4.430299389883037
100
AcDbArc
 50
83.1177958287
 51
91.2430231272
  0
SPLINE
  5
158
330
1F
100
AcDbEntity
  8
0
  6
Continuous
 62
     7
370
    25
100
AcDbSpline
210
0.0
220
0.0
230
1.0
 70
     8
 71
     3
 72
    15
 73
    11
 74
     0
 42
0.00000001
 43
0.00000001
 40
0.0
 40
0.0
 40
0.0
 40
0.0
 40
0.1233867499278388
 40
0.2487396502211602
 40
0.3739317114754985
 40
0.4999973617625659
 40
0.6259591330513601
 40
0.7512551380600303
 40
0.8765613478174267
 40
1.0
 40
1.0
 40
1.0
 40
1.0
 10
165.0951842035836
 20
102.924238307217
 30
0.0
 10
165.0980624047754
 20
102.9242389662892
 30
0.0
 10
165.1038646708871
 20
102.9242402949357
 30
0.0
 10
165.1193940756078
 20
102.9242442445628
 30
0.0
 10
165.1377486574813
 20
102.9242460269122
 30
0.0
 10
165.1580614739642
 20
102.9242475804902
 30
0.0
 10
165.1783798916793
 20
102.9242460263552
 30
0.0
 10
165.1967327608434
 20
102.9242442494747
 30
0.0
 10
165.2122708652389
 20
102.9242402819565
 30
0.0
 10
165.2180714272702
 20
102.9242389621606
 30
0.0
 10
165.2209499331958
 20
102.924238307217
 30
0.0
  0
ARC
  5
159
330
1F
100
AcDbEntity
  8
0
  6
Continuous
 62
     7
370
    25
100
AcDbCircle
 10
165.0960786312
 20
100.3798888944
 30
0.0
 40
2.54434957005969
100
AcDbArc
 50
90.0201414662
 51
95.4127462174
  0
SPLINE
  5
15A
330
1F
100
AcDbEntity
  8
0
  6
Continuous
 62
     7
370
    25
100
AcDbSpline
210
0.0
220
0.0
230
1.0
 70
     8
 71
     3
 72
    15
 73
    11
 74
     0
 42
0.00000001
 43
0.00000001
 40
0.0
 40
0.0
 40
0.0
 40
0.0
 40
0.1261585224210642
 40
0.25131214515488
 40
0.3762846848783792
 40
0.4993062783340877
 40
0.6261594278645743
 40
0.7521171342021308
 40
0.8758196922692789
 40
1.0
 40
1.0
 40
1.0
 40
1.0
 10
164.9189535427119
 20
102.9109951758063
 30
0.0
 10
164.9137224462232
 20
102.9109442500558
 30
0.0
 10
164.9033019208806
 20
102.9108428041975
 30
0.0
 10
164.8885153703662
 20
102.9108386225602
 30
0.0
 10
164.8753250177407
 20
102.9109379613809
 30
0.0
 10
164.8644544428994
 20
102.9111585035839
 30
0.0
 10
164.8564468555709
 20
102.9114823709854
 30
0.0
 10
164.8522802285381
 20
102.9119022408329
 30
0.0
 10
164.8516591770265
 20
102.9123809578986
 30
0.0
 10
164.8545982893813
 20
102.9127222471442
 30
0.0
 10
164.856070677864
 20
102.9128932206538
 30
0.0
  0
ARC
  5
15B
330
1F
100
AcDbEntity
  8
0
  6
Continuous
 62
     7
370
    25
100
AcDbCircle
 10
165.1580670684
 20
82.3243454099
 30
0.0
 40
20.58803836847348
100
AcDbArc
 50
89.3345405821
 51
90.66545941
  0
SPLINE
  5
15C
330
1F
100
AcDbEntity
  8
0
  6
Continuous
 62
     7
370
    25
100
AcDbSpline
210
0.0
220
0.0
230
1.0
 70
     8
 71
     3
 72
    15
 73
    11
 74
     0
 42
0.00000001
 43
0.00000001
 40
0.0
 40
0.0
 40
0.0
 40
0.0
 40
0.1241186784437694
 40
0.2478474916628982
 40
0.3736574149478942
 40
0.5005082335853296
 40
0.6234527658309922
 40
0.7484986612277523
 40
0.8736976492452769
 40
1.0
 40
1.0
 40
1.0
 40
1.0
 10
165.4600634616413
 20
102.9128932206205
 30
0.0
 10
165.4615345342501
 20
102.912722340342
 30
0.0
 10
165.4644720587284
 20
102.9123811165316
 30
0.0
 10
165.4638553242283
 20
102.9119025802441
 30
0.0
 10
165.4596933626337
 20
102.9114827903722
 30
0.0
 10
165.4516946148354
 20
102.9111590025258
 30
0.0
 10
165.4408285232985
 20
102.9109383043201
 30
0.0
 10
165.4276408054739
 20
102.9108387124099
 30
0.0
 10
165.4128463588987
 20
102.9108426268085
 30
0.0
 10
165.4024177679914
 20
102.910944177614
 30
0.0
 10
165.397180596877
 20
102.9109951757737
 30
0.0
  0
ARC
  5
15D
330
1F
100
AcDbEntity
  8
0
  6
Continuous
 62
     7
370
    25
100
AcDbCircle
 10
165.2200555054
 20
100.3798888421
 30
0.0
 40
2.54434962229047
100
AcDbArc
 50
84.5872538302
 51
89.9798585321
  0
LINE
  5
15E
330
1F
100
AcDbEntity
  8
0
  6
Continuous
 62
     7
370
    25
100
AcDbLine
 10
166.6961349348
 20
102.6510569203
 30
0.0
 11
166.6961349348
 21
102.7519052453
 31
0.0
  0
LINE
  5
15F
330
1F
100
AcDbEntity
  8
0
  6
Continuous
 62
     7
370
    25
100
AcDbLine
 10
166.8013634236
 20
102.6447473008
 30
0.0
 11
166.8013634236
 21
102.7456267852
 31
0.0
  0
LINE
  5
160
330
1F
100
AcDbEntity
  8
0
  6
Continuous
 62
     7
370
    25
100
AcDbLine
 10
162.8877875198
 20
102.6757798554
 30
0.0
 11
162.8877875198
 21
102.7765062735
 31
0.0
  0
LINE
  5
161
330
1F
100
AcDbEntity
  8
0
  6
Continuous
 62
     7
370
    25
100
AcDbLine
 10
167.4283466201
 20
102.675779855
 30
0.0
 11
167.4283466201
 21
102.7765062731
 31
0.0
  0
LINE
  5
162
330
1F
100
AcDbEntity
  8
0
  6
Continuous
 62
     7
370
    25
100
AcDbLine
 10
170.250518001
 20
100.3243454099
 30
0.0
 11
160.0656161358
 21
100.3243454099
 31
0.0
  0
SPLINE
  5
163
330
1F
100
AcDbEntity
  8
0
  6
Continuous
 62
     7
370
    25
100
AcDbSpline
210
0.0
220
0.0
230
1.0
 70
     8
 71
     3
 72
    11
 73
     7
 74
     0
 42
0.00000001
 43
0.00000001
 40
0.0
 40
0.0
 40
0.0
 40
0.0
 40
0.2460416072901215
 40
0.4920717926348662
 40
0.7460790582811389
 40
1.0
 40
1.0
 40
1.0
 40
1.0
 10
172.121094277727
 20
92.55752138562947
 30
0.0
 10
171.871505159035
 20
93.16796395499705
 30
0.0
 10
171.3723385082816
 20
94.38882075526634
 30
0.0
 10
170.8191566945046
 20
96.31082235599916
 30
0.0
 10
170.4058274009752
 20
98.29012509383134
 30
0.0
 10
170.3022819350152
 20
99.64634880265241
 30
0.0
 10
170.250518000967
 20
100.3243454099126
 30
0.0
  0
SPLINE
  5
164
330
1F
100
AcDbEntity
  8
0
  6
Continuous
 62
     7
370
    25
100
AcDbSpline
210
0.0
220
0.0
230
1.0
 70
     8
 71
     3
 72
    13
 73
     9
 74
     0
 42
0.00000001
 43
0.00000001
 40
0.0
 40
0.0
 40
0.0
 40
0.0
 40
0.0164940201989931
 40
0.1958803672654719
 40
0.3763143282056555
 40
0.5827472646165622
 40
0.8280062032403772
 40
1.0
 40
1.0
 40
1.0
 40
1.0
 10
173.1580670122841
 20
90.82434524484084
 30
0.0
 10
173.1579623943375
 20
90.82448252014238
 30
0.0
 10
173.1567199681998
 20
90.82611277984608
 30
0.0
 10
173.1075369256897
 20
90.89164454104994
 30
0.0
 10
172.9344640928169
 20
91.13019116358758
 30
0.0
 10
172.6690368797256
 20
91.5250342908773
 30
0.0
 10
172.3725291521997
 20
92.01817980053957
 30
0.0
 10
172.1944850171533
 20
92.40009422753897
 30
0.0
 10
172.121094277727
 20
92.55752138562947
 30
0.0
  0
LWPOLYLINE
  5
165
330
1F
100
AcDbEntity
  8
0
  6
Continuous
 62
     7
370
    25
100
AcDbPolyline
 90
       27
 70
   128
 43
0.0
 10
173.1580670123
 20
90.8243452448
 10
173.0996055215
 20
90.824345246
 10
172.9253604378
 20
90.8243452496
 10
172.6378721657
 20
90.8243452556
 10
172.2413321383
 20
90.8243452637
 10
171.7415217073
 20
90.8243452741
 10
171.1457278549
 20
90.8243452863
 10
170.4626369524
 20
90.8243453004
 10
169.702208118
 20
90.8243453161
 10
168.8755280174
 20
90.8243453332
 10
167.9946492262
 20
90.8243453514
 10
167.0724145094
 20
90.8243453704
 10
166.1222695801
 20
90.82434539
 10
165.1580670684
 20
90.8243454099
 10
164.1938645567
 20
90.8243454298
 10
163.2437196274
 20
90.8243454494
 10
162.3214849105
 20
90.8243454684
 10
161.4406061193
 20
90.8243454866
 10
160.6139260187
 20
90.8243455037
 10
159.8534971843
 20
90.8243455193
 10
159.1704062819
 20
90.8243455334
 10
158.5746124295
 20
90.8243455457
 10
158.0748019985
 20
90.8243455561
 10
157.678261971
 20
90.8243455642
 10
157.390773699
 20
90.8243455702
 10
157.2165286152
 20
90.8243455738
 10
157.1580671245
 20
90.8243452448
  0
SPLINE
  5
166
330
1F
100
AcDbEntity
  8
0
  6
Continuous
 62
     7
370
    25
100
AcDbSpline
210
0.0
220
0.0
230
1.0
 70
     8
 71
     3
 72
    12
 73
     8
 74
     0
 42
0.00000001
 43
0.00000001
 40
0.0
 40
0.0
 40
0.0
 40
0.0
 40
0.0816308004991864
 40
0.3246136178761977
 40
0.5946331315519718
 40
0.8003997370011066
 40
1.0
 40
1.0
 40
1.0
 40
1.0
 10
158.1950398590523
 20
92.55752138562947
 30
0.0
 10
158.1610934441657
 20
92.4822620314108
 30
0.0
 10
158.026101890942
 20
92.18298515181934
 30
0.0
 10
157.7461451669884
 20
91.67866003198219
 30
0.0
 10
157.427416824703
 20
91.19360035848644
 30
0.0
 10
157.2011290442325
 20
90.88142916497524
 30
0.0
 10
157.1722747897683
 20
90.8431792688391
 30
0.0
 10
157.1580671244953
 20
90.82434524484084
 30
0.0
  0
SPLINE
  5
167
330
1F
100
AcDbEntity
  8
0
  6
Continuous
 62
     7
370
    25
100
AcDbSpline
210
0.0
220
0.0
230
1.0
 70
     8
 71
     3
 72
    11
 73
     7
 74
     0
 42
0.00000001
 43
0.00000001
 40
0.0
 40
0.0
 40
0.0
 40
0.0
 40
0.2456902021794783
 40
0.4914572396993195
 40
0.7457216020119223
 40
1.0
 40
1.0
 40
1.0
 40
1.0
 10
160.0656161358123
 20
100.3243454099126
 30
0.0
 10
160.0161990659551
 20
99.66830583847083
 30
0.0
 10
159.917349471911
 20
98.35602153061409
 30
0.0
 10
159.5181588149849
 20
96.39671774765864
 30
0.0
 10
158.9674066217057
 20
94.45078820458961
 30
0.0
 10
158.4525001837073
 20
93.18862193712589
 30
0.0
 10
158.1950398590523
 20
92.55752138562947
 30
0.0
  0
LINE
  5
168
330
1F
100
AcDbEntity
  8
0
  6
Continuous
 62
     7
370
    25
100
AcDbLine
 10
172.1925074667
 20
83.8243454099
 30
0.0
 11
158.1236266701
 21
83.8243454099
 31
0.0
  0
LINE
  5
169
330
1F
100
AcDbEntity
  8
0
  6
Continuous
 62
     7
370
    25
100
AcDbLine
 10
165.1580670684
 20
102.3243454099
 30
0.0
 11
170.2531750518
 21
102.3243454099
 31
0.0
  0
LINE
  5
16A
330
1F
100
AcDbEntity
  8
0
  6
Continuous
 62
     7
370
    25
100
AcDbLine
 10
160.062959085
 20
102.3243454099
 30
0.0
 11
165.1580670684
 21
102.3243454099
 31
0.0
  0
LINE
  5
16B
330
1F
100
AcDbEntity
  8
0
  6
Continuous
 62
     7
370
    25
100
AcDbLine
 10
170.367685299
 20
100.3243454099
 30
0.0
 11
170.250518001
 21
100.3243454099
 31
0.0
  0
ARC
  5
16C
330
1F
100
AcDbEntity
  8
0
  6
Continuous
 62
     7
370
    25
100
AcDbCircle
 10
172.4323100223
 20
101.7340704724
 30
0.0
 40
2.500000000000025
100
AcDbArc
 50
214.3252481179
 51
328.221357821
  0
ARC
  5
16D
330
1F
100
AcDbEntity
  8
0
  6
Continuous
 62
     7
370
    25
100
AcDbCircle
 10
179.6580670684
 20
97.2576394038
 30
0.0
 40
6.00000000000001
100
AcDbArc
 50
115.1026742168
 51
148.221357821
  0
LINE
  5
16E
330
1F
100
AcDbEntity
  8
0
  6
Continuous
 62
     7
370
    25
100
AcDbLine
 10
177.1126169362
 20
102.6909333978
 30
0.0
 11
182.2035172006
 21
102.6909333978
 31
0.0
  0
ARC
  5
16F
330
1F
100
AcDbEntity
  8
0
  6
Continuous
 62
     7
370
    25
100
AcDbCircle
 10
179.6580670684
 20
97.2576394038
 30
0.0
 40
6.000000000000006
100
AcDbArc
 50
308.4313932617
 51
64.8973257832
  0
LINE
  5
170
330
1F
100
AcDbEntity
  8
0
  6
Continuous
 62
     7
370
    25
100
AcDbLine
 10
172.1210942777
 20
92.5575213856
 30
0.0
 11
183.3875295786
 21
92.5575213856
 31
0.0
  0
LINE
  5
171
330
1F
100
AcDbEntity
  8
0
  6
Continuous
 62
     7
370
    25
100
AcDbLine
 10
146.9286045582
 20
92.5575213856
 30
0.0
 11
158.1950398591
 21
92.5575213856
 31
0.0
  0
ARC
  5
172
330
1F
100
AcDbEntity
  8
0
  6
Continuous
 62
     7
370
    25
100
AcDbCircle
 10
150.6580670684
 20
97.2576394038
 30
0.0
 40
6.000000000000009
100
AcDbArc
 50
115.1026742168
 51
231.5686067383
  0
LINE
  5
173
330
1F
100
AcDbEntity
  8
0
  6
Continuous
 62
     7
370
    25
100
AcDbLine
 10
148.1126169362
 20
102.6909333978
 30
0.0
 11
153.2035172006
 21
102.6909333978
 31
0.0
  0
ARC
  5
174
330
1F
100
AcDbEntity
  8
0
  6
Continuous
 62
     7
370
    25
100
AcDbCircle
 10
150.6580670684
 20
97.2576394038
 30
0.0
 40
5.999999999999997
100
AcDbArc
 50
31.778642179
 51
64.8973257832
  0
ARC
  5
175
330
1F
100
AcDbEntity
  8
0
  6
Continuous
 62
     7
370
    25
100
AcDbCircle
 10
157.8838241144
 20
101.7340704724
 30
0.0
 40
2.500000000000002
100
AcDbArc
 50
211.778642179
 51
325.6747518821
  0
LINE
  5
176
330
1F
100
AcDbEntity
  8
0
  6
Continuous
 62
     7
370
    25
100
AcDbLine
 10
160.0656161358
 20
100.3243454099
 30
0.0
 11
159.9484488378
 21
100.3243454099
 31
0.0
  0
SPLINE
  5
177
330
1F
100
AcDbEntity
  8
0
  6
Continuous
 62
     7
370
    25
100
AcDbSpline
210
0.0
220
0.0
230
1.0
 70
     8
 71
     3
 72
    17
 73
    13
 74
     0
 42
0.00000001
 43
0.00000001
 40
0.0
 40
0.0
 40
0.0
 40
0.0
 40
0.0051037386011221
 40
0.0335545146957983
 40
0.0512404508407057
 40
0.0783256082042157
 40
0.1200097101225869
 40
0.1849422108378776
 40
0.2894088209386603
 40
0.6174789247950605
 40
0.835601474844878
 40
1.0
 40
1.0
 40
1.0
 40
1.0
 10
179.6580670683897
 20
103.8243454099126
 30
0.0
 10
179.6535532514667
 20
103.824338917686
 30
0.0
 10
179.6238771751409
 20
103.8242962345616
 30
0.0
 10
179.5785582580852
 20
103.8234993546293
 30
0.0
 10
179.5138099807188
 20
103.8210769979514
 30
0.0
 10
179.4373741280173
 20
103.8166937728035
 30
0.0
 10
179.3192259190669
 20
103.8063283368275
 30
0.0
 10
179.1328900080389
 20
103.7811416486852
 30
0.0
 10
178.6951922278693
 20
103.6891882104497
 30
0.0
 10
178.1271448379256
 20
103.4564876300696
 30
0.0
 10
177.5317251661564
 20
103.0635490415835
 30
0.0
 10
177.2385966502836
 20
102.8029379085843
 30
0.0
 10
177.1126169361866
 20
102.690933397771
 30
0.0
  0
SPLINE
  5
178
330
1F
100
AcDbEntity
  8
0
  6
Continuous
 62
     7
370
    25
100
AcDbSpline
210
0.0
220
0.0
230
1.0
 70
     8
 71
     3
 72
    17
 73
    13
 74
     0
 42
0.00000001
 43
0.00000001
 40
0.0
 40
0.0
 40
0.0
 40
0.0
 40
0.1643985251551221
 40
0.3825210752049389
 40
0.7105911790613392
 40
0.8150577891621212
 40
0.8799902898774138
 40
0.9216743917957921
 40
0.9487595491592884
 40
0.9664454853042477
 40
0.9948962613988782
 40
1.0
 40
1.0
 40
1.0
 40
1.0
 10
182.2035172005927
 20
102.690933397771
 30
0.0
 10
182.0775374864957
 20
102.8029379085843
 30
0.0
 10
181.7844089706229
 20
103.0635490415836
 30
0.0
 10
181.1889892988537
 20
103.4564876300696
 30
0.0
 10
180.62094190891
 20
103.6891882104497
 30
0.0
 10
180.1832441287404
 20
103.7811416486852
 30
0.0
 10
179.9969082177124
 20
103.8063283368276
 30
0.0
 10
179.878760008762
 20
103.8166937728035
 30
0.0
 10
179.8023241560605
 20
103.8210769979514
 30
0.0
 10
179.7375758786941
 20
103.8234993546293
 30
0.0
 10
179.6922569616387
 20
103.8242962345616
 30
0.0
 10
179.6625808853126
 20
103.824338917686
 30
0.0
 10
179.6580670683897
 20
103.8243454099126
 30
0.0
  0
SPLINE
  5
179
330
1F
100
AcDbEntity
  8
0
  6
Continuous
 62
     7
370
    25
100
AcDbSpline
210
0.0
220
0.0
230
1.0
 70
     8
 71
     3
 72
    17
 73
    13
 74
     0
 42
0.00000001
 43
0.00000001
 40
0.0
 40
0.0
 40
0.0
 40
0.0
 40
0.164398525155122
 40
0.3825210752049397
 40
0.7105911790613394
 40
0.8150577891621317
 40
0.8799902898774276
 40
0.9216743917957886
 40
0.9487595491592797
 40
0.9664454853042047
 40
0.9948962613988785
 40
1.0
 40
1.0
 40
1.0
 40
1.0
 10
153.2035172005927
 20
102.690933397771
 30
0.0
 10
153.0775374864957
 20
102.8029379085843
 30
0.0
 10
152.7844089706229
 20
103.0635490415836
 30
0.0
 10
152.1889892988537
 20
103.4564876300696
 30
0.0
 10
151.62094190891
 20
103.6891882104497
 30
0.0
 10
151.1832441287404
 20
103.7811416486852
 30
0.0
 10
150.9969082177124
 20
103.8063283368275
 30
0.0
 10
150.878760008762
 20
103.8166937728034
 30
0.0
 10
150.8023241560605
 20
103.8210769979514
 30
0.0
 10
150.7375758786941
 20
103.8234993546293
 30
0.0
 10
150.6922569616384
 20
103.8242962345616
 30
0.0
 10
150.6625808853126
 20
103.824338917686
 30
0.0
 10
150.6580670683897
 20
103.8243454099126
 30
0.0
  0
SPLINE
  5
17A
330
1F
100
AcDbEntity
  8
0
  6
Continuous
 62
     7
370
    25
100
AcDbSpline
210
0.0
220
0.0
230
1.0
 70
     8
 71
     3
 72
    11
 73
     7
 74
     0
 42
0.00000001
 43
0.00000001
 40
0.0
 40
0.0
 40
0.0
 40
0.0
 40
0.0055682347466179
 40
0.1918263368321036
 40
0.6296575784328765
 40
1.0
 40
1.0
 40
1.0
 40
1.0
 10
150.6580670683897
 20
103.8243454099126
 30
0.0
 10
150.6632609917249
 20
103.824341390839
 30
0.0
 10
150.8421922567549
 20
103.824202933285
 30
0.0
 10
151.4290299562972
 20
103.7979641572318
 30
0.0
 10
152.3591557018552
 20
103.6438911938103
 30
0.0
 10
153.0836440786748
 20
103.3466318400514
 30
0.0
 10
153.415638044943
 20
103.2104139033359
 30
0.0
  0
ARC
  5
17B
330
1F
100
AcDbEntity
  8
0
  6
Continuous
 62
     7
370
    25
100
AcDbCircle
 10
150.9407918226
 20
103.9179262012
 30
0.0
 40
2.573992516660309
100
AcDbArc
 50
331.5306505147
 51
344.0457565706
  0
ARC
  5
17C
330
1F
100
AcDbEntity
  8
0
  6
Continuous
 62
     7
370
    25
100
AcDbCircle
 10
150.3753423142
 20
103.9179262012
 30
0.0
 40
2.573992516660891
100
AcDbArc
 50
195.9542434294
 51
208.4693494853
  0
SPLINE
  5
17D
330
1F
100
AcDbEntity
  8
0
  6
Continuous
 62
     7
370
    25
100
AcDbSpline
210
0.0
220
0.0
230
1.0
 70
     8
 71
     3
 72
    11
 73
     7
 74
     0
 42
0.00000001
 43
0.00000001
 40
0.0
 40
0.0
 40
0.0
 40
0.0
 40
0.3703424215671234
 40
0.8081736631678964
 40
0.9944317652533821
 40
1.0
 40
1.0
 40
1.0
 40
1.0
 10
147.9004960918363
 20
103.2104139033359
 30
0.0
 10
148.2324900581045
 20
103.3466318400514
 30
0.0
 10
148.9569784349241
 20
103.6438911938103
 30
0.0
 10
149.887104180482
 20
103.7979641572318
 30
0.0
 10
150.4739418800245
 20
103.8242029332849
 30
0.0
 10
150.6528731450543
 20
103.824341390839
 30
0.0
 10
150.6580670683897
 20
103.8243454099126
 30
0.0
  0
SPLINE
  5
17E
330
1F
100
AcDbEntity
  8
0
  6
Continuous
 62
     7
370
    25
100
AcDbSpline
210
0.0
220
0.0
230
1.0
 70
     8
 71
     3
 72
    17
 73
    13
 74
     0
 42
0.00000001
 43
0.00000001
 40
0.0
 40
0.0
 40
0.0
 40
0.0
 40
0.0051037386011219
 40
0.0335545146957463
 40
0.0512404508406915
 40
0.0783256082042153
 40
0.1200097101225738
 40
0.184942210837869
 40
0.2894088209386605
 40
0.6174789247950602
 40
0.8356014748448779
 40
1.0
 40
1.0
 40
1.0
 40
1.0
 10
150.6580670683897
 20
103.8243454099126
 30
0.0
 10
150.6535532514667
 20
103.824338917686
 30
0.0
 10
150.6238771751409
 20
103.8242962345616
 30
0.0
 10
150.5785582580852
 20
103.8234993546293
 30
0.0
 10
150.5138099807188
 20
103.8210769979514
 30
0.0
 10
150.4373741280173
 20
103.8166937728035
 30
0.0
 10
150.3192259190669
 20
103.8063283368275
 30
0.0
 10
150.1328900080389
 20
103.7811416486852
 30
0.0
 10
149.6951922278693
 20
103.6891882104497
 30
0.0
 10
149.1271448379256
 20
103.4564876300696
 30
0.0
 10
148.5317251661564
 20
103.0635490415835
 30
0.0
 10
148.2385966502836
 20
102.8029379085843
 30
0.0
 10
148.1126169361866
 20
102.690933397771
 30
0.0
  0
ARC
  5
17F
330
1F
100
AcDbEntity
  8
0
  6
Continuous
 62
     7
370
    25
100
AcDbCircle
 10
179.9407918226
 20
103.9179262012
 30
0.0
 40
2.573992516660565
100
AcDbArc
 50
331.5306505147
 51
344.0457565706
  0
SPLINE
  5
180
330
1F
100
AcDbEntity
  8
0
  6
Continuous
 62
     7
370
    25
100
AcDbSpline
210
0.0
220
0.0
230
1.0
 70
     8
 71
     3
 72
    11
 73
     7
 74
     0
 42
0.00000001
 43
0.00000001
 40
0.0
 40
0.0
 40
0.0
 40
0.0
 40
0.0055682347466183
 40
0.1918263368321047
 40
0.6296575784328776
 40
1.0
 40
1.0
 40
1.0
 40
1.0
 10
179.6580670683897
 20
103.8243454099126
 30
0.0
 10
179.6632609917249
 20
103.824341390839
 30
0.0
 10
179.8421922567548
 20
103.824202933285
 30
0.0
 10
180.4290299562972
 20
103.7979641572317
 30
0.0
 10
181.3591557018552
 20
103.6438911938103
 30
0.0
 10
182.0836440786748
 20
103.3466318400514
 30
0.0
 10
182.415638044943
 20
103.2104139033359
 30
0.0
  0
ARC
  5
181
330
1F
100
AcDbEntity
  8
0
  6
Continuous
 62
     7
370
    25
100
AcDbCircle
 10
179.3753423142
 20
103.9179262012
 30
0.0
 40
2.573992516657518
100
AcDbArc
 50
195.9542434294
 51
208.4693494853
  0
SPLINE
  5
182
330
1F
100
AcDbEntity
  8
0
  6
Continuous
 62
     7
370
    25
100
AcDbSpline
210
0.0
220
0.0
230
1.0
 70
     8
 71
     3
 72
    11
 73
     7
 74
     0
 42
0.00000001
 43
0.00000001
 40
0.0
 40
0.0
 40
0.0
 40
0.0
 40
0.3703424215671233
 40
0.808173663167896
 40
0.9944317652533816
 40
1.0
 40
1.0
 40
1.0
 40
1.0
 10
176.9004960918363
 20
103.2104139033359
 30
0.0
 10
177.2324900581045
 20
103.3466318400514
 30
0.0
 10
177.9569784349241
 20
103.6438911938103
 30
0.0
 10
178.887104180482
 20
103.7979641572316
 30
0.0
 10
179.4739418800245
 20
103.8242029332851
 30
0.0
 10
179.6528731450544
 20
103.824341390839
 30
0.0
 10
179.6580670683897
 20
103.8243454099126
 30
0.0
  0
ARC
  5
183
330
1F
100
AcDbEntity
  8
0
  6
Continuous
 62
     7
370
    25
100
AcDbCircle
 10
145.8280237809
 20
93.2989740053
 30
0.0
 40
1.327038068258423
100
AcDbArc
 50
306.5236230253
 51
326.0321607238
  0
ARC
  5
184
330
1F
100
AcDbEntity
  8
0
  6
Continuous
 62
     7
370
    25
100
AcDbCircle
 10
150.6580670684
 20
97.3243454099
 30
0.0
 40
6.499999999999998
100
AcDbArc
 50
115.1026742168
 51
231.5686067383
  0
ARC
  5
185
330
1F
100
AcDbEntity
  8
0
  6
Continuous
 62
     7
370
    25
100
AcDbCircle
 10
150.6580670684
 20
97.3243454099
 30
0.0
 40
6.499999999999986
100
AcDbArc
 50
31.778642179
 51
64.8973257832
  0
ARC
  5
186
330
1F
100
AcDbEntity
  8
0
  6
Continuous
 62
     7
370
    25
100
AcDbCircle
 10
155.2210100327
 20
101.5485679753
 30
0.0
 40
1.252349853184223
100
AcDbArc
 50
295.4209982681
 51
320.2340472941
  0
ARC
  5
187
330
1F
100
AcDbEntity
  8
0
  6
Continuous
 62
     7
370
    25
100
AcDbCircle
 10
179.6580670684
 20
97.3243454099
 30
0.0
 40
6.499999999999998
100
AcDbArc
 50
308.4313932617
 51
64.8973257832
  0
ARC
  5
188
330
1F
100
AcDbEntity
  8
0
  6
Continuous
 62
     7
370
    25
100
AcDbCircle
 10
184.4881103559
 20
93.2989740053
 30
0.0
 40
1.327038068257248
100
AcDbArc
 50
213.9678392762
 51
233.4763769747
  0
ARC
  5
189
330
1F
100
AcDbEntity
  8
0
  6
Continuous
 62
     7
370
    25
100
AcDbCircle
 10
175.0951241041
 20
101.5485679753
 30
0.0
 40
1.252349853183662
100
AcDbArc
 50
219.7659527059
 51
244.5790017319
  0
ARC
  5
18A
330
1F
100
AcDbEntity
  8
0
  6
Continuous
 62
     7
370
    25
100
AcDbCircle
 10
179.6580670684
 20
97.3243454099
 30
0.0
 40
6.500000000000006
100
AcDbArc
 50
115.1026742168
 51
148.221357821
  0
ARC
  5
18B
330
1F
100
AcDbEntity
  8
0
  6
Continuous
 62
     7
370
    25
100
AcDbCircle
 10
172.4323100223
 20
101.8007764785
 30
0.0
 40
2.000000000000011
100
AcDbArc
 50
227.5796275115
 51
328.221357821
  0
SPLINE
  5
18C
330
1F
100
AcDbEntity
  8
0
  6
Continuous
 62
     7
370
    25
100
AcDbSpline
210
0.0
220
0.0
230
1.0
 70
    24
 71
     3
 72
    12
 73
     8
 74
     0
 42
0.00000001
 43
0.00000001
 40
0.0
 40
0.0
 40
0.0
 40
0.0
 40
0.2571943124574416
 40
0.524550343975796
 40
0.7385170215182983
 40
0.8882338470637771
 40
1.0
 40
1.0
 40
1.0
 40
1.0
 10
170.3676852989961
 20
100.3243454099126
 30
0.0
 10
170.4523835765173
 20
100.3243454099126
 30
0.0
 10
170.6251265512097
 20
100.3243454099126
 30
0.0
 10
170.8443515799745
 20
100.3243454099126
 30
0.0
 10
170.9937313553539
 20
100.3243454099125
 30
0.0
 10
171.0711278719479
 20
100.3243454099126
 30
0.0
 10
171.0795712311117
 20
100.3243454099126
 30
0.0
 10
171.0831801917297
 20
100.3243454099126
 30
0.0
  0
ARC
  5
18D
330
1F
100
AcDbEntity
  8
0
  6
Continuous
 62
     7
370
    25
100
AcDbCircle
 10
157.8838241144
 20
101.8007764785
 30
0.0
 40
2.000000000000011
100
AcDbArc
 50
211.778642179
 51
312.4203724885
  0
SPLINE
  5
18E
330
1F
100
AcDbEntity
  8
0
  6
Continuous
 62
     7
370
    25
100
AcDbSpline
210
0.0
220
0.0
230
1.0
 70
    24
 71
     3
 72
    12
 73
     8
 74
     0
 42
0.00000001
 43
0.00000001
 40
0.0
 40
0.0
 40
0.0
 40
0.0
 40
0.144300502635625
 40
0.2873275205918761
 40
0.5201185386439748
 40
0.7602843466484799
 40
1.0
 40
1.0
 40
1.0
 40
1.0
 10
159.2329539450496
 20
100.3243454099126
 30
0.0
 10
159.2389382050741
 20
100.3243454099126
 30
0.0
 10
159.2508539126705
 20
100.3243454099126
 30
0.0
 10
159.3442391348669
 20
100.3243454099126
 30
0.0
 10
159.4969970782685
 20
100.3243454099126
 30
0.0
 10
159.7114629934568
 20
100.3243454099126
 30
0.0
 10
159.8695029730115
 20
100.3243454099126
 30
0.0
 10
159.9484488377832
 20
100.3243454099126
 30
0.0
  0
SPLINE
  5
18F
330
1F
100
AcDbEntity
  8
0
  6
Continuous
 62
     7
370
    25
100
AcDbSpline
210
0.0
220
0.0
230
1.0
 70
     8
 71
     3
 72
    15
 73
    11
 74
     0
 42
0.00000001
 43
0.00000001
 40
0.0
 40
0.0
 40
0.0
 40
0.0
 40
0.1525119975281641
 40
0.3103908680493854
 40
0.5397217434700959
 40
0.7785238912153802
 40
0.9076867233570571
 40
0.9610458274988164
 40
0.9967059666277488
 40
1.0
 40
1.0
 40
1.0
 40
1.0
 10
146.9286045582046
 20
92.55752138562947
 30
0.0
 10
147.0971834018164
 20
92.39008546813955
 30
0.0
 10
147.4402733517975
 20
92.04932158979126
 30
0.0
 10
148.089104867507
 20
91.57048740577231
 30
0.0
 10
148.8745336594122
 20
91.15128833577404
 30
0.0
 10
149.6475950167656
 20
90.91838504955571
 30
0.0
 10
150.1970967810141
 20
90.84293876312472
 30
0.0
 10
150.4821796441377
 20
90.82665393053749
 30
0.0
 10
150.6028446441423
 20
90.82439700511569
 30
0.0
 10
150.653761453403
 20
90.8243494327182
 30
0.0
 10
150.6580670683897
 20
90.82434540991255
 30
0.0
  0
SPLINE
  5
190
330
1F
100
AcDbEntity
  8
0
  6
Continuous
 62
     7
370
    25
100
AcDbSpline
210
0.0
220
0.0
230
1.0
 70
     8
 71
     3
 72
    16
 73
    12
 74
     0
 42
0.00000001
 43
0.00000001
 40
0.0
 40
0.0
 40
0.0
 40
0.0
 40
0.0093770372722071
 40
0.1449784074793553
 40
0.2782522792466382
 40
0.4010913490990483
 40
0.5131542856948397
 40
0.6266888454485822
 40
0.7537408321063427
 40
0.8891748694388528
 40
1.0
 40
1.0
 40
1.0
 40
1.0
 10
154.1805994923147
 20
91.86158371619052
 30
0.0
 10
154.1924272293423
 20
91.86909854468047
 30
0.0
 10
154.3752959146829
 20
91.98528533538266
 30
0.0
 10
154.7804141508005
 20
92.1557201143902
 30
0.0
 10
155.3982207351003
 20
92.20667129128182
 30
0.0
 10
155.9653792600999
 20
92.08067583145585
 30
0.0
 10
156.4395275525179
 20
91.82582532425891
 30
0.0
 10
156.8107588282942
 20
91.47896918474196
 30
0.0
 10
157.0456645057238
 20
91.11547436525424
 30
0.0
 10
157.1443433797668
 20
90.86680447970866
 30
0.0
 10
157.1538078058753
 20
90.83752294620746
 30
0.0
 10
157.1580671244953
 20
90.82434524484084
 30
0.0
  0
SPLINE
  5
191
330
1F
100
AcDbEntity
  8
0
  6
Continuous
 62
     7
370
    25
100
AcDbSpline
210
0.0
220
0.0
230
1.0
 70
     8
 71
     3
 72
    12
 73
     8
 74
     0
 42
0.00000001
 43
0.00000001
 40
0.0
 40
0.0
 40
0.0
 40
0.0
 40
0.0039142694629097
 40
0.2613995162853427
 40
0.5232483696209407
 40
0.7589647179150547
 40
1.0
 40
1.0
 40
1.0
 40
1.0
 10
150.6580670683897
 20
90.82434540991255
 30
0.0
 10
150.6627671991863
 20
90.82434881616739
 30
0.0
 10
150.9766474591855
 20
90.82457628986926
 30
0.0
 10
151.605766607727
 20
90.87034014502665
 30
0.0
 10
152.5051891882173
 20
91.07162044085172
 30
0.0
 10
153.3730498936967
 20
91.38842216671054
 30
0.0
 10
153.9094215954758
 20
91.70269446149632
 30
0.0
 10
154.1805994923147
 20
91.86158371619052
 30
0.0
  0
SPLINE
  5
192
330
1F
100
AcDbEntity
  8
0
  6
Continuous
 62
     7
370
    25
100
AcDbSpline
210
0.0
220
0.0
230
1.0
 70
     8
 71
     3
 72
    14
 73
    10
 74
     0
 42
0.00000001
 43
0.00000001
 40
0.0
 40
0.0
 40
0.0
 40
0.0
 40
0.0034863124123955
 40
0.0203208135699722
 40
0.2238589767031064
 40
0.4593718547945684
 40
0.6945922354894416
 40
0.8474054947372496
 40
0.9999999999999999
 40
0.9999999999999999
 40
0.9999999999999999
 40
0.9999999999999999
 10
150.6580670683897
 20
90.82434540991255
 30
0.0
 10
150.6531863399232
 20
90.82434891502969
 30
0.0
 10
150.6247378357388
 20
90.82436934545109
 30
0.0
 10
150.3113547611456
 20
90.82683119217421
 30
0.0
 10
149.6727529634037
 20
90.87713684063253
 30
0.0
 10
148.737139536865
 20
91.08702610747936
 30
0.0
 10
147.8909243467326
 20
91.42277546550285
 30
0.0
 10
147.1820390677242
 20
91.8136794173429
 30
0.0
 10
146.8058005370885
 20
92.09299375393017
 30
0.0
 10
146.6178160156892
 20
92.23255089018257
 30
0.0
  0
SPLINE
  5
193
330
1F
100
AcDbEntity
  8
0
  6
Continuous
 62
     7
370
    25
100
AcDbSpline
210
0.0
220
0.0
230
1.0
 70
     8
 71
     3
 72
    15
 73
    11
 74
     0
 42
0.00000001
 43
0.00000001
 40
0.0
 40
0.0
 40
0.0
 40
0.0
 40
0.0032941481656678
 40
0.0389555300109776
 40
0.0923164936584507
 40
0.2214838269818526
 40
0.455755886074647
 40
0.6896123828215205
 40
0.8449486292273378
 40
1.0
 40
1.0
 40
1.0
 40
1.0
 10
179.6580670683897
 20
90.82434540991255
 30
0.0
 10
179.6623726824538
 20
90.82434943396677
 30
0.0
 10
179.7132894808062
 20
90.82439702112968
 30
0.0
 10
179.8339553720679
 20
90.82665274016733
 30
0.0
 10
180.1190295197078
 20
90.84294936982317
 30
0.0
 10
180.6627241912492
 20
90.91743164561889
 30
0.0
 10
181.4350062314212
 20
91.14989128722587
 30
0.0
 10
182.218705754033
 20
91.564413852875
 30
0.0
 10
182.8723834151243
 20
92.04735236773051
 30
0.0
 10
183.2159192905263
 20
92.38756913066437
 30
0.0
 10
183.3875295785747
 20
92.55752138562947
 30
0.0
  0
SPLINE
  5
194
330
1F
100
AcDbEntity
  8
0
  6
Continuous
 62
     7
370
    25
100
AcDbSpline
210
0.0
220
0.0
230
1.0
 70
     8
 71
     3
 72
    14
 73
    10
 74
     0
 42
0.00000001
 43
0.00000001
 40
0.0
 40
0.0
 40
0.0
 40
0.0
 40
0.1525945052627504
 40
0.3054077645105584
 40
0.5406281452054322
 40
0.7761410232968943
 40
0.9796791864300268
 40
0.9965136875876045
 40
0.9999999999999999
 40
0.9999999999999999
 40
0.9999999999999999
 40
0.9999999999999999
 10
183.6983181210902
 20
92.23255089018257
 30
0.0
 10
183.5103335996909
 20
92.09299375393017
 30
0.0
 10
183.1340950690551
 20
91.8136794173429
 30
0.0
 10
182.4252097900467
 20
91.42277546550284
 30
0.0
 10
181.5789945999143
 20
91.08702610747937
 30
0.0
 10
180.6433811733756
 20
90.87713684063252
 30
0.0
 10
180.0047793756337
 20
90.82683119217423
 30
0.0
 10
179.6913963010405
 20
90.82436934545107
 30
0.0
 10
179.6629477968561
 20
90.82434891502969
 30
0.0
 10
179.6580670683897
 20
90.82434540991255
 30
0.0
  0
SPLINE
  5
195
330
1F
100
AcDbEntity
  8
0
  6
Continuous
 62
     7
370
    25
100
AcDbSpline
210
0.0
220
0.0
230
1.0
 70
     8
 71
     3
 72
    16
 73
    12
 74
     0
 42
0.00000001
 43
0.00000001
 40
0.0
 40
0.0
 40
0.0
 40
0.0
 40
0.0400879241033625
 40
0.1620524644868244
 40
0.273689418946181
 40
0.3878458116547636
 40
0.5157289207825617
 40
0.6512866697179734
 40
0.7845176689407766
 40
0.9073172229945062
 40
1.0
 40
1.0
 40
1.0
 40
1.0
 10
173.1580670122841
 20
90.82434524484084
 30
0.0
 10
173.1586900269511
 20
90.8261465123266
 30
0.0
 10
173.1612085176049
 20
90.8334280027454
 30
0.0
 10
173.1967337765278
 20
90.93852005942846
 30
0.0
 10
173.3190355497764
 20
91.19938806321514
 30
0.0
 10
173.5666300394683
 20
91.55036006156827
 30
0.0
 10
173.99191488611
 20
91.91297146138812
 30
0.0
 10
174.5674547371869
 20
92.15595865450184
 30
0.0
 10
175.1842306620571
 20
92.20548629237607
 30
0.0
 10
175.7269020962116
 20
92.09099617071305
 30
0.0
 10
176.0126355934177
 20
91.93058109067698
 30
0.0
 10
176.1355346444647
 20
91.86158371619057
 30
0.0
  0
SPLINE
  5
196
330
1F
100
AcDbEntity
  8
0
  6
Continuous
 62
     7
370
    25
100
AcDbSpline
210
0.0
220
0.0
230
1.0
 70
     8
 71
     3
 72
    12
 73
     8
 74
     0
 42
0.00000001
 43
0.00000001
 40
0.0
 40
0.0
 40
0.0
 40
0.0
 40
0.235365305091999
 40
0.47675333331241
 40
0.7341407436541079
 40
0.9960857492732753
 40
1.0
 40
1.0
 40
1.0
 40
1.0
 10
176.1355346444647
 20
91.86158371619057
 30
0.0
 10
176.4002331621597
 20
91.70617700798675
 30
0.0
 10
176.9364035233125
 20
91.3913869155119
 30
0.0
 10
177.7989760282006
 20
91.07503860210285
 30
0.0
 10
178.7049589834478
 20
90.87112249051162
 30
0.0
 10
179.3341301291306
 20
90.82458015874761
 30
0.0
 10
179.6533669389601
 20
90.82434881597644
 30
0.0
 10
179.6580670683897
 20
90.82434540991255
 30
0.0
  0
SPLINE
  5
197
330
1F
100
AcDbEntity
  8
0
  6
Continuous
 62
     7
370
    25
100
AcDbSpline
210
0.0
220
0.0
230
1.0
 70
     8
 71
     3
 72
    30
 73
    26
 74
     0
 42
0.00000001
 43
0.00000001
 40
0.0
 40
0.0
 40
0.0
 40
0.0
 40
0.0110312848400549
 40
0.0532776874785964
 40
0.0955512287630423
 40
0.1522055495411072
 40
0.2089595412079051
 40
0.2161890499528918
 40
0.276925172275626
 40
0.3376605208392086
 40
0.3847640440763128
 40
0.4317728110589279
 40
0.4687715981216639
 40
0.5057316455118831
 40
0.54264961429988
 40
0.5796166604356029
 40
0.6291517915606505
 40
0.678778674437546
 40
0.7318143339984458
 40
0.7848413101527134
 40
0.8294802572046012
 40
0.8740844041269727
 40
0.916564785778285
 40
0.9590101589357598
 40
0.9999999999999999
 40
0.9999999999999999
 40
0.9999999999999999
 40
0.9999999999999999
 10
159.2580670683897
 20
82.82434540991257
 30
0.0
 10
159.2588911157359
 20
82.82364757801486
 30
0.0
 10
159.2628710090681
 20
82.82027726618827
 30
0.0
 10
159.3336527179973
 20
82.75992762258292
 30
0.0
 10
159.5549414480966
 20
82.57439752692501
 30
0.0
 10
159.9455044634931
 20
82.25385158198337
 30
0.0
 10
160.3487465495793
 20
81.94017467844303
 30
0.0
 10
160.8155607886682
 20
81.59378539055311
 30
0.0
 10
161.3511886227462
 20
81.21336044354967
 30
0.0
 10
162.1669390007487
 20
80.71533689328902
 30
0.0
 10
163.0084988065132
 20
80.30321902021518
 30
0.0
 10
163.79190572514
 20
80.0262199040002
 30
0.0
 10
164.5648906022444
 20
79.87480275153804
 30
0.0
 10
165.295480906521
 20
79.8366532810034
 30
0.0
 10
166.0202033689739
 20
79.91598517743951
 30
0.0
 10
166.793572958703
 20
80.10848836070863
 30
0.0
 10
167.5839679273473
 20
80.42564795353864
 30
0.0
 10
168.3807718844501
 20
80.85092599252539
 30
0.0
 10
169.1081413336735
 20
81.31338868484362
 30
0.0
 10
169.7223387779857
 20
81.75379496046574
 30
0.0
 10
170.2158235925758
 20
82.13227663685193
 30
0.0
 10
170.5907980725934
 20
82.43396815007733
 30
0.0
 10
170.861321570121
 20
82.65784073319108
 30
0.0
 10
171.0324955562309
 20
82.80262804280675
 30
0.0
 10
171.0479072544822
 20
82.81564377796425
 30
0.0
 10
171.0554786746283
 20
82.82203811542017
 30
0.0
  0
LINE
  5
198
330
1F
100
AcDbEntity
  8
0
  6
Continuous
 62
     7
370
    25
100
AcDbLine
 10
165.0951842036
 20
102.9122877453
 30
0.0
 11
165.0951842036
 21
102.9242383072
 31
0.0
  0
LINE
  5
199
330
1F
100
AcDbEntity
  8
0
  6
Continuous
 62
     7
370
    25
100
AcDbLine
 10
165.2209499332
 20
102.9122877453
 30
0.0
 11
165.2209499332
 21
102.9242383072
 31
0.0
  0
LINE
  5
19A
330
1F
100
AcDbEntity
  8
0
  6
Continuous
 62
     7
370
    25
100
AcDbLine
 10
157.6248973202
 20
84.2887218849
 30
0.0
 11
172.6912368166
 21
84.2887218849
 31
0.0
  0
LINE
  5
19B
330
1F
100
AcDbEntity
  8
0
  6
Continuous
 62
     7
370
    25
100
AcDbLine
 10
165.1580670684
 20
101.9283012553
 30
0.0
 11
159.5738852846
 21
101.9283012553
 31
0.0
  0
LINE
  5
19C
330
1F
100
AcDbEntity
  8
0
  6
Continuous
 62
     7
370
    25
100
AcDbLine
 10
170.7422488522
 20
101.9283012553
 30
0.0
 11
165.1580670684
 21
101.9283012553
 31
0.0
  0
LINE
  5
19D
330
1F
100
AcDbEntity
  8
0
  6
Continuous
 62
     7
370
    18
100
AcDbLine
 10
159.0918170684
 20
60.8243454099
 30
0.0
 11
159.4085287646
 21
50.6895711325
 31
0.0
  0
LINE
  5
19E
330
1F
100
AcDbEntity
  8
0
  6
Continuous
 62
     7
370
    18
100
AcDbLine
 10
170.9076053722
 20
50.6895711325
 30
0.0
 11
171.2243170684
 21
60.8243454099
 31
0.0
  0
LINE
  5
19F
330
1F
100
AcDbEntity
  8
0
  6
CENTERX2
 62
     7
370
    18
100
AcDbLine
 10
124.1050759546
 20
73.3243454099
 30
0.0
 11
206.6580670684
 21
73.3243454099
 31
0.0
  0
LINE
  5
1A0
330
1F
100
AcDbEntity
  8
0
  6
CENTERX2
 62
     7
370
    18
100
AcDbLine
 10
165.1580670684
 20
48.3222581258
 30
0.0
 11
165.1580670684
 21
104.7582655274
 31
0.0
  0
LINE
  5
1A1
330
1F
100
AcDbEntity
  8
0
  6
Continuous
 62
     7
370
    25
100
AcDbLine
 10
225.4278640635
 20
61.3243454099
 30
0.0
 11
225.7219644494
 21
51.9131330637
 31
0.0
  0
LINE
  5
1A2
330
1F
100
AcDbEntity
  8
0
  6
Continuous
 62
     7
370
    25
100
AcDbLine
 10
238.6338886777
 20
51.9131330637
 30
0.0
 11
238.9279890635
 21
61.3243454099
 31
0.0
  0
LINE
  5
1A3
330
1F
100
AcDbEntity
  8
0
  6
Continuous
 62
     7
370
    25
100
AcDbLine
 10
225.7219644494
 20
51.9131330637
 30
0.0
 11
226.9279265635
 21
49.8243454099
 31
0.0
  0
LINE
  5
1A4
330
1F
100
AcDbEntity
  8
0
  6
Continuous
 62
     7
370
    25
100
AcDbLine
 10
237.4279265635
 20
49.8243454099
 30
0.0
 11
238.6338886777
 21
51.9131330637
 31
0.0
  0
LINE
  5
1A5
330
1F
100
AcDbEntity
  8
0
  6
Continuous
 62
     7
370
    25
100
AcDbLine
 10
238.0779265635
 20
79.8628740738
 30
0.0
 11
238.0779265635
 21
83.8243454099
 31
0.0
  0
LINE
  5
1A6
330
1F
100
AcDbEntity
  8
0
  6
Continuous
 62
     7
370
    25
100
AcDbLine
 10
226.2779265635
 20
83.8243454099
 30
0.0
 11
226.2779265635
 21
79.8575716631
 31
0.0
  0
ARC
  5
1A7
330
1F
100
AcDbEntity
  8
0
  6
Continuous
 62
     7
370
    25
100
AcDbCircle
 10
232.1779265635
 20
82.3243454099
 30
0.0
 40
20.5
100
AcDbArc
 50
99.3449833975
 51
102.6803834918
  0
ARC
  5
1A8
330
1F
100
AcDbEntity
  8
0
  6
Continuous
 62
     7
370
    25
100
AcDbCircle
 10
232.1779265635
 20
82.3243454099
 30
0.0
 40
20.50000000000001
100
AcDbArc
 50
77.3196165082
 51
80.6550166025
  0
LINE
  5
1A9
330
1F
100
AcDbEntity
  8
0
  6
Continuous
 62
     7
370
    25
100
AcDbLine
 10
232.1767357362
 20
90.8243454099
 30
0.0
 11
232.1791173909
 21
90.8243454099
 31
0.0
  0
LINE
  5
1AA
330
1F
100
AcDbEntity
  8
0
  6
Continuous
 62
     7
370
    25
100
AcDbLine
 10
234.534291208
 20
103.8243454099
 30
0.0
 11
229.8215619191
 21
103.8243454099
 31
0.0
  0
ARC
  5
1AB
330
1F
100
AcDbEntity
  8
0
  6
Continuous
 62
     7
370
    25
100
AcDbCircle
 10
206.2621315171
 20
99.7139060207
 30
0.0
 40
19.99999999999999
100
AcDbArc
 50
333.6100518522
 51
1.749051671
  0
ARC
  5
1AC
330
1F
100
AcDbEntity
  8
0
  6
Continuous
 62
     7
370
    25
100
AcDbCircle
 10
258.09372161
 20
99.7139060207
 30
0.0
 40
19.99999999999996
100
AcDbArc
 50
178.250948329
 51
206.3899481478
  0
LINE
  5
1AD
330
1F
100
AcDbEntity
  8
0
  6
Continuous
 62
     7
370
    25
100
AcDbLine
 10
224.1779265753
 20
90.8243452448
 30
0.0
 11
224.6447568153
 21
84.2887218849
 31
0.0
  0
LINE
  5
1AE
330
1F
100
AcDbEntity
  8
0
  6
Continuous
 62
     7
370
    25
100
AcDbLine
 10
239.7110963118
 20
84.2887218849
 30
0.0
 11
240.1779265517
 21
90.8243452448
 31
0.0
  0
ARC
  5
1AF
330
1F
100
AcDbEntity
  8
0
  6
Continuous
 62
     7
370
    25
100
AcDbCircle
 10
239.2123669618
 20
84.3243454099
 30
0.0
 40
0.5000000000000105
100
AcDbArc
 50
270.0
 51
355.91438322
  0
ARC
  5
1B0
330
1F
100
AcDbEntity
  8
0
  6
Continuous
 62
     7
370
    25
100
AcDbCircle
 10
225.1434861652
 20
84.3243454099
 30
0.0
 40
0.5000000000000105
100
AcDbArc
 50
184.08561678
 51
270.0
  0
LINE
  5
1B1
330
1F
100
AcDbEntity
  8
0
  6
Continuous
 62
     7
370
    25
100
AcDbLine
 10
238.1030396869
 20
100.3243454099
 30
0.0
 11
237.7621083473
 21
101.9283012553
 31
0.0
  0
LINE
  5
1B2
330
1F
100
AcDbEntity
  8
0
  6
Continuous
 62
     7
370
    25
100
AcDbLine
 10
226.5937447798
 20
101.9283012553
 30
0.0
 11
226.2528134402
 21
100.3243454099
 31
0.0
  0
ARC
  5
1B3
330
1F
100
AcDbEntity
  8
0
  6
Continuous
 62
     7
370
    25
100
AcDbCircle
 10
227.0828185801
 20
101.8243454099
 30
0.0
 40
0.5000000000000231
100
AcDbArc
 50
90.0
 51
168.0
  0
ARC
  5
1B4
330
1F
100
AcDbEntity
  8
0
  6
Continuous
 62
     7
370
    25
100
AcDbCircle
 10
237.2730345469
 20
101.8243454099
 30
0.0
 40
0.5000000000000231
100
AcDbArc
 50
12.0
 51
90.0
  0
CIRCLE
  5
1B5
330
1F
100
AcDbEntity
  8
0
  6
Continuous
 62
     7
370
    25
100
AcDbCircle
 10
232.1779265635
 20
73.3243454099
 30
0.0
 40
3.099999999999985
  0
CIRCLE
  5
1B6
330
1F
100
AcDbEntity
  8
0
  6
Continuous
 62
     7
370
    25
100
AcDbCircle
 10
232.1779265635
 20
73.3243454099
 30
0.0
 40
2.999999999999987
  0
CIRCLE
  5
1B7
330
1F
100
AcDbEntity
  8
0
  6
Continuous
 62
     7
370
    25
100
AcDbCircle
 10
232.1779265635
 20
73.3243454099
 30
0.0
 40
3.829999999999998
  0
CIRCLE
  5
1B8
330
1F
100
AcDbEntity
  8
0
  6
Continuous
 62
     7
370
    25
100
AcDbCircle
 10
232.1779265635
 20
73.3243454099
 30
0.0
 40
3.349999999999981
  0
CIRCLE
  5
1B9
330
1F
100
AcDbEntity
  8
0
  6
Continuous
 62
     7
370
    25
100
AcDbCircle
 10
232.1779265635
 20
73.3243454099
 30
0.0
 40
4.499999999999993
  0
CIRCLE
  5
1BA
330
1F
100
AcDbEntity
  8
0
  6
Continuous
 62
     7
370
    25
100
AcDbCircle
 10
232.1779265635
 20
73.3243454099
 30
0.0
 40
7.999999999999987
  0
CIRCLE
  5
1BB
330
1F
100
AcDbEntity
  8
0
  6
Continuous
 62
     7
370
    25
100
AcDbCircle
 10
232.1779265635
 20
73.3243454099
 30
0.0
 40
7.800000000000004
  0
SPLINE
  5
1BC
330
1F
100
AcDbEntity
  8
0
  6
Continuous
 62
     7
370
    25
100
AcDbSpline
210
0.0
220
0.0
230
1.0
 70
     8
 71
     3
 72
    10
 73
     6
 74
     0
 42
0.00000001
 43
0.00000001
 40
0.0
 40
0.0
 40
0.0
 40
0.0
 40
0.5
 40
0.5
 40
1.0
 40
1.0
 40
1.0
 40
1.0
 10
223.9279265635401
 20
68.27253055450333
 30
0.0
 10
223.8535560966146
 20
68.31546836360256
 30
0.0
 10
223.7892505003267
 20
68.37890895349477
 30
0.0
 10
223.7010277125208
 20
68.53139809900362
 30
0.0
 10
223.6779265635401
 20
68.61962748820693
 30
0.0
 10
223.6779265635401
 20
68.70554325639556
 30
0.0
  0
SPLINE
  5
1BD
330
1F
100
AcDbEntity
  8
0
  6
Continuous
 62
     7
370
    25
100
AcDbSpline
210
0.0
220
0.0
230
1.0
 70
    24
 71
     3
 72
    10
 73
     6
 74
     0
 42
0.00000001
 43
0.00000001
 40
0.0
 40
0.0
 40
0.0
 40
0.0
 40
0.4999999999999999
 40
0.4999999999999999
 40
1.0
 40
1.0
 40
1.0
 40
1.0
 10
223.6779265635401
 20
68.70554325639556
 30
0.0
 10
223.6779265635401
 20
69.46302491660111
 30
0.0
 10
223.6779265635401
 20
70.22549246504457
 30
0.0
 10
223.6779265635401
 20
71.76395659938395
 30
0.0
 10
223.6779265635401
 20
72.54007927782651
 30
0.0
 10
223.6779265635401
 20
73.32434540991257
 30
0.0
  0
ARC
  5
1BE
330
1F
100
AcDbEntity
  8
0
  6
Continuous
 62
     7
370
    25
100
AcDbCircle
 10
232.1779265635
 20
73.3243454099
 30
0.0
 40
8.5
100
AcDbArc
 50
180.0
 51
240.0
  0
SPLINE
  5
1BF
330
1F
100
AcDbEntity
  8
0
  6
Continuous
 62
     7
370
    25
100
AcDbSpline
210
0.0
220
0.0
230
1.0
 70
    24
 71
     3
 72
    10
 73
     6
 74
     0
 42
0.00000001
 43
0.00000001
 40
0.0
 40
0.0
 40
0.0
 40
0.0
 40
0.5
 40
0.5
 40
1.0
 40
1.0
 40
1.0
 40
1.0
 10
223.92792656354
 20
68.27253055450338
 30
0.0
 10
224.5839393301452
 20
67.89378140711209
 30
0.0
 10
225.2442062370029
 20
67.51257613070078
 30
0.0
 10
226.5765527556379
 20
66.74334550951299
 30
0.0
 10
227.2487057371252
 20
66.35527780471467
 30
0.0
 10
227.9279265635401
 20
65.96312947774484
 30
0.0
  0
SPLINE
  5
1C0
330
1F
100
AcDbEntity
  8
0
  6
Continuous
 62
     7
370
    25
100
AcDbSpline
210
0.0
220
0.0
230
1.0
 70
     8
 71
     3
 72
    10
 73
     6
 74
     0
 42
0.00000001
 43
0.00000001
 40
0.0
 40
0.0
 40
0.0
 40
0.0
 40
0.5
 40
0.5
 40
1.0
 40
1.0
 40
1.0
 40
1.0
 10
223.6779265635401
 20
77.94314756342958
 30
0.0
 10
223.6779265635401
 20
78.02902920593598
 30
0.0
 10
223.7007171351875
 20
78.11643841190144
 30
0.0
 10
223.7886631324864
 20
78.26908089697642
 30
0.0
 10
223.8535239252191
 20
78.33320388205877
 30
0.0
 10
223.9279265635401
 20
78.37616026532179
 30
0.0
  0
SPLINE
  5
1C1
330
1F
100
AcDbEntity
  8
0
  6
Continuous
 62
     7
370
    25
100
AcDbSpline
210
0.0
220
0.0
230
1.0
 70
    24
 71
     3
 72
    12
 73
     8
 74
     0
 42
0.00000001
 43
0.00000001
 40
0.0
 40
0.0
 40
0.0
 40
0.0
 40
0.2500000000000001
 40
0.2500000000000001
 40
0.5000000000000002
 40
0.5000000000000002
 40
1.0
 40
1.0
 40
1.0
 40
1.0
 10
227.9279265635401
 20
80.68556134208029
 30
0.0
 10
227.5901706285173
 20
80.4905578620745
 30
0.0
 10
227.2497626136388
 20
80.2940232030501
 30
0.0
 10
226.5752679292384
 20
79.90460351544453
 30
0.0
 10
226.2401426103712
 20
79.71111882238428
 30
0.0
 10
225.240431292031
 20
79.13393522362868
 30
0.0
 10
224.5814971889658
 20
78.75349944184572
 30
0.0
 10
223.9279265635401
 20
78.37616026532177
 30
0.0
  0
ARC
  5
1C2
330
1F
100
AcDbEntity
  8
0
  6
Continuous
 62
     7
370
    25
100
AcDbCircle
 10
232.1779265635
 20
73.3243454099
 30
0.0
 40
8.5
100
AcDbArc
 50
120.0
 51
180.0
  0
SPLINE
  5
1C3
330
1F
100
AcDbEntity
  8
0
  6
Continuous
 62
     7
370
    25
100
AcDbSpline
210
0.0
220
0.0
230
1.0
 70
    24
 71
     3
 72
    12
 73
     8
 74
     0
 42
0.00000001
 43
0.00000001
 40
0.0
 40
0.0
 40
0.0
 40
0.0
 40
0.25
 40
0.25
 40
0.5
 40
0.5
 40
1.0
 40
1.0
 40
1.0
 40
1.0
 10
223.6779265635401
 20
73.32434540991257
 30
0.0
 10
223.6779265635401
 20
73.71601733628749
 30
0.0
 10
223.6779265635401
 20
74.1109202278091
 30
0.0
 10
223.6779265635401
 20
74.8918562580564
 30
0.0
 10
223.6779265635401
 20
75.27926438998766
 30
0.0
 10
223.6779265635401
 20
76.43339401664764
 30
0.0
 10
223.6779265635401
 20
77.19204842558416
 30
0.0
 10
223.6779265635401
 20
77.94314756342958
 30
0.0
  0
ARC
  5
1C4
330
1F
100
AcDbEntity
  8
0
  6
Continuous
 62
     7
370
    25
100
AcDbCircle
 10
232.1779265635
 20
73.3243454099
 30
0.0
 40
8.50000000000001
100
AcDbArc
 50
240.0
 51
300.0
  0
ARC
  5
1C5
330
1F
100
AcDbEntity
  8
0
  6
Continuous
 62
     7
370
    25
100
AcDbCircle
 10
232.1779265635
 20
73.3243454099
 30
0.0
 40
8.50000000000001
100
AcDbArc
 50
60.0
 51
120.0
  0
ARC
  5
1C6
330
1F
100
AcDbEntity
  8
0
  6
Continuous
 62
     7
370
    25
100
AcDbCircle
 10
232.1779265635
 20
73.3243454099
 30
0.0
 40
8.500000000000028
100
AcDbArc
 50
0.0
 51
60.0
  0
ARC
  5
1C7
330
1F
100
AcDbEntity
  8
0
  6
Continuous
 62
     7
370
    25
100
AcDbCircle
 10
232.1779265635
 20
73.3243454099
 30
0.0
 40
8.500000000000028
100
AcDbArc
 50
300.0
 51
0.0
  0
SPLINE
  5
1C8
330
1F
100
AcDbEntity
  8
0
  6
Continuous
 62
     7
370
    25
100
AcDbSpline
210
0.0
220
0.0
230
1.0
 70
    24
 71
     3
 72
    10
 73
     6
 74
     0
 42
0.00000001
 43
0.00000001
 40
0.0
 40
0.0
 40
0.0
 40
0.0
 40
0.5
 40
0.5
 40
1.0
 40
1.0
 40
1.0
 40
1.0
 10
232.42792656354
 20
63.6537284009863
 30
0.0
 10
233.0839393301451
 20
64.0324775483776
 30
0.0
 10
233.7442062370029
 20
64.41368282478889
 30
0.0
 10
235.0765527556379
 20
65.18291344597667
 30
0.0
 10
235.7487057371252
 20
65.57098115077498
 30
0.0
 10
236.4279265635401
 20
65.96312947774483
 30
0.0
  0
SPLINE
  5
1C9
330
1F
100
AcDbEntity
  8
0
  6
Continuous
 62
     7
370
    25
100
AcDbSpline
210
0.0
220
0.0
230
1.0
 70
     8
 71
     3
 72
    10
 73
     6
 74
     0
 42
0.00000001
 43
0.00000001
 40
0.0
 40
0.0
 40
0.0
 40
0.0
 40
0.5
 40
0.5
 40
1.0
 40
1.0
 40
1.0
 40
1.0
 10
232.4279265635401
 20
63.65372840098633
 30
0.0
 10
232.3535518095501
 20
63.61078811674929
 30
0.0
 10
232.2664580779842
 20
63.58682033217347
 30
0.0
 10
232.0902922494397
 20
63.58666227606795
 30
0.0
 10
232.0023312255494
 20
63.61077084934631
 30
0.0
 10
231.9279265635401
 20
63.65372840098633
 30
0.0
  0
SPLINE
  5
1CA
330
1F
100
AcDbEntity
  8
0
  6
Continuous
 62
     7
370
    25
100
AcDbSpline
210
0.0
220
0.0
230
1.0
 70
    24
 71
     3
 72
    12
 73
     8
 74
     0
 42
0.00000001
 43
0.00000001
 40
0.0
 40
0.0
 40
0.0
 40
0.0
 40
0.25
 40
0.25
 40
0.5000000000000002
 40
0.5000000000000002
 40
1.0
 40
1.0
 40
1.0
 40
1.0
 10
227.9279265635401
 20
65.96312947774484
 30
0.0
 10
228.2656824985629
 20
65.76812599773903
 30
0.0
 10
228.6060905134414
 20
65.57159133871463
 30
0.0
 10
229.2805851978418
 20
65.18217165110909
 30
0.0
 10
229.615710516709
 20
64.98868695804883
 30
0.0
 10
230.6154218350492
 20
64.41150335929322
 30
0.0
 10
231.2743559381145
 20
64.03106757751026
 30
0.0
 10
231.9279265635401
 20
63.65372840098632
 30
0.0
  0
SPLINE
  5
1CB
330
1F
100
AcDbEntity
  8
0
  6
Continuous
 62
     7
370
    25
100
AcDbSpline
210
0.0
220
0.0
230
1.0
 70
     8
 71
     3
 72
    10
 73
     6
 74
     0
 42
0.00000001
 43
0.00000001
 40
0.0
 40
0.0
 40
0.0
 40
0.0
 40
0.5
 40
0.5
 40
1.0
 40
1.0
 40
1.0
 40
1.0
 10
231.9279265635401
 20
82.9949624188388
 30
0.0
 10
232.0023013175301
 20
83.03790270307584
 30
0.0
 10
232.089395049096
 20
83.06187048765166
 30
0.0
 10
232.2655608776406
 20
83.0620285437572
 30
0.0
 10
232.3535219015308
 20
83.03791997047881
 30
0.0
 10
232.4279265635401
 20
82.9949624188388
 30
0.0
  0
SPLINE
  5
1CC
330
1F
100
AcDbEntity
  8
0
  6
Continuous
 62
     7
370
    25
100
AcDbSpline
210
0.0
220
0.0
230
1.0
 70
    24
 71
     3
 72
    12
 73
     8
 74
     0
 42
0.00000001
 43
0.00000001
 40
0.0
 40
0.0
 40
0.0
 40
0.0
 40
0.2499999999999999
 40
0.2499999999999999
 40
0.5
 40
0.5
 40
1.0
 40
1.0
 40
1.0
 40
1.0
 10
236.4279265635401
 20
80.68556134208029
 30
0.0
 10
236.0901706285173
 20
80.8805648220861
 30
0.0
 10
235.7497626136388
 20
81.0770994811105
 30
0.0
 10
235.0752679292384
 20
81.46651916871606
 30
0.0
 10
234.7401426103712
 20
81.66000386177632
 30
0.0
 10
233.740431292031
 20
82.23718746053191
 30
0.0
 10
233.0814971889658
 20
82.61762324231488
 30
0.0
 10
232.4279265635401
 20
82.99496241883881
 30
0.0
  0
SPLINE
  5
1CD
330
1F
100
AcDbEntity
  8
0
  6
Continuous
 62
     7
370
    25
100
AcDbSpline
210
0.0
220
0.0
230
1.0
 70
    24
 71
     3
 72
    10
 73
     6
 74
     0
 42
0.00000001
 43
0.00000001
 40
0.0
 40
0.0
 40
0.0
 40
0.0
 40
0.5
 40
0.5
 40
1.0
 40
1.0
 40
1.0
 40
1.0
 10
231.9279265635402
 20
82.99496241883882
 30
0.0
 10
231.2719137969351
 20
82.61621327144753
 30
0.0
 10
230.6116468900773
 20
82.23500799503624
 30
0.0
 10
229.2793003714423
 20
81.46577737384845
 30
0.0
 10
228.607147389955
 20
81.07770966905014
 30
0.0
 10
227.9279265635401
 20
80.68556134208029
 30
0.0
  0
SPLINE
  5
1CE
330
1F
100
AcDbEntity
  8
0
  6
Continuous
 62
     7
370
    25
100
AcDbSpline
210
0.0
220
0.0
230
1.0
 70
    24
 71
     3
 72
    10
 73
     6
 74
     0
 42
0.00000001
 43
0.00000001
 40
0.0
 40
0.0
 40
0.0
 40
0.0
 40
0.5
 40
0.5
 40
1.0
 40
1.0
 40
1.0
 40
1.0
 10
240.6779265635401
 20
68.70554325639556
 30
0.0
 10
240.6779265635401
 20
69.46302491660111
 30
0.0
 10
240.6779265635401
 20
70.22549246504457
 30
0.0
 10
240.6779265635401
 20
71.76395659938395
 30
0.0
 10
240.6779265635401
 20
72.54007927782651
 30
0.0
 10
240.6779265635401
 20
73.32434540991257
 30
0.0
  0
SPLINE
  5
1CF
330
1F
100
AcDbEntity
  8
0
  6
Continuous
 62
     7
370
    25
100
AcDbSpline
210
0.0
220
0.0
230
1.0
 70
     8
 71
     3
 72
    10
 73
     6
 74
     0
 42
0.00000001
 43
0.00000001
 40
0.0
 40
0.0
 40
0.0
 40
0.0
 40
0.5
 40
0.5
 40
1.0
 40
1.0
 40
1.0
 40
1.0
 10
240.6779265635401
 20
68.70554325639556
 30
0.0
 10
240.6779265635401
 20
68.61966161388911
 30
0.0
 10
240.6551359918927
 20
68.53225240792366
 30
0.0
 10
240.5671899945939
 20
68.37960992284873
 30
0.0
 10
240.5023292018611
 20
68.31548693776638
 30
0.0
 10
240.4279265635401
 20
68.27253055450335
 30
0.0
  0
SPLINE
  5
1D0
330
1F
100
AcDbEntity
  8
0
  6
Continuous
 62
     7
370
    25
100
AcDbSpline
210
0.0
220
0.0
230
1.0
 70
    24
 71
     3
 72
    12
 73
     8
 74
     0
 42
0.00000001
 43
0.00000001
 40
0.0
 40
0.0
 40
0.0
 40
0.0
 40
0.2499999999999999
 40
0.2499999999999999
 40
0.4999999999999998
 40
0.4999999999999998
 40
1.0
 40
1.0
 40
1.0
 40
1.0
 10
236.4279265635401
 20
65.96312947774483
 30
0.0
 10
236.7656824985629
 20
66.15813295775062
 30
0.0
 10
237.1060905134414
 20
66.35466761677505
 30
0.0
 10
237.7805851978418
 20
66.74408730438059
 30
0.0
 10
238.115710516709
 20
66.93757199744086
 30
0.0
 10
239.1154218350492
 20
67.51475559619645
 30
0.0
 10
239.7743559381145
 20
67.89519137797942
 30
0.0
 10
240.4279265635402
 20
68.27253055450336
 30
0.0
  0
SPLINE
  5
1D1
330
1F
100
AcDbEntity
  8
0
  6
Continuous
 62
     7
370
    25
100
AcDbSpline
210
0.0
220
0.0
230
1.0
 70
     8
 71
     3
 72
    10
 73
     6
 74
     0
 42
0.00000001
 43
0.00000001
 40
0.0
 40
0.0
 40
0.0
 40
0.0
 40
0.5
 40
0.5
 40
1.0
 40
1.0
 40
1.0
 40
1.0
 10
240.4279265635401
 20
78.37616026532179
 30
0.0
 10
240.5022970304657
 20
78.33322245622256
 30
0.0
 10
240.5666026267535
 20
78.26978186633035
 30
0.0
 10
240.6548254145594
 20
78.11729272082152
 30
0.0
 10
240.6779265635401
 20
78.0290633316182
 30
0.0
 10
240.6779265635401
 20
77.94314756342958
 30
0.0
  0
SPLINE
  5
1D2
330
1F
100
AcDbEntity
  8
0
  6
Continuous
 62
     7
370
    25
100
AcDbSpline
210
0.0
220
0.0
230
1.0
 70
    24
 71
     3
 72
    12
 73
     8
 74
     0
 42
0.00000001
 43
0.00000001
 40
0.0
 40
0.0
 40
0.0
 40
0.0
 40
0.25
 40
0.25
 40
0.5
 40
0.5
 40
1.0
 40
1.0
 40
1.0
 40
1.0
 10
240.6779265635401
 20
73.32434540991257
 30
0.0
 10
240.6779265635401
 20
73.71601733628749
 30
0.0
 10
240.6779265635401
 20
74.11092022780909
 30
0.0
 10
240.6779265635401
 20
74.8918562580564
 30
0.0
 10
240.6779265635401
 20
75.27926438998766
 30
0.0
 10
240.6779265635401
 20
76.43339401664763
 30
0.0
 10
240.6779265635401
 20
77.19204842558416
 30
0.0
 10
240.6779265635401
 20
77.94314756342958
 30
0.0
  0
SPLINE
  5
1D3
330
1F
100
AcDbEntity
  8
0
  6
Continuous
 62
     7
370
    25
100
AcDbSpline
210
0.0
220
0.0
230
1.0
 70
    24
 71
     3
 72
    10
 73
     6
 74
     0
 42
0.00000001
 43
0.00000001
 40
0.0
 40
0.0
 40
0.0
 40
0.0
 40
0.5
 40
0.5
 40
1.0
 40
1.0
 40
1.0
 40
1.0
 10
240.4279265635402
 20
78.37616026532176
 30
0.0
 10
239.7719137969351
 20
78.75490941271306
 30
0.0
 10
239.1116468900774
 20
79.13611468912435
 30
0.0
 10
237.7793003714424
 20
79.90534531031214
 30
0.0
 10
237.107147389955
 20
80.29341301511046
 30
0.0
 10
236.4279265635401
 20
80.68556134208029
 30
0.0
  0
LINE
  5
1D4
330
1F
100
AcDbEntity
  8
0
  6
Continuous
 62
     7
370
    25
100
AcDbLine
 10
231.9279265635
 20
61.3243454099
 30
0.0
 11
231.9279265635
 21
63.653728401
 31
0.0
  0
LINE
  5
1D5
330
1F
100
AcDbEntity
  8
0
  6
Continuous
 62
     7
370
    25
100
AcDbLine
 10
232.4279265635
 20
63.653728401
 30
0.0
 11
232.4279265635
 21
61.3243454099
 31
0.0
  0
LINE
  5
1D6
330
1F
100
AcDbEntity
  8
0
  6
Continuous
 62
     7
370
    25
100
AcDbLine
 10
232.4279265635
 20
61.3243454099
 30
0.0
 11
231.9279265635
 21
61.3243454099
 31
0.0
  0
SPLINE
  5
1D7
330
1F
100
AcDbEntity
  8
0
  6
Continuous
 62
     7
370
    25
100
AcDbSpline
210
0.0
220
0.0
230
1.0
 70
     8
 71
     3
 72
    10
 73
     6
 74
     0
 42
0.00000001
 43
0.00000001
 40
0.0
 40
0.0
 40
0.0
 40
0.0
 40
0.5
 40
0.5
 40
1.0
 40
1.0
 40
1.0
 40
1.0
 10
223.9279265635406
 20
65.35794887005773
 30
0.0
 10
224.5627542693542
 20
65.56001555560864
 30
0.0
 10
225.20201997193
 20
65.7264083278793
 30
0.0
 10
226.4928349035199
 20
65.96045530174933
 30
0.0
 10
227.1444545389897
 20
66.02754355570816
 30
0.0
 10
227.8034964708098
 20
66.03496922527795
 30
0.0
  0
LINE
  5
1D8
330
1F
100
AcDbEntity
  8
0
  6
Continuous
 62
     7
370
    25
100
AcDbLine
 10
223.9279265635
 20
65.3579488701
 30
0.0
 11
223.9279265635
 21
61.3243454099
 31
0.0
  0
LINE
  5
1D9
330
1F
100
AcDbEntity
  8
0
  6
Continuous
 62
     7
370
    25
100
AcDbLine
 10
223.9279265635
 20
61.3243454099
 30
0.0
 11
231.9279265635
 21
61.3243454099
 31
0.0
  0
SPLINE
  5
1DA
330
1F
100
AcDbEntity
  8
0
  6
Continuous
 62
     7
370
    25
100
AcDbSpline
210
0.0
220
0.0
230
1.0
 70
     8
 71
     3
 72
    12
 73
     8
 74
     0
 42
0.00000001
 43
0.00000001
 40
0.0
 40
0.0
 40
0.0
 40
0.0
 40
0.2500000000000002
 40
0.2500000000000002
 40
0.5000000000000004
 40
0.5000000000000004
 40
1.0
 40
1.0
 40
1.0
 40
1.0
 10
236.5523566562925
 20
66.03496922527769
 30
0.0
 10
236.8814916466856
 20
66.03126073942127
 30
0.0
 10
237.2109537996224
 20
66.0126782365836
 30
0.0
 10
237.86382741768
 20
65.94781119961745
 30
0.0
 10
238.1882800095571
 20
65.90154564636718
 30
0.0
 10
239.1563404507492
 20
65.72582111606022
 30
0.0
 10
239.7946629349971
 20
65.55951770728346
 30
0.0
 10
240.4279265635401
 20
65.35794887005757
 30
0.0
  0
LINE
  5
1DB
330
1F
100
AcDbEntity
  8
0
  6
Continuous
 62
     7
370
    25
100
AcDbLine
 10
240.4279265635
 20
61.3243454099
 30
0.0
 11
240.4279265635
 21
65.3579488701
 31
0.0
  0
LINE
  5
1DC
330
1F
100
AcDbEntity
  8
0
  6
Continuous
 62
     7
370
    25
100
AcDbLine
 10
232.4279265635
 20
61.3243454099
 30
0.0
 11
240.4279265635
 21
61.3243454099
 31
0.0
  0
SPLINE
  5
1DD
330
1F
100
AcDbEntity
  8
0
  6
Continuous
 62
     7
370
    25
100
AcDbSpline
210
0.0
220
0.0
230
1.0
 70
     8
 71
     3
 72
     8
 73
     4
 74
     0
 42
0.00000001
 43
0.00000001
 40
0.0
 40
0.0
 40
0.0
 40
0.0
 40
1.0
 40
1.0
 40
1.0
 40
1.0
 10
225.2497233332646
 20
66.32434540991257
 30
0.0
 10
224.7233024720554
 20
66.06113497930797
 30
0.0
 10
224.1997580153417
 20
65.79203755092125
 30
0.0
 10
223.6779265635401
 20
65.5194341983386
 30
0.0
  0
SPLINE
  5
1DE
330
1F
100
AcDbEntity
  8
0
  6
Continuous
 62
     7
370
    25
100
AcDbSpline
210
0.0
220
0.0
230
1.0
 70
     8
 71
     3
 72
    10
 73
     6
 74
     0
 42
0.00000001
 43
0.00000001
 40
0.0
 40
0.0
 40
0.0
 40
0.0
 40
0.5
 40
0.5
 40
1.0
 40
1.0
 40
1.0
 40
1.0
 10
223.6779265635401
 20
65.3579488700575
 30
0.0
 10
223.6779265635401
 20
65.33427347563308
 30
0.0
 10
223.7007190128699
 20
65.32118236574851
 30
0.0
 10
223.7886617169632
 20
65.32109604446028
 30
0.0
 10
223.8535194906374
 20
65.33426497840422
 30
0.0
 10
223.9279265635408
 20
65.35794887005777
 30
0.0
  0
SPLINE
  5
1DF
330
1F
100
AcDbEntity
  8
0
  6
Continuous
 62
     7
370
    25
100
AcDbSpline
210
0.0
220
0.0
230
1.0
 70
    24
 71
     3
 72
     8
 73
     4
 74
     0
 42
0.00000001
 43
0.00000001
 40
0.0
 40
0.0
 40
0.0
 40
0.0
 40
1.0
 40
1.0
 40
1.0
 40
1.0
 10
223.6779265635401
 20
65.35794887005757
 30
0.0
 10
223.6779265635401
 20
65.41450983718178
 30
0.0
 10
223.6779265635401
 20
65.46844990859563
 30
0.0
 10
223.6779265635401
 20
65.51943419833859
 30
0.0
  0
SPLINE
  5
1E0
330
1F
100
AcDbEntity
  8
0
  6
Continuous
 62
     7
370
    25
100
AcDbSpline
210
0.0
220
0.0
230
1.0
 70
     8
 71
     3
 72
     8
 73
     4
 74
     0
 42
0.00000001
 43
0.00000001
 40
0.0
 40
0.0
 40
0.0
 40
0.0
 40
1.0
 40
1.0
 40
1.0
 40
1.0
 10
240.6779265635401
 20
65.51943419833859
 30
0.0
 10
240.1561204122383
 20
65.79202433400793
 30
0.0
 10
239.6324669433821
 20
66.06117683512933
 30
0.0
 10
239.1061297938156
 20
66.32434540991257
 30
0.0
  0
SPLINE
  5
1E1
330
1F
100
AcDbEntity
  8
0
  6
Continuous
 62
     7
370
    25
100
AcDbSpline
210
0.0
220
0.0
230
1.0
 70
     8
 71
     3
 72
    10
 73
     6
 74
     0
 42
0.00000001
 43
0.00000001
 40
0.0
 40
0.0
 40
0.0
 40
0.0
 40
0.5
 40
0.5
 40
1.0
 40
1.0
 40
1.0
 40
1.0
 10
240.4279265635401
 20
65.35794887005757
 30
0.0
 10
240.5023069409175
 20
65.33427347563317
 30
0.0
 10
240.5666075797032
 20
65.32118236574854
 30
0.0
 10
240.6548232644861
 20
65.32109604446025
 30
0.0
 10
240.6779265635401
 20
65.3342649784041
 30
0.0
 10
240.6779265635401
 20
65.35794887005756
 30
0.0
  0
SPLINE
  5
1E2
330
1F
100
AcDbEntity
  8
0
  6
Continuous
 62
     7
370
    25
100
AcDbSpline
210
0.0
220
0.0
230
1.0
 70
    24
 71
     3
 72
     8
 73
     4
 74
     0
 42
0.00000001
 43
0.00000001
 40
0.0
 40
0.0
 40
0.0
 40
0.0
 40
1.0
 40
1.0
 40
1.0
 40
1.0
 10
240.6779265635401
 20
65.35794887005757
 30
0.0
 10
240.6779265635401
 20
65.4145098371818
 30
0.0
 10
240.6779265635401
 20
65.46844990859563
 30
0.0
 10
240.6779265635401
 20
65.51943419833859
 30
0.0
  0
LINE
  5
1E3
330
1F
100
AcDbEntity
  8
0
  6
Continuous
 62
     7
370
    25
100
AcDbLine
 10
224.6779265635
 20
67.8395178526
 30
0.0
 11
224.6779265635
 21
66.3243454099
 31
0.0
  0
LINE
  5
1E4
330
1F
100
AcDbEntity
  8
0
  6
Continuous
 62
     7
370
    25
100
AcDbLine
 10
224.6779265635
 20
66.3243454099
 30
0.0
 11
227.3022822165
 21
66.3243454099
 31
0.0
  0
LINE
  5
1E5
330
1F
100
AcDbEntity
  8
0
  6
Continuous
 62
     7
370
    25
100
AcDbLine
 10
239.6779265635
 20
66.3243454099
 30
0.0
 11
239.6779265635
 21
67.8395178526
 31
0.0
  0
LINE
  5
1E6
330
1F
100
AcDbEntity
  8
0
  6
Continuous
 62
     7
370
    25
100
AcDbLine
 10
237.0535709106
 20
66.3243454099
 30
0.0
 11
239.6779265635
 21
66.3243454099
 31
0.0
  0
LINE
  5
1E7
330
1F
100
AcDbEntity
  8
0
  6
Continuous
 62
     7
370
    25
100
AcDbLine
 10
225.7219644494
 20
51.9131330637
 30
0.0
 11
238.6338886777
 21
51.9131330637
 31
0.0
  0
LINE
  5
1E8
330
1F
100
AcDbEntity
  8
0
  6
Continuous
 62
     7
370
    25
100
AcDbLine
 10
232.1779265635
 20
49.8243454099
 30
0.0
 11
226.9279265635
 21
49.8243454099
 31
0.0
  0
LINE
  5
1E9
330
1F
100
AcDbEntity
  8
0
  6
Continuous
 62
     7
370
    25
100
AcDbLine
 10
237.4279265635
 20
49.8243454099
 30
0.0
 11
232.1779265635
 21
49.8243454099
 31
0.0
  0
LINE
  5
1EA
330
1F
100
AcDbEntity
  8
0
  6
Continuous
 62
     7
370
    25
100
AcDbLine
 10
223.9279265635
 20
61.3243454099
 30
0.0
 11
223.6779265635
 21
61.3243454099
 31
0.0
  0
LINE
  5
1EB
330
1F
100
AcDbEntity
  8
0
  6
Continuous
 62
     7
370
    25
100
AcDbLine
 10
223.6779265635
 20
61.3243454099
 30
0.0
 11
223.6779265635
 21
65.3579488701
 31
0.0
  0
LINE
  5
1EC
330
1F
100
AcDbEntity
  8
0
  6
Continuous
 62
     7
370
    25
100
AcDbLine
 10
240.6779265635
 20
61.3243454099
 30
0.0
 11
240.4279265635
 21
61.3243454099
 31
0.0
  0
LINE
  5
1ED
330
1F
100
AcDbEntity
  8
0
  6
Continuous
 62
     7
370
    25
100
AcDbLine
 10
240.6779265635
 20
65.3579488701
 30
0.0
 11
240.6779265635
 21
61.3243454099
 31
0.0
  0
LINE
  5
1EE
330
1F
100
AcDbEntity
  8
0
  6
Continuous
 62
     7
370
    25
100
AcDbLine
 10
223.6779265635
 20
65.5194341983
 30
0.0
 11
223.6779265635
 21
68.6501767299
 31
0.0
  0
LINE
  5
1EF
330
1F
100
AcDbEntity
  8
0
  6
Continuous
 62
     7
370
    25
100
AcDbLine
 10
240.6779265635
 20
65.5194341983
 30
0.0
 11
240.6779265635
 21
68.6501767299
 31
0.0
  0
SPLINE
  5
1F0
330
1F
100
AcDbEntity
  8
0
  6
Continuous
 62
     7
370
    25
100
AcDbSpline
210
0.0
220
0.0
230
1.0
 70
     8
 71
     3
 72
    11
 73
     7
 74
     0
 42
0.00000001
 43
0.00000001
 40
0.0
 40
0.0
 40
0.0
 40
0.0
 40
0.0055682347466184
 40
0.1918263368321039
 40
0.6296575784328784
 40
1.0
 40
1.0
 40
1.0
 40
1.0
 10
229.8215619191051
 20
103.8243454099126
 30
0.0
 10
229.8201777010293
 20
103.824341390839
 30
0.0
 10
229.7724912267779
 20
103.824202933285
 30
0.0
 10
229.6185210439395
 20
103.7979641572317
 30
0.0
 10
229.3729459691749
 20
103.6438911938103
 30
0.0
 10
229.3407741833647
 20
103.3466318400514
 30
0.0
 10
229.3260315882937
 20
103.2104139033359
 30
0.0
  0
SPLINE
  5
1F1
330
1F
100
AcDbEntity
  8
0
  6
Continuous
 62
     7
370
    25
100
AcDbSpline
210
0.0
220
0.0
230
1.0
 70
     8
 71
     3
 72
    11
 73
     7
 74
     0
 42
0.00000001
 43
0.00000001
 40
0.0
 40
0.0
 40
0.0
 40
0.0
 40
0.3703424215671234
 40
0.8081736631678964
 40
0.9944317652533821
 40
1.0
 40
1.0
 40
1.0
 40
1.0
 10
235.0298215387865
 20
103.2104139033359
 30
0.0
 10
235.0150789437155
 20
103.3466318400514
 30
0.0
 10
234.9829071579052
 20
103.6438911938103
 30
0.0
 10
234.7373320831411
 20
103.7979641572318
 30
0.0
 10
234.583361900302
 20
103.8242029332849
 30
0.0
 10
234.535675426051
 20
103.824341390839
 30
0.0
 10
234.5342912079751
 20
103.8243454099126
 30
0.0
  0
LINE
  5
1F2
330
1F
100
AcDbEntity
  8
0
  6
Continuous
 62
     7
370
    25
100
AcDbLine
 10
233.6657083833
 20
92.2325508902
 30
0.0
 11
235.0298215388
 21
103.2104139033
 31
0.0
  0
SPLINE
  5
1F3
330
1F
100
AcDbEntity
  8
0
  6
Continuous
 62
     7
370
    25
100
AcDbSpline
210
0.0
220
0.0
230
1.0
 70
     8
 71
     3
 72
    14
 73
    10
 74
     0
 42
0.00000001
 43
0.00000001
 40
0.0
 40
0.0
 40
0.0
 40
0.0
 40
0.0034863238848208
 40
0.0203208804397725
 40
0.2238597133569324
 40
0.4563556157495303
 40
0.6945924899112474
 40
0.845724996562609
 40
1.0
 40
1.0
 40
1.0
 40
1.0
 10
232.1791173908717
 20
90.82434540991255
 30
0.0
 10
232.1813700322725
 20
90.82434891626148
 30
0.0
 10
232.1945000965154
 20
90.82436935386269
 30
0.0
 10
232.3391362797717
 20
90.82682989661588
 30
0.0
 10
232.6311555389576
 20
90.87687316142367
 30
0.0
 10
233.0425399524959
 20
91.08547579861349
 30
0.0
 10
233.3644971822803
 20
91.41985211374227
 30
0.0
 10
233.5809251459916
 20
91.81205370431353
 30
0.0
 10
233.6372541048785
 20
92.09142695597473
 30
0.0
 10
233.6657083833059
 20
92.23255089018257
 30
0.0
  0
SPLINE
  5
1F4
330
1F
100
AcDbEntity
  8
0
  6
Continuous
 62
     7
370
    25
100
AcDbSpline
210
0.0
220
0.0
230
1.0
 70
     8
 71
     3
 72
    14
 73
    10
 74
     0
 42
0.00000001
 43
0.00000001
 40
0.0
 40
0.0
 40
0.0
 40
0.0
 40
0.1509076573000546
 40
0.3054080403738433
 40
0.5376023347316409
 40
0.7761416404828171
 40
0.9796792424551188
 40
0.9965136971994736
 40
1.0
 40
1.0
 40
1.0
 40
1.0
 10
230.6901447437743
 20
92.23255089018257
 30
0.0
 10
230.7177938815437
 20
92.09439150821892
 30
0.0
 10
230.7737504124133
 20
91.81478352238375
 30
0.0
 10
230.9872245096206
 20
91.42601441236822
 30
0.0
 10
231.3096685765381
 20
91.08803201282882
 30
0.0
 10
231.7208163957761
 20
90.87753433952548
 30
0.0
 10
232.0167165403698
 20
90.82683002188047
 30
0.0
 10
232.1613530325575
 20
90.82436935304939
 30
0.0
 10
232.1744830950996
 20
90.82434891614238
 30
0.0
 10
232.1767357362086
 20
90.82434540991255
 30
0.0
  0
LINE
  5
1F5
330
1F
100
AcDbEntity
  8
0
  6
Continuous
 62
     7
370
    25
100
AcDbLine
 10
229.3260315883
 20
103.2104139033
 30
0.0
 11
230.6901447438
 21
92.2325508902
 31
0.0
  0
LINE
  5
1F6
330
1F
100
AcDbEntity
  8
0
  6
Continuous
 62
     7
370
    25
100
AcDbLine
 10
230.194614413
 20
92.5575213856
 30
0.0
 11
228.8305012575
 21
102.6909333978
 31
0.0
  0
ARC
  5
1F7
330
1F
100
AcDbEntity
  8
0
  6
Continuous
 62
     7
370
    25
100
AcDbCircle
 10
229.3134682419
 20
102.7263155968
 30
0.0
 40
0.4842613014163294
100
AcDbArc
 50
88.5133904064
 51
184.1900080067
  0
ARC
  5
1F8
330
1F
100
AcDbEntity
  8
0
  6
Continuous
 62
     7
370
    25
100
AcDbCircle
 10
230.6223283006
 20
92.6694304325
 30
0.0
 40
0.4421117555840889
100
AcDbArc
 50
194.6624451414
 51
278.8235542459
  0
LINE
  5
1F9
330
1F
100
AcDbEntity
  8
0
  6
Continuous
 62
     7
370
    25
100
AcDbLine
 10
235.5253518696
 20
102.6909333978
 30
0.0
 11
234.1612387141
 21
92.5575213856
 31
0.0
  0
ARC
  5
1FA
330
1F
100
AcDbEntity
  8
0
  6
Continuous
 62
     7
370
    25
100
AcDbCircle
 10
233.7335248265
 20
92.6694304325
 30
0.0
 40
0.4421117555840936
100
AcDbArc
 50
261.176445754
 51
345.3375548586
  0
ARC
  5
1FB
330
1F
100
AcDbEntity
  8
0
  6
Continuous
 62
     7
370
    25
100
AcDbCircle
 10
235.0423848852
 20
102.7263155968
 30
0.0
 40
0.4842613014163577
100
AcDbArc
 50
355.8099919933
 51
91.4866095936
  0
SPLINE
  5
1FC
330
1F
100
AcDbEntity
  8
0
  6
Continuous
 62
     7
370
    25
100
AcDbSpline
210
0.0
220
0.0
230
1.0
 70
     8
 71
     3
 72
    15
 73
    11
 74
     0
 42
0.00000001
 43
0.00000001
 40
0.0
 40
0.0
 40
0.0
 40
0.0
 40
0.0032941481656695
 40
0.0389555300109692
 40
0.0923164936584479
 40
0.2214838269818532
 40
0.4557558860746477
 40
0.689612382821521
 40
0.8449486292273382
 40
1.0
 40
1.0
 40
1.0
 40
1.0
 10
232.1767357362086
 20
90.82434540991255
 30
0.0
 10
232.1738653249548
 20
90.82434943396679
 30
0.0
 10
232.1399207705157
 20
90.8243970211297
 30
0.0
 10
232.0594836162567
 20
90.82665274016732
 30
0.0
 10
231.8697451028189
 20
90.84294936982317
 30
0.0
 10
231.5110901292342
 20
90.91743164561889
 30
0.0
 10
231.0202573110834
 20
91.14989128722587
 30
0.0
 10
230.5902185141381
 20
91.56441385287499
 30
0.0
 10
230.3050325475319
 20
92.04735236773051
 30
0.0
 10
230.2313979303868
 20
92.38756913066437
 30
0.0
 10
230.1946144129628
 20
92.55752138562947
 30
0.0
  0
SPLINE
  5
1FD
330
1F
100
AcDbEntity
  8
0
  6
Continuous
 62
     7
370
    25
100
AcDbSpline
210
0.0
220
0.0
230
1.0
 70
     8
 71
     3
 72
    15
 73
    11
 74
     0
 42
0.00000001
 43
0.00000001
 40
0.0
 40
0.0
 40
0.0
 40
0.0
 40
0.1525119975281641
 40
0.3103908680493854
 40
0.5397217434700959
 40
0.7785238912153802
 40
0.9076867233570571
 40
0.9610458274988164
 40
0.9967059666277488
 40
1.0
 40
1.0
 40
1.0
 40
1.0
 10
234.1612387141174
 20
92.55752138562947
 30
0.0
 10
234.1252705592495
 20
92.39008546813955
 30
0.0
 10
234.0520685358511
 20
92.04932158979126
 30
0.0
 10
233.7697605123799
 20
91.57048740577231
 30
0.0
 10
233.338930692697
 20
91.15128833577404
 30
0.0
 10
232.8487111309805
 20
90.91838504955571
 30
0.0
 10
232.4861048323566
 20
90.84293876312472
 30
0.0
 10
232.2963698690459
 20
90.82665393053749
 30
0.0
 10
232.2159323517439
 20
90.82439700511569
 30
0.0
 10
232.1819878017496
 20
90.8243494327182
 30
0.0
 10
232.1791173908717
 20
90.82434540991255
 30
0.0
  0
SPLINE
  5
1FE
330
1F
100
AcDbEntity
  8
0
  6
Continuous
 62
     7
370
    25
100
AcDbSpline
210
0.0
220
0.0
230
1.0
 70
     8
 71
     3
 72
    17
 73
    13
 74
     0
 42
0.00000001
 43
0.00000001
 40
0.0
 40
0.0
 40
0.0
 40
0.0
 40
0.164398525155122
 40
0.3825210752049383
 40
0.7105911790613387
 40
0.8150577891621212
 40
0.8799902898774311
 40
0.9216743917957981
 40
0.948759549159293
 40
0.9664454853042714
 40
0.9948962613988914
 40
0.9999999999999999
 40
0.9999999999999999
 40
0.9999999999999999
 40
0.9999999999999999
 10
228.8305012574822
 20
102.690933397771
 30
0.0
 10
228.8272859371061
 20
102.8029379085843
 30
0.0
 10
228.8198045572929
 20
103.0635490415835
 30
0.0
 10
229.0031617723105
 20
103.4564876300696
 30
0.0
 10
229.279159907185
 20
103.6891882104497
 30
0.0
 10
229.5210249112373
 20
103.7811416486852
 30
0.0
 10
229.6266465794214
 20
103.8063283368275
 30
0.0
 10
229.6943436422519
 20
103.8166937728035
 30
0.0
 10
229.7383304915751
 20
103.8210769979514
 30
0.0
 10
229.7756611158864
 20
103.8234993546293
 30
0.0
 10
229.8018223743876
 20
103.8242962345616
 30
0.0
 10
229.8189558656042
 20
103.824338917686
 30
0.0
 10
229.8215619191051
 20
103.8243454099126
 30
0.0
  0
SPLINE
  5
1FF
330
1F
100
AcDbEntity
  8
0
  6
Continuous
 62
     7
370
    25
100
AcDbSpline
210
0.0
220
0.0
230
1.0
 70
     8
 71
     3
 72
    17
 73
    13
 74
     0
 42
0.00000001
 43
0.00000001
 40
0.0
 40
0.0
 40
0.0
 40
0.0
 40
0.0051037386011219
 40
0.0335545146957463
 40
0.0512404508406915
 40
0.0783256082042153
 40
0.1200097101225738
 40
0.184942210837869
 40
0.2894088209386605
 40
0.6174789247950602
 40
0.8356014748448779
 40
1.0
 40
1.0
 40
1.0
 40
1.0
 10
234.5342912079751
 20
103.8243454099126
 30
0.0
 10
234.5368972614761
 20
103.824338917686
 30
0.0
 10
234.5540307526931
 20
103.8242962345616
 30
0.0
 10
234.5801920111938
 20
103.8234993546293
 30
0.0
 10
234.6175226355052
 20
103.8210769979514
 30
0.0
 10
234.6615094848284
 20
103.8166937728035
 30
0.0
 10
234.7292065476589
 20
103.8063283368275
 30
0.0
 10
234.8348282158429
 20
103.7811416486852
 30
0.0
 10
235.0766932198952
 20
103.6891882104497
 30
0.0
 10
235.3526913547697
 20
103.4564876300696
 30
0.0
 10
235.5360485697873
 20
103.0635490415835
 30
0.0
 10
235.5285671899741
 20
102.8029379085843
 30
0.0
 10
235.525351869598
 20
102.690933397771
 30
0.0
  0
LWPOLYLINE
  5
200
330
1F
100
AcDbEntity
  8
0
  6
Continuous
 62
     7
370
    25
100
AcDbPolyline
 90
       14
 70
   128
 43
0.0
 10
232.1767357363
 20
90.8243452448
 10
231.2125419161
 20
90.824345246
 10
230.2624229133
 20
90.8243452496
 10
229.3402309798
 20
90.8243452556
 10
228.4594112052
 20
90.8243452637
 10
227.6328054939
 20
90.8243452741
 10
226.872465337
 20
90.8243452863
 10
226.1894761074
 20
90.8243453004
 10
225.5937954408
 20
90.8243453161
 10
225.0941080585
 20
90.8243453332
 10
224.6976991484
 20
90.8243453514
 10
224.410348151
 20
90.8243453704
 10
224.2362444976
 20
90.82434539
 10
224.177926531
 20
90.8243454099
  0
LINE
  5
201
330
1F
100
AcDbEntity
  8
0
  6
Continuous
 62
     7
370
    25
100
AcDbLine
 10
229.1490804097
 20
100.3243454099
 30
0.0
 11
226.2528134402
 21
100.3243454099
 31
0.0
  0
LINE
  5
202
330
1F
100
AcDbEntity
  8
0
  6
Continuous
 62
     7
370
    25
100
AcDbLine
 10
238.1030396869
 20
100.3243454099
 30
0.0
 11
235.2067727174
 21
100.3243454099
 31
0.0
  0
LWPOLYLINE
  5
203
330
1F
100
AcDbEntity
  8
0
  6
Continuous
 62
     7
370
    25
100
AcDbPolyline
 90
       14
 70
   128
 43
0.0
 10
240.1779265961
 20
90.8243454099
 10
240.1196086295
 20
90.8243454298
 10
239.9455049761
 20
90.8243454494
 10
239.6581539787
 20
90.8243454684
 10
239.2617450686
 20
90.8243454866
 10
238.7620576863
 20
90.8243455037
 10
238.1663770197
 20
90.8243455193
 10
237.4833877901
 20
90.8243455334
 10
236.7230476332
 20
90.8243455457
 10
235.8964419219
 20
90.8243455561
 10
235.0156221473
 20
90.8243455642
 10
234.0934302138
 20
90.8243455702
 10
233.1433112109
 20
90.8243455738
 10
232.1791173908
 20
90.8243452448
  0
LINE
  5
204
330
1F
100
AcDbEntity
  8
0
  6
Continuous
 62
     7
370
    25
100
AcDbLine
 10
239.2123669616
 20
83.8243454099
 30
0.0
 11
225.1434861652
 21
83.8243454099
 31
0.0
  0
LINE
  5
205
330
1F
100
AcDbEntity
  8
0
  6
Continuous
 62
     7
370
    25
100
AcDbLine
 10
227.0828186327
 20
102.3243454099
 30
0.0
 11
228.8798496405
 21
102.3243454099
 31
0.0
  0
LINE
  5
206
330
1F
100
AcDbEntity
  8
0
  6
Continuous
 62
     7
370
    25
100
AcDbLine
 10
235.4760034866
 20
102.3243454099
 30
0.0
 11
237.2730345469
 21
102.3243454099
 31
0.0
  0
SPLINE
  5
207
330
1F
100
AcDbEntity
  8
0
  6
Continuous
 62
     7
370
    25
100
AcDbSpline
210
0.0
220
0.0
230
1.0
 70
     8
 71
     3
 72
    18
 73
    14
 74
     0
 42
0.00000001
 43
0.00000001
 40
0.0
 40
0.0
 40
0.0
 40
0.0
 40
0.0468470988102676
 40
0.1374764718816178
 40
0.2589365014388857
 40
0.3806102133583329
 40
0.3961094080144726
 40
0.5263203276972188
 40
0.6565295885336822
 40
0.7575138602724981
 40
0.8582949860321027
 40
0.9376159223438641
 40
1.0
 40
1.0
 40
1.0
 40
1.0
 10
232.7923843505266
 20
82.78454261741389
 30
0.0
 10
232.9350325803297
 20
82.77387250937191
 30
0.0
 10
233.353644956582
 20
82.74256024360824
 30
0.0
 10
234.1073356883819
 20
82.57001725178466
 30
0.0
 10
235.0048615443753
 20
82.25523673963369
 30
0.0
 10
235.6146452356743
 20
81.94013899565985
 30
0.0
 10
236.1903829072765
 20
81.59381427577091
 30
0.0
 10
236.7277554124611
 20
81.21325770839226
 30
0.0
 10
237.2936750861246
 20
80.71563204925873
 30
0.0
 10
237.6952545954071
 20
80.30239788334376
 30
0.0
 10
237.9345914210026
 20
80.02902400552644
 30
0.0
 10
238.0597483759168
 20
79.87732731867787
 30
0.0
 10
238.0670640959725
 20
79.86789807556217
 30
0.0
 10
238.0702847614612
 20
79.86374695473519
 30
0.0
  0
SPLINE
  5
208
330
1F
100
AcDbEntity
  8
0
  6
Continuous
 62
     7
370
    25
100
AcDbSpline
210
0.0
220
0.0
230
1.0
 70
     8
 71
     3
 72
    19
 73
    15
 74
     0
 42
0.00000001
 43
0.00000001
 40
0.0
 40
0.0
 40
0.0
 40
0.0
 40
0.0663333437852787
 40
0.1059200314748165
 40
0.1953050826288588
 40
0.2848563921010823
 40
0.4058503615678447
 40
0.5269305616783242
 40
0.6283654828445518
 40
0.7297331263822868
 40
0.8191447630770162
 40
0.908482422891513
 40
0.986872300691758
 40
1.0
 40
1.0
 40
1.0
 40
1.0
 10
226.2798716583837
 20
79.85691703638327
 30
0.0
 10
226.2846112254877
 20
79.8627141089899
 30
0.0
 10
226.2921792910817
 20
79.87197078260105
 30
0.0
 10
226.3734345377106
 20
79.97097643460123
 30
0.0
 10
226.5231028329957
 20
80.14781377519493
 30
0.0
 10
226.8314917722024
 20
80.48462464973208
 30
0.0
 10
227.2887355914067
 20
80.92521263447951
 30
0.0
 10
227.8870630412808
 20
81.40723142988068
 30
0.0
 10
228.5569475497009
 20
81.84315916478248
 30
0.0
 10
229.2471015670601
 20
82.19950996756982
 30
0.0
 10
229.9831881798135
 20
82.48635214431759
 30
0.0
 10
230.7159950739219
 20
82.67833496955258
 30
0.0
 10
231.2565564552383
 20
82.77803546656226
 30
0.0
 10
231.5375258526739
 20
82.79097728576593
 30
0.0
 10
231.5778293864965
 20
82.7928337194301
 30
0.0
  0
LINE
  5
209
330
1F
100
AcDbEntity
  8
0
  6
Continuous
 62
     7
370
    25
100
AcDbLine
 10
224.6447568153
 20
84.2887218849
 30
0.0
 11
239.7110963118
 21
84.2887218849
 31
0.0
  0
LINE
  5
20A
330
1F
100
AcDbEntity
  8
0
  6
Continuous
 62
     7
370
    25
100
AcDbLine
 10
237.7621083473
 20
101.9283012553
 30
0.0
 11
235.4226898504
 21
101.9283012553
 31
0.0
  0
LINE
  5
20B
330
1F
100
AcDbEntity
  8
0
  6
Continuous
 62
     7
370
    25
100
AcDbLine
 10
228.9331632767
 20
101.9283012553
 30
0.0
 11
226.5937447798
 21
101.9283012553
 31
0.0
  0
INSERT
  5
217
330
1F
100
AcDbEntity
  8
0
  6
Continuous
 62
     7
370
    18
100
AcDbBlockReference
  2
SW_CENTERMARKSYMBOL_0
 10
232.1779265635
 20
73.3243454099
 30
0.0
  0
LINE
  5
218
330
1F
100
AcDbEntity
  8
0
  6
Continuous
 62
     7
370
    18
100
AcDbLine
 10
226.1116765635
 20
60.8243454099
 30
0.0
 11
226.4283882597
 21
50.6895711325
 31
0.0
  0
LINE
  5
219
330
1F
100
AcDbEntity
  8
0
  6
Continuous
 62
     7
370
    18
100
AcDbLine
 10
237.9274648674
 20
50.6895711325
 30
0.0
 11
238.2441765635
 21
60.8243454099
 31
0.0
  0
LINE
  5
21A
330
1F
100
AcDbEntity
  8
0
  6
Continuous
 62
     7
370
    25
100
AcDbLine
 10
179.4580670684
 20
129.5850353232
 30
0.0
 11
179.6580670684
 21
129.7850353232
 31
0.0
  0
LINE
  5
21B
330
1F
100
AcDbEntity
  8
0
  6
Continuous
 62
     7
370
    25
100
AcDbLine
 10
179.6580670684
 20
145.3850353232
 30
0.0
 11
179.4580670684
 21
145.5850353232
 31
0.0
  0
LINE
  5
21C
330
1F
100
AcDbEntity
  8
0
  6
Continuous
 62
     7
370
    25
100
AcDbLine
 10
176.6580670684
 20
129.5850353232
 30
0.0
 11
179.4580670684
 21
129.5850353232
 31
0.0
  0
LINE
  5
21D
330
1F
100
AcDbEntity
  8
0
  6
Continuous
 62
     7
370
    25
100
AcDbLine
 10
179.4580670684
 20
145.5850353232
 30
0.0
 11
176.6580670684
 21
145.5850353232
 31
0.0
  0
LINE
  5
21E
330
1F
100
AcDbEntity
  8
0
  6
Continuous
 62
     7
370
    25
100
AcDbLine
 10
186.6580670684
 20
133.0850353232
 30
0.0
 11
191.1580670684
 21
133.8350353232
 31
0.0
  0
LINE
  5
21F
330
1F
100
AcDbEntity
  8
0
  6
Continuous
 62
     7
370
    25
100
AcDbLine
 10
191.1580670684
 20
141.3350353232
 30
0.0
 11
186.6580670684
 21
142.0850353232
 31
0.0
  0
LINE
  5
220
330
1F
100
AcDbEntity
  8
0
  6
Continuous
 62
     7
370
    25
100
AcDbLine
 10
191.1580670684
 20
133.0850353232
 30
0.0
 11
195.6580670684
 21
133.8350353232
 31
0.0
  0
LINE
  5
221
330
1F
100
AcDbEntity
  8
0
  6
Continuous
 62
     7
370
    25
100
AcDbLine
 10
195.6580670684
 20
141.3350353232
 30
0.0
 11
191.1580670684
 21
142.0850353232
 31
0.0
  0
LINE
  5
222
330
1F
100
AcDbEntity
  8
0
  6
Continuous
 62
     7
370
    25
100
AcDbLine
 10
200.1580670684
 20
133.0850353232
 30
0.0
 11
204.1780670684
 21
133.7550353232
 31
0.0
  0
LINE
  5
223
330
1F
100
AcDbEntity
  8
0
  6
Continuous
 62
     7
370
    25
100
AcDbLine
 10
204.1780670684
 20
141.4150353232
 30
0.0
 11
200.1580670684
 21
142.0850353232
 31
0.0
  0
LINE
  5
224
330
1F
100
AcDbEntity
  8
0
  6
Continuous
 62
     7
370
    25
100
AcDbLine
 10
182.1580670684
 20
133.0850353232
 30
0.0
 11
186.6580670684
 21
133.8350353232
 31
0.0
  0
LINE
  5
225
330
1F
100
AcDbEntity
  8
0
  6
Continuous
 62
     7
370
    25
100
AcDbLine
 10
186.6580670684
 20
141.3350353232
 30
0.0
 11
182.1580670684
 21
142.0850353232
 31
0.0
  0
LINE
  5
226
330
1F
100
AcDbEntity
  8
0
  6
Continuous
 62
     7
370
    25
100
AcDbLine
 10
179.6580670684
 20
133.0850353232
 30
0.0
 11
182.1580670684
 21
133.0850353232
 31
0.0
  0
LINE
  5
227
330
1F
100
AcDbEntity
  8
0
  6
Continuous
 62
     7
370
    25
100
AcDbLine
 10
182.1580670684
 20
142.0850353232
 30
0.0
 11
179.6580670684
 21
142.0850353232
 31
0.0
  0
LINE
  5
228
330
1F
100
AcDbEntity
  8
0
  6
Continuous
 62
     7
370
    25
100
AcDbLine
 10
195.6580670684
 20
133.0850353232
 30
0.0
 11
200.1580670684
 21
133.8350353232
 31
0.0
  0
LINE
  5
229
330
1F
100
AcDbEntity
  8
0
  6
Continuous
 62
     7
370
    25
100
AcDbLine
 10
200.1580670684
 20
141.3350353232
 30
0.0
 11
195.6580670684
 21
142.0850353232
 31
0.0
  0
LINE
  5
22A
330
1F
100
AcDbEntity
  8
0
  6
Continuous
 62
     7
370
    25
100
AcDbLine
 10
204.1780670684
 20
133.7550353232
 30
0.0
 11
204.6580670684
 21
134.2350353232
 31
0.0
  0
LINE
  5
22B
330
1F
100
AcDbEntity
  8
0
  6
Continuous
 62
     7
370
    25
100
AcDbLine
 10
204.6580670684
 20
140.9350353232
 30
0.0
 11
204.1780670684
 21
141.4150353232
 31
0.0
  0
LINE
  5
22C
330
1F
100
AcDbEntity
  8
0
  6
Continuous
 62
     7
370
    25
100
AcDbLine
 10
150.8580670684
 20
145.5850353232
 30
0.0
 11
150.6580670684
 21
145.3850353232
 31
0.0
  0
LINE
  5
22D
330
1F
100
AcDbEntity
  8
0
  6
Continuous
 62
     7
370
    25
100
AcDbLine
 10
150.6580670684
 20
129.7850353232
 30
0.0
 11
150.8580670684
 21
129.5850353232
 31
0.0
  0
LINE
  5
22E
330
1F
100
AcDbEntity
  8
0
  6
Continuous
 62
     7
370
    25
100
AcDbLine
 10
153.6580670684
 20
145.5850353232
 30
0.0
 11
150.8580670684
 21
145.5850353232
 31
0.0
  0
LINE
  5
22F
330
1F
100
AcDbEntity
  8
0
  6
Continuous
 62
     7
370
    25
100
AcDbLine
 10
150.8580670684
 20
129.5850353232
 30
0.0
 11
153.6580670684
 21
129.5850353232
 31
0.0
  0
LINE
  5
230
330
1F
100
AcDbEntity
  8
0
  6
Continuous
 62
     7
370
    25
100
AcDbLine
 10
143.6580670684
 20
142.0850353232
 30
0.0
 11
139.1580670684
 21
141.3350353232
 31
0.0
  0
LINE
  5
231
330
1F
100
AcDbEntity
  8
0
  6
Continuous
 62
     7
370
    25
100
AcDbLine
 10
139.1580670684
 20
133.8350353232
 30
0.0
 11
143.6580670684
 21
133.0850353232
 31
0.0
  0
LINE
  5
232
330
1F
100
AcDbEntity
  8
0
  6
Continuous
 62
     7
370
    25
100
AcDbLine
 10
130.1580670684
 20
142.0850353232
 30
0.0
 11
126.1380670684
 21
141.4150353232
 31
0.0
  0
LINE
  5
233
330
1F
100
AcDbEntity
  8
0
  6
Continuous
 62
     7
370
    25
100
AcDbLine
 10
126.1380670684
 20
133.7550353232
 30
0.0
 11
130.1580670684
 21
133.0850353232
 31
0.0
  0
LINE
  5
234
330
1F
100
AcDbEntity
  8
0
  6
Continuous
 62
     7
370
    25
100
AcDbLine
 10
139.1580670684
 20
142.0850353232
 30
0.0
 11
134.6580670684
 21
141.3350353232
 31
0.0
  0
LINE
  5
235
330
1F
100
AcDbEntity
  8
0
  6
Continuous
 62
     7
370
    25
100
AcDbLine
 10
134.6580670684
 20
133.8350353232
 30
0.0
 11
139.1580670684
 21
133.0850353232
 31
0.0
  0
LINE
  5
236
330
1F
100
AcDbEntity
  8
0
  6
Continuous
 62
     7
370
    25
100
AcDbLine
 10
148.1580670684
 20
142.0850353232
 30
0.0
 11
143.6580670684
 21
141.3350353232
 31
0.0
  0
LINE
  5
237
330
1F
100
AcDbEntity
  8
0
  6
Continuous
 62
     7
370
    25
100
AcDbLine
 10
143.6580670684
 20
133.8350353232
 30
0.0
 11
148.1580670684
 21
133.0850353232
 31
0.0
  0
LINE
  5
238
330
1F
100
AcDbEntity
  8
0
  6
Continuous
 62
     7
370
    25
100
AcDbLine
 10
150.6580670684
 20
142.0850353232
 30
0.0
 11
148.1580670684
 21
142.0850353232
 31
0.0
  0
LINE
  5
239
330
1F
100
AcDbEntity
  8
0
  6
Continuous
 62
     7
370
    25
100
AcDbLine
 10
148.1580670684
 20
133.0850353232
 30
0.0
 11
150.6580670684
 21
133.0850353232
 31
0.0
  0
LINE
  5
23A
330
1F
100
AcDbEntity
  8
0
  6
Continuous
 62
     7
370
    25
100
AcDbLine
 10
134.6580670684
 20
142.0850353232
 30
0.0
 11
130.1580670684
 21
141.3350353232
 31
0.0
  0
LINE
  5
23B
330
1F
100
AcDbEntity
  8
0
  6
Continuous
 62
     7
370
    25
100
AcDbLine
 10
130.1580670684
 20
133.8350353232
 30
0.0
 11
134.6580670684
 21
133.0850353232
 31
0.0
  0
LINE
  5
23C
330
1F
100
AcDbEntity
  8
0
  6
Continuous
 62
     7
370
    25
100
AcDbLine
 10
126.1380670684
 20
141.4150353232
 30
0.0
 11
125.6580670684
 21
140.9350353232
 31
0.0
  0
LINE
  5
23D
330
1F
100
AcDbEntity
  8
0
  6
Continuous
 62
     7
370
    25
100
AcDbLine
 10
125.6580670684
 20
134.2350353232
 30
0.0
 11
126.1380670684
 21
133.7550353232
 31
0.0
  0
LINE
  5
23E
330
1F
100
AcDbEntity
  8
0
  6
Continuous
 62
     7
370
    25
100
AcDbLine
 10
177.2700412693
 20
140.9354400852
 30
0.0
 11
177.0820379134
 21
140.9282950473
 31
0.0
  0
LINE
  5
23F
330
1F
100
AcDbEntity
  8
0
  6
Continuous
 62
     7
370
    25
100
AcDbLine
 10
148.2700412693
 20
140.9354400852
 30
0.0
 11
148.0820379134
 21
140.9282950473
 31
0.0
  0
LINE
  5
240
330
1F
100
AcDbEntity
  8
0
  6
Continuous
 62
     7
370
    25
100
AcDbLine
 10
186.1580670684
 20
135.4645453087
 30
0.0
 11
186.1580670684
 21
139.7055253377
 31
0.0
  0
LINE
  5
241
330
1F
100
AcDbEntity
  8
0
  6
Continuous
 62
     7
370
    25
100
AcDbLine
 10
153.2341613894
 20
140.9320715991
 30
0.0
 11
153.0455546456
 21
140.9351994653
 31
0.0
  0
LINE
  5
242
330
1F
100
AcDbEntity
  8
0
  6
Continuous
 62
     7
370
    25
100
AcDbLine
 10
144.1580670684
 20
139.7055253377
 30
0.0
 11
144.1580670684
 21
135.4645453087
 31
0.0
  0
LINE
  5
243
330
1F
100
AcDbEntity
  8
0
  6
Continuous
 62
     7
370
    25
100
AcDbLine
 10
182.2343516622
 20
140.9320684436
 30
0.0
 11
182.0455546456
 21
140.9351994653
 31
0.0
  0
LINE
  5
244
330
1F
100
AcDbEntity
  8
0
  6
Continuous
 62
     7
370
    25
100
AcDbLine
 10
182.0476969
 20
140.9413999676
 30
0.0
 11
177.2684372368
 21
140.9413999676
 31
0.0
  0
LINE
  5
245
330
1F
100
AcDbEntity
  8
0
  6
Continuous
 62
     7
370
    25
100
AcDbLine
 10
153.0476969
 20
140.9413999676
 30
0.0
 11
148.2684372368
 21
140.9413999676
 31
0.0
  0
LINE
  5
246
330
1F
100
AcDbEntity
  8
0
  6
Continuous
 62
     7
370
    25
100
AcDbLine
 10
153.0460928675
 20
134.2346305612
 30
0.0
 11
153.2339648777
 21
134.2417706073
 31
0.0
  0
LINE
  5
247
330
1F
100
AcDbEntity
  8
0
  6
Continuous
 62
     7
370
    25
100
AcDbLine
 10
182.0460928675
 20
134.2346305612
 30
0.0
 11
182.2340962234
 21
134.2417755991
 31
0.0
  0
LINE
  5
248
330
1F
100
AcDbEntity
  8
0
  6
Continuous
 62
     7
370
    25
100
AcDbLine
 10
148.0819727473
 20
134.2379990473
 30
0.0
 11
148.2705794912
 21
134.234871181
 31
0.0
  0
LINE
  5
249
330
1F
100
AcDbEntity
  8
0
  6
Continuous
 62
     7
370
    25
100
AcDbLine
 10
177.0819727473
 20
134.2379990473
 30
0.0
 11
177.2705794912
 21
134.234871181
 31
0.0
  0
LINE
  5
24A
330
1F
100
AcDbEntity
  8
0
  6
Continuous
 62
     7
370
    25
100
AcDbLine
 10
177.2684372368
 20
134.2286706788
 30
0.0
 11
182.0476969
 21
134.2286706788
 31
0.0
  0
LINE
  5
24B
330
1F
100
AcDbEntity
  8
0
  6
Continuous
 62
     7
370
    25
100
AcDbLine
 10
148.2684372368
 20
134.2286706788
 30
0.0
 11
153.0476969
 21
134.2286706788
 31
0.0
  0
SPLINE
  5
24C
330
1F
100
AcDbEntity
  8
0
  6
Continuous
 62
     7
370
    25
100
AcDbSpline
210
0.0
220
0.0
230
1.0
 70
     8
 71
     3
 72
    12
 73
     8
 74
     0
 42
0.00000001
 43
0.00000001
 40
0.0
 40
0.0
 40
0.0
 40
0.0
 40
0.1179217195677342
 40
0.3497662004926474
 40
0.5771627779008202
 40
0.8016587989592959
 40
1.0
 40
1.0
 40
1.0
 40
1.0
 10
155.8647705083852
 20
140.6194856951516
 30
0.0
 10
155.7863700532439
 20
140.6357637828795
 30
0.0
 10
155.5538274019648
 20
140.6840460239861
 30
0.0
 10
155.1101292315212
 20
140.7557655088324
 30
0.0
 10
154.5142876642211
 20
140.8303035090096
 30
0.0
 10
153.8882932042434
 20
140.8910697162406
 30
0.0
 10
153.4435870473675
 20
140.9216122611709
 30
0.0
 10
153.2349877362022
 20
140.9359389210006
 30
0.0
  0
SPLINE
  5
24D
330
1F
100
AcDbEntity
  8
0
  6
Continuous
 62
     7
370
    25
100
AcDbSpline
210
0.0
220
0.0
230
1.0
 70
     8
 71
     3
 72
    12
 73
     8
 74
     0
 42
0.00000001
 43
0.00000001
 40
0.0
 40
0.0
 40
0.0
 40
0.0
 40
0.1162590674001095
 40
0.3385167430733104
 40
0.5618219408851671
 40
0.7868001018977524
 40
1.0
 40
1.0
 40
1.0
 40
1.0
 10
177.0811464005772
 20
140.9359389210006
 30
0.0
 10
176.958166163287
 20
140.9277661109658
 30
0.0
 10
176.6000790882671
 20
140.9039689732749
 30
0.0
 10
176.0410628317776
 20
140.8552481569436
 30
0.0
 10
175.4321135633276
 20
140.786222909642
 30
0.0
 10
174.8932712982662
 20
140.7082745795198
 30
0.0
 10
174.5960026496313
 20
140.6485468276173
 30
0.0
 10
174.4513636283941
 20
140.6194856951516
 30
0.0
  0
SPLINE
  5
24E
330
1F
100
AcDbEntity
  8
0
  6
Continuous
 62
     7
370
    25
100
AcDbSpline
210
0.0
220
0.0
230
1.0
 70
     8
 71
     3
 72
    18
 73
    14
 74
     0
 42
0.00000001
 43
0.00000001
 40
0.0
 40
0.0
 40
0.0
 40
0.0
 40
0.0499652017291417
 40
0.1053207211911799
 40
0.1645147267525432
 40
0.2383354508281691
 40
0.3441911287294648
 40
0.45896592017625
 40
0.5800434316865841
 40
0.695254751834084
 40
0.807905914767596
 40
0.9192433389208625
 40
1.0
 40
1.0
 40
1.0
 40
1.0
 10
186.151485737938
 20
139.71613954993
 30
0.0
 10
186.1450437304756
 20
139.7877911565512
 30
0.0
 10
186.1314647425325
 20
139.9388242480368
 30
0.0
 10
186.013815167467
 20
140.1165142747722
 30
0.0
 10
185.8702251528201
 20
140.2521473027797
 30
0.0
 10
185.6774820090178
 20
140.3692053687196
 30
0.0
 10
185.413447500899
 20
140.4776123470109
 30
0.0
 10
185.0387860145038
 20
140.5848950330438
 30
0.0
 10
184.569554599174
 20
140.6824970336846
 30
0.0
 10
184.0201972218646
 20
140.7685255547782
 30
0.0
 10
183.4133524354731
 20
140.8411096430556
 30
0.0
 10
182.8142078366892
 20
140.8967214108339
 30
0.0
 10
182.4064216867322
 20
140.9243315670911
 30
0.0
 10
182.2349877362021
 20
140.9359389210006
 30
0.0
  0
SPLINE
  5
24F
330
1F
100
AcDbEntity
  8
0
  6
Continuous
 62
     7
370
    25
100
AcDbSpline
210
0.0
220
0.0
230
1.0
 70
     8
 71
     3
 72
    18
 73
    14
 74
     0
 42
0.00000001
 43
0.00000001
 40
0.0
 40
0.0
 40
0.0
 40
0.0
 40
0.0578126725051121
 40
0.1683357525778509
 40
0.2793797387243757
 40
0.3912556468516959
 40
0.5044632648507877
 40
0.6200750658775943
 40
0.7408887703643371
 40
0.8302669371927807
 40
0.8924371124451732
 40
0.9498355749448857
 40
1.0
 40
1.0
 40
1.0
 40
1.0
 10
148.0811464005772
 20
140.9359389210006
 30
0.0
 10
147.9581589949688
 20
140.9277671053434
 30
0.0
 10
147.6000510476351
 20
140.9039728630264
 30
0.0
 10
147.0413027466157
 20
140.8552148763422
 30
0.0
 10
146.4312252726838
 20
140.7863461318946
 30
0.0
 10
145.8848503857405
 20
140.7061056519342
 30
0.0
 10
145.4069737160741
 20
140.6145398139358
 30
0.0
 10
144.998174685893
 20
140.509155099172
 30
0.0
 10
144.6917117584023
 20
140.3958676964085
 30
0.0
 10
144.4702964134366
 20
140.2718083950891
 30
0.0
 10
144.3101870429595
 20
140.1268705552783
 30
0.0
 10
144.1879783639434
 20
139.9465089332718
 30
0.0
 10
144.1702953488692
 20
139.7932613981905
 30
0.0
 10
144.1620484683271
 20
139.7217908876526
 30
0.0
  0
SPLINE
  5
250
330
1F
100
AcDbEntity
  8
0
  6
Continuous
 62
     7
370
    25
100
AcDbSpline
210
0.0
220
0.0
230
1.0
 70
     8
 71
     3
 72
    18
 73
    14
 74
     0
 42
0.00000001
 43
0.00000001
 40
0.0
 40
0.0
 40
0.0
 40
0.0
 40
0.0499652017291476
 40
0.105320721191187
 40
0.164514726752551
 40
0.2383354508281814
 40
0.3441911287294824
 40
0.458965920176257
 40
0.5800434316865863
 40
0.695254751834086
 40
0.8079059147675974
 40
0.9192433389208603
 40
1.0
 40
1.0
 40
1.0
 40
1.0
 10
144.1646483988413
 20
135.4539310964598
 30
0.0
 10
144.1710904063036
 20
135.3822794898385
 30
0.0
 10
144.1846693942468
 20
135.231246398353
 30
0.0
 10
144.3023189693124
 20
135.0535563716176
 30
0.0
 10
144.4459089839593
 20
134.9179233436101
 30
0.0
 10
144.6386521277615
 20
134.8008652776702
 30
0.0
 10
144.9026866358803
 20
134.6924582993789
 30
0.0
 10
145.2773481222756
 20
134.585175613346
 30
0.0
 10
145.7465795376053
 20
134.4875736127052
 30
0.0
 10
146.2959369149147
 20
134.4015450916116
 30
0.0
 10
146.9027817013063
 20
134.3289610033342
 30
0.0
 10
147.5019263000901
 20
134.2733492355559
 30
0.0
 10
147.9097124500471
 20
134.2457390792987
 30
0.0
 10
148.0811464005772
 20
134.2341317253892
 30
0.0
  0
SPLINE
  5
251
330
1F
100
AcDbEntity
  8
0
  6
Continuous
 62
     7
370
    25
100
AcDbSpline
210
0.0
220
0.0
230
1.0
 70
     8
 71
     3
 72
    18
 73
    14
 74
     0
 42
0.00000001
 43
0.00000001
 40
0.0
 40
0.0
 40
0.0
 40
0.0
 40
0.057812672505112
 40
0.1683357525778517
 40
0.2793797387243769
 40
0.3912556468516916
 40
0.5044632648507843
 40
0.6200750658775879
 40
0.7408887703643312
 40
0.8302669371927758
 40
0.8924371124451699
 40
0.9498355749448845
 40
0.9999999999999999
 40
0.9999999999999999
 40
0.9999999999999999
 40
0.9999999999999999
 10
182.2349877362021
 20
134.2341317253892
 30
0.0
 10
182.3579751418105
 20
134.2423035410464
 30
0.0
 10
182.7160830891442
 20
134.2660977833633
 30
0.0
 10
183.2748313901637
 20
134.3148557700476
 30
0.0
 10
183.8849088640955
 20
134.3837245144952
 30
0.0
 10
184.4312837510387
 20
134.4639649944556
 30
0.0
 10
184.9091604207052
 20
134.5555308324539
 30
0.0
 10
185.3179594508862
 20
134.6609155472178
 30
0.0
 10
185.624422378377
 20
134.7742029499813
 30
0.0
 10
185.8458377233427
 20
134.8982622513007
 30
0.0
 10
186.0059470938199
 20
135.0432000911115
 30
0.0
 10
186.1281557728359
 20
135.223561713118
 30
0.0
 10
186.1458387879101
 20
135.3768092481993
 30
0.0
 10
186.1540856684523
 20
135.4482797587371
 30
0.0
  0
SPLINE
  5
252
330
1F
100
AcDbEntity
  8
0
  6
Continuous
 62
     7
370
    25
100
AcDbSpline
210
0.0
220
0.0
230
1.0
 70
     8
 71
     3
 72
    12
 73
     8
 74
     0
 42
0.00000001
 43
0.00000001
 40
0.0
 40
0.0
 40
0.0
 40
0.0
 40
0.1162590674001093
 40
0.3385167430733096
 40
0.5618219408851676
 40
0.7868001018977425
 40
1.0
 40
1.0
 40
1.0
 40
1.0
 10
153.2349877362022
 20
134.2341317253892
 30
0.0
 10
153.3579679734923
 20
134.242304535424
 30
0.0
 10
153.7160550485122
 20
134.2661016731148
 30
0.0
 10
154.2750713050017
 20
134.3148224894462
 30
0.0
 10
154.8840205734517
 20
134.3838477367478
 30
0.0
 10
155.4228628385131
 20
134.46179606687
 30
0.0
 10
155.7201314871481
 20
134.5215238187725
 30
0.0
 10
155.8647705083852
 20
134.5505849512381
 30
0.0
  0
SPLINE
  5
253
330
1F
100
AcDbEntity
  8
0
  6
Continuous
 62
     7
370
    25
100
AcDbSpline
210
0.0
220
0.0
230
1.0
 70
     8
 71
     3
 72
    12
 73
     8
 74
     0
 42
0.00000001
 43
0.00000001
 40
0.0
 40
0.0
 40
0.0
 40
0.0
 40
0.1179217195677339
 40
0.349766200492647
 40
0.5771627779008206
 40
0.8016587989592832
 40
1.0
 40
1.0
 40
1.0
 40
1.0
 10
174.4513636283941
 20
134.5505849512381
 30
0.0
 10
174.5297640835354
 20
134.5343068635103
 30
0.0
 10
174.7623067348145
 20
134.4860246224037
 30
0.0
 10
175.2060049052581
 20
134.4143051375574
 30
0.0
 10
175.8018464725582
 20
134.3397671373802
 30
0.0
 10
176.4278409325358
 20
134.2790009301492
 30
0.0
 10
176.8725470894118
 20
134.2484583852189
 30
0.0
 10
177.0811464005772
 20
134.2341317253892
 30
0.0
  0
LINE
  5
254
330
1F
100
AcDbEntity
  8
0
  6
Continuous
 62
     7
370
    25
100
AcDbLine
 10
174.4513636284
 20
140.6194856952
 30
0.0
 11
174.4106156075
 21
140.6115954711
 31
0.0
  0
LINE
  5
255
330
1F
100
AcDbEntity
  8
0
  6
Continuous
 62
     7
370
    25
100
AcDbLine
 10
155.8956636339
 20
140.6136719901
 30
0.0
 11
155.8647705084
 21
140.6194856952
 31
0.0
  0
LINE
  5
256
330
1F
100
AcDbEntity
  8
0
  6
Continuous
 62
     7
370
    25
100
AcDbLine
 10
155.8647705084
 20
134.5505849512
 30
0.0
 11
155.9055185293
 21
134.5584751753
 31
0.0
  0
LINE
  5
257
330
1F
100
AcDbEntity
  8
0
  6
Continuous
 62
     7
370
    25
100
AcDbLine
 10
174.4204705029
 20
134.5563986563
 30
0.0
 11
174.4513636284
 21
134.5505849512
 31
0.0
  0
LINE
  5
258
330
1F
100
AcDbEntity
  8
0
  6
Continuous
 62
     7
370
    25
100
AcDbLine
 10
179.4580670684
 20
142.06346453
 30
0.0
 11
179.4580670684
 21
145.5850353232
 31
0.0
  0
LINE
  5
259
330
1F
100
AcDbEntity
  8
0
  6
Continuous
 62
     7
370
    25
100
AcDbLine
 10
179.4580670684
 20
129.5850353232
 30
0.0
 11
179.4580670684
 21
134.2286706788
 31
0.0
  0
LINE
  5
25A
330
1F
100
AcDbEntity
  8
0
  6
Continuous
 62
     7
370
    25
100
AcDbLine
 10
179.4580670684
 20
140.9413999676
 30
0.0
 11
179.4580670684
 21
142.06346453
 31
0.0
  0
LINE
  5
25B
330
1F
100
AcDbEntity
  8
0
  6
Continuous
 62
     7
370
    25
100
AcDbLine
 10
179.6580670684
 20
141.9515037998
 30
0.0
 11
179.6580670684
 21
140.9413999676
 31
0.0
  0
LINE
  5
25C
330
1F
100
AcDbEntity
  8
0
  6
Continuous
 62
     7
370
    25
100
AcDbLine
 10
179.6580670684
 20
134.2286706788
 30
0.0
 11
179.6580670684
 21
129.7850353232
 31
0.0
  0
LINE
  5
25D
330
1F
100
AcDbEntity
  8
0
  6
Continuous
 62
     7
370
    25
100
AcDbLine
 10
179.6580670684
 20
145.3850353232
 30
0.0
 11
179.6580670684
 21
141.9515037998
 31
0.0
  0
LINE
  5
25E
330
1F
100
AcDbEntity
  8
0
  6
Continuous
 62
     7
370
    25
100
AcDbLine
 10
186.6580670684
 20
140.104151752
 30
0.0
 11
186.6580670684
 21
142.0850353232
 31
0.0
  0
LINE
  5
25F
330
1F
100
AcDbEntity
  8
0
  6
Continuous
 62
     7
370
    25
100
AcDbLine
 10
186.6580670684
 20
133.0850353232
 30
0.0
 11
186.6580670684
 21
140.104151752
 31
0.0
  0
LINE
  5
260
330
1F
100
AcDbEntity
  8
0
  6
Continuous
 62
     7
370
    25
100
AcDbLine
 10
191.1580670684
 20
140.104151752
 30
0.0
 11
191.1580670684
 21
142.0850353232
 31
0.0
  0
LINE
  5
261
330
1F
100
AcDbEntity
  8
0
  6
Continuous
 62
     7
370
    25
100
AcDbLine
 10
191.1580670684
 20
133.0850353232
 30
0.0
 11
191.1580670684
 21
140.104151752
 31
0.0
  0
LINE
  5
262
330
1F
100
AcDbEntity
  8
0
  6
Continuous
 62
     7
370
    25
100
AcDbLine
 10
204.1780670684
 20
133.7550353232
 30
0.0
 11
204.1780670684
 21
141.4150353232
 31
0.0
  0
LINE
  5
263
330
1F
100
AcDbEntity
  8
0
  6
Continuous
 62
     7
370
    25
100
AcDbLine
 10
200.1580670684
 20
140.104151752
 30
0.0
 11
200.1580670684
 21
142.0850353232
 31
0.0
  0
LINE
  5
264
330
1F
100
AcDbEntity
  8
0
  6
Continuous
 62
     7
370
    25
100
AcDbLine
 10
200.1580670684
 20
133.0850353232
 30
0.0
 11
200.1580670684
 21
140.104151752
 31
0.0
  0
LINE
  5
265
330
1F
100
AcDbEntity
  8
0
  6
Continuous
 62
     7
370
    25
100
AcDbLine
 10
182.1580670684
 20
140.957745123
 30
0.0
 11
182.1580670684
 21
142.0850353232
 31
0.0
  0
LINE
  5
266
330
1F
100
AcDbEntity
  8
0
  6
Continuous
 62
     7
370
    25
100
AcDbLine
 10
182.1580670684
 20
133.0850353232
 30
0.0
 11
182.1580670684
 21
134.1994738068
 31
0.0
  0
LINE
  5
267
330
1F
100
AcDbEntity
  8
0
  6
Continuous
 62
     7
370
    25
100
AcDbLine
 10
195.6580670684
 20
140.104151752
 30
0.0
 11
195.6580670684
 21
142.0850353232
 31
0.0
  0
LINE
  5
268
330
1F
100
AcDbEntity
  8
0
  6
Continuous
 62
     7
370
    25
100
AcDbLine
 10
195.6580670684
 20
133.0850353232
 30
0.0
 11
195.6580670684
 21
140.104151752
 31
0.0
  0
LINE
  5
269
330
1F
100
AcDbEntity
  8
0
  6
Continuous
 62
     7
370
    25
100
AcDbLine
 10
204.6580670684
 20
139.4603775535
 30
0.0
 11
204.6580670684
 21
134.2350353232
 31
0.0
  0
LINE
  5
26A
330
1F
100
AcDbEntity
  8
0
  6
Continuous
 62
     7
370
    25
100
AcDbLine
 10
204.6580670684
 20
140.9350353232
 30
0.0
 11
204.6580670684
 21
139.4603775535
 31
0.0
  0
LINE
  5
26B
330
1F
100
AcDbEntity
  8
0
  6
Continuous
 62
     7
370
    25
100
AcDbLine
 10
150.8580670684
 20
134.2286706788
 30
0.0
 11
150.8580670684
 21
129.5850353232
 31
0.0
  0
LINE
  5
26C
330
1F
100
AcDbEntity
  8
0
  6
Continuous
 62
     7
370
    25
100
AcDbLine
 10
150.8580670684
 20
145.5850353232
 30
0.0
 11
150.8580670684
 21
140.9413999676
 31
0.0
  0
LINE
  5
26D
330
1F
100
AcDbEntity
  8
0
  6
Continuous
 62
     7
370
    25
100
AcDbLine
 10
150.6580670684
 20
140.9413999676
 30
0.0
 11
150.6580670684
 21
145.3850353232
 31
0.0
  0
LINE
  5
26E
330
1F
100
AcDbEntity
  8
0
  6
Continuous
 62
     7
370
    25
100
AcDbLine
 10
150.6580670684
 20
129.7850353232
 30
0.0
 11
150.6580670684
 21
134.2286706788
 31
0.0
  0
LINE
  5
26F
330
1F
100
AcDbEntity
  8
0
  6
Continuous
 62
     7
370
    25
100
AcDbLine
 10
143.6580670684
 20
137.8501292521
 30
0.0
 11
143.6580670684
 21
133.0850353232
 31
0.0
  0
LINE
  5
270
330
1F
100
AcDbEntity
  8
0
  6
Continuous
 62
     7
370
    25
100
AcDbLine
 10
143.6580670684
 20
142.0850353232
 30
0.0
 11
143.6580670684
 21
137.8501292521
 31
0.0
  0
LINE
  5
271
330
1F
100
AcDbEntity
  8
0
  6
Continuous
 62
     7
370
    25
100
AcDbLine
 10
130.1580670684
 20
137.8501292521
 30
0.0
 11
130.1580670684
 21
133.0850353232
 31
0.0
  0
LINE
  5
272
330
1F
100
AcDbEntity
  8
0
  6
Continuous
 62
     7
370
    25
100
AcDbLine
 10
130.1580670684
 20
142.0850353232
 30
0.0
 11
130.1580670684
 21
137.8501292521
 31
0.0
  0
LINE
  5
273
330
1F
100
AcDbEntity
  8
0
  6
Continuous
 62
     7
370
    25
100
AcDbLine
 10
126.1380670684
 20
141.4150353232
 30
0.0
 11
126.1380670684
 21
133.7550353232
 31
0.0
  0
LINE
  5
274
330
1F
100
AcDbEntity
  8
0
  6
Continuous
 62
     7
370
    25
100
AcDbLine
 10
139.1580670684
 20
137.8501292521
 30
0.0
 11
139.1580670684
 21
133.0850353232
 31
0.0
  0
LINE
  5
275
330
1F
100
AcDbEntity
  8
0
  6
Continuous
 62
     7
370
    25
100
AcDbLine
 10
139.1580670684
 20
142.0850353232
 30
0.0
 11
139.1580670684
 21
137.8501292521
 31
0.0
  0
LINE
  5
276
330
1F
100
AcDbEntity
  8
0
  6
Continuous
 62
     7
370
    25
100
AcDbLine
 10
148.1580670684
 20
134.2202365247
 30
0.0
 11
148.1580670684
 21
133.0850353232
 31
0.0
  0
LINE
  5
277
330
1F
100
AcDbEntity
  8
0
  6
Continuous
 62
     7
370
    25
100
AcDbLine
 10
148.1580670684
 20
142.0850353232
 30
0.0
 11
148.1580670684
 21
140.9726642869
 31
0.0
  0
LINE
  5
278
330
1F
100
AcDbEntity
  8
0
  6
Continuous
 62
     7
370
    25
100
AcDbLine
 10
134.6580670684
 20
137.8501292521
 30
0.0
 11
134.6580670684
 21
133.0850353232
 31
0.0
  0
LINE
  5
279
330
1F
100
AcDbEntity
  8
0
  6
Continuous
 62
     7
370
    25
100
AcDbLine
 10
134.6580670684
 20
142.0850353232
 30
0.0
 11
134.6580670684
 21
137.8501292521
 31
0.0
  0
LINE
  5
27A
330
1F
100
AcDbEntity
  8
0
  6
Continuous
 62
     7
370
    25
100
AcDbLine
 10
125.6580670684
 20
137.7823830258
 30
0.0
 11
125.6580670684
 21
140.9350353232
 31
0.0
  0
LINE
  5
27B
330
1F
100
AcDbEntity
  8
0
  6
Continuous
 62
     7
370
    25
100
AcDbLine
 10
125.6580670684
 20
134.2350353232
 30
0.0
 11
125.6580670684
 21
137.7823830258
 31
0.0
  0
SPLINE
  5
27C
330
1F
100
AcDbEntity
  8
0
  6
Continuous
 62
     7
370
    25
100
AcDbSpline
210
0.0
220
0.0
230
1.0
 70
     8
 71
     3
 72
     9
 73
     5
 74
     0
 42
0.00000001
 43
0.00000001
 40
0.0
 40
0.0
 40
0.0
 40
0.0
 40
0.5313554958228819
 40
1.0
 40
1.0
 40
1.0
 40
1.0
 10
176.6580670683897
 20
133.3350353231949
 30
0.0
 10
176.6586719746861
 20
133.5012141178854
 30
0.0
 10
176.6598103957644
 20
133.8139591558062
 30
0.0
 10
176.614817617016
 20
134.1242149776649
 30
0.0
 10
176.5937319985279
 20
134.269614663468
 30
0.0
  0
LINE
  5
27D
330
1F
100
AcDbEntity
  8
0
  6
Continuous
 62
     7
370
    25
100
AcDbLine
 10
176.573284491
 20
140.8985575786
 30
0.0
 11
176.6580670684
 21
141.8350353232
 31
0.0
  0
LINE
  5
27E
330
1F
100
AcDbEntity
  8
0
  6
Continuous
 62
     7
370
    25
100
AcDbLine
 10
176.6580670684
 20
133.3350353232
 30
0.0
 11
176.6580670684
 21
134.2430335073
 31
0.0
  0
LINE
  5
27F
330
1F
100
AcDbEntity
  8
0
  6
Continuous
 62
     7
370
    25
100
AcDbLine
 10
176.6580670684
 20
140.9084674844
 30
0.0
 11
176.6580670684
 21
141.8350353232
 31
0.0
  0
SPLINE
  5
280
330
1F
100
AcDbEntity
  8
0
  6
Continuous
 62
     7
370
    25
100
AcDbSpline
210
0.0
220
0.0
230
1.0
 70
     8
 71
     3
 72
     9
 73
     5
 74
     0
 42
0.00000001
 43
0.00000001
 40
0.0
 40
0.0
 40
0.0
 40
0.0
 40
0.5312785805747515
 40
1.0
 40
1.0
 40
1.0
 40
1.0
 10
153.6580670683897
 20
133.3350353231949
 30
0.0
 10
153.6574627905437
 20
133.5012140839746
 30
0.0
 10
153.656325387554
 20
133.8140043353713
 30
0.0
 10
153.7013258629825
 20
134.1243050103326
 30
0.0
 10
153.7224185497002
 20
134.2697495831491
 30
0.0
  0
LINE
  5
281
330
1F
100
AcDbEntity
  8
0
  6
Continuous
 62
     7
370
    25
100
AcDbLine
 10
153.6580670684
 20
133.3350353232
 30
0.0
 11
153.6580670684
 21
134.2422942116
 31
0.0
  0
LINE
  5
282
330
1F
100
AcDbEntity
  8
0
  6
Continuous
 62
     7
370
    25
100
AcDbLine
 10
153.6580670684
 20
140.9077121063
 30
0.0
 11
153.6580670684
 21
141.8350353232
 31
0.0
  0
LINE
  5
283
330
1F
100
AcDbEntity
  8
0
  6
Continuous
 62
     7
370
    25
100
AcDbLine
 10
153.7428122935
 20
140.8989701584
 30
0.0
 11
153.6580670684
 21
141.8350353232
 31
0.0
  0
SPLINE
  5
284
330
1F
100
AcDbEntity
  8
0
  6
Continuous
 62
     7
370
    25
100
AcDbSpline
210
0.0
220
0.0
230
1.0
 70
     8
 71
     3
 72
     9
 73
     5
 74
     0
 42
0.00000001
 43
0.00000001
 40
0.0
 40
0.0
 40
0.0
 40
0.0
 40
0.4026254254720168
 40
1.0
 40
1.0
 40
1.0
 40
1.0
 10
171.2256720690564
 20
142.7201460255745
 30
0.0
 10
171.2596490695212
 20
143.1447136978174
 30
0.0
 10
171.3440376806603
 20
144.1992116142
 30
0.0
 10
171.6518870735523
 20
145.2232818198237
 30
0.0
 10
171.8357884736499
 20
145.8350353231949
 30
0.0
  0
LINE
  5
285
330
1F
100
AcDbEntity
  8
0
  6
Continuous
 62
     7
370
    25
100
AcDbLine
 10
175.9803456631
 20
145.8350353232
 30
0.0
 11
171.8357884736
 21
145.8350353232
 31
0.0
  0
SPLINE
  5
286
330
1F
100
AcDbEntity
  8
0
  6
Continuous
 62
     7
370
    25
100
AcDbSpline
210
0.0
220
0.0
230
1.0
 70
     8
 71
     3
 72
    12
 73
     8
 74
     0
 42
0.00000001
 43
0.00000001
 40
0.0
 40
0.0
 40
0.0
 40
0.0
 40
0.2499999999999999
 40
0.2499999999999999
 40
0.4999999999999998
 40
0.4999999999999998
 40
1.0
 40
1.0
 40
1.0
 40
1.0
 10
176.6580670683897
 20
141.8350353231949
 30
0.0
 10
176.6580670683897
 20
142.1727912582177
 30
0.0
 10
176.6423207383677
 20
142.5131992730962
 30
0.0
 10
176.5808757137823
 20
143.1876939574966
 30
0.0
 10
176.5352869545285
 20
143.5228192763638
 30
0.0
 10
176.358835952272
 20
144.522530594704
 30
0.0
 10
176.1883782503085
 20
145.1814646977693
 30
0.0
 10
175.9803456631296
 20
145.8350353231949
 30
0.0
  0
SPLINE
  5
287
330
1F
100
AcDbEntity
  8
0
  6
Continuous
 62
     7
370
    25
100
AcDbSpline
210
0.0
220
0.0
230
1.0
 70
     8
 71
     3
 72
    12
 73
     8
 74
     0
 42
0.00000001
 43
0.00000001
 40
0.0
 40
0.0
 40
0.0
 40
0.0
 40
0.2500000000000001
 40
0.2500000000000001
 40
0.5000000000000002
 40
0.5000000000000002
 40
1.0
 40
1.0
 40
1.0
 40
1.0
 10
153.6580670683897
 20
141.8350353231949
 30
0.0
 10
153.6580670683897
 20
142.1727912582177
 30
0.0
 10
153.6738133984116
 20
142.5131992730962
 30
0.0
 10
153.735258422997
 20
143.1876939574966
 30
0.0
 10
153.7808471822508
 20
143.5228192763638
 30
0.0
 10
153.9572981845074
 20
144.522530594704
 30
0.0
 10
154.1277558864709
 20
145.1814646977692
 30
0.0
 10
154.3357884736497
 20
145.8350353231949
 30
0.0
  0
LINE
  5
288
330
1F
100
AcDbEntity
  8
0
  6
Continuous
 62
     7
370
    25
100
AcDbLine
 10
158.4803456631
 20
145.8350353232
 30
0.0
 11
154.3357884736
 21
145.8350353232
 31
0.0
  0
SPLINE
  5
289
330
1F
100
AcDbEntity
  8
0
  6
Continuous
 62
     7
370
    25
100
AcDbSpline
210
0.0
220
0.0
230
1.0
 70
     8
 71
     3
 72
     9
 73
     5
 74
     0
 42
0.00000001
 43
0.00000001
 40
0.0
 40
0.0
 40
0.0
 40
0.0
 40
0.6467786138823347
 40
1.0
 40
1.0
 40
1.0
 40
1.0
 10
158.4803456631295
 20
145.8350353231949
 30
0.0
 10
158.6784151885206
 20
145.1849501064632
 30
0.0
 10
158.9846552545027
 20
144.1798376881204
 30
0.0
 10
159.0497122827946
 20
143.1439553360909
 30
0.0
 10
159.0726918165046
 20
142.7780595358522
 30
0.0
  0
SPLINE
  5
28A
330
1F
100
AcDbEntity
  8
0
  6
Continuous
 62
     7
370
    25
100
AcDbSpline
210
0.0
220
0.0
230
1.0
 70
     8
 71
     3
 72
     9
 73
     5
 74
     0
 42
0.00000001
 43
0.00000001
 40
0.0
 40
0.0
 40
0.0
 40
0.0
 40
0.402625425472003
 40
1.0
 40
1.0
 40
1.0
 40
1.0
 10
159.0904620677229
 20
132.4499246208152
 30
0.0
 10
159.0564850672581
 20
132.0253569485724
 30
0.0
 10
158.9720964561191
 20
130.9708590321897
 30
0.0
 10
158.664247063227
 20
129.9467888265661
 30
0.0
 10
158.4803456631295
 20
129.3350353231949
 30
0.0
  0
LINE
  5
28B
330
1F
100
AcDbEntity
  8
0
  6
Continuous
 62
     7
370
    25
100
AcDbLine
 10
154.3357884736
 20
129.3350353232
 30
0.0
 11
158.4803456631
 21
129.3350353232
 31
0.0
  0
SPLINE
  5
28C
330
1F
100
AcDbEntity
  8
0
  6
Continuous
 62
     7
370
    25
100
AcDbSpline
210
0.0
220
0.0
230
1.0
 70
     8
 71
     3
 72
    10
 73
     6
 74
     0
 42
0.00000001
 43
0.00000001
 40
0.0
 40
0.0
 40
0.0
 40
0.0
 40
0.5
 40
0.5
 40
1.0
 40
1.0
 40
1.0
 40
1.0
 10
154.3357884736494
 20
129.3350353231949
 30
0.0
 10
154.1269785489831
 20
129.9910480897999
 30
0.0
 10
153.9564444092359
 20
130.6513149966577
 30
0.0
 10
153.7216586042169
 20
131.9836615152927
 30
0.0
 10
153.6580670683897
 20
132.65581449678
 30
0.0
 10
153.6580670683897
 20
133.3350353231949
 30
0.0
  0
SPLINE
  5
28D
330
1F
100
AcDbEntity
  8
0
  6
Continuous
 62
     7
370
    25
100
AcDbSpline
210
0.0
220
0.0
230
1.0
 70
     8
 71
     3
 72
     9
 73
     5
 74
     0
 42
0.00000001
 43
0.00000001
 40
0.0
 40
0.0
 40
0.0
 40
0.0
 40
0.6467786138823488
 40
1.0
 40
1.0
 40
1.0
 40
1.0
 10
171.8357884736499
 20
129.3350353231949
 30
0.0
 10
171.6377189482587
 20
129.9851205399266
 30
0.0
 10
171.3314788822767
 20
130.9902329582694
 30
0.0
 10
171.2664218539847
 20
132.0261153102989
 30
0.0
 10
171.2434423202747
 20
132.3920111105376
 30
0.0
  0
SPLINE
  5
28E
330
1F
100
AcDbEntity
  8
0
  6
Continuous
 62
     7
370
    25
100
AcDbSpline
210
0.0
220
0.0
230
1.0
 70
     8
 71
     3
 72
    10
 73
     6
 74
     0
 42
0.00000001
 43
0.00000001
 40
0.0
 40
0.0
 40
0.0
 40
0.0
 40
0.5
 40
0.5
 40
1.0
 40
1.0
 40
1.0
 40
1.0
 10
175.9803456631299
 20
129.3350353231949
 30
0.0
 10
176.1891555877962
 20
129.9910480897999
 30
0.0
 10
176.3596897275434
 20
130.6513149966577
 30
0.0
 10
176.5944755325623
 20
131.9836615152927
 30
0.0
 10
176.6580670683897
 20
132.65581449678
 30
0.0
 10
176.6580670683897
 20
133.3350353231949
 30
0.0
  0
LINE
  5
28F
330
1F
100
AcDbEntity
  8
0
  6
Continuous
 62
     7
370
    25
100
AcDbLine
 10
171.8357884736
 20
129.3350353232
 30
0.0
 11
175.9803456631
 21
129.3350353232
 31
0.0
  0
LINE
  5
290
330
1F
100
AcDbEntity
  8
0
  6
Continuous
 62
     7
370
    25
100
AcDbLine
 10
171.1580670684
 20
132.2935327011
 30
0.0
 11
171.1580670684
 21
130.0850353232
 31
0.0
  0
LINE
  5
291
330
1F
100
AcDbEntity
  8
0
  6
Continuous
 62
     7
370
    25
100
AcDbLine
 10
171.1580670684
 20
130.0850353232
 30
0.0
 11
167.9419492498
 21
130.0850353232
 31
0.0
  0
LINE
  5
292
330
1F
100
AcDbEntity
  8
0
  6
Continuous
 62
     7
370
    25
100
AcDbLine
 10
162.374184887
 20
130.0850353232
 30
0.0
 11
159.1580670684
 21
130.0850353232
 31
0.0
  0
LINE
  5
293
330
1F
100
AcDbEntity
  8
0
  6
Continuous
 62
     7
370
    25
100
AcDbLine
 10
159.1580670684
 20
132.2935327011
 30
0.0
 11
159.1580670684
 21
130.0850353232
 31
0.0
  0
LINE
  5
294
330
1F
100
AcDbEntity
  8
0
  6
Continuous
 62
     7
370
    25
100
AcDbLine
 10
159.1580670684
 20
145.0850353232
 30
0.0
 11
159.1580670684
 21
142.8765379453
 31
0.0
  0
LINE
  5
295
330
1F
100
AcDbEntity
  8
0
  6
Continuous
 62
     7
370
    25
100
AcDbLine
 10
159.1580670684
 20
145.0850353232
 30
0.0
 11
162.374184887
 21
145.0850353232
 31
0.0
  0
LINE
  5
296
330
1F
100
AcDbEntity
  8
0
  6
Continuous
 62
     7
370
    25
100
AcDbLine
 10
167.9419492498
 20
145.0850353232
 30
0.0
 11
171.1580670684
 21
145.0850353232
 31
0.0
  0
LINE
  5
297
330
1F
100
AcDbEntity
  8
0
  6
Continuous
 62
     7
370
    25
100
AcDbLine
 10
171.1580670684
 20
145.0850353232
 30
0.0
 11
171.1580670684
 21
142.8765379453
 31
0.0
  0
SPLINE
  5
298
330
1F
100
AcDbEntity
  8
0
  6
Continuous
 62
     7
370
    25
100
AcDbSpline
210
0.0
220
0.0
230
1.0
 70
     8
 71
     3
 72
     8
 73
     4
 74
     0
 42
0.00000001
 43
0.00000001
 40
0.0
 40
0.0
 40
0.0
 40
0.0
 40
1.0
 40
1.0
 40
1.0
 40
1.0
 10
158.6418309914105
 20
146.0850353231949
 30
0.0
 10
158.8155340676302
 20
145.7525239010594
 30
0.0
 10
158.987836286693
 20
145.4191968011605
 30
0.0
 10
159.1580670683896
 20
145.0850353231949
 30
0.0
  0
SPLINE
  5
299
330
1F
100
AcDbEntity
  8
0
  6
Continuous
 62
     7
370
    25
100
AcDbSpline
210
0.0
220
0.0
230
1.0
 70
     8
 71
     3
 72
    10
 73
     6
 74
     0
 42
0.00000001
 43
0.00000001
 40
0.0
 40
0.0
 40
0.0
 40
0.0
 40
0.5
 40
0.5
 40
1.0
 40
1.0
 40
1.0
 40
1.0
 10
158.4803456631351
 20
146.0850353231949
 30
0.0
 10
158.4566702687108
 20
146.0850353231949
 30
0.0
 10
158.4435791588205
 20
146.0622428738654
 30
0.0
 10
158.4434928375321
 20
145.9743001697724
 30
0.0
 10
158.456661771476
 20
145.9094423960984
 30
0.0
 10
158.4803456631294
 20
145.8350353231949
 30
0.0
  0
SPLINE
  5
29A
330
1F
100
AcDbEntity
  8
0
  6
Continuous
 62
     7
370
    25
100
AcDbSpline
210
0.0
220
0.0
230
1.0
 70
    24
 71
     3
 72
     8
 73
     4
 74
     0
 42
0.00000001
 43
0.00000001
 40
0.0
 40
0.0
 40
0.0
 40
0.0
 40
1.0
 40
1.0
 40
1.0
 40
1.0
 10
158.6418309914105
 20
146.0850353231949
 30
0.0
 10
158.5909322744881
 20
146.0850353231949
 30
0.0
 10
158.5369981382374
 20
146.0850353231949
 30
0.0
 10
158.4803456631298
 20
146.0850353231949
 30
0.0
  0
SPLINE
  5
29B
330
1F
100
AcDbEntity
  8
0
  6
Continuous
 62
     7
370
    25
100
AcDbSpline
210
0.0
220
0.0
230
1.0
 70
     8
 71
     3
 72
     8
 73
     4
 74
     0
 42
0.00000001
 43
0.00000001
 40
0.0
 40
0.0
 40
0.0
 40
0.0
 40
1.0
 40
1.0
 40
1.0
 40
1.0
 10
171.1580670683896
 20
145.0850353231949
 30
0.0
 10
171.3283446757334
 20
145.4192887194802
 30
0.0
 10
171.500616424359
 20
145.7525552090492
 30
0.0
 10
171.6743031453687
 20
146.0850353231947
 30
0.0
  0
SPLINE
  5
29C
330
1F
100
AcDbEntity
  8
0
  6
Continuous
 62
     7
370
    25
100
AcDbSpline
210
0.0
220
0.0
230
1.0
 70
    24
 71
     3
 72
     8
 73
     4
 74
     0
 42
0.00000001
 43
0.00000001
 40
0.0
 40
0.0
 40
0.0
 40
0.0
 40
1.0
 40
1.0
 40
1.0
 40
1.0
 10
171.6743031453683
 20
146.0850353231949
 30
0.0
 10
171.7251993786236
 20
146.0850353231949
 30
0.0
 10
171.7791333335874
 20
146.0850353231949
 30
0.0
 10
171.8357884736499
 20
146.0850353231949
 30
0.0
  0
SPLINE
  5
29D
330
1F
100
AcDbEntity
  8
0
  6
Continuous
 62
     7
370
    25
100
AcDbSpline
210
0.0
220
0.0
230
1.0
 70
     8
 71
     3
 72
    10
 73
     6
 74
     0
 42
0.00000001
 43
0.00000001
 40
0.0
 40
0.0
 40
0.0
 40
0.0
 40
0.5
 40
0.5
 40
1.0
 40
1.0
 40
1.0
 40
1.0
 10
171.8357884736499
 20
145.8350353231949
 30
0.0
 10
171.8594638680742
 20
145.9094157005722
 30
0.0
 10
171.8725549779589
 20
145.973716339358
 30
0.0
 10
171.8726412992471
 20
146.061932024141
 30
0.0
 10
171.8594723653033
 20
146.0850353231949
 30
0.0
 10
171.8357884736499
 20
146.0850353231949
 30
0.0
  0
SPLINE
  5
29E
330
1F
100
AcDbEntity
  8
0
  6
Continuous
 62
     7
370
    25
100
AcDbSpline
210
0.0
220
0.0
230
1.0
 70
     8
 71
     3
 72
    10
 73
     6
 74
     0
 42
0.00000001
 43
0.00000001
 40
0.0
 40
0.0
 40
0.0
 40
0.0
 40
0.5
 40
0.5
 40
1.0
 40
1.0
 40
1.0
 40
1.0
 10
154.3357884736498
 20
146.0850353231949
 30
0.0
 10
154.3594623742058
 20
146.0850353231949
 30
0.0
 10
154.3725549313849
 20
146.0622447515475
 30
0.0
 10
154.3726413453672
 20
145.9742987542487
 30
0.0
 10
154.3594709537686
 20
145.9094379615159
 30
0.0
 10
154.3357884736498
 20
145.8350353231949
 30
0.0
  0
SPLINE
  5
29F
330
1F
100
AcDbEntity
  8
0
  6
Continuous
 62
     7
370
    25
100
AcDbSpline
210
0.0
220
0.0
230
1.0
 70
    24
 71
     3
 72
    12
 73
     8
 74
     0
 42
0.00000001
 43
0.00000001
 40
0.0
 40
0.0
 40
0.0
 40
0.0
 40
0.25
 40
0.25
 40
0.5
 40
0.5
 40
1.0
 40
1.0
 40
1.0
 40
1.0
 10
153.6580670683897
 20
146.0850353231949
 30
0.0
 10
153.6580670683897
 20
146.0850353231949
 30
0.0
 10
153.6739728740579
 20
146.0850353231949
 30
0.0
 10
153.7358177449503
 20
146.0850353231949
 30
0.0
 10
153.7816310858164
 20
146.0850353231949
 30
0.0
 10
153.9584642597188
 20
146.0850353231949
 30
0.0
 10
154.1287425232225
 20
146.0850353231949
 30
0.0
 10
154.3357884736498
 20
146.0850353231949
 30
0.0
  0
LINE
  5
2A0
330
1F
100
AcDbEntity
  8
0
  6
Continuous
 62
     7
370
    25
100
AcDbLine
 10
153.6580670684
 20
141.8350353232
 30
0.0
 11
153.6580670684
 21
146.0850353232
 31
0.0
  0
SPLINE
  5
2A1
330
1F
100
AcDbEntity
  8
0
  6
Continuous
 62
     7
370
    25
100
AcDbSpline
210
0.0
220
0.0
230
1.0
 70
     8
 71
     3
 72
    10
 73
     6
 74
     0
 42
0.00000001
 43
0.00000001
 40
0.0
 40
0.0
 40
0.0
 40
0.0
 40
0.5
 40
0.5
 40
1.0
 40
1.0
 40
1.0
 40
1.0
 10
175.9803456631294
 20
146.0850353231949
 30
0.0
 10
175.9566717625735
 20
146.0850353231949
 30
0.0
 10
175.9435792053943
 20
146.0622447515474
 30
0.0
 10
175.9434927914121
 20
145.9742987542487
 30
0.0
 10
175.9566631830107
 20
145.9094379615159
 30
0.0
 10
175.9803456631294
 20
145.8350353231949
 30
0.0
  0
SPLINE
  5
2A2
330
1F
100
AcDbEntity
  8
0
  6
Continuous
 62
     7
370
    25
100
AcDbSpline
210
0.0
220
0.0
230
1.0
 70
    24
 71
     3
 72
    12
 73
     8
 74
     0
 42
0.00000001
 43
0.00000001
 40
0.0
 40
0.0
 40
0.0
 40
0.0
 40
0.25
 40
0.25
 40
0.5
 40
0.5
 40
1.0
 40
1.0
 40
1.0
 40
1.0
 10
176.6580670683897
 20
146.0850353231949
 30
0.0
 10
176.6580670683897
 20
146.0850353231949
 30
0.0
 10
176.6421612627215
 20
146.0850353231949
 30
0.0
 10
176.5803163918291
 20
146.0850353231949
 30
0.0
 10
176.5345030509629
 20
146.0850353231949
 30
0.0
 10
176.3576698770605
 20
146.0850353231949
 30
0.0
 10
176.1873916135569
 20
146.0850353231949
 30
0.0
 10
175.9803456631294
 20
146.0850353231949
 30
0.0
  0
LINE
  5
2A3
330
1F
100
AcDbEntity
  8
0
  6
Continuous
 62
     7
370
    25
100
AcDbLine
 10
176.6580670684
 20
141.8350353232
 30
0.0
 11
176.6580670684
 21
146.0850353232
 31
0.0
  0
SPLINE
  5
2A4
330
1F
100
AcDbEntity
  8
0
  6
Continuous
 62
     7
370
    25
100
AcDbSpline
210
0.0
220
0.0
230
1.0
 70
     8
 71
     3
 72
     8
 73
     4
 74
     0
 42
0.00000001
 43
0.00000001
 40
0.0
 40
0.0
 40
0.0
 40
0.0
 40
1.0
 40
1.0
 40
1.0
 40
1.0
 10
171.6743031453688
 20
129.0850353231949
 30
0.0
 10
171.500600069149
 20
129.4175467453304
 30
0.0
 10
171.3282978500864
 20
129.7508738452293
 30
0.0
 10
171.1580670683896
 20
130.0850353231949
 30
0.0
  0
SPLINE
  5
2A5
330
1F
100
AcDbEntity
  8
0
  6
Continuous
 62
     7
370
    25
100
AcDbSpline
210
0.0
220
0.0
230
1.0
 70
     8
 71
     3
 72
    10
 73
     6
 74
     0
 42
0.00000001
 43
0.00000001
 40
0.0
 40
0.0
 40
0.0
 40
0.0
 40
0.5
 40
0.5
 40
1.0
 40
1.0
 40
1.0
 40
1.0
 10
171.8357884736499
 20
129.0850353231949
 30
0.0
 10
171.8594638680742
 20
129.0850353231949
 30
0.0
 10
171.8725549779589
 20
129.1078277725247
 30
0.0
 10
171.8726412992471
 20
129.1957704766177
 30
0.0
 10
171.8594723653033
 20
129.2606282502916
 30
0.0
 10
171.8357884736499
 20
129.3350353231949
 30
0.0
  0
SPLINE
  5
2A6
330
1F
100
AcDbEntity
  8
0
  6
Continuous
 62
     7
370
    25
100
AcDbSpline
210
0.0
220
0.0
230
1.0
 70
    24
 71
     3
 72
     8
 73
     4
 74
     0
 42
0.00000001
 43
0.00000001
 40
0.0
 40
0.0
 40
0.0
 40
0.0
 40
1.0
 40
1.0
 40
1.0
 40
1.0
 10
171.6743031453689
 20
129.0850353231949
 30
0.0
 10
171.7251993786239
 20
129.0850353231949
 30
0.0
 10
171.7791333335876
 20
129.0850353231949
 30
0.0
 10
171.8357884736499
 20
129.0850353231949
 30
0.0
  0
SPLINE
  5
2A7
330
1F
100
AcDbEntity
  8
0
  6
Continuous
 62
     7
370
    25
100
AcDbSpline
210
0.0
220
0.0
230
1.0
 70
     8
 71
     3
 72
     8
 73
     4
 74
     0
 42
0.00000001
 43
0.00000001
 40
0.0
 40
0.0
 40
0.0
 40
0.0
 40
1.0
 40
1.0
 40
1.0
 40
1.0
 10
159.1580670683896
 20
130.0850353231949
 30
0.0
 10
158.9877894610459
 20
129.7507819269095
 30
0.0
 10
158.8155177124202
 20
129.4175154373405
 30
0.0
 10
158.6418309914105
 20
129.0850353231949
 30
0.0
  0
SPLINE
  5
2A8
330
1F
100
AcDbEntity
  8
0
  6
Continuous
 62
     7
370
    25
100
AcDbSpline
210
0.0
220
0.0
230
1.0
 70
    24
 71
     3
 72
     8
 73
     4
 74
     0
 42
0.00000001
 43
0.00000001
 40
0.0
 40
0.0
 40
0.0
 40
0.0
 40
1.0
 40
1.0
 40
1.0
 40
1.0
 10
158.6418309914105
 20
129.0850353231949
 30
0.0
 10
158.590932274488
 20
129.0850353231949
 30
0.0
 10
158.5369981382372
 20
129.0850353231949
 30
0.0
 10
158.4803456631295
 20
129.0850353231949
 30
0.0
  0
SPLINE
  5
2A9
330
1F
100
AcDbEntity
  8
0
  6
Continuous
 62
     7
370
    25
100
AcDbSpline
210
0.0
220
0.0
230
1.0
 70
     8
 71
     3
 72
    10
 73
     6
 74
     0
 42
0.00000001
 43
0.00000001
 40
0.0
 40
0.0
 40
0.0
 40
0.0
 40
0.5
 40
0.5
 40
1.0
 40
1.0
 40
1.0
 40
1.0
 10
158.4803456631295
 20
129.3350353231949
 30
0.0
 10
158.4566702687051
 20
129.2606549458176
 30
0.0
 10
158.4435791588204
 20
129.1963543070318
 30
0.0
 10
158.4434928375321
 20
129.1081386222488
 30
0.0
 10
158.456661771476
 20
129.0850353231949
 30
0.0
 10
158.4803456631295
 20
129.0850353231949
 30
0.0
  0
SPLINE
  5
2AA
330
1F
100
AcDbEntity
  8
0
  6
Continuous
 62
     7
370
    25
100
AcDbSpline
210
0.0
220
0.0
230
1.0
 70
    24
 71
     3
 72
    12
 73
     8
 74
     0
 42
0.00000001
 43
0.00000001
 40
0.0
 40
0.0
 40
0.0
 40
0.0
 40
0.2500000000000001
 40
0.2500000000000001
 40
0.5000000000000001
 40
0.5000000000000001
 40
1.0
 40
1.0
 40
1.0
 40
1.0
 10
176.6580670683897
 20
129.0850353231949
 30
0.0
 10
176.6580670683897
 20
129.0850353231949
 30
0.0
 10
176.6421612627215
 20
129.0850353231949
 30
0.0
 10
176.5803163918291
 20
129.0850353231949
 30
0.0
 10
176.5345030509629
 20
129.0850353231949
 30
0.0
 10
176.3576698770605
 20
129.0850353231949
 30
0.0
 10
176.1873916135569
 20
129.0850353231949
 30
0.0
 10
175.9803456631294
 20
129.0850353231949
 30
0.0
  0
SPLINE
  5
2AB
330
1F
100
AcDbEntity
  8
0
  6
Continuous
 62
     7
370
    25
100
AcDbSpline
210
0.0
220
0.0
230
1.0
 70
     8
 71
     3
 72
    10
 73
     6
 74
     0
 42
0.00000001
 43
0.00000001
 40
0.0
 40
0.0
 40
0.0
 40
0.0
 40
0.5
 40
0.5
 40
1.0
 40
1.0
 40
1.0
 40
1.0
 10
175.9803456631294
 20
129.3350353231949
 30
0.0
 10
175.9566734232179
 20
129.2606648562693
 30
0.0
 10
175.9435794332827
 20
129.1963592599815
 30
0.0
 10
175.9434925658212
 20
129.1081364721756
 30
0.0
 10
175.9566623555806
 20
129.0850353231949
 30
0.0
 10
175.9803456631294
 20
129.0850353231949
 30
0.0
  0
LINE
  5
2AC
330
1F
100
AcDbEntity
  8
0
  6
Continuous
 62
     7
370
    25
100
AcDbLine
 10
176.6580670684
 20
129.0850353232
 30
0.0
 11
176.6580670684
 21
133.3350353232
 31
0.0
  0
SPLINE
  5
2AD
330
1F
100
AcDbEntity
  8
0
  6
Continuous
 62
     7
370
    25
100
AcDbSpline
210
0.0
220
0.0
230
1.0
 70
     8
 71
     3
 72
    10
 73
     6
 74
     0
 42
0.00000001
 43
0.00000001
 40
0.0
 40
0.0
 40
0.0
 40
0.0
 40
0.5
 40
0.5
 40
1.0
 40
1.0
 40
1.0
 40
1.0
 10
154.3357884736498
 20
129.3350353231949
 30
0.0
 10
154.3594607135614
 20
129.2606648562693
 30
0.0
 10
154.3725547034967
 20
129.1963592599815
 30
0.0
 10
154.3726415709581
 20
129.1081364721756
 30
0.0
 10
154.3594717811987
 20
129.0850353231949
 30
0.0
 10
154.3357884736498
 20
129.0850353231949
 30
0.0
  0
SPLINE
  5
2AE
330
1F
100
AcDbEntity
  8
0
  6
Continuous
 62
     7
370
    25
100
AcDbSpline
210
0.0
220
0.0
230
1.0
 70
    24
 71
     3
 72
    12
 73
     8
 74
     0
 42
0.00000001
 43
0.00000001
 40
0.0
 40
0.0
 40
0.0
 40
0.0
 40
0.25
 40
0.25
 40
0.5
 40
0.5
 40
1.0
 40
1.0
 40
1.0
 40
1.0
 10
153.6580670683897
 20
129.0850353231949
 30
0.0
 10
153.6580670683897
 20
129.0850353231949
 30
0.0
 10
153.6739728740579
 20
129.0850353231949
 30
0.0
 10
153.7358177449503
 20
129.0850353231949
 30
0.0
 10
153.7816310858164
 20
129.0850353231949
 30
0.0
 10
153.9584642597188
 20
129.0850353231949
 30
0.0
 10
154.1287425232225
 20
129.0850353231949
 30
0.0
 10
154.3357884736498
 20
129.0850353231949
 30
0.0
  0
LINE
  5
2AF
330
1F
100
AcDbEntity
  8
0
  6
Continuous
 62
     7
370
    25
100
AcDbLine
 10
153.6580670684
 20
129.0850353232
 30
0.0
 11
153.6580670684
 21
133.3350353232
 31
0.0
  0
LINE
  5
2B0
330
1F
100
AcDbEntity
  8
0
  6
Continuous
 62
     7
370
    25
100
AcDbLine
 10
171.8357884736
 20
146.0850353232
 30
0.0
 11
175.9803456631
 21
146.0850353232
 31
0.0
  0
LINE
  5
2B1
330
1F
100
AcDbEntity
  8
0
  6
Continuous
 62
     7
370
    25
100
AcDbLine
 10
154.3357884736
 20
146.0850353232
 30
0.0
 11
158.4803456631
 21
146.0850353232
 31
0.0
  0
LINE
  5
2B2
330
1F
100
AcDbEntity
  8
0
  6
Continuous
 62
     7
370
    25
100
AcDbLine
 10
175.9803456631
 20
129.0850353232
 30
0.0
 11
171.8357884736
 21
129.0850353232
 31
0.0
  0
LINE
  5
2B3
330
1F
100
AcDbEntity
  8
0
  6
Continuous
 62
     7
370
    25
100
AcDbLine
 10
158.4803456631
 20
129.0850353232
 30
0.0
 11
154.3357884736
 21
129.0850353232
 31
0.0
  0
LINE
  5
2B4
330
1F
100
AcDbEntity
  8
0
  6
Continuous
 62
     7
370
    25
100
AcDbLine
 10
171.6743031454
 20
146.0850353232
 30
0.0
 11
158.6418309914
 21
146.0850353232
 31
0.0
  0
LINE
  5
2B5
330
1F
100
AcDbEntity
  8
0
  6
Continuous
 62
     7
370
    25
100
AcDbLine
 10
171.6743031454
 20
129.0850353232
 30
0.0
 11
158.6418309914
 21
129.0850353232
 31
0.0
  0
LINE
  5
2B6
330
1F
100
AcDbEntity
  8
0
  6
Continuous
 62
     7
370
    25
100
AcDbLine
 10
162.9205830468
 20
136.6097627782
 30
0.0
 11
162.8877875198
 21
136.6285068174
 31
0.0
  0
SPLINE
  5
2B7
330
1F
100
AcDbEntity
  8
0
  6
Continuous
 62
     7
370
    25
100
AcDbSpline
210
0.0
220
0.0
230
1.0
 70
     8
 71
     3
 72
    15
 73
    11
 74
     0
 42
0.00000001
 43
0.00000001
 40
0.0
 40
0.0
 40
0.0
 40
0.0
 40
0.1241930067305288
 40
0.2496556654892299
 40
0.3743703853151211
 40
0.4998404796364203
 40
0.6240146704162364
 40
0.7475381382242064
 40
0.8745858500551822
 40
1.0
 40
1.0
 40
1.0
 40
1.0
 10
163.7008727685202
 20
136.8822024287807
 30
0.0
 10
163.6853123734105
 20
136.8463552260368
 30
0.0
 10
163.654032505899
 20
136.7742943468249
 30
0.0
 10
163.5765961464106
 20
136.6844188334821
 30
0.0
 10
163.4832421426717
 20
136.6120950556877
 30
0.0
 10
163.3760165366507
 20
136.5631676371831
 30
0.0
 10
163.2616306259298
 20
136.5368395837284
 30
0.0
 10
163.1439598630444
 20
136.5359804897258
 30
0.0
 10
163.0270761378193
 20
136.5573632503554
 30
0.0
 10
162.9559272869245
 20
136.5923717768162
 30
0.0
 10
162.9205830468411
 20
136.6097627781976
 30
0.0
  0
LINE
  5
2B8
330
1F
100
AcDbEntity
  8
0
  6
Continuous
 62
     7
370
    25
100
AcDbLine
 10
164.6927268132
 20
139.6557816447
 30
0.0
 11
163.7008727685
 21
136.8822024288
 31
0.0
  0
SPLINE
  5
2B9
330
1F
100
AcDbEntity
  8
0
  6
Continuous
 62
     7
370
    25
100
AcDbSpline
210
0.0
220
0.0
230
1.0
 70
     8
 71
     3
 72
    15
 73
    11
 74
     0
 42
0.00000001
 43
0.00000001
 40
0.0
 40
0.0
 40
0.0
 40
0.0
 40
0.1233025178081761
 40
0.2485158700387113
 40
0.3756924668130947
 40
0.4999990880429329
 40
0.6243057092728392
 40
0.751482306047304
 40
0.8766757256079954
 40
1.0
 40
1.0
 40
1.0
 40
1.0
 10
165.6234073267413
 20
139.6557816446941
 30
0.0
 10
165.599256354779
 20
139.6964267806298
 30
0.0
 10
165.5505801402442
 20
139.7783469352177
 30
0.0
 10
165.4352294820391
 20
139.8681658910301
 30
0.0
 10
165.3020698597772
 20
139.9257400391913
 30
0.0
 10
165.1580672164085
 20
139.9448987348613
 30
0.0
 10
165.0140636877099
 20
139.9257406319763
 30
0.0
 10
164.8809138147444
 20
139.8681665182378
 30
0.0
 10
164.76555145721
 20
139.7783609560911
 30
0.0
 10
164.7168796715388
 20
139.6964360245663
 30
0.0
 10
164.692726813222
 20
139.6557816446941
 30
0.0
  0
LINE
  5
2BA
330
1F
100
AcDbEntity
  8
0
  6
Continuous
 62
     7
370
    25
100
AcDbLine
 10
166.6150302331
 20
136.8828487743
 30
0.0
 11
165.6234073267
 21
139.6557816447
 31
0.0
  0
SPLINE
  5
2BB
330
1F
100
AcDbEntity
  8
0
  6
Continuous
 62
     7
370
    25
100
AcDbSpline
210
0.0
220
0.0
230
1.0
 70
     8
 71
     3
 72
    15
 73
    11
 74
     0
 42
0.00000001
 43
0.00000001
 40
0.0
 40
0.0
 40
0.0
 40
0.0
 40
0.1253320172137757
 40
0.2522975129251761
 40
0.3758847553984063
 40
0.5001929511416489
 40
0.6255758307380154
 40
0.7502289462456485
 40
0.875744493577783
 40
1.0
 40
1.0
 40
1.0
 40
1.0
 10
167.3877319976552
 20
136.6061529237397
 30
0.0
 10
167.3524810810272
 20
136.589478615257
 30
0.0
 10
167.2815198151728
 20
136.5559126785276
 30
0.0
 10
167.1655329243844
 20
136.5361310622735
 30
0.0
 10
167.048936558144
 20
136.5382038426201
 30
0.0
 10
166.9358159515625
 20
136.5652818689707
 30
0.0
 10
166.8299402372231
 20
136.6144946846779
 30
0.0
 10
166.7378311526039
 20
136.6865804485518
 30
0.0
 10
166.6613994887355
 20
136.7758679700512
 30
0.0
 10
166.6304345812362
 20
136.8473086404883
 30
0.0
 10
166.615030233115
 20
136.8828487743463
 30
0.0
  0
LINE
  5
2BC
330
1F
100
AcDbEntity
  8
0
  6
Continuous
 62
     7
370
    25
100
AcDbLine
 10
167.4283466201
 20
136.6285068174
 30
0.0
 11
167.3877319977
 21
136.6061529237
 31
0.0
  0
LINE
  5
2BD
330
1F
100
AcDbEntity
  8
0
  6
Continuous
 62
     7
370
    25
100
AcDbLine
 10
166.8013634236
 20
135.433095714
 30
0.0
 11
167.4283466201
 21
136.6285068174
 31
0.0
  0
SPLINE
  5
2BE
330
1F
100
AcDbEntity
  8
0
  6
Continuous
 62
     7
370
    25
100
AcDbSpline
210
0.0
220
0.0
230
1.0
 70
     8
 71
     3
 72
    15
 73
    11
 74
     0
 42
0.00000001
 43
0.00000001
 40
0.0
 40
0.0
 40
0.0
 40
0.0
 40
0.124633218643854
 40
0.2519059530189772
 40
0.3765391000744918
 40
0.4994035903146518
 40
0.6264494152300148
 40
0.7526064410610419
 40
0.874680437736327
 40
1.0
 40
1.0
 40
1.0
 40
1.0
 10
166.6961349348461
 20
135.4149785472422
 30
0.0
 10
166.7001494105143
 20
135.4118733123896
 30
0.0
 10
166.7082633814929
 20
135.4055970791878
 30
0.0
 10
166.7227019733295
 20
135.3999840657079
 30
0.0
 10
166.7378354232626
 20
135.3974477130811
 30
0.0
 10
166.7531979655443
 20
135.398333116649
 30
0.0
 10
166.768128544381
 20
135.4024641871646
 30
0.0
 10
166.7816304444103
 20
135.4099548871105
 30
0.0
 10
166.7933160992967
 20
135.4200934690248
 30
0.0
 10
166.7986576236375
 20
135.4287238913676
 30
0.0
 10
166.8013634236393
 20
135.4330957139599
 30
0.0
  0
SPLINE
  5
2BF
330
1F
100
AcDbEntity
  8
0
  6
Continuous
 62
     7
370
    25
100
AcDbSpline
210
0.0
220
0.0
230
1.0
 70
     8
 71
     3
 72
    11
 73
     7
 74
     0
 42
0.00000001
 43
0.00000001
 40
0.0
 40
0.0
 40
0.0
 40
0.0
 40
0.2506252605986011
 40
0.4999999999996215
 40
0.7493747394010042
 40
1.0
 40
1.0
 40
1.0
 40
1.0
 10
163.6199992051172
 20
135.4149785472422
 30
0.0
 10
163.8497268992905
 20
135.5778328392032
 30
0.0
 10
164.3080360370535
 20
135.902728844442
 30
0.0
 10
165.1580670699896
 20
136.0364607913791
 30
0.0
 10
166.0080981029199
 20
135.9027288444369
 30
0.0
 10
166.4664072406761
 20
135.5778328392015
 30
0.0
 10
166.6961349348461
 20
135.4149785472422
 30
0.0
  0
SPLINE
  5
2C0
330
1F
100
AcDbEntity
  8
0
  6
Continuous
 62
     7
370
    25
100
AcDbSpline
210
0.0
220
0.0
230
1.0
 70
     8
 71
     3
 72
    15
 73
    11
 74
     0
 42
0.00000001
 43
0.00000001
 40
0.0
 40
0.0
 40
0.0
 40
0.0
 40
0.1253191957979138
 40
0.2473928354984065
 40
0.3734492416489706
 40
0.5005950046079967
 40
0.6235484391777611
 40
0.7480947836179483
 40
0.8753671458153899
 40
1.0
 40
1.0
 40
1.0
 40
1.0
 10
163.514770716324
 20
135.4330957139599
 30
0.0
 10
163.5174765126565
 20
135.4287238856759
 30
0.0
 10
163.5228180297536
 20
135.4200934520972
 30
0.0
 10
163.5345006023427
 20
135.4099576745974
 30
0.0
 10
163.54800158233
 20
135.4024655587237
 30
0.0
 10
163.5629356111801
 20
135.3983331134316
 30
0.0
 10
163.5783026223691
 20
135.3974451716581
 30
0.0
 10
163.5934353588073
 20
135.3999861139156
 30
0.0
 10
163.607870788589
 20
135.4055968921828
 30
0.0
 10
163.6159847394183
 20
135.4118732504916
 30
0.0
 10
163.6199992051172
 20
135.4149785472422
 30
0.0
  0
LINE
  5
2C1
330
1F
100
AcDbEntity
  8
0
  6
Continuous
 62
     7
370
    25
100
AcDbLine
 10
162.8877875198
 20
136.6285068174
 30
0.0
 11
163.5147707163
 21
135.433095714
 31
0.0
  0
SPLINE
  5
2C2
330
1F
100
AcDbEntity
  8
0
  6
Continuous
 62
     7
370
    25
100
AcDbSpline
210
0.0
220
0.0
230
1.0
 70
     8
 71
     3
 72
    15
 73
    11
 74
     0
 42
0.00000001
 43
0.00000001
 40
0.0
 40
0.0
 40
0.0
 40
0.0
 40
0.1233867499278388
 40
0.2487396502211602
 40
0.3739317114754985
 40
0.4999973617625659
 40
0.6259591330513601
 40
0.7512551380600303
 40
0.8765613478174267
 40
1.0
 40
1.0
 40
1.0
 40
1.0
 10
165.0951842035836
 20
137.6064447813377
 30
0.0
 10
165.0980624047754
 20
137.6124595774207
 30
0.0
 10
165.1038646708871
 20
137.6245850145093
 30
0.0
 10
165.1193940756078
 20
137.6379762748594
 30
0.0
 10
165.1377486574813
 20
137.6468539864394
 30
0.0
 10
165.1580614739642
 20
137.6496106497358
 30
0.0
 10
165.1783798916793
 20
137.6468559685352
 30
0.0
 10
165.1967327608434
 20
137.6379802702457
 30
0.0
 10
165.2122708652389
 20
137.624589902992
 30
0.0
 10
165.2180714272702
 20
137.612462805446
 30
0.0
 10
165.2209499331958
 20
137.6064447813377
 30
0.0
  0
LINE
  5
2C3
330
1F
100
AcDbEntity
  8
0
  6
Continuous
 62
     7
370
    25
100
AcDbLine
 10
164.8560706779
 20
136.9681907521
 30
0.0
 11
165.0951842036
 21
137.6064447813
 31
0.0
  0
SPLINE
  5
2C4
330
1F
100
AcDbEntity
  8
0
  6
Continuous
 62
     7
370
    25
100
AcDbSpline
210
0.0
220
0.0
230
1.0
 70
     8
 71
     3
 72
    15
 73
    11
 74
     0
 42
0.00000001
 43
0.00000001
 40
0.0
 40
0.0
 40
0.0
 40
0.0
 40
0.1261585224210642
 40
0.25131214515488
 40
0.3762846848783792
 40
0.4993062783340877
 40
0.6261594278645743
 40
0.7521171342021308
 40
0.8758196922692789
 40
1.0
 40
1.0
 40
1.0
 40
1.0
 10
164.9189535427119
 20
136.8831263987151
 30
0.0
 10
164.9137224462232
 20
136.8834487053075
 30
0.0
 10
164.9033019208806
 20
136.8840907512
 30
0.0
 10
164.8885153703662
 20
136.8895389915752
 30
0.0
 10
164.8753250177407
 20
136.8977615941608
 30
0.0
 10
164.8644544428994
 20
136.9090182004734
 30
0.0
 10
164.8564468555709
 20
136.9225389458145
 30
0.0
 10
164.8522802285381
 20
136.9376758333913
 30
0.0
 10
164.8516591770265
 20
136.9533649649624
 30
0.0
 10
164.8545982893813
 20
136.963242477321
 30
0.0
 10
164.856070677864
 20
136.9681907520651
 30
0.0
  0
LINE
  5
2C5
330
1F
100
AcDbEntity
  8
0
  6
Continuous
 62
     7
370
    25
100
AcDbLine
 10
165.3971805969
 20
136.8831263987
 30
0.0
 11
164.9189535427
 21
136.8831263987
 31
0.0
  0
SPLINE
  5
2C6
330
1F
100
AcDbEntity
  8
0
  6
Continuous
 62
     7
370
    25
100
AcDbSpline
210
0.0
220
0.0
230
1.0
 70
     8
 71
     3
 72
    15
 73
    11
 74
     0
 42
0.00000001
 43
0.00000001
 40
0.0
 40
0.0
 40
0.0
 40
0.0
 40
0.1241186784437694
 40
0.2478474916628982
 40
0.3736574149478942
 40
0.5005082335853296
 40
0.6234527658309922
 40
0.7484986612277523
 40
0.8736976492452769
 40
1.0
 40
1.0
 40
1.0
 40
1.0
 10
165.4600634616413
 20
136.9681907522882
 30
0.0
 10
165.4615345342501
 20
136.9632449066301
 30
0.0
 10
165.4644720587284
 20
136.9533687505519
 30
0.0
 10
165.4638553242283
 20
136.9376873549262
 30
0.0
 10
165.4596933626337
 20
136.9225548228459
 30
0.0
 10
165.4516946148354
 20
136.9090399152315
 30
0.0
 10
165.4408285232985
 20
136.8977798540355
 30
0.0
 10
165.4276408054739
 20
136.889550141602
 30
0.0
 10
165.4128463588987
 20
136.884090571217
 30
0.0
 10
165.4024177679914
 20
136.88344872816
 30
0.0
 10
165.397180596877
 20
136.8831263987151
 30
0.0
  0
LINE
  5
2C7
330
1F
100
AcDbEntity
  8
0
  6
Continuous
 62
     7
370
    25
100
AcDbLine
 10
165.2209499332
 20
137.6064447813
 30
0.0
 11
165.4600634616
 21
136.9681907523
 31
0.0
  0
CIRCLE
  5
2C8
330
1F
100
AcDbEntity
  8
0
  6
Continuous
 62
     7
370
    25
100
AcDbCircle
 10
165.1580670684
 20
137.5850353232
 30
0.0
 40
4.5
  0
LINE
  5
2C9
330
1F
100
AcDbEntity
  8
0
  6
Continuous
 62
     7
370
    25
100
AcDbLine
 10
177.0812781133
 20
140.9359471303
 30
0.0
 11
177.1126169362
 21
140.9324606293
 31
0.0
  0
SPLINE
  5
2CA
330
1F
100
AcDbEntity
  8
0
  6
Continuous
 62
     7
370
    25
100
AcDbSpline
210
0.0
220
0.0
230
1.0
 70
     8
 71
     3
 72
    11
 73
     7
 74
     0
 42
0.00000001
 43
0.00000001
 40
0.0
 40
0.0
 40
0.0
 40
0.0
 40
0.0055682347466183
 40
0.1918263368321041
 40
0.6296575784328767
 40
1.0
 40
1.0
 40
1.0
 40
1.0
 10
179.6580670683897
 20
139.9413999676299
 30
0.0
 10
179.6528731450544
 20
139.9427841857058
 30
0.0
 10
179.4739418800246
 20
139.9904706599571
 30
0.0
 10
178.8871041804819
 20
140.1444408427955
 30
0.0
 10
177.9569784349241
 20
140.39001591756
 30
0.0
 10
177.2324900581045
 20
140.4221877033703
 30
0.0
 10
176.9004960918363
 20
140.4369302984414
 30
0.0
  0
LINE
  5
2CB
330
1F
100
AcDbEntity
  8
0
  6
Continuous
 62
     7
370
    25
100
AcDbLine
 10
148.0812781133
 20
140.9359471303
 30
0.0
 11
148.1126169362
 21
140.9324606293
 31
0.0
  0
SPLINE
  5
2CC
330
1F
100
AcDbEntity
  8
0
  6
Continuous
 62
     7
370
    25
100
AcDbSpline
210
0.0
220
0.0
230
1.0
 70
     8
 71
     3
 72
    11
 73
     7
 74
     0
 42
0.00000001
 43
0.00000001
 40
0.0
 40
0.0
 40
0.0
 40
0.0
 40
0.0055682347466184
 40
0.1918263368321039
 40
0.6296575784328784
 40
1.0
 40
1.0
 40
1.0
 40
1.0
 10
150.6580670683897
 20
139.9413999676299
 30
0.0
 10
150.6528731450544
 20
139.9427841857058
 30
0.0
 10
150.4739418800245
 20
139.9904706599571
 30
0.0
 10
149.887104180482
 20
140.1444408427955
 30
0.0
 10
148.9569784349241
 20
140.39001591756
 30
0.0
 10
148.2324900581045
 20
140.4221877033703
 30
0.0
 10
147.9004960918363
 20
140.4369302984414
 30
0.0
  0
SPLINE
  5
2CD
330
1F
100
AcDbEntity
  8
0
  6
Continuous
 62
     7
370
    25
100
AcDbSpline
210
0.0
220
0.0
230
1.0
 70
     8
 71
     3
 72
    11
 73
     7
 74
     0
 42
0.00000001
 43
0.00000001
 40
0.0
 40
0.0
 40
0.0
 40
0.0
 40
0.0055682347466183
 40
0.1918263368321047
 40
0.6296575784328776
 40
1.0
 40
1.0
 40
1.0
 40
1.0
 10
179.6580670683897
 20
135.2286706787599
 30
0.0
 10
179.6632609917249
 20
135.227286460684
 30
0.0
 10
179.8421922567548
 20
135.1795999864329
 30
0.0
 10
180.4290299562972
 20
135.025629803594
 30
0.0
 10
181.3591557018552
 20
134.7800547288298
 30
0.0
 10
182.0836440786748
 20
134.7478829430194
 30
0.0
 10
182.415638044943
 20
134.7331403479484
 30
0.0
  0
SPLINE
  5
2CE
330
1F
100
AcDbEntity
  8
0
  6
Continuous
 62
     7
370
    25
100
AcDbSpline
210
0.0
220
0.0
230
1.0
 70
     8
 71
     3
 72
    11
 73
     7
 74
     0
 42
0.00000001
 43
0.00000001
 40
0.0
 40
0.0
 40
0.0
 40
0.0
 40
0.3703424215671233
 40
0.808173663167896
 40
0.9944317652533816
 40
1.0
 40
1.0
 40
1.0
 40
1.0
 10
176.9004960918363
 20
134.7331403479484
 30
0.0
 10
177.2324900581045
 20
134.7478829430194
 30
0.0
 10
177.9569784349241
 20
134.7800547288298
 30
0.0
 10
178.887104180482
 20
135.0256298035941
 30
0.0
 10
179.4739418800245
 20
135.1795999864329
 30
0.0
 10
179.6528731450544
 20
135.227286460684
 30
0.0
 10
179.6580670683897
 20
135.2286706787599
 30
0.0
  0
ELLIPSE
  5
2CF
330
1F
100
AcDbEntity
  8
0
  6
Continuous
 62
     7
370
    25
100
AcDbEllipse
 10
179.6580670684
 20
135.4645453087
 30
0.0
 11
6.5
 21
0.0
 31
0.0
210
0.0
220
0.0
230
1.0
 40
0.124260355
 41
3.696234591426875
 42
4.274264664245598
  0
LINE
  5
2D0
330
1F
100
AcDbEntity
  8
0
  6
Continuous
 62
     7
370
    25
100
AcDbLine
 10
174.1324881508
 20
140.130887566
 30
0.0
 11
174.1324881508
 21
135.0391830804
 31
0.0
  0
ELLIPSE
  5
2D1
330
1F
100
AcDbEntity
  8
0
  6
Continuous
 62
     7
370
    25
100
AcDbEllipse
 10
179.6580670684
 20
139.7055253377
 30
0.0
 11
6.5
 21
0.0
 31
0.0
210
0.0
220
0.0
230
1.0
 40
0.124260355
 41
2.00892064293401
 42
2.586950715752793
  0
SPLINE
  5
2D2
330
1F
100
AcDbEntity
  8
0
  6
Continuous
 62
     7
370
    25
100
AcDbSpline
210
0.0
220
0.0
230
1.0
 70
     8
 71
     3
 72
    11
 73
     7
 74
     0
 42
0.00000001
 43
0.00000001
 40
0.0
 40
0.0
 40
0.0
 40
0.0
 40
0.3703424215671223
 40
0.8081736631678952
 40
0.9944317652533818
 40
1.0
 40
1.0
 40
1.0
 40
1.0
 10
182.415638044943
 20
140.4369302984414
 30
0.0
 10
182.0836440786748
 20
140.4221877033703
 30
0.0
 10
181.3591557018552
 20
140.39001591756
 30
0.0
 10
180.4290299562974
 20
140.1444408427955
 30
0.0
 10
179.8421922567547
 20
139.9904706599571
 30
0.0
 10
179.6632609917249
 20
139.9427841857058
 30
0.0
 10
179.6580670683897
 20
139.9413999676299
 30
0.0
  0
LINE
  5
2D3
330
1F
100
AcDbEntity
  8
0
  6
Continuous
 62
     7
370
    25
100
AcDbLine
 10
153.2035172006
 20
140.9324606293
 30
0.0
 11
153.234656387
 21
140.9359592024
 31
0.0
  0
SPLINE
  5
2D4
330
1F
100
AcDbEntity
  8
0
  6
Continuous
 62
     7
370
    25
100
AcDbSpline
210
0.0
220
0.0
230
1.0
 70
     8
 71
     3
 72
    11
 73
     7
 74
     0
 42
0.00000001
 43
0.00000001
 40
0.0
 40
0.0
 40
0.0
 40
0.0
 40
0.3703424215671238
 40
0.8081736631678934
 40
0.9944317652533823
 40
0.9999999999999999
 40
0.9999999999999999
 40
0.9999999999999999
 40
0.9999999999999999
 10
153.415638044943
 20
140.4369302984414
 30
0.0
 10
153.0836440786748
 20
140.4221877033704
 30
0.0
 10
152.3591557018552
 20
140.3900159175601
 30
0.0
 10
151.4290299562973
 20
140.1444408427954
 30
0.0
 10
150.8421922567548
 20
139.9904706599572
 30
0.0
 10
150.6632609917249
 20
139.9427841857058
 30
0.0
 10
150.6580670683897
 20
139.9413999676299
 30
0.0
  0
ELLIPSE
  5
2D5
330
1F
100
AcDbEntity
  8
0
  6
Continuous
 62
     7
370
    25
100
AcDbEllipse
 10
150.6580670684
 20
139.7055253377
 30
0.0
 11
6.499999999999972
 21
0.0
 31
0.0
210
0.0
220
0.0
230
1.0
 40
0.124260355
 41
0.5546419378369998
 42
1.132672010655785
  0
LINE
  5
2D6
330
1F
100
AcDbEntity
  8
0
  6
Continuous
 62
     7
370
    25
100
AcDbLine
 10
156.183645986
 20
140.130887566
 30
0.0
 11
156.183645986
 21
135.0391830804
 31
0.0
  0
ELLIPSE
  5
2D7
330
1F
100
AcDbEntity
  8
0
  6
Continuous
 62
     7
370
    25
100
AcDbEllipse
 10
150.6580670684
 20
135.4645453087
 30
0.0
 11
6.499999999999972
 21
0.0
 31
0.0
210
0.0
220
0.0
230
1.0
 40
0.124260355
 41
5.150513296523823
 42
5.72854336934267
  0
SPLINE
  5
2D8
330
1F
100
AcDbEntity
  8
0
  6
Continuous
 62
     7
370
    25
100
AcDbSpline
210
0.0
220
0.0
230
1.0
 70
     8
 71
     3
 72
    11
 73
     7
 74
     0
 42
0.00000001
 43
0.00000001
 40
0.0
 40
0.0
 40
0.0
 40
0.0
 40
0.0055682347466179
 40
0.1918263368321036
 40
0.6296575784328765
 40
1.0
 40
1.0
 40
1.0
 40
1.0
 10
150.6580670683897
 20
135.2286706787599
 30
0.0
 10
150.6632609917249
 20
135.227286460684
 30
0.0
 10
150.8421922567549
 20
135.179599986433
 30
0.0
 10
151.4290299562972
 20
135.0256298035939
 30
0.0
 10
152.3591557018552
 20
134.7800547288298
 30
0.0
 10
153.0836440786748
 20
134.7478829430195
 30
0.0
 10
153.415638044943
 20
134.7331403479484
 30
0.0
  0
SPLINE
  5
2D9
330
1F
100
AcDbEntity
  8
0
  6
Continuous
 62
     7
370
    25
100
AcDbSpline
210
0.0
220
0.0
230
1.0
 70
     8
 71
     3
 72
    11
 73
     7
 74
     0
 42
0.00000001
 43
0.00000001
 40
0.0
 40
0.0
 40
0.0
 40
0.0
 40
0.3703424215671234
 40
0.8081736631678964
 40
0.9944317652533821
 40
1.0
 40
1.0
 40
1.0
 40
1.0
 10
147.9004960918363
 20
134.7331403479484
 30
0.0
 10
148.2324900581045
 20
134.7478829430195
 30
0.0
 10
148.9569784349241
 20
134.7800547288298
 30
0.0
 10
149.887104180482
 20
135.0256298035939
 30
0.0
 10
150.4739418800245
 20
135.179599986433
 30
0.0
 10
150.6528731450543
 20
135.227286460684
 30
0.0
 10
150.6580670683897
 20
135.2286706787599
 30
0.0
  0
LINE
  5
2DA
330
1F
100
AcDbEntity
  8
0
  6
Continuous
 62
     7
370
    25
100
AcDbLine
 10
153.2035172006
 20
134.2376100171
 30
0.0
 11
153.2345876383
 21
134.2341073902
 31
0.0
  0
LINE
  5
2DB
330
1F
100
AcDbEntity
  8
0
  6
Continuous
 62
     7
370
    25
100
AcDbLine
 10
182.2348560235
 20
134.2341235161
 30
0.0
 11
182.2035172006
 21
134.2376100171
 31
0.0
  0
LINE
  5
2DC
330
1F
100
AcDbEntity
  8
0
  6
Continuous
 62
     7
370
    25
100
AcDbLine
 10
148.1126169362
 20
134.2376100171
 30
0.0
 11
148.0814777498
 21
134.234111444
 31
0.0
  0
LINE
  5
2DD
330
1F
100
AcDbEntity
  8
0
  6
Continuous
 62
     7
370
    25
100
AcDbLine
 10
177.1126169362
 20
134.2376100171
 30
0.0
 11
177.0814777498
 21
134.234111444
 31
0.0
  0
CIRCLE
  5
2DE
330
1F
100
AcDbEntity
  8
0
  6
Continuous
 62
     7
370
    25
100
AcDbCircle
 10
165.1580670684
 20
137.5850353232
 30
0.0
 40
5.584181783769424
  0
CIRCLE
  5
2DF
330
1F
100
AcDbEntity
  8
0
  6
Continuous
 62
     7
370
    25
100
AcDbCircle
 10
165.1580670684
 20
137.5850353232
 30
0.0
 40
5.095107983402528
  0
ARC
  5
2E0
330
1F
100
AcDbEntity
  8
0
  6
Continuous
 62
     7
370
    25
100
AcDbCircle
 10
165.1580670684
 20
137.5850353232
 30
0.0
 40
5.92511312334006
100
AcDbArc
 50
210.7429878176
 51
329.2570121825
  0
ARC
  5
2E1
330
1F
100
AcDbEntity
  8
0
  6
Continuous
 62
     7
370
    25
100
AcDbCircle
 10
165.1580670684
 20
137.5850353232
 30
0.0
 40
5.925113123340036
100
AcDbArc
 50
180.0
 51
210.7429878176
  0
ARC
  5
2E2
330
1F
100
AcDbEntity
  8
0
  6
Continuous
 62
     7
370
    25
100
AcDbCircle
 10
165.1580670684
 20
137.5850353232
 30
0.0
 40
5.925113123340026
100
AcDbArc
 50
149.2570121825
 51
180.0
  0
ARC
  5
2E3
330
1F
100
AcDbEntity
  8
0
  6
Continuous
 62
     7
370
    25
100
AcDbCircle
 10
165.1580670684
 20
137.5850353232
 30
0.0
 40
5.925113123340045
100
AcDbArc
 50
30.7429878175
 51
149.2570121825
  0
ARC
  5
2E4
330
1F
100
AcDbEntity
  8
0
  6
Continuous
 62
     7
370
    25
100
AcDbCircle
 10
165.1580670684
 20
137.5850353232
 30
0.0
 40
5.925113123340054
100
AcDbArc
 50
0.0
 51
30.7429878175
  0
ARC
  5
2E5
330
1F
100
AcDbEntity
  8
0
  6
Continuous
 62
     7
370
    25
100
AcDbCircle
 10
165.1580670684
 20
137.5850353232
 30
0.0
 40
5.92511312334006
100
AcDbArc
 50
329.2570121825
 51
0.0
  0
ELLIPSE
  5
2E6
330
1F
100
AcDbEntity
  8
0
  6
Continuous
 62
     7
370
    25
100
AcDbEllipse
 10
172.4323100223
 20
140.3081218277
 30
0.0
 11
2.0
 21
0.0
 31
0.0
210
0.0
220
0.0
230
1.0
 40
0.1682692308
 41
3.972013810537711
 42
5.728543369342644
  0
SPLINE
  5
2E7
330
1F
100
AcDbEntity
  8
0
  6
Continuous
 62
     7
370
    25
100
AcDbSpline
210
0.0
220
0.0
230
1.0
 70
     8
 71
     3
 72
    12
 73
     8
 74
     0
 42
0.00000001
 43
0.00000001
 40
0.0
 40
0.0
 40
0.0
 40
0.0
 40
0.1443005026356244
 40
0.2873275205918753
 40
0.5201185386439743
 40
0.7602843466484757
 40
1.0
 40
1.0
 40
1.0
 40
1.0
 10
171.0831801917297
 20
140.0596839075287
 30
0.0
 10
171.0771959317052
 20
140.1072553579747
 30
0.0
 10
171.0652802241088
 20
140.2019784300219
 30
0.0
 10
170.9718950019125
 20
140.350035393348
 30
0.0
 10
170.8191370585108
 20
140.4855349898864
 30
0.0
 10
170.6046711433225
 20
140.5914306709911
 30
0.0
 10
170.4466311637678
 20
140.6064025565027
 30
0.0
 10
170.3676852989961
 20
140.613881477041
 30
0.0
  0
ELLIPSE
  5
2E8
330
1F
100
AcDbEntity
  8
0
  6
Continuous
 62
     7
370
    25
100
AcDbEllipse
 10
172.4323100223
 20
140.8036521585
 30
0.0
 11
2.5
 21
0.0
 31
0.0
210
0.0
220
0.0
230
1.0
 40
0.1346153846
 41
3.740681249811813
 42
5.651303747039015
  0
ELLIPSE
  5
2E9
330
1F
100
AcDbEntity
  8
0
  6
Continuous
 62
     7
370
    25
100
AcDbEllipse
 10
157.8838241144
 20
140.3081218277
 30
0.0
 11
2.0
 21
0.0
 31
0.0
210
0.0
220
0.0
230
1.0
 40
0.1682692308
 41
3.696234591426855
 42
5.452764150231746
  0
SPLINE
  5
2EA
330
1F
100
AcDbEntity
  8
0
  6
Continuous
 62
     7
370
    25
100
AcDbSpline
210
0.0
220
0.0
230
1.0
 70
     8
 71
     3
 72
    12
 73
     8
 74
     0
 42
0.00000001
 43
0.00000001
 40
0.0
 40
0.0
 40
0.0
 40
0.0
 40
0.2571943124574413
 40
0.5245503439757948
 40
0.7385170215182973
 40
0.8882338470637767
 40
1.0
 40
1.0
 40
1.0
 40
1.0
 10
159.9484488377832
 20
140.613881477041
 30
0.0
 10
159.863750560262
 20
140.6052662027981
 30
0.0
 10
159.6910075855697
 20
140.5876952657725
 30
0.0
 10
159.4717825568048
 20
140.4691848600446
 30
0.0
 10
159.3224027814254
 20
140.3231967153656
 30
0.0
 10
159.2450062648314
 20
140.1826142523761
 30
0.0
 10
159.2365629056675
 20
140.0964943126072
 30
0.0
 10
159.2329539450496
 20
140.0596839075287
 30
0.0
  0
ELLIPSE
  5
2EB
330
1F
100
AcDbEntity
  8
0
  6
Continuous
 62
     7
370
    25
100
AcDbEllipse
 10
157.8838241144
 20
140.8036521585
 30
0.0
 11
2.5
 21
0.0
 31
0.0
210
0.0
220
0.0
230
1.0
 40
0.1346153846
 41
3.766648813234192
 42
5.684096710957712
  0
ELLIPSE
  5
2EC
330
1F
100
AcDbEntity
  8
0
  6
Continuous
 62
     7
370
    25
100
AcDbEllipse
 10
172.4323100223
 20
134.8619488187
 30
0.0
 11
2.0
 21
0.0
 31
0.0
210
0.0
220
0.0
230
1.0
 40
0.1682692308
 41
0.5546419378370739
 42
2.311171496641857
  0
LINE
  5
2ED
330
1F
100
AcDbEntity
  8
0
  6
Continuous
 62
     7
370
    25
100
AcDbLine
 10
171.0831801917
 20
137.5850353232
 30
0.0
 11
171.0831801917
 21
135.1103867389
 31
0.0
  0
LINE
  5
2EE
330
1F
100
AcDbEntity
  8
0
  6
Continuous
 62
     7
370
    25
100
AcDbLine
 10
171.0831801917
 20
140.0596839075
 30
0.0
 11
171.0831801917
 21
137.5850353232
 31
0.0
  0
LINE
  5
2EF
330
1F
100
AcDbEntity
  8
0
  6
Continuous
 62
     7
370
    25
100
AcDbLine
 10
159.232953945
 20
137.5850353232
 30
0.0
 11
159.232953945
 21
135.1103867389
 31
0.0
  0
ELLIPSE
  5
2F0
330
1F
100
AcDbEntity
  8
0
  6
Continuous
 62
     7
370
    25
100
AcDbEllipse
 10
157.8838241144
 20
134.8619488187
 30
0.0
 11
2.0
 21
0.0
 31
0.0
210
0.0
220
0.0
230
1.0
 40
0.1682692308
 41
0.8304211569479363
 42
2.586950715752718
  0
LINE
  5
2F1
330
1F
100
AcDbEntity
  8
0
  6
Continuous
 62
     7
370
    25
100
AcDbLine
 10
159.232953945
 20
140.0596839075
 30
0.0
 11
159.232953945
 21
137.5850353232
 31
0.0
  0
SPLINE
  5
2F2
330
1F
100
AcDbEntity
  8
0
  6
Continuous
 62
     7
370
    25
100
AcDbSpline
210
0.0
220
0.0
230
1.0
 70
     8
 71
     3
 72
    12
 73
     8
 74
     0
 42
0.00000001
 43
0.00000001
 40
0.0
 40
0.0
 40
0.0
 40
0.0
 40
0.144300502635625
 40
0.2873275205918761
 40
0.5201185386439748
 40
0.7602843466484799
 40
1.0
 40
1.0
 40
1.0
 40
1.0
 10
159.2329539450496
 20
135.1103867388611
 30
0.0
 10
159.2389382050741
 20
135.0628152884151
 30
0.0
 10
159.2508539126705
 20
134.9680922163679
 30
0.0
 10
159.3442391348669
 20
134.8200352530418
 30
0.0
 10
159.4969970782685
 20
134.6845356565034
 30
0.0
 10
159.7114629934568
 20
134.5786399753987
 30
0.0
 10
159.8695029730115
 20
134.5636680898871
 30
0.0
 10
159.9484488377832
 20
134.5561891693488
 30
0.0
  0
ELLIPSE
  5
2F3
330
1F
100
AcDbEntity
  8
0
  6
Continuous
 62
     7
370
    25
100
AcDbEllipse
 10
157.8838241144
 20
134.3664184879
 30
0.0
 11
2.5
 21
0.0
 31
0.0
210
0.0
220
0.0
230
1.0
 40
0.1346153846
 41
0.5990885962219846
 42
2.509711093449187
  0
SPLINE
  5
2F4
330
1F
100
AcDbEntity
  8
0
  6
Continuous
 62
     7
370
    25
100
AcDbSpline
210
0.0
220
0.0
230
1.0
 70
     8
 71
     3
 72
    12
 73
     8
 74
     0
 42
0.00000001
 43
0.00000001
 40
0.0
 40
0.0
 40
0.0
 40
0.0
 40
0.2571943124574416
 40
0.524550343975796
 40
0.7385170215182983
 40
0.8882338470637771
 40
1.0
 40
1.0
 40
1.0
 40
1.0
 10
170.3676852989961
 20
134.5561891693488
 30
0.0
 10
170.4523835765173
 20
134.5648044435916
 30
0.0
 10
170.6251265512097
 20
134.5823753806173
 30
0.0
 10
170.8443515799745
 20
134.7008857863451
 30
0.0
 10
170.9937313553539
 20
134.8468739310242
 30
0.0
 10
171.0711278719479
 20
134.9874563940137
 30
0.0
 10
171.0795712311117
 20
135.0735763337825
 30
0.0
 10
171.0831801917297
 20
135.1103867388611
 30
0.0
  0
ELLIPSE
  5
2F5
330
1F
100
AcDbEntity
  8
0
  6
Continuous
 62
     7
370
    25
100
AcDbEllipse
 10
172.4323100223
 20
134.3664184879
 30
0.0
 11
2.5
 21
0.0
 31
0.0
210
0.0
220
0.0
230
1.0
 40
0.1346153846
 41
0.6250561596443659
 42
2.54250405736782
  0
ARC
  5
2F6
330
1F
100
AcDbEntity
  8
0
  6
Continuous
 62
     7
370
    25
100
AcDbCircle
 10
165.1580670684
 20
137.5850353232
 30
0.0
 40
7.999999999999999
100
AcDbArc
 50
21.1234840263
 51
158.8765159737
  0
LINE
  5
2F7
330
1F
100
AcDbEntity
  8
0
  6
Continuous
 62
     7
370
    25
100
AcDbLine
 10
170.250518001
 20
140.613881477
 30
0.0
 11
170.367685299
 21
140.613881477
 31
0.0
  0
LINE
  5
2F8
330
1F
100
AcDbEntity
  8
0
  6
Continuous
 62
     7
370
    25
100
AcDbLine
 10
159.9484488378
 20
140.613881477
 30
0.0
 11
160.0656161358
 21
140.613881477
 31
0.0
  0
ARC
  5
2F9
330
1F
100
AcDbEntity
  8
0
  6
Continuous
 62
     7
370
    25
100
AcDbCircle
 10
165.1580670684
 20
137.5850353232
 30
0.0
 40
7.999999999999997
100
AcDbArc
 50
201.1234840263
 51
338.8765159737
  0
LINE
  5
2FA
330
1F
100
AcDbEntity
  8
0
  6
Continuous
 62
     7
370
    25
100
AcDbLine
 10
160.0656161358
 20
134.5561891693
 30
0.0
 11
159.9484488378
 21
134.5561891693
 31
0.0
  0
LINE
  5
2FB
330
1F
100
AcDbEntity
  8
0
  6
Continuous
 62
     7
370
    25
100
AcDbLine
 10
170.367685299
 20
134.5561891693
 30
0.0
 11
170.250518001
 21
134.5561891693
 31
0.0
  0
LWPOLYLINE
  5
2FC
330
1F
100
AcDbEntity
  8
0
  6
Continuous
 62
     7
370
    25
100
AcDbPolyline
 90
        9
 70
   128
 43
0.0
 10
176.9004960918
 20
140.4369302984
 10
176.8998031281
 20
140.5417170016
 10
176.9085932912
 20
140.6418343387
 10
176.9264748854
 20
140.7328210137
 10
176.9526510948
 20
140.8106225989
 10
176.98595549
 20
140.8717722033
 10
177.0249040045
 20
140.9135449593
 10
177.0677610665
 20
140.9340794448
 10
177.0812781133
 20
140.9359471303
  0
SPLINE
  5
2FD
330
1F
100
AcDbEntity
  8
0
  6
Continuous
 62
     7
370
    25
100
AcDbSpline
210
0.0
220
0.0
230
1.0
 70
     8
 71
     3
 72
    17
 73
    13
 74
     0
 42
0.00000001
 43
0.00000001
 40
0.0
 40
0.0
 40
0.0
 40
0.0
 40
0.1035854850733411
 40
0.3375824630391486
 40
0.6895287099805723
 40
0.8015981455173037
 40
0.8712562754798991
 40
0.9159740448067668
 40
0.9450303939524121
 40
0.964003469452745
 40
0.9945248237345743
 40
1.0
 40
1.0
 40
1.0
 40
1.0
 10
177.2706644311691
 20
140.9283475669303
 30
0.0
 10
177.3449303191676
 20
140.9291791430066
 30
0.0
 10
177.5869609605515
 20
140.9318892283033
 30
0.0
 10
178.1280463973252
 20
140.7563054919463
 30
0.0
 10
178.6951089162739
 20
140.4841249117652
 30
0.0
 10
179.1328969020365
 20
140.2419102529998
 30
0.0
 10
179.3192250122447
 20
140.1363188223359
 30
0.0
 10
179.4373742508151
 20
140.0686177684948
 30
0.0
 10
179.5138099644317
 20
140.024631458292
 30
0.0
 10
179.5785582643541
 20
139.9873007465493
 30
0.0
 10
179.6238771748775
 20
139.9611395133677
 30
0.0
 10
179.653553251432
 20
139.9440060212655
 30
0.0
 10
179.6580670683897
 20
139.9413999676299
 30
0.0
  0
LWPOLYLINE
  5
2FE
330
1F
100
AcDbEntity
  8
0
  6
Continuous
 62
     7
370
    25
100
AcDbPolyline
 90
        9
 70
   128
 43
0.0
 10
147.9004960918
 20
140.4369302984
 10
147.8998031281
 20
140.5417170016
 10
147.9085932912
 20
140.6418343387
 10
147.9264748854
 20
140.7328210137
 10
147.9526510948
 20
140.8106225989
 10
147.98595549
 20
140.8717722033
 10
148.0249040045
 20
140.9135449593
 10
148.0677610665
 20
140.9340794448
 10
148.0812781133
 20
140.9359471303
  0
SPLINE
  5
2FF
330
1F
100
AcDbEntity
  8
0
  6
Continuous
 62
     7
370
    25
100
AcDbSpline
210
0.0
220
0.0
230
1.0
 70
     8
 71
     3
 72
    17
 73
    13
 74
     0
 42
0.00000001
 43
0.00000001
 40
0.0
 40
0.0
 40
0.0
 40
0.0
 40
0.1035854850733399
 40
0.3375824630391462
 40
0.6895287099805711
 40
0.8015981455173021
 40
0.8712562754799079
 40
0.9159740448067789
 40
0.9450303939524248
 40
0.9640034694527617
 40
0.9945248237345745
 40
1.0
 40
1.0
 40
1.0
 40
1.0
 10
148.2706644311691
 20
140.9283475669303
 30
0.0
 10
148.3449303191676
 20
140.9291791430066
 30
0.0
 10
148.5869609605515
 20
140.9318892283033
 30
0.0
 10
149.1280463973252
 20
140.7563054919463
 30
0.0
 10
149.6951089162739
 20
140.4841249117652
 30
0.0
 10
150.1328969020365
 20
140.2419102529998
 30
0.0
 10
150.3192250122447
 20
140.1363188223359
 30
0.0
 10
150.4373742508151
 20
140.0686177684947
 30
0.0
 10
150.5138099644317
 20
140.024631458292
 30
0.0
 10
150.5785582643541
 20
139.9873007465493
 30
0.0
 10
150.6238771748775
 20
139.9611395133677
 30
0.0
 10
150.653553251432
 20
139.9440060212655
 30
0.0
 10
150.6580670683897
 20
139.9413999676299
 30
0.0
  0
ELLIPSE
  5
300
330
1F
100
AcDbEntity
  8
0
  6
Continuous
 62
     7
370
    25
100
AcDbEllipse
 10
179.6580670684
 20
135.4645453087
 30
0.0
 11
6.5
 21
0.0
 31
0.0
210
0.0
220
0.0
230
1.0
 40
0.124260355
 41
5.150513296523825
 42
6.283185307179586
  0
ELLIPSE
  5
301
330
1F
100
AcDbEntity
  8
0
  6
Continuous
 62
     7
370
    25
100
AcDbEllipse
 10
179.6580670684
 20
139.7055253377
 30
0.0
 11
6.5
 21
0.0
 31
0.0
210
0.0
220
0.0
230
1.0
 40
0.124260355
 41
0.0
 42
1.132672010655783
  0
LWPOLYLINE
  5
302
330
1F
100
AcDbEntity
  8
0
  6
Continuous
 62
     7
370
    25
100
AcDbPolyline
 90
        9
 70
   128
 43
0.0
 10
153.234656387
 20
140.9359592024
 10
153.2483730703
 20
140.9340794448
 10
153.2912301322
 20
140.9135449593
 10
153.3301786468
 20
140.8717722033
 10
153.363483042
 20
140.8106225989
 10
153.3896592514
 20
140.7328210137
 10
153.4075408456
 20
140.6418343387
 10
153.4163310086
 20
140.5417170016
 10
153.4156380449
 20
140.4369302984
  0
SPLINE
  5
303
330
1F
100
AcDbEntity
  8
0
  6
Continuous
 62
     7
370
    25
100
AcDbSpline
210
0.0
220
0.0
230
1.0
 70
     8
 71
     3
 72
    17
 73
    13
 74
     0
 42
0.00000001
 43
0.00000001
 40
0.0
 40
0.0
 40
0.0
 40
0.0
 40
0.0054758108841721
 40
0.0360007028464145
 40
0.0549759774849142
 40
0.0840356945045915
 40
0.1287586469951393
 40
0.1984248509178995
 40
0.310507276240039
 40
0.6624943166966413
 40
0.8965184168703354
 40
1.0
 40
1.0
 40
1.0
 40
1.0
 10
150.6580670683897
 20
139.9413999676299
 30
0.0
 10
150.6625808853474
 20
139.9440060212658
 30
0.0
 10
150.6922569619023
 20
139.9611395133697
 30
0.0
 10
150.7375758724129
 20
139.9873007465017
 30
0.0
 10
150.8023241723797
 20
140.0246314584162
 30
0.0
 10
150.8787598857229
 20
140.0686177675591
 30
0.0
 10
150.9969091263172
 20
140.1363188292455
 30
0.0
 10
151.1832372211909
 20
140.2419102004701
 30
0.0
 10
151.6210253842749
 20
140.4841255465682
 30
0.0
 10
152.1880859672166
 20
140.7562986224036
 30
0.0
 10
152.729085393598
 20
140.9318719737144
 30
0.0
 10
152.9710346900038
 20
140.9291695874401
 30
0.0
 10
153.0452180222195
 20
140.9283410170671
 30
0.0
  0
ELLIPSE
  5
304
330
1F
100
AcDbEntity
  8
0
  6
Continuous
 62
     7
370
    25
100
AcDbEllipse
 10
150.6580670684
 20
135.4645453087
 30
0.0
 11
6.499999999999972
 21
0.0
 31
0.0
210
0.0
220
0.0
230
1.0
 40
0.124260355
 41
3.141592653589792
 42
4.274264664245596
  0
ELLIPSE
  5
305
330
1F
100
AcDbEntity
  8
0
  6
Continuous
 62
     7
370
    25
100
AcDbEllipse
 10
150.6580670684
 20
139.7055253377
 30
0.0
 11
6.499999999999972
 21
0.0
 31
0.0
210
0.0
220
0.0
230
1.0
 40
0.124260355
 41
2.008920642934012
 42
3.141592653589792
  0
LWPOLYLINE
  5
306
330
1F
100
AcDbEntity
  8
0
  6
Continuous
 62
     7
370
    25
100
AcDbPolyline
 90
        9
 70
   128
 43
0.0
 10
182.4156380449
 20
140.4369302984
 10
182.4163310086
 20
140.5417170016
 10
182.4075408456
 20
140.6418343387
 10
182.3896592514
 20
140.7328210137
 10
182.363483042
 20
140.8106225989
 10
182.3301786468
 20
140.8717722033
 10
182.2912301322
 20
140.9135449593
 10
182.2483730703
 20
140.9340794448
 10
182.2347828036
 20
140.9359516098
  0
SPLINE
  5
307
330
1F
100
AcDbEntity
  8
0
  6
Continuous
 62
     7
370
    25
100
AcDbSpline
210
0.0
220
0.0
230
1.0
 70
     8
 71
     3
 72
    17
 73
    13
 74
     0
 42
0.00000001
 43
0.00000001
 40
0.0
 40
0.0
 40
0.0
 40
0.0
 40
0.0054758108841725
 40
0.0360007028463726
 40
0.054975977484927
 40
0.0840356945045883
 40
0.1287586469951294
 40
0.1984248509179025
 40
0.3105072762400351
 40
0.6624943166966457
 40
0.8965184168703382
 40
1.0
 40
1.0
 40
1.0
 40
1.0
 10
179.6580670683897
 20
139.9413999676299
 30
0.0
 10
179.6625808853474
 20
139.9440060212658
 30
0.0
 10
179.6922569619023
 20
139.9611395133697
 30
0.0
 10
179.7375758724129
 20
139.9873007465015
 30
0.0
 10
179.8023241723797
 20
140.0246314584161
 30
0.0
 10
179.8787598857228
 20
140.0686177675591
 30
0.0
 10
179.9969091263172
 20
140.1363188292455
 30
0.0
 10
180.1832372211909
 20
140.2419102004701
 30
0.0
 10
180.6210253842749
 20
140.4841255465682
 30
0.0
 10
181.1880859672166
 20
140.7562986224036
 30
0.0
 10
181.729085393598
 20
140.9318719737144
 30
0.0
 10
181.9710346900038
 20
140.9291695874401
 30
0.0
 10
182.0452180222194
 20
140.9283410170671
 30
0.0
  0
SPLINE
  5
308
330
1F
100
AcDbEntity
  8
0
  6
Continuous
 62
     7
370
    25
100
AcDbSpline
210
0.0
220
0.0
230
1.0
 70
     8
 71
     3
 72
    17
 73
    13
 74
     0
 42
0.00000001
 43
0.00000001
 40
0.0
 40
0.0
 40
0.0
 40
0.0
 40
0.1035854850733364
 40
0.337582463039145
 40
0.6895287099805705
 40
0.8015981455173123
 40
0.8712562754799034
 40
0.9159740448067681
 40
0.9450303939524103
 40
0.9640034694526899
 40
0.9945248237345604
 40
0.9999999999999999
 40
0.9999999999999999
 40
0.9999999999999999
 40
0.9999999999999999
 10
153.0454697056103
 20
134.2417230794594
 30
0.0
 10
152.9712038176117
 20
134.2408915033832
 30
0.0
 10
152.7291731762278
 20
134.2381814180865
 30
0.0
 10
152.1880877394541
 20
134.4137651544435
 30
0.0
 10
151.6210252205054
 20
134.6859457346246
 30
0.0
 10
151.1832372347428
 20
134.92816039339
 30
0.0
 10
150.9969091245346
 20
135.0337518240539
 30
0.0
 10
150.8787598859643
 20
135.1014528778951
 30
0.0
 10
150.8023241723476
 20
135.1454391880977
 30
0.0
 10
150.7375758724253
 20
135.1827698998405
 30
0.0
 10
150.6922569619016
 20
135.2089311330217
 30
0.0
 10
150.6625808853473
 20
135.2260646251242
 30
0.0
 10
150.6580670683897
 20
135.2286706787599
 30
0.0
  0
LWPOLYLINE
  5
309
330
1F
100
AcDbEntity
  8
0
  6
Continuous
 62
     7
370
    25
100
AcDbPolyline
 90
        9
 70
   128
 43
0.0
 10
153.2345876383
 20
134.2341073902
 10
153.2483730703
 20
134.2359912016
 10
153.2912301322
 20
134.256525687
 10
153.3301786468
 20
134.2982984431
 10
153.363483042
 20
134.3594480475
 10
153.3896592514
 20
134.4372496327
 10
153.4075408456
 20
134.5282363077
 10
153.4163310086
 20
134.6283536447
 10
153.4156380449
 20
134.7331403479
  0
LWPOLYLINE
  5
30A
330
1F
100
AcDbEntity
  8
0
  6
Continuous
 62
     7
370
    25
100
AcDbPolyline
 90
        9
 70
   128
 43
0.0
 10
182.4156380449
 20
134.7331403479
 10
182.4163310086
 20
134.6283536447
 10
182.4075408456
 20
134.5282363077
 10
182.3896592514
 20
134.4372496327
 10
182.363483042
 20
134.3594480475
 10
182.3301786468
 20
134.2982984431
 10
182.2912301322
 20
134.256525687
 10
182.2483730703
 20
134.2359912016
 10
182.2348560235
 20
134.2341235161
  0
SPLINE
  5
30B
330
1F
100
AcDbEntity
  8
0
  6
Continuous
 62
     7
370
    25
100
AcDbSpline
210
0.0
220
0.0
230
1.0
 70
     8
 71
     3
 72
    17
 73
    13
 74
     0
 42
0.00000001
 43
0.00000001
 40
0.0
 40
0.0
 40
0.0
 40
0.0
 40
0.1035854850733361
 40
0.337582463039144
 40
0.6895287099805703
 40
0.8015981455173012
 40
0.8712562754798887
 40
0.915974044806772
 40
0.9450303939524196
 40
0.9640034694527361
 40
0.9945248237345603
 40
1.0
 40
1.0
 40
1.0
 40
1.0
 10
182.0454697056103
 20
134.2417230794594
 30
0.0
 10
181.9712038176117
 20
134.2408915033832
 30
0.0
 10
181.7291731762278
 20
134.2381814180865
 30
0.0
 10
181.1880877394541
 20
134.4137651544435
 30
0.0
 10
180.6210252205054
 20
134.6859457346246
 30
0.0
 10
180.1832372347428
 20
134.92816039339
 30
0.0
 10
179.9969091245346
 20
135.0337518240539
 30
0.0
 10
179.8787598859643
 20
135.1014528778951
 30
0.0
 10
179.8023241723476
 20
135.1454391880977
 30
0.0
 10
179.7375758724253
 20
135.1827698998405
 30
0.0
 10
179.6922569619019
 20
135.2089311330222
 30
0.0
 10
179.6625808853474
 20
135.2260646251243
 30
0.0
 10
179.6580670683897
 20
135.2286706787599
 30
0.0
  0
LWPOLYLINE
  5
30C
330
1F
100
AcDbEntity
  8
0
  6
Continuous
 62
     7
370
    25
100
AcDbPolyline
 90
        9
 70
   128
 43
0.0
 10
148.0814777498
 20
134.234111444
 10
148.0677610665
 20
134.2359912016
 10
148.0249040045
 20
134.256525687
 10
147.98595549
 20
134.2982984431
 10
147.9526510948
 20
134.3594480475
 10
147.9264748854
 20
134.4372496327
 10
147.9085932912
 20
134.5282363077
 10
147.8998031281
 20
134.6283536447
 10
147.9004960918
 20
134.7331403479
  0
SPLINE
  5
30D
330
1F
100
AcDbEntity
  8
0
  6
Continuous
 62
     7
370
    25
100
AcDbSpline
210
0.0
220
0.0
230
1.0
 70
     8
 71
     3
 72
    17
 73
    13
 74
     0
 42
0.00000001
 43
0.00000001
 40
0.0
 40
0.0
 40
0.0
 40
0.0
 40
0.0054758108841865
 40
0.0360007028463749
 40
0.0549759774848977
 40
0.0840356945045909
 40
0.1287586469951262
 40
0.1984248509178939
 40
0.310507276240036
 40
0.6624943166966468
 40
0.8965184168703411
 40
1.0
 40
1.0
 40
1.0
 40
1.0
 10
150.6580670683897
 20
135.2286706787599
 30
0.0
 10
150.6535532514319
 20
135.226064625124
 30
0.0
 10
150.6238771748772
 20
135.2089311330197
 30
0.0
 10
150.5785582643664
 20
135.1827698998883
 30
0.0
 10
150.5138099643997
 20
135.1454391879736
 30
0.0
 10
150.4373742510564
 20
135.1014528788307
 30
0.0
 10
150.3192250104621
 20
135.0337518171443
 30
0.0
 10
150.1328969155884
 20
134.9281604459196
 30
0.0
 10
149.6951087525044
 20
134.6859450998217
 30
0.0
 10
149.1280481695626
 20
134.4137720239862
 30
0.0
 10
148.5870487431814
 20
134.2381986726754
 30
0.0
 10
148.3450994467755
 20
134.2409010589497
 30
0.0
 10
148.2709161145598
 20
134.2417296293227
 30
0.0
  0
LWPOLYLINE
  5
30E
330
1F
100
AcDbEntity
  8
0
  6
Continuous
 62
     7
370
    25
100
AcDbPolyline
 90
        9
 70
   128
 43
0.0
 10
177.0814777498
 20
134.234111444
 10
177.0677610665
 20
134.2359912016
 10
177.0249040045
 20
134.256525687
 10
176.98595549
 20
134.2982984431
 10
176.9526510948
 20
134.3594480475
 10
176.9264748854
 20
134.4372496327
 10
176.9085932912
 20
134.5282363077
 10
176.8998031281
 20
134.6283536447
 10
176.9004960918
 20
134.7331403479
  0
SPLINE
  5
30F
330
1F
100
AcDbEntity
  8
0
  6
Continuous
 62
     7
370
    25
100
AcDbSpline
210
0.0
220
0.0
230
1.0
 70
     8
 71
     3
 72
    17
 73
    13
 74
     0
 42
0.00000001
 43
0.00000001
 40
0.0
 40
0.0
 40
0.0
 40
0.0
 40
0.0054758108841867
 40
0.0360007028464308
 40
0.054975977484913
 40
0.0840356945045914
 40
0.1287586469951404
 40
0.1984248509179035
 40
0.3105072762400362
 40
0.6624943166966483
 40
0.8965184168703427
 40
1.0
 40
1.0
 40
1.0
 40
1.0
 10
179.6580670683897
 20
135.2286706787599
 30
0.0
 10
179.6535532514319
 20
135.226064625124
 30
0.0
 10
179.6238771748772
 20
135.2089311330197
 30
0.0
 10
179.5785582643664
 20
135.1827698998882
 30
0.0
 10
179.5138099643997
 20
135.1454391879736
 30
0.0
 10
179.4373742510564
 20
135.1014528788307
 30
0.0
 10
179.3192250104621
 20
135.0337518171443
 30
0.0
 10
179.1328969155884
 20
134.9281604459196
 30
0.0
 10
178.6951087525044
 20
134.6859450998216
 30
0.0
 10
178.1280481695626
 20
134.4137720239862
 30
0.0
 10
177.5870487431814
 20
134.2381986726754
 30
0.0
 10
177.3450994467755
 20
134.2409010589497
 30
0.0
 10
177.2709161145599
 20
134.2417296293227
 30
0.0
  0
ARC
  5
310
330
1F
100
AcDbEntity
  8
0
  6
Continuous
 62
     7
370
    25
100
AcDbCircle
 10
155.7453131512
 20
140.1931721224
 30
0.0
 40
0.4427358580480463
100
AcDbArc
 50
351.9127409756
 51
74.3423597433
  0
ARC
  5
311
330
1F
100
AcDbEntity
  8
0
  6
Continuous
 62
     7
370
    25
100
AcDbCircle
 10
174.5831059536
 20
140.1851623986
 30
0.0
 40
0.4538746100674356
100
AcDbArc
 50
106.8902047162
 51
186.8679282522
  0
ARC
  5
312
330
1F
100
AcDbEntity
  8
0
  6
Continuous
 62
     7
370
    25
100
AcDbCircle
 10
155.7330281832
 20
134.9849082478
 30
0.0
 40
0.45387461006743
100
AcDbArc
 50
286.8902047162
 51
6.8679282522
  0
ARC
  5
313
330
1F
100
AcDbEntity
  8
0
  6
Continuous
 62
     7
370
    25
100
AcDbCircle
 10
174.5708209856
 20
134.976898524
 30
0.0
 40
0.4427358580480967
100
AcDbArc
 50
171.9127409756
 51
254.3423597433
  0
INSERT
  5
31F
330
1F
100
AcDbEntity
  8
0
  6
Continuous
 62
     7
370
    18
100
AcDbBlockReference
  2
SW_CENTERMARKSYMBOL_1
 10
165.1580670684
 20
137.5850353232
 30
0.0
  0
ENDSEC
  0
SECTION
  2
OBJECTS
  0
DICTIONARY
  5
C
330
0
100
AcDbDictionary
281
     1
  3
ACAD_GROUP
350
D
  3
ACAD_LAYOUT
350
1A
  3
ACAD_MLINESTYLE
350
17
  3
ACAD_PLOTSETTINGS
350
19
  3
ACAD_PLOTSTYLENAME
350
E
  3
ACAD_SCALELIST
350
47
  3
DWGPROPS
350
320
  0
DICTIONARY
  5
D
102
{ACAD_REACTORS
330
C
102
}
330
C
100
AcDbDictionary
281
     1
  0
DICTIONARY
  5
1A
102
{ACAD_REACTORS
330
C
102
}
330
C
100
AcDbDictionary
281
     1
  3
Layout1
350
1E
  3
Layout2
350
26
  3
Model
350
22
  0
DICTIONARY
  5
17
102
{ACAD_REACTORS
330
C
102
}
330
C
100
AcDbDictionary
281
     1
  3
Standard
350
18
  0
DICTIONARY
  5
19
102
{ACAD_REACTORS
330
C
102
}
330
C
100
AcDbDictionary
281
     1
  0
ACDBDICTIONARYWDFLT
  5
E
102
{ACAD_REACTORS
330
C
102
}
330
C
100
AcDbDictionary
281
     1
  3
Normal
350
F
100
AcDbDictionaryWithDefault
340
F
  0
DICTIONARY
  5
47
102
{ACAD_REACTORS
330
C
102
}
330
C
100
AcDbDictionary
281
     1
  3
A0
350
48
  3
A1
350
49
  3
A2
350
4A
  3
A3
350
4B
  3
A4
350
4C
  3
A5
350
4D
  3
A6
350
4E
  3
A7
350
4F
  3
A8
350
50
  3
A9
350
51
  3
B0
350
52
  3
B1
350
53
  3
B2
350
54
  3
B3
350
55
  3
B4
350
56
  3
B5
350
57
  3
B6
350
58
  0
XRECORD
  5
320
102
{ACAD_REACTORS
330
C
102
}
330
C
100
AcDbXrecord
280
     1
  1
DWGPROPS COOKIE
  2

  3

  4

  6

  7

  8
user28
  9

300
=
301
=
302
=
303
=
304
=
305
=
306
=
307
=
308
=
309
=
 40
0.0
 41
2460276.266002951
 42
2460276.266003854
  1

 90
        0
  0
LAYOUT
  5
1E
102
{ACAD_REACTORS
330
1A
102
}
330
1A
100
AcDbPlotSettings
  1

  2
none_device
  4

  6

 40
0.0
 41
0.0
 42
0.0
 43
0.0
 44
0.0
 45
0.0
 46
0.0
 47
0.0
 48
0.0
 49
0.0
140
0.0
141
0.0
142
1.0
143
1.0
 70
   688
 72
     1
 73
     0
 74
     5
  7

 75
    16
147
1.0
148
0.0
149
0.0
100
AcDbLayout
  1
Layout1
 70
     1
 71
     1
 10
0.0
 20
0.0
 11
420.0
 21
297.0
 12
0.0
 22
0.0
 32
0.0
 14
1.0000000000E+20
 24
1.0000000000E+20
 34
1.0000000000E+20
 15
-1.0000000000E+20
 25
-1.0000000000E+20
 35
-1.0000000000E+20
146
0.0
 13
0.0
 23
0.0
 33
0.0
 16
1.0
 26
0.0
 36
0.0
 17
0.0
 27
1.0
 37
0.0
 76
     0
330
1B
  0
LAYOUT
  5
26
102
{ACAD_REACTORS
330
1A
102
}
330
1A
100
AcDbPlotSettings
  1

  2
none_device
  4

  6

 40
0.0
 41
0.0
 42
0.0
 43
0.0
 44
0.0
 45
0.0
 46
0.0
 47
0.0
 48
0.0
 49
0.0
140
0.0
141
0.0
142
1.0
143
1.0
 70
   688
 72
     1
 73
     0
 74
     5
  7

 75
    16
147
1.0
148
0.0
149
0.0
100
AcDbLayout
  1
Layout2
 70
     1
 71
     2
 10
0.0
 20
0.0
 11
0.0
 21
0.0
 12
0.0
 22
0.0
 32
0.0
 14
0.0
 24
0.0
 34
0.0
 15
0.0
 25
0.0
 35
0.0
146
0.0
 13
0.0
 23
0.0
 33
0.0
 16
1.0
 26
0.0
 36
0.0
 17
0.0
 27
1.0
 37
0.0
 76
     0
330
23
  0
LAYOUT
  5
22
102
{ACAD_REACTORS
330
1A
102
}
330
1A
100
AcDbPlotSettings
  1

  2
none_device
  4
Letter_(8.50_x_11.00_Inches)
  6

 40
6.35
 41
6.35
 42
6.35000508
 43
6.35000508
 44
215.9
 45
279.4
 46
0.0
 47
0.0
 48
0.0
 49
0.0
140
0.0
141
0.0
142
1.0
143
1.0
 70
  1712
 72
     1
 73
     0
 74
     0
  7

 75
     0
147
1.0
148
0.0
149
0.0
100
AcDbLayout
  1
Model
 70
     1
 71
     0
 10
0.0
 20
0.0
 11
431.8
 21
279.4
 12
0.0
 22
0.0
 32
0.0
 14
0.0
 24
0.0
 34
0.0
 15
431.8
 25
279.4
 35
0.0
146
0.0
 13
0.0
 23
0.0
 33
0.0
 16
1.0
 26
0.0
 36
0.0
 17
0.0
 27
1.0
 37
0.0
 76
     0
330
1F
331
29
  0
MLINESTYLE
  5
18
102
{ACAD_REACTORS
330
17
102
}
330
17
100
AcDbMlineStyle
  2
Standard
 70
     0
  3

 62
   256
 51
90.0
 52
90.0
 71
     2
 49
0.5
 62
   256
  6
BYLAYER
 49
-0.5
 62
   256
  6
BYLAYER
  0
ACDBPLACEHOLDER
  5
F
102
{ACAD_REACTORS
330
E
102
}
330
E
  0
SCALE
  5
48
102
{ACAD_REACTORS
330
47
102
}
330
47
100
AcDbScale
 70
     0
300
1:1
140
1.0
141
1.0
290
     1
  0
SCALE
  5
49
102
{ACAD_REACTORS
330
47
102
}
330
47
100
AcDbScale
 70
     0
300
1:2
140
1.0
141
2.0
290
     0
  0
SCALE
  5
4A
102
{ACAD_REACTORS
330
47
102
}
330
47
100
AcDbScale
 70
     0
300
1:4
140
1.0
141
4.0
290
     0
  0
SCALE
  5
4B
102
{ACAD_REACTORS
330
47
102
}
330
47
100
AcDbScale
 70
     0
300
1:5
140
1.0
141
5.0
290
     0
  0
SCALE
  5
4C
102
{ACAD_REACTORS
330
47
102
}
330
47
100
AcDbScale
 70
     0
300
1:8
140
1.0
141
8.0
290
     0
  0
SCALE
  5
4D
102
{ACAD_REACTORS
330
47
102
}
330
47
100
AcDbScale
 70
     0
300
1:10
140
1.0
141
10.0
290
     0
  0
SCALE
  5
4E
102
{ACAD_REACTORS
330
47
102
}
330
47
100
AcDbScale
 70
     0
300
1:16
140
1.0
141
16.0
290
     0
  0
SCALE
  5
4F
102
{ACAD_REACTORS
330
47
102
}
330
47
100
AcDbScale
 70
     0
300
1:20
140
1.0
141
20.0
290
     0
  0
SCALE
  5
50
102
{ACAD_REACTORS
330
47
102
}
330
47
100
AcDbScale
 70
     0
300
1:30
140
1.0
141
30.0
290
     0
  0
SCALE
  5
51
102
{ACAD_REACTORS
330
47
102
}
330
47
100
AcDbScale
 70
     0
300
1:40
140
1.0
141
40.0
290
     0
  0
SCALE
  5
52
102
{ACAD_REACTORS
330
47
102
}
330
47
100
AcDbScale
 70
     0
300
1:50
140
1.0
141
50.0
290
     0
  0
SCALE
  5
53
102
{ACAD_REACTORS
330
47
102
}
330
47
100
AcDbScale
 70
     0
300
1:100
140
1.0
141
100.0
290
     0
  0
SCALE
  5
54
102
{ACAD_REACTORS
330
47
102
}
330
47
100
AcDbScale
 70
     0
300
2:1
140
2.0
141
1.0
290
     0
  0
SCALE
  5
55
102
{ACAD_REACTORS
330
47
102
}
330
47
100
AcDbScale
 70
     0
300
4:1
140
4.0
141
1.0
290
     0
  0
SCALE
  5
56
102
{ACAD_REACTORS
330
47
102
}
330
47
100
AcDbScale
 70
     0
300
8:1
140
8.0
141
1.0
290
     0
  0
SCALE
  5
57
102
{ACAD_REACTORS
330
47
102
}
330
47
100
AcDbScale
 70
     0
300
10:1
140
10.0
141
1.0
290
     0
  0
SCALE
  5
58
102
{ACAD_REACTORS
330
47
102
}
330
47
100
AcDbScale
 70
     0
300
100:1
140
100.0
141
1.0
290
     0
  0
ENDSEC
  0
EOF
