  0
SECTION
  2
HEADER
  9
$ACADVER
  1
AC1015
  9
$ACADMAINTVER
 70
     6
  9
$DWGCODEPAGE
  3
DOS932
  9
$INSBASE
 10
0.0
 20
0.0
 30
0.0
  9
$EXTMIN
 10
0.0
 20
0.0
 30
0.0
  9
$EXTMAX
 10
431.8
 20
279.4
 30
0.0
  9
$LIMMIN
 10
0.0
 20
0.0
  9
$LIMMAX
 10
431.8
 20
279.4
  9
$ORTHOMODE
 70
     0
  9
$REGENMODE
 70
     1
  9
$FILLMODE
 70
     1
  9
$QTEXTMODE
 70
     0
  9
$MIRRTEXT
 70
     1
  9
$LTSCALE
 40
1.0
  9
$ATTMODE
 70
     1
  9
$TEXTSIZE
 40
3.5
  9
$TRACEWID
 40
1.0
  9
$TEXTSTYLE
  7
Standard
  9
$CLAYER
  8
0
  9
$CELTYPE
  6
ByLayer
  9
$CECOLOR
 62
   256
  9
$CELTSCALE
 40
1.0
  9
$DISPSILH
 70
     0
  9
$DIMSCALE
 40
1.0
  9
$DIMASZ
 40
3.556
  9
$DIMEXO
 40
1.0
  9
$DIMDLI
 40
3.75
  9
$DIMRND
 40
0.0
  9
$DIMDLE
 40
0.0
  9
$DIMEXE
 40
1.0
  9
$DIMTP
 40
0.0
  9
$DIMTM
 40
0.0
  9
$DIMTXT
 40
3.5
  9
$DIMCEN
 40
2.5
  9
$DIMTSZ
 40
0.0
  9
$DIMTOL
 70
     0
  9
$DIMLIM
 70
     0
  9
$DIMTIH
 70
     1
  9
$DIMTOH
 70
     1
  9
$DIMSE1
 70
     0
  9
$DIMSE2
 70
     0
  9
$DIMTAD
 70
     1
  9
$DIMZIN
 70
     0
  9
$DIMBLK
  1

  9
$DIMASO
 70
     1
  9
$DIMSHO
 70
     1
  9
$DIMPOST
  1

  9
$DIMAPOST
  1

  9
$DIMALT
 70
     0
  9
$DIMALTD
 70
     3
  9
$DIMALTF
 40
0.0393700787
  9
$DIMLFAC
 40
1.0
  9
$DIMTOFL
 70
     1
  9
$DIMTVP
 40
0.0
  9
$DIMTIX
 70
     0
  9
$DIMSOXD
 70
     0
  9
$DIMSAH
 70
     0
  9
$DIMBLK1
  1

  9
$DIMBLK2
  1

  9
$DIMSTYLE
  2
ISO-25
  9
$DIMCLRD
 70
     0
  9
$DIMCLRE
 70
     0
  9
$DIMCLRT
 70
     0
  9
$DIMTFAC
 40
1.0
  9
$DIMGAP
 40
1.524
  9
$DIMJUST
 70
     0
  9
$DIMSD1
 70
     0
  9
$DIMSD2
 70
     0
  9
$DIMTOLJ
 70
     0
  9
$DIMTZIN
 70
     0
  9
$DIMALTZ
 70
     0
  9
$DIMALTTZ
 70
     0
  9
$DIMUPT
 70
     0
  9
$DIMDEC
 70
     3
  9
$DIMTDEC
 70
     3
  9
$DIMALTU
 70
     2
  9
$DIMALTTD
 70
     3
  9
$DIMTXSTY
  7
Standard
  9
$DIMAUNIT
 70
     0
  9
$DIMADEC
 70
     2
  9
$DIMALTRND
 40
0.0
  9
$DIMAZIN
 70
     0
  9
$DIMDSEP
 70
    44
  9
$DIMATFIT
 70
     3
  9
$DIMFRAC
 70
     0
  9
$DIMLDRBLK
  1

  9
$DIMLUNIT
 70
     2
  9
$DIMLWD
 70
    -2
  9
$DIMLWE
 70
    -2
  9
$DIMTMOVE
 70
     0
  9
$LUNITS
 70
     2
  9
$LUPREC
 70
     3
  9
$SKETCHINC
 40
1.0
  9
$FILLETRAD
 40
0.0
  9
$AUNITS
 70
     0
  9
$AUPREC
 70
     2
  9
$MENU
  1
.
  9
$ELEVATION
 40
0.0
  9
$PELEVATION
 40
0.0
  9
$THICKNESS
 40
0.0
  9
$LIMCHECK
 70
     0
  9
$CHAMFERA
 40
0.0
  9
$CHAMFERB
 40
0.0
  9
$CHAMFERC
 40
0.0
  9
$CHAMFERD
 40
0.0
  9
$SKPOLY
 70
     0
  9
$TDCREATE
 40
2460276.629332269
  9
$TDUCREATE
 40
2460276.254332269
  9
$TDUPDATE
 40
2460276.629333113
  9
$TDUUPDATE
 40
2460276.254333113
  9
$TDINDWG
 40
0.0000000116
  9
$TDUSRTIMER
 40
0.0000000116
  9
$USRTIMER
 70
     1
  9
$ANGBASE
 50
0.0
  9
$ANGDIR
 70
     0
  9
$PDMODE
 70
     0
  9
$PDSIZE
 40
-1.0
  9
$PLINEWID
 40
0.0
  9
$SPLFRAME
 70
     0
  9
$SPLINETYPE
 70
     6
  9
$SPLINESEGS
 70
     8
  9
$HANDSEED
  5
321
  9
$SURFTAB1
 70
     6
  9
$SURFTAB2
 70
     6
  9
$SURFTYPE
 70
     6
  9
$SURFU
 70
     6
  9
$SURFV
 70
     6
  9
$UCSBASE
  2

  9
$UCSNAME
  2

  9
$UCSORG
 10
0.0
 20
0.0
 30
0.0
  9
$UCSXDIR
 10
1.0
 20
0.0
 30
0.0
  9
$UCSYDIR
 10
0.0
 20
1.0
 30
0.0
  9
$UCSORTHOREF
  2

  9
$UCSORTHOVIEW
 70
     0
  9
$UCSORGTOP
 10
0.0
 20
0.0
 30
0.0
  9
$UCSORGBOTTOM
 10
0.0
 20
0.0
 30
0.0
  9
$UCSORGLEFT
 10
0.0
 20
0.0
 30
0.0
  9
$UCSORGRIGHT
 10
0.0
 20
0.0
 30
0.0
  9
$UCSORGFRONT
 10
0.0
 20
0.0
 30
0.0
  9
$UCSORGBACK
 10
0.0
 20
0.0
 30
0.0
  9
$PUCSBASE
  2

  9
$PUCSNAME
  2

  9
$PUCSORG
 10
0.0
 20
0.0
 30
0.0
  9
$PUCSXDIR
 10
1.0
 20
0.0
 30
0.0
  9
$PUCSYDIR
 10
0.0
 20
1.0
 30
0.0
  9
$PUCSORTHOREF
  2

  9
$PUCSORTHOVIEW
 70
     0
  9
$PUCSORGTOP
 10
0.0
 20
0.0
 30
0.0
  9
$PUCSORGBOTTOM
 10
0.0
 20
0.0
 30
0.0
  9
$PUCSORGLEFT
 10
0.0
 20
0.0
 30
0.0
  9
$PUCSORGRIGHT
 10
0.0
 20
0.0
 30
0.0
  9
$PUCSORGFRONT
 10
0.0
 20
0.0
 30
0.0
  9
$PUCSORGBACK
 10
0.0
 20
0.0
 30
0.0
  9
$USERI1
 70
     0
  9
$USERI2
 70
     0
  9
$USERI3
 70
     0
  9
$USERI4
 70
     0
  9
$USERI5
 70
     0
  9
$USERR1
 40
0.0
  9
$USERR2
 40
0.0
  9
$USERR3
 40
0.0
  9
$USERR4
 40
0.0
  9
$USERR5
 40
0.0
  9
$WORLDVIEW
 70
     1
  9
$SHADEDGE
 70
     3
  9
$SHADEDIF
 70
    70
  9
$TILEMODE
 70
     1
  9
$MAXACTVP
 70
    64
  9
$PINSBASE
 10
0.0
 20
0.0
 30
0.0
  9
$PLIMCHECK
 70
     0
  9
$PEXTMIN
 10
1.0000000000E+20
 20
1.0000000000E+20
 30
1.0000000000E+20
  9
$PEXTMAX
 10
-1.0000000000E+20
 20
-1.0000000000E+20
 30
-1.0000000000E+20
  9
$PLIMMIN
 10
0.0
 20
0.0
  9
$PLIMMAX
 10
420.0
 20
297.0
  9
$UNITMODE
 70
     0
  9
$VISRETAIN
 70
     1
  9
$PLINEGEN
 70
     0
  9
$PSLTSCALE
 70
     1
  9
$TREEDEPTH
 70
  3020
  9
$CMLSTYLE
  2
Standard
  9
$CMLJUST
 70
     0
  9
$CMLSCALE
 40
20.0
  9
$PROXYGRAPHICS
 70
     1
  9
$MEASUREMENT
 70
     1
  9
$CELWEIGHT
370
    -1
  9
$ENDCAPS
280
     0
  9
$JOINSTYLE
280
     0
  9
$LWDISPLAY
290
     1
  9
$INSUNITS
 70
     4
  9
$HYPERLINKBASE
  1

  9
$STYLESHEET
  1

  9
$XEDIT
290
     1
  9
$CEPSNTYPE
380
     0
  9
$PSTYLEMODE
290
     1
  9
$FINGERPRINTGUID
  2
{c03e9e36-d012-4604-87af-cbc08e966068}
  9
$VERSIONGUID
  2
{FAEB1C32-E019-11D5-929B-00C0DF256EC4}
  9
$EXTNAMES
290
     1
  9
$PSVPSCALE
 40
0.0
  9
$OLESTARTUP
290
     0
  0
ENDSEC
  0
SECTION
  2
CLASSES
  0
CLASS
  1
ACDBDICTIONARYWDFLT
  2
AcDbDictionaryWithDefault
  3
ObjectDBX Classes
 90
        0
280
     0
281
     0
  0
CLASS
  1
VISUALSTYLE
  2
AcDbVisualStyle
  3
ObjectDBX Classes
 90
     4095
280
     0
281
     0
  0
CLASS
  1
MATERIAL
  2
AcDbMaterial
  3
ObjectDBX Classes
 90
     1153
280
     0
281
     0
  0
CLASS
  1
SCALE
  2
AcDbScale
  3
ObjectDBX Classes
 90
     1153
280
     0
281
     0
  0
CLASS
  1
TABLESTYLE
  2
AcDbTableStyle
  3
ObjectDBX Classes
 90
     4095
280
     0
281
     0
  0
CLASS
  1
MLEADERSTYLE
  2
AcDbMLeaderStyle
  3
ACDB_MLEADERSTYLE_CLASS
 90
     4095
280
     0
281
     0
  0
CLASS
  1
SUN
  2
AcDbSun
  3
SCENEOE
 90
     1153
280
     0
281
     0
  0
CLASS
  1
ACDBPLACEHOLDER
  2
AcDbPlaceHolder
  3
ObjectDBX Classes
 90
        0
280
     0
281
     0
  0
CLASS
  1
LAYOUT
  2
AcDbLayout
  3
ObjectDBX Classes
 90
        0
280
     0
281
     0
  0
ENDSEC
  0
SECTION
  2
TABLES
  0
TABLE
  2
VPORT
  5
8
330
0
100
AcDbSymbolTable
 70
     1
  0
VPORT
  5
29
330
8
100
AcDbSymbolTableRecord
100
AcDbViewportTableRecord
  2
*Active
 70
     0
 10
0.0
 20
0.0
 11
1.0
 21
1.0
 12
215.9
 22
139.7
 13
0.0
 23
0.0
 14
10.0
 24
10.0
 15
10.0
 25
10.0
 16
0.0
 26
0.0
 36
1.0
 17
0.0
 27
0.0
 37
0.0
 40
279.4
 41
1.5454545455
 42
50.0
 43
0.0
 44
0.0
 50
0.0
 51
0.0
 71
     0
 72
  2000
 73
     1
 74
     3
 75
     0
 76
     0
 77
     0
 78
     0
281
     0
 65
     1
110
0.0
120
0.0
130
0.0
111
1.0
121
0.0
131
0.0
112
0.0
122
1.0
132
0.0
 79
     0
146
0.0
  0
ENDTAB
  0
TABLE
  2
LTYPE
  5
5
330
0
100
AcDbSymbolTable
 70
     6
  0
LTYPE
  5
14
330
5
100
AcDbSymbolTableRecord
100
AcDbLinetypeTableRecord
  2
ByBlock
 70
     0
  3

 72
    65
 73
     0
 40
0.0
  0
LTYPE
  5
15
330
5
100
AcDbSymbolTableRecord
100
AcDbLinetypeTableRecord
  2
ByLayer
 70
     0
  3

 72
    65
 73
     0
 40
0.0
  0
LTYPE
  5
16
330
5
100
AcDbSymbolTableRecord
100
AcDbLinetypeTableRecord
  2
Continuous
 70
     0
  3
Solid line
 72
    65
 73
     0
 40
0.0
  0
LTYPE
  5
5E
330
5
100
AcDbSymbolTableRecord
100
AcDbLinetypeTableRecord
  2
HIDDEN
 70
     0
  3
Hidden __ __ __ __ __ __ __ __ __ __ __ __ __ __
 72
    65
 73
     2
 40
1.905
 49
1.27
 74
     0
 49
-0.635
 74
     0
  0
LTYPE
  5
5F
330
5
100
AcDbSymbolTableRecord
100
AcDbLinetypeTableRecord
  2
PHANTOM
 70
     0
  3
Phantom ______  __  __  ______  __  __  ______
 72
    65
 73
     6
 40
12.7
 49
6.35
 74
     0
 49
-1.27
 74
     0
 49
1.27
 74
     0
 49
-1.27
 74
     0
 49
1.27
 74
     0
 49
-1.27
 74
     0
  0
LTYPE
  5
60
330
5
100
AcDbSymbolTableRecord
100
AcDbLinetypeTableRecord
  2
CENTER
 70
     0
  3
Center ____ _ ____ _ ____ _ ____ _ ____ _ ____
 72
    65
 73
     4
 40
10.16
 49
6.35
 74
     0
 49
-1.27
 74
     0
 49
1.27
 74
     0
 49
-1.27
 74
     0
  0
LTYPE
  5
61
330
5
100
AcDbSymbolTableRecord
100
AcDbLinetypeTableRecord
  2
CENTERX2
 70
     0
  3
Center (2x) ________  __  ________  __  _____
 72
    65
 73
     4
 40
20.32
 49
12.7
 74
     0
 49
-2.54
 74
     0
 49
2.54
 74
     0
 49
-2.54
 74
     0
  0
LTYPE
  5
62
330
5
100
AcDbSymbolTableRecord
100
AcDbLinetypeTableRecord
  2
DOT2
 70
     0
  3
Dot (.5x) ........................................
 72
    65
 73
     2
 40
0.635
 49
0.0
 74
     0
 49
-0.635
 74
     0
  0
ENDTAB
  0
TABLE
  2
LAYER
  5
2
330
0
100
AcDbSymbolTable
 70
     1
  0
LAYER
  5
10
330
2
100
AcDbSymbolTableRecord
100
AcDbLayerTableRecord
  2
0
 70
     0
 62
     7
  6
Continuous
370
    -3
390
F
  0
ENDTAB
  0
TABLE
  2
STYLE
  5
3
330
0
100
AcDbSymbolTable
 70
     2
  0
STYLE
  5
11
330
3
100
AcDbSymbolTableRecord
100
AcDbTextStyleTableRecord
  2
Standard
 70
     0
 40
0.0
 41
1.0
 50
0.0
 71
     0
 42
3.5
  3
txt
  4
bigfont
  0
STYLE
  5
63
330
3
100
AcDbSymbolTableRecord
100
AcDbTextStyleTableRecord
  2
SLDTEXTSTYLE0
 70
     0
 40
0.0
 41
0.7
 50
0.0
 71
     0
 42
3.5
  3
TXT
  4
bigfont
  0
ENDTAB
  0
TABLE
  2
VIEW
  5
6
330
0
100
AcDbSymbolTable
 70
     0
  0
ENDTAB
  0
TABLE
  2
UCS
  5
7
330
0
100
AcDbSymbolTable
 70
     0
  0
ENDTAB
  0
TABLE
  2
APPID
  5
9
330
0
100
AcDbSymbolTable
 70
     1
  0
APPID
  5
12
330
9
100
AcDbSymbolTableRecord
100
AcDbRegAppTableRecord
  2
ACAD
 70
     0
  0
ENDTAB
  0
TABLE
  2
DIMSTYLE
  5
A
330
0
100
AcDbSymbolTable
 70
     1
100
AcDbDimStyleTable
  0
DIMSTYLE
105
27
330
A
100
AcDbSymbolTableRecord
100
AcDbDimStyleTableRecord
  2
ISO-25
 70
     0
 41
2.5
 42
0.625
 43
3.75
 44
1.25
 73
     0
 74
     0
 77
     1
 78
     8
140
2.5
141
2.5
143
0.0393700787
147
0.625
171
     3
172
     1
178
     0
271
     2
272
     2
274
     3
278
    44
283
     0
284
     8
340
11
  0
ENDTAB
  0
TABLE
  2
BLOCK_RECORD
  5
1
330
0
100
AcDbSymbolTable
 70
     3
  0
BLOCK_RECORD
  5
1F
330
1
100
AcDbSymbolTableRecord
100
AcDbBlockTableRecord
  2
*Model_Space
340
22
  0
BLOCK_RECORD
  5
1B
330
1
100
AcDbSymbolTableRecord
100
AcDbBlockTableRecord
  2
*Paper_Space
340
1E
  0
BLOCK_RECORD
  5
23
330
1
100
AcDbSymbolTableRecord
100
AcDbBlockTableRecord
  2
*Paper_Space0
340
26
  0
BLOCK_RECORD
  5
20C
330
1
100
AcDbSymbolTableRecord
100
AcDbBlockTableRecord
  2
SW_CENTERMARKSYMBOL_0
340
0
102
{BLKREFS
331
217
102
}
  0
BLOCK_RECORD
  5
314
330
1
100
AcDbSymbolTableRecord
100
AcDbBlockTableRecord
  2
SW_CENTERMARKSYMBOL_1
340
0
102
{BLKREFS
331
31F
102
}
  0
ENDTAB
  0
ENDSEC
  0
SECTION
  2
BLOCKS
  0
BLOCK
  5
20
330
1F
100
AcDbEntity
  8
0
100
AcDbBlockBegin
  2
*Model_Space
 70
     0
 10
0.0
 20
0.0
 30
0.0
  3
*Model_Space
  1

  0
ENDBLK
  5
21
330
1F
100
AcDbEntity
  8
0
100
AcDbBlockEnd
  0
BLOCK
  5
1C
330
1B
100
AcDbEntity
 67
     1
  8
0
100
AcDbBlockBegin
  2
*Paper_Space
 70
     0
 10
0.0
 20
0.0
 30
0.0
  3
*Paper_Space
  1

  0
ENDBLK
  5
1D
330
1B
100
AcDbEntity
 67
     1
  8
0
100
AcDbBlockEnd
  0
BLOCK
  5
24
330
23
100
AcDbEntity
  8
0
100
AcDbBlockBegin
  2
*Paper_Space0
 70
     0
 10
0.0
 20
0.0
 30
0.0
  3
*Paper_Space0
  1

  0
ENDBLK
  5
25
330
23
100
AcDbEntity
  8
0
100
AcDbBlockEnd
  0
BLOCK
  5
20D
330
20C
100
AcDbEntity
  8
0
100
AcDbBlockBegin
  2
SW_CENTERMARKSYMBOL_0
 70
     0
 10
0.0
 20
0.0
 30
0.0
  3
SW_CENTERMARKSYMBOL_0
  1

  0
LINE
  5
20F
330
20C
100
AcDbEntity
  8
0
  6
Continuous
 62
     0
370
    18
100
AcDbLine
 10
0.0
 20
0.0
 30
0.0
 11
0.0
 21
2.5
 31
0.0
  0
LINE
  5
210
330
20C
100
AcDbEntity
  8
0
  6
Continuous
 62
     0
370
    18
100
AcDbLine
 10
0.0
 20
0.0
 30
0.0
 11
-2.5
 21
0.0
 31
0.0
  0
LINE
  5
211
330
20C
100
AcDbEntity
  8
0
  6
Continuous
 62
     0
370
    18
100
AcDbLine
 10
0.0
 20
0.0
 30
0.0
 11
0.0
 21
-2.5
 31
0.0
  0
LINE
  5
212
330
20C
100
AcDbEntity
  8
0
  6
Continuous
 62
     0
370
    18
100
AcDbLine
 10
0.0
 20
0.0
 30
0.0
 11
2.5
 21
0.0
 31
0.0
  0
LINE
  5
213
330
20C
100
AcDbEntity
  8
0
  6
Continuous
 62
     0
370
    18
100
AcDbLine
 10
0.0
 20
5.0
 30
0.0
 11
0.0
 21
31.4831854489
 31
0.0
  0
LINE
  5
214
330
20C
100
AcDbEntity
  8
0
  6
Continuous
 62
     0
370
    18
100
AcDbLine
 10
-5.0
 20
0.0
 30
0.0
 11
-11.0
 21
0.0
 31
0.0
  0
LINE
  5
215
330
20C
100
AcDbEntity
  8
0
  6
Continuous
 62
     0
370
    18
100
AcDbLine
 10
0.0
 20
-5.0
 30
0.0
 11
0.0
 21
-24.669405777
 31
0.0
  0
LINE
  5
216
330
20C
100
AcDbEntity
  8
0
  6
Continuous
 62
     0
370
    18
100
AcDbLine
 10
5.0
 20
0.0
 30
0.0
 11
11.0
 21
0.0
 31
0.0
  0
ENDBLK
  5
20E
330
20C
100
AcDbEntity
  8
0
100
AcDbBlockEnd
  0
BLOCK
  5
315
330
314
100
AcDbEntity
  8
0
100
AcDbBlockBegin
  2
SW_CENTERMARKSYMBOL_1
 70
     0
 10
0.0
 20
0.0
 30
0.0
  3
SW_CENTERMARKSYMBOL_1
  1

  0
LINE
  5
317
330
314
100
AcDbEntity
  8
0
  6
Continuous
 62
     0
370
    18
100
AcDbLine
 10
0.0
 20
0.0
 30
0.0
 11
0.0
 21
2.5
 31
0.0
  0
LINE
  5
318
330
314
100
AcDbEntity
  8
0
  6
Continuous
 62
     0
370
    18
100
AcDbLine
 10
0.0
 20
0.0
 30
0.0
 11
-2.5
 21
0.0
 31
0.0
  0
LINE
  5
319
330
314
100
AcDbEntity
  8
0
  6
Continuous
 62
     0
370
    18
100
AcDbLine
 10
0.0
 20
0.0
 30
0.0
 11
0.0
 21
-2.5
 31
0.0
  0
LINE
  5
31A
330
314
100
AcDbEntity
  8
0
  6
Continuous
 62
     0
370
    18
100
AcDbLine
 10
0.0
 20
0.0
 30
0.0
 11
2.5
 21
0.0
 31
0.0
  0
LINE
  5
31B
330
314
100
AcDbEntity
  8
0
  6
Continuous
 62
     0
370
    18
100
AcDbLine
 10
0.0
 20
5.0
 30
0.0
 11
0.0
 21
10.5000000325
 31
0.0
  0
LINE
  5
31C
330
314
100
AcDbEntity
  8
0
  6
Continuous
 62
     0
370
    18
100
AcDbLine
 10
-5.0
 20
0.0
 30
0.0
 11
-40.8030225708
 21
0.0
 31
0.0
  0
LINE
  5
31D
330
314
100
AcDbEntity
  8
0
  6
Continuous
 62
     0
370
    18
100
AcDbLine
 10
0.0
 20
-5.0
 30
0.0
 11
0.0
 21
-10.5000000325
 31
0.0
  0
LINE
  5
31E
330
314
100
AcDbEntity
  8
0
  6
Continuous
 62
     0
370
    18
100
AcDbLine
 10
5.0
 20
0.0
 30
0.0
 11
40.5609361443
 21
0.0
 31
0.0
  0
ENDBLK
  5
316
330
314
100
AcDbEntity
  8
0
100
AcDbBlockEnd
  0
ENDSEC
  0
SECTION
  2
ENTITIES
  0
MTEXT
  5
64
330
1F
100
AcDbEntity
  8
0
  6
Continuous
 62
     7
370
     0
100
AcDbMText
 10
201.1722287123
 20
124.1124979367
 30
0.0
 40
3.5
 41
0.0
 71
     1
 72
     1
  1
エースボール　アングル型
  7
SLDTEXTSTYLE0
 73
     1
 44
1.0
  0
MTEXT
  5
65
330
1F
100
AcDbEntity
  8
0
  6
Continuous
 62
     7
370
     0
100
AcDbMText
 10
201.1722287123
 20
119.6124981304
 30
0.0
 40
3.5
 41
0.0
 71
     1
 72
     1
  1
BH-5288R
  7
SLDTEXTSTYLE0
 73
     1
 44
1.0
  0
LINE
  5
66
330
1F
100
AcDbEntity
  8
0
  6
Continuous
 62
     7
370
    25
100
AcDbLine
 10
179.1476121418
 20
62.7296475793
 30
0.0
 11
181.9476121418
 21
62.7296475793
 31
0.0
  0
LINE
  5
67
330
1F
100
AcDbEntity
  8
0
  6
Continuous
 62
     7
370
    25
100
AcDbLine
 10
181.9476121418
 20
78.7296475793
 30
0.0
 11
179.1476121418
 21
78.7296475793
 31
0.0
  0
LINE
  5
68
330
1F
100
AcDbEntity
  8
0
  6
Continuous
 62
     7
370
    25
100
AcDbLine
 10
181.9476121418
 20
62.7296475793
 30
0.0
 11
182.1476121418
 21
62.9296475793
 31
0.0
  0
LINE
  5
69
330
1F
100
AcDbEntity
  8
0
  6
Continuous
 62
     7
370
    25
100
AcDbLine
 10
182.1476121418
 20
78.5296475793
 30
0.0
 11
181.9476121418
 21
78.7296475793
 31
0.0
  0
LINE
  5
6A
330
1F
100
AcDbEntity
  8
0
  6
Continuous
 62
     7
370
    25
100
AcDbLine
 10
198.1476121418
 20
66.7296475793
 30
0.0
 11
202.6476121418
 21
67.4796475793
 31
0.0
  0
LINE
  5
6B
330
1F
100
AcDbEntity
  8
0
  6
Continuous
 62
     7
370
    25
100
AcDbLine
 10
202.6476121418
 20
73.9796475793
 30
0.0
 11
198.1476121418
 21
74.7296475793
 31
0.0
  0
LINE
  5
6C
330
1F
100
AcDbEntity
  8
0
  6
Continuous
 62
     7
370
    25
100
AcDbLine
 10
189.1476121418
 20
66.7296475793
 30
0.0
 11
193.6476121418
 21
67.4796475793
 31
0.0
  0
LINE
  5
6D
330
1F
100
AcDbEntity
  8
0
  6
Continuous
 62
     7
370
    25
100
AcDbLine
 10
193.6476121418
 20
73.9796475793
 30
0.0
 11
189.1476121418
 21
74.7296475793
 31
0.0
  0
LINE
  5
6E
330
1F
100
AcDbEntity
  8
0
  6
Continuous
 62
     7
370
    25
100
AcDbLine
 10
182.1476121418
 20
66.7296475793
 30
0.0
 11
184.6476121418
 21
66.7296475793
 31
0.0
  0
LINE
  5
6F
330
1F
100
AcDbEntity
  8
0
  6
Continuous
 62
     7
370
    25
100
AcDbLine
 10
184.6476121418
 20
74.7296475793
 30
0.0
 11
182.1476121418
 21
74.7296475793
 31
0.0
  0
LINE
  5
70
330
1F
100
AcDbEntity
  8
0
  6
Continuous
 62
     7
370
    25
100
AcDbLine
 10
202.6476121418
 20
66.7296475793
 30
0.0
 11
206.6676121418
 21
67.3996475793
 31
0.0
  0
LINE
  5
71
330
1F
100
AcDbEntity
  8
0
  6
Continuous
 62
     7
370
    25
100
AcDbLine
 10
206.6676121418
 20
74.0596475793
 30
0.0
 11
202.6476121418
 21
74.7296475793
 31
0.0
  0
LINE
  5
72
330
1F
100
AcDbEntity
  8
0
  6
Continuous
 62
     7
370
    25
100
AcDbLine
 10
184.6476121418
 20
66.7296475793
 30
0.0
 11
189.1476121418
 21
67.4796475793
 31
0.0
  0
LINE
  5
73
330
1F
100
AcDbEntity
  8
0
  6
Continuous
 62
     7
370
    25
100
AcDbLine
 10
189.1476121418
 20
73.9796475793
 30
0.0
 11
184.6476121418
 21
74.7296475793
 31
0.0
  0
LINE
  5
74
330
1F
100
AcDbEntity
  8
0
  6
Continuous
 62
     7
370
    25
100
AcDbLine
 10
193.6476121418
 20
66.7296475793
 30
0.0
 11
198.1476121418
 21
67.4796475793
 31
0.0
  0
LINE
  5
75
330
1F
100
AcDbEntity
  8
0
  6
Continuous
 62
     7
370
    25
100
AcDbLine
 10
198.1476121418
 20
73.9796475793
 30
0.0
 11
193.6476121418
 21
74.7296475793
 31
0.0
  0
LINE
  5
76
330
1F
100
AcDbEntity
  8
0
  6
Continuous
 62
     7
370
    25
100
AcDbLine
 10
206.6676121418
 20
67.3996475793
 30
0.0
 11
207.1476121418
 21
67.8796475793
 31
0.0
  0
LINE
  5
77
330
1F
100
AcDbEntity
  8
0
  6
Continuous
 62
     7
370
    25
100
AcDbLine
 10
207.1476121418
 20
73.5796475793
 30
0.0
 11
206.6676121418
 21
74.0596475793
 31
0.0
  0
LINE
  5
78
330
1F
100
AcDbEntity
  8
0
  6
Continuous
 62
     7
370
    25
100
AcDbLine
 10
153.3476121418
 20
78.7296475793
 30
0.0
 11
153.1476121418
 21
78.5296475793
 31
0.0
  0
LINE
  5
79
330
1F
100
AcDbEntity
  8
0
  6
Continuous
 62
     7
370
    25
100
AcDbLine
 10
153.1476121418
 20
62.9296475793
 30
0.0
 11
153.3476121418
 21
62.7296475793
 31
0.0
  0
LINE
  5
7A
330
1F
100
AcDbEntity
  8
0
  6
Continuous
 62
     7
370
    25
100
AcDbLine
 10
156.1476121418
 20
78.7296475793
 30
0.0
 11
153.3476121418
 21
78.7296475793
 31
0.0
  0
LINE
  5
7B
330
1F
100
AcDbEntity
  8
0
  6
Continuous
 62
     7
370
    25
100
AcDbLine
 10
153.3476121418
 20
62.7296475793
 30
0.0
 11
156.1476121418
 21
62.7296475793
 31
0.0
  0
LINE
  5
7C
330
1F
100
AcDbEntity
  8
0
  6
Continuous
 62
     7
370
    25
100
AcDbLine
 10
137.1476121418
 20
74.7296475793
 30
0.0
 11
132.6476121418
 21
73.9796475793
 31
0.0
  0
LINE
  5
7D
330
1F
100
AcDbEntity
  8
0
  6
Continuous
 62
     7
370
    25
100
AcDbLine
 10
132.6476121418
 20
67.4796475793
 30
0.0
 11
137.1476121418
 21
66.7296475793
 31
0.0
  0
LINE
  5
7E
330
1F
100
AcDbEntity
  8
0
  6
Continuous
 62
     7
370
    25
100
AcDbLine
 10
146.1476121418
 20
74.7296475793
 30
0.0
 11
141.6476121418
 21
73.9796475793
 31
0.0
  0
LINE
  5
7F
330
1F
100
AcDbEntity
  8
0
  6
Continuous
 62
     7
370
    25
100
AcDbLine
 10
141.6476121418
 20
67.4796475793
 30
0.0
 11
146.1476121418
 21
66.7296475793
 31
0.0
  0
LINE
  5
80
330
1F
100
AcDbEntity
  8
0
  6
Continuous
 62
     7
370
    25
100
AcDbLine
 10
150.6476121418
 20
74.7296475793
 30
0.0
 11
146.1476121418
 21
73.9796475793
 31
0.0
  0
LINE
  5
81
330
1F
100
AcDbEntity
  8
0
  6
Continuous
 62
     7
370
    25
100
AcDbLine
 10
146.1476121418
 20
67.4796475793
 30
0.0
 11
150.6476121418
 21
66.7296475793
 31
0.0
  0
LINE
  5
82
330
1F
100
AcDbEntity
  8
0
  6
Continuous
 62
     7
370
    25
100
AcDbLine
 10
153.1476121418
 20
74.7296475793
 30
0.0
 11
150.6476121418
 21
74.7296475793
 31
0.0
  0
LINE
  5
83
330
1F
100
AcDbEntity
  8
0
  6
Continuous
 62
     7
370
    25
100
AcDbLine
 10
150.6476121418
 20
66.7296475793
 30
0.0
 11
153.1476121418
 21
66.7296475793
 31
0.0
  0
LINE
  5
84
330
1F
100
AcDbEntity
  8
0
  6
Continuous
 62
     7
370
    25
100
AcDbLine
 10
132.6476121418
 20
74.7296475793
 30
0.0
 11
128.6276121418
 21
74.0596475793
 31
0.0
  0
LINE
  5
85
330
1F
100
AcDbEntity
  8
0
  6
Continuous
 62
     7
370
    25
100
AcDbLine
 10
128.6276121418
 20
67.3996475793
 30
0.0
 11
132.6476121418
 21
66.7296475793
 31
0.0
  0
LINE
  5
86
330
1F
100
AcDbEntity
  8
0
  6
Continuous
 62
     7
370
    25
100
AcDbLine
 10
141.6476121418
 20
74.7296475793
 30
0.0
 11
137.1476121418
 21
73.9796475793
 31
0.0
  0
LINE
  5
87
330
1F
100
AcDbEntity
  8
0
  6
Continuous
 62
     7
370
    25
100
AcDbLine
 10
137.1476121418
 20
67.4796475793
 30
0.0
 11
141.6476121418
 21
66.7296475793
 31
0.0
  0
LINE
  5
88
330
1F
100
AcDbEntity
  8
0
  6
Continuous
 62
     7
370
    25
100
AcDbLine
 10
128.6276121418
 20
74.0596475793
 30
0.0
 11
128.1476121418
 21
73.5796475793
 31
0.0
  0
LINE
  5
89
330
1F
100
AcDbEntity
  8
0
  6
Continuous
 62
     7
370
    25
100
AcDbLine
 10
128.1476121418
 20
67.8796475793
 30
0.0
 11
128.6276121418
 21
67.3996475793
 31
0.0
  0
LINE
  5
8A
330
1F
100
AcDbEntity
  8
0
  6
Continuous
 62
     7
370
    25
100
AcDbLine
 10
160.8975496418
 20
58.7296475793
 30
0.0
 11
161.1916500277
 21
49.3184352331
 31
0.0
  0
LINE
  5
8B
330
1F
100
AcDbEntity
  8
0
  6
Continuous
 62
     7
370
    25
100
AcDbLine
 10
174.103574256
 20
49.3184352331
 30
0.0
 11
174.3976746418
 21
58.7296475793
 31
0.0
  0
SPLINE
  5
8C
330
1F
100
AcDbEntity
  8
0
  6
Continuous
 62
     7
370
    25
100
AcDbSpline
210
0.0
220
0.0
230
1.0
 70
     8
 71
     3
 72
    10
 73
     6
 74
     0
 42
0.00000001
 43
0.00000001
 40
0.0
 40
0.0
 40
0.0
 40
0.0
 40
0.3767226843530308
 40
0.7477144918417249
 40
0.9999999999999999
 40
0.9999999999999999
 40
0.9999999999999999
 40
0.9999999999999999
 10
173.8109915940585
 20
79.51434371701924
 30
0.0
 10
173.7486013164559
 20
79.59102213765217
 30
0.0
 10
173.6247698705381
 20
79.74321251189855
 30
0.0
 10
173.5371286925254
 20
79.99751911025737
 30
0.0
 10
173.5349755968057
 20
80.16068568024139
 30
0.0
 10
173.5341040828999
 20
80.22673101831074
 30
0.0
  0
SPLINE
  5
8D
330
1F
100
AcDbEntity
  8
0
  6
Continuous
 62
     7
370
    25
100
AcDbSpline
210
0.0
220
0.0
230
1.0
 70
     8
 71
     3
 72
    11
 73
     7
 74
     0
 42
0.00000001
 43
0.00000001
 40
0.0
 40
0.0
 40
0.0
 40
0.0
 40
0.2242903588499795
 40
0.5955822250555631
 40
0.9777786459912858
 40
1.0
 40
1.0
 40
1.0
 40
1.0
 10
161.7539113976194
 20
80.23138431490557
 30
0.0
 10
161.7550637584931
 20
80.17216432485546
 30
0.0
 10
161.7581237458092
 20
80.0149111391962
 30
0.0
 10
161.6675886118734
 20
79.77189507418946
 30
0.0
 10
161.5656719493191
 20
79.58681426278305
 30
0.0
 10
161.4821291222301
 20
79.52137067373548
 30
0.0
 10
161.4775387336501
 20
79.51777477550864
 30
0.0
  0
LINE
  5
8E
330
1F
100
AcDbEntity
  8
0
  6
Continuous
 62
     7
370
    25
100
AcDbLine
 10
161.1916500277
 20
49.3184352331
 30
0.0
 11
162.3976121418
 21
47.2296475793
 31
0.0
  0
LINE
  5
8F
330
1F
100
AcDbEntity
  8
0
  6
Continuous
 62
     7
370
    25
100
AcDbLine
 10
172.8976121418
 20
47.2296475793
 30
0.0
 11
174.103574256
 21
49.3184352331
 31
0.0
  0
LINE
  5
90
330
1F
100
AcDbEntity
  8
0
  6
Continuous
 62
     7
370
    25
100
AcDbLine
 10
173.5476121418
 20
80.2251167592
 30
0.0
 11
173.5476121418
 21
81.2296475793
 31
0.0
  0
LINE
  5
91
330
1F
100
AcDbEntity
  8
0
  6
Continuous
 62
     7
370
    25
100
AcDbLine
 10
161.7476121418
 20
81.2296475793
 30
0.0
 11
161.7476121418
 21
80.2296475793
 31
0.0
  0
LINE
  5
92
330
1F
100
AcDbEntity
  8
0
  6
Continuous
 62
     7
370
    25
100
AcDbLine
 10
161.4774452345
 20
79.5243853086
 30
0.0
 11
160.933080962
 21
80.4672518863
 31
0.0
  0
LINE
  5
93
330
1F
100
AcDbEntity
  8
0
  6
Continuous
 62
     7
370
    25
100
AcDbLine
 10
178.433080962
 20
60.9920432723
 30
0.0
 11
179.1476121418
 21
62.2296475793
 31
0.0
  0
LINE
  5
94
330
1F
100
AcDbEntity
  8
0
  6
Continuous
 62
     7
370
    25
100
AcDbLine
 10
174.3621433216
 20
80.4672518863
 30
0.0
 11
173.8177790492
 21
79.5243853086
 31
0.0
  0
LINE
  5
95
330
1F
100
AcDbEntity
  8
0
  6
Continuous
 62
     7
370
    25
100
AcDbLine
 10
156.8621433216
 20
80.4672518863
 30
0.0
 11
156.1476121418
 21
79.2296475793
 31
0.0
  0
LINE
  5
96
330
1F
100
AcDbEntity
  8
0
  6
Continuous
 62
     7
370
    25
100
AcDbLine
 10
156.1476121418
 20
62.2296475793
 30
0.0
 11
156.8621433216
 21
60.9920432723
 31
0.0
  0
LINE
  5
97
330
1F
100
AcDbEntity
  8
0
  6
Continuous
 62
     7
370
    25
100
AcDbLine
 10
179.1476121418
 20
79.2296475793
 30
0.0
 11
178.433080962
 21
80.4672518863
 31
0.0
  0
LINE
  5
98
330
1F
100
AcDbEntity
  8
0
  6
Continuous
 62
     7
370
    25
100
AcDbLine
 10
177.3852164489
 20
58.7296475793
 30
0.0
 11
177.3852164489
 21
60.9920432723
 31
0.0
  0
LINE
  5
99
330
1F
100
AcDbEntity
  8
0
  6
Continuous
 62
     7
370
    25
100
AcDbLine
 10
177.3852164489
 20
60.9920432723
 30
0.0
 11
178.4356413433
 21
60.9920432723
 31
0.0
  0
LINE
  5
9A
330
1F
100
AcDbEntity
  8
0
  6
Continuous
 62
     7
370
    25
100
AcDbLine
 10
160.9356490175
 20
80.4672518863
 30
0.0
 11
156.8595829403
 21
80.4672518863
 31
0.0
  0
LINE
  5
9B
330
1F
100
AcDbEntity
  8
0
  6
Continuous
 62
     7
370
    25
100
AcDbLine
 10
178.4356413433
 20
80.4672518863
 30
0.0
 11
174.3595752662
 21
80.4672518863
 31
0.0
  0
LINE
  5
9C
330
1F
100
AcDbEntity
  8
0
  6
Continuous
 62
     7
370
    25
100
AcDbLine
 10
157.9100078348
 20
60.9920432723
 30
0.0
 11
157.9100078348
 21
58.7296475793
 31
0.0
  0
LINE
  5
9D
330
1F
100
AcDbEntity
  8
0
  6
Continuous
 62
     7
370
    25
100
AcDbLine
 10
156.8595829403
 20
60.9920432723
 30
0.0
 11
157.9100078348
 21
60.9920432723
 31
0.0
  0
ARC
  5
9E
330
1F
100
AcDbEntity
  8
0
  6
Continuous
 62
     7
370
    25
100
AcDbCircle
 10
167.6476121418
 20
79.7296475793
 30
0.0
 40
20.50000000000001
100
AcDbArc
 50
96.3582831464
 51
102.6803834918
  0
ARC
  5
9F
330
1F
100
AcDbEntity
  8
0
  6
Continuous
 62
     7
370
    25
100
AcDbCircle
 10
167.6476121418
 20
79.7296475793
 30
0.0
 40
20.50000000000001
100
AcDbArc
 50
77.3196165082
 51
83.6417168446
  0
ARC
  5
A0
330
1F
100
AcDbEntity
  8
0
  6
Continuous
 62
     7
370
    25
100
AcDbCircle
 10
167.6476121418
 20
79.7296475793
 30
0.0
 40
20.6
100
AcDbArc
 50
90.5372339785
 51
93.3558231766
  0
ARC
  5
A1
330
1F
100
AcDbEntity
  8
0
  6
Continuous
 62
     7
370
    25
100
AcDbCircle
 10
167.6476121418
 20
79.7296475793
 30
0.0
 40
20.60000000000001
100
AcDbArc
 50
86.6441768145
 51
89.4745323928
  0
LINE
  5
A2
330
1F
100
AcDbEntity
  8
0
  6
Continuous
 62
     7
370
    25
100
AcDbLine
 10
159.6515568555
 20
88.1744215876
 30
0.0
 11
160.1144423936
 21
81.6940240543
 31
0.0
  0
LINE
  5
A3
330
1F
100
AcDbEntity
  8
0
  6
Continuous
 62
     7
370
    25
100
AcDbLine
 10
159.6476120422
 20
88.2296489741
 30
0.0
 11
159.6515568555
 21
88.1744215876
 31
0.0
  0
LINE
  5
A4
330
1F
100
AcDbEntity
  8
0
  6
Continuous
 62
     7
370
    25
100
AcDbLine
 10
175.18078189
 20
81.6940240543
 30
0.0
 11
175.6476122415
 21
88.2296489741
 31
0.0
  0
ARC
  5
A5
330
1F
100
AcDbEntity
  8
0
  6
Continuous
 62
     7
370
    25
100
AcDbCircle
 10
174.6820525401
 20
81.7296475793
 30
0.0
 40
0.5
100
AcDbArc
 50
270.0
 51
355.91438322
  0
ARC
  5
A6
330
1F
100
AcDbEntity
  8
0
  6
Continuous
 62
     7
370
    25
100
AcDbCircle
 10
160.6131717435
 20
81.7296475793
 30
0.0
 40
0.5000000000000105
100
AcDbArc
 50
184.08561678
 51
270.0
  0
LINE
  5
A7
330
1F
100
AcDbEntity
  8
0
  6
Continuous
 62
     7
370
    25
100
AcDbLine
 10
173.5727252652
 20
97.7296475793
 30
0.0
 11
173.2317939256
 21
99.3336034247
 31
0.0
  0
LINE
  5
A8
330
1F
100
AcDbEntity
  8
0
  6
Continuous
 62
     7
370
    25
100
AcDbLine
 10
162.0634303581
 20
99.3336034247
 30
0.0
 11
161.7224990185
 21
97.7296475793
 31
0.0
  0
ARC
  5
A9
330
1F
100
AcDbEntity
  8
0
  6
Continuous
 62
     7
370
    25
100
AcDbCircle
 10
162.5525041584
 20
99.2296475793
 30
0.0
 40
0.5000000000000231
100
AcDbArc
 50
90.0
 51
168.0
  0
ARC
  5
AA
330
1F
100
AcDbEntity
  8
0
  6
Continuous
 62
     7
370
    25
100
AcDbCircle
 10
172.7427201252
 20
99.2296475793
 30
0.0
 40
0.5
100
AcDbArc
 50
12.0
 51
90.0
  0
LINE
  5
AB
330
1F
100
AcDbEntity
  8
0
  6
Continuous
 62
     7
370
    25
100
AcDbLine
 10
181.9476121418
 20
62.7296475793
 30
0.0
 11
181.9476121418
 21
78.7296475793
 31
0.0
  0
LINE
  5
AC
330
1F
100
AcDbEntity
  8
0
  6
Continuous
 62
     7
370
    25
100
AcDbLine
 10
182.1476121418
 20
78.5296475793
 30
0.0
 11
182.1476121418
 21
62.9296475793
 31
0.0
  0
LINE
  5
AD
330
1F
100
AcDbEntity
  8
0
  6
Continuous
 62
     7
370
    25
100
AcDbLine
 10
198.1476121418
 20
66.7296475793
 30
0.0
 11
198.1476121418
 21
74.7296475793
 31
0.0
  0
LINE
  5
AE
330
1F
100
AcDbEntity
  8
0
  6
Continuous
 62
     7
370
    25
100
AcDbLine
 10
189.1476121418
 20
66.7296475793
 30
0.0
 11
189.1476121418
 21
74.7296475793
 31
0.0
  0
LINE
  5
AF
330
1F
100
AcDbEntity
  8
0
  6
Continuous
 62
     7
370
    25
100
AcDbLine
 10
184.6476121418
 20
66.7296475793
 30
0.0
 11
184.6476121418
 21
74.7296475793
 31
0.0
  0
LINE
  5
B0
330
1F
100
AcDbEntity
  8
0
  6
Continuous
 62
     7
370
    25
100
AcDbLine
 10
202.6476121418
 20
66.7296475793
 30
0.0
 11
202.6476121418
 21
74.7296475793
 31
0.0
  0
LINE
  5
B1
330
1F
100
AcDbEntity
  8
0
  6
Continuous
 62
     7
370
    25
100
AcDbLine
 10
206.6676121418
 20
67.9703253611
 30
0.0
 11
206.6676121418
 21
74.0596475793
 31
0.0
  0
LINE
  5
B2
330
1F
100
AcDbEntity
  8
0
  6
Continuous
 62
     7
370
    25
100
AcDbLine
 10
206.6676121418
 20
67.3996475793
 30
0.0
 11
206.6676121418
 21
67.9703253611
 31
0.0
  0
LINE
  5
B3
330
1F
100
AcDbEntity
  8
0
  6
Continuous
 62
     7
370
    25
100
AcDbLine
 10
193.6476121418
 20
66.7296475793
 30
0.0
 11
193.6476121418
 21
74.7296475793
 31
0.0
  0
LINE
  5
B4
330
1F
100
AcDbEntity
  8
0
  6
Continuous
 62
     7
370
    25
100
AcDbLine
 10
207.1476121418
 20
73.5796475793
 30
0.0
 11
207.1476121418
 21
67.8796475793
 31
0.0
  0
LINE
  5
B5
330
1F
100
AcDbEntity
  8
0
  6
Continuous
 62
     7
370
    25
100
AcDbLine
 10
153.3476121418
 20
78.7296475793
 30
0.0
 11
153.3476121418
 21
62.7296475793
 31
0.0
  0
LINE
  5
B6
330
1F
100
AcDbEntity
  8
0
  6
Continuous
 62
     7
370
    25
100
AcDbLine
 10
153.1476121418
 20
62.9296475793
 30
0.0
 11
153.1476121418
 21
78.5296475793
 31
0.0
  0
LINE
  5
B7
330
1F
100
AcDbEntity
  8
0
  6
Continuous
 62
     7
370
    25
100
AcDbLine
 10
137.1476121418
 20
74.7296475793
 30
0.0
 11
137.1476121418
 21
66.7296475793
 31
0.0
  0
LINE
  5
B8
330
1F
100
AcDbEntity
  8
0
  6
Continuous
 62
     7
370
    25
100
AcDbLine
 10
146.1476121418
 20
74.7296475793
 30
0.0
 11
146.1476121418
 21
66.7296475793
 31
0.0
  0
LINE
  5
B9
330
1F
100
AcDbEntity
  8
0
  6
Continuous
 62
     7
370
    25
100
AcDbLine
 10
150.6476121418
 20
74.7296475793
 30
0.0
 11
150.6476121418
 21
66.7296475793
 31
0.0
  0
LINE
  5
BA
330
1F
100
AcDbEntity
  8
0
  6
Continuous
 62
     7
370
    25
100
AcDbLine
 10
132.6476121418
 20
74.7296475793
 30
0.0
 11
132.6476121418
 21
66.7296475793
 31
0.0
  0
LINE
  5
BB
330
1F
100
AcDbEntity
  8
0
  6
Continuous
 62
     7
370
    25
100
AcDbLine
 10
128.6276121418
 20
67.4054307506
 30
0.0
 11
128.6276121418
 21
67.3996475793
 31
0.0
  0
LINE
  5
BC
330
1F
100
AcDbEntity
  8
0
  6
Continuous
 62
     7
370
    25
100
AcDbLine
 10
128.6276121418
 20
74.0596475793
 30
0.0
 11
128.6276121418
 21
67.4054307506
 31
0.0
  0
LINE
  5
BD
330
1F
100
AcDbEntity
  8
0
  6
Continuous
 62
     7
370
    25
100
AcDbLine
 10
141.6476121418
 20
74.7296475793
 30
0.0
 11
141.6476121418
 21
66.7296475793
 31
0.0
  0
LINE
  5
BE
330
1F
100
AcDbEntity
  8
0
  6
Continuous
 62
     7
370
    25
100
AcDbLine
 10
128.1476121418
 20
67.8796475793
 30
0.0
 11
128.1476121418
 21
73.5796475793
 31
0.0
  0
LINE
  5
BF
330
1F
100
AcDbEntity
  8
0
  6
Continuous
 62
     7
370
    25
100
AcDbLine
 10
161.6476121418
 20
78.0908635115
 30
0.0
 11
161.6476121418
 21
74.7296475793
 31
0.0
  0
SPLINE
  5
C0
330
1F
100
AcDbEntity
  8
0
  6
Continuous
 62
     7
370
    25
100
AcDbSpline
210
0.0
220
0.0
230
1.0
 70
     8
 71
     3
 72
     8
 73
     4
 74
     0
 42
0.00000001
 43
0.00000001
 40
0.0
 40
0.0
 40
0.0
 40
0.0
 40
1.0
 40
1.0
 40
1.0
 40
1.0
 10
161.1313760648513
 20
74.72964757931518
 30
0.0
 10
161.0804773479288
 20
74.93669261774419
 30
0.0
 10
161.026543211678
 20
75.14293194742082
 30
0.0
 10
160.9698907365703
 20
75.3484497328322
 30
0.0
  0
SPLINE
  5
C1
330
1F
100
AcDbEntity
  8
0
  6
Continuous
 62
     7
370
    25
100
AcDbSpline
210
0.0
220
0.0
230
1.0
 70
     8
 71
     3
 72
    10
 73
     6
 74
     0
 42
0.00000001
 43
0.00000001
 40
0.0
 40
0.0
 40
0.0
 40
0.0
 40
0.5
 40
0.5
 40
1.0
 40
1.0
 40
1.0
 40
1.0
 10
160.9698907365703
 20
75.78146243472442
 30
0.0
 10
160.9462153421459
 20
75.73851890382319
 30
0.0
 10
160.9331242322612
 20
75.67507645919906
 30
0.0
 10
160.933037910973
 20
75.5225976220801
 30
0.0
 10
160.9462068449168
 20
75.43436761997283
 30
0.0
 10
160.9698907365703
 20
75.3484497328322
 30
0.0
  0
SPLINE
  5
C2
330
1F
100
AcDbEntity
  8
0
  6
Continuous
 62
     7
370
    25
100
AcDbSpline
210
0.0
220
0.0
230
1.0
 70
     8
 71
     3
 72
    12
 73
     8
 74
     0
 42
0.00000001
 43
0.00000001
 40
0.0
 40
0.0
 40
0.0
 40
0.0
 40
0.2500000000000001
 40
0.2500000000000001
 40
0.5000000000000002
 40
0.5000000000000002
 40
1.0
 40
1.0
 40
1.0
 40
1.0
 10
161.6476121418305
 20
78.09086351148292
 30
0.0
 10
161.6476121418305
 20
77.89512124860342
 30
0.0
 10
161.6317692057415
 20
77.69845463941284
 30
0.0
 10
161.5702663455038
 20
77.30918641208456
 30
0.0
 10
161.5246627044602
 20
77.11578237913164
 30
0.0
 10
161.348211686971
 20
76.53885332787489
 30
0.0
 10
161.1778143197191
 20
76.15860389467188
 30
0.0
 10
160.9698907365703
 20
75.78146243472442
 30
0.0
  0
SPLINE
  5
C3
330
1F
100
AcDbEntity
  8
0
  6
Continuous
 62
     7
370
    25
100
AcDbSpline
210
0.0
220
0.0
230
1.0
 70
     8
 71
     3
 72
     8
 73
     4
 74
     0
 42
0.00000001
 43
0.00000001
 40
0.0
 40
0.0
 40
0.0
 40
0.0
 40
1.0
 40
1.0
 40
1.0
 40
1.0
 10
163.0288099883135
 20
62.76325103946019
 30
0.0
 10
163.2339958108567
 20
62.81981200658441
 30
0.0
 10
163.440219011564
 20
62.87375207799825
 30
0.0
 10
163.6476121418305
 20
62.9247363677412
 30
0.0
  0
SPLINE
  5
C4
330
1F
100
AcDbEntity
  8
0
  6
Continuous
 62
     7
370
    25
100
AcDbSpline
210
0.0
220
0.0
230
1.0
 70
     8
 71
     3
 72
     8
 73
     4
 74
     0
 42
0.00000001
 43
0.00000001
 40
0.0
 40
0.0
 40
0.0
 40
0.0
 40
1.0
 40
1.0
 40
1.0
 40
1.0
 10
160.9698907365703
 20
66.11084542579815
 30
0.0
 10
161.0264541060385
 20
66.31603996330792
 30
0.0
 10
161.0803940288598
 20
66.52226361682507
 30
0.0
 10
161.1313760648513
 20
66.72964757931518
 30
0.0
  0
LINE
  5
C5
330
1F
100
AcDbEntity
  8
0
  6
Continuous
 62
     7
370
    25
100
AcDbLine
 10
156.8253335471
 20
66.1108454258
 30
0.0
 11
160.9698907366
 21
66.1108454258
 31
0.0
  0
SPLINE
  5
C6
330
1F
100
AcDbEntity
  8
0
  6
Continuous
 62
     7
370
    25
100
AcDbSpline
210
0.0
220
0.0
230
1.0
 70
     8
 71
     3
 72
    10
 73
     6
 74
     0
 42
0.00000001
 43
0.00000001
 40
0.0
 40
0.0
 40
0.0
 40
0.0
 40
0.5
 40
0.5
 40
1.0
 40
1.0
 40
1.0
 40
1.0
 10
156.8253335470907
 20
66.11084542579817
 30
0.0
 10
156.6165282078668
 20
66.86832708600373
 30
0.0
 10
156.4459813637076
 20
67.6307946344472
 30
0.0
 10
156.2111990363258
 20
69.16925876878658
 30
0.0
 10
156.1476121418305
 20
69.94538144722912
 30
0.0
 10
156.1476121418305
 20
70.72964757931518
 30
0.0
  0
SPLINE
  5
C7
330
1F
100
AcDbEntity
  8
0
  6
Continuous
 62
     7
370
    25
100
AcDbSpline
210
0.0
220
0.0
230
1.0
 70
     8
 71
     3
 72
    12
 73
     8
 74
     0
 42
0.00000001
 43
0.00000001
 40
0.0
 40
0.0
 40
0.0
 40
0.0
 40
0.25
 40
0.25
 40
0.5
 40
0.5
 40
1.0
 40
1.0
 40
1.0
 40
1.0
 10
156.1476121418305
 20
70.72964757931518
 30
0.0
 10
156.1476121418305
 20
71.12131950569011
 30
0.0
 10
156.1635179474987
 20
71.5162223972117
 30
0.0
 10
156.2253628183911
 20
72.29715842745901
 30
0.0
 10
156.2711761592573
 20
72.68456655939029
 30
0.0
 10
156.4480093331596
 20
73.83869618605026
 30
0.0
 10
156.6182875966633
 20
74.59735059498679
 30
0.0
 10
156.8253335470907
 20
75.3484497328322
 30
0.0
  0
LINE
  5
C8
330
1F
100
AcDbEntity
  8
0
  6
Continuous
 62
     7
370
    25
100
AcDbLine
 10
160.9698907366
 20
75.3484497328
 30
0.0
 11
156.8253335471
 21
75.3484497328
 31
0.0
  0
LINE
  5
C9
330
1F
100
AcDbEntity
  8
0
  6
Continuous
 62
     7
370
    25
100
AcDbLine
 10
174.1638482188
 20
74.7296475793
 30
0.0
 11
161.1313760649
 21
74.7296475793
 31
0.0
  0
SPLINE
  5
CA
330
1F
100
AcDbEntity
  8
0
  6
Continuous
 62
     7
370
    25
100
AcDbSpline
210
0.0
220
0.0
230
1.0
 70
     8
 71
     3
 72
     8
 73
     4
 74
     0
 42
0.00000001
 43
0.00000001
 40
0.0
 40
0.0
 40
0.0
 40
0.0
 40
1.0
 40
1.0
 40
1.0
 40
1.0
 10
174.1638482188096
 20
74.72964757931526
 30
0.0
 10
174.2147444520648
 20
74.93668251471902
 30
0.0
 10
174.2686784070284
 20
75.14292227978402
 30
0.0
 10
174.3253335470907
 20
75.34844973283221
 30
0.0
  0
LINE
  5
CB
330
1F
100
AcDbEntity
  8
0
  6
Continuous
 62
     7
370
    25
100
AcDbLine
 10
178.4698907366
 20
75.3484497328
 30
0.0
 11
174.3253335471
 21
75.3484497328
 31
0.0
  0
SPLINE
  5
CC
330
1F
100
AcDbEntity
  8
0
  6
Continuous
 62
     7
370
    25
100
AcDbSpline
210
0.0
220
0.0
230
1.0
 70
     8
 71
     3
 72
    12
 73
     8
 74
     0
 42
0.00000001
 43
0.00000001
 40
0.0
 40
0.0
 40
0.0
 40
0.0
 40
0.2500000000000001
 40
0.2500000000000001
 40
0.5000000000000001
 40
0.5000000000000001
 40
1.0
 40
1.0
 40
1.0
 40
1.0
 10
179.1476121418305
 20
70.72964757931518
 30
0.0
 10
179.1476121418305
 20
71.12131950569011
 30
0.0
 10
179.1317063361623
 20
71.51622239721172
 30
0.0
 10
179.0698614652699
 20
72.29715842745901
 30
0.0
 10
179.0240481244037
 20
72.68456655939029
 30
0.0
 10
178.8472149505013
 20
73.83869618605027
 30
0.0
 10
178.6769366869977
 20
74.59735059498679
 30
0.0
 10
178.4698907365703
 20
75.3484497328322
 30
0.0
  0
SPLINE
  5
CD
330
1F
100
AcDbEntity
  8
0
  6
Continuous
 62
     7
370
    25
100
AcDbSpline
210
0.0
220
0.0
230
1.0
 70
     8
 71
     3
 72
    10
 73
     6
 74
     0
 42
0.00000001
 43
0.00000001
 40
0.0
 40
0.0
 40
0.0
 40
0.0
 40
0.5
 40
0.5
 40
1.0
 40
1.0
 40
1.0
 40
1.0
 10
178.4698907365703
 20
66.11084542579819
 30
0.0
 10
178.6786960757942
 20
66.86832708600373
 30
0.0
 10
178.8492429199533
 20
67.6307946344472
 30
0.0
 10
179.0840252473351
 20
69.16925876878658
 30
0.0
 10
179.1476121418305
 20
69.94538144722912
 30
0.0
 10
179.1476121418305
 20
70.72964757931518
 30
0.0
  0
LINE
  5
CE
330
1F
100
AcDbEntity
  8
0
  6
Continuous
 62
     7
370
    25
100
AcDbLine
 10
174.3253335471
 20
66.1108454258
 30
0.0
 11
178.4698907366
 21
66.1108454258
 31
0.0
  0
SPLINE
  5
CF
330
1F
100
AcDbEntity
  8
0
  6
Continuous
 62
     7
370
    25
100
AcDbSpline
210
0.0
220
0.0
230
1.0
 70
     8
 71
     3
 72
     8
 73
     4
 74
     0
 42
0.00000001
 43
0.00000001
 40
0.0
 40
0.0
 40
0.0
 40
0.0
 40
1.0
 40
1.0
 40
1.0
 40
1.0
 10
174.3253335470907
 20
66.11084542579815
 30
0.0
 10
174.2687717036537
 20
66.31603442733497
 30
0.0
 10
174.2148316863973
 20
66.52225779339966
 30
0.0
 10
174.1638482188096
 20
66.72964757931513
 30
0.0
  0
SPLINE
  5
D0
330
1F
100
AcDbEntity
  8
0
  6
Continuous
 62
     7
370
    25
100
AcDbSpline
210
0.0
220
0.0
230
1.0
 70
     8
 71
     3
 72
     8
 73
     4
 74
     0
 42
0.00000001
 43
0.00000001
 40
0.0
 40
0.0
 40
0.0
 40
0.0
 40
1.0
 40
1.0
 40
1.0
 40
1.0
 10
171.6476121418305
 20
62.9247363677412
 30
0.0
 10
171.8546412051658
 20
62.87384157804038
 30
0.0
 10
172.0608812224352
 20
62.81990772867894
 30
0.0
 10
172.2664142953475
 20
62.76325103946019
 30
0.0
  0
LINE
  5
D1
330
1F
100
AcDbEntity
  8
0
  6
Continuous
 62
     7
370
    25
100
AcDbLine
 10
172.2664142953
 20
58.7296475793
 30
0.0
 11
172.2664142953
 21
62.7632510395
 31
0.0
  0
LINE
  5
D2
330
1F
100
AcDbEntity
  8
0
  6
Continuous
 62
     7
370
    25
100
AcDbLine
 10
163.0288099883
 20
58.7296475793
 30
0.0
 11
172.2664142953
 21
58.7296475793
 31
0.0
  0
LINE
  5
D3
330
1F
100
AcDbEntity
  8
0
  6
Continuous
 62
     7
370
    25
100
AcDbLine
 10
163.0288099883
 20
62.7632510395
 30
0.0
 11
163.0288099883
 21
58.7296475793
 31
0.0
  0
ARC
  5
D4
330
1F
100
AcDbEntity
  8
0
  6
Continuous
 62
     7
370
    25
100
AcDbCircle
 10
169.1983434976
 20
70.152728586
 30
0.0
 40
0.889000000000007
100
AcDbArc
 50
45.0
 51
315.0
  0
LINE
  5
D5
330
1F
100
AcDbEntity
  8
0
  6
Continuous
 62
     7
370
    25
100
AcDbLine
 10
169.826961426
 20
70.7813465145
 30
0.0
 11
170.2935718116
 21
71.2479569001
 31
0.0
  0
ARC
  5
D6
330
1F
100
AcDbEntity
  8
0
  6
Continuous
 62
     7
370
    25
100
AcDbCircle
 10
169.1983434976
 20
70.152728586
 30
0.0
 40
1.548886735692404
100
AcDbArc
 50
45.0
 51
315.0
  0
LINE
  5
D7
330
1F
100
AcDbEntity
  8
0
  6
Continuous
 62
     7
370
    25
100
AcDbLine
 10
170.2935718116
 20
69.0575002719
 30
0.0
 11
169.826961426
 21
69.5241106575
 31
0.0
  0
ARC
  5
D8
330
1F
100
AcDbEntity
  8
0
  6
Continuous
 62
     7
370
    25
100
AcDbCircle
 10
172.5404880939
 20
70.152728586
 30
0.0
 40
0.8889999999999768
100
AcDbArc
 50
45.0
 51
159.0751675724
  0
LINE
  5
D9
330
1F
100
AcDbEntity
  8
0
  6
Continuous
 62
     7
370
    25
100
AcDbLine
 10
173.1691060224
 20
70.7813465145
 30
0.0
 11
173.635716408
 21
71.2479569001
 31
0.0
  0
ARC
  5
DA
330
1F
100
AcDbEntity
  8
0
  6
Continuous
 62
     7
370
    25
100
AcDbCircle
 10
172.5404880939
 20
70.152728586
 30
0.0
 40
1.548886735692373
100
AcDbArc
 50
45.0
 51
315.0
  0
LINE
  5
DB
330
1F
100
AcDbEntity
  8
0
  6
Continuous
 62
     7
370
    25
100
AcDbLine
 10
173.635716408
 20
69.0575002719
 30
0.0
 11
173.1691060224
 21
69.5241106575
 31
0.0
  0
ARC
  5
DC
330
1F
100
AcDbEntity
  8
0
  6
Continuous
 62
     7
370
    25
100
AcDbCircle
 10
172.5404880939
 20
70.152728586
 30
0.0
 40
0.889000000000014
100
AcDbArc
 50
200.9248324276
 51
315.0
  0
LINE
  5
DD
330
1F
100
AcDbEntity
  8
0
  6
Continuous
 62
     7
370
    25
100
AcDbLine
 10
171.7101178452
 20
69.835228586
 30
0.0
 11
173.635716408
 21
69.835228586
 31
0.0
  0
LINE
  5
DE
330
1F
100
AcDbEntity
  8
0
  6
Continuous
 62
     7
370
    25
100
AcDbLine
 10
173.635716408
 20
69.835228586
 30
0.0
 11
173.635716408
 21
70.470228586
 31
0.0
  0
LINE
  5
DF
330
1F
100
AcDbEntity
  8
0
  6
Continuous
 62
     7
370
    25
100
AcDbLine
 10
173.635716408
 20
70.470228586
 30
0.0
 11
171.7101178452
 21
70.470228586
 31
0.0
  0
LINE
  5
E0
330
1F
100
AcDbEntity
  8
0
  6
Continuous
 62
     7
370
    25
100
AcDbLine
 10
166.7458532279
 20
69.3072745617
 30
0.0
 11
166.7042029086
 21
69.2834696319
 31
0.0
  0
ELLIPSE
  5
E1
330
1F
100
AcDbEntity
  8
0
  6
Continuous
 62
     7
370
    25
100
AcDbEllipse
 10
166.355359729
 20
69.8381521031
 30
0.0
 11
0.678412947925267
 21
6.110667527536863E-13
 31
0.0
210
0.0
220
0.0
230
1.0
 40
0.9533039403
 41
3.470145824140285
 42
5.252469180536334
  0
LINE
  5
E2
330
1F
100
AcDbEntity
  8
0
  6
Continuous
 62
     7
370
    25
100
AcDbLine
 10
165.713234962
 20
69.6294679881
 30
0.0
 11
164.4535807571
 21
73.1519123848
 31
0.0
  0
ELLIPSE
  5
E3
330
1F
100
AcDbEntity
  8
0
  6
Continuous
 62
     7
370
    25
100
AcDbEllipse
 10
163.8625981992
 20
72.8895731487
 30
0.0
 11
0.6519124952381503
 21
6.110667527536862E-13
 31
0.0
210
0.0
220
0.0
230
1.0
 40
0.9533023292
 41
0.4357905044354869
 42
2.705800116361524
  0
LINE
  5
E4
330
1F
100
AcDbEntity
  8
0
  6
Continuous
 62
     7
370
    25
100
AcDbLine
 10
163.2716162007
 20
73.15191353
 30
0.0
 11
162.012251399
 21
69.6302901283
 31
0.0
  0
ELLIPSE
  5
E5
330
1F
100
AcDbEntity
  8
0
  6
Continuous
 62
     7
370
    25
100
AcDbEllipse
 10
161.370130215
 20
69.838972962
 30
0.0
 11
-0.6784085062757583
 21
3.126388037344441E-13
 31
0.0
210
0.0
220
0.0
230
1.0
 40
0.9533122623
 41
1.047193771187964
 42
2.813042320199929
  0
LINE
  5
E6
330
1F
100
AcDbEntity
  8
0
  6
Continuous
 62
     7
370
    25
100
AcDbLine
 10
161.030923741
 20
69.2788851167
 30
0.0
 11
160.9793431705
 21
69.3072745617
 31
0.0
  0
LINE
  5
E7
330
1F
100
AcDbEntity
  8
0
  6
Continuous
 62
     7
370
    25
100
AcDbLine
 10
160.9793431705
 20
69.3072745617
 30
0.0
 11
161.77561183
 21
67.7891024603
 31
0.0
  0
ELLIPSE
  5
E8
330
1F
100
AcDbEntity
  8
0
  6
Continuous
 62
     7
370
    25
100
AcDbEllipse
 10
161.8514607034
 20
67.8252559753
 30
0.0
 11
0.08480161849064416
 21
-2.842170943040401E-14
 31
0.0
210
0.0
220
0.0
230
1.0
 40
0.9533039403
 41
3.605240262590998
 42
5.462183310215358
  0
ELLIPSE
  5
E9
330
1F
100
AcDbEntity
  8
0
  6
Continuous
 62
     7
370
    25
100
AcDbEllipse
 10
163.8625981992
 20
65.7664073547
 30
0.0
 11
2.866293551216188
 21
-1.492139745096211E-12
 31
0.0
210
0.0
220
0.0
230
1.0
 40
0.9533046568
 41
0.8210016221243828
 42
2.320591031466446
  0
ELLIPSE
  5
EA
330
1F
100
AcDbEntity
  8
0
  6
Continuous
 62
     7
370
    25
100
AcDbEllipse
 10
165.8737356949
 20
67.8252559753
 30
0.0
 11
0.08480161849061574
 21
0.0
 31
0.0
210
0.0
220
0.0
230
1.0
 40
0.9533039403
 41
3.962594650556246
 42
5.819537698177028
  0
LINE
  5
EB
330
1F
100
AcDbEntity
  8
0
  6
Continuous
 62
     7
370
    25
100
AcDbLine
 10
165.9495845683
 20
67.7891024603
 30
0.0
 11
166.7458532279
 21
69.3072745617
 31
0.0
  0
LINE
  5
EC
330
1F
100
AcDbEntity
  8
0
  6
Continuous
 62
     7
370
    25
100
AcDbLine
 10
174.1638482188
 20
66.7296475793
 30
0.0
 11
171.6476121418
 21
66.7296475793
 31
0.0
  0
LINE
  5
ED
330
1F
100
AcDbEntity
  8
0
  6
Continuous
 62
     7
370
    25
100
AcDbLine
 10
171.6476121418
 20
62.9247363677
 30
0.0
 11
171.6476121418
 21
66.7296475793
 31
0.0
  0
LINE
  5
EE
330
1F
100
AcDbEntity
  8
0
  6
Continuous
 62
     7
370
    25
100
AcDbLine
 10
163.6476121418
 20
62.9247363677
 30
0.0
 11
163.6476121418
 21
66.7296475793
 31
0.0
  0
LINE
  5
EF
330
1F
100
AcDbEntity
  8
0
  6
Continuous
 62
     7
370
    25
100
AcDbLine
 10
163.6476121418
 20
66.7296475793
 30
0.0
 11
161.1313760649
 21
66.7296475793
 31
0.0
  0
SPLINE
  5
F0
330
1F
100
AcDbEntity
  8
0
  6
Continuous
 62
     7
370
    25
100
AcDbSpline
210
0.0
220
0.0
230
1.0
 70
     8
 71
     3
 72
    10
 73
     6
 74
     0
 42
0.00000001
 43
0.00000001
 40
0.0
 40
0.0
 40
0.0
 40
0.0
 40
0.5
 40
0.5
 40
1.0
 40
1.0
 40
1.0
 40
1.0
 10
172.2664142953475
 20
62.76325103946017
 30
0.0
 10
172.35230135715
 20
62.73957564503575
 30
0.0
 10
172.4397085661302
 20
62.72648453515113
 30
0.0
 10
172.5923450087241
 20
62.7263982138629
 30
0.0
 10
172.6564680536698
 20
62.73956714780685
 30
0.0
 10
172.6994269972401
 20
62.7632510394604
 30
0.0
  0
LINE
  5
F1
330
1F
100
AcDbEntity
  8
0
  6
Continuous
 62
     7
370
    25
100
AcDbLine
 10
172.6994269972
 20
62.7632510395
 30
0.0
 11
172.6994269972
 21
58.7296475793
 31
0.0
  0
LINE
  5
F2
330
1F
100
AcDbEntity
  8
0
  6
Continuous
 62
     7
370
    25
100
AcDbLine
 10
172.6994269972
 20
58.7296475793
 30
0.0
 11
172.2664142953
 21
58.7296475793
 31
0.0
  0
LINE
  5
F3
330
1F
100
AcDbEntity
  8
0
  6
Continuous
 62
     7
370
    25
100
AcDbLine
 10
163.5938511353
 20
70.1552157228
 30
0.0
 11
164.2011994941
 21
70.1552157228
 31
0.0
  0
LINE
  5
F4
330
1F
100
AcDbEntity
  8
0
  6
Continuous
 62
     7
370
    25
100
AcDbLine
 10
164.2810607325
 20
70.2632474516
 30
0.0
 11
163.9773865548
 21
71.0738300688
 31
0.0
  0
ELLIPSE
  5
F5
330
1F
100
AcDbEntity
  8
0
  6
Continuous
 62
     7
370
    25
100
AcDbEllipse
 10
164.2011994941
 20
70.2360574399
 30
0.0
 11
-0.08480161849067258
 21
-4.263256414560601E-14
 31
0.0
210
0.0
220
0.0
230
1.0
 40
0.9533039403
 41
1.570796326794417
 42
3.484616592149587
  0
ELLIPSE
  5
F6
330
1F
100
AcDbEntity
  8
0
  6
Continuous
 62
     7
370
    25
100
AcDbEllipse
 10
163.5938511353
 20
70.2360574399
 30
0.0
 11
0.08480161849067258
 21
-1.421085471520200E-14
 31
0.0
210
0.0
220
0.0
230
1.0
 40
0.9533039403
 41
2.798568711308498
 42
4.712388980384862
  0
LINE
  5
F7
330
1F
100
AcDbEntity
  8
0
  6
Continuous
 62
     7
370
    25
100
AcDbLine
 10
163.8176640782
 20
71.0738300688
 30
0.0
 11
163.5139898971
 21
70.2632474519
 31
0.0
  0
ELLIPSE
  5
F8
330
1F
100
AcDbEntity
  8
0
  6
Continuous
 62
     7
370
    25
100
AcDbEllipse
 10
163.8975253165
 20
71.0466400569
 30
0.0
 11
0.08480161849067258
 21
0.0
 31
0.0
210
0.0
220
0.0
230
1.0
 40
0.9533039403
 41
0.3430239404205229
 42
2.798568713169157
  0
LINE
  5
F9
330
1F
100
AcDbEntity
  8
0
  6
Continuous
 62
     7
370
    25
100
AcDbLine
 10
178.4698907366
 20
65.6778327239
 30
0.0
 11
174.3253335471
 21
65.6778327239
 31
0.0
  0
SPLINE
  5
FA
330
1F
100
AcDbEntity
  8
0
  6
Continuous
 62
     7
370
    25
100
AcDbSpline
210
0.0
220
0.0
230
1.0
 70
     8
 71
     3
 72
    10
 73
     6
 74
     0
 42
0.00000001
 43
0.00000001
 40
0.0
 40
0.0
 40
0.0
 40
0.0
 40
0.5
 40
0.5
 40
1.0
 40
1.0
 40
1.0
 40
1.0
 10
174.3253335470874
 20
65.67783272390596
 30
0.0
 10
174.3490089415117
 20
65.72077625480713
 30
0.0
 10
174.3621000513997
 20
65.78421869943091
 30
0.0
 10
174.362186372688
 20
65.93669753655
 30
0.0
 10
174.3490174387442
 20
66.02492753865742
 30
0.0
 10
174.3253335470907
 20
66.11084542579817
 30
0.0
  0
SPLINE
  5
FB
330
1F
100
AcDbEntity
  8
0
  6
Continuous
 62
     7
370
    25
100
AcDbSpline
210
0.0
220
0.0
230
1.0
 70
     8
 71
     3
 72
    10
 73
     6
 74
     0
 42
0.00000001
 43
0.00000001
 40
0.0
 40
0.0
 40
0.0
 40
0.0
 40
0.5
 40
0.5
 40
1.0
 40
1.0
 40
1.0
 40
1.0
 10
178.4698907365703
 20
66.11084542579819
 30
0.0
 10
178.4462168360143
 20
66.02496378329172
 30
0.0
 10
178.4331242788352
 20
65.9375545773263
 30
0.0
 10
178.4330378648529
 20
65.78491209225136
 30
0.0
 10
178.4462082564515
 20
65.720789107169
 30
0.0
 10
178.4698907365703
 20
65.67783272390596
 30
0.0
  0
LINE
  5
FC
330
1F
100
AcDbEntity
  8
0
  6
Continuous
 62
     7
370
    25
100
AcDbLine
 10
162.5957972864
 20
58.7296475793
 30
0.0
 11
162.5957972864
 21
62.7632510395
 31
0.0
  0
SPLINE
  5
FD
330
1F
100
AcDbEntity
  8
0
  6
Continuous
 62
     7
370
    25
100
AcDbSpline
210
0.0
220
0.0
230
1.0
 70
     8
 71
     3
 72
    10
 73
     6
 74
     0
 42
0.00000001
 43
0.00000001
 40
0.0
 40
0.0
 40
0.0
 40
0.0
 40
0.5
 40
0.5
 40
1.0
 40
1.0
 40
1.0
 40
1.0
 10
162.5957972864213
 20
62.76325103946019
 30
0.0
 10
162.6387408173225
 20
62.73957564503579
 30
0.0
 10
162.7021832619466
 20
62.72648453515116
 30
0.0
 10
162.8546620990655
 20
62.72639821386287
 30
0.0
 10
162.9428921011728
 20
62.73956714780672
 30
0.0
 10
163.0288099883135
 20
62.76325103946018
 30
0.0
  0
LINE
  5
FE
330
1F
100
AcDbEntity
  8
0
  6
Continuous
 62
     7
370
    25
100
AcDbLine
 10
163.0288099883
 20
58.7296475793
 30
0.0
 11
162.5957972864
 21
58.7296475793
 31
0.0
  0
LINE
  5
FF
330
1F
100
AcDbEntity
  8
0
  6
Continuous
 62
     7
370
    25
100
AcDbLine
 10
161.6476121418
 20
66.7296475793
 30
0.0
 11
161.6476121418
 21
64.7296475793
 31
0.0
  0
SPLINE
  5
100
330
1F
100
AcDbEntity
  8
0
  6
Continuous
 62
     7
370
    25
100
AcDbSpline
210
0.0
220
0.0
230
1.0
 70
     8
 71
     3
 72
     8
 73
     4
 74
     0
 42
0.00000001
 43
0.00000001
 40
0.0
 40
0.0
 40
0.0
 40
0.0
 40
1.0
 40
1.0
 40
1.0
 40
1.0
 10
161.6476121418305
 20
64.72964757931518
 30
0.0
 10
161.6078334836403
 20
64.59226249031508
 30
0.0
 10
161.5673445208121
 20
64.45555840850331
 30
0.0
 10
161.5262286503343
 20
64.31952604598995
 30
0.0
  0
SPLINE
  5
101
330
1F
100
AcDbEntity
  8
0
  6
Continuous
 62
     7
370
    25
100
AcDbSpline
210
0.0
220
0.0
230
1.0
 70
     8
 71
     3
 72
     8
 73
     4
 74
     0
 42
0.00000001
 43
0.00000001
 40
0.0
 40
0.0
 40
0.0
 40
0.0
 40
1.0
 40
1.0
 40
1.0
 40
1.0
 10
160.9698907365703
 20
65.67783272390596
 30
0.0
 10
161.2170645174542
 20
65.22949743085464
 30
0.0
 10
161.4107861857582
 20
64.77732294011105
 30
0.0
 10
161.5262286503343
 20
64.31952604598995
 30
0.0
  0
SPLINE
  5
102
330
1F
100
AcDbEntity
  8
0
  6
Continuous
 62
     7
370
    25
100
AcDbSpline
210
0.0
220
0.0
230
1.0
 70
     8
 71
     3
 72
    10
 73
     6
 74
     0
 42
0.00000001
 43
0.00000001
 40
0.0
 40
0.0
 40
0.0
 40
0.0
 40
0.5
 40
0.5
 40
1.0
 40
1.0
 40
1.0
 40
1.0
 10
160.9698907365702
 20
66.11084542579817
 30
0.0
 10
160.9462153421458
 20
66.02495836399572
 30
0.0
 10
160.9331242322612
 20
65.9375511550156
 30
0.0
 10
160.933037910973
 20
65.78491471242185
 30
0.0
 10
160.9462068449168
 20
65.72079166747626
 30
0.0
 10
160.9698907365703
 20
65.67783272390596
 30
0.0
  0
SPLINE
  5
103
330
1F
100
AcDbEntity
  8
0
  6
Continuous
 62
     7
370
    25
100
AcDbSpline
210
0.0
220
0.0
230
1.0
 70
     8
 71
     3
 72
     8
 73
     4
 74
     0
 42
0.00000001
 43
0.00000001
 40
0.0
 40
0.0
 40
0.0
 40
0.0
 40
1.0
 40
1.0
 40
1.0
 40
1.0
 10
160.3582359572139
 20
63.44027139468646
 30
0.0
 10
160.6672530998556
 20
63.54127650251658
 30
0.0
 10
160.9825708561736
 20
63.63793329158251
 30
0.0
 10
161.3050501830166
 20
63.72964757931519
 30
0.0
  0
SPLINE
  5
104
330
1F
100
AcDbEntity
  8
0
  6
Continuous
 62
     7
370
    25
100
AcDbSpline
210
0.0
220
0.0
230
1.0
 70
     8
 71
     3
 72
    12
 73
     8
 74
     0
 42
0.00000001
 43
0.00000001
 40
0.0
 40
0.0
 40
0.0
 40
0.0
 40
0.2500000000000002
 40
0.2500000000000002
 40
0.5000000000000004
 40
0.5000000000000004
 40
1.0
 40
1.0
 40
1.0
 40
1.0
 10
160.3582359572086
 20
63.44027139468032
 30
0.0
 10
160.5482621325118
 20
63.43656290882389
 30
0.0
 10
160.7384771951976
 20
63.41798040598621
 30
0.0
 10
161.1154139543301
 20
63.35311336902006
 30
0.0
 10
161.3027367455895
 20
63.30684781576981
 30
0.0
 10
161.8616467019037
 20
63.13112328546285
 30
0.0
 10
162.230182360014
 20
62.96481987668609
 30
0.0
 10
162.5957972864213
 20
62.76325103946019
 30
0.0
  0
SPLINE
  5
105
330
1F
100
AcDbEntity
  8
0
  6
Continuous
 62
     7
370
    25
100
AcDbSpline
210
0.0
220
0.0
230
1.0
 70
     8
 71
     3
 72
    10
 73
     6
 74
     0
 42
0.00000001
 43
0.00000001
 40
0.0
 40
0.0
 40
0.0
 40
0.0
 40
0.5
 40
0.5
 40
1.0
 40
1.0
 40
1.0
 40
1.0
 10
156.8253335470907
 20
75.78146243472442
 30
0.0
 10
156.8490057870022
 20
75.73852462562517
 30
0.0
 10
156.8620997769375
 20
75.67508403573298
 30
0.0
 10
156.8621866443989
 20
75.52259489022414
 30
0.0
 10
156.8490168546396
 20
75.43436550102082
 30
0.0
 10
156.8253335470907
 20
75.3484497328322
 30
0.0
  0
LINE
  5
106
330
1F
100
AcDbEntity
  8
0
  6
Continuous
 62
     7
370
    25
100
AcDbLine
 10
156.8253335471
 20
75.7814624347
 30
0.0
 11
160.9698907366
 21
75.7814624347
 31
0.0
  0
LINE
  5
107
330
1F
100
AcDbEntity
  8
0
  6
Continuous
 62
     7
370
    25
100
AcDbLine
 10
173.6476121418
 20
78.0908635115
 30
0.0
 11
173.6476121418
 21
74.7296475793
 31
0.0
  0
SPLINE
  5
108
330
1F
100
AcDbEntity
  8
0
  6
Continuous
 62
     7
370
    25
100
AcDbSpline
210
0.0
220
0.0
230
1.0
 70
     8
 71
     3
 72
    10
 73
     6
 74
     0
 42
0.00000001
 43
0.00000001
 40
0.0
 40
0.0
 40
0.0
 40
0.0
 40
0.5
 40
0.5
 40
1.0
 40
1.0
 40
1.0
 40
1.0
 10
174.3253335470907
 20
75.78146243472439
 30
0.0
 10
174.1169127942732
 20
76.15950568412654
 30
0.0
 10
173.9464489589958
 20
76.54027518892241
 30
0.0
 10
173.7114665240574
 20
77.30942371447995
 30
0.0
 10
173.6476121418305
 20
77.6978504426552
 30
0.0
 10
173.6476121418305
 20
78.09086351148292
 30
0.0
  0
SPLINE
  5
109
330
1F
100
AcDbEntity
  8
0
  6
Continuous
 62
     7
370
    25
100
AcDbSpline
210
0.0
220
0.0
230
1.0
 70
     8
 71
     3
 72
    10
 73
     6
 74
     0
 42
0.00000001
 43
0.00000001
 40
0.0
 40
0.0
 40
0.0
 40
0.0
 40
0.5
 40
0.5
 40
1.0
 40
1.0
 40
1.0
 40
1.0
 10
174.3253335470907
 20
75.3484497328322
 30
0.0
 10
174.3490089415151
 20
75.43433679463466
 30
0.0
 10
174.3621000513997
 20
75.52174400361476
 30
0.0
 10
174.362186372688
 20
75.67438044620849
 30
0.0
 10
174.3490174387441
 20
75.73850349115408
 30
0.0
 10
174.3253335470907
 20
75.78146243472439
 30
0.0
  0
SPLINE
  5
10A
330
1F
100
AcDbEntity
  8
0
  6
Continuous
 62
     7
370
    25
100
AcDbSpline
210
0.0
220
0.0
230
1.0
 70
     8
 71
     3
 72
    10
 73
     6
 74
     0
 42
0.00000001
 43
0.00000001
 40
0.0
 40
0.0
 40
0.0
 40
0.0
 40
0.5
 40
0.5
 40
1.0
 40
1.0
 40
1.0
 40
1.0
 10
178.4698907365703
 20
75.78146243472442
 30
0.0
 10
178.4462184966587
 20
75.73852462562517
 30
0.0
 10
178.4331245067235
 20
75.675084035733
 30
0.0
 10
178.433037639262
 20
75.52259489022414
 30
0.0
 10
178.4462074290214
 20
75.43436550102082
 30
0.0
 10
178.4698907365703
 20
75.3484497328322
 30
0.0
  0
SPLINE
  5
10B
330
1F
100
AcDbEntity
  8
0
  6
Continuous
 62
     7
370
    25
100
AcDbSpline
210
0.0
220
0.0
230
1.0
 70
     8
 71
     3
 72
    10
 73
     6
 74
     0
 42
0.00000001
 43
0.00000001
 40
0.0
 40
0.0
 40
0.0
 40
0.0
 40
0.5
 40
0.5
 40
1.0
 40
1.0
 40
1.0
 40
1.0
 10
178.4698907365707
 20
75.78146243472439
 30
0.0
 10
178.678700661237
 20
76.16021158211568
 30
0.0
 10
178.8492348009842
 20
76.54141685852699
 30
0.0
 10
179.0840206060032
 20
77.31064747971476
 30
0.0
 10
179.1476121418305
 20
77.69871518451309
 30
0.0
 10
179.1476121418305
 20
78.09086351148292
 30
0.0
  0
LINE
  5
10C
330
1F
100
AcDbEntity
  8
0
  6
Continuous
 62
     7
370
    25
100
AcDbLine
 10
179.1476121418
 20
70.7296475793
 30
0.0
 11
179.1476121418
 21
78.0908635115
 31
0.0
  0
SPLINE
  5
10D
330
1F
100
AcDbEntity
  8
0
  6
Continuous
 62
     7
370
    25
100
AcDbSpline
210
0.0
220
0.0
230
1.0
 70
     8
 71
     3
 72
    12
 73
     8
 74
     0
 42
0.00000001
 43
0.00000001
 40
0.0
 40
0.0
 40
0.0
 40
0.0
 40
0.2499999999999998
 40
0.2499999999999998
 40
0.4999999999999996
 40
0.4999999999999996
 40
1.0
 40
1.0
 40
1.0
 40
1.0
 10
179.1476121418305
 20
63.36843164714746
 30
0.0
 10
179.1476121418305
 20
63.56343512715326
 30
0.0
 10
179.1318658118085
 20
63.75996978617766
 30
0.0
 10
179.0704207872231
 20
64.1493894737832
 30
0.0
 10
179.0248320279694
 20
64.34287416684347
 30
0.0
 10
178.8483810257128
 20
64.92005776559907
 30
0.0
 10
178.6779233237493
 20
65.30049354738205
 30
0.0
 10
178.4698907365704
 20
65.67783272390598
 30
0.0
  0
LINE
  5
10E
330
1F
100
AcDbEntity
  8
0
  6
Continuous
 62
     7
370
    25
100
AcDbLine
 10
179.1476121418
 20
63.3684316471
 30
0.0
 11
179.1476121418
 21
70.7296475793
 31
0.0
  0
SPLINE
  5
10F
330
1F
100
AcDbEntity
  8
0
  6
Continuous
 62
     7
370
    25
100
AcDbSpline
210
0.0
220
0.0
230
1.0
 70
     8
 71
     3
 72
    10
 73
     6
 74
     0
 42
0.00000001
 43
0.00000001
 40
0.0
 40
0.0
 40
0.0
 40
0.0
 40
0.5
 40
0.5
 40
1.0
 40
1.0
 40
1.0
 40
1.0
 10
156.8253335470902
 20
75.78146243472439
 30
0.0
 10
156.616523622424
 20
76.16021158211568
 30
0.0
 10
156.4459894826767
 20
76.54141685852697
 30
0.0
 10
156.2112036776577
 20
77.31064747971476
 30
0.0
 10
156.1476121418305
 20
77.69871518451309
 30
0.0
 10
156.1476121418305
 20
78.09086351148292
 30
0.0
  0
LINE
  5
110
330
1F
100
AcDbEntity
  8
0
  6
Continuous
 62
     7
370
    25
100
AcDbLine
 10
156.1476121418
 20
70.7296475793
 30
0.0
 11
156.1476121418
 21
78.0908635115
 31
0.0
  0
SPLINE
  5
111
330
1F
100
AcDbEntity
  8
0
  6
Continuous
 62
     7
370
    25
100
AcDbSpline
210
0.0
220
0.0
230
1.0
 70
     8
 71
     3
 72
     8
 73
     4
 74
     0
 42
0.00000001
 43
0.00000001
 40
0.0
 40
0.0
 40
0.0
 40
0.0
 40
1.0
 40
1.0
 40
1.0
 40
1.0
 10
173.7689956333266
 20
64.31952604598995
 30
0.0
 10
173.7278803576854
 20
64.4555564404795
 30
0.0
 10
173.6873913748175
 20
64.59226050511694
 30
0.0
 10
173.6476121418305
 20
64.72964757931518
 30
0.0
  0
LINE
  5
112
330
1F
100
AcDbEntity
  8
0
  6
Continuous
 62
     7
370
    25
100
AcDbLine
 10
173.6476121418
 20
66.7296475793
 30
0.0
 11
173.6476121418
 21
64.7296475793
 31
0.0
  0
SPLINE
  5
113
330
1F
100
AcDbEntity
  8
0
  6
Continuous
 62
     7
370
    25
100
AcDbSpline
210
0.0
220
0.0
230
1.0
 70
     8
 71
     3
 72
     8
 73
     4
 74
     0
 42
0.00000001
 43
0.00000001
 40
0.0
 40
0.0
 40
0.0
 40
0.0
 40
1.0
 40
1.0
 40
1.0
 40
1.0
 10
173.7689956333266
 20
64.31952604598995
 30
0.0
 10
173.8846282433557
 20
64.77807697804771
 30
0.0
 10
174.0785176481761
 20
65.23014657380597
 30
0.0
 10
174.3253335470905
 20
65.67783272390571
 30
0.0
  0
SPLINE
  5
114
330
1F
100
AcDbEntity
  8
0
  6
Continuous
 62
     7
370
    25
100
AcDbSpline
210
0.0
220
0.0
230
1.0
 70
     8
 71
     3
 72
    10
 73
     6
 74
     0
 42
0.00000001
 43
0.00000001
 40
0.0
 40
0.0
 40
0.0
 40
0.0
 40
0.5
 40
0.5
 40
1.0
 40
1.0
 40
1.0
 40
1.0
 10
156.8253335470907
 20
66.11084542579817
 30
0.0
 10
156.8490074476466
 20
66.02496378329172
 30
0.0
 10
156.8621000048257
 20
65.9375545773263
 30
0.0
 10
156.862186418808
 20
65.78491209225136
 30
0.0
 10
156.8490160272094
 20
65.720789107169
 30
0.0
 10
156.8253335470907
 20
65.67783272390596
 30
0.0
  0
SPLINE
  5
115
330
1F
100
AcDbEntity
  8
0
  6
Continuous
 62
     7
370
    25
100
AcDbSpline
210
0.0
220
0.0
230
1.0
 70
     8
 71
     3
 72
    12
 73
     8
 74
     0
 42
0.00000001
 43
0.00000001
 40
0.0
 40
0.0
 40
0.0
 40
0.0
 40
0.2499999999999999
 40
0.2499999999999999
 40
0.4999999999999998
 40
0.4999999999999998
 40
1.0
 40
1.0
 40
1.0
 40
1.0
 10
156.1476121418305
 20
63.36843164714745
 30
0.0
 10
156.1476121418305
 20
63.56343512715325
 30
0.0
 10
156.1633584718524
 20
63.75996978617766
 30
0.0
 10
156.2248034964379
 20
64.1493894737832
 30
0.0
 10
156.2703922556916
 20
64.34287416684347
 30
0.0
 10
156.4468432579482
 20
64.92005776559907
 30
0.0
 10
156.6173009599117
 20
65.30049354738205
 30
0.0
 10
156.8253335470905
 20
65.67783272390598
 30
0.0
  0
LINE
  5
116
330
1F
100
AcDbEntity
  8
0
  6
Continuous
 62
     7
370
    25
100
AcDbLine
 10
156.1476121418
 20
63.3684316471
 30
0.0
 11
156.1476121418
 21
70.7296475793
 31
0.0
  0
LINE
  5
117
330
1F
100
AcDbEntity
  8
0
  6
Continuous
 62
     7
370
    25
100
AcDbLine
 10
174.3253335471
 20
75.7814624347
 30
0.0
 11
178.4698907366
 21
75.7814624347
 31
0.0
  0
LINE
  5
118
330
1F
100
AcDbEntity
  8
0
  6
Continuous
 62
     7
370
    25
100
AcDbLine
 10
160.9698907366
 20
65.6778327239
 30
0.0
 11
156.8253335471
 21
65.6778327239
 31
0.0
  0
SPLINE
  5
119
330
1F
100
AcDbEntity
  8
0
  6
Continuous
 62
     7
370
    25
100
AcDbSpline
210
0.0
220
0.0
230
1.0
 70
     8
 71
     3
 72
     8
 73
     4
 74
     0
 42
0.00000001
 43
0.00000001
 40
0.0
 40
0.0
 40
0.0
 40
0.0
 40
1.0
 40
1.0
 40
1.0
 40
1.0
 10
173.9901741006443
 20
63.72964757931519
 30
0.0
 10
174.3126534274936
 20
63.63793329158074
 30
0.0
 10
174.6279711838176
 20
63.54127650251283
 30
0.0
 10
174.9369883264651
 20
63.44027139468057
 30
0.0
  0
SPLINE
  5
11A
330
1F
100
AcDbEntity
  8
0
  6
Continuous
 62
     7
370
    25
100
AcDbSpline
210
0.0
220
0.0
230
1.0
 70
     8
 71
     3
 72
    10
 73
     6
 74
     0
 42
0.00000001
 43
0.00000001
 40
0.0
 40
0.0
 40
0.0
 40
0.0
 40
0.5
 40
0.5
 40
1.0
 40
1.0
 40
1.0
 40
1.0
 10
172.69942699724
 20
62.76325103946034
 30
0.0
 10
173.0659449440805
 20
62.96531772501127
 30
0.0
 10
173.4350251695463
 20
63.13171049728192
 30
0.0
 10
174.1802775177737
 20
63.36575747115196
 30
0.0
 10
174.5564902897215
 20
63.43284572511079
 30
0.0
 10
174.9369883264651
 20
63.44027139468057
 30
0.0
  0
SPLINE
  5
11B
330
1F
100
AcDbEntity
  8
0
  6
Continuous
 62
     7
370
    25
100
AcDbSpline
210
0.0
220
0.0
230
1.0
 70
     8
 71
     3
 72
    12
 73
     8
 74
     0
 42
0.00000001
 43
0.00000001
 40
0.0
 40
0.0
 40
0.0
 40
0.0
 40
0.2499999999999999
 40
0.2499999999999999
 40
0.4999999999999998
 40
0.4999999999999998
 40
1.0
 40
1.0
 40
1.0
 40
1.0
 10
173.6476121418305
 20
78.09086351148292
 30
0.0
 10
173.6476121418305
 20
78.28660577436244
 30
0.0
 10
173.6634550779194
 20
78.48327238355299
 30
0.0
 10
173.7249579381571
 20
78.87254061088129
 30
0.0
 10
173.7705615792008
 20
79.0659446438342
 30
0.0
 10
173.94701259669
 20
79.64287369509096
 30
0.0
 10
174.1174099639419
 20
80.02312312829396
 30
0.0
 10
174.3253335470907
 20
80.40026458824143
 30
0.0
  0
LINE
  5
11C
330
1F
100
AcDbEntity
  8
0
  6
Continuous
 62
     7
370
    25
100
AcDbLine
 10
178.4698907366
 20
80.4002645882
 30
0.0
 11
174.3253335471
 21
80.4002645882
 31
0.0
  0
SPLINE
  5
11D
330
1F
100
AcDbEntity
  8
0
  6
Continuous
 62
     7
370
    25
100
AcDbSpline
210
0.0
220
0.0
230
1.0
 70
     8
 71
     3
 72
    12
 73
     8
 74
     0
 42
0.00000001
 43
0.00000001
 40
0.0
 40
0.0
 40
0.0
 40
0.0
 40
0.2500000000000002
 40
0.2500000000000002
 40
0.5
 40
0.5
 40
1.0
 40
1.0
 40
1.0
 40
1.0
 10
179.1476121418305
 20
78.09086351148292
 30
0.0
 10
179.1476121418305
 20
78.28586699148872
 30
0.0
 10
179.1318658118085
 20
78.48240165051313
 30
0.0
 10
179.0704207872231
 20
78.87182133811868
 30
0.0
 10
179.0248320279694
 20
79.06530603117893
 30
0.0
 10
178.8483810257128
 20
79.64248962993453
 30
0.0
 10
178.6779233237493
 20
80.02292541171751
 30
0.0
 10
178.4698907365704
 20
80.40026458824144
 30
0.0
  0
ELLIPSE
  5
11E
330
1F
100
AcDbEntity
  8
0
  6
Continuous
 62
     7
370
    25
100
AcDbEllipse
 10
167.6476121418
 20
60.9146930031
 30
0.0
 11
8.5
 21
0.0
 31
0.0
210
0.0
220
0.0
230
1.0
 40
0.5773502692
 41
2.374833212873086
 42
2.53069227991306
  0
LINE
  5
11F
330
1F
100
AcDbEntity
  8
0
  6
Continuous
 62
     7
370
    25
100
AcDbLine
 10
160.3582359572
 20
63.4402713947
 30
0.0
 11
157.9769951329
 21
61.0590305704
 31
0.0
  0
LINE
  5
120
330
1F
100
AcDbEntity
  8
0
  6
Continuous
 62
     7
370
    25
100
AcDbLine
 10
156.8253335471
 20
61.0590305704
 30
0.0
 11
157.9769951329
 21
61.0590305704
 31
0.0
  0
SPLINE
  5
121
330
1F
100
AcDbEntity
  8
0
  6
Continuous
 62
     7
370
    25
100
AcDbSpline
210
0.0
220
0.0
230
1.0
 70
     8
 71
     3
 72
    10
 73
     6
 74
     0
 42
0.00000001
 43
0.00000001
 40
0.0
 40
0.0
 40
0.0
 40
0.0
 40
0.5
 40
0.5
 40
1.0
 40
1.0
 40
1.0
 40
1.0
 10
156.8253335470902
 20
61.05903057038893
 30
0.0
 10
156.6165236224239
 20
61.43777971778022
 30
0.0
 10
156.4459894826767
 20
61.81898499419152
 30
0.0
 10
156.2112036776577
 20
62.58821561537929
 30
0.0
 10
156.1476121418305
 20
62.97628332017761
 30
0.0
 10
156.1476121418305
 20
63.36843164714745
 30
0.0
  0
SPLINE
  5
122
330
1F
100
AcDbEntity
  8
0
  6
Continuous
 62
     7
370
    25
100
AcDbSpline
210
0.0
220
0.0
230
1.0
 70
     8
 71
     3
 72
    12
 73
     8
 74
     0
 42
0.00000001
 43
0.00000001
 40
0.0
 40
0.0
 40
0.0
 40
0.0
 40
0.2499999999999999
 40
0.2499999999999999
 40
0.5
 40
0.5
 40
1.0
 40
1.0
 40
1.0
 40
1.0
 10
156.1476121418305
 20
78.09086351148292
 30
0.0
 10
156.1476121418305
 20
78.28586699148872
 30
0.0
 10
156.1633584718524
 20
78.48240165051313
 30
0.0
 10
156.2248034964379
 20
78.87182133811868
 30
0.0
 10
156.2703922556916
 20
79.06530603117893
 30
0.0
 10
156.4468432579482
 20
79.64248962993453
 30
0.0
 10
156.6173009599117
 20
80.02292541171751
 30
0.0
 10
156.8253335470905
 20
80.40026458824144
 30
0.0
  0
LINE
  5
123
330
1F
100
AcDbEntity
  8
0
  6
Continuous
 62
     7
370
    25
100
AcDbLine
 10
160.9698907366
 20
80.4002645882
 30
0.0
 11
156.8253335471
 21
80.4002645882
 31
0.0
  0
SPLINE
  5
124
330
1F
100
AcDbEntity
  8
0
  6
Continuous
 62
     7
370
    25
100
AcDbSpline
210
0.0
220
0.0
230
1.0
 70
     8
 71
     3
 72
    10
 73
     6
 74
     0
 42
0.00000001
 43
0.00000001
 40
0.0
 40
0.0
 40
0.0
 40
0.0
 40
0.5
 40
0.5
 40
1.0
 40
1.0
 40
1.0
 40
1.0
 10
160.9698907365703
 20
80.40026458824146
 30
0.0
 10
161.1783114893877
 20
80.0222213388393
 30
0.0
 10
161.3487753246651
 20
79.64145183404344
 30
0.0
 10
161.5837577596035
 20
78.8723033084859
 30
0.0
 10
161.6476121418305
 20
78.48387658031065
 30
0.0
 10
161.6476121418305
 20
78.09086351148292
 30
0.0
  0
LINE
  5
125
330
1F
100
AcDbEntity
  8
0
  6
Continuous
 62
     7
370
    25
100
AcDbLine
 10
177.3182291508
 20
61.0590305704
 30
0.0
 11
174.9369883265
 21
63.4402713947
 31
0.0
  0
LINE
  5
126
330
1F
100
AcDbEntity
  8
0
  6
Continuous
 62
     7
370
    25
100
AcDbLine
 10
177.3182291508
 20
58.7296475793
 30
0.0
 11
177.3182291508
 21
61.0590305704
 31
0.0
  0
LINE
  5
127
330
1F
100
AcDbEntity
  8
0
  6
Continuous
 62
     7
370
    25
100
AcDbLine
 10
172.6994269972
 20
58.7296475793
 30
0.0
 11
177.3182291508
 21
58.7296475793
 31
0.0
  0
LINE
  5
128
330
1F
100
AcDbEntity
  8
0
  6
Continuous
 62
     7
370
    25
100
AcDbLine
 10
157.9769951329
 20
61.0590305704
 30
0.0
 11
157.9769951329
 21
58.7296475793
 31
0.0
  0
LINE
  5
129
330
1F
100
AcDbEntity
  8
0
  6
Continuous
 62
     7
370
    25
100
AcDbLine
 10
157.9769951329
 20
58.7296475793
 30
0.0
 11
162.5957972864
 21
58.7296475793
 31
0.0
  0
ELLIPSE
  5
12A
330
1F
100
AcDbEntity
  8
0
  6
Continuous
 62
     7
370
    25
100
AcDbEllipse
 10
167.6476121418
 20
60.9146930031
 30
0.0
 11
8.5
 21
0.0
 31
0.0
210
0.0
220
0.0
230
1.0
 40
0.5773502692
 41
0.6109003736767336
 42
0.7667594407167095
  0
SPLINE
  5
12B
330
1F
100
AcDbEntity
  8
0
  6
Continuous
 62
     7
370
    25
100
AcDbSpline
210
0.0
220
0.0
230
1.0
 70
     8
 71
     3
 72
    10
 73
     6
 74
     0
 42
0.00000001
 43
0.00000001
 40
0.0
 40
0.0
 40
0.0
 40
0.0
 40
0.5000000000000001
 40
0.5000000000000001
 40
1.0
 40
1.0
 40
1.0
 40
1.0
 10
178.4698907365707
 20
61.05903057038893
 30
0.0
 10
178.678700661237
 20
61.43777971778022
 30
0.0
 10
178.8492348009842
 20
61.81898499419152
 30
0.0
 10
179.0840206060032
 20
62.5882156153793
 30
0.0
 10
179.1476121418305
 20
62.97628332017763
 30
0.0
 10
179.1476121418305
 20
63.36843164714746
 30
0.0
  0
LINE
  5
12C
330
1F
100
AcDbEntity
  8
0
  6
Continuous
 62
     7
370
    25
100
AcDbLine
 10
177.3182291508
 20
61.0590305704
 30
0.0
 11
178.4698907366
 21
61.0590305704
 31
0.0
  0
LINE
  5
12D
330
1F
100
AcDbEntity
  8
0
  6
Continuous
 62
     7
370
    25
100
AcDbLine
 10
173.6476121418
 20
64.7296475793
 30
0.0
 11
171.6476121418
 21
66.7296475793
 31
0.0
  0
LINE
  5
12E
330
1F
100
AcDbEntity
  8
0
  6
Continuous
 62
     7
370
    25
100
AcDbLine
 10
171.6476121418
 20
63.7296475793
 30
0.0
 11
174.6102332145
 21
63.7296475793
 31
0.0
  0
LINE
  5
12F
330
1F
100
AcDbEntity
  8
0
  6
Continuous
 62
     7
370
    25
100
AcDbLine
 10
163.6476121418
 20
66.7296475793
 30
0.0
 11
161.6476121418
 21
64.7296475793
 31
0.0
  0
LINE
  5
130
330
1F
100
AcDbEntity
  8
0
  6
Continuous
 62
     7
370
    25
100
AcDbLine
 10
160.6849910692
 20
63.7296475793
 30
0.0
 11
163.6476121418
 21
63.7296475793
 31
0.0
  0
LINE
  5
131
330
1F
100
AcDbEntity
  8
0
  6
Continuous
 62
     7
370
    25
100
AcDbLine
 10
161.6476121418
 20
78.6641020575
 30
0.0
 11
161.6476121418
 21
78.0908635115
 31
0.0
  0
SPLINE
  5
132
330
1F
100
AcDbEntity
  8
0
  6
Continuous
 62
     7
370
    25
100
AcDbSpline
210
0.0
220
0.0
230
1.0
 70
     8
 71
     3
 72
    32
 73
    28
 74
     0
 42
0.00000001
 43
0.00000001
 40
0.0
 40
0.0
 40
0.0
 40
0.0
 40
0.0625000000000001
 40
0.0625000000000001
 40
0.1250000000000001
 40
0.1250000000000001
 40
0.1875000000000002
 40
0.1875000000000002
 40
0.2500000000000003
 40
0.2500000000000003
 40
0.3750000000000003
 40
0.3750000000000003
 40
0.4375000000000003
 40
0.4375000000000003
 40
0.5000000000000002
 40
0.5000000000000002
 40
0.5625000000000002
 40
0.5625000000000002
 40
0.6250000000000001
 40
0.6250000000000001
 40
0.7500000000000001
 40
0.7500000000000001
 40
0.8750000000000002
 40
0.8750000000000002
 40
0.9375000000000001
 40
0.9375000000000001
 40
1.0
 40
1.0
 40
1.0
 40
1.0
 10
173.647612141822
 20
78.66410205753584
 30
0.0
 10
173.4907558059051
 20
78.56914507964015
 30
0.0
 10
173.3177573717495
 20
78.46639190501496
 30
0.0
 10
172.9410527851237
 20
78.2496807033667
 30
0.0
 10
172.738200004667
 20
78.13626199287668
 30
0.0
 10
172.3122187418644
 20
77.90817185617851
 30
0.0
 10
172.0880407815764
 20
77.79286497372665
 30
0.0
 10
171.616689688
 20
77.56454187135188
 30
0.0
 10
171.3680041726349
 20
77.45089185521813
 30
0.0
 10
170.5974316879432
 20
77.12782782398409
 30
0.0
 10
170.0517942778611
 20
76.9349292998206
 30
0.0
 10
169.1690145293647
 20
76.72333537454688
 30
0.0
 10
168.8703754294919
 20
76.66769298842914
 30
0.0
 10
168.2638738287761
 20
76.59202491906531
 30
0.0
 10
167.9537265901102
 20
76.57205167328898
 30
0.0
 10
167.3336411014264
 20
76.57238543954224
 30
0.0
 10
167.0270700639584
 20
76.59238440486502
 30
0.0
 10
166.4204153166502
 20
76.66842319106149
 30
0.0
 10
166.1180422520249
 20
76.72507629119305
 30
0.0
 10
165.2414059492719
 20
76.93585484123888
 30
0.0
 10
164.693351817295
 20
77.12940067181063
 30
0.0
 10
163.6628545500517
 20
77.56201996508644
 30
0.0
 10
163.1952945147723
 20
77.79449660977686
 30
0.0
 10
162.5570809111443
 20
78.1362346106959
 30
0.0
 10
162.3538711729545
 20
78.24985212612428
 30
0.0
 10
161.9775342465601
 20
78.46635451848053
 30
0.0
 10
161.8045556380686
 20
78.56909231492493
 30
0.0
 10
161.6476121418305
 20
78.664102057541
 30
0.0
  0
LINE
  5
133
330
1F
100
AcDbEntity
  8
0
  6
Continuous
 62
     7
370
    25
100
AcDbLine
 10
173.6476121418
 20
78.6641020575
 30
0.0
 11
173.6476121418
 21
78.0908635115
 31
0.0
  0
LINE
  5
134
330
1F
100
AcDbEntity
  8
0
  6
Continuous
 62
     7
370
    25
100
AcDbLine
 10
161.1916500277
 20
49.3184352331
 30
0.0
 11
174.103574256
 21
49.3184352331
 31
0.0
  0
SPLINE
  5
135
330
1F
100
AcDbEntity
  8
0
  6
Continuous
 62
     7
370
    25
100
AcDbSpline
210
0.0
220
0.0
230
1.0
 70
     8
 71
     3
 72
    11
 73
     7
 74
     0
 42
0.00000001
 43
0.00000001
 40
0.0
 40
0.0
 40
0.0
 40
0.0
 40
0.0860363962994498
 40
0.3126240132839471
 40
0.544481681962628
 40
1.0
 40
1.0
 40
1.0
 40
1.0
 10
173.8209593292975
 20
79.5225491730163
 30
0.0
 10
173.8221481463176
 20
79.52656279855466
 30
0.0
 10
173.8264678617389
 20
79.54114680924766
 30
0.0
 10
173.7952883534191
 20
79.43459058514539
 30
0.0
 10
173.7128607445113
 20
79.15404265328644
 30
0.0
 10
173.6736179882363
 20
78.85937550949457
 30
0.0
 10
173.6476121418305
 20
78.66410205753387
 30
0.0
  0
SPLINE
  5
136
330
1F
100
AcDbEntity
  8
0
  6
Continuous
 62
     7
370
    25
100
AcDbSpline
210
0.0
220
0.0
230
1.0
 70
     8
 71
     3
 72
    11
 73
     7
 74
     0
 42
0.00000001
 43
0.00000001
 40
0.0
 40
0.0
 40
0.0
 40
0.0
 40
0.3176434516571593
 40
0.6359740522416724
 40
0.8657087108125157
 40
1.0
 40
1.0
 40
1.0
 40
1.0
 10
161.6476121418305
 20
78.6641020575409
 30
0.0
 10
161.6339733623942
 20
78.79536676643103
 30
0.0
 10
161.6066662991431
 20
79.05818014537417
 30
0.0
 10
161.5186619539331
 20
79.3698236031857
 30
0.0
 10
161.4741023063657
 20
79.5235676040977
 30
0.0
 10
161.4744507163294
 20
79.52205532193892
 30
0.0
 10
161.4745792467912
 20
79.5214974322556
 30
0.0
  0
LINE
  5
137
330
1F
100
AcDbEntity
  8
0
  6
Continuous
 62
     7
370
    25
100
AcDbLine
 10
172.8976121418
 20
47.2296475793
 30
0.0
 11
162.3976121418
 21
47.2296475793
 31
0.0
  0
SPLINE
  5
138
330
1F
100
AcDbEntity
  8
0
  6
Continuous
 62
     7
370
    25
100
AcDbSpline
210
0.0
220
0.0
230
1.0
 70
     8
 71
     3
 72
    10
 73
     6
 74
     0
 42
0.00000001
 43
0.00000001
 40
0.0
 40
0.0
 40
0.0
 40
0.0
 40
0.1601790552921523
 40
0.7197651707804853
 40
1.0
 40
1.0
 40
1.0
 40
1.0
 10
160.9356613034534
 20
80.46254286699117
 30
0.0
 10
160.9348985133601
 20
80.46393509501753
 30
0.0
 10
160.9314709132864
 20
80.47019107674588
 30
0.0
 10
160.9459783780847
 20
80.44368381201795
 30
0.0
 10
160.9639079312025
 20
80.4111279568728
 30
0.0
 10
160.9698907365703
 20
80.40026458824146
 30
0.0
  0
SPLINE
  5
139
330
1F
100
AcDbEntity
  8
0
  6
Continuous
 62
     7
370
    25
100
AcDbSpline
210
0.0
220
0.0
230
1.0
 70
     8
 71
     3
 72
     9
 73
     5
 74
     0
 42
0.00000001
 43
0.00000001
 40
0.0
 40
0.0
 40
0.0
 40
0.0
 40
0.5789479223839301
 40
1.0
 40
1.0
 40
1.0
 40
1.0
 10
178.4698907365703
 20
61.05903057038896
 30
0.0
 10
178.457549846256
 20
61.03658920319658
 30
0.0
 10
178.4362337833821
 20
60.99782687877203
 30
0.0
 10
178.4358256094676
 20
60.99706097591267
 30
0.0
 10
178.4356537469928
 20
60.99673849092249
 30
0.0
  0
LINE
  5
13A
330
1F
100
AcDbEntity
  8
0
  6
Continuous
 62
     7
370
    25
100
AcDbLine
 10
179.1476121418
 20
62.2296475793
 30
0.0
 11
179.1476121418
 21
63.3684316471
 31
0.0
  0
SPLINE
  5
13B
330
1F
100
AcDbEntity
  8
0
  6
Continuous
 62
     7
370
    25
100
AcDbSpline
210
0.0
220
0.0
230
1.0
 70
     8
 71
     3
 72
     9
 73
     5
 74
     0
 42
0.00000001
 43
0.00000001
 40
0.0
 40
0.0
 40
0.0
 40
0.0
 40
0.5797912171256431
 40
1.0
 40
1.0
 40
1.0
 40
1.0
 10
174.3253335470907
 20
80.40026458824143
 30
0.0
 10
174.3376921504371
 20
80.42273823648256
 30
0.0
 10
174.3590077602315
 20
80.46149985890338
 30
0.0
 10
174.3593987027343
 20
80.46223426366159
 30
0.0
 10
174.3595629802076
 20
80.46254286699117
 30
0.0
  0
SPLINE
  5
13C
330
1F
100
AcDbEntity
  8
0
  6
Continuous
 62
     7
370
    25
100
AcDbSpline
210
0.0
220
0.0
230
1.0
 70
     8
 71
     3
 72
    10
 73
     6
 74
     0
 42
0.00000001
 43
0.00000001
 40
0.0
 40
0.0
 40
0.0
 40
0.0
 40
0.1593935212994522
 40
0.7189934545690309
 40
1.0
 40
1.0
 40
1.0
 40
1.0
 10
156.8595705366681
 20
80.46255666770789
 30
0.0
 10
156.8603320636656
 20
80.46394658653449
 30
0.0
 10
156.8637671651815
 20
80.47021624248144
 30
0.0
 10
156.849272542715
 20
80.44373230065764
 30
0.0
 10
156.8313311722223
 20
80.41115489661077
 30
0.0
 10
156.8253335470907
 20
80.40026458824143
 30
0.0
  0
LINE
  5
13D
330
1F
100
AcDbEntity
  8
0
  6
Continuous
 62
     7
370
    25
100
AcDbLine
 10
156.1476121418
 20
78.0908635115
 30
0.0
 11
156.1476121418
 21
79.2296475793
 31
0.0
  0
SPLINE
  5
13E
330
1F
100
AcDbEntity
  8
0
  6
Continuous
 62
     7
370
    25
100
AcDbSpline
210
0.0
220
0.0
230
1.0
 70
     8
 71
     3
 72
     9
 73
     5
 74
     0
 42
0.00000001
 43
0.00000001
 40
0.0
 40
0.0
 40
0.0
 40
0.0
 40
0.5789479223839474
 40
0.9999999999999999
 40
0.9999999999999999
 40
0.9999999999999999
 40
0.9999999999999999
 10
156.8253335470907
 20
61.05903057038895
 30
0.0
 10
156.8376744374049
 20
61.03658920319658
 30
0.0
 10
156.8589905002788
 20
60.99782687877203
 30
0.0
 10
156.8593986741934
 20
60.99706097591267
 30
0.0
 10
156.8595705366681
 20
60.99673849092248
 30
0.0
  0
LINE
  5
13F
330
1F
100
AcDbEntity
  8
0
  6
Continuous
 62
     7
370
    25
100
AcDbLine
 10
156.1476121418
 20
62.2296475793
 30
0.0
 11
156.1476121418
 21
63.3684316471
 31
0.0
  0
SPLINE
  5
140
330
1F
100
AcDbEntity
  8
0
  6
Continuous
 62
     7
370
    25
100
AcDbSpline
210
0.0
220
0.0
230
1.0
 70
     8
 71
     3
 72
    10
 73
     6
 74
     0
 42
0.00000001
 43
0.00000001
 40
0.0
 40
0.0
 40
0.0
 40
0.0
 40
0.1593935212994524
 40
0.7189934545690356
 40
1.0
 40
1.0
 40
1.0
 40
1.0
 10
178.4356537469928
 20
80.46255666770789
 30
0.0
 10
178.4348922199954
 20
80.4639465865345
 30
0.0
 10
178.4314571184795
 20
80.47021624248144
 30
0.0
 10
178.445951740946
 20
80.44373230065764
 30
0.0
 10
178.4638931114387
 20
80.41115489661077
 30
0.0
 10
178.4698907365703
 20
80.40026458824143
 30
0.0
  0
LINE
  5
141
330
1F
100
AcDbEntity
  8
0
  6
Continuous
 62
     7
370
    25
100
AcDbLine
 10
179.1476121418
 20
78.0908635115
 30
0.0
 11
179.1476121418
 21
79.2296475793
 31
0.0
  0
LINE
  5
142
330
1F
100
AcDbEntity
  8
0
  6
Continuous
 62
     7
370
    25
100
AcDbLine
 10
177.3852164489
 20
60.9920432723
 30
0.0
 11
177.3182291508
 21
61.0590305704
 31
0.0
  0
LINE
  5
143
330
1F
100
AcDbEntity
  8
0
  6
Continuous
 62
     7
370
    25
100
AcDbLine
 10
177.3852164489
 20
58.7296475793
 30
0.0
 11
177.3182291508
 21
58.7296475793
 31
0.0
  0
LINE
  5
144
330
1F
100
AcDbEntity
  8
0
  6
Continuous
 62
     7
370
    25
100
AcDbLine
 10
157.9769951329
 20
61.0590305704
 30
0.0
 11
157.9100078348
 21
60.9920432723
 31
0.0
  0
LINE
  5
145
330
1F
100
AcDbEntity
  8
0
  6
Continuous
 62
     7
370
    25
100
AcDbLine
 10
157.9769951329
 20
58.7296475793
 30
0.0
 11
157.9100078348
 21
58.7296475793
 31
0.0
  0
ARC
  5
146
330
1F
100
AcDbEntity
  8
0
  6
Continuous
 62
     7
370
    25
100
AcDbCircle
 10
165.4734373946
 20
95.6734726154
 30
0.0
 40
4.408657033485232
100
AcDbArc
 50
83.0838156236
 51
91.2490959636
  0
SPLINE
  5
147
330
1F
100
AcDbEntity
  8
0
  6
Continuous
 62
     7
370
    25
100
AcDbSpline
210
0.0
220
0.0
230
1.0
 70
     8
 71
     3
 72
    15
 73
    11
 74
     0
 42
0.00000001
 43
0.00000001
 40
0.0
 40
0.0
 40
0.0
 40
0.0
 40
0.1246337044934918
 40
0.2519069547896618
 40
0.3765407248366567
 40
0.4994048858686675
 40
0.6264509366402855
 40
0.7526069675388761
 40
0.8746808545492513
 40
1.0
 40
1.0
 40
1.0
 40
1.0
 10
166.109544278558
 20
100.0563590899632
 30
0.0
 10
166.1055299950619
 20
100.0557227256653
 30
0.0
 10
166.0974164118601
 20
100.0544365198748
 30
0.0
 10
166.0829783269486
 20
100.0527267939772
 30
0.0
 10
166.067845118517
 20
100.0512832355049
 30
0.0
 10
166.0524824922515
 20
100.050178394501
 30
0.0
 10
166.037551609907
 20
100.0494450466546
 30
0.0
 10
166.0240492701919
 20
100.049173660326
 30
0.0
 10
166.0123632442154
 20
100.0493199430073
 30
0.0
 10
166.0070216313621
 20
100.0498041772732
 30
0.0
 10
166.0043157897649
 20
100.0500494704563
 30
0.0
  0
SPLINE
  5
148
330
1F
100
AcDbEntity
  8
0
  6
Continuous
 62
     7
370
    25
100
AcDbSpline
210
0.0
220
0.0
230
1.0
 70
     8
 71
     3
 72
    11
 73
     7
 74
     0
 42
0.00000001
 43
0.00000001
 40
0.0
 40
0.0
 40
0.0
 40
0.0
 40
0.250625429633313
 40
0.5000000000003831
 40
0.7493745703670929
 40
1.0
 40
1.0
 40
1.0
 40
1.0
 10
169.1856800082869
 20
100.0563590897223
 30
0.0
 10
168.9559605086814
 20
100.0877171445101
 30
0.0
 10
168.497668028262
 20
100.1502767475674
 30
0.0
 10
167.6476121434305
 20
100.176320807476
 30
0.0
 10
166.7975562585931
 20
100.1502767477008
 30
0.0
 10
166.3392637781669
 20
100.0877171447151
 30
0.0
 10
166.109544278558
 20
100.0563590899632
 30
0.0
  0
SPLINE
  5
149
330
1F
100
AcDbEntity
  8
0
  6
Continuous
 62
     7
370
    25
100
AcDbSpline
210
0.0
220
0.0
230
1.0
 70
     8
 71
     3
 72
    15
 73
    11
 74
     0
 42
0.00000001
 43
0.00000001
 40
0.0
 40
0.0
 40
0.0
 40
0.0
 40
0.1253187789994368
 40
0.2473923090486592
 40
0.3734477209264249
 40
0.500593709173434
 40
0.6235467583552695
 40
0.7480937818221101
 40
0.8753666599534677
 40
1.0
 40
1.0
 40
1.0
 40
1.0
 10
169.2909084970801
 20
100.0500494701989
 30
0.0
 10
169.2882026591525
 20
100.0498041761166
 30
0.0
 10
169.2828610535435
 20
100.0493199400757
 30
0.0
 10
169.2711781099499
 20
100.0491737098493
 30
0.0
 10
169.2576766903163
 20
100.0494448756758
 30
0.0
 10
169.2427423600232
 20
100.0501783526127
 30
0.0
 10
169.2273752648179
 20
100.0512832651907
 30
0.0
 10
169.2122427700513
 20
100.0527272581787
 30
0.0
 10
169.1978078448539
 20
100.0544365018548
 30
0.0
 10
169.1896942818098
 20
100.0557227195396
 30
0.0
 10
169.1856800082869
 20
100.0563590897223
 30
0.0
  0
ARC
  5
14A
330
1F
100
AcDbEntity
  8
0
  6
Continuous
 62
     7
370
    25
100
AcDbCircle
 10
169.8217868916
 20
95.6734726152
 30
0.0
 40
4.40865703332978
100
AcDbArc
 50
88.7509040274
 51
96.9161843676
  0
LINE
  5
14B
330
1F
100
AcDbEntity
  8
0
  6
Continuous
 62
     7
370
    25
100
AcDbLine
 10
166.0043157898
 20
100.0500494705
 30
0.0
 11
166.0043157898
 21
100.1509289548
 31
0.0
  0
SPLINE
  5
14C
330
1F
100
AcDbEntity
  8
0
  6
Continuous
 62
     7
370
    25
100
AcDbSpline
210
0.0
220
0.0
230
1.0
 70
     8
 71
     3
 72
    15
 73
    11
 74
     0
 42
0.00000001
 43
0.00000001
 40
0.0
 40
0.0
 40
0.0
 40
0.0
 40
0.1253191957979138
 40
0.2473928354984065
 40
0.3734492416489706
 40
0.5005950046079967
 40
0.6235484391777611
 40
0.7480947836179483
 40
0.8753671458153899
 40
1.0
 40
1.0
 40
1.0
 40
1.0
 10
166.0043157897649
 20
100.1509289548189
 30
0.0
 10
166.0070215860973
 20
100.1506848756852
 30
0.0
 10
166.0123631031944
 20
100.1502030386562
 30
0.0
 10
166.0240456757836
 20
100.1500575221027
 30
0.0
 10
166.0375466557708
 20
100.1503273164583
 30
0.0
 10
166.0524806846209
 20
100.151057127024
 30
0.0
 10
166.0678476958099
 20
100.1521565438162
 30
0.0
 10
166.0829804322481
 20
100.1535933990946
 30
0.0
 10
166.0974158620298
 20
100.1552942346776
 30
0.0
 10
166.1055298128591
 20
100.1565741585949
 30
0.0
 10
166.109544278558
 20
100.1572074149174
 30
0.0
  0
LINE
  5
14D
330
1F
100
AcDbEntity
  8
0
  6
Continuous
 62
     7
370
    25
100
AcDbLine
 10
166.1095442786
 20
100.05635909
 30
0.0
 11
166.1095442786
 21
100.1572074149
 31
0.0
  0
ARC
  5
14E
330
1F
100
AcDbEntity
  8
0
  6
Continuous
 62
     7
370
    25
100
AcDbCircle
 10
166.6786965389
 20
84.7397319914
 30
0.0
 40
15.49681493896841
100
AcDbArc
 50
94.6954834628
 51
94.8171561263
  0
SPLINE
  5
14F
330
1F
100
AcDbEntity
  8
0
  6
Continuous
 62
     7
370
    25
100
AcDbSpline
210
0.0
220
0.0
230
1.0
 70
     8
 71
     3
 72
    15
 73
    11
 74
     0
 42
0.00000001
 43
0.00000001
 40
0.0
 40
0.0
 40
0.0
 40
0.0
 40
0.1241930067305288
 40
0.2496556654892299
 40
0.3743703853151211
 40
0.4998404796364203
 40
0.6240146704162364
 40
0.7475381382242064
 40
0.8745858500551822
 40
1.0
 40
1.0
 40
1.0
 40
1.0
 10
166.190417841961
 20
100.2660204502717
 30
0.0
 10
166.1748574468513
 20
100.263624769924
 30
0.0
 10
166.1435775793398
 20
100.2588089176692
 30
0.0
 10
166.0661412198514
 20
100.2492046179462
 30
0.0
 10
165.9727872161125
 20
100.23850157164
 30
0.0
 10
165.8655616100915
 20
100.2270793140998
 30
0.0
 10
165.7511756993706
 20
100.2154832110337
 30
0.0
 10
165.6335049364853
 20
100.2041986038083
 30
0.0
 10
165.5166212112601
 20
100.1934883775549
 30
0.0
 10
165.4454723603653
 20
100.1875080160997
 30
0.0
 10
165.4101281202819
 20
100.1845371834243
 30
0.0
  0
ARC
  5
150
330
1F
100
AcDbEntity
  8
0
  6
Continuous
 62
     7
370
    25
100
AcDbCircle
 10
166.5806604726
 20
97.9307236301
 30
0.0
 40
2.367678303592512
100
AcDbArc
 50
93.3632881502
 51
99.4868245016
  0
ARC
  5
151
330
1F
100
AcDbEntity
  8
0
  6
Continuous
 62
     7
370
    25
100
AcDbCircle
 10
168.7145674976
 20
97.9307648807
 30
0.0
 40
2.36763690767957
100
AcDbArc
 50
80.5187694298
 51
86.6367422679
  0
SPLINE
  5
152
330
1F
100
AcDbEntity
  8
0
  6
Continuous
 62
     7
370
    25
100
AcDbSpline
210
0.0
220
0.0
230
1.0
 70
     8
 71
     3
 72
    15
 73
    11
 74
     0
 42
0.00000001
 43
0.00000001
 40
0.0
 40
0.0
 40
0.0
 40
0.0
 40
0.1253320172137757
 40
0.2522975129251761
 40
0.3758847553984063
 40
0.5001929511416489
 40
0.6255758307380154
 40
0.7502289462456485
 40
0.875744493577783
 40
1.0
 40
1.0
 40
1.0
 40
1.0
 10
169.877277071096
 20
100.1852185454662
 30
0.0
 10
169.842026154468
 20
100.188198137606
 30
0.0
 10
169.7710648886136
 20
100.1941961555356
 30
0.0
 10
169.6550779978252
 20
100.2048565278596
 30
0.0
 10
169.5384816315848
 20
100.2160656490706
 30
0.0
 10
169.4253610250034
 20
100.2275560762992
 30
0.0
 10
169.3194853106639
 20
100.2388538370115
 30
0.0
 10
169.2273762260448
 20
100.2494288506085
 30
0.0
 10
169.1509445621764
 20
100.2589199126371
 30
0.0
 10
169.1199796546771
 20
100.2636872941947
 30
0.0
 10
169.1045753065558
 20
100.2660589597694
 30
0.0
  0
ARC
  5
153
330
1F
100
AcDbEntity
  8
0
  6
Continuous
 62
     7
370
    25
100
AcDbCircle
 10
168.5773624209
 20
84.4595551615
 30
0.0
 40
15.77929868410595
100
AcDbArc
 50
85.1265666159
 51
85.2745602134
  0
ARC
  5
154
330
1F
100
AcDbEntity
  8
0
  6
Continuous
 62
     7
370
    25
100
AcDbCircle
 10
169.8217845683
 20
95.7525516084
 30
0.0
 40
4.430299389721976
100
AcDbArc
 50
88.7569768639
 51
96.8822041625
  0
SPLINE
  5
155
330
1F
100
AcDbEntity
  8
0
  6
Continuous
 62
     7
370
    25
100
AcDbSpline
210
0.0
220
0.0
230
1.0
 70
     8
 71
     3
 72
    15
 73
    11
 74
     0
 42
0.00000001
 43
0.00000001
 40
0.0
 40
0.0
 40
0.0
 40
0.0
 40
0.124633218643854
 40
0.2519059530189772
 40
0.3765391000744918
 40
0.4994035903146518
 40
0.6264494152300148
 40
0.7526064410610419
 40
0.874680437736327
 40
1.0
 40
1.0
 40
1.0
 40
1.0
 10
169.1856800082869
 20
100.1572074146777
 30
0.0
 10
169.1896944839551
 20
100.1565741642106
 30
0.0
 10
169.1978084549337
 20
100.1552942521282
 30
0.0
 10
169.2122470467703
 20
100.1535929364239
 30
0.0
 10
169.2273804967034
 20
100.1521565136372
 30
0.0
 10
169.2427430389851
 20
100.1510571680927
 30
0.0
 10
169.2576736178218
 20
100.1503274860753
 30
0.0
 10
169.2711755178511
 20
100.1500574723163
 30
0.0
 10
169.2828611727375
 20
100.1502030410631
 30
0.0
 10
169.2882026970783
 20
100.1506848763244
 30
0.0
 10
169.2909084970801
 20
100.1509289545626
 30
0.0
  0
SPLINE
  5
156
330
1F
100
AcDbEntity
  8
0
  6
Continuous
 62
     7
370
    25
100
AcDbSpline
210
0.0
220
0.0
230
1.0
 70
     8
 71
     3
 72
    11
 73
     7
 74
     0
 42
0.00000001
 43
0.00000001
 40
0.0
 40
0.0
 40
0.0
 40
0.0
 40
0.2506252605986011
 40
0.4999999999996215
 40
0.7493747394010042
 40
1.0
 40
1.0
 40
1.0
 40
1.0
 10
166.109544278558
 20
100.1572074149174
 30
0.0
 10
166.3392719727314
 20
100.1884118377861
 30
0.0
 10
166.7975811104943
 20
100.250664985761
 30
0.0
 10
167.6476121434305
 20
100.2765795715592
 30
0.0
 10
168.4976431763607
 20
100.2506649856283
 30
0.0
 10
168.955952314117
 20
100.1884118375821
 30
0.0
 10
169.1856800082869
 20
100.1572074146777
 30
0.0
  0
ARC
  5
157
330
1F
100
AcDbEntity
  8
0
  6
Continuous
 62
     7
370
    25
100
AcDbCircle
 10
165.4734397179
 20
95.7525516085
 30
0.0
 40
4.430299389885537
100
AcDbArc
 50
83.1177958287
 51
91.2430231272
  0
SPLINE
  5
158
330
1F
100
AcDbEntity
  8
0
  6
Continuous
 62
     7
370
    25
100
AcDbSpline
210
0.0
220
0.0
230
1.0
 70
     8
 71
     3
 72
    15
 73
    11
 74
     0
 42
0.00000001
 43
0.00000001
 40
0.0
 40
0.0
 40
0.0
 40
0.0
 40
0.1233867499278388
 40
0.2487396502211602
 40
0.3739317114754985
 40
0.4999973617625659
 40
0.6259591330513601
 40
0.7512551380600303
 40
0.8765613478174267
 40
1.0
 40
1.0
 40
1.0
 40
1.0
 10
167.5847292770244
 20
100.3295404766197
 30
0.0
 10
167.5876074782163
 20
100.3295411356918
 30
0.0
 10
167.5934097443279
 20
100.3295424643383
 30
0.0
 10
167.6089391490486
 20
100.3295464139654
 30
0.0
 10
167.6272937309221
 20
100.3295481963148
 30
0.0
 10
167.647606547405
 20
100.3295497498928
 30
0.0
 10
167.6679249651201
 20
100.3295481957579
 30
0.0
 10
167.6862778342842
 20
100.3295464188773
 30
0.0
 10
167.7018159386797
 20
100.3295424513591
 30
0.0
 10
167.707616500711
 20
100.3295411315632
 30
0.0
 10
167.7104950066366
 20
100.3295404766197
 30
0.0
  0
ARC
  5
159
330
1F
100
AcDbEntity
  8
0
  6
Continuous
 62
     7
370
    25
100
AcDbCircle
 10
167.5856237047
 20
97.7851910638
 30
0.0
 40
2.544349570052086
100
AcDbArc
 50
90.0201414662
 51
95.4127462174
  0
SPLINE
  5
15A
330
1F
100
AcDbEntity
  8
0
  6
Continuous
 62
     7
370
    25
100
AcDbSpline
210
0.0
220
0.0
230
1.0
 70
     8
 71
     3
 72
    15
 73
    11
 74
     0
 42
0.00000001
 43
0.00000001
 40
0.0
 40
0.0
 40
0.0
 40
0.0
 40
0.1261585224210642
 40
0.25131214515488
 40
0.3762846848783792
 40
0.4993062783340877
 40
0.6261594278645743
 40
0.7521171342021308
 40
0.8758196922692789
 40
1.0
 40
1.0
 40
1.0
 40
1.0
 10
167.4084986161527
 20
100.3162973452089
 30
0.0
 10
167.403267519664
 20
100.3162464194585
 30
0.0
 10
167.3928469943214
 20
100.3161449736001
 30
0.0
 10
167.378060443807
 20
100.3161407919628
 30
0.0
 10
167.3648700911815
 20
100.3162401307835
 30
0.0
 10
167.3539995163402
 20
100.3164606729866
 30
0.0
 10
167.3459919290117
 20
100.316784540388
 30
0.0
 10
167.341825301979
 20
100.3172044102355
 30
0.0
 10
167.3412042504674
 20
100.3176831273012
 30
0.0
 10
167.3441433628221
 20
100.3180244165468
 30
0.0
 10
167.3456157513048
 20
100.3181953900564
 30
0.0
  0
ARC
  5
15B
330
1F
100
AcDbEntity
  8
0
  6
Continuous
 62
     7
370
    25
100
AcDbCircle
 10
167.6476121418
 20
79.7296475793
 30
0.0
 40
20.58803836847348
100
AcDbArc
 50
89.3345405821
 51
90.66545941
  0
SPLINE
  5
15C
330
1F
100
AcDbEntity
  8
0
  6
Continuous
 62
     7
370
    25
100
AcDbSpline
210
0.0
220
0.0
230
1.0
 70
     8
 71
     3
 72
    15
 73
    11
 74
     0
 42
0.00000001
 43
0.00000001
 40
0.0
 40
0.0
 40
0.0
 40
0.0
 40
0.1241186784437694
 40
0.2478474916628982
 40
0.3736574149478942
 40
0.5005082335853296
 40
0.6234527658309922
 40
0.7484986612277523
 40
0.8736976492452769
 40
1.0
 40
1.0
 40
1.0
 40
1.0
 10
167.9496085350821
 20
100.3181953900231
 30
0.0
 10
167.9510796076909
 20
100.3180245097446
 30
0.0
 10
167.9540171321693
 20
100.3176832859342
 30
0.0
 10
167.9534003976692
 20
100.3172047496467
 30
0.0
 10
167.9492384360746
 20
100.3167849597748
 30
0.0
 10
167.9412396882762
 20
100.3164611719284
 30
0.0
 10
167.9303735967393
 20
100.3162404737228
 30
0.0
 10
167.9171858789147
 20
100.3161408818126
 30
0.0
 10
167.9023914323395
 20
100.3161447962112
 30
0.0
 10
167.8919628414322
 20
100.3162463470166
 30
0.0
 10
167.8867256703178
 20
100.3162973451763
 30
0.0
  0
ARC
  5
15D
330
1F
100
AcDbEntity
  8
0
  6
Continuous
 62
     7
370
    25
100
AcDbCircle
 10
167.7096005789
 20
97.7851910115
 30
0.0
 40
2.544349622297502
100
AcDbArc
 50
84.5872538302
 51
89.9798585321
  0
LINE
  5
15E
330
1F
100
AcDbEntity
  8
0
  6
Continuous
 62
     7
370
    25
100
AcDbLine
 10
169.1856800083
 20
100.0563590897
 30
0.0
 11
169.1856800083
 21
100.1572074147
 31
0.0
  0
LINE
  5
15F
330
1F
100
AcDbEntity
  8
0
  6
Continuous
 62
     7
370
    25
100
AcDbLine
 10
169.2909084971
 20
100.0500494702
 30
0.0
 11
169.2909084971
 21
100.1509289546
 31
0.0
  0
LINE
  5
160
330
1F
100
AcDbEntity
  8
0
  6
Continuous
 62
     7
370
    25
100
AcDbLine
 10
165.3773325933
 20
100.0810820248
 30
0.0
 11
165.3773325933
 21
100.1818084429
 31
0.0
  0
LINE
  5
161
330
1F
100
AcDbEntity
  8
0
  6
Continuous
 62
     7
370
    25
100
AcDbLine
 10
169.9178916936
 20
100.0810820245
 30
0.0
 11
169.9178916936
 21
100.1818084425
 31
0.0
  0
LINE
  5
162
330
1F
100
AcDbEntity
  8
0
  6
Continuous
 62
     7
370
    25
100
AcDbLine
 10
172.7400630744
 20
97.7296475793
 30
0.0
 11
162.5551612093
 21
97.7296475793
 31
0.0
  0
SPLINE
  5
163
330
1F
100
AcDbEntity
  8
0
  6
Continuous
 62
     7
370
    25
100
AcDbSpline
210
0.0
220
0.0
230
1.0
 70
     8
 71
     3
 72
    11
 73
     7
 74
     0
 42
0.00000001
 43
0.00000001
 40
0.0
 40
0.0
 40
0.0
 40
0.0
 40
0.2460416072901215
 40
0.4920717926348662
 40
0.7460790582811389
 40
1.0
 40
1.0
 40
1.0
 40
1.0
 10
174.6106393511679
 20
89.9628235550321
 30
0.0
 10
174.3610502324758
 20
90.57326612439967
 30
0.0
 10
173.8618835817225
 20
91.79412292466895
 30
0.0
 10
173.3087017679454
 20
93.7161245254018
 30
0.0
 10
172.895372474416
 20
95.69542726323397
 30
0.0
 10
172.791827008456
 20
97.05165097205504
 30
0.0
 10
172.7400630744078
 20
97.72964757931518
 30
0.0
  0
SPLINE
  5
164
330
1F
100
AcDbEntity
  8
0
  6
Continuous
 62
     7
370
    25
100
AcDbSpline
210
0.0
220
0.0
230
1.0
 70
     8
 71
     3
 72
    13
 73
     9
 74
     0
 42
0.00000001
 43
0.00000001
 40
0.0
 40
0.0
 40
0.0
 40
0.0
 40
0.0164940201989931
 40
0.1958803672654719
 40
0.3763143282056555
 40
0.5827472646165622
 40
0.8280062032403772
 40
1.0
 40
1.0
 40
1.0
 40
1.0
 10
175.647612085725
 20
88.22964741424347
 30
0.0
 10
175.6475074677783
 20
88.22978468954501
 30
0.0
 10
175.6462650416406
 20
88.23141494924872
 30
0.0
 10
175.5970819991306
 20
88.29694671045257
 30
0.0
 10
175.4240091662577
 20
88.53549333299021
 30
0.0
 10
175.1585819531664
 20
88.93033646027992
 30
0.0
 10
174.8620742256405
 20
89.4234819699422
 30
0.0
 10
174.6840300905941
 20
89.8053963969416
 30
0.0
 10
174.6106393511679
 20
89.9628235550321
 30
0.0
  0
LWPOLYLINE
  5
165
330
1F
100
AcDbEntity
  8
0
  6
Continuous
 62
     7
370
    25
100
AcDbPolyline
 90
       27
 70
   128
 43
0.0
 10
175.6476120857
 20
88.2296474142
 10
175.589150595
 20
88.2296474154
 10
175.4149055112
 20
88.229647419
 10
175.1274172392
 20
88.229647425
 10
174.7308772117
 20
88.2296474331
 10
174.2310667808
 20
88.2296474435
 10
173.6352729283
 20
88.2296474557
 10
172.9521820259
 20
88.2296474698
 10
172.1917531915
 20
88.2296474855
 10
171.3650730909
 20
88.2296475026
 10
170.4841942997
 20
88.2296475208
 10
169.5619595828
 20
88.2296475398
 10
168.6118146535
 20
88.2296475594
 10
167.6476121418
 20
88.2296475793
 10
166.6834096301
 20
88.2296475992
 10
165.7332647009
 20
88.2296476188
 10
164.811029984
 20
88.2296476378
 10
163.9301511928
 20
88.229647656
 10
163.1034710922
 20
88.2296476731
 10
162.3430422578
 20
88.2296476888
 10
161.6599513553
 20
88.2296477028
 10
161.0641575029
 20
88.2296477151
 10
160.564347072
 20
88.2296477255
 10
160.1678070445
 20
88.2296477336
 10
159.8803187724
 20
88.2296477396
 10
159.7060736887
 20
88.2296477432
 10
159.6476121979
 20
88.2296474142
  0
SPLINE
  5
166
330
1F
100
AcDbEntity
  8
0
  6
Continuous
 62
     7
370
    25
100
AcDbSpline
210
0.0
220
0.0
230
1.0
 70
     8
 71
     3
 72
    12
 73
     8
 74
     0
 42
0.00000001
 43
0.00000001
 40
0.0
 40
0.0
 40
0.0
 40
0.0
 40
0.0816308004991864
 40
0.3246136178761977
 40
0.5946331315519718
 40
0.8003997370011066
 40
1.0
 40
1.0
 40
1.0
 40
1.0
 10
160.6845849324931
 20
89.9628235550321
 30
0.0
 10
160.6506385176065
 20
89.88756420081343
 30
0.0
 10
160.5156469643828
 20
89.58828732122197
 30
0.0
 10
160.2356902404293
 20
89.08396220138482
 30
0.0
 10
159.9169618981438
 20
88.59890252788905
 30
0.0
 10
159.6906741176733
 20
88.28673133437786
 30
0.0
 10
159.6618198632091
 20
88.24848143824173
 30
0.0
 10
159.647612197936
 20
88.22964741424347
 30
0.0
  0
SPLINE
  5
167
330
1F
100
AcDbEntity
  8
0
  6
Continuous
 62
     7
370
    25
100
AcDbSpline
210
0.0
220
0.0
230
1.0
 70
     8
 71
     3
 72
    11
 73
     7
 74
     0
 42
0.00000001
 43
0.00000001
 40
0.0
 40
0.0
 40
0.0
 40
0.0
 40
0.2456902021794783
 40
0.4914572396993195
 40
0.7457216020119223
 40
1.0
 40
1.0
 40
1.0
 40
1.0
 10
162.5551612092532
 20
97.7296475793152
 30
0.0
 10
162.5057441393959
 20
97.07360800787346
 30
0.0
 10
162.4068945453518
 20
95.7613237000167
 30
0.0
 10
162.0077038884257
 20
93.80201991706126
 30
0.0
 10
161.4569516951465
 20
91.85609037399225
 30
0.0
 10
160.9420452571481
 20
90.59392410652852
 30
0.0
 10
160.6845849324931
 20
89.9628235550321
 30
0.0
  0
LINE
  5
168
330
1F
100
AcDbEntity
  8
0
  6
Continuous
 62
     7
370
    25
100
AcDbLine
 10
174.6820525401
 20
81.2296475793
 30
0.0
 11
160.6131717435
 21
81.2296475793
 31
0.0
  0
LINE
  5
169
330
1F
100
AcDbEntity
  8
0
  6
Continuous
 62
     7
370
    25
100
AcDbLine
 10
167.6476121418
 20
99.7296475793
 30
0.0
 11
172.7427201252
 21
99.7296475793
 31
0.0
  0
LINE
  5
16A
330
1F
100
AcDbEntity
  8
0
  6
Continuous
 62
     7
370
    25
100
AcDbLine
 10
162.5525041584
 20
99.7296475793
 30
0.0
 11
167.6476121418
 21
99.7296475793
 31
0.0
  0
LINE
  5
16B
330
1F
100
AcDbEntity
  8
0
  6
Continuous
 62
     7
370
    25
100
AcDbLine
 10
172.8572303724
 20
97.7296475793
 30
0.0
 11
172.7400630744
 21
97.7296475793
 31
0.0
  0
ARC
  5
16C
330
1F
100
AcDbEntity
  8
0
  6
Continuous
 62
     7
370
    25
100
AcDbCircle
 10
174.9218550958
 20
99.1393726418
 30
0.0
 40
2.500000000000017
100
AcDbArc
 50
214.3252481179
 51
328.221357821
  0
ARC
  5
16D
330
1F
100
AcDbEntity
  8
0
  6
Continuous
 62
     7
370
    25
100
AcDbCircle
 10
182.1476121418
 20
94.6629415732
 30
0.0
 40
6.00000000000001
100
AcDbArc
 50
115.1026742168
 51
148.221357821
  0
LINE
  5
16E
330
1F
100
AcDbEntity
  8
0
  6
Continuous
 62
     7
370
    25
100
AcDbLine
 10
179.6021620096
 20
100.0962355672
 30
0.0
 11
184.693062274
 21
100.0962355672
 31
0.0
  0
ARC
  5
16F
330
1F
100
AcDbEntity
  8
0
  6
Continuous
 62
     7
370
    25
100
AcDbCircle
 10
182.1476121418
 20
94.6629415732
 30
0.0
 40
6.00000000000001
100
AcDbArc
 50
308.4313932617
 51
64.8973257832
  0
LINE
  5
170
330
1F
100
AcDbEntity
  8
0
  6
Continuous
 62
     7
370
    25
100
AcDbLine
 10
174.6106393512
 20
89.962823555
 30
0.0
 11
185.877074652
 21
89.962823555
 31
0.0
  0
LINE
  5
171
330
1F
100
AcDbEntity
  8
0
  6
Continuous
 62
     7
370
    25
100
AcDbLine
 10
149.4181496316
 20
89.962823555
 30
0.0
 11
160.6845849325
 21
89.962823555
 31
0.0
  0
ARC
  5
172
330
1F
100
AcDbEntity
  8
0
  6
Continuous
 62
     7
370
    25
100
AcDbCircle
 10
153.1476121418
 20
94.6629415732
 30
0.0
 40
6.000000000000022
100
AcDbArc
 50
115.1026742168
 51
231.5686067383
  0
LINE
  5
173
330
1F
100
AcDbEntity
  8
0
  6
Continuous
 62
     7
370
    25
100
AcDbLine
 10
150.6021620096
 20
100.0962355672
 30
0.0
 11
155.693062274
 21
100.0962355672
 31
0.0
  0
ARC
  5
174
330
1F
100
AcDbEntity
  8
0
  6
Continuous
 62
     7
370
    25
100
AcDbCircle
 10
153.1476121418
 20
94.6629415732
 30
0.0
 40
6.00000000000001
100
AcDbArc
 50
31.778642179
 51
64.8973257832
  0
ARC
  5
175
330
1F
100
AcDbEntity
  8
0
  6
Continuous
 62
     7
370
    25
100
AcDbCircle
 10
160.3733691879
 20
99.1393726418
 30
0.0
 40
2.500000000000012
100
AcDbArc
 50
211.778642179
 51
325.6747518821
  0
LINE
  5
176
330
1F
100
AcDbEntity
  8
0
  6
Continuous
 62
     7
370
    25
100
AcDbLine
 10
162.5551612093
 20
97.7296475793
 30
0.0
 11
162.4379939112
 21
97.7296475793
 31
0.0
  0
SPLINE
  5
177
330
1F
100
AcDbEntity
  8
0
  6
Continuous
 62
     7
370
    25
100
AcDbSpline
210
0.0
220
0.0
230
1.0
 70
     8
 71
     3
 72
    17
 73
    13
 74
     0
 42
0.00000001
 43
0.00000001
 40
0.0
 40
0.0
 40
0.0
 40
0.0
 40
0.0051037386011219
 40
0.0335545146957463
 40
0.0512404508406915
 40
0.0783256082042153
 40
0.1200097101225738
 40
0.184942210837869
 40
0.2894088209386605
 40
0.6174789247950602
 40
0.8356014748448779
 40
1.0
 40
1.0
 40
1.0
 40
1.0
 10
153.1476121418305
 20
101.2296475793152
 30
0.0
 10
153.1430983249076
 20
101.2296410870887
 30
0.0
 10
153.1134222485818
 20
101.2295984039642
 30
0.0
 10
153.068103331526
 20
101.228801524032
 30
0.0
 10
153.0033550541597
 20
101.226379167354
 30
0.0
 10
152.9269192014581
 20
101.2219959422061
 30
0.0
 10
152.8087709925077
 20
101.2116305062302
 30
0.0
 10
152.6224350814797
 20
101.1864438180879
 30
0.0
 10
152.1847373013102
 20
101.0944903798524
 30
0.0
 10
151.6166899113664
 20
100.8617897994722
 30
0.0
 10
151.0212702395972
 20
100.4688512109862
 30
0.0
 10
150.7281417237244
 20
100.2082400779869
 30
0.0
 10
150.6021620096274
 20
100.0962355671737
 30
0.0
  0
SPLINE
  5
178
330
1F
100
AcDbEntity
  8
0
  6
Continuous
 62
     7
370
    25
100
AcDbSpline
210
0.0
220
0.0
230
1.0
 70
     8
 71
     3
 72
    17
 73
    13
 74
     0
 42
0.00000001
 43
0.00000001
 40
0.0
 40
0.0
 40
0.0
 40
0.0
 40
0.164398525155122
 40
0.3825210752049397
 40
0.7105911790613394
 40
0.8150577891621317
 40
0.8799902898774276
 40
0.9216743917957886
 40
0.9487595491592797
 40
0.9664454853042047
 40
0.9948962613988785
 40
1.0
 40
1.0
 40
1.0
 40
1.0
 10
155.6930622740335
 20
100.0962355671737
 30
0.0
 10
155.5670825599365
 20
100.2082400779869
 30
0.0
 10
155.2739540440637
 20
100.4688512109862
 30
0.0
 10
154.6785343722945
 20
100.8617897994722
 30
0.0
 10
154.1104869823508
 20
101.0944903798523
 30
0.0
 10
153.6727892021812
 20
101.1864438180879
 30
0.0
 10
153.4864532911532
 20
101.2116305062302
 30
0.0
 10
153.3683050822029
 20
101.2219959422061
 30
0.0
 10
153.2918692295013
 20
101.226379167354
 30
0.0
 10
153.227120952135
 20
101.228801524032
 30
0.0
 10
153.1818020350792
 20
101.2295984039642
 30
0.0
 10
153.1521259587534
 20
101.2296410870887
 30
0.0
 10
153.1476121418305
 20
101.2296475793152
 30
0.0
  0
SPLINE
  5
179
330
1F
100
AcDbEntity
  8
0
  6
Continuous
 62
     7
370
    25
100
AcDbSpline
210
0.0
220
0.0
230
1.0
 70
     8
 71
     3
 72
    17
 73
    13
 74
     0
 42
0.00000001
 43
0.00000001
 40
0.0
 40
0.0
 40
0.0
 40
0.0
 40
0.0051037386011221
 40
0.0335545146957983
 40
0.0512404508407057
 40
0.0783256082042157
 40
0.1200097101225869
 40
0.1849422108378776
 40
0.2894088209386603
 40
0.6174789247950605
 40
0.835601474844878
 40
1.0
 40
1.0
 40
1.0
 40
1.0
 10
182.1476121418305
 20
101.2296475793152
 30
0.0
 10
182.1430983249076
 20
101.2296410870887
 30
0.0
 10
182.1134222485817
 20
101.2295984039642
 30
0.0
 10
182.068103331526
 20
101.228801524032
 30
0.0
 10
182.0033550541596
 20
101.226379167354
 30
0.0
 10
181.9269192014581
 20
101.2219959422061
 30
0.0
 10
181.8087709925077
 20
101.2116305062302
 30
0.0
 10
181.6224350814797
 20
101.1864438180879
 30
0.0
 10
181.1847373013102
 20
101.0944903798524
 30
0.0
 10
180.6166899113664
 20
100.8617897994722
 30
0.0
 10
180.0212702395972
 20
100.4688512109862
 30
0.0
 10
179.7281417237244
 20
100.2082400779869
 30
0.0
 10
179.6021620096274
 20
100.0962355671737
 30
0.0
  0
SPLINE
  5
17A
330
1F
100
AcDbEntity
  8
0
  6
Continuous
 62
     7
370
    25
100
AcDbSpline
210
0.0
220
0.0
230
1.0
 70
     8
 71
     3
 72
    17
 73
    13
 74
     0
 42
0.00000001
 43
0.00000001
 40
0.0
 40
0.0
 40
0.0
 40
0.0
 40
0.1643985251551221
 40
0.3825210752049389
 40
0.7105911790613392
 40
0.8150577891621212
 40
0.8799902898774138
 40
0.9216743917957921
 40
0.9487595491592884
 40
0.9664454853042477
 40
0.9948962613988782
 40
1.0
 40
1.0
 40
1.0
 40
1.0
 10
184.6930622740335
 20
100.0962355671737
 30
0.0
 10
184.5670825599365
 20
100.2082400779869
 30
0.0
 10
184.2739540440637
 20
100.4688512109862
 30
0.0
 10
183.6785343722945
 20
100.8617897994722
 30
0.0
 10
183.1104869823508
 20
101.0944903798524
 30
0.0
 10
182.6727892021812
 20
101.1864438180878
 30
0.0
 10
182.4864532911532
 20
101.2116305062302
 30
0.0
 10
182.3683050822029
 20
101.2219959422061
 30
0.0
 10
182.2918692295013
 20
101.226379167354
 30
0.0
 10
182.2271209521349
 20
101.228801524032
 30
0.0
 10
182.1818020350795
 20
101.2295984039643
 30
0.0
 10
182.1521259587534
 20
101.2296410870887
 30
0.0
 10
182.1476121418305
 20
101.2296475793152
 30
0.0
  0
ARC
  5
17B
330
1F
100
AcDbEntity
  8
0
  6
Continuous
 62
     7
370
    25
100
AcDbCircle
 10
152.8648873876
 20
101.3232283706
 30
0.0
 40
2.573992516659942
100
AcDbArc
 50
195.9542434294
 51
208.4693494853
  0
SPLINE
  5
17C
330
1F
100
AcDbEntity
  8
0
  6
Continuous
 62
     7
370
    25
100
AcDbSpline
210
0.0
220
0.0
230
1.0
 70
     8
 71
     3
 72
    11
 73
     7
 74
     0
 42
0.00000001
 43
0.00000001
 40
0.0
 40
0.0
 40
0.0
 40
0.0
 40
0.3703424215671234
 40
0.8081736631678964
 40
0.9944317652533821
 40
1.0
 40
1.0
 40
1.0
 40
1.0
 10
150.3900411652772
 20
100.6157160727385
 30
0.0
 10
150.7220351315453
 20
100.751934009454
 30
0.0
 10
151.4465235083649
 20
101.0491933632129
 30
0.0
 10
152.3766492539229
 20
101.2032663266344
 30
0.0
 10
152.9634869534653
 20
101.2295051026875
 30
0.0
 10
153.1424182184952
 20
101.2296435602416
 30
0.0
 10
153.1476121418305
 20
101.2296475793152
 30
0.0
  0
SPLINE
  5
17D
330
1F
100
AcDbEntity
  8
0
  6
Continuous
 62
     7
370
    25
100
AcDbSpline
210
0.0
220
0.0
230
1.0
 70
     8
 71
     3
 72
    11
 73
     7
 74
     0
 42
0.00000001
 43
0.00000001
 40
0.0
 40
0.0
 40
0.0
 40
0.0
 40
0.0055682347466179
 40
0.1918263368321036
 40
0.6296575784328765
 40
1.0
 40
1.0
 40
1.0
 40
1.0
 10
153.1476121418305
 20
101.2296475793152
 30
0.0
 10
153.1528060651658
 20
101.2296435602416
 30
0.0
 10
153.3317373301957
 20
101.2295051026876
 30
0.0
 10
153.918575029738
 20
101.2032663266344
 30
0.0
 10
154.848700775296
 20
101.0491933632129
 30
0.0
 10
155.5731891521156
 20
100.751934009454
 30
0.0
 10
155.9051831183838
 20
100.6157160727385
 30
0.0
  0
ARC
  5
17E
330
1F
100
AcDbEntity
  8
0
  6
Continuous
 62
     7
370
    25
100
AcDbCircle
 10
153.430336896
 20
101.3232283706
 30
0.0
 40
2.573992516661965
100
AcDbArc
 50
331.5306505147
 51
344.0457565706
  0
ARC
  5
17F
330
1F
100
AcDbEntity
  8
0
  6
Continuous
 62
     7
370
    25
100
AcDbCircle
 10
182.4303368961
 20
101.3232283706
 30
0.0
 40
2.573992516658367
100
AcDbArc
 50
331.5306505147
 51
344.0457565706
  0
SPLINE
  5
180
330
1F
100
AcDbEntity
  8
0
  6
Continuous
 62
     7
370
    25
100
AcDbSpline
210
0.0
220
0.0
230
1.0
 70
     8
 71
     3
 72
    11
 73
     7
 74
     0
 42
0.00000001
 43
0.00000001
 40
0.0
 40
0.0
 40
0.0
 40
0.0
 40
0.0055682347466183
 40
0.1918263368321047
 40
0.6296575784328776
 40
1.0
 40
1.0
 40
1.0
 40
1.0
 10
182.1476121418305
 20
101.2296475793152
 30
0.0
 10
182.1528060651657
 20
101.2296435602416
 30
0.0
 10
182.3317373301956
 20
101.2295051026876
 30
0.0
 10
182.918575029738
 20
101.2032663266343
 30
0.0
 10
183.848700775296
 20
101.0491933632129
 30
0.0
 10
184.5731891521156
 20
100.751934009454
 30
0.0
 10
184.9051831183838
 20
100.6157160727385
 30
0.0
  0
ARC
  5
181
330
1F
100
AcDbEntity
  8
0
  6
Continuous
 62
     7
370
    25
100
AcDbCircle
 10
181.8648873876
 20
101.3232283706
 30
0.0
 40
2.573992516658392
100
AcDbArc
 50
195.9542434294
 51
208.4693494853
  0
SPLINE
  5
182
330
1F
100
AcDbEntity
  8
0
  6
Continuous
 62
     7
370
    25
100
AcDbSpline
210
0.0
220
0.0
230
1.0
 70
     8
 71
     3
 72
    11
 73
     7
 74
     0
 42
0.00000001
 43
0.00000001
 40
0.0
 40
0.0
 40
0.0
 40
0.0
 40
0.3703424215671233
 40
0.808173663167896
 40
0.9944317652533816
 40
1.0
 40
1.0
 40
1.0
 40
1.0
 10
179.3900411652772
 20
100.6157160727385
 30
0.0
 10
179.7220351315453
 20
100.751934009454
 30
0.0
 10
180.4465235083649
 20
101.0491933632129
 30
0.0
 10
181.3766492539228
 20
101.2032663266343
 30
0.0
 10
181.9634869534654
 20
101.2295051026877
 30
0.0
 10
182.1424182184952
 20
101.2296435602416
 30
0.0
 10
182.1476121418305
 20
101.2296475793152
 30
0.0
  0
ARC
  5
183
330
1F
100
AcDbEntity
  8
0
  6
Continuous
 62
     7
370
    25
100
AcDbCircle
 10
148.3175688543
 20
90.7042761747
 30
0.0
 40
1.327038068256403
100
AcDbArc
 50
306.5236230253
 51
326.0321607238
  0
ARC
  5
184
330
1F
100
AcDbEntity
  8
0
  6
Continuous
 62
     7
370
    25
100
AcDbCircle
 10
153.1476121418
 20
94.7296475793
 30
0.0
 40
6.500000000000005
100
AcDbArc
 50
115.1026742168
 51
231.5686067383
  0
ARC
  5
185
330
1F
100
AcDbEntity
  8
0
  6
Continuous
 62
     7
370
    25
100
AcDbCircle
 10
153.1476121418
 20
94.7296475793
 30
0.0
 40
6.499999999999998
100
AcDbArc
 50
31.778642179
 51
64.8973257832
  0
ARC
  5
186
330
1F
100
AcDbEntity
  8
0
  6
Continuous
 62
     7
370
    25
100
AcDbCircle
 10
157.7105551061
 20
98.9538701447
 30
0.0
 40
1.252349853183206
100
AcDbArc
 50
295.4209982681
 51
320.2340472941
  0
ARC
  5
187
330
1F
100
AcDbEntity
  8
0
  6
Continuous
 62
     7
370
    25
100
AcDbCircle
 10
177.5846691776
 20
98.9538701447
 30
0.0
 40
1.252349853183122
100
AcDbArc
 50
219.7659527059
 51
244.5790017319
  0
ARC
  5
188
330
1F
100
AcDbEntity
  8
0
  6
Continuous
 62
     7
370
    25
100
AcDbCircle
 10
182.1476121418
 20
94.7296475793
 30
0.0
 40
6.500000000000006
100
AcDbArc
 50
115.1026742168
 51
148.221357821
  0
ARC
  5
189
330
1F
100
AcDbEntity
  8
0
  6
Continuous
 62
     7
370
    25
100
AcDbCircle
 10
182.1476121418
 20
94.7296475793
 30
0.0
 40
6.500000000000005
100
AcDbArc
 50
308.4313932617
 51
64.8973257832
  0
ARC
  5
18A
330
1F
100
AcDbEntity
  8
0
  6
Continuous
 62
     7
370
    25
100
AcDbCircle
 10
186.9776554293
 20
90.7042761747
 30
0.0
 40
1.327038068256167
100
AcDbArc
 50
213.9678392762
 51
233.4763769747
  0
ARC
  5
18B
330
1F
100
AcDbEntity
  8
0
  6
Continuous
 62
     7
370
    25
100
AcDbCircle
 10
174.9218550958
 20
99.2060786479
 30
0.0
 40
2.000000000000001
100
AcDbArc
 50
227.5796275115
 51
328.221357821
  0
SPLINE
  5
18C
330
1F
100
AcDbEntity
  8
0
  6
Continuous
 62
     7
370
    25
100
AcDbSpline
210
0.0
220
0.0
230
1.0
 70
    24
 71
     3
 72
    12
 73
     8
 74
     0
 42
0.00000001
 43
0.00000001
 40
0.0
 40
0.0
 40
0.0
 40
0.0
 40
0.2571943124574416
 40
0.524550343975796
 40
0.7385170215182983
 40
0.8882338470637771
 40
1.0
 40
1.0
 40
1.0
 40
1.0
 10
172.8572303724369
 20
97.72964757931518
 30
0.0
 10
172.9419286499581
 20
97.72964757931518
 30
0.0
 10
173.1146716246505
 20
97.72964757931518
 30
0.0
 10
173.3338966534153
 20
97.72964757931518
 30
0.0
 10
173.4832764287947
 20
97.72964757931517
 30
0.0
 10
173.5606729453888
 20
97.72964757931518
 30
0.0
 10
173.5691163045526
 20
97.72964757931518
 30
0.0
 10
173.5727252651705
 20
97.72964757931518
 30
0.0
  0
ARC
  5
18D
330
1F
100
AcDbEntity
  8
0
  6
Continuous
 62
     7
370
    25
100
AcDbCircle
 10
160.3733691879
 20
99.2060786479
 30
0.0
 40
2.000000000000014
100
AcDbArc
 50
211.778642179
 51
312.4203724885
  0
SPLINE
  5
18E
330
1F
100
AcDbEntity
  8
0
  6
Continuous
 62
     7
370
    25
100
AcDbSpline
210
0.0
220
0.0
230
1.0
 70
    24
 71
     3
 72
    12
 73
     8
 74
     0
 42
0.00000001
 43
0.00000001
 40
0.0
 40
0.0
 40
0.0
 40
0.0
 40
0.144300502635625
 40
0.2873275205918761
 40
0.5201185386439748
 40
0.7602843466484799
 40
1.0
 40
1.0
 40
1.0
 40
1.0
 10
161.7224990184904
 20
97.72964757931518
 30
0.0
 10
161.7284832785149
 20
97.7296475793152
 30
0.0
 10
161.7403989861113
 20
97.72964757931518
 30
0.0
 10
161.8337842083077
 20
97.72964757931518
 30
0.0
 10
161.9865421517094
 20
97.72964757931518
 30
0.0
 10
162.2010080668976
 20
97.72964757931518
 30
0.0
 10
162.3590480464524
 20
97.72964757931518
 30
0.0
 10
162.437993911224
 20
97.72964757931518
 30
0.0
  0
SPLINE
  5
18F
330
1F
100
AcDbEntity
  8
0
  6
Continuous
 62
     7
370
    25
100
AcDbSpline
210
0.0
220
0.0
230
1.0
 70
     8
 71
     3
 72
    15
 73
    11
 74
     0
 42
0.00000001
 43
0.00000001
 40
0.0
 40
0.0
 40
0.0
 40
0.0
 40
0.1525119975281641
 40
0.3103908680493854
 40
0.5397217434700959
 40
0.7785238912153802
 40
0.9076867233570571
 40
0.9610458274988164
 40
0.9967059666277488
 40
1.0
 40
1.0
 40
1.0
 40
1.0
 10
149.4181496316454
 20
89.9628235550321
 30
0.0
 10
149.5867284752573
 20
89.79538763754218
 30
0.0
 10
149.9298184252383
 20
89.45462375919388
 30
0.0
 10
150.5786499409478
 20
88.97578957517493
 30
0.0
 10
151.364078732853
 20
88.55659050517667
 30
0.0
 10
152.1371400902064
 20
88.32368721895834
 30
0.0
 10
152.6866418544549
 20
88.24824093252734
 30
0.0
 10
152.9717247175785
 20
88.2319560999401
 30
0.0
 10
153.0923897175831
 20
88.22969917451832
 30
0.0
 10
153.1433065268438
 20
88.22965160212081
 30
0.0
 10
153.1476121418305
 20
88.22964757931517
 30
0.0
  0
SPLINE
  5
190
330
1F
100
AcDbEntity
  8
0
  6
Continuous
 62
     7
370
    25
100
AcDbSpline
210
0.0
220
0.0
230
1.0
 70
     8
 71
     3
 72
    16
 73
    12
 74
     0
 42
0.00000001
 43
0.00000001
 40
0.0
 40
0.0
 40
0.0
 40
0.0
 40
0.0093770372722071
 40
0.1449784074793553
 40
0.2782522792466382
 40
0.4010913490990483
 40
0.5131542856948397
 40
0.6266888454485822
 40
0.7537408321063427
 40
0.8891748694388528
 40
1.0
 40
1.0
 40
1.0
 40
1.0
 10
156.6701445657555
 20
89.26688588559314
 30
0.0
 10
156.6819723027832
 20
89.27440071408309
 30
0.0
 10
156.8648409881237
 20
89.39058750478527
 30
0.0
 10
157.2699592242413
 20
89.56102228379282
 30
0.0
 10
157.8877658085411
 20
89.61197346068445
 30
0.0
 10
158.4549243335407
 20
89.48597800085848
 30
0.0
 10
158.9290726259588
 20
89.23112749366153
 30
0.0
 10
159.300303901735
 20
88.88427135414457
 30
0.0
 10
159.5352095791646
 20
88.52077653465687
 30
0.0
 10
159.6338884532077
 20
88.27210664911128
 30
0.0
 10
159.6433528793161
 20
88.24282511561009
 30
0.0
 10
159.647612197936
 20
88.22964741424347
 30
0.0
  0
SPLINE
  5
191
330
1F
100
AcDbEntity
  8
0
  6
Continuous
 62
     7
370
    25
100
AcDbSpline
210
0.0
220
0.0
230
1.0
 70
     8
 71
     3
 72
    12
 73
     8
 74
     0
 42
0.00000001
 43
0.00000001
 40
0.0
 40
0.0
 40
0.0
 40
0.0
 40
0.0039142694629097
 40
0.2613995162853427
 40
0.5232483696209407
 40
0.7589647179150547
 40
1.0
 40
1.0
 40
1.0
 40
1.0
 10
153.1476121418305
 20
88.22964757931517
 30
0.0
 10
153.1523122726271
 20
88.22965098557
 30
0.0
 10
153.4661925326264
 20
88.22987845927189
 30
0.0
 10
154.0953116811679
 20
88.27564231442928
 30
0.0
 10
154.9947342616582
 20
88.47692261025435
 30
0.0
 10
155.8625949671375
 20
88.79372433611317
 30
0.0
 10
156.3989666689166
 20
89.10799663089894
 30
0.0
 10
156.6701445657555
 20
89.26688588559314
 30
0.0
  0
SPLINE
  5
192
330
1F
100
AcDbEntity
  8
0
  6
Continuous
 62
     7
370
    25
100
AcDbSpline
210
0.0
220
0.0
230
1.0
 70
     8
 71
     3
 72
    14
 73
    10
 74
     0
 42
0.00000001
 43
0.00000001
 40
0.0
 40
0.0
 40
0.0
 40
0.0
 40
0.0034863124123955
 40
0.0203208135699722
 40
0.2238589767031064
 40
0.4593718547945684
 40
0.6945922354894416
 40
0.8474054947372496
 40
0.9999999999999999
 40
0.9999999999999999
 40
0.9999999999999999
 40
0.9999999999999999
 10
153.1476121418305
 20
88.22964757931517
 30
0.0
 10
153.142731413364
 20
88.22965108443232
 30
0.0
 10
153.1142829091796
 20
88.2296715148537
 30
0.0
 10
152.8008998345864
 20
88.23213336157684
 30
0.0
 10
152.1622980368445
 20
88.28243901003516
 30
0.0
 10
151.2266846103058
 20
88.49232827688199
 30
0.0
 10
150.3804694201734
 20
88.82807763490548
 30
0.0
 10
149.6715841411651
 20
89.21898158674551
 30
0.0
 10
149.2953456105293
 20
89.4982959233328
 30
0.0
 10
149.10736108913
 20
89.63785305958518
 30
0.0
  0
SPLINE
  5
193
330
1F
100
AcDbEntity
  8
0
  6
Continuous
 62
     7
370
    25
100
AcDbSpline
210
0.0
220
0.0
230
1.0
 70
     8
 71
     3
 72
    15
 73
    11
 74
     0
 42
0.00000001
 43
0.00000001
 40
0.0
 40
0.0
 40
0.0
 40
0.0
 40
0.0032941481656678
 40
0.0389555300109776
 40
0.0923164936584507
 40
0.2214838269818526
 40
0.455755886074647
 40
0.6896123828215205
 40
0.8449486292273378
 40
1.0
 40
1.0
 40
1.0
 40
1.0
 10
182.1476121418305
 20
88.22964757931517
 30
0.0
 10
182.1519177558947
 20
88.2296516033694
 30
0.0
 10
182.202834554247
 20
88.2296991905323
 30
0.0
 10
182.3235004455087
 20
88.23195490956996
 30
0.0
 10
182.6085745931486
 20
88.2482515392258
 30
0.0
 10
183.15226926469
 20
88.32273381502151
 30
0.0
 10
183.924551304862
 20
88.55519345662849
 30
0.0
 10
184.7082508274738
 20
88.96971602227762
 30
0.0
 10
185.3619284885651
 20
89.45265453713314
 30
0.0
 10
185.7054643639671
 20
89.79287130006699
 30
0.0
 10
185.8770746520156
 20
89.9628235550321
 30
0.0
  0
SPLINE
  5
194
330
1F
100
AcDbEntity
  8
0
  6
Continuous
 62
     7
370
    25
100
AcDbSpline
210
0.0
220
0.0
230
1.0
 70
     8
 71
     3
 72
    14
 73
    10
 74
     0
 42
0.00000001
 43
0.00000001
 40
0.0
 40
0.0
 40
0.0
 40
0.0
 40
0.1525945052627504
 40
0.3054077645105584
 40
0.5406281452054322
 40
0.7761410232968943
 40
0.9796791864300268
 40
0.9965136875876045
 40
0.9999999999999999
 40
0.9999999999999999
 40
0.9999999999999999
 40
0.9999999999999999
 10
186.187863194531
 20
89.63785305958518
 30
0.0
 10
185.9998786731317
 20
89.4982959233328
 30
0.0
 10
185.6236401424959
 20
89.21898158674551
 30
0.0
 10
184.9147548634876
 20
88.82807763490547
 30
0.0
 10
184.0685396733551
 20
88.49232827688199
 30
0.0
 10
183.1329262468164
 20
88.28243901003515
 30
0.0
 10
182.4943244490746
 20
88.23213336157686
 30
0.0
 10
182.1809413744813
 20
88.22967151485369
 30
0.0
 10
182.1524928702969
 20
88.22965108443232
 30
0.0
 10
182.1476121418305
 20
88.22964757931517
 30
0.0
  0
SPLINE
  5
195
330
1F
100
AcDbEntity
  8
0
  6
Continuous
 62
     7
370
    25
100
AcDbSpline
210
0.0
220
0.0
230
1.0
 70
     8
 71
     3
 72
    16
 73
    12
 74
     0
 42
0.00000001
 43
0.00000001
 40
0.0
 40
0.0
 40
0.0
 40
0.0
 40
0.0400879241033625
 40
0.1620524644868244
 40
0.273689418946181
 40
0.3878458116547636
 40
0.5157289207825617
 40
0.6512866697179734
 40
0.7845176689407766
 40
0.9073172229945062
 40
1.0
 40
1.0
 40
1.0
 40
1.0
 10
175.647612085725
 20
88.22964741424347
 30
0.0
 10
175.6482351003919
 20
88.23144868172923
 30
0.0
 10
175.6507535910458
 20
88.23873017214804
 30
0.0
 10
175.6862788499687
 20
88.34382222883109
 30
0.0
 10
175.8085806232172
 20
88.60469023261776
 30
0.0
 10
176.0561751129091
 20
88.9556622309709
 30
0.0
 10
176.4814599595508
 20
89.31827363079074
 30
0.0
 10
177.0569998106277
 20
89.56126082390448
 30
0.0
 10
177.6737757354979
 20
89.6107884617787
 30
0.0
 10
178.2164471696525
 20
89.49629834011567
 30
0.0
 10
178.5021806668585
 20
89.3358832600796
 30
0.0
 10
178.6250797179055
 20
89.26688588559318
 30
0.0
  0
SPLINE
  5
196
330
1F
100
AcDbEntity
  8
0
  6
Continuous
 62
     7
370
    25
100
AcDbSpline
210
0.0
220
0.0
230
1.0
 70
     8
 71
     3
 72
    12
 73
     8
 74
     0
 42
0.00000001
 43
0.00000001
 40
0.0
 40
0.0
 40
0.0
 40
0.0
 40
0.235365305091999
 40
0.47675333331241
 40
0.7341407436541079
 40
0.9960857492732753
 40
1.0
 40
1.0
 40
1.0
 40
1.0
 10
178.6250797179055
 20
89.26688588559318
 30
0.0
 10
178.8897782356006
 20
89.11147917738937
 30
0.0
 10
179.4259485967533
 20
88.79668908491453
 30
0.0
 10
180.2885211016414
 20
88.48034077150548
 30
0.0
 10
181.1945040568886
 20
88.27642465991426
 30
0.0
 10
181.8236752025714
 20
88.22988232815024
 30
0.0
 10
182.1429120124009
 20
88.22965098537907
 30
0.0
 10
182.1476121418305
 20
88.22964757931517
 30
0.0
  0
SPLINE
  5
197
330
1F
100
AcDbEntity
  8
0
  6
Continuous
 62
     7
370
    25
100
AcDbSpline
210
0.0
220
0.0
230
1.0
 70
     8
 71
     3
 72
    30
 73
    26
 74
     0
 42
0.00000001
 43
0.00000001
 40
0.0
 40
0.0
 40
0.0
 40
0.0
 40
0.0110312848400549
 40
0.0532776874785964
 40
0.0955512287630423
 40
0.1522055495411072
 40
0.2089595412079051
 40
0.2161890499528918
 40
0.276925172275626
 40
0.3376605208392086
 40
0.3847640440763128
 40
0.4317728110589279
 40
0.4687715981216639
 40
0.5057316455118831
 40
0.54264961429988
 40
0.5796166604356029
 40
0.6291517915606505
 40
0.678778674437546
 40
0.7318143339984458
 40
0.7848413101527134
 40
0.8294802572046012
 40
0.8740844041269727
 40
0.916564785778285
 40
0.9590101589357598
 40
0.9999999999999999
 40
0.9999999999999999
 40
0.9999999999999999
 40
0.9999999999999999
 10
161.7476121418305
 20
80.2296475793152
 30
0.0
 10
161.7484361891767
 20
80.22894974741749
 30
0.0
 10
161.7524160825089
 20
80.22557943559089
 30
0.0
 10
161.8231977914381
 20
80.16522979198555
 30
0.0
 10
162.0444865215374
 20
79.97969969632764
 30
0.0
 10
162.4350495369339
 20
79.65915375138599
 30
0.0
 10
162.8382916230201
 20
79.34547684784565
 30
0.0
 10
163.305105862109
 20
78.99908755995573
 30
0.0
 10
163.840733696187
 20
78.6186626129523
 30
0.0
 10
164.6564840741895
 20
78.12063906269165
 30
0.0
 10
165.498043879954
 20
77.70852118961781
 30
0.0
 10
166.2814507985808
 20
77.43152207340283
 30
0.0
 10
167.0544356756852
 20
77.28010492094066
 30
0.0
 10
167.7850259799618
 20
77.24195545040602
 30
0.0
 10
168.5097484424147
 20
77.32128734684213
 30
0.0
 10
169.2831180321438
 20
77.51379053011127
 30
0.0
 10
170.0735130007881
 20
77.83095012294126
 30
0.0
 10
170.8703169578909
 20
78.25622816192801
 30
0.0
 10
171.5976864071143
 20
78.71869085424623
 30
0.0
 10
172.2118838514266
 20
79.15909712986836
 30
0.0
 10
172.7053686660166
 20
79.53757880625454
 30
0.0
 10
173.0803431460342
 20
79.83927031947997
 30
0.0
 10
173.3508666435618
 20
80.0631429025937
 30
0.0
 10
173.5220406296717
 20
80.20793021220938
 30
0.0
 10
173.537452327923
 20
80.22094594736689
 30
0.0
 10
173.5450237480691
 20
80.2273402848228
 30
0.0
  0
LINE
  5
198
330
1F
100
AcDbEntity
  8
0
  6
Continuous
 62
     7
370
    25
100
AcDbLine
 10
167.584729277
 20
100.3175899147
 30
0.0
 11
167.584729277
 21
100.3295404766
 31
0.0
  0
LINE
  5
199
330
1F
100
AcDbEntity
  8
0
  6
Continuous
 62
     7
370
    25
100
AcDbLine
 10
167.7104950066
 20
100.3175899147
 30
0.0
 11
167.7104950066
 21
100.3295404766
 31
0.0
  0
LINE
  5
19A
330
1F
100
AcDbEntity
  8
0
  6
Continuous
 62
     7
370
    25
100
AcDbLine
 10
160.1144423936
 20
81.6940240543
 30
0.0
 11
175.18078189
 21
81.6940240543
 31
0.0
  0
LINE
  5
19B
330
1F
100
AcDbEntity
  8
0
  6
Continuous
 62
     7
370
    25
100
AcDbLine
 10
167.6476121418
 20
99.3336034247
 30
0.0
 11
162.0634303581
 21
99.3336034247
 31
0.0
  0
LINE
  5
19C
330
1F
100
AcDbEntity
  8
0
  6
Continuous
 62
     7
370
    25
100
AcDbLine
 10
173.2317939256
 20
99.3336034247
 30
0.0
 11
167.6476121418
 21
99.3336034247
 31
0.0
  0
LINE
  5
19D
330
1F
100
AcDbEntity
  8
0
  6
Continuous
 62
     7
370
    18
100
AcDbLine
 10
161.5813621418
 20
58.2296475793
 30
0.0
 11
161.898073838
 21
48.0948733019
 31
0.0
  0
LINE
  5
19E
330
1F
100
AcDbEntity
  8
0
  6
Continuous
 62
     7
370
    18
100
AcDbLine
 10
173.3971504457
 20
48.0948733019
 30
0.0
 11
173.7138621418
 21
58.2296475793
 31
0.0
  0
LINE
  5
19F
330
1F
100
AcDbEntity
  8
0
  6
CENTERX2
 62
     7
370
    18
100
AcDbLine
 10
126.7013431649
 20
70.7296475793
 30
0.0
 11
209.1476121418
 21
70.7296475793
 31
0.0
  0
LINE
  5
1A0
330
1F
100
AcDbEntity
  8
0
  6
CENTERX2
 62
     7
370
    18
100
AcDbLine
 10
167.6476121418
 20
45.9886185993
 30
0.0
 11
167.6476121418
 21
102.4277026375
 31
0.0
  0
LINE
  5
1A1
330
1F
100
AcDbEntity
  8
0
  6
Continuous
 62
     7
370
    25
100
AcDbLine
 10
231.5867861677
 20
58.7296475793
 30
0.0
 11
231.8808865535
 21
49.3184352331
 31
0.0
  0
LINE
  5
1A2
330
1F
100
AcDbEntity
  8
0
  6
Continuous
 62
     7
370
    25
100
AcDbLine
 10
244.7928107819
 20
49.3184352331
 30
0.0
 11
245.0869111677
 21
58.7296475793
 31
0.0
  0
LINE
  5
1A3
330
1F
100
AcDbEntity
  8
0
  6
Continuous
 62
     7
370
    25
100
AcDbLine
 10
231.8808865535
 20
49.3184352331
 30
0.0
 11
233.0868486677
 21
47.2296475793
 31
0.0
  0
LINE
  5
1A4
330
1F
100
AcDbEntity
  8
0
  6
Continuous
 62
     7
370
    25
100
AcDbLine
 10
243.5868486677
 20
47.2296475793
 30
0.0
 11
244.7928107819
 21
49.3184352331
 31
0.0
  0
LINE
  5
1A5
330
1F
100
AcDbEntity
  8
0
  6
Continuous
 62
     7
370
    25
100
AcDbLine
 10
244.2368486677
 20
77.2681762432
 30
0.0
 11
244.2368486677
 21
81.2296475793
 31
0.0
  0
LINE
  5
1A6
330
1F
100
AcDbEntity
  8
0
  6
Continuous
 62
     7
370
    25
100
AcDbLine
 10
232.4368486677
 20
81.2296475793
 30
0.0
 11
232.4368486677
 21
77.2628738325
 31
0.0
  0
ARC
  5
1A7
330
1F
100
AcDbEntity
  8
0
  6
Continuous
 62
     7
370
    25
100
AcDbCircle
 10
238.3368486677
 20
79.7296475793
 30
0.0
 40
20.5
100
AcDbArc
 50
99.3449833975
 51
102.6803834918
  0
ARC
  5
1A8
330
1F
100
AcDbEntity
  8
0
  6
Continuous
 62
     7
370
    25
100
AcDbCircle
 10
238.3368486677
 20
79.7296475793
 30
0.0
 40
20.5
100
AcDbArc
 50
77.3196165082
 51
80.6550166025
  0
LINE
  5
1A9
330
1F
100
AcDbEntity
  8
0
  6
Continuous
 62
     7
370
    25
100
AcDbLine
 10
238.3356578404
 20
88.2296475793
 30
0.0
 11
238.338039495
 21
88.2296475793
 31
0.0
  0
LINE
  5
1AA
330
1F
100
AcDbEntity
  8
0
  6
Continuous
 62
     7
370
    25
100
AcDbLine
 10
240.6932133121
 20
101.2296475793
 30
0.0
 11
235.9804840233
 21
101.2296475793
 31
0.0
  0
ARC
  5
1AB
330
1F
100
AcDbEntity
  8
0
  6
Continuous
 62
     7
370
    25
100
AcDbCircle
 10
212.4210536212
 20
97.1192081901
 30
0.0
 40
19.99999999999999
100
AcDbArc
 50
333.6100518522
 51
1.749051671
  0
ARC
  5
1AC
330
1F
100
AcDbEntity
  8
0
  6
Continuous
 62
     7
370
    25
100
AcDbCircle
 10
264.2526437142
 20
97.1192081901
 30
0.0
 40
20.00000000000002
100
AcDbArc
 50
178.250948329
 51
206.3899481478
  0
LINE
  5
1AD
330
1F
100
AcDbEntity
  8
0
  6
Continuous
 62
     7
370
    25
100
AcDbLine
 10
230.3368486795
 20
88.2296474142
 30
0.0
 11
230.8036789195
 21
81.6940240543
 31
0.0
  0
LINE
  5
1AE
330
1F
100
AcDbEntity
  8
0
  6
Continuous
 62
     7
370
    25
100
AcDbLine
 10
245.8700184159
 20
81.6940240543
 30
0.0
 11
246.3368486559
 21
88.2296474142
 31
0.0
  0
ARC
  5
1AF
330
1F
100
AcDbEntity
  8
0
  6
Continuous
 62
     7
370
    25
100
AcDbCircle
 10
245.371289066
 20
81.7296475793
 30
0.0
 40
0.5
100
AcDbArc
 50
270.0
 51
355.91438322
  0
ARC
  5
1B0
330
1F
100
AcDbEntity
  8
0
  6
Continuous
 62
     7
370
    25
100
AcDbCircle
 10
231.3024082694
 20
81.7296475793
 30
0.0
 40
0.5000000000000105
100
AcDbArc
 50
184.08561678
 51
270.0
  0
LINE
  5
1B1
330
1F
100
AcDbEntity
  8
0
  6
Continuous
 62
     7
370
    25
100
AcDbLine
 10
244.261961791
 20
97.7296475793
 30
0.0
 11
243.9210304515
 21
99.3336034247
 31
0.0
  0
LINE
  5
1B2
330
1F
100
AcDbEntity
  8
0
  6
Continuous
 62
     7
370
    25
100
AcDbLine
 10
232.7526668839
 20
99.3336034247
 30
0.0
 11
232.4117355444
 21
97.7296475793
 31
0.0
  0
ARC
  5
1B3
330
1F
100
AcDbEntity
  8
0
  6
Continuous
 62
     7
370
    25
100
AcDbCircle
 10
233.2417406843
 20
99.2296475793
 30
0.0
 40
0.5
100
AcDbArc
 50
90.0
 51
168.0
  0
ARC
  5
1B4
330
1F
100
AcDbEntity
  8
0
  6
Continuous
 62
     7
370
    25
100
AcDbCircle
 10
243.4319566511
 20
99.2296475793
 30
0.0
 40
0.5000000000000231
100
AcDbArc
 50
12.0
 51
90.0
  0
CIRCLE
  5
1B5
330
1F
100
AcDbEntity
  8
0
  6
Continuous
 62
     7
370
    25
100
AcDbCircle
 10
238.3368486677
 20
70.7296475793
 30
0.0
 40
3.330000000000004
  0
CIRCLE
  5
1B6
330
1F
100
AcDbEntity
  8
0
  6
Continuous
 62
     7
370
    25
100
AcDbCircle
 10
238.3368486677
 20
70.7296475793
 30
0.0
 40
2.849999999999988
  0
CIRCLE
  5
1B7
330
1F
100
AcDbEntity
  8
0
  6
Continuous
 62
     7
370
    25
100
AcDbCircle
 10
238.3368486677
 20
70.7296475793
 30
0.0
 40
2.599999999999978
  0
CIRCLE
  5
1B8
330
1F
100
AcDbEntity
  8
0
  6
Continuous
 62
     7
370
    25
100
AcDbCircle
 10
238.3368486677
 20
70.7296475793
 30
0.0
 40
2.500000000000022
  0
CIRCLE
  5
1B9
330
1F
100
AcDbEntity
  8
0
  6
Continuous
 62
     7
370
    25
100
AcDbCircle
 10
238.3368486677
 20
70.7296475793
 30
0.0
 40
4.0
  0
CIRCLE
  5
1BA
330
1F
100
AcDbEntity
  8
0
  6
Continuous
 62
     7
370
    25
100
AcDbCircle
 10
238.3368486677
 20
70.7296475793
 30
0.0
 40
8.000000000000002
  0
CIRCLE
  5
1BB
330
1F
100
AcDbEntity
  8
0
  6
Continuous
 62
     7
370
    25
100
AcDbCircle
 10
238.3368486677
 20
70.7296475793
 30
0.0
 40
7.800000000000006
  0
SPLINE
  5
1BC
330
1F
100
AcDbEntity
  8
0
  6
Continuous
 62
     7
370
    25
100
AcDbSpline
210
0.0
220
0.0
230
1.0
 70
     8
 71
     3
 72
    10
 73
     6
 74
     0
 42
0.00000001
 43
0.00000001
 40
0.0
 40
0.0
 40
0.0
 40
0.0
 40
0.5
 40
0.5
 40
1.0
 40
1.0
 40
1.0
 40
1.0
 10
230.0868486677095
 20
65.67783272390595
 30
0.0
 10
230.012478200784
 20
65.7207705330052
 30
0.0
 10
229.9481726044961
 20
65.78421112289739
 30
0.0
 10
229.8599498166903
 20
65.93670026840624
 30
0.0
 10
229.8368486677095
 20
66.02492965760956
 30
0.0
 10
229.8368486677095
 20
66.11084542579817
 30
0.0
  0
SPLINE
  5
1BD
330
1F
100
AcDbEntity
  8
0
  6
Continuous
 62
     7
370
    25
100
AcDbSpline
210
0.0
220
0.0
230
1.0
 70
    24
 71
     3
 72
    10
 73
     6
 74
     0
 42
0.00000001
 43
0.00000001
 40
0.0
 40
0.0
 40
0.0
 40
0.0
 40
0.4999999999999999
 40
0.4999999999999999
 40
1.0
 40
1.0
 40
1.0
 40
1.0
 10
229.8368486677095
 20
66.11084542579817
 30
0.0
 10
229.8368486677095
 20
66.86832708600373
 30
0.0
 10
229.8368486677095
 20
67.6307946344472
 30
0.0
 10
229.8368486677095
 20
69.16925876878658
 30
0.0
 10
229.8368486677095
 20
69.94538144722912
 30
0.0
 10
229.8368486677095
 20
70.72964757931518
 30
0.0
  0
ARC
  5
1BE
330
1F
100
AcDbEntity
  8
0
  6
Continuous
 62
     7
370
    25
100
AcDbCircle
 10
238.3368486677
 20
70.7296475793
 30
0.0
 40
8.5
100
AcDbArc
 50
180.0
 51
240.0
  0
SPLINE
  5
1BF
330
1F
100
AcDbEntity
  8
0
  6
Continuous
 62
     7
370
    25
100
AcDbSpline
210
0.0
220
0.0
230
1.0
 70
    24
 71
     3
 72
    10
 73
     6
 74
     0
 42
0.00000001
 43
0.00000001
 40
0.0
 40
0.0
 40
0.0
 40
0.0
 40
0.5
 40
0.5
 40
1.0
 40
1.0
 40
1.0
 40
1.0
 10
230.0868486677095
 20
65.677832723906
 30
0.0
 10
230.7428614343146
 20
65.2990835765147
 30
0.0
 10
231.4031283411723
 20
64.9178783001034
 30
0.0
 10
232.7354748598073
 20
64.14864767891562
 30
0.0
 10
233.4076278412946
 20
63.7605799741173
 30
0.0
 10
234.0868486677095
 20
63.36843164714746
 30
0.0
  0
SPLINE
  5
1C0
330
1F
100
AcDbEntity
  8
0
  6
Continuous
 62
     7
370
    25
100
AcDbSpline
210
0.0
220
0.0
230
1.0
 70
     8
 71
     3
 72
    10
 73
     6
 74
     0
 42
0.00000001
 43
0.00000001
 40
0.0
 40
0.0
 40
0.0
 40
0.0
 40
0.5
 40
0.5
 40
1.0
 40
1.0
 40
1.0
 40
1.0
 10
229.8368486677095
 20
75.3484497328322
 30
0.0
 10
229.8368486677095
 20
75.43433137533862
 30
0.0
 10
229.859639239357
 20
75.52174058130406
 30
0.0
 10
229.9475852366558
 20
75.67438306637904
 30
0.0
 10
230.0124460293886
 20
75.73850605146139
 30
0.0
 10
230.0868486677095
 20
75.78146243472442
 30
0.0
  0
SPLINE
  5
1C1
330
1F
100
AcDbEntity
  8
0
  6
Continuous
 62
     7
370
    25
100
AcDbSpline
210
0.0
220
0.0
230
1.0
 70
    24
 71
     3
 72
    12
 73
     8
 74
     0
 42
0.00000001
 43
0.00000001
 40
0.0
 40
0.0
 40
0.0
 40
0.0
 40
0.2500000000000001
 40
0.2500000000000001
 40
0.5000000000000002
 40
0.5000000000000002
 40
1.0
 40
1.0
 40
1.0
 40
1.0
 10
234.0868486677095
 20
78.09086351148292
 30
0.0
 10
233.7490927326868
 20
77.89586003147713
 30
0.0
 10
233.4086847178083
 20
77.69932537245272
 30
0.0
 10
232.7341900334078
 20
77.30990568484717
 30
0.0
 10
232.3990647145406
 20
77.11642099178691
 30
0.0
 10
231.3993533962005
 20
76.53923739303131
 30
0.0
 10
230.7404192931352
 20
76.15880161124834
 30
0.0
 10
230.0868486677095
 20
75.7814624347244
 30
0.0
  0
ARC
  5
1C2
330
1F
100
AcDbEntity
  8
0
  6
Continuous
 62
     7
370
    25
100
AcDbCircle
 10
238.3368486677
 20
70.7296475793
 30
0.0
 40
8.500000000000009
100
AcDbArc
 50
120.0
 51
180.0
  0
SPLINE
  5
1C3
330
1F
100
AcDbEntity
  8
0
  6
Continuous
 62
     7
370
    25
100
AcDbSpline
210
0.0
220
0.0
230
1.0
 70
    24
 71
     3
 72
    12
 73
     8
 74
     0
 42
0.00000001
 43
0.00000001
 40
0.0
 40
0.0
 40
0.0
 40
0.0
 40
0.25
 40
0.25
 40
0.5
 40
0.5
 40
1.0
 40
1.0
 40
1.0
 40
1.0
 10
229.8368486677095
 20
70.72964757931518
 30
0.0
 10
229.8368486677095
 20
71.12131950569011
 30
0.0
 10
229.8368486677095
 20
71.51622239721172
 30
0.0
 10
229.8368486677095
 20
72.29715842745901
 30
0.0
 10
229.8368486677095
 20
72.68456655939029
 30
0.0
 10
229.8368486677095
 20
73.83869618605027
 30
0.0
 10
229.8368486677095
 20
74.59735059498679
 30
0.0
 10
229.8368486677095
 20
75.3484497328322
 30
0.0
  0
ARC
  5
1C4
330
1F
100
AcDbEntity
  8
0
  6
Continuous
 62
     7
370
    25
100
AcDbCircle
 10
238.3368486677
 20
70.7296475793
 30
0.0
 40
8.499999999999996
100
AcDbArc
 50
240.0
 51
300.0
  0
ARC
  5
1C5
330
1F
100
AcDbEntity
  8
0
  6
Continuous
 62
     7
370
    25
100
AcDbCircle
 10
238.3368486677
 20
70.7296475793
 30
0.0
 40
8.500000000000009
100
AcDbArc
 50
60.0
 51
120.0
  0
ARC
  5
1C6
330
1F
100
AcDbEntity
  8
0
  6
Continuous
 62
     7
370
    25
100
AcDbCircle
 10
238.3368486677
 20
70.7296475793
 30
0.0
 40
8.500000000000009
100
AcDbArc
 50
0.0
 51
60.0
  0
ARC
  5
1C7
330
1F
100
AcDbEntity
  8
0
  6
Continuous
 62
     7
370
    25
100
AcDbCircle
 10
238.3368486677
 20
70.7296475793
 30
0.0
 40
8.5
100
AcDbArc
 50
300.0
 51
0.0
  0
SPLINE
  5
1C8
330
1F
100
AcDbEntity
  8
0
  6
Continuous
 62
     7
370
    25
100
AcDbSpline
210
0.0
220
0.0
230
1.0
 70
    24
 71
     3
 72
    10
 73
     6
 74
     0
 42
0.00000001
 43
0.00000001
 40
0.0
 40
0.0
 40
0.0
 40
0.0
 40
0.5
 40
0.5
 40
1.0
 40
1.0
 40
1.0
 40
1.0
 10
238.5868486677095
 20
61.05903057038893
 30
0.0
 10
239.2428614343146
 20
61.43777971778022
 30
0.0
 10
239.9031283411723
 20
61.81898499419152
 30
0.0
 10
241.2354748598073
 20
62.58821561537929
 30
0.0
 10
241.9076278412947
 20
62.97628332017761
 30
0.0
 10
242.5868486677095
 20
63.36843164714745
 30
0.0
  0
SPLINE
  5
1C9
330
1F
100
AcDbEntity
  8
0
  6
Continuous
 62
     7
370
    25
100
AcDbSpline
210
0.0
220
0.0
230
1.0
 70
     8
 71
     3
 72
    10
 73
     6
 74
     0
 42
0.00000001
 43
0.00000001
 40
0.0
 40
0.0
 40
0.0
 40
0.0
 40
0.5
 40
0.5
 40
1.0
 40
1.0
 40
1.0
 40
1.0
 10
238.5868486677095
 20
61.05903057038895
 30
0.0
 10
238.5124739137196
 20
61.01609028615191
 30
0.0
 10
238.4253801821536
 20
60.99212250157609
 30
0.0
 10
238.2492143536091
 20
60.99196444547056
 30
0.0
 10
238.1612533297188
 20
61.01607301874893
 30
0.0
 10
238.0868486677095
 20
61.05903057038895
 30
0.0
  0
SPLINE
  5
1CA
330
1F
100
AcDbEntity
  8
0
  6
Continuous
 62
     7
370
    25
100
AcDbSpline
210
0.0
220
0.0
230
1.0
 70
    24
 71
     3
 72
    12
 73
     8
 74
     0
 42
0.00000001
 43
0.00000001
 40
0.0
 40
0.0
 40
0.0
 40
0.0
 40
0.25
 40
0.25
 40
0.5000000000000002
 40
0.5000000000000002
 40
1.0
 40
1.0
 40
1.0
 40
1.0
 10
234.0868486677095
 20
63.36843164714746
 30
0.0
 10
234.4246046027323
 20
63.17342816714167
 30
0.0
 10
234.7650126176108
 20
62.97689350811725
 30
0.0
 10
235.4395073020112
 20
62.5874738205117
 30
0.0
 10
235.7746326208785
 20
62.39398912745145
 30
0.0
 10
236.7743439392186
 20
61.81680552869584
 30
0.0
 10
237.4332780422839
 20
61.43636974691288
 30
0.0
 10
238.0868486677096
 20
61.05903057038894
 30
0.0
  0
SPLINE
  5
1CB
330
1F
100
AcDbEntity
  8
0
  6
Continuous
 62
     7
370
    25
100
AcDbSpline
210
0.0
220
0.0
230
1.0
 70
     8
 71
     3
 72
    10
 73
     6
 74
     0
 42
0.00000001
 43
0.00000001
 40
0.0
 40
0.0
 40
0.0
 40
0.0
 40
0.5
 40
0.5
 40
1.0
 40
1.0
 40
1.0
 40
1.0
 10
238.0868486677095
 20
80.40026458824143
 30
0.0
 10
238.1612234216995
 20
80.44320487247847
 30
0.0
 10
238.2483171532655
 20
80.46717265705429
 30
0.0
 10
238.42448298181
 20
80.46733071315981
 30
0.0
 10
238.5124440057003
 20
80.44322213988143
 30
0.0
 10
238.5868486677095
 20
80.40026458824143
 30
0.0
  0
SPLINE
  5
1CC
330
1F
100
AcDbEntity
  8
0
  6
Continuous
 62
     7
370
    25
100
AcDbSpline
210
0.0
220
0.0
230
1.0
 70
    24
 71
     3
 72
    12
 73
     8
 74
     0
 42
0.00000001
 43
0.00000001
 40
0.0
 40
0.0
 40
0.0
 40
0.0
 40
0.2499999999999999
 40
0.2499999999999999
 40
0.5
 40
0.5
 40
1.0
 40
1.0
 40
1.0
 40
1.0
 10
242.5868486677095
 20
78.09086351148292
 30
0.0
 10
242.2490927326868
 20
78.28586699148872
 30
0.0
 10
241.9086847178083
 20
78.48240165051313
 30
0.0
 10
241.2341900334079
 20
78.87182133811868
 30
0.0
 10
240.8990647145406
 20
79.06530603117893
 30
0.0
 10
239.8993533962005
 20
79.64248962993453
 30
0.0
 10
239.2404192931352
 20
80.02292541171751
 30
0.0
 10
238.5868486677095
 20
80.40026458824144
 30
0.0
  0
SPLINE
  5
1CD
330
1F
100
AcDbEntity
  8
0
  6
Continuous
 62
     7
370
    25
100
AcDbSpline
210
0.0
220
0.0
230
1.0
 70
    24
 71
     3
 72
    10
 73
     6
 74
     0
 42
0.00000001
 43
0.00000001
 40
0.0
 40
0.0
 40
0.0
 40
0.0
 40
0.5
 40
0.5
 40
1.0
 40
1.0
 40
1.0
 40
1.0
 10
238.0868486677096
 20
80.40026458824146
 30
0.0
 10
237.4308359011045
 20
80.02151544085017
 30
0.0
 10
236.7705689942468
 20
79.64031016443887
 30
0.0
 10
235.4382224756118
 20
78.87107954325108
 30
0.0
 10
234.7660694941244
 20
78.48301183845275
 30
0.0
 10
234.0868486677095
 20
78.09086351148292
 30
0.0
  0
SPLINE
  5
1CE
330
1F
100
AcDbEntity
  8
0
  6
Continuous
 62
     7
370
    25
100
AcDbSpline
210
0.0
220
0.0
230
1.0
 70
    24
 71
     3
 72
    10
 73
     6
 74
     0
 42
0.00000001
 43
0.00000001
 40
0.0
 40
0.0
 40
0.0
 40
0.0
 40
0.5
 40
0.5
 40
1.0
 40
1.0
 40
1.0
 40
1.0
 10
246.8368486677095
 20
66.11084542579817
 30
0.0
 10
246.8368486677095
 20
66.86832708600373
 30
0.0
 10
246.8368486677095
 20
67.6307946344472
 30
0.0
 10
246.8368486677095
 20
69.16925876878658
 30
0.0
 10
246.8368486677095
 20
69.94538144722912
 30
0.0
 10
246.8368486677095
 20
70.72964757931518
 30
0.0
  0
SPLINE
  5
1CF
330
1F
100
AcDbEntity
  8
0
  6
Continuous
 62
     7
370
    25
100
AcDbSpline
210
0.0
220
0.0
230
1.0
 70
     8
 71
     3
 72
    10
 73
     6
 74
     0
 42
0.00000001
 43
0.00000001
 40
0.0
 40
0.0
 40
0.0
 40
0.0
 40
0.5
 40
0.5
 40
1.0
 40
1.0
 40
1.0
 40
1.0
 10
246.8368486677095
 20
66.11084542579817
 30
0.0
 10
246.8368486677095
 20
66.02496378329172
 30
0.0
 10
246.8140580960621
 20
65.9375545773263
 30
0.0
 10
246.7261120987633
 20
65.78491209225136
 30
0.0
 10
246.6612513060305
 20
65.720789107169
 30
0.0
 10
246.5868486677095
 20
65.67783272390596
 30
0.0
  0
SPLINE
  5
1D0
330
1F
100
AcDbEntity
  8
0
  6
Continuous
 62
     7
370
    25
100
AcDbSpline
210
0.0
220
0.0
230
1.0
 70
    24
 71
     3
 72
    12
 73
     8
 74
     0
 42
0.00000001
 43
0.00000001
 40
0.0
 40
0.0
 40
0.0
 40
0.0
 40
0.2499999999999999
 40
0.2499999999999999
 40
0.4999999999999998
 40
0.4999999999999998
 40
1.0
 40
1.0
 40
1.0
 40
1.0
 10
242.5868486677095
 20
63.36843164714745
 30
0.0
 10
242.9246046027323
 20
63.56343512715325
 30
0.0
 10
243.2650126176108
 20
63.75996978617766
 30
0.0
 10
243.9395073020112
 20
64.1493894737832
 30
0.0
 10
244.2746326208785
 20
64.34287416684347
 30
0.0
 10
245.2743439392186
 20
64.92005776559907
 30
0.0
 10
245.9332780422839
 20
65.30049354738205
 30
0.0
 10
246.5868486677096
 20
65.67783272390598
 30
0.0
  0
SPLINE
  5
1D1
330
1F
100
AcDbEntity
  8
0
  6
Continuous
 62
     7
370
    25
100
AcDbSpline
210
0.0
220
0.0
230
1.0
 70
     8
 71
     3
 72
    10
 73
     6
 74
     0
 42
0.00000001
 43
0.00000001
 40
0.0
 40
0.0
 40
0.0
 40
0.0
 40
0.5
 40
0.5
 40
1.0
 40
1.0
 40
1.0
 40
1.0
 10
246.5868486677095
 20
75.78146243472442
 30
0.0
 10
246.6612191346351
 20
75.73852462562517
 30
0.0
 10
246.725524730923
 20
75.67508403573298
 30
0.0
 10
246.8137475187288
 20
75.52259489022414
 30
0.0
 10
246.8368486677095
 20
75.43436550102082
 30
0.0
 10
246.8368486677095
 20
75.3484497328322
 30
0.0
  0
SPLINE
  5
1D2
330
1F
100
AcDbEntity
  8
0
  6
Continuous
 62
     7
370
    25
100
AcDbSpline
210
0.0
220
0.0
230
1.0
 70
    24
 71
     3
 72
    12
 73
     8
 74
     0
 42
0.00000001
 43
0.00000001
 40
0.0
 40
0.0
 40
0.0
 40
0.0
 40
0.25
 40
0.25
 40
0.5
 40
0.5
 40
1.0
 40
1.0
 40
1.0
 40
1.0
 10
246.8368486677095
 20
70.72964757931518
 30
0.0
 10
246.8368486677095
 20
71.12131950569011
 30
0.0
 10
246.8368486677095
 20
71.5162223972117
 30
0.0
 10
246.8368486677095
 20
72.29715842745901
 30
0.0
 10
246.8368486677095
 20
72.68456655939029
 30
0.0
 10
246.8368486677095
 20
73.83869618605026
 30
0.0
 10
246.8368486677095
 20
74.59735059498679
 30
0.0
 10
246.8368486677095
 20
75.3484497328322
 30
0.0
  0
SPLINE
  5
1D3
330
1F
100
AcDbEntity
  8
0
  6
Continuous
 62
     7
370
    25
100
AcDbSpline
210
0.0
220
0.0
230
1.0
 70
    24
 71
     3
 72
    10
 73
     6
 74
     0
 42
0.00000001
 43
0.00000001
 40
0.0
 40
0.0
 40
0.0
 40
0.0
 40
0.5
 40
0.5
 40
1.0
 40
1.0
 40
1.0
 40
1.0
 10
246.5868486677096
 20
75.78146243472439
 30
0.0
 10
245.9308359011045
 20
76.16021158211568
 30
0.0
 10
245.2705689942468
 20
76.54141685852697
 30
0.0
 10
243.9382224756118
 20
77.31064747971476
 30
0.0
 10
243.2660694941245
 20
77.69871518451309
 30
0.0
 10
242.5868486677095
 20
78.09086351148292
 30
0.0
  0
LINE
  5
1D4
330
1F
100
AcDbEntity
  8
0
  6
Continuous
 62
     7
370
    25
100
AcDbLine
 10
238.0868486677
 20
58.7296475793
 30
0.0
 11
238.0868486677
 21
61.0590305704
 31
0.0
  0
LINE
  5
1D5
330
1F
100
AcDbEntity
  8
0
  6
Continuous
 62
     7
370
    25
100
AcDbLine
 10
238.5868486677
 20
61.0590305704
 30
0.0
 11
238.5868486677
 21
58.7296475793
 31
0.0
  0
LINE
  5
1D6
330
1F
100
AcDbEntity
  8
0
  6
Continuous
 62
     7
370
    25
100
AcDbLine
 10
238.5868486677
 20
58.7296475793
 30
0.0
 11
238.0868486677
 21
58.7296475793
 31
0.0
  0
SPLINE
  5
1D7
330
1F
100
AcDbEntity
  8
0
  6
Continuous
 62
     7
370
    25
100
AcDbSpline
210
0.0
220
0.0
230
1.0
 70
     8
 71
     3
 72
    10
 73
     6
 74
     0
 42
0.00000001
 43
0.00000001
 40
0.0
 40
0.0
 40
0.0
 40
0.0
 40
0.5
 40
0.5
 40
1.0
 40
1.0
 40
1.0
 40
1.0
 10
230.08684866771
 20
62.76325103946034
 30
0.0
 10
230.7216763735237
 20
62.96531772501127
 30
0.0
 10
231.3609420760994
 20
63.13171049728192
 30
0.0
 10
232.6517570076893
 20
63.36575747115196
 30
0.0
 10
233.3033766431592
 20
63.43284572511079
 30
0.0
 10
233.9624185749793
 20
63.44027139468057
 30
0.0
  0
LINE
  5
1D8
330
1F
100
AcDbEntity
  8
0
  6
Continuous
 62
     7
370
    25
100
AcDbLine
 10
230.0868486677
 20
62.7632510395
 30
0.0
 11
230.0868486677
 21
58.7296475793
 31
0.0
  0
LINE
  5
1D9
330
1F
100
AcDbEntity
  8
0
  6
Continuous
 62
     7
370
    25
100
AcDbLine
 10
230.0868486677
 20
58.7296475793
 30
0.0
 11
238.0868486677
 21
58.7296475793
 31
0.0
  0
SPLINE
  5
1DA
330
1F
100
AcDbEntity
  8
0
  6
Continuous
 62
     7
370
    25
100
AcDbSpline
210
0.0
220
0.0
230
1.0
 70
     8
 71
     3
 72
    12
 73
     8
 74
     0
 42
0.00000001
 43
0.00000001
 40
0.0
 40
0.0
 40
0.0
 40
0.0
 40
0.2500000000000002
 40
0.2500000000000002
 40
0.5000000000000004
 40
0.5000000000000004
 40
1.0
 40
1.0
 40
1.0
 40
1.0
 10
242.7112787604619
 20
63.44027139468032
 30
0.0
 10
243.0404137508551
 20
63.43656290882389
 30
0.0
 10
243.3698759037918
 20
63.41798040598621
 30
0.0
 10
244.0227495218495
 20
63.35311336902006
 30
0.0
 10
244.3472021137266
 20
63.30684781576981
 30
0.0
 10
245.3152625549186
 20
63.13112328546285
 30
0.0
 10
245.9535850391666
 20
62.96481987668609
 30
0.0
 10
246.5868486677095
 20
62.76325103946019
 30
0.0
  0
LINE
  5
1DB
330
1F
100
AcDbEntity
  8
0
  6
Continuous
 62
     7
370
    25
100
AcDbLine
 10
246.5868486677
 20
58.7296475793
 30
0.0
 11
246.5868486677
 21
62.7632510395
 31
0.0
  0
LINE
  5
1DC
330
1F
100
AcDbEntity
  8
0
  6
Continuous
 62
     7
370
    25
100
AcDbLine
 10
238.5868486677
 20
58.7296475793
 30
0.0
 11
246.5868486677
 21
58.7296475793
 31
0.0
  0
SPLINE
  5
1DD
330
1F
100
AcDbEntity
  8
0
  6
Continuous
 62
     7
370
    25
100
AcDbSpline
210
0.0
220
0.0
230
1.0
 70
     8
 71
     3
 72
     8
 73
     4
 74
     0
 42
0.00000001
 43
0.00000001
 40
0.0
 40
0.0
 40
0.0
 40
0.0
 40
1.0
 40
1.0
 40
1.0
 40
1.0
 10
231.408645437434
 20
63.72964757931519
 30
0.0
 10
230.8822245762248
 20
63.46643714871058
 30
0.0
 10
230.3586801195111
 20
63.19733972032387
 30
0.0
 10
229.8368486677095
 20
62.92473636774122
 30
0.0
  0
SPLINE
  5
1DE
330
1F
100
AcDbEntity
  8
0
  6
Continuous
 62
     7
370
    25
100
AcDbSpline
210
0.0
220
0.0
230
1.0
 70
     8
 71
     3
 72
    10
 73
     6
 74
     0
 42
0.00000001
 43
0.00000001
 40
0.0
 40
0.0
 40
0.0
 40
0.0
 40
0.5
 40
0.5
 40
1.0
 40
1.0
 40
1.0
 40
1.0
 10
229.8368486677095
 20
62.76325103946012
 30
0.0
 10
229.8368486677095
 20
62.73957564503571
 30
0.0
 10
229.8596411170394
 20
62.72648453515113
 30
0.0
 10
229.9475838211326
 20
62.7263982138629
 30
0.0
 10
230.0124415948068
 20
62.73956714780685
 30
0.0
 10
230.0868486677102
 20
62.7632510394604
 30
0.0
  0
SPLINE
  5
1DF
330
1F
100
AcDbEntity
  8
0
  6
Continuous
 62
     7
370
    25
100
AcDbSpline
210
0.0
220
0.0
230
1.0
 70
    24
 71
     3
 72
     8
 73
     4
 74
     0
 42
0.00000001
 43
0.00000001
 40
0.0
 40
0.0
 40
0.0
 40
0.0
 40
1.0
 40
1.0
 40
1.0
 40
1.0
 10
229.8368486677095
 20
62.76325103946019
 30
0.0
 10
229.8368486677095
 20
62.8198120065844
 30
0.0
 10
229.8368486677095
 20
62.87375207799825
 30
0.0
 10
229.8368486677095
 20
62.9247363677412
 30
0.0
  0
SPLINE
  5
1E0
330
1F
100
AcDbEntity
  8
0
  6
Continuous
 62
     7
370
    25
100
AcDbSpline
210
0.0
220
0.0
230
1.0
 70
     8
 71
     3
 72
     8
 73
     4
 74
     0
 42
0.00000001
 43
0.00000001
 40
0.0
 40
0.0
 40
0.0
 40
0.0
 40
1.0
 40
1.0
 40
1.0
 40
1.0
 10
246.8368486677095
 20
62.9247363677412
 30
0.0
 10
246.3150425164077
 20
63.19732650341056
 30
0.0
 10
245.7913890475515
 20
63.46647900453195
 30
0.0
 10
245.265051897985
 20
63.72964757931519
 30
0.0
  0
SPLINE
  5
1E1
330
1F
100
AcDbEntity
  8
0
  6
Continuous
 62
     7
370
    25
100
AcDbSpline
210
0.0
220
0.0
230
1.0
 70
     8
 71
     3
 72
    10
 73
     6
 74
     0
 42
0.00000001
 43
0.00000001
 40
0.0
 40
0.0
 40
0.0
 40
0.0
 40
0.5
 40
0.5
 40
1.0
 40
1.0
 40
1.0
 40
1.0
 10
246.5868486677095
 20
62.76325103946019
 30
0.0
 10
246.6612290450869
 20
62.73957564503579
 30
0.0
 10
246.7255296838727
 20
62.72648453515116
 30
0.0
 10
246.8137453686556
 20
62.72639821386287
 30
0.0
 10
246.8368486677095
 20
62.73956714780672
 30
0.0
 10
246.8368486677095
 20
62.76325103946018
 30
0.0
  0
SPLINE
  5
1E2
330
1F
100
AcDbEntity
  8
0
  6
Continuous
 62
     7
370
    25
100
AcDbSpline
210
0.0
220
0.0
230
1.0
 70
    24
 71
     3
 72
     8
 73
     4
 74
     0
 42
0.00000001
 43
0.00000001
 40
0.0
 40
0.0
 40
0.0
 40
0.0
 40
1.0
 40
1.0
 40
1.0
 40
1.0
 10
246.8368486677095
 20
62.76325103946019
 30
0.0
 10
246.8368486677095
 20
62.81981200658441
 30
0.0
 10
246.8368486677095
 20
62.87375207799825
 30
0.0
 10
246.8368486677095
 20
62.9247363677412
 30
0.0
  0
LINE
  5
1E3
330
1F
100
AcDbEntity
  8
0
  6
Continuous
 62
     7
370
    25
100
AcDbLine
 10
230.8368486677
 20
65.244820022
 30
0.0
 11
230.8368486677
 21
63.7296475793
 31
0.0
  0
LINE
  5
1E4
330
1F
100
AcDbEntity
  8
0
  6
Continuous
 62
     7
370
    25
100
AcDbLine
 10
230.8368486677
 20
63.7296475793
 30
0.0
 11
233.4612043207
 21
63.7296475793
 31
0.0
  0
LINE
  5
1E5
330
1F
100
AcDbEntity
  8
0
  6
Continuous
 62
     7
370
    25
100
AcDbLine
 10
245.8368486677
 20
63.7296475793
 30
0.0
 11
245.8368486677
 21
65.244820022
 31
0.0
  0
LINE
  5
1E6
330
1F
100
AcDbEntity
  8
0
  6
Continuous
 62
     7
370
    25
100
AcDbLine
 10
243.2124930147
 20
63.7296475793
 30
0.0
 11
245.8368486677
 21
63.7296475793
 31
0.0
  0
LINE
  5
1E7
330
1F
100
AcDbEntity
  8
0
  6
Continuous
 62
     7
370
    25
100
AcDbLine
 10
231.8808865535
 20
49.3184352331
 30
0.0
 11
244.7928107819
 21
49.3184352331
 31
0.0
  0
LINE
  5
1E8
330
1F
100
AcDbEntity
  8
0
  6
Continuous
 62
     7
370
    25
100
AcDbLine
 10
238.3368486677
 20
47.2296475793
 30
0.0
 11
233.0868486677
 21
47.2296475793
 31
0.0
  0
LINE
  5
1E9
330
1F
100
AcDbEntity
  8
0
  6
Continuous
 62
     7
370
    25
100
AcDbLine
 10
243.5868486677
 20
47.2296475793
 30
0.0
 11
238.3368486677
 21
47.2296475793
 31
0.0
  0
LINE
  5
1EA
330
1F
100
AcDbEntity
  8
0
  6
Continuous
 62
     7
370
    25
100
AcDbLine
 10
230.0868486677
 20
58.7296475793
 30
0.0
 11
229.8368486677
 21
58.7296475793
 31
0.0
  0
LINE
  5
1EB
330
1F
100
AcDbEntity
  8
0
  6
Continuous
 62
     7
370
    25
100
AcDbLine
 10
229.8368486677
 20
58.7296475793
 30
0.0
 11
229.8368486677
 21
62.7632510395
 31
0.0
  0
LINE
  5
1EC
330
1F
100
AcDbEntity
  8
0
  6
Continuous
 62
     7
370
    25
100
AcDbLine
 10
246.8368486677
 20
58.7296475793
 30
0.0
 11
246.5868486677
 21
58.7296475793
 31
0.0
  0
LINE
  5
1ED
330
1F
100
AcDbEntity
  8
0
  6
Continuous
 62
     7
370
    25
100
AcDbLine
 10
246.8368486677
 20
62.7632510395
 30
0.0
 11
246.8368486677
 21
58.7296475793
 31
0.0
  0
LINE
  5
1EE
330
1F
100
AcDbEntity
  8
0
  6
Continuous
 62
     7
370
    25
100
AcDbLine
 10
229.8368486677
 20
62.9247363677
 30
0.0
 11
229.8368486677
 21
66.0554788993
 31
0.0
  0
LINE
  5
1EF
330
1F
100
AcDbEntity
  8
0
  6
Continuous
 62
     7
370
    25
100
AcDbLine
 10
246.8368486677
 20
62.9247363677
 30
0.0
 11
246.8368486677
 21
66.0554788993
 31
0.0
  0
SPLINE
  5
1F0
330
1F
100
AcDbEntity
  8
0
  6
Continuous
 62
     7
370
    25
100
AcDbSpline
210
0.0
220
0.0
230
1.0
 70
     8
 71
     3
 72
    11
 73
     7
 74
     0
 42
0.00000001
 43
0.00000001
 40
0.0
 40
0.0
 40
0.0
 40
0.0
 40
0.0055682347466184
 40
0.1918263368321039
 40
0.6296575784328784
 40
1.0
 40
1.0
 40
1.0
 40
1.0
 10
235.9804840232745
 20
101.2296475793152
 30
0.0
 10
235.9790998051986
 20
101.2296435602416
 30
0.0
 10
235.9314133309473
 20
101.2295051026877
 30
0.0
 10
235.7774431481089
 20
101.2032663266343
 30
0.0
 10
235.5318680733444
 20
101.0491933632129
 30
0.0
 10
235.4996962875341
 20
100.751934009454
 30
0.0
 10
235.4849536924631
 20
100.6157160727385
 30
0.0
  0
SPLINE
  5
1F1
330
1F
100
AcDbEntity
  8
0
  6
Continuous
 62
     7
370
    25
100
AcDbSpline
210
0.0
220
0.0
230
1.0
 70
     8
 71
     3
 72
    11
 73
     7
 74
     0
 42
0.00000001
 43
0.00000001
 40
0.0
 40
0.0
 40
0.0
 40
0.0
 40
0.3703424215671234
 40
0.8081736631678964
 40
0.9944317652533821
 40
1.0
 40
1.0
 40
1.0
 40
1.0
 10
241.188743642956
 20
100.6157160727385
 30
0.0
 10
241.174001047885
 20
100.751934009454
 30
0.0
 10
241.1418292620746
 20
101.0491933632129
 30
0.0
 10
240.8962541873105
 20
101.2032663266344
 30
0.0
 10
240.7422840044714
 20
101.2295051026875
 30
0.0
 10
240.6945975302204
 20
101.2296435602416
 30
0.0
 10
240.6932133121445
 20
101.2296475793152
 30
0.0
  0
LINE
  5
1F2
330
1F
100
AcDbEntity
  8
0
  6
Continuous
 62
     7
370
    25
100
AcDbLine
 10
239.8246304875
 20
89.6378530596
 30
0.0
 11
241.188743643
 21
100.6157160727
 31
0.0
  0
SPLINE
  5
1F3
330
1F
100
AcDbEntity
  8
0
  6
Continuous
 62
     7
370
    25
100
AcDbSpline
210
0.0
220
0.0
230
1.0
 70
     8
 71
     3
 72
    14
 73
    10
 74
     0
 42
0.00000001
 43
0.00000001
 40
0.0
 40
0.0
 40
0.0
 40
0.0
 40
0.0034863238848208
 40
0.0203208804397725
 40
0.2238597133569324
 40
0.4563556157495303
 40
0.6945924899112474
 40
0.845724996562609
 40
1.0
 40
1.0
 40
1.0
 40
1.0
 10
238.3380394950411
 20
88.22964757931517
 30
0.0
 10
238.3402921364419
 20
88.2296510856641
 30
0.0
 10
238.3534222006848
 20
88.22967152326531
 30
0.0
 10
238.4980583839411
 20
88.23213206601851
 30
0.0
 10
238.790077643127
 20
88.2821753308263
 30
0.0
 10
239.2014620566654
 20
88.4907779680161
 30
0.0
 10
239.5234192864498
 20
88.82515428314488
 30
0.0
 10
239.739847250161
 20
89.21735587371616
 30
0.0
 10
239.7961762090479
 20
89.49672912537734
 30
0.0
 10
239.8246304874754
 20
89.63785305958518
 30
0.0
  0
SPLINE
  5
1F4
330
1F
100
AcDbEntity
  8
0
  6
Continuous
 62
     7
370
    25
100
AcDbSpline
210
0.0
220
0.0
230
1.0
 70
     8
 71
     3
 72
    14
 73
    10
 74
     0
 42
0.00000001
 43
0.00000001
 40
0.0
 40
0.0
 40
0.0
 40
0.0
 40
0.1509076573000546
 40
0.3054080403738433
 40
0.5376023347316409
 40
0.7761416404828171
 40
0.9796792424551188
 40
0.9965136971994736
 40
1.0
 40
1.0
 40
1.0
 40
1.0
 10
236.8490668479437
 20
89.63785305958518
 30
0.0
 10
236.8767159857131
 20
89.49969367762155
 30
0.0
 10
236.9326725165827
 20
89.22008569178637
 30
0.0
 10
237.1461466137901
 20
88.83131658177085
 30
0.0
 10
237.4685906807075
 20
88.49333418223145
 30
0.0
 10
237.8797384999455
 20
88.28283650892811
 30
0.0
 10
238.1756386445392
 20
88.23213219128309
 30
0.0
 10
238.3202751367269
 20
88.22967152245202
 30
0.0
 10
238.333405199269
 20
88.229651085545
 30
0.0
 10
238.335657840378
 20
88.22964757931517
 30
0.0
  0
LINE
  5
1F5
330
1F
100
AcDbEntity
  8
0
  6
Continuous
 62
     7
370
    25
100
AcDbLine
 10
235.4849536925
 20
100.6157160727
 30
0.0
 11
236.8490668479
 21
89.6378530596
 31
0.0
  0
LINE
  5
1F6
330
1F
100
AcDbEntity
  8
0
  6
Continuous
 62
     7
370
    25
100
AcDbLine
 10
236.3535365171
 20
89.962823555
 30
0.0
 11
234.9894233617
 21
100.0962355672
 31
0.0
  0
ARC
  5
1F7
330
1F
100
AcDbEntity
  8
0
  6
Continuous
 62
     7
370
    25
100
AcDbCircle
 10
235.4723903461
 20
100.1316177662
 30
0.0
 40
0.4842613014162925
100
AcDbArc
 50
88.5133904064
 51
184.1900080067
  0
ARC
  5
1F8
330
1F
100
AcDbEntity
  8
0
  6
Continuous
 62
     7
370
    25
100
AcDbCircle
 10
236.7812504048
 20
90.0747326019
 30
0.0
 40
0.44211175558412
100
AcDbArc
 50
194.6624451414
 51
278.8235542459
  0
LINE
  5
1F9
330
1F
100
AcDbEntity
  8
0
  6
Continuous
 62
     7
370
    25
100
AcDbLine
 10
241.6842739738
 20
100.0962355672
 30
0.0
 11
240.3201608183
 21
89.962823555
 31
0.0
  0
ARC
  5
1FA
330
1F
100
AcDbEntity
  8
0
  6
Continuous
 62
     7
370
    25
100
AcDbCircle
 10
239.8924469307
 20
90.0747326019
 30
0.0
 40
0.442111755584127
100
AcDbArc
 50
261.1764457541
 51
345.3375548586
  0
ARC
  5
1FB
330
1F
100
AcDbEntity
  8
0
  6
Continuous
 62
     7
370
    25
100
AcDbCircle
 10
241.2013069893
 20
100.1316177662
 30
0.0
 40
0.4842613014163588
100
AcDbArc
 50
355.8099919933
 51
91.4866095936
  0
SPLINE
  5
1FC
330
1F
100
AcDbEntity
  8
0
  6
Continuous
 62
     7
370
    25
100
AcDbSpline
210
0.0
220
0.0
230
1.0
 70
     8
 71
     3
 72
    15
 73
    11
 74
     0
 42
0.00000001
 43
0.00000001
 40
0.0
 40
0.0
 40
0.0
 40
0.0
 40
0.0032941481656695
 40
0.0389555300109692
 40
0.0923164936584479
 40
0.2214838269818532
 40
0.4557558860746477
 40
0.689612382821521
 40
0.8449486292273382
 40
1.0
 40
1.0
 40
1.0
 40
1.0
 10
238.335657840378
 20
88.22964757931517
 30
0.0
 10
238.3327874291242
 20
88.22965160336942
 30
0.0
 10
238.2988428746851
 20
88.22969919053232
 30
0.0
 10
238.2184057204261
 20
88.23195490956995
 30
0.0
 10
238.0286672069883
 20
88.2482515392258
 30
0.0
 10
237.6700122334036
 20
88.32273381502151
 30
0.0
 10
237.1791794152528
 20
88.55519345662849
 30
0.0
 10
236.7491406183076
 20
88.96971602227761
 30
0.0
 10
236.4639546517013
 20
89.45265453713314
 30
0.0
 10
236.3903200345562
 20
89.79287130006699
 30
0.0
 10
236.3535365171323
 20
89.9628235550321
 30
0.0
  0
SPLINE
  5
1FD
330
1F
100
AcDbEntity
  8
0
  6
Continuous
 62
     7
370
    25
100
AcDbSpline
210
0.0
220
0.0
230
1.0
 70
     8
 71
     3
 72
    15
 73
    11
 74
     0
 42
0.00000001
 43
0.00000001
 40
0.0
 40
0.0
 40
0.0
 40
0.0
 40
0.1525119975281641
 40
0.3103908680493854
 40
0.5397217434700959
 40
0.7785238912153802
 40
0.9076867233570571
 40
0.9610458274988164
 40
0.9967059666277488
 40
1.0
 40
1.0
 40
1.0
 40
1.0
 10
240.3201608182868
 20
89.9628235550321
 30
0.0
 10
240.2841926634189
 20
89.79538763754218
 30
0.0
 10
240.2109906400206
 20
89.45462375919388
 30
0.0
 10
239.9286826165493
 20
88.97578957517493
 30
0.0
 10
239.4978527968664
 20
88.55659050517667
 30
0.0
 10
239.00763323515
 20
88.32368721895834
 30
0.0
 10
238.6450269365261
 20
88.24824093252734
 30
0.0
 10
238.4552919732154
 20
88.2319560999401
 30
0.0
 10
238.3748544559133
 20
88.22969917451832
 30
0.0
 10
238.340909905919
 20
88.22965160212081
 30
0.0
 10
238.3380394950411
 20
88.22964757931517
 30
0.0
  0
SPLINE
  5
1FE
330
1F
100
AcDbEntity
  8
0
  6
Continuous
 62
     7
370
    25
100
AcDbSpline
210
0.0
220
0.0
230
1.0
 70
     8
 71
     3
 72
    17
 73
    13
 74
     0
 42
0.00000001
 43
0.00000001
 40
0.0
 40
0.0
 40
0.0
 40
0.0
 40
0.164398525155122
 40
0.3825210752049383
 40
0.7105911790613387
 40
0.8150577891621212
 40
0.8799902898774311
 40
0.9216743917957981
 40
0.948759549159293
 40
0.9664454853042714
 40
0.9948962613988914
 40
0.9999999999999999
 40
0.9999999999999999
 40
0.9999999999999999
 40
0.9999999999999999
 10
234.9894233616517
 20
100.0962355671737
 30
0.0
 10
234.9862080412755
 20
100.2082400779869
 30
0.0
 10
234.9787266614624
 20
100.4688512109862
 30
0.0
 10
235.1620838764799
 20
100.8617897994722
 30
0.0
 10
235.4380820113544
 20
101.0944903798523
 30
0.0
 10
235.6799470154067
 20
101.1864438180879
 30
0.0
 10
235.7855686835908
 20
101.2116305062302
 30
0.0
 10
235.8532657464213
 20
101.2219959422061
 30
0.0
 10
235.8972525957445
 20
101.226379167354
 30
0.0
 10
235.9345832200558
 20
101.228801524032
 30
0.0
 10
235.960744478557
 20
101.2295984039643
 30
0.0
 10
235.9778779697736
 20
101.2296410870887
 30
0.0
 10
235.9804840232745
 20
101.2296475793152
 30
0.0
  0
SPLINE
  5
1FF
330
1F
100
AcDbEntity
  8
0
  6
Continuous
 62
     7
370
    25
100
AcDbSpline
210
0.0
220
0.0
230
1.0
 70
     8
 71
     3
 72
    17
 73
    13
 74
     0
 42
0.00000001
 43
0.00000001
 40
0.0
 40
0.0
 40
0.0
 40
0.0
 40
0.0051037386011219
 40
0.0335545146957463
 40
0.0512404508406915
 40
0.0783256082042153
 40
0.1200097101225738
 40
0.184942210837869
 40
0.2894088209386605
 40
0.6174789247950602
 40
0.8356014748448779
 40
1.0
 40
1.0
 40
1.0
 40
1.0
 10
240.6932133121445
 20
101.2296475793152
 30
0.0
 10
240.6958193656455
 20
101.2296410870887
 30
0.0
 10
240.7129528568625
 20
101.2295984039642
 30
0.0
 10
240.7391141153632
 20
101.228801524032
 30
0.0
 10
240.7764447396747
 20
101.226379167354
 30
0.0
 10
240.8204315889978
 20
101.2219959422061
 30
0.0
 10
240.8881286518283
 20
101.2116305062302
 30
0.0
 10
240.9937503200124
 20
101.1864438180879
 30
0.0
 10
241.2356153240646
 20
101.0944903798524
 30
0.0
 10
241.5116134589391
 20
100.8617897994722
 30
0.0
 10
241.6949706739567
 20
100.4688512109862
 30
0.0
 10
241.6874892941435
 20
100.2082400779869
 30
0.0
 10
241.6842739737674
 20
100.0962355671737
 30
0.0
  0
LWPOLYLINE
  5
200
330
1F
100
AcDbEntity
  8
0
  6
Continuous
 62
     7
370
    25
100
AcDbPolyline
 90
       14
 70
   128
 43
0.0
 10
238.3356578405
 20
88.2296474142
 10
237.3714640203
 20
88.2296474154
 10
236.4213450175
 20
88.229647419
 10
235.499153084
 20
88.229647425
 10
234.6183333093
 20
88.2296474331
 10
233.7917275981
 20
88.2296474435
 10
233.0313874412
 20
88.2296474557
 10
232.3483982116
 20
88.2296474698
 10
231.752717545
 20
88.2296474855
 10
231.2530301627
 20
88.2296475026
 10
230.8566212526
 20
88.2296475208
 10
230.5692702551
 20
88.2296475398
 10
230.3951666017
 20
88.2296475594
 10
230.3368486352
 20
88.2296475793
  0
LINE
  5
201
330
1F
100
AcDbEntity
  8
0
  6
Continuous
 62
     7
370
    25
100
AcDbLine
 10
235.3080025139
 20
97.7296475793
 30
0.0
 11
232.4117355444
 21
97.7296475793
 31
0.0
  0
LINE
  5
202
330
1F
100
AcDbEntity
  8
0
  6
Continuous
 62
     7
370
    25
100
AcDbLine
 10
244.261961791
 20
97.7296475793
 30
0.0
 11
241.3656948216
 21
97.7296475793
 31
0.0
  0
LWPOLYLINE
  5
203
330
1F
100
AcDbEntity
  8
0
  6
Continuous
 62
     7
370
    25
100
AcDbPolyline
 90
       14
 70
   128
 43
0.0
 10
246.3368487002
 20
88.2296475793
 10
246.2785307337
 20
88.2296475992
 10
246.1044270803
 20
88.2296476188
 10
245.8170760828
 20
88.2296476378
 10
245.4206671728
 20
88.229647656
 10
244.9209797904
 20
88.2296476731
 10
244.3252991238
 20
88.2296476888
 10
243.6423098942
 20
88.2296477028
 10
242.8819697373
 20
88.2296477151
 10
242.0553640261
 20
88.2296477255
 10
241.1745442515
 20
88.2296477336
 10
240.252352318
 20
88.2296477396
 10
239.3022333151
 20
88.2296477432
 10
238.3380394949
 20
88.2296474142
  0
LINE
  5
204
330
1F
100
AcDbEntity
  8
0
  6
Continuous
 62
     7
370
    25
100
AcDbLine
 10
245.3712890658
 20
81.2296475793
 30
0.0
 11
231.3024082694
 21
81.2296475793
 31
0.0
  0
LINE
  5
205
330
1F
100
AcDbEntity
  8
0
  6
Continuous
 62
     7
370
    25
100
AcDbLine
 10
233.2417407369
 20
99.7296475793
 30
0.0
 11
235.0387717446
 21
99.7296475793
 31
0.0
  0
LINE
  5
206
330
1F
100
AcDbEntity
  8
0
  6
Continuous
 62
     7
370
    25
100
AcDbLine
 10
241.6349255908
 20
99.7296475793
 30
0.0
 11
243.4319566511
 21
99.7296475793
 31
0.0
  0
SPLINE
  5
207
330
1F
100
AcDbEntity
  8
0
  6
Continuous
 62
     7
370
    25
100
AcDbSpline
210
0.0
220
0.0
230
1.0
 70
     8
 71
     3
 72
    18
 73
    14
 74
     0
 42
0.00000001
 43
0.00000001
 40
0.0
 40
0.0
 40
0.0
 40
0.0
 40
0.0468470988102676
 40
0.1374764718816178
 40
0.2589365014388857
 40
0.3806102133583329
 40
0.3961094080144726
 40
0.5263203276972188
 40
0.6565295885336822
 40
0.7575138602724981
 40
0.8582949860321027
 40
0.9376159223438641
 40
1.0
 40
1.0
 40
1.0
 40
1.0
 10
238.9513064546961
 20
80.18984478681651
 30
0.0
 10
239.0939546844992
 20
80.17917467877454
 30
0.0
 10
239.5125670607514
 20
80.14786241301086
 30
0.0
 10
240.2662577925513
 20
79.97531942118728
 30
0.0
 10
241.1637836485448
 20
79.6605389090363
 30
0.0
 10
241.7735673398438
 20
79.34544116506248
 30
0.0
 10
242.3493050114459
 20
78.99911644517353
 30
0.0
 10
242.8866775166306
 20
78.61855987779488
 30
0.0
 10
243.452597190294
 20
78.12093421866136
 30
0.0
 10
243.8541766995765
 20
77.70770005274638
 30
0.0
 10
244.093513525172
 20
77.43432617492905
 30
0.0
 10
244.2186704800862
 20
77.2826294880805
 30
0.0
 10
244.2259862001419
 20
77.27320024496478
 30
0.0
 10
244.2292068656306
 20
77.26904912413782
 30
0.0
  0
SPLINE
  5
208
330
1F
100
AcDbEntity
  8
0
  6
Continuous
 62
     7
370
    25
100
AcDbSpline
210
0.0
220
0.0
230
1.0
 70
     8
 71
     3
 72
    19
 73
    15
 74
     0
 42
0.00000001
 43
0.00000001
 40
0.0
 40
0.0
 40
0.0
 40
0.0
 40
0.0663333437852787
 40
0.1059200314748165
 40
0.1953050826288588
 40
0.2848563921010823
 40
0.4058503615678447
 40
0.5269305616783242
 40
0.6283654828445518
 40
0.7297331263822868
 40
0.8191447630770162
 40
0.908482422891513
 40
0.986872300691758
 40
1.0
 40
1.0
 40
1.0
 40
1.0
 10
232.4387937625531
 20
77.2622192057859
 30
0.0
 10
232.4435333296571
 20
77.26801627839252
 30
0.0
 10
232.4511013952511
 20
77.27727295200368
 30
0.0
 10
232.5323566418801
 20
77.37627860400386
 30
0.0
 10
232.6820249371651
 20
77.55311594459756
 30
0.0
 10
232.9904138763718
 20
77.8899268191347
 30
0.0
 10
233.4476576955761
 20
78.33051480388212
 30
0.0
 10
234.0459851454502
 20
78.81253359928331
 30
0.0
 10
234.7158696538703
 20
79.24846133418511
 30
0.0
 10
235.4060236712296
 20
79.60481213697244
 30
0.0
 10
236.1421102839829
 20
79.89165431372022
 30
0.0
 10
236.8749171780913
 20
80.08363713895521
 30
0.0
 10
237.4154785594077
 20
80.18333763596489
 30
0.0
 10
237.6964479568433
 20
80.19627945516856
 30
0.0
 10
237.7367514906659
 20
80.19813588883274
 30
0.0
  0
LINE
  5
209
330
1F
100
AcDbEntity
  8
0
  6
Continuous
 62
     7
370
    25
100
AcDbLine
 10
230.8036789195
 20
81.6940240543
 30
0.0
 11
245.8700184159
 21
81.6940240543
 31
0.0
  0
LINE
  5
20A
330
1F
100
AcDbEntity
  8
0
  6
Continuous
 62
     7
370
    25
100
AcDbLine
 10
243.9210304515
 20
99.3336034247
 30
0.0
 11
241.5816119546
 21
99.3336034247
 31
0.0
  0
LINE
  5
20B
330
1F
100
AcDbEntity
  8
0
  6
Continuous
 62
     7
370
    25
100
AcDbLine
 10
235.0920853808
 20
99.3336034247
 30
0.0
 11
232.7526668839
 21
99.3336034247
 31
0.0
  0
INSERT
  5
217
330
1F
100
AcDbEntity
  8
0
  6
Continuous
 62
     7
370
    18
100
AcDbBlockReference
  2
SW_CENTERMARKSYMBOL_0
 10
238.3368486677
 20
70.7296475793
 30
0.0
  0
LINE
  5
218
330
1F
100
AcDbEntity
  8
0
  6
Continuous
 62
     7
370
    18
100
AcDbLine
 10
232.2705986677
 20
58.2296475793
 30
0.0
 11
232.5873103639
 21
48.0948733019
 31
0.0
  0
LINE
  5
219
330
1F
100
AcDbEntity
  8
0
  6
Continuous
 62
     7
370
    18
100
AcDbLine
 10
244.0863869715
 20
48.0948733019
 30
0.0
 11
244.4030986677
 21
58.2296475793
 31
0.0
  0
LINE
  5
21A
330
1F
100
AcDbEntity
  8
0
  6
Continuous
 62
     7
370
    25
100
AcDbLine
 10
181.9476121418
 20
126.8801759595
 30
0.0
 11
182.1476121418
 21
127.0801759595
 31
0.0
  0
LINE
  5
21B
330
1F
100
AcDbEntity
  8
0
  6
Continuous
 62
     7
370
    25
100
AcDbLine
 10
182.1476121418
 20
142.6801759595
 30
0.0
 11
181.9476121418
 21
142.8801759595
 31
0.0
  0
LINE
  5
21C
330
1F
100
AcDbEntity
  8
0
  6
Continuous
 62
     7
370
    25
100
AcDbLine
 10
179.1476121418
 20
126.8801759595
 30
0.0
 11
181.9476121418
 21
126.8801759595
 31
0.0
  0
LINE
  5
21D
330
1F
100
AcDbEntity
  8
0
  6
Continuous
 62
     7
370
    25
100
AcDbLine
 10
181.9476121418
 20
142.8801759595
 30
0.0
 11
179.1476121418
 21
142.8801759595
 31
0.0
  0
LINE
  5
21E
330
1F
100
AcDbEntity
  8
0
  6
Continuous
 62
     7
370
    25
100
AcDbLine
 10
189.1476121418
 20
130.8801759595
 30
0.0
 11
193.6476121418
 21
131.6301759595
 31
0.0
  0
LINE
  5
21F
330
1F
100
AcDbEntity
  8
0
  6
Continuous
 62
     7
370
    25
100
AcDbLine
 10
193.6476121418
 20
138.1301759595
 30
0.0
 11
189.1476121418
 21
138.8801759595
 31
0.0
  0
LINE
  5
220
330
1F
100
AcDbEntity
  8
0
  6
Continuous
 62
     7
370
    25
100
AcDbLine
 10
184.6476121418
 20
130.8801759595
 30
0.0
 11
189.1476121418
 21
131.6301759595
 31
0.0
  0
LINE
  5
221
330
1F
100
AcDbEntity
  8
0
  6
Continuous
 62
     7
370
    25
100
AcDbLine
 10
189.1476121418
 20
138.1301759595
 30
0.0
 11
184.6476121418
 21
138.8801759595
 31
0.0
  0
LINE
  5
222
330
1F
100
AcDbEntity
  8
0
  6
Continuous
 62
     7
370
    25
100
AcDbLine
 10
182.1476121418
 20
130.8801759595
 30
0.0
 11
184.6476121418
 21
130.8801759595
 31
0.0
  0
LINE
  5
223
330
1F
100
AcDbEntity
  8
0
  6
Continuous
 62
     7
370
    25
100
AcDbLine
 10
184.6476121418
 20
138.8801759595
 30
0.0
 11
182.1476121418
 21
138.8801759595
 31
0.0
  0
LINE
  5
224
330
1F
100
AcDbEntity
  8
0
  6
Continuous
 62
     7
370
    25
100
AcDbLine
 10
198.1476121418
 20
130.8801759595
 30
0.0
 11
202.6476121418
 21
131.6301759595
 31
0.0
  0
LINE
  5
225
330
1F
100
AcDbEntity
  8
0
  6
Continuous
 62
     7
370
    25
100
AcDbLine
 10
202.6476121418
 20
138.1301759595
 30
0.0
 11
198.1476121418
 21
138.8801759595
 31
0.0
  0
LINE
  5
226
330
1F
100
AcDbEntity
  8
0
  6
Continuous
 62
     7
370
    25
100
AcDbLine
 10
202.6476121418
 20
130.8801759595
 30
0.0
 11
206.6676121418
 21
131.5501759595
 31
0.0
  0
LINE
  5
227
330
1F
100
AcDbEntity
  8
0
  6
Continuous
 62
     7
370
    25
100
AcDbLine
 10
206.6676121418
 20
138.2101759595
 30
0.0
 11
202.6476121418
 21
138.8801759595
 31
0.0
  0
LINE
  5
228
330
1F
100
AcDbEntity
  8
0
  6
Continuous
 62
     7
370
    25
100
AcDbLine
 10
193.6476121418
 20
130.8801759595
 30
0.0
 11
198.1476121418
 21
131.6301759595
 31
0.0
  0
LINE
  5
229
330
1F
100
AcDbEntity
  8
0
  6
Continuous
 62
     7
370
    25
100
AcDbLine
 10
198.1476121418
 20
138.1301759595
 30
0.0
 11
193.6476121418
 21
138.8801759595
 31
0.0
  0
LINE
  5
22A
330
1F
100
AcDbEntity
  8
0
  6
Continuous
 62
     7
370
    25
100
AcDbLine
 10
206.6676121418
 20
131.5501759595
 30
0.0
 11
207.1476121418
 21
132.0301759595
 31
0.0
  0
LINE
  5
22B
330
1F
100
AcDbEntity
  8
0
  6
Continuous
 62
     7
370
    25
100
AcDbLine
 10
207.1476121418
 20
137.7301759595
 30
0.0
 11
206.6676121418
 21
138.2101759595
 31
0.0
  0
LINE
  5
22C
330
1F
100
AcDbEntity
  8
0
  6
Continuous
 62
     7
370
    25
100
AcDbLine
 10
153.3476121418
 20
142.8801759595
 30
0.0
 11
153.1476121418
 21
142.6801759595
 31
0.0
  0
LINE
  5
22D
330
1F
100
AcDbEntity
  8
0
  6
Continuous
 62
     7
370
    25
100
AcDbLine
 10
153.1476121418
 20
127.0801759595
 30
0.0
 11
153.3476121418
 21
126.8801759595
 31
0.0
  0
LINE
  5
22E
330
1F
100
AcDbEntity
  8
0
  6
Continuous
 62
     7
370
    25
100
AcDbLine
 10
156.1476121418
 20
142.8801759595
 30
0.0
 11
153.3476121418
 21
142.8801759595
 31
0.0
  0
LINE
  5
22F
330
1F
100
AcDbEntity
  8
0
  6
Continuous
 62
     7
370
    25
100
AcDbLine
 10
153.3476121418
 20
126.8801759595
 30
0.0
 11
156.1476121418
 21
126.8801759595
 31
0.0
  0
LINE
  5
230
330
1F
100
AcDbEntity
  8
0
  6
Continuous
 62
     7
370
    25
100
AcDbLine
 10
146.1476121418
 20
138.8801759595
 30
0.0
 11
141.6476121418
 21
138.1301759595
 31
0.0
  0
LINE
  5
231
330
1F
100
AcDbEntity
  8
0
  6
Continuous
 62
     7
370
    25
100
AcDbLine
 10
141.6476121418
 20
131.6301759595
 30
0.0
 11
146.1476121418
 21
130.8801759595
 31
0.0
  0
LINE
  5
232
330
1F
100
AcDbEntity
  8
0
  6
Continuous
 62
     7
370
    25
100
AcDbLine
 10
153.1476121418
 20
138.8801759595
 30
0.0
 11
150.6476121418
 21
138.8801759595
 31
0.0
  0
LINE
  5
233
330
1F
100
AcDbEntity
  8
0
  6
Continuous
 62
     7
370
    25
100
AcDbLine
 10
150.6476121418
 20
130.8801759595
 30
0.0
 11
153.1476121418
 21
130.8801759595
 31
0.0
  0
LINE
  5
234
330
1F
100
AcDbEntity
  8
0
  6
Continuous
 62
     7
370
    25
100
AcDbLine
 10
150.6476121418
 20
138.8801759595
 30
0.0
 11
146.1476121418
 21
138.1301759595
 31
0.0
  0
LINE
  5
235
330
1F
100
AcDbEntity
  8
0
  6
Continuous
 62
     7
370
    25
100
AcDbLine
 10
146.1476121418
 20
131.6301759595
 30
0.0
 11
150.6476121418
 21
130.8801759595
 31
0.0
  0
LINE
  5
236
330
1F
100
AcDbEntity
  8
0
  6
Continuous
 62
     7
370
    25
100
AcDbLine
 10
137.1476121418
 20
138.8801759595
 30
0.0
 11
132.6476121418
 21
138.1301759595
 31
0.0
  0
LINE
  5
237
330
1F
100
AcDbEntity
  8
0
  6
Continuous
 62
     7
370
    25
100
AcDbLine
 10
132.6476121418
 20
131.6301759595
 30
0.0
 11
137.1476121418
 21
130.8801759595
 31
0.0
  0
LINE
  5
238
330
1F
100
AcDbEntity
  8
0
  6
Continuous
 62
     7
370
    25
100
AcDbLine
 10
141.6476121418
 20
138.8801759595
 30
0.0
 11
137.1476121418
 21
138.1301759595
 31
0.0
  0
LINE
  5
239
330
1F
100
AcDbEntity
  8
0
  6
Continuous
 62
     7
370
    25
100
AcDbLine
 10
137.1476121418
 20
131.6301759595
 30
0.0
 11
141.6476121418
 21
130.8801759595
 31
0.0
  0
LINE
  5
23A
330
1F
100
AcDbEntity
  8
0
  6
Continuous
 62
     7
370
    25
100
AcDbLine
 10
132.6476121418
 20
138.8801759595
 30
0.0
 11
128.6276121418
 21
138.2101759595
 31
0.0
  0
LINE
  5
23B
330
1F
100
AcDbEntity
  8
0
  6
Continuous
 62
     7
370
    25
100
AcDbLine
 10
128.6276121418
 20
131.5501759595
 30
0.0
 11
132.6476121418
 21
130.8801759595
 31
0.0
  0
LINE
  5
23C
330
1F
100
AcDbEntity
  8
0
  6
Continuous
 62
     7
370
    25
100
AcDbLine
 10
128.6276121418
 20
138.2101759595
 30
0.0
 11
128.1476121418
 21
137.7301759595
 31
0.0
  0
LINE
  5
23D
330
1F
100
AcDbEntity
  8
0
  6
Continuous
 62
     7
370
    25
100
AcDbLine
 10
128.1476121418
 20
132.0301759595
 30
0.0
 11
128.6276121418
 21
131.5501759595
 31
0.0
  0
LINE
  5
23E
330
1F
100
AcDbEntity
  8
0
  6
Continuous
 62
     7
370
    25
100
AcDbLine
 10
179.7595863427
 20
138.2305807215
 30
0.0
 11
179.5715829869
 21
138.2234356836
 31
0.0
  0
LINE
  5
23F
330
1F
100
AcDbEntity
  8
0
  6
Continuous
 62
     7
370
    25
100
AcDbLine
 10
150.7595863427
 20
138.2305807215
 30
0.0
 11
150.5715829869
 21
138.2234356836
 31
0.0
  0
LINE
  5
240
330
1F
100
AcDbEntity
  8
0
  6
Continuous
 62
     7
370
    25
100
AcDbLine
 10
188.6476121418
 20
132.759685945
 30
0.0
 11
188.6476121418
 21
137.000665974
 31
0.0
  0
LINE
  5
241
330
1F
100
AcDbEntity
  8
0
  6
Continuous
 62
     7
370
    25
100
AcDbLine
 10
155.7237064629
 20
138.2272122354
 30
0.0
 11
155.535099719
 21
138.2303401017
 31
0.0
  0
LINE
  5
242
330
1F
100
AcDbEntity
  8
0
  6
Continuous
 62
     7
370
    25
100
AcDbLine
 10
146.6476121418
 20
137.000665974
 30
0.0
 11
146.6476121418
 21
132.759685945
 31
0.0
  0
LINE
  5
243
330
1F
100
AcDbEntity
  8
0
  6
Continuous
 62
     7
370
    25
100
AcDbLine
 10
184.7238967356
 20
138.2272090799
 30
0.0
 11
184.535099719
 21
138.2303401017
 31
0.0
  0
LINE
  5
244
330
1F
100
AcDbEntity
  8
0
  6
Continuous
 62
     7
370
    25
100
AcDbLine
 10
184.5372419734
 20
138.2365406039
 30
0.0
 11
179.7579823103
 21
138.2365406039
 31
0.0
  0
LINE
  5
245
330
1F
100
AcDbEntity
  8
0
  6
Continuous
 62
     7
370
    25
100
AcDbLine
 10
155.5372419734
 20
138.2365406039
 30
0.0
 11
150.7579823103
 21
138.2365406039
 31
0.0
  0
LINE
  5
246
330
1F
100
AcDbEntity
  8
0
  6
Continuous
 62
     7
370
    25
100
AcDbLine
 10
155.5356379409
 20
131.5297711975
 30
0.0
 11
155.7235099511
 21
131.5369112436
 31
0.0
  0
LINE
  5
247
330
1F
100
AcDbEntity
  8
0
  6
Continuous
 62
     7
370
    25
100
AcDbLine
 10
184.5356379409
 20
131.5297711975
 30
0.0
 11
184.7236412968
 21
131.5369162354
 31
0.0
  0
LINE
  5
248
330
1F
100
AcDbEntity
  8
0
  6
Continuous
 62
     7
370
    25
100
AcDbLine
 10
150.5715178208
 20
131.5331396836
 30
0.0
 11
150.7601245647
 21
131.5300118174
 31
0.0
  0
LINE
  5
249
330
1F
100
AcDbEntity
  8
0
  6
Continuous
 62
     7
370
    25
100
AcDbLine
 10
179.5715178208
 20
131.5331396836
 30
0.0
 11
179.7601245647
 21
131.5300118174
 31
0.0
  0
LINE
  5
24A
330
1F
100
AcDbEntity
  8
0
  6
Continuous
 62
     7
370
    25
100
AcDbLine
 10
179.7579823103
 20
131.5238113151
 30
0.0
 11
184.5372419734
 21
131.5238113151
 31
0.0
  0
LINE
  5
24B
330
1F
100
AcDbEntity
  8
0
  6
Continuous
 62
     7
370
    25
100
AcDbLine
 10
150.7579823103
 20
131.5238113151
 30
0.0
 11
155.5372419734
 21
131.5238113151
 31
0.0
  0
SPLINE
  5
24C
330
1F
100
AcDbEntity
  8
0
  6
Continuous
 62
     7
370
    25
100
AcDbSpline
210
0.0
220
0.0
230
1.0
 70
     8
 71
     3
 72
    12
 73
     8
 74
     0
 42
0.00000001
 43
0.00000001
 40
0.0
 40
0.0
 40
0.0
 40
0.0
 40
0.1179217195677342
 40
0.3497662004926474
 40
0.5771627779008202
 40
0.8016587989592959
 40
1.0
 40
1.0
 40
1.0
 40
1.0
 10
158.354315581826
 20
137.9146263314642
 30
0.0
 10
158.2759151266847
 20
137.930904419192
 30
0.0
 10
158.0433724754056
 20
137.9791866602986
 30
0.0
 10
157.599674304962
 20
138.0509061451449
 30
0.0
 10
157.0038327376619
 20
138.1254441453221
 30
0.0
 10
156.3778382776842
 20
138.1862103525531
 30
0.0
 10
155.9331321208083
 20
138.2167528974834
 30
0.0
 10
155.724532809643
 20
138.2310795573131
 30
0.0
  0
SPLINE
  5
24D
330
1F
100
AcDbEntity
  8
0
  6
Continuous
 62
     7
370
    25
100
AcDbSpline
210
0.0
220
0.0
230
1.0
 70
     8
 71
     3
 72
    12
 73
     8
 74
     0
 42
0.00000001
 43
0.00000001
 40
0.0
 40
0.0
 40
0.0
 40
0.0
 40
0.1162590674001095
 40
0.3385167430733104
 40
0.5618219408851671
 40
0.7868001018977524
 40
1.0
 40
1.0
 40
1.0
 40
1.0
 10
179.570691474018
 20
138.2310795573131
 30
0.0
 10
179.4477112367278
 20
138.2229067472783
 30
0.0
 10
179.0896241617079
 20
138.1991096095875
 30
0.0
 10
178.5306079052184
 20
138.1503887932561
 30
0.0
 10
177.9216586367685
 20
138.0813635459545
 30
0.0
 10
177.382816371707
 20
138.0034152158323
 30
0.0
 10
177.0855477230721
 20
137.9436874639298
 30
0.0
 10
176.9409087018349
 20
137.9146263314642
 30
0.0
  0
SPLINE
  5
24E
330
1F
100
AcDbEntity
  8
0
  6
Continuous
 62
     7
370
    25
100
AcDbSpline
210
0.0
220
0.0
230
1.0
 70
     8
 71
     3
 72
    18
 73
    14
 74
     0
 42
0.00000001
 43
0.00000001
 40
0.0
 40
0.0
 40
0.0
 40
0.0
 40
0.0499652017291417
 40
0.1053207211911799
 40
0.1645147267525432
 40
0.2383354508281691
 40
0.3441911287294648
 40
0.45896592017625
 40
0.5800434316865841
 40
0.695254751834084
 40
0.807905914767596
 40
0.9192433389208625
 40
1.0
 40
1.0
 40
1.0
 40
1.0
 10
188.6410308113788
 20
137.0112801862426
 30
0.0
 10
188.6345888039164
 20
137.0829317928638
 30
0.0
 10
188.6210098159733
 20
137.2339648843493
 30
0.0
 10
188.5033602409078
 20
137.4116549110848
 30
0.0
 10
188.3597702262609
 20
137.5472879390923
 30
0.0
 10
188.1670270824587
 20
137.6643460050321
 30
0.0
 10
187.9029925743398
 20
137.7727529833234
 30
0.0
 10
187.5283310879446
 20
137.8800356693563
 30
0.0
 10
187.0590996726148
 20
137.9776376699972
 30
0.0
 10
186.5097422953054
 20
138.0636661910907
 30
0.0
 10
185.9028975089139
 20
138.1362502793681
 30
0.0
 10
185.30375291013
 20
138.1918620471465
 30
0.0
 10
184.895966760173
 20
138.2194722034036
 30
0.0
 10
184.724532809643
 20
138.2310795573131
 30
0.0
  0
SPLINE
  5
24F
330
1F
100
AcDbEntity
  8
0
  6
Continuous
 62
     7
370
    25
100
AcDbSpline
210
0.0
220
0.0
230
1.0
 70
     8
 71
     3
 72
    18
 73
    14
 74
     0
 42
0.00000001
 43
0.00000001
 40
0.0
 40
0.0
 40
0.0
 40
0.0
 40
0.0578126725051121
 40
0.1683357525778509
 40
0.2793797387243757
 40
0.3912556468516959
 40
0.5044632648507877
 40
0.6200750658775943
 40
0.7408887703643371
 40
0.8302669371927807
 40
0.8924371124451732
 40
0.9498355749448857
 40
1.0
 40
1.0
 40
1.0
 40
1.0
 10
150.570691474018
 20
138.2310795573131
 30
0.0
 10
150.4477040684096
 20
138.2229077416559
 30
0.0
 10
150.0895961210759
 20
138.199113499339
 30
0.0
 10
149.5308478200565
 20
138.1503555126548
 30
0.0
 10
148.9207703461246
 20
138.0814867682071
 30
0.0
 10
148.3743954591814
 20
138.0012462882468
 30
0.0
 10
147.8965187895149
 20
137.9096804502484
 30
0.0
 10
147.4877197593339
 20
137.8042957354845
 30
0.0
 10
147.1812568318432
 20
137.6910083327211
 30
0.0
 10
146.9598414868774
 20
137.5669490314016
 30
0.0
 10
146.7997321164003
 20
137.4220111915908
 30
0.0
 10
146.6775234373843
 20
137.2416495695844
 30
0.0
 10
146.6598404223101
 20
137.088402034503
 30
0.0
 10
146.6515935417679
 20
137.0169315239652
 30
0.0
  0
SPLINE
  5
250
330
1F
100
AcDbEntity
  8
0
  6
Continuous
 62
     7
370
    25
100
AcDbSpline
210
0.0
220
0.0
230
1.0
 70
     8
 71
     3
 72
    18
 73
    14
 74
     0
 42
0.00000001
 43
0.00000001
 40
0.0
 40
0.0
 40
0.0
 40
0.0
 40
0.0499652017291476
 40
0.105320721191187
 40
0.164514726752551
 40
0.2383354508281814
 40
0.3441911287294824
 40
0.458965920176257
 40
0.5800434316865863
 40
0.695254751834086
 40
0.8079059147675974
 40
0.9192433389208603
 40
1.0
 40
1.0
 40
1.0
 40
1.0
 10
146.6541934722821
 20
132.7490717327723
 30
0.0
 10
146.6606354797445
 20
132.677420126151
 30
0.0
 10
146.6742144676876
 20
132.5263870346655
 30
0.0
 10
146.7918640427532
 20
132.3486970079301
 30
0.0
 10
146.9354540574001
 20
132.2130639799226
 30
0.0
 10
147.1281972012023
 20
132.0960059139827
 30
0.0
 10
147.3922317093212
 20
131.9875989356914
 30
0.0
 10
147.7668931957164
 20
131.8803162496585
 30
0.0
 10
148.2361246110461
 20
131.7827142490177
 30
0.0
 10
148.7854819883556
 20
131.6966857279241
 30
0.0
 10
149.3923267747471
 20
131.6241016396467
 30
0.0
 10
149.9914713735309
 20
131.5684898718684
 30
0.0
 10
150.3992575234879
 20
131.5408797156112
 30
0.0
 10
150.570691474018
 20
131.5292723617017
 30
0.0
  0
SPLINE
  5
251
330
1F
100
AcDbEntity
  8
0
  6
Continuous
 62
     7
370
    25
100
AcDbSpline
210
0.0
220
0.0
230
1.0
 70
     8
 71
     3
 72
    18
 73
    14
 74
     0
 42
0.00000001
 43
0.00000001
 40
0.0
 40
0.0
 40
0.0
 40
0.0
 40
0.057812672505112
 40
0.1683357525778517
 40
0.2793797387243769
 40
0.3912556468516916
 40
0.5044632648507843
 40
0.6200750658775879
 40
0.7408887703643312
 40
0.8302669371927758
 40
0.8924371124451699
 40
0.9498355749448845
 40
0.9999999999999999
 40
0.9999999999999999
 40
0.9999999999999999
 40
0.9999999999999999
 10
184.7245328096429
 20
131.5292723617017
 30
0.0
 10
184.8475202152513
 20
131.5374441773589
 30
0.0
 10
185.205628162585
 20
131.5612384196759
 30
0.0
 10
185.7643764636045
 20
131.6099964063601
 30
0.0
 10
186.3744539375363
 20
131.6788651508077
 30
0.0
 10
186.9208288244796
 20
131.7591056307681
 30
0.0
 10
187.398705494146
 20
131.8506714687665
 30
0.0
 10
187.8075045243271
 20
131.9560561835303
 30
0.0
 10
188.1139674518178
 20
132.0693435862938
 30
0.0
 10
188.3353827967836
 20
132.1934028876132
 30
0.0
 10
188.4954921672607
 20
132.338340727424
 30
0.0
 10
188.6177008462767
 20
132.5187023494305
 30
0.0
 10
188.6353838613509
 20
132.6719498845118
 30
0.0
 10
188.6436307418931
 20
132.7434203950497
 30
0.0
  0
SPLINE
  5
252
330
1F
100
AcDbEntity
  8
0
  6
Continuous
 62
     7
370
    25
100
AcDbSpline
210
0.0
220
0.0
230
1.0
 70
     8
 71
     3
 72
    12
 73
     8
 74
     0
 42
0.00000001
 43
0.00000001
 40
0.0
 40
0.0
 40
0.0
 40
0.0
 40
0.1162590674001093
 40
0.3385167430733096
 40
0.5618219408851676
 40
0.7868001018977425
 40
1.0
 40
1.0
 40
1.0
 40
1.0
 10
155.724532809643
 20
131.5292723617017
 30
0.0
 10
155.8475130469332
 20
131.5374451717365
 30
0.0
 10
156.2056001219531
 20
131.5612423094274
 30
0.0
 10
156.7646163784425
 20
131.6099631257587
 30
0.0
 10
157.3735656468925
 20
131.6789883730603
 30
0.0
 10
157.9124079119539
 20
131.7569367031826
 30
0.0
 10
158.2096765605889
 20
131.816664455085
 30
0.0
 10
158.354315581826
 20
131.8457255875507
 30
0.0
  0
SPLINE
  5
253
330
1F
100
AcDbEntity
  8
0
  6
Continuous
 62
     7
370
    25
100
AcDbSpline
210
0.0
220
0.0
230
1.0
 70
     8
 71
     3
 72
    12
 73
     8
 74
     0
 42
0.00000001
 43
0.00000001
 40
0.0
 40
0.0
 40
0.0
 40
0.0
 40
0.1179217195677339
 40
0.349766200492647
 40
0.5771627779008206
 40
0.8016587989592832
 40
1.0
 40
1.0
 40
1.0
 40
1.0
 10
176.9409087018349
 20
131.8457255875507
 30
0.0
 10
177.0193091569762
 20
131.8294474998228
 30
0.0
 10
177.2518518082553
 20
131.7811652587162
 30
0.0
 10
177.6955499786989
 20
131.7094457738699
 30
0.0
 10
178.291391545999
 20
131.6349077736928
 30
0.0
 10
178.9173860059767
 20
131.5741415664617
 30
0.0
 10
179.3620921628526
 20
131.5435990215314
 30
0.0
 10
179.570691474018
 20
131.5292723617017
 30
0.0
  0
LINE
  5
254
330
1F
100
AcDbEntity
  8
0
  6
Continuous
 62
     7
370
    25
100
AcDbLine
 10
176.9409087018
 20
137.9146263315
 30
0.0
 11
176.9001606809
 21
137.9067361074
 31
0.0
  0
LINE
  5
255
330
1F
100
AcDbEntity
  8
0
  6
Continuous
 62
     7
370
    25
100
AcDbLine
 10
158.3852087073
 20
137.9088126264
 30
0.0
 11
158.3543155818
 21
137.9146263315
 31
0.0
  0
LINE
  5
256
330
1F
100
AcDbEntity
  8
0
  6
Continuous
 62
     7
370
    25
100
AcDbLine
 10
158.3543155818
 20
131.8457255876
 30
0.0
 11
158.3950636028
 21
131.8536158116
 31
0.0
  0
LINE
  5
257
330
1F
100
AcDbEntity
  8
0
  6
Continuous
 62
     7
370
    25
100
AcDbLine
 10
176.9100155764
 20
131.8515392926
 30
0.0
 11
176.9409087018
 21
131.8457255876
 31
0.0
  0
LINE
  5
258
330
1F
100
AcDbEntity
  8
0
  6
Continuous
 62
     7
370
    25
100
AcDbLine
 10
181.9476121418
 20
139.3586051663
 30
0.0
 11
181.9476121418
 21
142.8801759595
 31
0.0
  0
LINE
  5
259
330
1F
100
AcDbEntity
  8
0
  6
Continuous
 62
     7
370
    25
100
AcDbLine
 10
181.9476121418
 20
126.8801759595
 30
0.0
 11
181.9476121418
 21
131.5238113151
 31
0.0
  0
LINE
  5
25A
330
1F
100
AcDbEntity
  8
0
  6
Continuous
 62
     7
370
    25
100
AcDbLine
 10
181.9476121418
 20
138.2365406039
 30
0.0
 11
181.9476121418
 21
139.3586051663
 31
0.0
  0
LINE
  5
25B
330
1F
100
AcDbEntity
  8
0
  6
Continuous
 62
     7
370
    25
100
AcDbLine
 10
182.1476121418
 20
139.2466444362
 30
0.0
 11
182.1476121418
 21
138.2365406039
 31
0.0
  0
LINE
  5
25C
330
1F
100
AcDbEntity
  8
0
  6
Continuous
 62
     7
370
    25
100
AcDbLine
 10
182.1476121418
 20
131.5238113151
 30
0.0
 11
182.1476121418
 21
127.0801759595
 31
0.0
  0
LINE
  5
25D
330
1F
100
AcDbEntity
  8
0
  6
Continuous
 62
     7
370
    25
100
AcDbLine
 10
182.1476121418
 20
142.6801759595
 30
0.0
 11
182.1476121418
 21
139.2466444362
 31
0.0
  0
LINE
  5
25E
330
1F
100
AcDbEntity
  8
0
  6
Continuous
 62
     7
370
    25
100
AcDbLine
 10
189.1476121418
 20
137.1193905629
 30
0.0
 11
189.1476121418
 21
138.8801759595
 31
0.0
  0
LINE
  5
25F
330
1F
100
AcDbEntity
  8
0
  6
Continuous
 62
     7
370
    25
100
AcDbLine
 10
189.1476121418
 20
130.8801759595
 30
0.0
 11
189.1476121418
 21
137.1193905629
 31
0.0
  0
LINE
  5
260
330
1F
100
AcDbEntity
  8
0
  6
Continuous
 62
     7
370
    25
100
AcDbLine
 10
184.6476121418
 20
138.2641700557
 30
0.0
 11
184.6476121418
 21
138.8801759595
 31
0.0
  0
LINE
  5
261
330
1F
100
AcDbEntity
  8
0
  6
Continuous
 62
     7
370
    25
100
AcDbLine
 10
184.6476121418
 20
130.8801759595
 30
0.0
 11
184.6476121418
 21
131.5205294841
 31
0.0
  0
LINE
  5
262
330
1F
100
AcDbEntity
  8
0
  6
Continuous
 62
     7
370
    25
100
AcDbLine
 10
198.1476121418
 20
137.1193905629
 30
0.0
 11
198.1476121418
 21
138.8801759595
 31
0.0
  0
LINE
  5
263
330
1F
100
AcDbEntity
  8
0
  6
Continuous
 62
     7
370
    25
100
AcDbLine
 10
198.1476121418
 20
130.8801759595
 30
0.0
 11
198.1476121418
 21
137.1193905629
 31
0.0
  0
LINE
  5
264
330
1F
100
AcDbEntity
  8
0
  6
Continuous
 62
     7
370
    25
100
AcDbLine
 10
202.6476121418
 20
137.1193905629
 30
0.0
 11
202.6476121418
 21
138.8801759595
 31
0.0
  0
LINE
  5
265
330
1F
100
AcDbEntity
  8
0
  6
Continuous
 62
     7
370
    25
100
AcDbLine
 10
202.6476121418
 20
130.8801759595
 30
0.0
 11
202.6476121418
 21
137.1193905629
 31
0.0
  0
LINE
  5
266
330
1F
100
AcDbEntity
  8
0
  6
Continuous
 62
     7
370
    25
100
AcDbLine
 10
206.6676121418
 20
131.5501759595
 30
0.0
 11
206.6676121418
 21
138.2101759595
 31
0.0
  0
LINE
  5
267
330
1F
100
AcDbEntity
  8
0
  6
Continuous
 62
     7
370
    25
100
AcDbLine
 10
193.6476121418
 20
137.1193905629
 30
0.0
 11
193.6476121418
 21
138.8801759595
 31
0.0
  0
LINE
  5
268
330
1F
100
AcDbEntity
  8
0
  6
Continuous
 62
     7
370
    25
100
AcDbLine
 10
193.6476121418
 20
130.8801759595
 30
0.0
 11
193.6476121418
 21
137.1193905629
 31
0.0
  0
LINE
  5
269
330
1F
100
AcDbEntity
  8
0
  6
Continuous
 62
     7
370
    25
100
AcDbLine
 10
207.1476121418
 20
136.4756163644
 30
0.0
 11
207.1476121418
 21
132.0301759595
 31
0.0
  0
LINE
  5
26A
330
1F
100
AcDbEntity
  8
0
  6
Continuous
 62
     7
370
    25
100
AcDbLine
 10
207.1476121418
 20
137.7301759595
 30
0.0
 11
207.1476121418
 21
136.4756163644
 31
0.0
  0
LINE
  5
26B
330
1F
100
AcDbEntity
  8
0
  6
Continuous
 62
     7
370
    25
100
AcDbLine
 10
153.3476121418
 20
131.5238113151
 30
0.0
 11
153.3476121418
 21
126.8801759595
 31
0.0
  0
LINE
  5
26C
330
1F
100
AcDbEntity
  8
0
  6
Continuous
 62
     7
370
    25
100
AcDbLine
 10
153.3476121418
 20
142.8801759595
 30
0.0
 11
153.3476121418
 21
138.2365406039
 31
0.0
  0
LINE
  5
26D
330
1F
100
AcDbEntity
  8
0
  6
Continuous
 62
     7
370
    25
100
AcDbLine
 10
153.1476121418
 20
138.2365406039
 30
0.0
 11
153.1476121418
 21
142.6801759595
 31
0.0
  0
LINE
  5
26E
330
1F
100
AcDbEntity
  8
0
  6
Continuous
 62
     7
370
    25
100
AcDbLine
 10
153.1476121418
 20
127.0801759595
 30
0.0
 11
153.1476121418
 21
131.5238113151
 31
0.0
  0
LINE
  5
26F
330
1F
100
AcDbEntity
  8
0
  6
Continuous
 62
     7
370
    25
100
AcDbLine
 10
146.1476121418
 20
135.1158150074
 30
0.0
 11
146.1476121418
 21
130.8801759595
 31
0.0
  0
LINE
  5
270
330
1F
100
AcDbEntity
  8
0
  6
Continuous
 62
     7
370
    25
100
AcDbLine
 10
146.1476121418
 20
138.8801759595
 30
0.0
 11
146.1476121418
 21
135.1158150074
 31
0.0
  0
LINE
  5
271
330
1F
100
AcDbEntity
  8
0
  6
Continuous
 62
     7
370
    25
100
AcDbLine
 10
150.6476121418
 20
131.5010666794
 30
0.0
 11
150.6476121418
 21
130.8801759595
 31
0.0
  0
LINE
  5
272
330
1F
100
AcDbEntity
  8
0
  6
Continuous
 62
     7
370
    25
100
AcDbLine
 10
150.6476121418
 20
138.8801759595
 30
0.0
 11
150.6476121418
 21
138.2348573259
 31
0.0
  0
LINE
  5
273
330
1F
100
AcDbEntity
  8
0
  6
Continuous
 62
     7
370
    25
100
AcDbLine
 10
137.1476121418
 20
135.1158150074
 30
0.0
 11
137.1476121418
 21
130.8801759595
 31
0.0
  0
LINE
  5
274
330
1F
100
AcDbEntity
  8
0
  6
Continuous
 62
     7
370
    25
100
AcDbLine
 10
137.1476121418
 20
138.8801759595
 30
0.0
 11
137.1476121418
 21
135.1158150074
 31
0.0
  0
LINE
  5
275
330
1F
100
AcDbEntity
  8
0
  6
Continuous
 62
     7
370
    25
100
AcDbLine
 10
141.6476121418
 20
135.1158150074
 30
0.0
 11
141.6476121418
 21
130.8801759595
 31
0.0
  0
LINE
  5
276
330
1F
100
AcDbEntity
  8
0
  6
Continuous
 62
     7
370
    25
100
AcDbLine
 10
141.6476121418
 20
138.8801759595
 30
0.0
 11
141.6476121418
 21
135.1158150074
 31
0.0
  0
LINE
  5
277
330
1F
100
AcDbEntity
  8
0
  6
Continuous
 62
     7
370
    25
100
AcDbLine
 10
128.6276121418
 20
138.2101759595
 30
0.0
 11
128.6276121418
 21
131.5501759595
 31
0.0
  0
LINE
  5
278
330
1F
100
AcDbEntity
  8
0
  6
Continuous
 62
     7
370
    25
100
AcDbLine
 10
132.6476121418
 20
135.1158150074
 30
0.0
 11
132.6476121418
 21
130.8801759595
 31
0.0
  0
LINE
  5
279
330
1F
100
AcDbEntity
  8
0
  6
Continuous
 62
     7
370
    25
100
AcDbLine
 10
132.6476121418
 20
138.8801759595
 30
0.0
 11
132.6476121418
 21
135.1158150074
 31
0.0
  0
LINE
  5
27A
330
1F
100
AcDbEntity
  8
0
  6
Continuous
 62
     7
370
    25
100
AcDbLine
 10
128.1476121418
 20
135.0480687811
 30
0.0
 11
128.1476121418
 21
137.7301759595
 31
0.0
  0
LINE
  5
27B
330
1F
100
AcDbEntity
  8
0
  6
Continuous
 62
     7
370
    25
100
AcDbLine
 10
128.1476121418
 20
132.0301759595
 30
0.0
 11
128.1476121418
 21
135.0480687811
 31
0.0
  0
SPLINE
  5
27C
330
1F
100
AcDbEntity
  8
0
  6
Continuous
 62
     7
370
    25
100
AcDbSpline
210
0.0
220
0.0
230
1.0
 70
     8
 71
     3
 72
     9
 73
     5
 74
     0
 42
0.00000001
 43
0.00000001
 40
0.0
 40
0.0
 40
0.0
 40
0.0
 40
0.5313554958228819
 40
1.0
 40
1.0
 40
1.0
 40
1.0
 10
179.1476121418305
 20
130.6301759595074
 30
0.0
 10
179.148217048127
 20
130.7963547541979
 30
0.0
 10
179.1493554692052
 20
131.1090997921187
 30
0.0
 10
179.1043626904568
 20
131.4193556139775
 30
0.0
 10
179.0832770719688
 20
131.5647552997805
 30
0.0
  0
LINE
  5
27D
330
1F
100
AcDbEntity
  8
0
  6
Continuous
 62
     7
370
    25
100
AcDbLine
 10
179.0628295644
 20
138.193698215
 30
0.0
 11
179.1476121418
 21
139.1301759595
 31
0.0
  0
LINE
  5
27E
330
1F
100
AcDbEntity
  8
0
  6
Continuous
 62
     7
370
    25
100
AcDbLine
 10
179.1476121418
 20
130.6301759595
 30
0.0
 11
179.1476121418
 21
131.5381741436
 31
0.0
  0
LINE
  5
27F
330
1F
100
AcDbEntity
  8
0
  6
Continuous
 62
     7
370
    25
100
AcDbLine
 10
179.1476121418
 20
138.2036081207
 30
0.0
 11
179.1476121418
 21
139.1301759595
 31
0.0
  0
SPLINE
  5
280
330
1F
100
AcDbEntity
  8
0
  6
Continuous
 62
     7
370
    25
100
AcDbSpline
210
0.0
220
0.0
230
1.0
 70
     8
 71
     3
 72
     9
 73
     5
 74
     0
 42
0.00000001
 43
0.00000001
 40
0.0
 40
0.0
 40
0.0
 40
0.0
 40
0.5312785805747515
 40
1.0
 40
1.0
 40
1.0
 40
1.0
 10
156.1476121418305
 20
130.6301759595074
 30
0.0
 10
156.1470078639846
 20
130.7963547202871
 30
0.0
 10
156.1458704609948
 20
131.1091449716838
 30
0.0
 10
156.1908709364234
 20
131.4194456466451
 30
0.0
 10
156.211963623141
 20
131.5648902194616
 30
0.0
  0
LINE
  5
281
330
1F
100
AcDbEntity
  8
0
  6
Continuous
 62
     7
370
    25
100
AcDbLine
 10
156.1476121418
 20
130.6301759595
 30
0.0
 11
156.1476121418
 21
131.5374348479
 31
0.0
  0
LINE
  5
282
330
1F
100
AcDbEntity
  8
0
  6
Continuous
 62
     7
370
    25
100
AcDbLine
 10
156.1476121418
 20
138.2028527426
 30
0.0
 11
156.1476121418
 21
139.1301759595
 31
0.0
  0
LINE
  5
283
330
1F
100
AcDbEntity
  8
0
  6
Continuous
 62
     7
370
    25
100
AcDbLine
 10
156.232357367
 20
138.1941107947
 30
0.0
 11
156.1476121418
 21
139.1301759595
 31
0.0
  0
SPLINE
  5
284
330
1F
100
AcDbEntity
  8
0
  6
Continuous
 62
     7
370
    25
100
AcDbSpline
210
0.0
220
0.0
230
1.0
 70
     8
 71
     3
 72
     9
 73
     5
 74
     0
 42
0.00000001
 43
0.00000001
 40
0.0
 40
0.0
 40
0.0
 40
0.0
 40
0.4026254254720168
 40
1.0
 40
1.0
 40
1.0
 40
1.0
 10
173.7152171424972
 20
140.015286661887
 30
0.0
 10
173.7491941429621
 20
140.4398543341299
 30
0.0
 10
173.8335827541011
 20
141.4943522505125
 30
0.0
 10
174.1414321469931
 20
142.5184224561362
 30
0.0
 10
174.3253335470907
 20
143.1301759595074
 30
0.0
  0
LINE
  5
285
330
1F
100
AcDbEntity
  8
0
  6
Continuous
 62
     7
370
    25
100
AcDbLine
 10
178.4698907366
 20
143.1301759595
 30
0.0
 11
174.3253335471
 21
143.1301759595
 31
0.0
  0
SPLINE
  5
286
330
1F
100
AcDbEntity
  8
0
  6
Continuous
 62
     7
370
    25
100
AcDbSpline
210
0.0
220
0.0
230
1.0
 70
     8
 71
     3
 72
    12
 73
     8
 74
     0
 42
0.00000001
 43
0.00000001
 40
0.0
 40
0.0
 40
0.0
 40
0.0
 40
0.2499999999999999
 40
0.2499999999999999
 40
0.4999999999999998
 40
0.4999999999999998
 40
1.0
 40
1.0
 40
1.0
 40
1.0
 10
179.1476121418305
 20
139.1301759595074
 30
0.0
 10
179.1476121418305
 20
139.4679318945302
 30
0.0
 10
179.1318658118085
 20
139.8083399094087
 30
0.0
 10
179.0704207872231
 20
140.4828345938091
 30
0.0
 10
179.0248320279694
 20
140.8179599126764
 30
0.0
 10
178.8483810257128
 20
141.8176712310165
 30
0.0
 10
178.6779233237493
 20
142.4766053340818
 30
0.0
 10
178.4698907365704
 20
143.1301759595075
 30
0.0
  0
SPLINE
  5
287
330
1F
100
AcDbEntity
  8
0
  6
Continuous
 62
     7
370
    25
100
AcDbSpline
210
0.0
220
0.0
230
1.0
 70
     8
 71
     3
 72
    12
 73
     8
 74
     0
 42
0.00000001
 43
0.00000001
 40
0.0
 40
0.0
 40
0.0
 40
0.0
 40
0.2500000000000001
 40
0.2500000000000001
 40
0.5000000000000002
 40
0.5000000000000002
 40
1.0
 40
1.0
 40
1.0
 40
1.0
 10
156.1476121418305
 20
139.1301759595074
 30
0.0
 10
156.1476121418305
 20
139.4679318945302
 30
0.0
 10
156.1633584718524
 20
139.8083399094087
 30
0.0
 10
156.2248034964379
 20
140.4828345938091
 30
0.0
 10
156.2703922556916
 20
140.8179599126763
 30
0.0
 10
156.4468432579482
 20
141.8176712310165
 30
0.0
 10
156.6173009599117
 20
142.4766053340818
 30
0.0
 10
156.8253335470905
 20
143.1301759595075
 30
0.0
  0
LINE
  5
288
330
1F
100
AcDbEntity
  8
0
  6
Continuous
 62
     7
370
    25
100
AcDbLine
 10
160.9698907366
 20
143.1301759595
 30
0.0
 11
156.8253335471
 21
143.1301759595
 31
0.0
  0
SPLINE
  5
289
330
1F
100
AcDbEntity
  8
0
  6
Continuous
 62
     7
370
    25
100
AcDbSpline
210
0.0
220
0.0
230
1.0
 70
     8
 71
     3
 72
     9
 73
     5
 74
     0
 42
0.00000001
 43
0.00000001
 40
0.0
 40
0.0
 40
0.0
 40
0.0
 40
0.6467786138823347
 40
1.0
 40
1.0
 40
1.0
 40
1.0
 10
160.9698907365703
 20
143.1301759595075
 30
0.0
 10
161.1679602619614
 20
142.4800907427758
 30
0.0
 10
161.4742003279435
 20
141.4749783244329
 30
0.0
 10
161.5392573562355
 20
140.4390959724034
 30
0.0
 10
161.5622368899454
 20
140.0732001721647
 30
0.0
  0
SPLINE
  5
28A
330
1F
100
AcDbEntity
  8
0
  6
Continuous
 62
     7
370
    25
100
AcDbSpline
210
0.0
220
0.0
230
1.0
 70
     8
 71
     3
 72
     9
 73
     5
 74
     0
 42
0.00000001
 43
0.00000001
 40
0.0
 40
0.0
 40
0.0
 40
0.0
 40
0.402625425472003
 40
1.0
 40
1.0
 40
1.0
 40
1.0
 10
161.5800071411637
 20
129.7450652571277
 30
0.0
 10
161.5460301406989
 20
129.3204975848849
 30
0.0
 10
161.4616415295599
 20
128.2659996685023
 30
0.0
 10
161.1537921366679
 20
127.2419294628786
 30
0.0
 10
160.9698907365703
 20
126.6301759595074
 30
0.0
  0
LINE
  5
28B
330
1F
100
AcDbEntity
  8
0
  6
Continuous
 62
     7
370
    25
100
AcDbLine
 10
156.8253335471
 20
126.6301759595
 30
0.0
 11
160.9698907366
 21
126.6301759595
 31
0.0
  0
SPLINE
  5
28C
330
1F
100
AcDbEntity
  8
0
  6
Continuous
 62
     7
370
    25
100
AcDbSpline
210
0.0
220
0.0
230
1.0
 70
     8
 71
     3
 72
    10
 73
     6
 74
     0
 42
0.00000001
 43
0.00000001
 40
0.0
 40
0.0
 40
0.0
 40
0.0
 40
0.5
 40
0.5
 40
1.0
 40
1.0
 40
1.0
 40
1.0
 10
156.8253335470902
 20
126.6301759595074
 30
0.0
 10
156.616523622424
 20
127.2861887261125
 30
0.0
 10
156.4459894826767
 20
127.9464556329702
 30
0.0
 10
156.2112036776577
 20
129.2788021516052
 30
0.0
 10
156.1476121418305
 20
129.9509551330925
 30
0.0
 10
156.1476121418305
 20
130.6301759595074
 30
0.0
  0
SPLINE
  5
28D
330
1F
100
AcDbEntity
  8
0
  6
Continuous
 62
     7
370
    25
100
AcDbSpline
210
0.0
220
0.0
230
1.0
 70
     8
 71
     3
 72
     9
 73
     5
 74
     0
 42
0.00000001
 43
0.00000001
 40
0.0
 40
0.0
 40
0.0
 40
0.0
 40
0.6467786138823488
 40
1.0
 40
1.0
 40
1.0
 40
1.0
 10
174.3253335470907
 20
126.6301759595074
 30
0.0
 10
174.1272640216995
 20
127.2802611762391
 30
0.0
 10
173.8210239557175
 20
128.2853735945819
 30
0.0
 10
173.7559669274255
 20
129.3212559466114
 30
0.0
 10
173.7329873937155
 20
129.6871517468501
 30
0.0
  0
SPLINE
  5
28E
330
1F
100
AcDbEntity
  8
0
  6
Continuous
 62
     7
370
    25
100
AcDbSpline
210
0.0
220
0.0
230
1.0
 70
     8
 71
     3
 72
    10
 73
     6
 74
     0
 42
0.00000001
 43
0.00000001
 40
0.0
 40
0.0
 40
0.0
 40
0.0
 40
0.5
 40
0.5
 40
1.0
 40
1.0
 40
1.0
 40
1.0
 10
178.4698907365707
 20
126.6301759595074
 30
0.0
 10
178.678700661237
 20
127.2861887261125
 30
0.0
 10
178.8492348009842
 20
127.9464556329702
 30
0.0
 10
179.0840206060032
 20
129.2788021516052
 30
0.0
 10
179.1476121418305
 20
129.9509551330925
 30
0.0
 10
179.1476121418305
 20
130.6301759595074
 30
0.0
  0
LINE
  5
28F
330
1F
100
AcDbEntity
  8
0
  6
Continuous
 62
     7
370
    25
100
AcDbLine
 10
174.3253335471
 20
126.6301759595
 30
0.0
 11
178.4698907366
 21
126.6301759595
 31
0.0
  0
LINE
  5
290
330
1F
100
AcDbEntity
  8
0
  6
Continuous
 62
     7
370
    25
100
AcDbLine
 10
173.6476121418
 20
129.5886733374
 30
0.0
 11
173.6476121418
 21
127.3801759595
 31
0.0
  0
LINE
  5
291
330
1F
100
AcDbEntity
  8
0
  6
Continuous
 62
     7
370
    25
100
AcDbLine
 10
173.6476121418
 20
127.3801759595
 30
0.0
 11
170.4314943232
 21
127.3801759595
 31
0.0
  0
LINE
  5
292
330
1F
100
AcDbEntity
  8
0
  6
Continuous
 62
     7
370
    25
100
AcDbLine
 10
164.8637299604
 20
127.3801759595
 30
0.0
 11
161.6476121418
 21
127.3801759595
 31
0.0
  0
LINE
  5
293
330
1F
100
AcDbEntity
  8
0
  6
Continuous
 62
     7
370
    25
100
AcDbLine
 10
161.6476121418
 20
129.5886733374
 30
0.0
 11
161.6476121418
 21
127.3801759595
 31
0.0
  0
LINE
  5
294
330
1F
100
AcDbEntity
  8
0
  6
Continuous
 62
     7
370
    25
100
AcDbLine
 10
161.6476121418
 20
142.3801759595
 30
0.0
 11
161.6476121418
 21
140.1716785816
 31
0.0
  0
LINE
  5
295
330
1F
100
AcDbEntity
  8
0
  6
Continuous
 62
     7
370
    25
100
AcDbLine
 10
161.6476121418
 20
142.3801759595
 30
0.0
 11
164.8637299604
 21
142.3801759595
 31
0.0
  0
LINE
  5
296
330
1F
100
AcDbEntity
  8
0
  6
Continuous
 62
     7
370
    25
100
AcDbLine
 10
170.4314943232
 20
142.3801759595
 30
0.0
 11
173.6476121418
 21
142.3801759595
 31
0.0
  0
LINE
  5
297
330
1F
100
AcDbEntity
  8
0
  6
Continuous
 62
     7
370
    25
100
AcDbLine
 10
173.6476121418
 20
142.3801759595
 30
0.0
 11
173.6476121418
 21
140.1716785816
 31
0.0
  0
SPLINE
  5
298
330
1F
100
AcDbEntity
  8
0
  6
Continuous
 62
     7
370
    25
100
AcDbSpline
210
0.0
220
0.0
230
1.0
 70
     8
 71
     3
 72
     8
 73
     4
 74
     0
 42
0.00000001
 43
0.00000001
 40
0.0
 40
0.0
 40
0.0
 40
0.0
 40
1.0
 40
1.0
 40
1.0
 40
1.0
 10
161.1313760648513
 20
143.3801759595075
 30
0.0
 10
161.3050791410711
 20
143.0476645373719
 30
0.0
 10
161.4773813601338
 20
142.7143374374731
 30
0.0
 10
161.6476121418305
 20
142.3801759595074
 30
0.0
  0
SPLINE
  5
299
330
1F
100
AcDbEntity
  8
0
  6
Continuous
 62
     7
370
    25
100
AcDbSpline
210
0.0
220
0.0
230
1.0
 70
     8
 71
     3
 72
    10
 73
     6
 74
     0
 42
0.00000001
 43
0.00000001
 40
0.0
 40
0.0
 40
0.0
 40
0.0
 40
0.5
 40
0.5
 40
1.0
 40
1.0
 40
1.0
 40
1.0
 10
160.9698907365759
 20
143.3801759595074
 30
0.0
 10
160.9462153421516
 20
143.3801759595074
 30
0.0
 10
160.9331242322613
 20
143.3573835101779
 30
0.0
 10
160.9330379109729
 20
143.2694408060849
 30
0.0
 10
160.9462068449168
 20
143.2045830324109
 30
0.0
 10
160.9698907365702
 20
143.1301759595075
 30
0.0
  0
SPLINE
  5
29A
330
1F
100
AcDbEntity
  8
0
  6
Continuous
 62
     7
370
    25
100
AcDbSpline
210
0.0
220
0.0
230
1.0
 70
    24
 71
     3
 72
     8
 73
     4
 74
     0
 42
0.00000001
 43
0.00000001
 40
0.0
 40
0.0
 40
0.0
 40
0.0
 40
1.0
 40
1.0
 40
1.0
 40
1.0
 10
161.1313760648513
 20
143.3801759595074
 30
0.0
 10
161.0804773479289
 20
143.3801759595074
 30
0.0
 10
161.0265432116782
 20
143.3801759595074
 30
0.0
 10
160.9698907365707
 20
143.3801759595074
 30
0.0
  0
SPLINE
  5
29B
330
1F
100
AcDbEntity
  8
0
  6
Continuous
 62
     7
370
    25
100
AcDbSpline
210
0.0
220
0.0
230
1.0
 70
     8
 71
     3
 72
     8
 73
     4
 74
     0
 42
0.00000001
 43
0.00000001
 40
0.0
 40
0.0
 40
0.0
 40
0.0
 40
1.0
 40
1.0
 40
1.0
 40
1.0
 10
173.6476121418305
 20
142.3801759595074
 30
0.0
 10
173.8178897491742
 20
142.7144293557928
 30
0.0
 10
173.9901614977999
 20
143.0476958453617
 30
0.0
 10
174.1638482188095
 20
143.3801759595072
 30
0.0
  0
SPLINE
  5
29C
330
1F
100
AcDbEntity
  8
0
  6
Continuous
 62
     7
370
    25
100
AcDbSpline
210
0.0
220
0.0
230
1.0
 70
    24
 71
     3
 72
     8
 73
     4
 74
     0
 42
0.00000001
 43
0.00000001
 40
0.0
 40
0.0
 40
0.0
 40
0.0
 40
1.0
 40
1.0
 40
1.0
 40
1.0
 10
174.1638482188091
 20
143.3801759595074
 30
0.0
 10
174.2147444520644
 20
143.3801759595074
 30
0.0
 10
174.2686784070282
 20
143.3801759595074
 30
0.0
 10
174.3253335470907
 20
143.3801759595074
 30
0.0
  0
SPLINE
  5
29D
330
1F
100
AcDbEntity
  8
0
  6
Continuous
 62
     7
370
    25
100
AcDbSpline
210
0.0
220
0.0
230
1.0
 70
     8
 71
     3
 72
    10
 73
     6
 74
     0
 42
0.00000001
 43
0.00000001
 40
0.0
 40
0.0
 40
0.0
 40
0.0
 40
0.5
 40
0.5
 40
1.0
 40
1.0
 40
1.0
 40
1.0
 10
174.3253335470907
 20
143.1301759595074
 30
0.0
 10
174.3490089415151
 20
143.2045563368848
 30
0.0
 10
174.3621000513997
 20
143.2688569756705
 30
0.0
 10
174.362186372688
 20
143.3570726604535
 30
0.0
 10
174.3490174387441
 20
143.3801759595074
 30
0.0
 10
174.3253335470907
 20
143.3801759595074
 30
0.0
  0
SPLINE
  5
29E
330
1F
100
AcDbEntity
  8
0
  6
Continuous
 62
     7
370
    25
100
AcDbSpline
210
0.0
220
0.0
230
1.0
 70
     8
 71
     3
 72
    10
 73
     6
 74
     0
 42
0.00000001
 43
0.00000001
 40
0.0
 40
0.0
 40
0.0
 40
0.0
 40
0.5
 40
0.5
 40
1.0
 40
1.0
 40
1.0
 40
1.0
 10
156.8253335470907
 20
143.3801759595074
 30
0.0
 10
156.8490074476466
 20
143.3801759595074
 30
0.0
 10
156.8621000048257
 20
143.35738538786
 30
0.0
 10
156.862186418808
 20
143.2694393905612
 30
0.0
 10
156.8490160272094
 20
143.2045785978284
 30
0.0
 10
156.8253335470907
 20
143.1301759595074
 30
0.0
  0
SPLINE
  5
29F
330
1F
100
AcDbEntity
  8
0
  6
Continuous
 62
     7
370
    25
100
AcDbSpline
210
0.0
220
0.0
230
1.0
 70
    24
 71
     3
 72
    12
 73
     8
 74
     0
 42
0.00000001
 43
0.00000001
 40
0.0
 40
0.0
 40
0.0
 40
0.0
 40
0.25
 40
0.25
 40
0.5
 40
0.5
 40
1.0
 40
1.0
 40
1.0
 40
1.0
 10
156.1476121418305
 20
143.3801759595074
 30
0.0
 10
156.1476121418305
 20
143.3801759595074
 30
0.0
 10
156.1635179474987
 20
143.3801759595074
 30
0.0
 10
156.2253628183911
 20
143.3801759595074
 30
0.0
 10
156.2711761592573
 20
143.3801759595074
 30
0.0
 10
156.4480093331596
 20
143.3801759595074
 30
0.0
 10
156.6182875966633
 20
143.3801759595074
 30
0.0
 10
156.8253335470907
 20
143.3801759595074
 30
0.0
  0
LINE
  5
2A0
330
1F
100
AcDbEntity
  8
0
  6
Continuous
 62
     7
370
    25
100
AcDbLine
 10
156.1476121418
 20
139.1301759595
 30
0.0
 11
156.1476121418
 21
143.3801759595
 31
0.0
  0
SPLINE
  5
2A1
330
1F
100
AcDbEntity
  8
0
  6
Continuous
 62
     7
370
    25
100
AcDbSpline
210
0.0
220
0.0
230
1.0
 70
     8
 71
     3
 72
    10
 73
     6
 74
     0
 42
0.00000001
 43
0.00000001
 40
0.0
 40
0.0
 40
0.0
 40
0.0
 40
0.5
 40
0.5
 40
1.0
 40
1.0
 40
1.0
 40
1.0
 10
178.4698907365703
 20
143.3801759595074
 30
0.0
 10
178.4462168360143
 20
143.3801759595074
 30
0.0
 10
178.4331242788352
 20
143.35738538786
 30
0.0
 10
178.4330378648529
 20
143.2694393905612
 30
0.0
 10
178.4462082564515
 20
143.2045785978284
 30
0.0
 10
178.4698907365703
 20
143.1301759595075
 30
0.0
  0
SPLINE
  5
2A2
330
1F
100
AcDbEntity
  8
0
  6
Continuous
 62
     7
370
    25
100
AcDbSpline
210
0.0
220
0.0
230
1.0
 70
    24
 71
     3
 72
    12
 73
     8
 74
     0
 42
0.00000001
 43
0.00000001
 40
0.0
 40
0.0
 40
0.0
 40
0.0
 40
0.25
 40
0.25
 40
0.5
 40
0.5
 40
1.0
 40
1.0
 40
1.0
 40
1.0
 10
179.1476121418305
 20
143.3801759595074
 30
0.0
 10
179.1476121418305
 20
143.3801759595074
 30
0.0
 10
179.1317063361623
 20
143.3801759595074
 30
0.0
 10
179.0698614652699
 20
143.3801759595074
 30
0.0
 10
179.0240481244037
 20
143.3801759595074
 30
0.0
 10
178.8472149505013
 20
143.3801759595074
 30
0.0
 10
178.6769366869977
 20
143.3801759595074
 30
0.0
 10
178.4698907365703
 20
143.3801759595074
 30
0.0
  0
LINE
  5
2A3
330
1F
100
AcDbEntity
  8
0
  6
Continuous
 62
     7
370
    25
100
AcDbLine
 10
179.1476121418
 20
139.1301759595
 30
0.0
 11
179.1476121418
 21
143.3801759595
 31
0.0
  0
SPLINE
  5
2A4
330
1F
100
AcDbEntity
  8
0
  6
Continuous
 62
     7
370
    25
100
AcDbSpline
210
0.0
220
0.0
230
1.0
 70
     8
 71
     3
 72
     8
 73
     4
 74
     0
 42
0.00000001
 43
0.00000001
 40
0.0
 40
0.0
 40
0.0
 40
0.0
 40
1.0
 40
1.0
 40
1.0
 40
1.0
 10
174.1638482188096
 20
126.3801759595074
 30
0.0
 10
173.9901451425899
 20
126.7126873816429
 30
0.0
 10
173.8178429235272
 20
127.0460144815418
 30
0.0
 10
173.6476121418305
 20
127.3801759595074
 30
0.0
  0
SPLINE
  5
2A5
330
1F
100
AcDbEntity
  8
0
  6
Continuous
 62
     7
370
    25
100
AcDbSpline
210
0.0
220
0.0
230
1.0
 70
     8
 71
     3
 72
    10
 73
     6
 74
     0
 42
0.00000001
 43
0.00000001
 40
0.0
 40
0.0
 40
0.0
 40
0.0
 40
0.5
 40
0.5
 40
1.0
 40
1.0
 40
1.0
 40
1.0
 10
174.3253335470907
 20
126.3801759595074
 30
0.0
 10
174.3490089415151
 20
126.3801759595074
 30
0.0
 10
174.3621000513997
 20
126.4029684088372
 30
0.0
 10
174.362186372688
 20
126.4909111129303
 30
0.0
 10
174.3490174387441
 20
126.5557688866041
 30
0.0
 10
174.3253335470907
 20
126.6301759595074
 30
0.0
  0
SPLINE
  5
2A6
330
1F
100
AcDbEntity
  8
0
  6
Continuous
 62
     7
370
    25
100
AcDbSpline
210
0.0
220
0.0
230
1.0
 70
    24
 71
     3
 72
     8
 73
     4
 74
     0
 42
0.00000001
 43
0.00000001
 40
0.0
 40
0.0
 40
0.0
 40
0.0
 40
1.0
 40
1.0
 40
1.0
 40
1.0
 10
174.1638482188096
 20
126.3801759595074
 30
0.0
 10
174.2147444520648
 20
126.3801759595074
 30
0.0
 10
174.2686784070284
 20
126.3801759595074
 30
0.0
 10
174.3253335470907
 20
126.3801759595074
 30
0.0
  0
SPLINE
  5
2A7
330
1F
100
AcDbEntity
  8
0
  6
Continuous
 62
     7
370
    25
100
AcDbSpline
210
0.0
220
0.0
230
1.0
 70
     8
 71
     3
 72
     8
 73
     4
 74
     0
 42
0.00000001
 43
0.00000001
 40
0.0
 40
0.0
 40
0.0
 40
0.0
 40
1.0
 40
1.0
 40
1.0
 40
1.0
 10
161.6476121418305
 20
127.3801759595074
 30
0.0
 10
161.4773345344867
 20
127.045922563222
 30
0.0
 10
161.305062785861
 20
126.712656073653
 30
0.0
 10
161.1313760648513
 20
126.3801759595074
 30
0.0
  0
SPLINE
  5
2A8
330
1F
100
AcDbEntity
  8
0
  6
Continuous
 62
     7
370
    25
100
AcDbSpline
210
0.0
220
0.0
230
1.0
 70
    24
 71
     3
 72
     8
 73
     4
 74
     0
 42
0.00000001
 43
0.00000001
 40
0.0
 40
0.0
 40
0.0
 40
0.0
 40
1.0
 40
1.0
 40
1.0
 40
1.0
 10
161.1313760648513
 20
126.3801759595074
 30
0.0
 10
161.0804773479288
 20
126.3801759595074
 30
0.0
 10
161.026543211678
 20
126.3801759595074
 30
0.0
 10
160.9698907365703
 20
126.3801759595074
 30
0.0
  0
SPLINE
  5
2A9
330
1F
100
AcDbEntity
  8
0
  6
Continuous
 62
     7
370
    25
100
AcDbSpline
210
0.0
220
0.0
230
1.0
 70
     8
 71
     3
 72
    10
 73
     6
 74
     0
 42
0.00000001
 43
0.00000001
 40
0.0
 40
0.0
 40
0.0
 40
0.0
 40
0.5
 40
0.5
 40
1.0
 40
1.0
 40
1.0
 40
1.0
 10
160.9698907365703
 20
126.6301759595074
 30
0.0
 10
160.9462153421459
 20
126.5557955821301
 30
0.0
 10
160.9331242322612
 20
126.4914949433443
 30
0.0
 10
160.933037910973
 20
126.4032792585614
 30
0.0
 10
160.9462068449168
 20
126.3801759595074
 30
0.0
 10
160.9698907365703
 20
126.3801759595074
 30
0.0
  0
SPLINE
  5
2AA
330
1F
100
AcDbEntity
  8
0
  6
Continuous
 62
     7
370
    25
100
AcDbSpline
210
0.0
220
0.0
230
1.0
 70
    24
 71
     3
 72
    12
 73
     8
 74
     0
 42
0.00000001
 43
0.00000001
 40
0.0
 40
0.0
 40
0.0
 40
0.0
 40
0.2500000000000001
 40
0.2500000000000001
 40
0.5000000000000001
 40
0.5000000000000001
 40
1.0
 40
1.0
 40
1.0
 40
1.0
 10
179.1476121418305
 20
126.3801759595074
 30
0.0
 10
179.1476121418305
 20
126.3801759595074
 30
0.0
 10
179.1317063361623
 20
126.3801759595074
 30
0.0
 10
179.0698614652699
 20
126.3801759595074
 30
0.0
 10
179.0240481244037
 20
126.3801759595074
 30
0.0
 10
178.8472149505013
 20
126.3801759595074
 30
0.0
 10
178.6769366869977
 20
126.3801759595074
 30
0.0
 10
178.4698907365703
 20
126.3801759595074
 30
0.0
  0
SPLINE
  5
2AB
330
1F
100
AcDbEntity
  8
0
  6
Continuous
 62
     7
370
    25
100
AcDbSpline
210
0.0
220
0.0
230
1.0
 70
     8
 71
     3
 72
    10
 73
     6
 74
     0
 42
0.00000001
 43
0.00000001
 40
0.0
 40
0.0
 40
0.0
 40
0.0
 40
0.5
 40
0.5
 40
1.0
 40
1.0
 40
1.0
 40
1.0
 10
178.4698907365703
 20
126.6301759595074
 30
0.0
 10
178.4462184966587
 20
126.5558054925819
 30
0.0
 10
178.4331245067235
 20
126.491499896294
 30
0.0
 10
178.433037639262
 20
126.4032771084881
 30
0.0
 10
178.4462074290214
 20
126.3801759595074
 30
0.0
 10
178.4698907365703
 20
126.3801759595074
 30
0.0
  0
LINE
  5
2AC
330
1F
100
AcDbEntity
  8
0
  6
Continuous
 62
     7
370
    25
100
AcDbLine
 10
179.1476121418
 20
126.3801759595
 30
0.0
 11
179.1476121418
 21
130.6301759595
 31
0.0
  0
SPLINE
  5
2AD
330
1F
100
AcDbEntity
  8
0
  6
Continuous
 62
     7
370
    25
100
AcDbSpline
210
0.0
220
0.0
230
1.0
 70
     8
 71
     3
 72
    10
 73
     6
 74
     0
 42
0.00000001
 43
0.00000001
 40
0.0
 40
0.0
 40
0.0
 40
0.0
 40
0.5
 40
0.5
 40
1.0
 40
1.0
 40
1.0
 40
1.0
 10
156.8253335470907
 20
126.6301759595074
 30
0.0
 10
156.8490057870022
 20
126.5558054925819
 30
0.0
 10
156.8620997769375
 20
126.491499896294
 30
0.0
 10
156.8621866443989
 20
126.4032771084881
 30
0.0
 10
156.8490168546396
 20
126.3801759595074
 30
0.0
 10
156.8253335470907
 20
126.3801759595074
 30
0.0
  0
SPLINE
  5
2AE
330
1F
100
AcDbEntity
  8
0
  6
Continuous
 62
     7
370
    25
100
AcDbSpline
210
0.0
220
0.0
230
1.0
 70
    24
 71
     3
 72
    12
 73
     8
 74
     0
 42
0.00000001
 43
0.00000001
 40
0.0
 40
0.0
 40
0.0
 40
0.0
 40
0.25
 40
0.25
 40
0.5
 40
0.5
 40
1.0
 40
1.0
 40
1.0
 40
1.0
 10
156.1476121418305
 20
126.3801759595074
 30
0.0
 10
156.1476121418305
 20
126.3801759595074
 30
0.0
 10
156.1635179474987
 20
126.3801759595074
 30
0.0
 10
156.2253628183911
 20
126.3801759595074
 30
0.0
 10
156.2711761592573
 20
126.3801759595074
 30
0.0
 10
156.4480093331596
 20
126.3801759595074
 30
0.0
 10
156.6182875966633
 20
126.3801759595074
 30
0.0
 10
156.8253335470907
 20
126.3801759595074
 30
0.0
  0
LINE
  5
2AF
330
1F
100
AcDbEntity
  8
0
  6
Continuous
 62
     7
370
    25
100
AcDbLine
 10
156.1476121418
 20
126.3801759595
 30
0.0
 11
156.1476121418
 21
130.6301759595
 31
0.0
  0
LINE
  5
2B0
330
1F
100
AcDbEntity
  8
0
  6
Continuous
 62
     7
370
    25
100
AcDbLine
 10
174.3253335471
 20
143.3801759595
 30
0.0
 11
178.4698907366
 21
143.3801759595
 31
0.0
  0
LINE
  5
2B1
330
1F
100
AcDbEntity
  8
0
  6
Continuous
 62
     7
370
    25
100
AcDbLine
 10
156.8253335471
 20
143.3801759595
 30
0.0
 11
160.9698907366
 21
143.3801759595
 31
0.0
  0
LINE
  5
2B2
330
1F
100
AcDbEntity
  8
0
  6
Continuous
 62
     7
370
    25
100
AcDbLine
 10
178.4698907366
 20
126.3801759595
 30
0.0
 11
174.3253335471
 21
126.3801759595
 31
0.0
  0
LINE
  5
2B3
330
1F
100
AcDbEntity
  8
0
  6
Continuous
 62
     7
370
    25
100
AcDbLine
 10
160.9698907366
 20
126.3801759595
 30
0.0
 11
156.8253335471
 21
126.3801759595
 31
0.0
  0
LINE
  5
2B4
330
1F
100
AcDbEntity
  8
0
  6
Continuous
 62
     7
370
    25
100
AcDbLine
 10
174.1638482188
 20
143.3801759595
 30
0.0
 11
161.1313760649
 21
143.3801759595
 31
0.0
  0
LINE
  5
2B5
330
1F
100
AcDbEntity
  8
0
  6
Continuous
 62
     7
370
    25
100
AcDbLine
 10
174.1638482188
 20
126.3801759595
 30
0.0
 11
161.1313760649
 21
126.3801759595
 31
0.0
  0
LINE
  5
2B6
330
1F
100
AcDbEntity
  8
0
  6
Continuous
 62
     7
370
    25
100
AcDbLine
 10
165.4101281203
 20
133.9049034145
 30
0.0
 11
165.3773325933
 21
133.9236474538
 31
0.0
  0
SPLINE
  5
2B7
330
1F
100
AcDbEntity
  8
0
  6
Continuous
 62
     7
370
    25
100
AcDbSpline
210
0.0
220
0.0
230
1.0
 70
     8
 71
     3
 72
    15
 73
    11
 74
     0
 42
0.00000001
 43
0.00000001
 40
0.0
 40
0.0
 40
0.0
 40
0.0
 40
0.1241930067305288
 40
0.2496556654892299
 40
0.3743703853151211
 40
0.4998404796364203
 40
0.6240146704162364
 40
0.7475381382242064
 40
0.8745858500551822
 40
1.0
 40
1.0
 40
1.0
 40
1.0
 10
166.190417841961
 20
134.1773430650932
 30
0.0
 10
166.1748574468513
 20
134.1414958623493
 30
0.0
 10
166.1435775793398
 20
134.0694349831375
 30
0.0
 10
166.0661412198514
 20
133.9795594697946
 30
0.0
 10
165.9727872161125
 20
133.9072356920003
 30
0.0
 10
165.8655616100915
 20
133.8583082734957
 30
0.0
 10
165.7511756993706
 20
133.8319802200409
 30
0.0
 10
165.6335049364853
 20
133.8311211260383
 30
0.0
 10
165.5166212112601
 20
133.8525038866679
 30
0.0
 10
165.4454723603653
 20
133.8875124131287
 30
0.0
 10
165.4101281202819
 20
133.9049034145101
 30
0.0
  0
LINE
  5
2B8
330
1F
100
AcDbEntity
  8
0
  6
Continuous
 62
     7
370
    25
100
AcDbLine
 10
167.1822718867
 20
136.950922281
 30
0.0
 11
166.190417842
 21
134.1773430651
 31
0.0
  0
SPLINE
  5
2B9
330
1F
100
AcDbEntity
  8
0
  6
Continuous
 62
     7
370
    25
100
AcDbSpline
210
0.0
220
0.0
230
1.0
 70
     8
 71
     3
 72
    15
 73
    11
 74
     0
 42
0.00000001
 43
0.00000001
 40
0.0
 40
0.0
 40
0.0
 40
0.0
 40
0.1233025178081761
 40
0.2485158700387113
 40
0.3756924668130947
 40
0.4999990880429329
 40
0.6243057092728392
 40
0.751482306047304
 40
0.8766757256079954
 40
1.0
 40
1.0
 40
1.0
 40
1.0
 10
168.1129524001821
 20
136.9509222810066
 30
0.0
 10
168.0888014282198
 20
136.9915674169423
 30
0.0
 10
168.040125213685
 20
137.0734875715302
 30
0.0
 10
167.9247745554799
 20
137.1633065273427
 30
0.0
 10
167.7916149332181
 20
137.2208806755038
 30
0.0
 10
167.6476122898493
 20
137.2400393711739
 30
0.0
 10
167.5036087611508
 20
137.2208812682888
 30
0.0
 10
167.3704588881853
 20
137.1633071545503
 30
0.0
 10
167.2550965306509
 20
137.0735015924036
 30
0.0
 10
167.2064247449796
 20
136.9915766608788
 30
0.0
 10
167.1822718866628
 20
136.9509222810067
 30
0.0
  0
LINE
  5
2BA
330
1F
100
AcDbEntity
  8
0
  6
Continuous
 62
     7
370
    25
100
AcDbLine
 10
169.1045753066
 20
134.1779894107
 30
0.0
 11
168.1129524002
 21
136.950922281
 31
0.0
  0
SPLINE
  5
2BB
330
1F
100
AcDbEntity
  8
0
  6
Continuous
 62
     7
370
    25
100
AcDbSpline
210
0.0
220
0.0
230
1.0
 70
     8
 71
     3
 72
    15
 73
    11
 74
     0
 42
0.00000001
 43
0.00000001
 40
0.0
 40
0.0
 40
0.0
 40
0.0
 40
0.1253320172137757
 40
0.2522975129251761
 40
0.3758847553984063
 40
0.5001929511416489
 40
0.6255758307380154
 40
0.7502289462456485
 40
0.875744493577783
 40
1.0
 40
1.0
 40
1.0
 40
1.0
 10
169.877277071096
 20
133.9012935600523
 30
0.0
 10
169.842026154468
 20
133.8846192515695
 30
0.0
 10
169.7710648886136
 20
133.8510533148402
 30
0.0
 10
169.6550779978252
 20
133.8312716985861
 30
0.0
 10
169.5384816315848
 20
133.8333444789327
 30
0.0
 10
169.4253610250034
 20
133.8604225052832
 30
0.0
 10
169.3194853106639
 20
133.9096353209904
 30
0.0
 10
169.2273762260448
 20
133.9817210848643
 30
0.0
 10
169.1509445621764
 20
134.0710086063637
 30
0.0
 10
169.1199796546771
 20
134.1424492768008
 30
0.0
 10
169.1045753065558
 20
134.1779894106588
 30
0.0
  0
LINE
  5
2BC
330
1F
100
AcDbEntity
  8
0
  6
Continuous
 62
     7
370
    25
100
AcDbLine
 10
169.9178916936
 20
133.9236474538
 30
0.0
 11
169.8772770711
 21
133.9012935601
 31
0.0
  0
LINE
  5
2BD
330
1F
100
AcDbEntity
  8
0
  6
Continuous
 62
     7
370
    25
100
AcDbLine
 10
169.2909084971
 20
132.7282363503
 30
0.0
 11
169.9178916936
 21
133.9236474538
 31
0.0
  0
SPLINE
  5
2BE
330
1F
100
AcDbEntity
  8
0
  6
Continuous
 62
     7
370
    25
100
AcDbSpline
210
0.0
220
0.0
230
1.0
 70
     8
 71
     3
 72
    15
 73
    11
 74
     0
 42
0.00000001
 43
0.00000001
 40
0.0
 40
0.0
 40
0.0
 40
0.0
 40
0.124633218643854
 40
0.2519059530189772
 40
0.3765391000744918
 40
0.4994035903146518
 40
0.6264494152300148
 40
0.7526064410610419
 40
0.874680437736327
 40
1.0
 40
1.0
 40
1.0
 40
1.0
 10
169.1856800082869
 20
132.7101191835548
 30
0.0
 10
169.1896944839551
 20
132.7070139487021
 30
0.0
 10
169.1978084549337
 20
132.7007377155003
 30
0.0
 10
169.2122470467703
 20
132.6951247020205
 30
0.0
 10
169.2273804967034
 20
132.6925883493936
 30
0.0
 10
169.2427430389851
 20
132.6934737529615
 30
0.0
 10
169.2576736178218
 20
132.6976048234771
 30
0.0
 10
169.2711755178511
 20
132.705095523423
 30
0.0
 10
169.2828611727375
 20
132.7152341053374
 30
0.0
 10
169.2882026970783
 20
132.7238645276801
 30
0.0
 10
169.2909084970801
 20
132.7282363502724
 30
0.0
  0
SPLINE
  5
2BF
330
1F
100
AcDbEntity
  8
0
  6
Continuous
 62
     7
370
    25
100
AcDbSpline
210
0.0
220
0.0
230
1.0
 70
     8
 71
     3
 72
    11
 73
     7
 74
     0
 42
0.00000001
 43
0.00000001
 40
0.0
 40
0.0
 40
0.0
 40
0.0
 40
0.2506252605986011
 40
0.4999999999996215
 40
0.7493747394010042
 40
1.0
 40
1.0
 40
1.0
 40
1.0
 10
166.109544278558
 20
132.7101191835547
 30
0.0
 10
166.3392719727314
 20
132.8729734755157
 30
0.0
 10
166.7975811104943
 20
133.1978694807546
 30
0.0
 10
167.6476121434305
 20
133.3316014276917
 30
0.0
 10
168.4976431763607
 20
133.1978694807494
 30
0.0
 10
168.955952314117
 20
132.872973475514
 30
0.0
 10
169.1856800082869
 20
132.7101191835548
 30
0.0
  0
SPLINE
  5
2C0
330
1F
100
AcDbEntity
  8
0
  6
Continuous
 62
     7
370
    25
100
AcDbSpline
210
0.0
220
0.0
230
1.0
 70
     8
 71
     3
 72
    15
 73
    11
 74
     0
 42
0.00000001
 43
0.00000001
 40
0.0
 40
0.0
 40
0.0
 40
0.0
 40
0.1253191957979138
 40
0.2473928354984065
 40
0.3734492416489706
 40
0.5005950046079967
 40
0.6235484391777611
 40
0.7480947836179483
 40
0.8753671458153899
 40
1.0
 40
1.0
 40
1.0
 40
1.0
 10
166.0043157897649
 20
132.7282363502724
 30
0.0
 10
166.0070215860973
 20
132.7238645219885
 30
0.0
 10
166.0123631031944
 20
132.7152340884097
 30
0.0
 10
166.0240456757836
 20
132.7050983109099
 30
0.0
 10
166.0375466557708
 20
132.6976061950363
 30
0.0
 10
166.0524806846209
 20
132.6934737497441
 30
0.0
 10
166.0678476958099
 20
132.6925858079706
 30
0.0
 10
166.0829804322481
 20
132.6951267502282
 30
0.0
 10
166.0974158620298
 20
132.7007375284954
 30
0.0
 10
166.1055298128591
 20
132.7070138868041
 30
0.0
 10
166.109544278558
 20
132.7101191835548
 30
0.0
  0
LINE
  5
2C1
330
1F
100
AcDbEntity
  8
0
  6
Continuous
 62
     7
370
    25
100
AcDbLine
 10
165.3773325933
 20
133.9236474538
 30
0.0
 11
166.0043157898
 21
132.7282363503
 31
0.0
  0
SPLINE
  5
2C2
330
1F
100
AcDbEntity
  8
0
  6
Continuous
 62
     7
370
    25
100
AcDbSpline
210
0.0
220
0.0
230
1.0
 70
     8
 71
     3
 72
    15
 73
    11
 74
     0
 42
0.00000001
 43
0.00000001
 40
0.0
 40
0.0
 40
0.0
 40
0.0
 40
0.1233867499278388
 40
0.2487396502211602
 40
0.3739317114754985
 40
0.4999973617625659
 40
0.6259591330513601
 40
0.7512551380600303
 40
0.8765613478174267
 40
1.0
 40
1.0
 40
1.0
 40
1.0
 10
167.5847292770244
 20
134.9015854176502
 30
0.0
 10
167.5876074782163
 20
134.9076002137332
 30
0.0
 10
167.5934097443279
 20
134.9197256508218
 30
0.0
 10
167.6089391490486
 20
134.9331169111719
 30
0.0
 10
167.6272937309221
 20
134.9419946227519
 30
0.0
 10
167.647606547405
 20
134.9447512860483
 30
0.0
 10
167.6679249651201
 20
134.9419966048477
 30
0.0
 10
167.6862778342842
 20
134.9331209065583
 30
0.0
 10
167.7018159386797
 20
134.9197305393046
 30
0.0
 10
167.707616500711
 20
134.9076034417585
 30
0.0
 10
167.7104950066366
 20
134.9015854176502
 30
0.0
  0
LINE
  5
2C3
330
1F
100
AcDbEntity
  8
0
  6
Continuous
 62
     7
370
    25
100
AcDbLine
 10
167.3456157513
 20
134.2633313884
 30
0.0
 11
167.584729277
 21
134.9015854177
 31
0.0
  0
SPLINE
  5
2C4
330
1F
100
AcDbEntity
  8
0
  6
Continuous
 62
     7
370
    25
100
AcDbSpline
210
0.0
220
0.0
230
1.0
 70
     8
 71
     3
 72
    15
 73
    11
 74
     0
 42
0.00000001
 43
0.00000001
 40
0.0
 40
0.0
 40
0.0
 40
0.0
 40
0.1261585224210642
 40
0.25131214515488
 40
0.3762846848783792
 40
0.4993062783340877
 40
0.6261594278645743
 40
0.7521171342021308
 40
0.8758196922692789
 40
1.0
 40
1.0
 40
1.0
 40
1.0
 10
167.4084986161527
 20
134.1782670350277
 30
0.0
 10
167.403267519664
 20
134.17858934162
 30
0.0
 10
167.3928469943214
 20
134.1792313875125
 30
0.0
 10
167.378060443807
 20
134.1846796278877
 30
0.0
 10
167.3648700911815
 20
134.1929022304733
 30
0.0
 10
167.3539995163402
 20
134.2041588367859
 30
0.0
 10
167.3459919290117
 20
134.217679582127
 30
0.0
 10
167.341825301979
 20
134.2328164697038
 30
0.0
 10
167.3412042504674
 20
134.248505601275
 30
0.0
 10
167.3441433628221
 20
134.2583831136336
 30
0.0
 10
167.3456157513048
 20
134.2633313883776
 30
0.0
  0
LINE
  5
2C5
330
1F
100
AcDbEntity
  8
0
  6
Continuous
 62
     7
370
    25
100
AcDbLine
 10
167.8867256703
 20
134.178267035
 30
0.0
 11
167.4084986162
 21
134.178267035
 31
0.0
  0
SPLINE
  5
2C6
330
1F
100
AcDbEntity
  8
0
  6
Continuous
 62
     7
370
    25
100
AcDbSpline
210
0.0
220
0.0
230
1.0
 70
     8
 71
     3
 72
    15
 73
    11
 74
     0
 42
0.00000001
 43
0.00000001
 40
0.0
 40
0.0
 40
0.0
 40
0.0
 40
0.1241186784437694
 40
0.2478474916628982
 40
0.3736574149478942
 40
0.5005082335853296
 40
0.6234527658309922
 40
0.7484986612277523
 40
0.8736976492452769
 40
1.0
 40
1.0
 40
1.0
 40
1.0
 10
167.9496085350821
 20
134.2633313886007
 30
0.0
 10
167.9510796076909
 20
134.2583855429426
 30
0.0
 10
167.9540171321693
 20
134.2485093868644
 30
0.0
 10
167.9534003976692
 20
134.2328279912388
 30
0.0
 10
167.9492384360746
 20
134.2176954591584
 30
0.0
 10
167.9412396882762
 20
134.204180551544
 30
0.0
 10
167.9303735967393
 20
134.1929204903481
 30
0.0
 10
167.9171858789147
 20
134.1846907779146
 30
0.0
 10
167.9023914323395
 20
134.1792312075295
 30
0.0
 10
167.8919628414322
 20
134.1785893644725
 30
0.0
 10
167.8867256703178
 20
134.1782670350277
 30
0.0
  0
LINE
  5
2C7
330
1F
100
AcDbEntity
  8
0
  6
Continuous
 62
     7
370
    25
100
AcDbLine
 10
167.7104950066
 20
134.9015854177
 30
0.0
 11
167.9496085351
 21
134.2633313886
 31
0.0
  0
CIRCLE
  5
2C8
330
1F
100
AcDbEntity
  8
0
  6
Continuous
 62
     7
370
    25
100
AcDbCircle
 10
167.6476121418
 20
134.8801759595
 30
0.0
 40
4.5
  0
LINE
  5
2C9
330
1F
100
AcDbEntity
  8
0
  6
Continuous
 62
     7
370
    25
100
AcDbLine
 10
179.5708231868
 20
138.2310877667
 30
0.0
 11
179.6021620096
 21
138.2276012656
 31
0.0
  0
SPLINE
  5
2CA
330
1F
100
AcDbEntity
  8
0
  6
Continuous
 62
     7
370
    25
100
AcDbSpline
210
0.0
220
0.0
230
1.0
 70
     8
 71
     3
 72
    11
 73
     7
 74
     0
 42
0.00000001
 43
0.00000001
 40
0.0
 40
0.0
 40
0.0
 40
0.0
 40
0.0055682347466183
 40
0.1918263368321041
 40
0.6296575784328767
 40
1.0
 40
1.0
 40
1.0
 40
1.0
 10
182.1476121418305
 20
137.2365406039424
 30
0.0
 10
182.1424182184952
 20
137.2379248220183
 30
0.0
 10
181.9634869534654
 20
137.2856112962696
 30
0.0
 10
181.3766492539228
 20
137.439581479108
 30
0.0
 10
180.4465235083649
 20
137.6851565538726
 30
0.0
 10
179.7220351315454
 20
137.7173283396829
 30
0.0
 10
179.3900411652772
 20
137.7320709347539
 30
0.0
  0
LINE
  5
2CB
330
1F
100
AcDbEntity
  8
0
  6
Continuous
 62
     7
370
    25
100
AcDbLine
 10
150.5708231868
 20
138.2310877667
 30
0.0
 11
150.6021620096
 21
138.2276012656
 31
0.0
  0
SPLINE
  5
2CC
330
1F
100
AcDbEntity
  8
0
  6
Continuous
 62
     7
370
    25
100
AcDbSpline
210
0.0
220
0.0
230
1.0
 70
     8
 71
     3
 72
    11
 73
     7
 74
     0
 42
0.00000001
 43
0.00000001
 40
0.0
 40
0.0
 40
0.0
 40
0.0
 40
0.0055682347466184
 40
0.1918263368321039
 40
0.6296575784328784
 40
1.0
 40
1.0
 40
1.0
 40
1.0
 10
153.1476121418305
 20
137.2365406039424
 30
0.0
 10
153.1424182184952
 20
137.2379248220183
 30
0.0
 10
152.9634869534653
 20
137.2856112962696
 30
0.0
 10
152.3766492539228
 20
137.439581479108
 30
0.0
 10
151.4465235083649
 20
137.6851565538726
 30
0.0
 10
150.7220351315453
 20
137.7173283396829
 30
0.0
 10
150.3900411652772
 20
137.7320709347539
 30
0.0
  0
SPLINE
  5
2CD
330
1F
100
AcDbEntity
  8
0
  6
Continuous
 62
     7
370
    25
100
AcDbSpline
210
0.0
220
0.0
230
1.0
 70
     8
 71
     3
 72
    11
 73
     7
 74
     0
 42
0.00000001
 43
0.00000001
 40
0.0
 40
0.0
 40
0.0
 40
0.0
 40
0.0055682347466183
 40
0.1918263368321047
 40
0.6296575784328776
 40
1.0
 40
1.0
 40
1.0
 40
1.0
 10
182.1476121418305
 20
132.5238113150724
 30
0.0
 10
182.1528060651657
 20
132.5224270969966
 30
0.0
 10
182.3317373301956
 20
132.4747406227454
 30
0.0
 10
182.918575029738
 20
132.3207704399066
 30
0.0
 10
183.848700775296
 20
132.0751953651423
 30
0.0
 10
184.5731891521156
 20
132.043023579332
 30
0.0
 10
184.9051831183838
 20
132.028280984261
 30
0.0
  0
SPLINE
  5
2CE
330
1F
100
AcDbEntity
  8
0
  6
Continuous
 62
     7
370
    25
100
AcDbSpline
210
0.0
220
0.0
230
1.0
 70
     8
 71
     3
 72
    11
 73
     7
 74
     0
 42
0.00000001
 43
0.00000001
 40
0.0
 40
0.0
 40
0.0
 40
0.0
 40
0.3703424215671233
 40
0.808173663167896
 40
0.9944317652533816
 40
1.0
 40
1.0
 40
1.0
 40
1.0
 10
179.3900411652772
 20
132.028280984261
 30
0.0
 10
179.7220351315453
 20
132.043023579332
 30
0.0
 10
180.4465235083649
 20
132.0751953651423
 30
0.0
 10
181.3766492539228
 20
132.3207704399066
 30
0.0
 10
181.9634869534654
 20
132.4747406227454
 30
0.0
 10
182.1424182184952
 20
132.5224270969966
 30
0.0
 10
182.1476121418305
 20
132.5238113150724
 30
0.0
  0
ELLIPSE
  5
2CF
330
1F
100
AcDbEntity
  8
0
  6
Continuous
 62
     7
370
    25
100
AcDbEllipse
 10
182.1476121418
 20
132.759685945
 30
0.0
 11
6.5
 21
0.0
 31
0.0
210
0.0
220
0.0
230
1.0
 40
0.124260355
 41
3.696234591426844
 42
4.274264664245583
  0
LINE
  5
2D0
330
1F
100
AcDbEntity
  8
0
  6
Continuous
 62
     7
370
    25
100
AcDbLine
 10
176.6220332243
 20
137.4260282023
 30
0.0
 11
176.6220332243
 21
132.3343237167
 31
0.0
  0
ELLIPSE
  5
2D1
330
1F
100
AcDbEntity
  8
0
  6
Continuous
 62
     7
370
    25
100
AcDbEllipse
 10
182.1476121418
 20
137.000665974
 30
0.0
 11
6.5
 21
0.0
 31
0.0
210
0.0
220
0.0
230
1.0
 40
0.124260355
 41
2.00892064293401
 42
2.586950715752793
  0
SPLINE
  5
2D2
330
1F
100
AcDbEntity
  8
0
  6
Continuous
 62
     7
370
    25
100
AcDbSpline
210
0.0
220
0.0
230
1.0
 70
     8
 71
     3
 72
    11
 73
     7
 74
     0
 42
0.00000001
 43
0.00000001
 40
0.0
 40
0.0
 40
0.0
 40
0.0
 40
0.3703424215671223
 40
0.8081736631678952
 40
0.9944317652533818
 40
1.0
 40
1.0
 40
1.0
 40
1.0
 10
184.9051831183838
 20
137.7320709347539
 30
0.0
 10
184.5731891521156
 20
137.7173283396829
 30
0.0
 10
183.848700775296
 20
137.6851565538726
 30
0.0
 10
182.9185750297382
 20
137.439581479108
 30
0.0
 10
182.3317373301955
 20
137.2856112962696
 30
0.0
 10
182.1528060651657
 20
137.2379248220183
 30
0.0
 10
182.1476121418305
 20
137.2365406039424
 30
0.0
  0
LINE
  5
2D3
330
1F
100
AcDbEntity
  8
0
  6
Continuous
 62
     7
370
    25
100
AcDbLine
 10
155.693062274
 20
138.2276012656
 30
0.0
 11
155.7242014605
 21
138.2310998387
 31
0.0
  0
SPLINE
  5
2D4
330
1F
100
AcDbEntity
  8
0
  6
Continuous
 62
     7
370
    25
100
AcDbSpline
210
0.0
220
0.0
230
1.0
 70
     8
 71
     3
 72
    11
 73
     7
 74
     0
 42
0.00000001
 43
0.00000001
 40
0.0
 40
0.0
 40
0.0
 40
0.0
 40
0.3703424215671238
 40
0.8081736631678934
 40
0.9944317652533823
 40
0.9999999999999999
 40
0.9999999999999999
 40
0.9999999999999999
 40
0.9999999999999999
 10
155.9051831183838
 20
137.7320709347539
 30
0.0
 10
155.5731891521156
 20
137.7173283396829
 30
0.0
 10
154.848700775296
 20
137.6851565538726
 30
0.0
 10
153.9185750297381
 20
137.4395814791079
 30
0.0
 10
153.3317373301956
 20
137.2856112962697
 30
0.0
 10
153.1528060651658
 20
137.2379248220183
 30
0.0
 10
153.1476121418305
 20
137.2365406039424
 30
0.0
  0
ELLIPSE
  5
2D5
330
1F
100
AcDbEntity
  8
0
  6
Continuous
 62
     7
370
    25
100
AcDbEllipse
 10
153.1476121418
 20
137.000665974
 30
0.0
 11
6.499999999999972
 21
0.0
 31
0.0
210
0.0
220
0.0
230
1.0
 40
0.124260355
 41
0.5546419378369998
 42
1.132672010655781
  0
LINE
  5
2D6
330
1F
100
AcDbEntity
  8
0
  6
Continuous
 62
     7
370
    25
100
AcDbLine
 10
158.6731910594
 20
137.4260282023
 30
0.0
 11
158.6731910594
 21
132.3343237167
 31
0.0
  0
ELLIPSE
  5
2D7
330
1F
100
AcDbEntity
  8
0
  6
Continuous
 62
     7
370
    25
100
AcDbEllipse
 10
153.1476121418
 20
132.759685945
 30
0.0
 11
6.499999999999972
 21
0.0
 31
0.0
210
0.0
220
0.0
230
1.0
 40
0.124260355
 41
5.150513296523842
 42
5.728543369342696
  0
SPLINE
  5
2D8
330
1F
100
AcDbEntity
  8
0
  6
Continuous
 62
     7
370
    25
100
AcDbSpline
210
0.0
220
0.0
230
1.0
 70
     8
 71
     3
 72
    11
 73
     7
 74
     0
 42
0.00000001
 43
0.00000001
 40
0.0
 40
0.0
 40
0.0
 40
0.0
 40
0.0055682347466179
 40
0.1918263368321036
 40
0.6296575784328765
 40
1.0
 40
1.0
 40
1.0
 40
1.0
 10
153.1476121418305
 20
132.5238113150724
 30
0.0
 10
153.1528060651658
 20
132.5224270969966
 30
0.0
 10
153.3317373301957
 20
132.4747406227456
 30
0.0
 10
153.918575029738
 20
132.3207704399064
 30
0.0
 10
154.848700775296
 20
132.0751953651424
 30
0.0
 10
155.5731891521156
 20
132.043023579332
 30
0.0
 10
155.9051831183838
 20
132.028280984261
 30
0.0
  0
SPLINE
  5
2D9
330
1F
100
AcDbEntity
  8
0
  6
Continuous
 62
     7
370
    25
100
AcDbSpline
210
0.0
220
0.0
230
1.0
 70
     8
 71
     3
 72
    11
 73
     7
 74
     0
 42
0.00000001
 43
0.00000001
 40
0.0
 40
0.0
 40
0.0
 40
0.0
 40
0.3703424215671234
 40
0.8081736631678964
 40
0.9944317652533821
 40
1.0
 40
1.0
 40
1.0
 40
1.0
 10
150.3900411652772
 20
132.028280984261
 30
0.0
 10
150.7220351315453
 20
132.043023579332
 30
0.0
 10
151.4465235083649
 20
132.0751953651424
 30
0.0
 10
152.3766492539229
 20
132.3207704399064
 30
0.0
 10
152.9634869534653
 20
132.4747406227456
 30
0.0
 10
153.1424182184952
 20
132.5224270969966
 30
0.0
 10
153.1476121418305
 20
132.5238113150724
 30
0.0
  0
LINE
  5
2DA
330
1F
100
AcDbEntity
  8
0
  6
Continuous
 62
     7
370
    25
100
AcDbLine
 10
155.693062274
 20
131.5327506534
 30
0.0
 11
155.7241327118
 21
131.5292480265
 31
0.0
  0
LINE
  5
2DB
330
1F
100
AcDbEntity
  8
0
  6
Continuous
 62
     7
370
    25
100
AcDbLine
 10
184.7244010969
 20
131.5292641524
 30
0.0
 11
184.693062274
 21
131.5327506534
 31
0.0
  0
LINE
  5
2DC
330
1F
100
AcDbEntity
  8
0
  6
Continuous
 62
     7
370
    25
100
AcDbLine
 10
150.6021620096
 20
131.5327506534
 30
0.0
 11
150.5710228232
 21
131.5292520803
 31
0.0
  0
LINE
  5
2DD
330
1F
100
AcDbEntity
  8
0
  6
Continuous
 62
     7
370
    25
100
AcDbLine
 10
179.6021620096
 20
131.5327506534
 30
0.0
 11
179.5710228232
 21
131.5292520803
 31
0.0
  0
CIRCLE
  5
2DE
330
1F
100
AcDbEntity
  8
0
  6
Continuous
 62
     7
370
    25
100
AcDbCircle
 10
167.6476121418
 20
134.8801759595
 30
0.0
 40
5.584181783769395
  0
CIRCLE
  5
2DF
330
1F
100
AcDbEntity
  8
0
  6
Continuous
 62
     7
370
    25
100
AcDbCircle
 10
167.6476121418
 20
134.8801759595
 30
0.0
 40
5.095107983402499
  0
ARC
  5
2E0
330
1F
100
AcDbEntity
  8
0
  6
Continuous
 62
     7
370
    25
100
AcDbCircle
 10
167.6476121418
 20
134.8801759595
 30
0.0
 40
5.925113123340036
100
AcDbArc
 50
210.7429878176
 51
329.2570121825
  0
ARC
  5
2E1
330
1F
100
AcDbEntity
  8
0
  6
Continuous
 62
     7
370
    25
100
AcDbCircle
 10
167.6476121418
 20
134.8801759595
 30
0.0
 40
5.925113123340054
100
AcDbArc
 50
180.0
 51
210.7429878176
  0
ARC
  5
2E2
330
1F
100
AcDbEntity
  8
0
  6
Continuous
 62
     7
370
    25
100
AcDbCircle
 10
167.6476121418
 20
134.8801759595
 30
0.0
 40
5.925113123340054
100
AcDbArc
 50
149.2570121825
 51
180.0
  0
ARC
  5
2E3
330
1F
100
AcDbEntity
  8
0
  6
Continuous
 62
     7
370
    25
100
AcDbCircle
 10
167.6476121418
 20
134.8801759595
 30
0.0
 40
5.92511312334002
100
AcDbArc
 50
30.7429878175
 51
149.2570121825
  0
ARC
  5
2E4
330
1F
100
AcDbEntity
  8
0
  6
Continuous
 62
     7
370
    25
100
AcDbCircle
 10
167.6476121418
 20
134.8801759595
 30
0.0
 40
5.925113123340026
100
AcDbArc
 50
0.0
 51
30.7429878175
  0
ARC
  5
2E5
330
1F
100
AcDbEntity
  8
0
  6
Continuous
 62
     7
370
    25
100
AcDbCircle
 10
167.6476121418
 20
134.8801759595
 30
0.0
 40
5.925113123340036
100
AcDbArc
 50
329.2570121825
 51
0.0
  0
ELLIPSE
  5
2E6
330
1F
100
AcDbEntity
  8
0
  6
Continuous
 62
     7
370
    25
100
AcDbEllipse
 10
174.9218550958
 20
137.603262464
 30
0.0
 11
2.0
 21
0.0
 31
0.0
210
0.0
220
0.0
230
1.0
 40
0.1682692308
 41
3.972013810537753
 42
5.728543369342606
  0
SPLINE
  5
2E7
330
1F
100
AcDbEntity
  8
0
  6
Continuous
 62
     7
370
    25
100
AcDbSpline
210
0.0
220
0.0
230
1.0
 70
     8
 71
     3
 72
    12
 73
     8
 74
     0
 42
0.00000001
 43
0.00000001
 40
0.0
 40
0.0
 40
0.0
 40
0.0
 40
0.1443005026356244
 40
0.2873275205918753
 40
0.5201185386439743
 40
0.7602843466484757
 40
1.0
 40
1.0
 40
1.0
 40
1.0
 10
173.5727252651705
 20
137.3548245438412
 30
0.0
 10
173.566741005146
 20
137.4023959942872
 30
0.0
 10
173.5548252975497
 20
137.4971190663344
 30
0.0
 10
173.4614400753533
 20
137.6451760296605
 30
0.0
 10
173.3086821319516
 20
137.7806756261989
 30
0.0
 10
173.0942162167633
 20
137.8865713073037
 30
0.0
 10
172.9361762372086
 20
137.9015431928152
 30
0.0
 10
172.8572303724369
 20
137.9090221133536
 30
0.0
  0
ELLIPSE
  5
2E8
330
1F
100
AcDbEntity
  8
0
  6
Continuous
 62
     7
370
    25
100
AcDbEllipse
 10
174.9218550958
 20
138.0987927948
 30
0.0
 11
2.5
 21
0.0
 31
0.0
210
0.0
220
0.0
230
1.0
 40
0.1346153846
 41
3.74068124981192
 42
5.651303747038975
  0
ELLIPSE
  5
2E9
330
1F
100
AcDbEntity
  8
0
  6
Continuous
 62
     7
370
    25
100
AcDbEllipse
 10
160.3733691879
 20
137.603262464
 30
0.0
 11
1.999999999999972
 21
0.0
 31
0.0
210
0.0
220
0.0
230
1.0
 40
0.1682692308
 41
3.696234591426879
 42
5.452764150231701
  0
SPLINE
  5
2EA
330
1F
100
AcDbEntity
  8
0
  6
Continuous
 62
     7
370
    25
100
AcDbSpline
210
0.0
220
0.0
230
1.0
 70
     8
 71
     3
 72
    12
 73
     8
 74
     0
 42
0.00000001
 43
0.00000001
 40
0.0
 40
0.0
 40
0.0
 40
0.0
 40
0.2571943124574413
 40
0.5245503439757948
 40
0.7385170215182973
 40
0.8882338470637767
 40
1.0
 40
1.0
 40
1.0
 40
1.0
 10
162.437993911224
 20
137.9090221133536
 30
0.0
 10
162.3532956337029
 20
137.9004068391107
 30
0.0
 10
162.1805526590105
 20
137.882835902085
 30
0.0
 10
161.9613276302456
 20
137.7643254963572
 30
0.0
 10
161.8119478548662
 20
137.6183373516781
 30
0.0
 10
161.7345513382722
 20
137.4777548886886
 30
0.0
 10
161.7261079791083
 20
137.3916349489198
 30
0.0
 10
161.7224990184904
 20
137.3548245438412
 30
0.0
  0
ELLIPSE
  5
2EB
330
1F
100
AcDbEntity
  8
0
  6
Continuous
 62
     7
370
    25
100
AcDbEllipse
 10
160.3733691879
 20
138.0987927948
 30
0.0
 11
2.499999999999972
 21
0.0
 31
0.0
210
0.0
220
0.0
230
1.0
 40
0.1346153846
 41
3.766648813234303
 42
5.684096710957605
  0
ELLIPSE
  5
2EC
330
1F
100
AcDbEntity
  8
0
  6
Continuous
 62
     7
370
    25
100
AcDbEllipse
 10
174.9218550958
 20
132.157089455
 30
0.0
 11
2.0
 21
0.0
 31
0.0
210
0.0
220
0.0
230
1.0
 40
0.1682692308
 41
0.5546419378371835
 42
2.311171496641758
  0
LINE
  5
2ED
330
1F
100
AcDbEntity
  8
0
  6
Continuous
 62
     7
370
    25
100
AcDbLine
 10
173.5727252652
 20
134.8801759595
 30
0.0
 11
173.5727252652
 21
132.4055273752
 31
0.0
  0
LINE
  5
2EE
330
1F
100
AcDbEntity
  8
0
  6
Continuous
 62
     7
370
    25
100
AcDbLine
 10
173.5727252652
 20
137.3548245438
 30
0.0
 11
173.5727252652
 21
134.8801759595
 31
0.0
  0
LINE
  5
2EF
330
1F
100
AcDbEntity
  8
0
  6
Continuous
 62
     7
370
    25
100
AcDbLine
 10
161.7224990185
 20
134.8801759595
 30
0.0
 11
161.7224990185
 21
132.4055273752
 31
0.0
  0
ELLIPSE
  5
2F0
330
1F
100
AcDbEntity
  8
0
  6
Continuous
 62
     7
370
    25
100
AcDbEllipse
 10
160.3733691879
 20
132.157089455
 30
0.0
 11
1.999999999999972
 21
0.0
 31
0.0
210
0.0
220
0.0
230
1.0
 40
0.1682692308
 41
0.8304211569480388
 42
2.586950715752623
  0
LINE
  5
2F1
330
1F
100
AcDbEntity
  8
0
  6
Continuous
 62
     7
370
    25
100
AcDbLine
 10
161.7224990185
 20
137.3548245438
 30
0.0
 11
161.7224990185
 21
134.8801759595
 31
0.0
  0
SPLINE
  5
2F2
330
1F
100
AcDbEntity
  8
0
  6
Continuous
 62
     7
370
    25
100
AcDbSpline
210
0.0
220
0.0
230
1.0
 70
     8
 71
     3
 72
    12
 73
     8
 74
     0
 42
0.00000001
 43
0.00000001
 40
0.0
 40
0.0
 40
0.0
 40
0.0
 40
0.144300502635625
 40
0.2873275205918761
 40
0.5201185386439748
 40
0.7602843466484799
 40
1.0
 40
1.0
 40
1.0
 40
1.0
 10
161.7224990184904
 20
132.4055273751736
 30
0.0
 10
161.7284832785149
 20
132.3579559247277
 30
0.0
 10
161.7403989861113
 20
132.2632328526804
 30
0.0
 10
161.8337842083077
 20
132.1151758893543
 30
0.0
 10
161.9865421517094
 20
131.9796762928159
 30
0.0
 10
162.2010080668976
 20
131.8737806117112
 30
0.0
 10
162.3590480464524
 20
131.8588087261996
 30
0.0
 10
162.437993911224
 20
131.8513298056613
 30
0.0
  0
ELLIPSE
  5
2F3
330
1F
100
AcDbEntity
  8
0
  6
Continuous
 62
     7
370
    25
100
AcDbEllipse
 10
160.3733691879
 20
131.6615591242
 30
0.0
 11
2.499999999999972
 21
0.0
 31
0.0
210
0.0
220
0.0
230
1.0
 40
0.1346153846
 41
0.5990885962219096
 42
2.509711093449199
  0
SPLINE
  5
2F4
330
1F
100
AcDbEntity
  8
0
  6
Continuous
 62
     7
370
    25
100
AcDbSpline
210
0.0
220
0.0
230
1.0
 70
     8
 71
     3
 72
    12
 73
     8
 74
     0
 42
0.00000001
 43
0.00000001
 40
0.0
 40
0.0
 40
0.0
 40
0.0
 40
0.2571943124574416
 40
0.524550343975796
 40
0.7385170215182983
 40
0.8882338470637771
 40
1.0
 40
1.0
 40
1.0
 40
1.0
 10
172.8572303724369
 20
131.8513298056613
 30
0.0
 10
172.9419286499581
 20
131.8599450799042
 30
0.0
 10
173.1146716246505
 20
131.8775160169299
 30
0.0
 10
173.3338966534153
 20
131.9960264226577
 30
0.0
 10
173.4832764287947
 20
132.1420145673368
 30
0.0
 10
173.5606729453888
 20
132.2825970303263
 30
0.0
 10
173.5691163045526
 20
132.3687169700951
 30
0.0
 10
173.5727252651705
 20
132.4055273751736
 30
0.0
  0
ELLIPSE
  5
2F5
330
1F
100
AcDbEntity
  8
0
  6
Continuous
 62
     7
370
    25
100
AcDbEllipse
 10
174.9218550958
 20
131.6615591242
 30
0.0
 11
2.5
 21
0.0
 31
0.0
210
0.0
220
0.0
230
1.0
 40
0.1346153846
 41
0.6250561596442973
 42
2.542504057367884
  0
ARC
  5
2F6
330
1F
100
AcDbEntity
  8
0
  6
Continuous
 62
     7
370
    25
100
AcDbCircle
 10
167.6476121418
 20
134.8801759595
 30
0.0
 40
7.999999999999989
100
AcDbArc
 50
21.1234840263
 51
158.8765159737
  0
LINE
  5
2F7
330
1F
100
AcDbEntity
  8
0
  6
Continuous
 62
     7
370
    25
100
AcDbLine
 10
172.7400630744
 20
137.9090221134
 30
0.0
 11
172.8572303724
 21
137.9090221134
 31
0.0
  0
LINE
  5
2F8
330
1F
100
AcDbEntity
  8
0
  6
Continuous
 62
     7
370
    25
100
AcDbLine
 10
162.4379939112
 20
137.9090221134
 30
0.0
 11
162.5551612093
 21
137.9090221134
 31
0.0
  0
ARC
  5
2F9
330
1F
100
AcDbEntity
  8
0
  6
Continuous
 62
     7
370
    25
100
AcDbCircle
 10
167.6476121418
 20
134.8801759595
 30
0.0
 40
7.999999999999987
100
AcDbArc
 50
201.1234840263
 51
338.8765159737
  0
LINE
  5
2FA
330
1F
100
AcDbEntity
  8
0
  6
Continuous
 62
     7
370
    25
100
AcDbLine
 10
162.5551612093
 20
131.8513298057
 30
0.0
 11
162.4379939112
 21
131.8513298057
 31
0.0
  0
LINE
  5
2FB
330
1F
100
AcDbEntity
  8
0
  6
Continuous
 62
     7
370
    25
100
AcDbLine
 10
172.8572303724
 20
131.8513298057
 30
0.0
 11
172.7400630744
 21
131.8513298057
 31
0.0
  0
LWPOLYLINE
  5
2FC
330
1F
100
AcDbEntity
  8
0
  6
Continuous
 62
     7
370
    25
100
AcDbPolyline
 90
        9
 70
   128
 43
0.0
 10
179.3900411653
 20
137.7320709348
 10
179.3893482016
 20
137.836857638
 10
179.3981383646
 20
137.936974975
 10
179.4160199588
 20
138.02796165
 10
179.4421961683
 20
138.1057632352
 10
179.4755005634
 20
138.1669128396
 10
179.514449078
 20
138.2086855957
 10
179.5573061399
 20
138.2292200811
 10
179.5708231868
 20
138.2310877667
  0
SPLINE
  5
2FD
330
1F
100
AcDbEntity
  8
0
  6
Continuous
 62
     7
370
    25
100
AcDbSpline
210
0.0
220
0.0
230
1.0
 70
     8
 71
     3
 72
    17
 73
    13
 74
     0
 42
0.00000001
 43
0.00000001
 40
0.0
 40
0.0
 40
0.0
 40
0.0
 40
0.1035854850733411
 40
0.3375824630391486
 40
0.6895287099805723
 40
0.8015981455173037
 40
0.8712562754798991
 40
0.9159740448067668
 40
0.9450303939524121
 40
0.964003469452745
 40
0.9945248237345743
 40
1.0
 40
1.0
 40
1.0
 40
1.0
 10
179.7602095046099
 20
138.2234882032429
 30
0.0
 10
179.8344753926085
 20
138.2243197793192
 30
0.0
 10
180.0765060339923
 20
138.2270298646158
 30
0.0
 10
180.617591470766
 20
138.0514461282588
 30
0.0
 10
181.1846539897147
 20
137.7792655480778
 30
0.0
 10
181.6224419754774
 20
137.5370508893123
 30
0.0
 10
181.8087700856855
 20
137.4314594586484
 30
0.0
 10
181.9269193242559
 20
137.3637584048073
 30
0.0
 10
182.0033550378725
 20
137.3197720946045
 30
0.0
 10
182.0681033377949
 20
137.2824413828618
 30
0.0
 10
182.1134222483183
 20
137.2562801496802
 30
0.0
 10
182.1430983248728
 20
137.239146657578
 30
0.0
 10
182.1476121418305
 20
137.2365406039424
 30
0.0
  0
LWPOLYLINE
  5
2FE
330
1F
100
AcDbEntity
  8
0
  6
Continuous
 62
     7
370
    25
100
AcDbPolyline
 90
        9
 70
   128
 43
0.0
 10
150.3900411653
 20
137.7320709348
 10
150.3893482016
 20
137.836857638
 10
150.3981383646
 20
137.936974975
 10
150.4160199588
 20
138.02796165
 10
150.4421961683
 20
138.1057632352
 10
150.4755005634
 20
138.1669128396
 10
150.514449078
 20
138.2086855957
 10
150.5573061399
 20
138.2292200811
 10
150.5708231868
 20
138.2310877667
  0
SPLINE
  5
2FF
330
1F
100
AcDbEntity
  8
0
  6
Continuous
 62
     7
370
    25
100
AcDbSpline
210
0.0
220
0.0
230
1.0
 70
     8
 71
     3
 72
    17
 73
    13
 74
     0
 42
0.00000001
 43
0.00000001
 40
0.0
 40
0.0
 40
0.0
 40
0.0
 40
0.1035854850733399
 40
0.3375824630391462
 40
0.6895287099805711
 40
0.8015981455173021
 40
0.8712562754799079
 40
0.9159740448067789
 40
0.9450303939524248
 40
0.9640034694527617
 40
0.9945248237345745
 40
1.0
 40
1.0
 40
1.0
 40
1.0
 10
150.7602095046099
 20
138.2234882032429
 30
0.0
 10
150.8344753926085
 20
138.2243197793192
 30
0.0
 10
151.0765060339923
 20
138.2270298646158
 30
0.0
 10
151.617591470766
 20
138.0514461282588
 30
0.0
 10
152.1846539897147
 20
137.7792655480777
 30
0.0
 10
152.6224419754774
 20
137.5370508893123
 30
0.0
 10
152.8087700856855
 20
137.4314594586484
 30
0.0
 10
152.9269193242559
 20
137.3637584048073
 30
0.0
 10
153.0033550378725
 20
137.3197720946045
 30
0.0
 10
153.068103337795
 20
137.2824413828618
 30
0.0
 10
153.1134222483183
 20
137.2562801496802
 30
0.0
 10
153.1430983248728
 20
137.239146657578
 30
0.0
 10
153.1476121418305
 20
137.2365406039424
 30
0.0
  0
ELLIPSE
  5
300
330
1F
100
AcDbEntity
  8
0
  6
Continuous
 62
     7
370
    25
100
AcDbEllipse
 10
182.1476121418
 20
132.759685945
 30
0.0
 11
6.5
 21
0.0
 31
0.0
210
0.0
220
0.0
230
1.0
 40
0.124260355
 41
5.15051329652384
 42
6.283185307179586
  0
ELLIPSE
  5
301
330
1F
100
AcDbEntity
  8
0
  6
Continuous
 62
     7
370
    25
100
AcDbEllipse
 10
182.1476121418
 20
137.000665974
 30
0.0
 11
6.5
 21
0.0
 31
0.0
210
0.0
220
0.0
230
1.0
 40
0.124260355
 41
0.0
 42
1.132672010655783
  0
LWPOLYLINE
  5
302
330
1F
100
AcDbEntity
  8
0
  6
Continuous
 62
     7
370
    25
100
AcDbPolyline
 90
        9
 70
   128
 43
0.0
 10
155.7242014605
 20
138.2310998387
 10
155.7379181438
 20
138.2292200811
 10
155.7807752057
 20
138.2086855957
 10
155.8197237203
 20
138.1669128396
 10
155.8530281154
 20
138.1057632352
 10
155.8792043248
 20
138.02796165
 10
155.897085919
 20
137.936974975
 10
155.9058760821
 20
137.836857638
 10
155.9051831184
 20
137.7320709348
  0
SPLINE
  5
303
330
1F
100
AcDbEntity
  8
0
  6
Continuous
 62
     7
370
    25
100
AcDbSpline
210
0.0
220
0.0
230
1.0
 70
     8
 71
     3
 72
    17
 73
    13
 74
     0
 42
0.00000001
 43
0.00000001
 40
0.0
 40
0.0
 40
0.0
 40
0.0
 40
0.0054758108841721
 40
0.0360007028464145
 40
0.0549759774849142
 40
0.0840356945045915
 40
0.1287586469951393
 40
0.1984248509178995
 40
0.310507276240039
 40
0.6624943166966413
 40
0.8965184168703354
 40
1.0
 40
1.0
 40
1.0
 40
1.0
 10
153.1476121418305
 20
137.2365406039424
 30
0.0
 10
153.1521259587882
 20
137.2391466575783
 30
0.0
 10
153.1818020353431
 20
137.2562801496823
 30
0.0
 10
153.2271209458537
 20
137.2824413828142
 30
0.0
 10
153.2918692458205
 20
137.3197720947287
 30
0.0
 10
153.3683049591637
 20
137.3637584038716
 30
0.0
 10
153.486454199758
 20
137.431459465558
 30
0.0
 10
153.6727822946317
 20
137.5370508367827
 30
0.0
 10
154.1105704577157
 20
137.7792661828807
 30
0.0
 10
154.6776310406574
 20
138.0514392587161
 30
0.0
 10
155.2186304670388
 20
138.2270126100269
 30
0.0
 10
155.4605797634446
 20
138.2243102237526
 30
0.0
 10
155.5347630956603
 20
138.2234816533797
 30
0.0
  0
ELLIPSE
  5
304
330
1F
100
AcDbEntity
  8
0
  6
Continuous
 62
     7
370
    25
100
AcDbEllipse
 10
153.1476121418
 20
132.759685945
 30
0.0
 11
6.499999999999972
 21
0.0
 31
0.0
210
0.0
220
0.0
230
1.0
 40
0.124260355
 41
3.141592653589792
 42
4.274264664245582
  0
ELLIPSE
  5
305
330
1F
100
AcDbEntity
  8
0
  6
Continuous
 62
     7
370
    25
100
AcDbEllipse
 10
153.1476121418
 20
137.000665974
 30
0.0
 11
6.499999999999972
 21
0.0
 31
0.0
210
0.0
220
0.0
230
1.0
 40
0.124260355
 41
2.008920642934012
 42
3.141592653589792
  0
LWPOLYLINE
  5
306
330
1F
100
AcDbEntity
  8
0
  6
Continuous
 62
     7
370
    25
100
AcDbPolyline
 90
        9
 70
   128
 43
0.0
 10
184.9051831184
 20
137.7320709348
 10
184.9058760821
 20
137.836857638
 10
184.897085919
 20
137.936974975
 10
184.8792043248
 20
138.02796165
 10
184.8530281154
 20
138.1057632352
 10
184.8197237203
 20
138.1669128396
 10
184.7807752057
 20
138.2086855957
 10
184.7379181438
 20
138.2292200811
 10
184.7243278771
 20
138.2310922461
  0
SPLINE
  5
307
330
1F
100
AcDbEntity
  8
0
  6
Continuous
 62
     7
370
    25
100
AcDbSpline
210
0.0
220
0.0
230
1.0
 70
     8
 71
     3
 72
    17
 73
    13
 74
     0
 42
0.00000001
 43
0.00000001
 40
0.0
 40
0.0
 40
0.0
 40
0.0
 40
0.0054758108841725
 40
0.0360007028463726
 40
0.054975977484927
 40
0.0840356945045883
 40
0.1287586469951294
 40
0.1984248509179025
 40
0.3105072762400351
 40
0.6624943166966457
 40
0.8965184168703382
 40
1.0
 40
1.0
 40
1.0
 40
1.0
 10
182.1476121418305
 20
137.2365406039424
 30
0.0
 10
182.1521259587882
 20
137.2391466575783
 30
0.0
 10
182.1818020353431
 20
137.2562801496823
 30
0.0
 10
182.2271209458538
 20
137.2824413828141
 30
0.0
 10
182.2918692458205
 20
137.3197720947286
 30
0.0
 10
182.3683049591637
 20
137.3637584038717
 30
0.0
 10
182.486454199758
 20
137.431459465558
 30
0.0
 10
182.6727822946317
 20
137.5370508367827
 30
0.0
 10
183.1105704577157
 20
137.7792661828807
 30
0.0
 10
183.6776310406575
 20
138.0514392587161
 30
0.0
 10
184.2186304670388
 20
138.2270126100269
 30
0.0
 10
184.4605797634446
 20
138.2243102237526
 30
0.0
 10
184.5347630956603
 20
138.2234816533797
 30
0.0
  0
SPLINE
  5
308
330
1F
100
AcDbEntity
  8
0
  6
Continuous
 62
     7
370
    25
100
AcDbSpline
210
0.0
220
0.0
230
1.0
 70
     8
 71
     3
 72
    17
 73
    13
 74
     0
 42
0.00000001
 43
0.00000001
 40
0.0
 40
0.0
 40
0.0
 40
0.0
 40
0.1035854850733364
 40
0.337582463039145
 40
0.6895287099805705
 40
0.8015981455173123
 40
0.8712562754799034
 40
0.9159740448067681
 40
0.9450303939524103
 40
0.9640034694526899
 40
0.9945248237345604
 40
0.9999999999999999
 40
0.9999999999999999
 40
0.9999999999999999
 40
0.9999999999999999
 10
155.5350147790511
 20
131.536863715772
 30
0.0
 10
155.4607488910525
 20
131.5360321396957
 30
0.0
 10
155.2187182496687
 20
131.533322054399
 30
0.0
 10
154.6776328128949
 20
131.7089057907561
 30
0.0
 10
154.1105702939462
 20
131.9810863709371
 30
0.0
 10
153.6727823081836
 20
132.2233010297025
 30
0.0
 10
153.4864541979754
 20
132.3288924603664
 30
0.0
 10
153.3683049594051
 20
132.3965935142076
 30
0.0
 10
153.2918692457884
 20
132.4405798244102
 30
0.0
 10
153.2271209458661
 20
132.477910536153
 30
0.0
 10
153.1818020353425
 20
132.5040717693342
 30
0.0
 10
153.1521259587881
 20
132.5212052614368
 30
0.0
 10
153.1476121418305
 20
132.5238113150724
 30
0.0
  0
LWPOLYLINE
  5
309
330
1F
100
AcDbEntity
  8
0
  6
Continuous
 62
     7
370
    25
100
AcDbPolyline
 90
        9
 70
   128
 43
0.0
 10
155.7241327118
 20
131.5292480265
 10
155.7379181438
 20
131.5311318379
 10
155.7807752057
 20
131.5516663234
 10
155.8197237203
 20
131.5934390794
 10
155.8530281154
 20
131.6545886838
 10
155.8792043248
 20
131.732390269
 10
155.897085919
 20
131.823376944
 10
155.9058760821
 20
131.9234942811
 10
155.9051831184
 20
132.0282809843
  0
LWPOLYLINE
  5
30A
330
1F
100
AcDbEntity
  8
0
  6
Continuous
 62
     7
370
    25
100
AcDbPolyline
 90
        9
 70
   128
 43
0.0
 10
184.9051831184
 20
132.0282809843
 10
184.9058760821
 20
131.9234942811
 10
184.897085919
 20
131.823376944
 10
184.8792043248
 20
131.732390269
 10
184.8530281154
 20
131.6545886838
 10
184.8197237203
 20
131.5934390794
 10
184.7807752057
 20
131.5516663234
 10
184.7379181438
 20
131.5311318379
 10
184.7244010969
 20
131.5292641524
  0
SPLINE
  5
30B
330
1F
100
AcDbEntity
  8
0
  6
Continuous
 62
     7
370
    25
100
AcDbSpline
210
0.0
220
0.0
230
1.0
 70
     8
 71
     3
 72
    17
 73
    13
 74
     0
 42
0.00000001
 43
0.00000001
 40
0.0
 40
0.0
 40
0.0
 40
0.0
 40
0.1035854850733361
 40
0.337582463039144
 40
0.6895287099805703
 40
0.8015981455173012
 40
0.8712562754798887
 40
0.915974044806772
 40
0.9450303939524196
 40
0.9640034694527361
 40
0.9945248237345603
 40
1.0
 40
1.0
 40
1.0
 40
1.0
 10
184.5350147790511
 20
131.536863715772
 30
0.0
 10
184.4607488910525
 20
131.5360321396957
 30
0.0
 10
184.2187182496687
 20
131.533322054399
 30
0.0
 10
183.6776328128949
 20
131.7089057907561
 30
0.0
 10
183.1105702939462
 20
131.9810863709371
 30
0.0
 10
182.6727823081836
 20
132.2233010297025
 30
0.0
 10
182.4864541979754
 20
132.3288924603664
 30
0.0
 10
182.3683049594051
 20
132.3965935142076
 30
0.0
 10
182.2918692457884
 20
132.4405798244103
 30
0.0
 10
182.2271209458661
 20
132.477910536153
 30
0.0
 10
182.1818020353427
 20
132.5040717693348
 30
0.0
 10
182.1521259587882
 20
132.5212052614368
 30
0.0
 10
182.1476121418305
 20
132.5238113150724
 30
0.0
  0
LWPOLYLINE
  5
30C
330
1F
100
AcDbEntity
  8
0
  6
Continuous
 62
     7
370
    25
100
AcDbPolyline
 90
        9
 70
   128
 43
0.0
 10
150.5710228232
 20
131.5292520803
 10
150.5573061399
 20
131.5311318379
 10
150.514449078
 20
131.5516663234
 10
150.4755005634
 20
131.5934390794
 10
150.4421961683
 20
131.6545886838
 10
150.4160199588
 20
131.732390269
 10
150.3981383646
 20
131.823376944
 10
150.3893482016
 20
131.9234942811
 10
150.3900411653
 20
132.0282809843
  0
SPLINE
  5
30D
330
1F
100
AcDbEntity
  8
0
  6
Continuous
 62
     7
370
    25
100
AcDbSpline
210
0.0
220
0.0
230
1.0
 70
     8
 71
     3
 72
    17
 73
    13
 74
     0
 42
0.00000001
 43
0.00000001
 40
0.0
 40
0.0
 40
0.0
 40
0.0
 40
0.0054758108841865
 40
0.0360007028463749
 40
0.0549759774848977
 40
0.0840356945045909
 40
0.1287586469951262
 40
0.1984248509178939
 40
0.310507276240036
 40
0.6624943166966468
 40
0.8965184168703411
 40
1.0
 40
1.0
 40
1.0
 40
1.0
 10
153.1476121418305
 20
132.5238113150724
 30
0.0
 10
153.1430983248727
 20
132.5212052614365
 30
0.0
 10
153.113422248318
 20
132.5040717693322
 30
0.0
 10
153.0681033378072
 20
132.4779105362008
 30
0.0
 10
153.0033550378405
 20
132.4405798242861
 30
0.0
 10
152.9269193244972
 20
132.3965935151433
 30
0.0
 10
152.8087700839029
 20
132.3288924534568
 30
0.0
 10
152.6224419890292
 20
132.2233010822322
 30
0.0
 10
152.1846538259452
 20
131.9810857361342
 30
0.0
 10
151.6175932430035
 20
131.7089126602987
 30
0.0
 10
151.0765938166222
 20
131.5333393089879
 30
0.0
 10
150.8346445202164
 20
131.5360416952622
 30
0.0
 10
150.7604611880006
 20
131.5368702656352
 30
0.0
  0
LWPOLYLINE
  5
30E
330
1F
100
AcDbEntity
  8
0
  6
Continuous
 62
     7
370
    25
100
AcDbPolyline
 90
        9
 70
   128
 43
0.0
 10
179.5710228232
 20
131.5292520803
 10
179.5573061399
 20
131.5311318379
 10
179.514449078
 20
131.5516663234
 10
179.4755005634
 20
131.5934390794
 10
179.4421961683
 20
131.6545886838
 10
179.4160199588
 20
131.732390269
 10
179.3981383646
 20
131.823376944
 10
179.3893482016
 20
131.9234942811
 10
179.3900411653
 20
132.0282809843
  0
SPLINE
  5
30F
330
1F
100
AcDbEntity
  8
0
  6
Continuous
 62
     7
370
    25
100
AcDbSpline
210
0.0
220
0.0
230
1.0
 70
     8
 71
     3
 72
    17
 73
    13
 74
     0
 42
0.00000001
 43
0.00000001
 40
0.0
 40
0.0
 40
0.0
 40
0.0
 40
0.0054758108841867
 40
0.0360007028464308
 40
0.054975977484913
 40
0.0840356945045914
 40
0.1287586469951404
 40
0.1984248509179035
 40
0.3105072762400362
 40
0.6624943166966483
 40
0.8965184168703427
 40
1.0
 40
1.0
 40
1.0
 40
1.0
 10
182.1476121418305
 20
132.5238113150724
 30
0.0
 10
182.1430983248727
 20
132.5212052614365
 30
0.0
 10
182.113422248318
 20
132.5040717693322
 30
0.0
 10
182.0681033378072
 20
132.4779105362008
 30
0.0
 10
182.0033550378405
 20
132.4405798242861
 30
0.0
 10
181.9269193244972
 20
132.3965935151433
 30
0.0
 10
181.8087700839029
 20
132.3288924534568
 30
0.0
 10
181.6224419890292
 20
132.2233010822322
 30
0.0
 10
181.1846538259452
 20
131.9810857361342
 30
0.0
 10
180.6175932430035
 20
131.7089126602987
 30
0.0
 10
180.0765938166222
 20
131.5333393089879
 30
0.0
 10
179.8346445202164
 20
131.5360416952622
 30
0.0
 10
179.7604611880007
 20
131.5368702656352
 30
0.0
  0
ARC
  5
310
330
1F
100
AcDbEntity
  8
0
  6
Continuous
 62
     7
370
    25
100
AcDbCircle
 10
158.2348582246
 20
137.4883127587
 30
0.0
 40
0.4427358580480967
100
AcDbArc
 50
351.9127409756
 51
74.3423597433
  0
ARC
  5
311
330
1F
100
AcDbEntity
  8
0
  6
Continuous
 62
     7
370
    25
100
AcDbCircle
 10
177.0726510271
 20
137.4803030349
 30
0.0
 40
0.4538746100675775
100
AcDbArc
 50
106.8902047162
 51
186.8679282522
  0
ARC
  5
312
330
1F
100
AcDbEntity
  8
0
  6
Continuous
 62
     7
370
    25
100
AcDbCircle
 10
158.2225732566
 20
132.2800488841
 30
0.0
 40
0.4538746100674794
100
AcDbArc
 50
286.8902047162
 51
6.8679282522
  0
ARC
  5
313
330
1F
100
AcDbEntity
  8
0
  6
Continuous
 62
     7
370
    25
100
AcDbCircle
 10
177.060366059
 20
132.2720391603
 30
0.0
 40
0.4427358580481141
100
AcDbArc
 50
171.9127409756
 51
254.3423597433
  0
INSERT
  5
31F
330
1F
100
AcDbEntity
  8
0
  6
Continuous
 62
     7
370
    18
100
AcDbBlockReference
  2
SW_CENTERMARKSYMBOL_1
 10
167.6476121418
 20
134.8801759595
 30
0.0
  0
ENDSEC
  0
SECTION
  2
OBJECTS
  0
DICTIONARY
  5
C
330
0
100
AcDbDictionary
281
     1
  3
ACAD_GROUP
350
D
  3
ACAD_LAYOUT
350
1A
  3
ACAD_MLINESTYLE
350
17
  3
ACAD_PLOTSETTINGS
350
19
  3
ACAD_PLOTSTYLENAME
350
E
  3
ACAD_SCALELIST
350
47
  3
DWGPROPS
350
320
  0
DICTIONARY
  5
D
102
{ACAD_REACTORS
330
C
102
}
330
C
100
AcDbDictionary
281
     1
  0
DICTIONARY
  5
1A
102
{ACAD_REACTORS
330
C
102
}
330
C
100
AcDbDictionary
281
     1
  3
Layout1
350
1E
  3
Layout2
350
26
  3
Model
350
22
  0
DICTIONARY
  5
17
102
{ACAD_REACTORS
330
C
102
}
330
C
100
AcDbDictionary
281
     1
  3
Standard
350
18
  0
DICTIONARY
  5
19
102
{ACAD_REACTORS
330
C
102
}
330
C
100
AcDbDictionary
281
     1
  0
ACDBDICTIONARYWDFLT
  5
E
102
{ACAD_REACTORS
330
C
102
}
330
C
100
AcDbDictionary
281
     1
  3
Normal
350
F
100
AcDbDictionaryWithDefault
340
F
  0
DICTIONARY
  5
47
102
{ACAD_REACTORS
330
C
102
}
330
C
100
AcDbDictionary
281
     1
  3
A0
350
48
  3
A1
350
49
  3
A2
350
4A
  3
A3
350
4B
  3
A4
350
4C
  3
A5
350
4D
  3
A6
350
4E
  3
A7
350
4F
  3
A8
350
50
  3
A9
350
51
  3
B0
350
52
  3
B1
350
53
  3
B2
350
54
  3
B3
350
55
  3
B4
350
56
  3
B5
350
57
  3
B6
350
58
  0
XRECORD
  5
320
102
{ACAD_REACTORS
330
C
102
}
330
C
100
AcDbXrecord
280
     1
  1
DWGPROPS COOKIE
  2

  3

  4

  6

  7

  8
user28
  9

300
=
301
=
302
=
303
=
304
=
305
=
306
=
307
=
308
=
309
=
 40
0.0
 41
2460276.254332269
 42
2460276.254333113
  1

 90
        0
  0
LAYOUT
  5
1E
102
{ACAD_REACTORS
330
1A
102
}
330
1A
100
AcDbPlotSettings
  1

  2
none_device
  4

  6

 40
0.0
 41
0.0
 42
0.0
 43
0.0
 44
0.0
 45
0.0
 46
0.0
 47
0.0
 48
0.0
 49
0.0
140
0.0
141
0.0
142
1.0
143
1.0
 70
   688
 72
     1
 73
     0
 74
     5
  7

 75
    16
147
1.0
148
0.0
149
0.0
100
AcDbLayout
  1
Layout1
 70
     1
 71
     1
 10
0.0
 20
0.0
 11
420.0
 21
297.0
 12
0.0
 22
0.0
 32
0.0
 14
1.0000000000E+20
 24
1.0000000000E+20
 34
1.0000000000E+20
 15
-1.0000000000E+20
 25
-1.0000000000E+20
 35
-1.0000000000E+20
146
0.0
 13
0.0
 23
0.0
 33
0.0
 16
1.0
 26
0.0
 36
0.0
 17
0.0
 27
1.0
 37
0.0
 76
     0
330
1B
  0
LAYOUT
  5
26
102
{ACAD_REACTORS
330
1A
102
}
330
1A
100
AcDbPlotSettings
  1

  2
none_device
  4

  6

 40
0.0
 41
0.0
 42
0.0
 43
0.0
 44
0.0
 45
0.0
 46
0.0
 47
0.0
 48
0.0
 49
0.0
140
0.0
141
0.0
142
1.0
143
1.0
 70
   688
 72
     1
 73
     0
 74
     5
  7

 75
    16
147
1.0
148
0.0
149
0.0
100
AcDbLayout
  1
Layout2
 70
     1
 71
     2
 10
0.0
 20
0.0
 11
0.0
 21
0.0
 12
0.0
 22
0.0
 32
0.0
 14
0.0
 24
0.0
 34
0.0
 15
0.0
 25
0.0
 35
0.0
146
0.0
 13
0.0
 23
0.0
 33
0.0
 16
1.0
 26
0.0
 36
0.0
 17
0.0
 27
1.0
 37
0.0
 76
     0
330
23
  0
LAYOUT
  5
22
102
{ACAD_REACTORS
330
1A
102
}
330
1A
100
AcDbPlotSettings
  1

  2
none_device
  4
Letter_(8.50_x_11.00_Inches)
  6

 40
6.35
 41
6.35
 42
6.35000508
 43
6.35000508
 44
215.9
 45
279.4
 46
0.0
 47
0.0
 48
0.0
 49
0.0
140
0.0
141
0.0
142
1.0
143
1.0
 70
  1712
 72
     1
 73
     0
 74
     0
  7

 75
     0
147
1.0
148
0.0
149
0.0
100
AcDbLayout
  1
Model
 70
     1
 71
     0
 10
0.0
 20
0.0
 11
431.8
 21
279.4
 12
0.0
 22
0.0
 32
0.0
 14
0.0
 24
0.0
 34
0.0
 15
431.8
 25
279.4
 35
0.0
146
0.0
 13
0.0
 23
0.0
 33
0.0
 16
1.0
 26
0.0
 36
0.0
 17
0.0
 27
1.0
 37
0.0
 76
     0
330
1F
331
29
  0
MLINESTYLE
  5
18
102
{ACAD_REACTORS
330
17
102
}
330
17
100
AcDbMlineStyle
  2
Standard
 70
     0
  3

 62
   256
 51
90.0
 52
90.0
 71
     2
 49
0.5
 62
   256
  6
BYLAYER
 49
-0.5
 62
   256
  6
BYLAYER
  0
ACDBPLACEHOLDER
  5
F
102
{ACAD_REACTORS
330
E
102
}
330
E
  0
SCALE
  5
48
102
{ACAD_REACTORS
330
47
102
}
330
47
100
AcDbScale
 70
     0
300
1:1
140
1.0
141
1.0
290
     1
  0
SCALE
  5
49
102
{ACAD_REACTORS
330
47
102
}
330
47
100
AcDbScale
 70
     0
300
1:2
140
1.0
141
2.0
290
     0
  0
SCALE
  5
4A
102
{ACAD_REACTORS
330
47
102
}
330
47
100
AcDbScale
 70
     0
300
1:4
140
1.0
141
4.0
290
     0
  0
SCALE
  5
4B
102
{ACAD_REACTORS
330
47
102
}
330
47
100
AcDbScale
 70
     0
300
1:5
140
1.0
141
5.0
290
     0
  0
SCALE
  5
4C
102
{ACAD_REACTORS
330
47
102
}
330
47
100
AcDbScale
 70
     0
300
1:8
140
1.0
141
8.0
290
     0
  0
SCALE
  5
4D
102
{ACAD_REACTORS
330
47
102
}
330
47
100
AcDbScale
 70
     0
300
1:10
140
1.0
141
10.0
290
     0
  0
SCALE
  5
4E
102
{ACAD_REACTORS
330
47
102
}
330
47
100
AcDbScale
 70
     0
300
1:16
140
1.0
141
16.0
290
     0
  0
SCALE
  5
4F
102
{ACAD_REACTORS
330
47
102
}
330
47
100
AcDbScale
 70
     0
300
1:20
140
1.0
141
20.0
290
     0
  0
SCALE
  5
50
102
{ACAD_REACTORS
330
47
102
}
330
47
100
AcDbScale
 70
     0
300
1:30
140
1.0
141
30.0
290
     0
  0
SCALE
  5
51
102
{ACAD_REACTORS
330
47
102
}
330
47
100
AcDbScale
 70
     0
300
1:40
140
1.0
141
40.0
290
     0
  0
SCALE
  5
52
102
{ACAD_REACTORS
330
47
102
}
330
47
100
AcDbScale
 70
     0
300
1:50
140
1.0
141
50.0
290
     0
  0
SCALE
  5
53
102
{ACAD_REACTORS
330
47
102
}
330
47
100
AcDbScale
 70
     0
300
1:100
140
1.0
141
100.0
290
     0
  0
SCALE
  5
54
102
{ACAD_REACTORS
330
47
102
}
330
47
100
AcDbScale
 70
     0
300
2:1
140
2.0
141
1.0
290
     0
  0
SCALE
  5
55
102
{ACAD_REACTORS
330
47
102
}
330
47
100
AcDbScale
 70
     0
300
4:1
140
4.0
141
1.0
290
     0
  0
SCALE
  5
56
102
{ACAD_REACTORS
330
47
102
}
330
47
100
AcDbScale
 70
     0
300
8:1
140
8.0
141
1.0
290
     0
  0
SCALE
  5
57
102
{ACAD_REACTORS
330
47
102
}
330
47
100
AcDbScale
 70
     0
300
10:1
140
10.0
141
1.0
290
     0
  0
SCALE
  5
58
102
{ACAD_REACTORS
330
47
102
}
330
47
100
AcDbScale
 70
     0
300
100:1
140
100.0
141
1.0
290
     0
  0
ENDSEC
  0
EOF
