  0
SECTION
  2
HEADER
  9
$ACADVER
  1
AC1015
  9
$ACADMAINTVER
 70
     6
  9
$DWGCODEPAGE
  3
DOS932
  9
$INSBASE
 10
0.0
 20
0.0
 30
0.0
  9
$EXTMIN
 10
0.0
 20
0.0
 30
0.0
  9
$EXTMAX
 10
431.8
 20
279.4
 30
0.0
  9
$LIMMIN
 10
0.0
 20
0.0
  9
$LIMMAX
 10
431.8
 20
279.4
  9
$ORTHOMODE
 70
     0
  9
$REGENMODE
 70
     1
  9
$FILLMODE
 70
     1
  9
$QTEXTMODE
 70
     0
  9
$MIRRTEXT
 70
     1
  9
$LTSCALE
 40
1.0
  9
$ATTMODE
 70
     1
  9
$TEXTSIZE
 40
3.5
  9
$TRACEWID
 40
1.0
  9
$TEXTSTYLE
  7
Standard
  9
$CLAYER
  8
0
  9
$CELTYPE
  6
ByLayer
  9
$CECOLOR
 62
   256
  9
$CELTSCALE
 40
1.0
  9
$DISPSILH
 70
     0
  9
$DIMSCALE
 40
1.0
  9
$DIMASZ
 40
3.556
  9
$DIMEXO
 40
1.0
  9
$DIMDLI
 40
3.75
  9
$DIMRND
 40
0.0
  9
$DIMDLE
 40
0.0
  9
$DIMEXE
 40
1.0
  9
$DIMTP
 40
0.0
  9
$DIMTM
 40
0.0
  9
$DIMTXT
 40
3.5
  9
$DIMCEN
 40
2.5
  9
$DIMTSZ
 40
0.0
  9
$DIMTOL
 70
     0
  9
$DIMLIM
 70
     0
  9
$DIMTIH
 70
     1
  9
$DIMTOH
 70
     1
  9
$DIMSE1
 70
     0
  9
$DIMSE2
 70
     0
  9
$DIMTAD
 70
     1
  9
$DIMZIN
 70
     0
  9
$DIMBLK
  1

  9
$DIMASO
 70
     1
  9
$DIMSHO
 70
     1
  9
$DIMPOST
  1

  9
$DIMAPOST
  1

  9
$DIMALT
 70
     0
  9
$DIMALTD
 70
     3
  9
$DIMALTF
 40
0.0393700787
  9
$DIMLFAC
 40
1.0
  9
$DIMTOFL
 70
     1
  9
$DIMTVP
 40
0.0
  9
$DIMTIX
 70
     0
  9
$DIMSOXD
 70
     0
  9
$DIMSAH
 70
     0
  9
$DIMBLK1
  1

  9
$DIMBLK2
  1

  9
$DIMSTYLE
  2
ISO-25
  9
$DIMCLRD
 70
     0
  9
$DIMCLRE
 70
     0
  9
$DIMCLRT
 70
     0
  9
$DIMTFAC
 40
1.0
  9
$DIMGAP
 40
1.524
  9
$DIMJUST
 70
     0
  9
$DIMSD1
 70
     0
  9
$DIMSD2
 70
     0
  9
$DIMTOLJ
 70
     0
  9
$DIMTZIN
 70
     0
  9
$DIMALTZ
 70
     0
  9
$DIMALTTZ
 70
     0
  9
$DIMUPT
 70
     0
  9
$DIMDEC
 70
     3
  9
$DIMTDEC
 70
     3
  9
$DIMALTU
 70
     2
  9
$DIMALTTD
 70
     3
  9
$DIMTXSTY
  7
Standard
  9
$DIMAUNIT
 70
     0
  9
$DIMADEC
 70
     2
  9
$DIMALTRND
 40
0.0
  9
$DIMAZIN
 70
     0
  9
$DIMDSEP
 70
    44
  9
$DIMATFIT
 70
     3
  9
$DIMFRAC
 70
     0
  9
$DIMLDRBLK
  1

  9
$DIMLUNIT
 70
     2
  9
$DIMLWD
 70
    -2
  9
$DIMLWE
 70
    -2
  9
$DIMTMOVE
 70
     0
  9
$LUNITS
 70
     2
  9
$LUPREC
 70
     3
  9
$SKETCHINC
 40
1.0
  9
$FILLETRAD
 40
0.0
  9
$AUNITS
 70
     0
  9
$AUPREC
 70
     2
  9
$MENU
  1
.
  9
$ELEVATION
 40
0.0
  9
$PELEVATION
 40
0.0
  9
$THICKNESS
 40
0.0
  9
$LIMCHECK
 70
     0
  9
$CHAMFERA
 40
0.0
  9
$CHAMFERB
 40
0.0
  9
$CHAMFERC
 40
0.0
  9
$CHAMFERD
 40
0.0
  9
$SKPOLY
 70
     0
  9
$TDCREATE
 40
2460276.625652674
  9
$TDUCREATE
 40
2460276.250652674
  9
$TDUPDATE
 40
2460276.625654016
  9
$TDUUPDATE
 40
2460276.250654016
  9
$TDINDWG
 40
0.0000000116
  9
$TDUSRTIMER
 40
0.0000000116
  9
$USRTIMER
 70
     1
  9
$ANGBASE
 50
0.0
  9
$ANGDIR
 70
     0
  9
$PDMODE
 70
     0
  9
$PDSIZE
 40
-1.0
  9
$PLINEWID
 40
0.0
  9
$SPLFRAME
 70
     0
  9
$SPLINETYPE
 70
     6
  9
$SPLINESEGS
 70
     8
  9
$HANDSEED
  5
32B
  9
$SURFTAB1
 70
     6
  9
$SURFTAB2
 70
     6
  9
$SURFTYPE
 70
     6
  9
$SURFU
 70
     6
  9
$SURFV
 70
     6
  9
$UCSBASE
  2

  9
$UCSNAME
  2

  9
$UCSORG
 10
0.0
 20
0.0
 30
0.0
  9
$UCSXDIR
 10
1.0
 20
0.0
 30
0.0
  9
$UCSYDIR
 10
0.0
 20
1.0
 30
0.0
  9
$UCSORTHOREF
  2

  9
$UCSORTHOVIEW
 70
     0
  9
$UCSORGTOP
 10
0.0
 20
0.0
 30
0.0
  9
$UCSORGBOTTOM
 10
0.0
 20
0.0
 30
0.0
  9
$UCSORGLEFT
 10
0.0
 20
0.0
 30
0.0
  9
$UCSORGRIGHT
 10
0.0
 20
0.0
 30
0.0
  9
$UCSORGFRONT
 10
0.0
 20
0.0
 30
0.0
  9
$UCSORGBACK
 10
0.0
 20
0.0
 30
0.0
  9
$PUCSBASE
  2

  9
$PUCSNAME
  2

  9
$PUCSORG
 10
0.0
 20
0.0
 30
0.0
  9
$PUCSXDIR
 10
1.0
 20
0.0
 30
0.0
  9
$PUCSYDIR
 10
0.0
 20
1.0
 30
0.0
  9
$PUCSORTHOREF
  2

  9
$PUCSORTHOVIEW
 70
     0
  9
$PUCSORGTOP
 10
0.0
 20
0.0
 30
0.0
  9
$PUCSORGBOTTOM
 10
0.0
 20
0.0
 30
0.0
  9
$PUCSORGLEFT
 10
0.0
 20
0.0
 30
0.0
  9
$PUCSORGRIGHT
 10
0.0
 20
0.0
 30
0.0
  9
$PUCSORGFRONT
 10
0.0
 20
0.0
 30
0.0
  9
$PUCSORGBACK
 10
0.0
 20
0.0
 30
0.0
  9
$USERI1
 70
     0
  9
$USERI2
 70
     0
  9
$USERI3
 70
     0
  9
$USERI4
 70
     0
  9
$USERI5
 70
     0
  9
$USERR1
 40
0.0
  9
$USERR2
 40
0.0
  9
$USERR3
 40
0.0
  9
$USERR4
 40
0.0
  9
$USERR5
 40
0.0
  9
$WORLDVIEW
 70
     1
  9
$SHADEDGE
 70
     3
  9
$SHADEDIF
 70
    70
  9
$TILEMODE
 70
     1
  9
$MAXACTVP
 70
    64
  9
$PINSBASE
 10
0.0
 20
0.0
 30
0.0
  9
$PLIMCHECK
 70
     0
  9
$PEXTMIN
 10
1.0000000000E+20
 20
1.0000000000E+20
 30
1.0000000000E+20
  9
$PEXTMAX
 10
-1.0000000000E+20
 20
-1.0000000000E+20
 30
-1.0000000000E+20
  9
$PLIMMIN
 10
0.0
 20
0.0
  9
$PLIMMAX
 10
420.0
 20
297.0
  9
$UNITMODE
 70
     0
  9
$VISRETAIN
 70
     1
  9
$PLINEGEN
 70
     0
  9
$PSLTSCALE
 70
     1
  9
$TREEDEPTH
 70
  3020
  9
$CMLSTYLE
  2
Standard
  9
$CMLJUST
 70
     0
  9
$CMLSCALE
 40
20.0
  9
$PROXYGRAPHICS
 70
     1
  9
$MEASUREMENT
 70
     1
  9
$CELWEIGHT
370
    -1
  9
$ENDCAPS
280
     0
  9
$JOINSTYLE
280
     0
  9
$LWDISPLAY
290
     1
  9
$INSUNITS
 70
     4
  9
$HYPERLINKBASE
  1

  9
$STYLESHEET
  1

  9
$XEDIT
290
     1
  9
$CEPSNTYPE
380
     0
  9
$PSTYLEMODE
290
     1
  9
$FINGERPRINTGUID
  2
{2add8855-2d50-464f-9e81-a9bef1a65751}
  9
$VERSIONGUID
  2
{FAEB1C32-E019-11D5-929B-00C0DF256EC4}
  9
$EXTNAMES
290
     1
  9
$PSVPSCALE
 40
0.0
  9
$OLESTARTUP
290
     0
  0
ENDSEC
  0
SECTION
  2
CLASSES
  0
CLASS
  1
ACDBDICTIONARYWDFLT
  2
AcDbDictionaryWithDefault
  3
ObjectDBX Classes
 90
        0
280
     0
281
     0
  0
CLASS
  1
VISUALSTYLE
  2
AcDbVisualStyle
  3
ObjectDBX Classes
 90
     4095
280
     0
281
     0
  0
CLASS
  1
MATERIAL
  2
AcDbMaterial
  3
ObjectDBX Classes
 90
     1153
280
     0
281
     0
  0
CLASS
  1
SCALE
  2
AcDbScale
  3
ObjectDBX Classes
 90
     1153
280
     0
281
     0
  0
CLASS
  1
TABLESTYLE
  2
AcDbTableStyle
  3
ObjectDBX Classes
 90
     4095
280
     0
281
     0
  0
CLASS
  1
MLEADERSTYLE
  2
AcDbMLeaderStyle
  3
ACDB_MLEADERSTYLE_CLASS
 90
     4095
280
     0
281
     0
  0
CLASS
  1
SUN
  2
AcDbSun
  3
SCENEOE
 90
     1153
280
     0
281
     0
  0
CLASS
  1
ACDBPLACEHOLDER
  2
AcDbPlaceHolder
  3
ObjectDBX Classes
 90
        0
280
     0
281
     0
  0
CLASS
  1
LAYOUT
  2
AcDbLayout
  3
ObjectDBX Classes
 90
        0
280
     0
281
     0
  0
ENDSEC
  0
SECTION
  2
TABLES
  0
TABLE
  2
VPORT
  5
8
330
0
100
AcDbSymbolTable
 70
     1
  0
VPORT
  5
29
330
8
100
AcDbSymbolTableRecord
100
AcDbViewportTableRecord
  2
*Active
 70
     0
 10
0.0
 20
0.0
 11
1.0
 21
1.0
 12
215.9
 22
139.7
 13
0.0
 23
0.0
 14
10.0
 24
10.0
 15
10.0
 25
10.0
 16
0.0
 26
0.0
 36
1.0
 17
0.0
 27
0.0
 37
0.0
 40
279.4
 41
1.5454545455
 42
50.0
 43
0.0
 44
0.0
 50
0.0
 51
0.0
 71
     0
 72
  2000
 73
     1
 74
     3
 75
     0
 76
     0
 77
     0
 78
     0
281
     0
 65
     1
110
0.0
120
0.0
130
0.0
111
1.0
121
0.0
131
0.0
112
0.0
122
1.0
132
0.0
 79
     0
146
0.0
  0
ENDTAB
  0
TABLE
  2
LTYPE
  5
5
330
0
100
AcDbSymbolTable
 70
     6
  0
LTYPE
  5
14
330
5
100
AcDbSymbolTableRecord
100
AcDbLinetypeTableRecord
  2
ByBlock
 70
     0
  3

 72
    65
 73
     0
 40
0.0
  0
LTYPE
  5
15
330
5
100
AcDbSymbolTableRecord
100
AcDbLinetypeTableRecord
  2
ByLayer
 70
     0
  3

 72
    65
 73
     0
 40
0.0
  0
LTYPE
  5
16
330
5
100
AcDbSymbolTableRecord
100
AcDbLinetypeTableRecord
  2
Continuous
 70
     0
  3
Solid line
 72
    65
 73
     0
 40
0.0
  0
LTYPE
  5
5E
330
5
100
AcDbSymbolTableRecord
100
AcDbLinetypeTableRecord
  2
HIDDEN
 70
     0
  3
Hidden __ __ __ __ __ __ __ __ __ __ __ __ __ __
 72
    65
 73
     2
 40
1.905
 49
1.27
 74
     0
 49
-0.635
 74
     0
  0
LTYPE
  5
5F
330
5
100
AcDbSymbolTableRecord
100
AcDbLinetypeTableRecord
  2
PHANTOM
 70
     0
  3
Phantom ______  __  __  ______  __  __  ______
 72
    65
 73
     6
 40
12.7
 49
6.35
 74
     0
 49
-1.27
 74
     0
 49
1.27
 74
     0
 49
-1.27
 74
     0
 49
1.27
 74
     0
 49
-1.27
 74
     0
  0
LTYPE
  5
60
330
5
100
AcDbSymbolTableRecord
100
AcDbLinetypeTableRecord
  2
CENTER
 70
     0
  3
Center ____ _ ____ _ ____ _ ____ _ ____ _ ____
 72
    65
 73
     4
 40
10.16
 49
6.35
 74
     0
 49
-1.27
 74
     0
 49
1.27
 74
     0
 49
-1.27
 74
     0
  0
LTYPE
  5
61
330
5
100
AcDbSymbolTableRecord
100
AcDbLinetypeTableRecord
  2
CENTERX2
 70
     0
  3
Center (2x) ________  __  ________  __  _____
 72
    65
 73
     4
 40
20.32
 49
12.7
 74
     0
 49
-2.54
 74
     0
 49
2.54
 74
     0
 49
-2.54
 74
     0
  0
LTYPE
  5
62
330
5
100
AcDbSymbolTableRecord
100
AcDbLinetypeTableRecord
  2
DOT2
 70
     0
  3
Dot (.5x) ........................................
 72
    65
 73
     2
 40
0.635
 49
0.0
 74
     0
 49
-0.635
 74
     0
  0
ENDTAB
  0
TABLE
  2
LAYER
  5
2
330
0
100
AcDbSymbolTable
 70
     1
  0
LAYER
  5
10
330
2
100
AcDbSymbolTableRecord
100
AcDbLayerTableRecord
  2
0
 70
     0
 62
     7
  6
Continuous
370
    -3
390
F
  0
ENDTAB
  0
TABLE
  2
STYLE
  5
3
330
0
100
AcDbSymbolTable
 70
     2
  0
STYLE
  5
11
330
3
100
AcDbSymbolTableRecord
100
AcDbTextStyleTableRecord
  2
Standard
 70
     0
 40
0.0
 41
1.0
 50
0.0
 71
     0
 42
3.5
  3
txt
  4
bigfont
  0
STYLE
  5
63
330
3
100
AcDbSymbolTableRecord
100
AcDbTextStyleTableRecord
  2
SLDTEXTSTYLE0
 70
     0
 40
0.0
 41
0.7
 50
0.0
 71
     0
 42
3.5
  3
TXT
  4
bigfont
  0
ENDTAB
  0
TABLE
  2
VIEW
  5
6
330
0
100
AcDbSymbolTable
 70
     0
  0
ENDTAB
  0
TABLE
  2
UCS
  5
7
330
0
100
AcDbSymbolTable
 70
     0
  0
ENDTAB
  0
TABLE
  2
APPID
  5
9
330
0
100
AcDbSymbolTable
 70
     1
  0
APPID
  5
12
330
9
100
AcDbSymbolTableRecord
100
AcDbRegAppTableRecord
  2
ACAD
 70
     0
  0
ENDTAB
  0
TABLE
  2
DIMSTYLE
  5
A
330
0
100
AcDbSymbolTable
 70
     1
100
AcDbDimStyleTable
  0
DIMSTYLE
105
27
330
A
100
AcDbSymbolTableRecord
100
AcDbDimStyleTableRecord
  2
ISO-25
 70
     0
 41
2.5
 42
0.625
 43
3.75
 44
1.25
 73
     0
 74
     0
 77
     1
 78
     8
140
2.5
141
2.5
143
0.0393700787
147
0.625
171
     3
172
     1
178
     0
271
     2
272
     2
274
     3
278
    44
283
     0
284
     8
340
11
  0
ENDTAB
  0
TABLE
  2
BLOCK_RECORD
  5
1
330
0
100
AcDbSymbolTable
 70
     3
  0
BLOCK_RECORD
  5
1F
330
1
100
AcDbSymbolTableRecord
100
AcDbBlockTableRecord
  2
*Model_Space
340
22
  0
BLOCK_RECORD
  5
1B
330
1
100
AcDbSymbolTableRecord
100
AcDbBlockTableRecord
  2
*Paper_Space
340
1E
  0
BLOCK_RECORD
  5
23
330
1
100
AcDbSymbolTableRecord
100
AcDbBlockTableRecord
  2
*Paper_Space0
340
26
  0
BLOCK_RECORD
  5
223
330
1
100
AcDbSymbolTableRecord
100
AcDbBlockTableRecord
  2
SW_CENTERMARKSYMBOL_0
340
0
102
{BLKREFS
331
22E
102
}
  0
BLOCK_RECORD
  5
31E
330
1
100
AcDbSymbolTableRecord
100
AcDbBlockTableRecord
  2
SW_CENTERMARKSYMBOL_1
340
0
102
{BLKREFS
331
329
102
}
  0
ENDTAB
  0
ENDSEC
  0
SECTION
  2
BLOCKS
  0
BLOCK
  5
20
330
1F
100
AcDbEntity
  8
0
100
AcDbBlockBegin
  2
*Model_Space
 70
     0
 10
0.0
 20
0.0
 30
0.0
  3
*Model_Space
  1

  0
ENDBLK
  5
21
330
1F
100
AcDbEntity
  8
0
100
AcDbBlockEnd
  0
BLOCK
  5
1C
330
1B
100
AcDbEntity
 67
     1
  8
0
100
AcDbBlockBegin
  2
*Paper_Space
 70
     0
 10
0.0
 20
0.0
 30
0.0
  3
*Paper_Space
  1

  0
ENDBLK
  5
1D
330
1B
100
AcDbEntity
 67
     1
  8
0
100
AcDbBlockEnd
  0
BLOCK
  5
24
330
23
100
AcDbEntity
  8
0
100
AcDbBlockBegin
  2
*Paper_Space0
 70
     0
 10
0.0
 20
0.0
 30
0.0
  3
*Paper_Space0
  1

  0
ENDBLK
  5
25
330
23
100
AcDbEntity
  8
0
100
AcDbBlockEnd
  0
BLOCK
  5
224
330
223
100
AcDbEntity
  8
0
100
AcDbBlockBegin
  2
SW_CENTERMARKSYMBOL_0
 70
     0
 10
0.0
 20
0.0
 30
0.0
  3
SW_CENTERMARKSYMBOL_0
  1

  0
LINE
  5
226
330
223
100
AcDbEntity
  8
0
  6
Continuous
 62
     0
370
    18
100
AcDbLine
 10
0.0
 20
0.0
 30
0.0
 11
0.0
 21
2.5
 31
0.0
  0
LINE
  5
227
330
223
100
AcDbEntity
  8
0
  6
Continuous
 62
     0
370
    18
100
AcDbLine
 10
0.0
 20
0.0
 30
0.0
 11
-2.5
 21
0.0
 31
0.0
  0
LINE
  5
228
330
223
100
AcDbEntity
  8
0
  6
Continuous
 62
     0
370
    18
100
AcDbLine
 10
0.0
 20
0.0
 30
0.0
 11
0.0
 21
-2.5
 31
0.0
  0
LINE
  5
229
330
223
100
AcDbEntity
  8
0
  6
Continuous
 62
     0
370
    18
100
AcDbLine
 10
0.0
 20
0.0
 30
0.0
 11
2.5
 21
0.0
 31
0.0
  0
LINE
  5
22A
330
223
100
AcDbEntity
  8
0
  6
Continuous
 62
     0
370
    18
100
AcDbLine
 10
0.0
 20
5.0
 30
0.0
 11
0.0
 21
32.0781335367
 31
0.0
  0
LINE
  5
22B
330
223
100
AcDbEntity
  8
0
  6
Continuous
 62
     0
370
    18
100
AcDbLine
 10
-5.0
 20
0.0
 30
0.0
 11
-11.0
 21
0.0
 31
0.0
  0
LINE
  5
22C
330
223
100
AcDbEntity
  8
0
  6
Continuous
 62
     0
370
    18
100
AcDbLine
 10
0.0
 20
-5.0
 30
0.0
 11
0.0
 21
-25.0326566029
 31
0.0
  0
LINE
  5
22D
330
223
100
AcDbEntity
  8
0
  6
Continuous
 62
     0
370
    18
100
AcDbLine
 10
5.0
 20
0.0
 30
0.0
 11
11.0
 21
0.0
 31
0.0
  0
ENDBLK
  5
225
330
223
100
AcDbEntity
  8
0
100
AcDbBlockEnd
  0
BLOCK
  5
31F
330
31E
100
AcDbEntity
  8
0
100
AcDbBlockBegin
  2
SW_CENTERMARKSYMBOL_1
 70
     0
 10
0.0
 20
0.0
 30
0.0
  3
SW_CENTERMARKSYMBOL_1
  1

  0
LINE
  5
321
330
31E
100
AcDbEntity
  8
0
  6
Continuous
 62
     0
370
    18
100
AcDbLine
 10
0.0
 20
0.0
 30
0.0
 11
0.0
 21
2.5
 31
0.0
  0
LINE
  5
322
330
31E
100
AcDbEntity
  8
0
  6
Continuous
 62
     0
370
    18
100
AcDbLine
 10
0.0
 20
0.0
 30
0.0
 11
-2.5
 21
0.0
 31
0.0
  0
LINE
  5
323
330
31E
100
AcDbEntity
  8
0
  6
Continuous
 62
     0
370
    18
100
AcDbLine
 10
0.0
 20
0.0
 30
0.0
 11
0.0
 21
-2.5
 31
0.0
  0
LINE
  5
324
330
31E
100
AcDbEntity
  8
0
  6
Continuous
 62
     0
370
    18
100
AcDbLine
 10
0.0
 20
0.0
 30
0.0
 11
2.5
 21
0.0
 31
0.0
  0
LINE
  5
325
330
31E
100
AcDbEntity
  8
0
  6
Continuous
 62
     0
370
    18
100
AcDbLine
 10
0.0
 20
5.0
 30
0.0
 11
0.0
 21
10.5000000325
 31
0.0
  0
LINE
  5
326
330
31E
100
AcDbEntity
  8
0
  6
Continuous
 62
     0
370
    18
100
AcDbLine
 10
-5.0
 20
0.0
 30
0.0
 11
-38.4803288287
 21
0.0
 31
0.0
  0
LINE
  5
327
330
31E
100
AcDbEntity
  8
0
  6
Continuous
 62
     0
370
    18
100
AcDbLine
 10
0.0
 20
-5.0
 30
0.0
 11
0.0
 21
-10.5000000325
 31
0.0
  0
LINE
  5
328
330
31E
100
AcDbEntity
  8
0
  6
Continuous
 62
     0
370
    18
100
AcDbLine
 10
5.0
 20
0.0
 30
0.0
 11
38.0850821186
 21
0.0
 31
0.0
  0
ENDBLK
  5
320
330
31E
100
AcDbEntity
  8
0
100
AcDbBlockEnd
  0
ENDSEC
  0
SECTION
  2
ENTITIES
  0
MTEXT
  5
64
330
1F
100
AcDbEntity
  8
0
  6
Continuous
 62
     7
370
     0
100
AcDbMText
 10
201.1722287123
 20
124.1124979367
 30
0.0
 40
3.5
 41
0.0
 71
     1
 72
     1
  1
エースボール　アングル型
  7
SLDTEXTSTYLE0
 73
     1
 44
1.0
  0
MTEXT
  5
65
330
1F
100
AcDbEntity
  8
0
  6
Continuous
 62
     7
370
     0
100
AcDbMText
 10
201.1722287123
 20
119.6124981304
 30
0.0
 40
3.5
 41
0.0
 71
     1
 72
     1
  1
BH-5166R
  7
SLDTEXTSTYLE0
 73
     1
 44
1.0
  0
ARC
  5
66
330
1F
100
AcDbEntity
  8
0
  6
Continuous
 62
     7
370
    25
100
AcDbCircle
 10
167.8535242494
 20
83.9901062356
 30
0.0
 40
20.5
100
AcDbArc
 50
96.3582831464
 51
102.6803834918
  0
ARC
  5
67
330
1F
100
AcDbEntity
  8
0
  6
Continuous
 62
     7
370
    25
100
AcDbCircle
 10
167.8535242494
 20
83.9901062356
 30
0.0
 40
20.5
100
AcDbArc
 50
77.3196165082
 51
83.6417168446
  0
ARC
  5
68
330
1F
100
AcDbEntity
  8
0
  6
Continuous
 62
     7
370
    25
100
AcDbCircle
 10
167.8535242494
 20
83.9901062356
 30
0.0
 40
20.6
100
AcDbArc
 50
90.5484267513
 51
93.3558231766
  0
ARC
  5
69
330
1F
100
AcDbEntity
  8
0
  6
Continuous
 62
     7
370
    25
100
AcDbCircle
 10
167.8535242494
 20
83.9901062356
 30
0.0
 40
20.6
100
AcDbArc
 50
86.6441768145
 51
89.4613509157
  0
LINE
  5
6A
330
1F
100
AcDbEntity
  8
0
  6
Continuous
 62
     7
370
    25
100
AcDbLine
 10
159.8573427099
 20
92.4366477886
 30
0.0
 11
160.3203545012
 21
85.9544827106
 31
0.0
  0
LINE
  5
6B
330
1F
100
AcDbEntity
  8
0
  6
Continuous
 62
     7
370
    25
100
AcDbLine
 10
159.8535241498
 20
92.4901076303
 30
0.0
 11
159.8573427099
 21
92.4366477886
 31
0.0
  0
LINE
  5
6C
330
1F
100
AcDbEntity
  8
0
  6
Continuous
 62
     7
370
    25
100
AcDbLine
 10
175.3866939976
 20
85.9544827106
 30
0.0
 11
175.853524349
 21
92.4901076303
 31
0.0
  0
ARC
  5
6D
330
1F
100
AcDbEntity
  8
0
  6
Continuous
 62
     7
370
    25
100
AcDbCircle
 10
174.8879646477
 20
85.9901062356
 30
0.0
 40
0.5
100
AcDbArc
 50
270.0
 51
355.91438322
  0
ARC
  5
6E
330
1F
100
AcDbEntity
  8
0
  6
Continuous
 62
     7
370
    25
100
AcDbCircle
 10
160.8190838511
 20
85.9901062356
 30
0.0
 40
0.5000000000000105
100
AcDbArc
 50
184.08561678
 51
270.0
  0
LINE
  5
6F
330
1F
100
AcDbEntity
  8
0
  6
Continuous
 62
     7
370
    25
100
AcDbLine
 10
173.7786373728
 20
101.9901062356
 30
0.0
 11
173.4377060332
 21
103.594062081
 31
0.0
  0
LINE
  5
70
330
1F
100
AcDbEntity
  8
0
  6
Continuous
 62
     7
370
    25
100
AcDbLine
 10
162.2693424657
 20
103.594062081
 30
0.0
 11
161.9284111261
 21
101.9901062356
 31
0.0
  0
ARC
  5
71
330
1F
100
AcDbEntity
  8
0
  6
Continuous
 62
     7
370
    25
100
AcDbCircle
 10
162.758416266
 20
103.4901062356
 30
0.0
 40
0.5000000000000201
100
AcDbArc
 50
90.0
 51
168.0
  0
ARC
  5
72
330
1F
100
AcDbEntity
  8
0
  6
Continuous
 62
     7
370
    25
100
AcDbCircle
 10
172.9486322328
 20
103.4901062356
 30
0.0
 40
0.5
100
AcDbArc
 50
12.0
 51
90.0
  0
LINE
  5
73
330
1F
100
AcDbEntity
  8
0
  6
Continuous
 62
     7
370
    25
100
AcDbLine
 10
179.3535242494
 20
66.9901062356
 30
0.0
 11
182.1535242494
 21
66.9901062356
 31
0.0
  0
LINE
  5
74
330
1F
100
AcDbEntity
  8
0
  6
Continuous
 62
     7
370
    25
100
AcDbLine
 10
182.1535242494
 20
82.9901062356
 30
0.0
 11
179.3535242494
 21
82.9901062356
 31
0.0
  0
LINE
  5
75
330
1F
100
AcDbEntity
  8
0
  6
Continuous
 62
     7
370
    25
100
AcDbLine
 10
182.1535242494
 20
66.9901062356
 30
0.0
 11
182.3535242494
 21
67.1901062356
 31
0.0
  0
LINE
  5
76
330
1F
100
AcDbEntity
  8
0
  6
Continuous
 62
     7
370
    25
100
AcDbLine
 10
182.3535242494
 20
82.7901062356
 30
0.0
 11
182.1535242494
 21
82.9901062356
 31
0.0
  0
LINE
  5
77
330
1F
100
AcDbEntity
  8
0
  6
Continuous
 62
     7
370
    25
100
AcDbLine
 10
182.3535242494
 20
71.9901062356
 30
0.0
 11
185.3535242494
 21
71.9901062356
 31
0.0
  0
LINE
  5
78
330
1F
100
AcDbEntity
  8
0
  6
Continuous
 62
     7
370
    25
100
AcDbLine
 10
185.3535242494
 20
77.9901062356
 30
0.0
 11
182.3535242494
 21
77.9901062356
 31
0.0
  0
LINE
  5
79
330
1F
100
AcDbEntity
  8
0
  6
Continuous
 62
     7
370
    25
100
AcDbLine
 10
193.3535242494
 20
71.9901062356
 30
0.0
 11
197.3535242494
 21
72.7401062356
 31
0.0
  0
LINE
  5
7A
330
1F
100
AcDbEntity
  8
0
  6
Continuous
 62
     7
370
    25
100
AcDbLine
 10
197.3535242494
 20
77.2401062356
 30
0.0
 11
193.3535242494
 21
77.9901062356
 31
0.0
  0
LINE
  5
7B
330
1F
100
AcDbEntity
  8
0
  6
Continuous
 62
     7
370
    25
100
AcDbLine
 10
189.3535242494
 20
71.9901062356
 30
0.0
 11
193.3535242494
 21
72.7401062356
 31
0.0
  0
LINE
  5
7C
330
1F
100
AcDbEntity
  8
0
  6
Continuous
 62
     7
370
    25
100
AcDbLine
 10
193.3535242494
 20
77.2401062356
 30
0.0
 11
189.3535242494
 21
77.9901062356
 31
0.0
  0
LINE
  5
7D
330
1F
100
AcDbEntity
  8
0
  6
Continuous
 62
     7
370
    25
100
AcDbLine
 10
197.3535242494
 20
71.9901062356
 30
0.0
 11
201.3535242494
 21
72.7401062356
 31
0.0
  0
LINE
  5
7E
330
1F
100
AcDbEntity
  8
0
  6
Continuous
 62
     7
370
    25
100
AcDbLine
 10
201.3535242494
 20
77.2401062356
 30
0.0
 11
197.3535242494
 21
77.9901062356
 31
0.0
  0
LINE
  5
7F
330
1F
100
AcDbEntity
  8
0
  6
Continuous
 62
     7
370
    25
100
AcDbLine
 10
185.3535242494
 20
71.9901062356
 30
0.0
 11
189.3535242494
 21
72.7401062356
 31
0.0
  0
LINE
  5
80
330
1F
100
AcDbEntity
  8
0
  6
Continuous
 62
     7
370
    25
100
AcDbLine
 10
189.3535242494
 20
77.2401062356
 30
0.0
 11
185.3535242494
 21
77.9901062356
 31
0.0
  0
LINE
  5
81
330
1F
100
AcDbEntity
  8
0
  6
Continuous
 62
     7
370
    25
100
AcDbLine
 10
201.3535242494
 20
71.9901062356
 30
0.0
 11
204.8612165571
 21
72.6477985433
 31
0.0
  0
LINE
  5
82
330
1F
100
AcDbEntity
  8
0
  6
Continuous
 62
     7
370
    25
100
AcDbLine
 10
204.8612165571
 20
77.3324139279
 30
0.0
 11
201.3535242494
 21
77.9901062356
 31
0.0
  0
LINE
  5
83
330
1F
100
AcDbEntity
  8
0
  6
Continuous
 62
     7
370
    25
100
AcDbLine
 10
204.8612165571
 20
72.6477985433
 30
0.0
 11
205.3535242494
 21
73.1401062356
 31
0.0
  0
LINE
  5
84
330
1F
100
AcDbEntity
  8
0
  6
Continuous
 62
     7
370
    25
100
AcDbLine
 10
205.3535242494
 20
76.8401062356
 30
0.0
 11
204.8612165571
 21
77.3324139279
 31
0.0
  0
LINE
  5
85
330
1F
100
AcDbEntity
  8
0
  6
Continuous
 62
     7
370
    25
100
AcDbLine
 10
156.3535242494
 20
82.9901062356
 30
0.0
 11
153.5535242494
 21
82.9901062356
 31
0.0
  0
LINE
  5
86
330
1F
100
AcDbEntity
  8
0
  6
Continuous
 62
     7
370
    25
100
AcDbLine
 10
153.5535242494
 20
66.9901062356
 30
0.0
 11
156.3535242494
 21
66.9901062356
 31
0.0
  0
LINE
  5
87
330
1F
100
AcDbEntity
  8
0
  6
Continuous
 62
     7
370
    25
100
AcDbLine
 10
153.5535242494
 20
82.9901062356
 30
0.0
 11
153.3535242494
 21
82.7901062356
 31
0.0
  0
LINE
  5
88
330
1F
100
AcDbEntity
  8
0
  6
Continuous
 62
     7
370
    25
100
AcDbLine
 10
153.3535242494
 20
67.1901062356
 30
0.0
 11
153.5535242494
 21
66.9901062356
 31
0.0
  0
LINE
  5
89
330
1F
100
AcDbEntity
  8
0
  6
Continuous
 62
     7
370
    25
100
AcDbLine
 10
142.3535242494
 20
77.9901062356
 30
0.0
 11
138.3535242494
 21
77.2401062356
 31
0.0
  0
LINE
  5
8A
330
1F
100
AcDbEntity
  8
0
  6
Continuous
 62
     7
370
    25
100
AcDbLine
 10
138.3535242494
 20
72.7401062356
 30
0.0
 11
142.3535242494
 21
71.9901062356
 31
0.0
  0
LINE
  5
8B
330
1F
100
AcDbEntity
  8
0
  6
Continuous
 62
     7
370
    25
100
AcDbLine
 10
153.3535242494
 20
77.9901062356
 30
0.0
 11
150.3535242494
 21
77.9901062356
 31
0.0
  0
LINE
  5
8C
330
1F
100
AcDbEntity
  8
0
  6
Continuous
 62
     7
370
    25
100
AcDbLine
 10
150.3535242494
 20
71.9901062356
 30
0.0
 11
153.3535242494
 21
71.9901062356
 31
0.0
  0
LINE
  5
8D
330
1F
100
AcDbEntity
  8
0
  6
Continuous
 62
     7
370
    25
100
AcDbLine
 10
146.3535242494
 20
77.9901062356
 30
0.0
 11
142.3535242494
 21
77.2401062356
 31
0.0
  0
LINE
  5
8E
330
1F
100
AcDbEntity
  8
0
  6
Continuous
 62
     7
370
    25
100
AcDbLine
 10
142.3535242494
 20
72.7401062356
 30
0.0
 11
146.3535242494
 21
71.9901062356
 31
0.0
  0
LINE
  5
8F
330
1F
100
AcDbEntity
  8
0
  6
Continuous
 62
     7
370
    25
100
AcDbLine
 10
150.3535242494
 20
77.9901062356
 30
0.0
 11
146.3535242494
 21
77.2401062356
 31
0.0
  0
LINE
  5
90
330
1F
100
AcDbEntity
  8
0
  6
Continuous
 62
     7
370
    25
100
AcDbLine
 10
146.3535242494
 20
72.7401062356
 30
0.0
 11
150.3535242494
 21
71.9901062356
 31
0.0
  0
LINE
  5
91
330
1F
100
AcDbEntity
  8
0
  6
Continuous
 62
     7
370
    25
100
AcDbLine
 10
138.3535242494
 20
77.9901062356
 30
0.0
 11
134.3535242494
 21
77.2401062356
 31
0.0
  0
LINE
  5
92
330
1F
100
AcDbEntity
  8
0
  6
Continuous
 62
     7
370
    25
100
AcDbLine
 10
134.3535242494
 20
72.7401062356
 30
0.0
 11
138.3535242494
 21
71.9901062356
 31
0.0
  0
LINE
  5
93
330
1F
100
AcDbEntity
  8
0
  6
Continuous
 62
     7
370
    25
100
AcDbLine
 10
134.3535242494
 20
77.9901062356
 30
0.0
 11
130.8458319417
 21
77.3324139279
 31
0.0
  0
LINE
  5
94
330
1F
100
AcDbEntity
  8
0
  6
Continuous
 62
     7
370
    25
100
AcDbLine
 10
130.8458319417
 20
72.6477985433
 30
0.0
 11
134.3535242494
 21
71.9901062356
 31
0.0
  0
LINE
  5
95
330
1F
100
AcDbEntity
  8
0
  6
Continuous
 62
     7
370
    25
100
AcDbLine
 10
130.8458319417
 20
77.3324139279
 30
0.0
 11
130.3535242494
 21
76.8401062356
 31
0.0
  0
LINE
  5
96
330
1F
100
AcDbEntity
  8
0
  6
Continuous
 62
     7
370
    25
100
AcDbLine
 10
130.3535242494
 20
73.1401062356
 30
0.0
 11
130.8458319417
 21
72.6477985433
 31
0.0
  0
SPLINE
  5
97
330
1F
100
AcDbEntity
  8
0
  6
Continuous
 62
     7
370
    25
100
AcDbSpline
210
0.0
220
0.0
230
1.0
 70
     8
 71
     3
 72
    11
 73
     7
 74
     0
 42
0.00000001
 43
0.00000001
 40
0.0
 40
0.0
 40
0.0
 40
0.0
 40
0.2461708412621073
 40
0.6315483917062082
 40
0.9571387114001083
 40
1.0
 40
1.0
 40
1.0
 40
1.0
 10
174.0244705772562
 20
83.77991942964688
 30
0.0
 10
173.9789003983955
 20
83.82640437166893
 30
0.0
 10
173.8619906416522
 20
83.94566094252055
 30
0.0
 10
173.7686388316999
 20
84.18420648525428
 30
0.0
 10
173.7264022857584
 20
84.38166038884899
 30
0.0
 10
173.7370834272699
 20
84.477860644709
 30
0.0
 10
173.7383259445465
 20
84.48905144110394
 30
0.0
  0
SPLINE
  5
98
330
1F
100
AcDbEntity
  8
0
  6
Continuous
 62
     7
370
    25
100
AcDbSpline
210
0.0
220
0.0
230
1.0
 70
     8
 71
     3
 72
    11
 73
     7
 74
     0
 42
0.00000001
 43
0.00000001
 40
0.0
 40
0.0
 40
0.0
 40
0.0
 40
0.0570270394260823
 40
0.408454504773883
 40
0.7828602100446242
 40
1.0
 40
1.0
 40
1.0
 40
1.0
 10
161.961589789687
 20
84.48877610166964
 30
0.0
 10
161.9637039745492
 20
84.47400653870244
 30
0.0
 10
161.9788467618935
 20
84.36821997520177
 30
0.0
 10
161.925426628257
 20
84.16464372171772
 30
0.0
 10
161.8304295034256
 20
83.93278854996367
 30
0.0
 10
161.7180618524619
 20
83.82499366157587
 30
0.0
 10
161.6768148337204
 20
83.78542517595358
 30
0.0
  0
LINE
  5
99
330
1F
100
AcDbEntity
  8
0
  6
Continuous
 62
     7
370
    25
100
AcDbLine
 10
173.7535242494
 20
84.4855754155
 30
0.0
 11
173.7535242494
 21
85.4901062356
 31
0.0
  0
LINE
  5
9A
330
1F
100
AcDbEntity
  8
0
  6
Continuous
 62
     7
370
    25
100
AcDbLine
 10
161.9535242494
 20
85.4901062356
 30
0.0
 11
161.9535242494
 21
84.4901062356
 31
0.0
  0
LINE
  5
9B
330
1F
100
AcDbEntity
  8
0
  6
Continuous
 62
     7
370
    25
100
AcDbLine
 10
162.7542117494
 20
62.9901062356
 30
0.0
 11
163.0712446226
 21
52.845054295
 31
0.0
  0
LINE
  5
9C
330
1F
100
AcDbEntity
  8
0
  6
Continuous
 62
     7
370
    25
100
AcDbLine
 10
172.6358038763
 20
52.845054295
 30
0.0
 11
172.9528367494
 21
62.9901062356
 31
0.0
  0
LINE
  5
9D
330
1F
100
AcDbEntity
  8
0
  6
Continuous
 62
     7
370
    25
100
AcDbLine
 10
163.0712446226
 20
52.845054295
 30
0.0
 11
163.8535242494
 21
51.4901062356
 31
0.0
  0
LINE
  5
9E
330
1F
100
AcDbEntity
  8
0
  6
Continuous
 62
     7
370
    25
100
AcDbLine
 10
171.8535242494
 20
51.4901062356
 30
0.0
 11
172.6358038763
 21
52.845054295
 31
0.0
  0
LINE
  5
9F
330
1F
100
AcDbEntity
  8
0
  6
Continuous
 62
     7
370
    25
100
AcDbLine
 10
161.6833573421
 20
83.7848439649
 30
0.0
 11
161.1389930696
 21
84.7277105426
 31
0.0
  0
LINE
  5
A0
330
1F
100
AcDbEntity
  8
0
  6
Continuous
 62
     7
370
    25
100
AcDbLine
 10
178.6389930696
 20
65.2525019285
 30
0.0
 11
179.3535242494
 21
66.4901062356
 31
0.0
  0
LINE
  5
A1
330
1F
100
AcDbEntity
  8
0
  6
Continuous
 62
     7
370
    25
100
AcDbLine
 10
174.5680554292
 20
84.7277105426
 30
0.0
 11
174.0236911568
 21
83.7848439649
 31
0.0
  0
LINE
  5
A2
330
1F
100
AcDbEntity
  8
0
  6
Continuous
 62
     7
370
    25
100
AcDbLine
 10
157.0680554292
 20
84.7277105426
 30
0.0
 11
156.3535242494
 21
83.4901062356
 31
0.0
  0
LINE
  5
A3
330
1F
100
AcDbEntity
  8
0
  6
Continuous
 62
     7
370
    25
100
AcDbLine
 10
158.1159199424
 20
63.7046374154
 30
0.0
 11
159.3535242494
 21
62.9901062356
 31
0.0
  0
LINE
  5
A4
330
1F
100
AcDbEntity
  8
0
  6
Continuous
 62
     7
370
    25
100
AcDbLine
 10
176.3535242494
 20
62.9901062356
 30
0.0
 11
177.5911285565
 21
63.7046374154
 31
0.0
  0
LINE
  5
A5
330
1F
100
AcDbEntity
  8
0
  6
Continuous
 62
     7
370
    25
100
AcDbLine
 10
156.3535242494
 20
66.4901062356
 30
0.0
 11
157.0680554292
 21
65.2525019285
 31
0.0
  0
LINE
  5
A6
330
1F
100
AcDbEntity
  8
0
  6
Continuous
 62
     7
370
    25
100
AcDbLine
 10
179.3535242494
 20
83.4901062356
 30
0.0
 11
178.6389930696
 21
84.7277105426
 31
0.0
  0
LINE
  5
A7
330
1F
100
AcDbEntity
  8
0
  6
Continuous
 62
     7
370
    25
100
AcDbLine
 10
177.5911285565
 20
63.7020770341
 30
0.0
 11
177.5911285565
 21
65.2525019285
 31
0.0
  0
LINE
  5
A8
330
1F
100
AcDbEntity
  8
0
  6
Continuous
 62
     7
370
    25
100
AcDbLine
 10
177.5911285565
 20
65.2525019285
 30
0.0
 11
178.6415534509
 21
65.2525019285
 31
0.0
  0
LINE
  5
A9
330
1F
100
AcDbEntity
  8
0
  6
Continuous
 62
     7
370
    25
100
AcDbLine
 10
161.1415611251
 20
84.7277105426
 30
0.0
 11
157.0654950479
 21
84.7277105426
 31
0.0
  0
LINE
  5
AA
330
1F
100
AcDbEntity
  8
0
  6
Continuous
 62
     7
370
    25
100
AcDbLine
 10
178.6415534509
 20
84.7277105426
 30
0.0
 11
174.5654873738
 21
84.7277105426
 31
0.0
  0
LINE
  5
AB
330
1F
100
AcDbEntity
  8
0
  6
Continuous
 62
     7
370
    25
100
AcDbLine
 10
158.1159199424
 20
65.2525019285
 30
0.0
 11
158.1159199424
 21
63.7020770341
 31
0.0
  0
LINE
  5
AC
330
1F
100
AcDbEntity
  8
0
  6
Continuous
 62
     7
370
    25
100
AcDbLine
 10
157.0654950479
 20
65.2525019285
 30
0.0
 11
158.1159199424
 21
65.2525019285
 31
0.0
  0
ARC
  5
AD
330
1F
100
AcDbEntity
  8
0
  6
Continuous
 62
     7
370
    25
100
AcDbCircle
 10
165.6793495021
 20
99.9339312716
 30
0.0
 40
4.408657033487417
100
AcDbArc
 50
83.0838156236
 51
91.2490959636
  0
SPLINE
  5
AE
330
1F
100
AcDbEntity
  8
0
  6
Continuous
 62
     7
370
    25
100
AcDbSpline
210
0.0
220
0.0
230
1.0
 70
     8
 71
     3
 72
    15
 73
    11
 74
     0
 42
0.00000001
 43
0.00000001
 40
0.0
 40
0.0
 40
0.0
 40
0.0
 40
0.1246337044934918
 40
0.2519069547896618
 40
0.3765407248366567
 40
0.4994048858686675
 40
0.6264509366402855
 40
0.7526069675388761
 40
0.8746808545492513
 40
1.0
 40
1.0
 40
1.0
 40
1.0
 10
166.3154563861502
 20
104.3168177462138
 30
0.0
 10
166.3114421026541
 20
104.3161813819159
 30
0.0
 10
166.3033285194522
 20
104.3148951761254
 30
0.0
 10
166.2888904345407
 20
104.3131854502278
 30
0.0
 10
166.2737572261092
 20
104.3117418917556
 30
0.0
 10
166.2583945998436
 20
104.3106370507517
 30
0.0
 10
166.2434637174992
 20
104.3099037029053
 30
0.0
 10
166.229961377784
 20
104.3096323165766
 30
0.0
 10
166.2182753518076
 20
104.3097785992579
 30
0.0
 10
166.2129337389543
 20
104.3102628335239
 30
0.0
 10
166.210227897357
 20
104.310508126707
 30
0.0
  0
SPLINE
  5
AF
330
1F
100
AcDbEntity
  8
0
  6
Continuous
 62
     7
370
    25
100
AcDbSpline
210
0.0
220
0.0
230
1.0
 70
     8
 71
     3
 72
    11
 73
     7
 74
     0
 42
0.00000001
 43
0.00000001
 40
0.0
 40
0.0
 40
0.0
 40
0.0
 40
0.250625429633313
 40
0.5000000000003831
 40
0.7493745703670929
 40
1.0
 40
1.0
 40
1.0
 40
1.0
 10
169.3915921158791
 20
104.3168177459729
 30
0.0
 10
169.1618726162736
 20
104.3481758007607
 30
0.0
 10
168.7035801358541
 20
104.410735403818
 30
0.0
 10
167.8535242510227
 20
104.4367794637267
 30
0.0
 10
167.0034683661853
 20
104.4107354039514
 30
0.0
 10
166.5451758857591
 20
104.3481758009657
 30
0.0
 10
166.3154563861502
 20
104.3168177462138
 30
0.0
  0
SPLINE
  5
B0
330
1F
100
AcDbEntity
  8
0
  6
Continuous
 62
     7
370
    25
100
AcDbSpline
210
0.0
220
0.0
230
1.0
 70
     8
 71
     3
 72
    15
 73
    11
 74
     0
 42
0.00000001
 43
0.00000001
 40
0.0
 40
0.0
 40
0.0
 40
0.0
 40
0.1253187789994368
 40
0.2473923090486592
 40
0.3734477209264249
 40
0.500593709173434
 40
0.6235467583552695
 40
0.7480937818221101
 40
0.8753666599534677
 40
1.0
 40
1.0
 40
1.0
 40
1.0
 10
169.4968206046723
 20
104.3105081264495
 30
0.0
 10
169.4941147667447
 20
104.3102628323673
 30
0.0
 10
169.4887731611357
 20
104.3097785963264
 30
0.0
 10
169.477090217542
 20
104.3096323661
 30
0.0
 10
169.4635887979084
 20
104.3099035319265
 30
0.0
 10
169.4486544676154
 20
104.3106370088633
 30
0.0
 10
169.4332873724101
 20
104.3117419214414
 30
0.0
 10
169.4181548776435
 20
104.3131859144293
 30
0.0
 10
169.403719952446
 20
104.3148951581054
 30
0.0
 10
169.3956063894019
 20
104.3161813757902
 30
0.0
 10
169.3915921158791
 20
104.3168177459729
 30
0.0
  0
ARC
  5
B1
330
1F
100
AcDbEntity
  8
0
  6
Continuous
 62
     7
370
    25
100
AcDbCircle
 10
170.0276989992
 20
99.9339312714
 30
0.0
 40
4.40865703332979
100
AcDbArc
 50
88.7509040274
 51
96.9161843676
  0
LINE
  5
B2
330
1F
100
AcDbEntity
  8
0
  6
Continuous
 62
     7
370
    25
100
AcDbLine
 10
166.2102278974
 20
104.3105081267
 30
0.0
 11
166.2102278974
 21
104.4113876111
 31
0.0
  0
SPLINE
  5
B3
330
1F
100
AcDbEntity
  8
0
  6
Continuous
 62
     7
370
    25
100
AcDbSpline
210
0.0
220
0.0
230
1.0
 70
     8
 71
     3
 72
    15
 73
    11
 74
     0
 42
0.00000001
 43
0.00000001
 40
0.0
 40
0.0
 40
0.0
 40
0.0
 40
0.1253191957979138
 40
0.2473928354984065
 40
0.3734492416489706
 40
0.5005950046079967
 40
0.6235484391777611
 40
0.7480947836179483
 40
0.8753671458153899
 40
1.0
 40
1.0
 40
1.0
 40
1.0
 10
166.210227897357
 20
104.4113876110695
 30
0.0
 10
166.2129336936895
 20
104.4111435319358
 30
0.0
 10
166.2182752107866
 20
104.4106616949069
 30
0.0
 10
166.2299577833757
 20
104.4105161783534
 30
0.0
 10
166.243458763363
 20
104.4107859727089
 30
0.0
 10
166.258392792213
 20
104.4115157832746
 30
0.0
 10
166.2737598034021
 20
104.4126152000668
 30
0.0
 10
166.2888925398403
 20
104.4140520553453
 30
0.0
 10
166.303327969622
 20
104.4157528909282
 30
0.0
 10
166.3114419204512
 20
104.4170328148455
 30
0.0
 10
166.3154563861502
 20
104.4176660711681
 30
0.0
  0
LINE
  5
B4
330
1F
100
AcDbEntity
  8
0
  6
Continuous
 62
     7
370
    25
100
AcDbLine
 10
166.3154563862
 20
104.3168177462
 30
0.0
 11
166.3154563862
 21
104.4176660712
 31
0.0
  0
LINE
  5
B5
330
1F
100
AcDbEntity
  8
0
  6
Continuous
 62
     7
370
    25
100
AcDbLine
 10
169.3915921159
 20
104.316817746
 30
0.0
 11
169.3915921159
 21
104.4176660709
 31
0.0
  0
SPLINE
  5
B6
330
1F
100
AcDbEntity
  8
0
  6
Continuous
 62
     7
370
    25
100
AcDbSpline
210
0.0
220
0.0
230
1.0
 70
     8
 71
     3
 72
    15
 73
    11
 74
     0
 42
0.00000001
 43
0.00000001
 40
0.0
 40
0.0
 40
0.0
 40
0.0
 40
0.124633218643854
 40
0.2519059530189772
 40
0.3765391000744918
 40
0.4994035903146518
 40
0.6264494152300148
 40
0.7526064410610419
 40
0.874680437736327
 40
1.0
 40
1.0
 40
1.0
 40
1.0
 10
169.3915921158791
 20
104.4176660709283
 30
0.0
 10
169.3956065915472
 20
104.4170328204612
 30
0.0
 10
169.4037205625259
 20
104.4157529083788
 30
0.0
 10
169.4181591543625
 20
104.4140515926746
 30
0.0
 10
169.4332926042955
 20
104.4126151698878
 30
0.0
 10
169.4486551465773
 20
104.4115158243434
 30
0.0
 10
169.463585725414
 20
104.4107861423259
 30
0.0
 10
169.4770876254433
 20
104.410516128567
 30
0.0
 10
169.4887732803297
 20
104.4106616973138
 30
0.0
 10
169.4941148046705
 20
104.411143532575
 30
0.0
 10
169.4968206046723
 20
104.4113876108133
 30
0.0
  0
LINE
  5
B7
330
1F
100
AcDbEntity
  8
0
  6
Continuous
 62
     7
370
    25
100
AcDbLine
 10
169.4968206047
 20
104.3105081264
 30
0.0
 11
169.4968206047
 21
104.4113876108
 31
0.0
  0
ARC
  5
B8
330
1F
100
AcDbEntity
  8
0
  6
Continuous
 62
     7
370
    25
100
AcDbCircle
 10
166.8846086465
 20
89.0001906476
 30
0.0
 40
15.49681493896806
100
AcDbArc
 50
94.6954834628
 51
94.8171561263
  0
SPLINE
  5
B9
330
1F
100
AcDbEntity
  8
0
  6
Continuous
 62
     7
370
    25
100
AcDbSpline
210
0.0
220
0.0
230
1.0
 70
     8
 71
     3
 72
    15
 73
    11
 74
     0
 42
0.00000001
 43
0.00000001
 40
0.0
 40
0.0
 40
0.0
 40
0.0
 40
0.1241930067305288
 40
0.2496556654892299
 40
0.3743703853151211
 40
0.4998404796364203
 40
0.6240146704162364
 40
0.7475381382242064
 40
0.8745858500551822
 40
1.0
 40
1.0
 40
1.0
 40
1.0
 10
166.3963299495532
 20
104.5264791065223
 30
0.0
 10
166.3807695544434
 20
104.5240834261746
 30
0.0
 10
166.3494896869319
 20
104.5192675739198
 30
0.0
 10
166.2720533274436
 20
104.5096632741968
 30
0.0
 10
166.1786993237046
 20
104.4989602278906
 30
0.0
 10
166.0714737176837
 20
104.4875379703504
 30
0.0
 10
165.9570878069628
 20
104.4759418672843
 30
0.0
 10
165.8394170440774
 20
104.4646572600589
 30
0.0
 10
165.7225333188522
 20
104.4539470338055
 30
0.0
 10
165.6513844679575
 20
104.4479666723503
 30
0.0
 10
165.6160402278741
 20
104.4449958396749
 30
0.0
  0
ARC
  5
BA
330
1F
100
AcDbEntity
  8
0
  6
Continuous
 62
     7
370
    25
100
AcDbCircle
 10
166.7865725802
 20
102.1911822863
 30
0.0
 40
2.367678303596218
100
AcDbArc
 50
93.3632881502
 51
99.4868245016
  0
ARC
  5
BB
330
1F
100
AcDbEntity
  8
0
  6
Continuous
 62
     7
370
    25
100
AcDbCircle
 10
168.9204796052
 20
102.191223537
 30
0.0
 40
2.367636907679692
100
AcDbArc
 50
80.5187694298
 51
86.6367422679
  0
SPLINE
  5
BC
330
1F
100
AcDbEntity
  8
0
  6
Continuous
 62
     7
370
    25
100
AcDbSpline
210
0.0
220
0.0
230
1.0
 70
     8
 71
     3
 72
    15
 73
    11
 74
     0
 42
0.00000001
 43
0.00000001
 40
0.0
 40
0.0
 40
0.0
 40
0.0
 40
0.1253320172137757
 40
0.2522975129251761
 40
0.3758847553984063
 40
0.5001929511416489
 40
0.6255758307380154
 40
0.7502289462456485
 40
0.875744493577783
 40
1.0
 40
1.0
 40
1.0
 40
1.0
 10
170.0831891786881
 20
104.4456772017168
 30
0.0
 10
170.0479382620601
 20
104.4486567938566
 30
0.0
 10
169.9769769962058
 20
104.4546548117862
 30
0.0
 10
169.8609901054174
 20
104.4653151841102
 30
0.0
 10
169.744393739177
 20
104.4765243053212
 30
0.0
 10
169.6312731325955
 20
104.4880147325498
 30
0.0
 10
169.5253974182561
 20
104.4993124932622
 30
0.0
 10
169.4332883336369
 20
104.5098875068591
 30
0.0
 10
169.3568566697685
 20
104.5193785688877
 30
0.0
 10
169.3258917622692
 20
104.5241459504453
 30
0.0
 10
169.310487414148
 20
104.52651761602
 30
0.0
  0
ARC
  5
BD
330
1F
100
AcDbEntity
  8
0
  6
Continuous
 62
     7
370
    25
100
AcDbCircle
 10
168.7832745304
 20
88.7200138407
 30
0.0
 40
15.77929866112505
100
AcDbArc
 50
85.1265666158
 51
85.2745602135
  0
ARC
  5
BE
330
1F
100
AcDbEntity
  8
0
  6
Continuous
 62
     7
370
    25
100
AcDbCircle
 10
170.0276966759
 20
100.0130102646
 30
0.0
 40
4.430299389721609
100
AcDbArc
 50
88.7569768639
 51
96.8822041625
  0
SPLINE
  5
BF
330
1F
100
AcDbEntity
  8
0
  6
Continuous
 62
     7
370
    25
100
AcDbSpline
210
0.0
220
0.0
230
1.0
 70
     8
 71
     3
 72
    11
 73
     7
 74
     0
 42
0.00000001
 43
0.00000001
 40
0.0
 40
0.0
 40
0.0
 40
0.0
 40
0.2506252605986011
 40
0.4999999999996215
 40
0.7493747394010042
 40
1.0
 40
1.0
 40
1.0
 40
1.0
 10
166.3154563861502
 20
104.4176660711681
 30
0.0
 10
166.5451840803235
 20
104.4488704940367
 30
0.0
 10
167.0034932180865
 20
104.5111236420117
 30
0.0
 10
167.8535242510226
 20
104.5370382278099
 30
0.0
 10
168.7035552839529
 20
104.511123641879
 30
0.0
 10
169.1618644217091
 20
104.4488704938327
 30
0.0
 10
169.3915921158791
 20
104.4176660709283
 30
0.0
  0
ARC
  5
C0
330
1F
100
AcDbEntity
  8
0
  6
Continuous
 62
     7
370
    25
100
AcDbCircle
 10
165.6793518255
 20
100.0130102648
 30
0.0
 40
4.430299389885564
100
AcDbArc
 50
83.1177958287
 51
91.2430231272
  0
SPLINE
  5
C1
330
1F
100
AcDbEntity
  8
0
  6
Continuous
 62
     7
370
    25
100
AcDbSpline
210
0.0
220
0.0
230
1.0
 70
     8
 71
     3
 72
    15
 73
    11
 74
     0
 42
0.00000001
 43
0.00000001
 40
0.0
 40
0.0
 40
0.0
 40
0.0
 40
0.1233867499278388
 40
0.2487396502211602
 40
0.3739317114754985
 40
0.4999973617625659
 40
0.6259591330513601
 40
0.7512551380600303
 40
0.8765613478174267
 40
1.0
 40
1.0
 40
1.0
 40
1.0
 10
167.7906413846165
 20
104.5899991328703
 30
0.0
 10
167.7935195858084
 20
104.5899997919424
 30
0.0
 10
167.7993218519201
 20
104.5900011205889
 30
0.0
 10
167.8148512566408
 20
104.5900050702161
 30
0.0
 10
167.8332058385142
 20
104.5900068525655
 30
0.0
 10
167.8535186549971
 20
104.5900084061434
 30
0.0
 10
167.8738370727123
 20
104.5900068520085
 30
0.0
 10
167.8921899418764
 20
104.5900050751279
 30
0.0
 10
167.9077280462719
 20
104.5900011076098
 30
0.0
 10
167.9135286083032
 20
104.5899997878138
 30
0.0
 10
167.9164071142287
 20
104.5899991328703
 30
0.0
  0
ARC
  5
C2
330
1F
100
AcDbEntity
  8
0
  6
Continuous
 62
     7
370
    25
100
AcDbCircle
 10
167.7915358123
 20
102.04564972
 30
0.0
 40
2.544349570052088
100
AcDbArc
 50
90.0201414662
 51
95.4127462174
  0
SPLINE
  5
C3
330
1F
100
AcDbEntity
  8
0
  6
Continuous
 62
     7
370
    25
100
AcDbSpline
210
0.0
220
0.0
230
1.0
 70
     8
 71
     3
 72
    15
 73
    11
 74
     0
 42
0.00000001
 43
0.00000001
 40
0.0
 40
0.0
 40
0.0
 40
0.0
 40
0.1261585224210642
 40
0.25131214515488
 40
0.3762846848783792
 40
0.4993062783340877
 40
0.6261594278645743
 40
0.7521171342021308
 40
0.8758196922692789
 40
1.0
 40
1.0
 40
1.0
 40
1.0
 10
167.6144107237449
 20
104.5767560014596
 30
0.0
 10
167.6091796272562
 20
104.5767050757091
 30
0.0
 10
167.5987591019135
 20
104.5766036298508
 30
0.0
 10
167.5839725513991
 20
104.5765994482135
 30
0.0
 10
167.5707821987736
 20
104.5766987870341
 30
0.0
 10
167.5599116239324
 20
104.5769193292372
 30
0.0
 10
167.5519040366038
 20
104.5772431966386
 30
0.0
 10
167.5477374095711
 20
104.5776630664861
 30
0.0
 10
167.5471163580595
 20
104.5781417835518
 30
0.0
 10
167.5500554704143
 20
104.5784830727974
 30
0.0
 10
167.551527858897
 20
104.578654046307
 30
0.0
  0
ARC
  5
C4
330
1F
100
AcDbEntity
  8
0
  6
Continuous
 62
     7
370
    25
100
AcDbCircle
 10
167.8535242494
 20
83.9901062356
 30
0.0
 40
20.58803836847347
100
AcDbArc
 50
89.3345405821
 51
90.66545941
  0
SPLINE
  5
C5
330
1F
100
AcDbEntity
  8
0
  6
Continuous
 62
     7
370
    25
100
AcDbSpline
210
0.0
220
0.0
230
1.0
 70
     8
 71
     3
 72
    15
 73
    11
 74
     0
 42
0.00000001
 43
0.00000001
 40
0.0
 40
0.0
 40
0.0
 40
0.0
 40
0.1241186784437694
 40
0.2478474916628982
 40
0.3736574149478942
 40
0.5005082335853296
 40
0.6234527658309922
 40
0.7484986612277523
 40
0.8736976492452769
 40
1.0
 40
1.0
 40
1.0
 40
1.0
 10
168.1555206426742
 20
104.5786540462737
 30
0.0
 10
168.156991715283
 20
104.5784831659953
 30
0.0
 10
168.1599292397614
 20
104.5781419421849
 30
0.0
 10
168.1593125052613
 20
104.5776634058974
 30
0.0
 10
168.1551505436667
 20
104.5772436160255
 30
0.0
 10
168.1471517958683
 20
104.5769198281791
 30
0.0
 10
168.1362857043315
 20
104.5766991299734
 30
0.0
 10
168.1230979865069
 20
104.5765995380632
 30
0.0
 10
168.1083035399317
 20
104.5766034524618
 30
0.0
 10
168.0978749490243
 20
104.5767050032672
 30
0.0
 10
168.0926377779099
 20
104.5767560014269
 30
0.0
  0
ARC
  5
C6
330
1F
100
AcDbEntity
  8
0
  6
Continuous
 62
     7
370
    25
100
AcDbCircle
 10
167.9155126865
 20
102.0456496678
 30
0.0
 40
2.544349622297216
100
AcDbArc
 50
84.5872538302
 51
89.9798585321
  0
LINE
  5
C7
330
1F
100
AcDbEntity
  8
0
  6
Continuous
 62
     7
370
    25
100
AcDbLine
 10
165.5832447009
 20
104.3415406811
 30
0.0
 11
165.5832447009
 21
104.4422670991
 31
0.0
  0
LINE
  5
C8
330
1F
100
AcDbEntity
  8
0
  6
Continuous
 62
     7
370
    25
100
AcDbLine
 10
170.1238038012
 20
104.3415406807
 30
0.0
 11
170.1238038012
 21
104.4422670988
 31
0.0
  0
SPLINE
  5
C9
330
1F
100
AcDbEntity
  8
0
  6
Continuous
 62
     7
370
    25
100
AcDbSpline
210
0.0
220
0.0
230
1.0
 70
     8
 71
     3
 72
    12
 73
     8
 74
     0
 42
0.00000001
 43
0.00000001
 40
0.0
 40
0.0
 40
0.0
 40
0.0
 40
0.1899316945255229
 40
0.3791571814573798
 40
0.5853364528953583
 40
0.8311967307029335
 40
1.0
 40
1.0
 40
1.0
 40
1.0
 10
175.8535241933171
 20
92.4901060704941
 30
0.0
 10
175.840741583872
 20
92.5070711167015
 30
0.0
 10
175.8152238935205
 20
92.54093812936284
 30
0.0
 10
175.62846629022
 20
92.79762058947944
 30
0.0
 10
175.3610164797897
 20
93.19636734941886
 30
0.0
 10
175.0651319234682
 20
93.68936516480753
 30
0.0
 10
174.8884684794826
 20
94.06881422708054
 30
0.0
 10
174.81655145876
 20
94.22328221128274
 30
0.0
  0
LWPOLYLINE
  5
CA
330
1F
100
AcDbEntity
  8
0
  6
Continuous
 62
     7
370
    25
100
AcDbPolyline
 90
       28
 70
   128
 43
0.0
 10
175.8535241933
 20
92.4901060705
 10
175.7993030621
 20
92.4901060716
 10
175.6376492445
 20
92.4901060749
 10
175.3707484172
 20
92.4901060804
 10
175.0022092728
 20
92.490106088
 10
174.5370147276
 20
92.4901060976
 10
173.9814545489
 20
92.4901061091
 10
173.3430403127
 20
92.4901061223
 10
172.6304038421
 20
92.490106137
 10
171.8531804985
 20
92.490106153
 10
171.0218789047
 20
92.4901061702
 10
170.1477388603
 20
92.4901061882
 10
169.2425793722
 20
92.4901062069
 10
168.3186388525
 20
92.4901062259
 10
167.3884096463
 20
92.4901062451
 10
166.4644691266
 20
92.4901062642
 10
165.5593096385
 20
92.4901062829
 10
164.6851695942
 20
92.4901063009
 10
163.8538680003
 20
92.4901063181
 10
163.0766446567
 20
92.4901063341
 10
162.3640081861
 20
92.4901063488
 10
161.72559395
 20
92.490106362
 10
161.1700337712
 20
92.4901063735
 10
160.704839226
 20
92.4901063831
 10
160.3363000817
 20
92.4901063907
 10
160.0693992544
 20
92.4901063962
 10
159.9077454368
 20
92.4901063995
 10
159.8535243055
 20
92.4901060705
  0
SPLINE
  5
CB
330
1F
100
AcDbEntity
  8
0
  6
Continuous
 62
     7
370
    25
100
AcDbSpline
210
0.0
220
0.0
230
1.0
 70
     8
 71
     3
 72
    13
 73
     9
 74
     0
 42
0.00000001
 43
0.00000001
 40
0.0
 40
0.0
 40
0.0
 40
0.0
 40
0.0346148313930214
 40
0.2707642851774053
 40
0.5368387492587624
 40
0.627514877010451
 40
0.8216956890173526
 40
1.0
 40
1.0
 40
1.0
 40
1.0
 10
160.8904970400853
 20
94.22328221128274
 30
0.0
 10
160.8762770943908
 20
94.1911844843948
 30
0.0
 10
160.7650457731252
 20
93.94010950506141
 30
0.0
 10
160.5175838439234
 20
93.47051328737273
 30
0.0
 10
160.2433786045557
 20
93.04100498269113
 30
0.0
 10
160.033273034351
 20
92.73518585491053
 30
0.0
 10
159.8881791619804
 20
92.53606856947484
 30
0.0
 10
159.8647429490256
 20
92.5049852805993
 30
0.0
 10
159.8535243055281
 20
92.4901060704941
 30
0.0
  0
SPLINE
  5
CC
330
1F
100
AcDbEntity
  8
0
  6
Continuous
 62
     7
370
    25
100
AcDbSpline
210
0.0
220
0.0
230
1.0
 70
     8
 71
     3
 72
    11
 73
     7
 74
     0
 42
0.00000001
 43
0.00000001
 40
0.0
 40
0.0
 40
0.0
 40
0.0
 40
0.2456902021794783
 40
0.4914572396993195
 40
0.7457216020119215
 40
1.0
 40
1.0
 40
1.0
 40
1.0
 10
162.7610733168453
 20
101.9901062355658
 30
0.0
 10
162.7116562469881
 20
101.3340666641241
 30
0.0
 10
162.612806652944
 20
100.0217823562673
 30
0.0
 10
162.2136159960179
 20
98.06247857331188
 30
0.0
 10
161.6628638027387
 20
96.11654903024288
 30
0.0
 10
161.1479573647403
 20
94.85438276277915
 30
0.0
 10
160.8904970400853
 20
94.22328221128274
 30
0.0
  0
LINE
  5
CD
330
1F
100
AcDbEntity
  8
0
  6
Continuous
 62
     7
370
    25
100
AcDbLine
 10
172.945975182
 20
101.9901062356
 30
0.0
 11
162.7610733168
 21
101.9901062356
 31
0.0
  0
SPLINE
  5
CE
330
1F
100
AcDbEntity
  8
0
  6
Continuous
 62
     7
370
    25
100
AcDbSpline
210
0.0
220
0.0
230
1.0
 70
     8
 71
     3
 72
    11
 73
     7
 74
     0
 42
0.00000001
 43
0.00000001
 40
0.0
 40
0.0
 40
0.0
 40
0.0
 40
0.2460416072901217
 40
0.4920717926348669
 40
0.7460790582811396
 40
1.0
 40
1.0
 40
1.0
 40
1.0
 10
174.81655145876
 20
94.22328221128274
 30
0.0
 10
174.5669623400679
 20
94.8337247806503
 30
0.0
 10
174.0677956893146
 20
96.05458158091959
 30
0.0
 10
173.5146138755376
 20
97.97658318165244
 30
0.0
 10
173.1012845820082
 20
99.95588591948459
 30
0.0
 10
172.9977391160482
 20
101.3121096283057
 30
0.0
 10
172.945975182
 20
101.9901062355658
 30
0.0
  0
LINE
  5
CF
330
1F
100
AcDbEntity
  8
0
  6
Continuous
 62
     7
370
    25
100
AcDbLine
 10
167.8535242494
 20
85.4901062356
 30
0.0
 11
160.8190838511
 21
85.4901062356
 31
0.0
  0
LINE
  5
D0
330
1F
100
AcDbEntity
  8
0
  6
Continuous
 62
     7
370
    25
100
AcDbLine
 10
174.8879646477
 20
85.4901062356
 30
0.0
 11
167.8535242494
 21
85.4901062356
 31
0.0
  0
LINE
  5
D1
330
1F
100
AcDbEntity
  8
0
  6
Continuous
 62
     7
370
    25
100
AcDbLine
 10
162.758416266
 20
103.9901062356
 30
0.0
 11
172.9486322328
 21
103.9901062356
 31
0.0
  0
LINE
  5
D2
330
1F
100
AcDbEntity
  8
0
  6
Continuous
 62
     7
370
    25
100
AcDbLine
 10
173.06314248
 20
101.9901062356
 30
0.0
 11
172.945975182
 21
101.9901062356
 31
0.0
  0
ARC
  5
D3
330
1F
100
AcDbEntity
  8
0
  6
Continuous
 62
     7
370
    25
100
AcDbCircle
 10
175.1277672034
 20
103.399831298
 30
0.0
 40
2.499999999999995
100
AcDbArc
 50
214.3252481179
 51
328.221357821
  0
ARC
  5
D4
330
1F
100
AcDbEntity
  8
0
  6
Continuous
 62
     7
370
    25
100
AcDbCircle
 10
182.3535242494
 20
98.9234002295
 30
0.0
 40
6.00000000000001
100
AcDbArc
 50
115.1026742168
 51
148.221357821
  0
LINE
  5
D5
330
1F
100
AcDbEntity
  8
0
  6
Continuous
 62
     7
370
    25
100
AcDbLine
 10
184.8989743816
 20
104.3566942234
 30
0.0
 11
179.8080741172
 21
104.3566942234
 31
0.0
  0
ARC
  5
D6
330
1F
100
AcDbEntity
  8
0
  6
Continuous
 62
     7
370
    25
100
AcDbCircle
 10
182.3535242494
 20
98.9234002295
 30
0.0
 40
6.00000000000001
100
AcDbArc
 50
308.4313932617
 51
64.8973257832
  0
LINE
  5
D7
330
1F
100
AcDbEntity
  8
0
  6
Continuous
 62
     7
370
    25
100
AcDbLine
 10
186.0829867596
 20
94.2232822113
 30
0.0
 11
174.8165514588
 21
94.2232822113
 31
0.0
  0
ARC
  5
D8
330
1F
100
AcDbEntity
  8
0
  6
Continuous
 62
     7
370
    25
100
AcDbCircle
 10
153.3535242494
 20
98.9234002295
 30
0.0
 40
6.00000000000001
100
AcDbArc
 50
31.778642179
 51
64.8973257832
  0
ARC
  5
D9
330
1F
100
AcDbEntity
  8
0
  6
Continuous
 62
     7
370
    25
100
AcDbCircle
 10
160.5792812955
 20
103.399831298
 30
0.0
 40
2.500000000000017
100
AcDbArc
 50
211.778642179
 51
325.6747518821
  0
LINE
  5
DA
330
1F
100
AcDbEntity
  8
0
  6
Continuous
 62
     7
370
    25
100
AcDbLine
 10
162.7610733168
 20
101.9901062356
 30
0.0
 11
162.6439060188
 21
101.9901062356
 31
0.0
  0
LINE
  5
DB
330
1F
100
AcDbEntity
  8
0
  6
Continuous
 62
     7
370
    25
100
AcDbLine
 10
160.8904970401
 20
94.2232822113
 30
0.0
 11
149.6240617392
 21
94.2232822113
 31
0.0
  0
ARC
  5
DC
330
1F
100
AcDbEntity
  8
0
  6
Continuous
 62
     7
370
    25
100
AcDbCircle
 10
153.3535242494
 20
98.9234002295
 30
0.0
 40
6.00000000000001
100
AcDbArc
 50
115.1026742168
 51
231.5686067383
  0
LINE
  5
DD
330
1F
100
AcDbEntity
  8
0
  6
Continuous
 62
     7
370
    25
100
AcDbLine
 10
155.8989743816
 20
104.3566942234
 30
0.0
 11
150.8080741172
 21
104.3566942234
 31
0.0
  0
ARC
  5
DE
330
1F
100
AcDbEntity
  8
0
  6
Continuous
 62
     7
370
    25
100
AcDbCircle
 10
153.0707994952
 20
105.5836870268
 30
0.0
 40
2.573992516658455
100
AcDbArc
 50
195.9542434294
 51
208.4693494853
  0
SPLINE
  5
DF
330
1F
100
AcDbEntity
  8
0
  6
Continuous
 62
     7
370
    25
100
AcDbSpline
210
0.0
220
0.0
230
1.0
 70
     8
 71
     3
 72
    11
 73
     7
 74
     0
 42
0.00000001
 43
0.00000001
 40
0.0
 40
0.0
 40
0.0
 40
0.0
 40
0.3703424215671223
 40
0.8081736631678952
 40
0.9944317652533818
 40
1.0
 40
1.0
 40
1.0
 40
1.0
 10
150.5959532728693
 20
104.8761747289891
 30
0.0
 10
150.9279472391375
 20
105.0123926657046
 30
0.0
 10
151.6524356159571
 20
105.3096520194635
 30
0.0
 10
152.5825613615149
 20
105.463724982885
 30
0.0
 10
153.1693990610576
 20
105.4899637589382
 30
0.0
 10
153.3483303260873
 20
105.4901022164922
 30
0.0
 10
153.3535242494226
 20
105.4901062355658
 30
0.0
  0
SPLINE
  5
E0
330
1F
100
AcDbEntity
  8
0
  6
Continuous
 62
     7
370
    25
100
AcDbSpline
210
0.0
220
0.0
230
1.0
 70
     8
 71
     3
 72
    17
 73
    13
 74
     0
 42
0.00000001
 43
0.00000001
 40
0.0
 40
0.0
 40
0.0
 40
0.0
 40
0.0051037386011089
 40
0.0335545146957443
 40
0.0512404508407192
 40
0.0783256082042134
 40
0.1200097101225776
 40
0.1849422108378781
 40
0.2894088209386614
 40
0.6174789247950627
 40
0.8356014748448801
 40
1.0
 40
1.0
 40
1.0
 40
1.0
 10
153.3535242494226
 20
105.4901062355658
 30
0.0
 10
153.3490104324997
 20
105.4900997433393
 30
0.0
 10
153.3193343561737
 20
105.4900570602149
 30
0.0
 10
153.2740154391182
 20
105.4892601802826
 30
0.0
 10
153.2092671617518
 20
105.4868378236046
 30
0.0
 10
153.1328313090503
 20
105.4824545984567
 30
0.0
 10
153.0146831000999
 20
105.4720891624808
 30
0.0
 10
152.8283471890718
 20
105.4469024743385
 30
0.0
 10
152.3906494089023
 20
105.354949036103
 30
0.0
 10
151.8226020189586
 20
105.1222484557228
 30
0.0
 10
151.2271823471894
 20
104.7293098672368
 30
0.0
 10
150.9340538313166
 20
104.4686987342375
 30
0.0
 10
150.8080741172196
 20
104.3566942234243
 30
0.0
  0
ARC
  5
E1
330
1F
100
AcDbEntity
  8
0
  6
Continuous
 62
     7
370
    25
100
AcDbCircle
 10
182.6362490036
 20
105.5836870268
 30
0.0
 40
2.573992516662051
100
AcDbArc
 50
331.5306505147
 51
344.0457565706
  0
SPLINE
  5
E2
330
1F
100
AcDbEntity
  8
0
  6
Continuous
 62
     7
370
    25
100
AcDbSpline
210
0.0
220
0.0
230
1.0
 70
     8
 71
     3
 72
    17
 73
    13
 74
     0
 42
0.00000001
 43
0.00000001
 40
0.0
 40
0.0
 40
0.0
 40
0.0
 40
0.164398525155122
 40
0.3825210752049383
 40
0.7105911790613387
 40
0.8150577891621212
 40
0.8799902898774311
 40
0.9216743917957981
 40
0.948759549159293
 40
0.9664454853042714
 40
0.9948962613988914
 40
0.9999999999999999
 40
0.9999999999999999
 40
0.9999999999999999
 40
0.9999999999999999
 10
184.8989743816257
 20
104.3566942234243
 30
0.0
 10
184.7729946675287
 20
104.4686987342375
 30
0.0
 10
184.4798661516559
 20
104.7293098672368
 30
0.0
 10
183.8844464798867
 20
105.1222484557229
 30
0.0
 10
183.316399089943
 20
105.354949036103
 30
0.0
 10
182.8787013097734
 20
105.4469024743385
 30
0.0
 10
182.6923653987453
 20
105.4720891624808
 30
0.0
 10
182.574217189795
 20
105.4824545984567
 30
0.0
 10
182.4977813370935
 20
105.4868378236046
 30
0.0
 10
182.433033059727
 20
105.4892601802826
 30
0.0
 10
182.3877141426716
 20
105.4900570602149
 30
0.0
 10
182.3580380663456
 20
105.4900997433393
 30
0.0
 10
182.3535242494226
 20
105.4901062355658
 30
0.0
  0
SPLINE
  5
E3
330
1F
100
AcDbEntity
  8
0
  6
Continuous
 62
     7
370
    25
100
AcDbSpline
210
0.0
220
0.0
230
1.0
 70
     8
 71
     3
 72
    11
 73
     7
 74
     0
 42
0.00000001
 43
0.00000001
 40
0.0
 40
0.0
 40
0.0
 40
0.0
 40
0.0055682347466184
 40
0.1918263368321039
 40
0.6296575784328784
 40
1.0
 40
1.0
 40
1.0
 40
1.0
 10
182.3535242494226
 20
105.4901062355658
 30
0.0
 10
182.3587181727579
 20
105.4901022164922
 30
0.0
 10
182.5376494377877
 20
105.4899637589383
 30
0.0
 10
183.1244871373303
 20
105.463724982885
 30
0.0
 10
184.0546128828882
 20
105.3096520194636
 30
0.0
 10
184.7791012597077
 20
105.0123926657047
 30
0.0
 10
185.111095225976
 20
104.8761747289891
 30
0.0
  0
ARC
  5
E4
330
1F
100
AcDbEntity
  8
0
  6
Continuous
 62
     7
370
    25
100
AcDbCircle
 10
182.0707994952
 20
105.5836870268
 30
0.0
 40
2.573992516658451
100
AcDbArc
 50
195.9542434294
 51
208.4693494853
  0
SPLINE
  5
E5
330
1F
100
AcDbEntity
  8
0
  6
Continuous
 62
     7
370
    25
100
AcDbSpline
210
0.0
220
0.0
230
1.0
 70
     8
 71
     3
 72
    11
 73
     7
 74
     0
 42
0.00000001
 43
0.00000001
 40
0.0
 40
0.0
 40
0.0
 40
0.0
 40
0.3703424215671238
 40
0.8081736631678934
 40
0.9944317652533823
 40
0.9999999999999999
 40
0.9999999999999999
 40
0.9999999999999999
 40
0.9999999999999999
 10
179.5959532728693
 20
104.8761747289892
 30
0.0
 10
179.9279472391375
 20
105.0123926657047
 30
0.0
 10
180.6524356159571
 20
105.3096520194636
 30
0.0
 10
181.582561361515
 20
105.463724982885
 30
0.0
 10
182.1693990610575
 20
105.4899637589382
 30
0.0
 10
182.3483303260874
 20
105.4901022164922
 30
0.0
 10
182.3535242494226
 20
105.4901062355658
 30
0.0
  0
SPLINE
  5
E6
330
1F
100
AcDbEntity
  8
0
  6
Continuous
 62
     7
370
    25
100
AcDbSpline
210
0.0
220
0.0
230
1.0
 70
     8
 71
     3
 72
    17
 73
    13
 74
     0
 42
0.00000001
 43
0.00000001
 40
0.0
 40
0.0
 40
0.0
 40
0.0
 40
0.0051037386011085
 40
0.0335545146957834
 40
0.0512404508407072
 40
0.0783256082042164
 40
0.1200097101225868
 40
0.1849422108378754
 40
0.2894088209386652
 40
0.6174789247950587
 40
0.8356014748448778
 40
1.0
 40
1.0
 40
1.0
 40
1.0
 10
182.3535242494226
 20
105.4901062355658
 30
0.0
 10
182.3490104324997
 20
105.4900997433393
 30
0.0
 10
182.3193343561737
 20
105.4900570602149
 30
0.0
 10
182.2740154391182
 20
105.4892601802826
 30
0.0
 10
182.2092671617518
 20
105.4868378236046
 30
0.0
 10
182.1328313090503
 20
105.4824545984567
 30
0.0
 10
182.0146831000999
 20
105.4720891624808
 30
0.0
 10
181.8283471890719
 20
105.4469024743385
 30
0.0
 10
181.3906494089023
 20
105.354949036103
 30
0.0
 10
180.8226020189586
 20
105.1222484557228
 30
0.0
 10
180.2271823471894
 20
104.7293098672368
 30
0.0
 10
179.9340538313166
 20
104.4686987342375
 30
0.0
 10
179.8080741172196
 20
104.3566942234243
 30
0.0
  0
ARC
  5
E7
330
1F
100
AcDbEntity
  8
0
  6
Continuous
 62
     7
370
    25
100
AcDbCircle
 10
153.6362490036
 20
105.5836870268
 30
0.0
 40
2.573992516658482
100
AcDbArc
 50
331.5306505147
 51
344.0457565706
  0
SPLINE
  5
E8
330
1F
100
AcDbEntity
  8
0
  6
Continuous
 62
     7
370
    25
100
AcDbSpline
210
0.0
220
0.0
230
1.0
 70
     8
 71
     3
 72
    17
 73
    13
 74
     0
 42
0.00000001
 43
0.00000001
 40
0.0
 40
0.0
 40
0.0
 40
0.0
 40
0.164398525155122
 40
0.3825210752049396
 40
0.7105911790613395
 40
0.8150577891621225
 40
0.8799902898774229
 40
0.9216743917957869
 40
0.9487595491592811
 40
0.9664454853042558
 40
0.9948962613988912
 40
1.0
 40
1.0
 40
1.0
 40
1.0
 10
155.8989743816257
 20
104.3566942234243
 30
0.0
 10
155.7729946675287
 20
104.4686987342375
 30
0.0
 10
155.4798661516559
 20
104.7293098672368
 30
0.0
 10
154.8844464798867
 20
105.1222484557228
 30
0.0
 10
154.3163990899429
 20
105.354949036103
 30
0.0
 10
153.8787013097734
 20
105.4469024743385
 30
0.0
 10
153.6923653987454
 20
105.4720891624808
 30
0.0
 10
153.574217189795
 20
105.4824545984567
 30
0.0
 10
153.4977813370935
 20
105.4868378236046
 30
0.0
 10
153.4330330597271
 20
105.4892601802826
 30
0.0
 10
153.3877141426715
 20
105.4900570602149
 30
0.0
 10
153.3580380663456
 20
105.4900997433393
 30
0.0
 10
153.3535242494226
 20
105.4901062355658
 30
0.0
  0
SPLINE
  5
E9
330
1F
100
AcDbEntity
  8
0
  6
Continuous
 62
     7
370
    25
100
AcDbSpline
210
0.0
220
0.0
230
1.0
 70
     8
 71
     3
 72
    11
 73
     7
 74
     0
 42
0.00000001
 43
0.00000001
 40
0.0
 40
0.0
 40
0.0
 40
0.0
 40
0.0055682347466183
 40
0.1918263368321041
 40
0.6296575784328767
 40
1.0
 40
1.0
 40
1.0
 40
1.0
 10
153.3535242494226
 20
105.4901062355658
 30
0.0
 10
153.3587181727579
 20
105.4901022164922
 30
0.0
 10
153.5376494377877
 20
105.4899637589383
 30
0.0
 10
154.1244871373303
 20
105.4637249828849
 30
0.0
 10
155.0546128828882
 20
105.3096520194636
 30
0.0
 10
155.7791012597078
 20
105.0123926657047
 30
0.0
 10
156.111095225976
 20
104.8761747289891
 30
0.0
  0
ARC
  5
EA
330
1F
100
AcDbEntity
  8
0
  6
Continuous
 62
     7
370
    25
100
AcDbCircle
 10
182.3535242494
 20
98.9901062356
 30
0.0
 40
6.500000000000011
100
AcDbArc
 50
308.4313932617
 51
64.8973257832
  0
ARC
  5
EB
330
1F
100
AcDbEntity
  8
0
  6
Continuous
 62
     7
370
    25
100
AcDbCircle
 10
187.1835675369
 20
94.964734831
 30
0.0
 40
1.327038068258353
100
AcDbArc
 50
213.9678392762
 51
233.4763769747
  0
ARC
  5
EC
330
1F
100
AcDbEntity
  8
0
  6
Continuous
 62
     7
370
    25
100
AcDbCircle
 10
153.3535242494
 20
98.9901062356
 30
0.0
 40
6.500000000000011
100
AcDbArc
 50
31.778642179
 51
64.8973257832
  0
ARC
  5
ED
330
1F
100
AcDbEntity
  8
0
  6
Continuous
 62
     7
370
    25
100
AcDbCircle
 10
157.9164672137
 20
103.214328801
 30
0.0
 40
1.252349853183553
100
AcDbArc
 50
295.4209982681
 51
320.2340472941
  0
ARC
  5
EE
330
1F
100
AcDbEntity
  8
0
  6
Continuous
 62
     7
370
    25
100
AcDbCircle
 10
177.7905812851
 20
103.214328801
 30
0.0
 40
1.252349853184208
100
AcDbArc
 50
219.7659527059
 51
244.5790017319
  0
ARC
  5
EF
330
1F
100
AcDbEntity
  8
0
  6
Continuous
 62
     7
370
    25
100
AcDbCircle
 10
182.3535242494
 20
98.9901062356
 30
0.0
 40
6.500000000000014
100
AcDbArc
 50
115.1026742168
 51
148.221357821
  0
ARC
  5
F0
330
1F
100
AcDbEntity
  8
0
  6
Continuous
 62
     7
370
    25
100
AcDbCircle
 10
153.3535242494
 20
98.9901062356
 30
0.0
 40
6.500000000000011
100
AcDbArc
 50
115.1026742168
 51
231.5686067383
  0
ARC
  5
F1
330
1F
100
AcDbEntity
  8
0
  6
Continuous
 62
     7
370
    25
100
AcDbCircle
 10
148.5234809619
 20
94.964734831
 30
0.0
 40
1.327038068257177
100
AcDbArc
 50
306.5236230253
 51
326.0321607238
  0
ARC
  5
F2
330
1F
100
AcDbEntity
  8
0
  6
Continuous
 62
     7
370
    25
100
AcDbCircle
 10
175.1277672034
 20
103.4665373041
 30
0.0
 40
2.000000000000001
100
AcDbArc
 50
227.5796275115
 51
328.221357821
  0
SPLINE
  5
F3
330
1F
100
AcDbEntity
  8
0
  6
Continuous
 62
     7
370
    25
100
AcDbSpline
210
0.0
220
0.0
230
1.0
 70
    24
 71
     3
 72
    12
 73
     8
 74
     0
 42
0.00000001
 43
0.00000001
 40
0.0
 40
0.0
 40
0.0
 40
0.0
 40
0.2571943124574413
 40
0.5245503439757948
 40
0.7385170215182973
 40
0.8882338470637767
 40
1.0
 40
1.0
 40
1.0
 40
1.0
 10
173.0631424800291
 20
101.9901062355658
 30
0.0
 10
173.1478407575503
 20
101.9901062355658
 30
0.0
 10
173.3205837322427
 20
101.9901062355658
 30
0.0
 10
173.5398087610075
 20
101.9901062355658
 30
0.0
 10
173.6891885363869
 20
101.9901062355658
 30
0.0
 10
173.7665850529809
 20
101.9901062355658
 30
0.0
 10
173.7750284121448
 20
101.9901062355658
 30
0.0
 10
173.7786373727627
 20
101.9901062355658
 30
0.0
  0
ARC
  5
F4
330
1F
100
AcDbEntity
  8
0
  6
Continuous
 62
     7
370
    25
100
AcDbCircle
 10
160.5792812955
 20
103.4665373041
 30
0.0
 40
2.000000000000001
100
AcDbArc
 50
211.778642179
 51
312.4203724885
  0
SPLINE
  5
F5
330
1F
100
AcDbEntity
  8
0
  6
Continuous
 62
     7
370
    25
100
AcDbSpline
210
0.0
220
0.0
230
1.0
 70
    24
 71
     3
 72
    12
 73
     8
 74
     0
 42
0.00000001
 43
0.00000001
 40
0.0
 40
0.0
 40
0.0
 40
0.0
 40
0.1443005026356244
 40
0.2873275205918753
 40
0.5201185386439743
 40
0.7602843466484757
 40
1.0
 40
1.0
 40
1.0
 40
1.0
 10
161.9284111260826
 20
101.9901062355658
 30
0.0
 10
161.9343953861071
 20
101.9901062355658
 30
0.0
 10
161.9463110937035
 20
101.9901062355658
 30
0.0
 10
162.0396963158998
 20
101.9901062355658
 30
0.0
 10
162.1924542593015
 20
101.9901062355658
 30
0.0
 10
162.4069201744898
 20
101.9901062355658
 30
0.0
 10
162.5649601540445
 20
101.9901062355658
 30
0.0
 10
162.6439060188162
 20
101.9901062355658
 30
0.0
  0
SPLINE
  5
F6
330
1F
100
AcDbEntity
  8
0
  6
Continuous
 62
     7
370
    25
100
AcDbSpline
210
0.0
220
0.0
230
1.0
 70
     8
 71
     3
 72
    15
 73
    11
 74
     0
 42
0.00000001
 43
0.00000001
 40
0.0
 40
0.0
 40
0.0
 40
0.0
 40
0.1525119975281624
 40
0.310390868049384
 40
0.5397217434700955
 40
0.7785238912153801
 40
0.907686723357059
 40
0.9610458274988231
 40
0.9967059666277471
 40
0.9999999999999999
 40
0.9999999999999999
 40
0.9999999999999999
 40
0.9999999999999999
 10
149.6240617392376
 20
94.22328221128274
 30
0.0
 10
149.7926405828494
 20
94.05584629379283
 30
0.0
 10
150.1357305328305
 20
93.71508241544453
 30
0.0
 10
150.7845620485399
 20
93.23624823142556
 30
0.0
 10
151.5699908404453
 20
92.81704916142732
 30
0.0
 10
152.3430521977982
 20
92.58414587520896
 30
0.0
 10
152.8925539620476
 20
92.50869958877797
 30
0.0
 10
153.17763682517
 20
92.49241475619074
 30
0.0
 10
153.2983018251763
 20
92.49015783076895
 30
0.0
 10
153.3492186344361
 20
92.49011025837144
 30
0.0
 10
153.3535242494226
 20
92.4901062355658
 30
0.0
  0
SPLINE
  5
F7
330
1F
100
AcDbEntity
  8
0
  6
Continuous
 62
     7
370
    25
100
AcDbSpline
210
0.0
220
0.0
230
1.0
 70
     8
 71
     3
 72
    14
 73
    10
 74
     0
 42
0.00000001
 43
0.00000001
 40
0.0
 40
0.0
 40
0.0
 40
0.0
 40
0.0034863124123944
 40
0.0203208135699746
 40
0.2238589767031062
 40
0.4593718547945694
 40
0.6945922354894435
 40
0.8474054947372498
 40
0.9999999999999999
 40
0.9999999999999999
 40
0.9999999999999999
 40
0.9999999999999999
 10
153.3535242494226
 20
92.4901062355658
 30
0.0
 10
153.3486435209562
 20
92.49010974068295
 30
0.0
 10
153.3201950167719
 20
92.49013017110433
 30
0.0
 10
153.0068119421779
 20
92.49259201782752
 30
0.0
 10
152.368210144437
 20
92.54289766628577
 30
0.0
 10
151.4325967178979
 20
92.75278693313263
 30
0.0
 10
150.5863815277656
 20
93.0885362911561
 30
0.0
 10
149.8774962487572
 20
93.47944024299615
 30
0.0
 10
149.5012577181214
 20
93.75875457958344
 30
0.0
 10
149.3132731967221
 20
93.89831171583582
 30
0.0
  0
SPLINE
  5
F8
330
1F
100
AcDbEntity
  8
0
  6
Continuous
 62
     7
370
    25
100
AcDbSpline
210
0.0
220
0.0
230
1.0
 70
     8
 71
     3
 72
    15
 73
    11
 74
     0
 42
0.00000001
 43
0.00000001
 40
0.0
 40
0.0
 40
0.0
 40
0.0
 40
0.1301798349594215
 40
0.2600418118205738
 40
0.3950698077728818
 40
0.5293194948001412
 40
0.6524212477826723
 40
0.7639042861585196
 40
0.8782077734645124
 40
1.0
 40
1.0
 40
1.0
 40
1.0
 10
156.8760566733476
 20
93.52734454184377
 30
0.0
 10
157.0525014873959
 20
93.62088099140502
 30
0.0
 10
157.4049602929073
 20
93.80772550401906
 30
0.0
 10
158.0327280945989
 20
93.87613028228658
 30
0.0
 10
158.6513373664442
 20
93.75900208689465
 30
0.0
 10
159.1856554880345
 20
93.46195306108366
 30
0.0
 10
159.5477213665201
 20
93.08873102724247
 30
0.0
 10
159.7448362332212
 20
92.76591184541397
 30
0.0
 10
159.8389137323225
 20
92.536441918805
 30
0.0
 10
159.8485522066085
 20
92.50587454296137
 30
0.0
 10
159.8535243055281
 20
92.4901060704941
 30
0.0
  0
SPLINE
  5
F9
330
1F
100
AcDbEntity
  8
0
  6
Continuous
 62
     7
370
    25
100
AcDbSpline
210
0.0
220
0.0
230
1.0
 70
     8
 71
     3
 72
    11
 73
     7
 74
     0
 42
0.00000001
 43
0.00000001
 40
0.0
 40
0.0
 40
0.0
 40
0.0
 40
0.003916897227245
 40
0.3344392767846713
 40
0.6747368618926373
 40
1.0
 40
1.0
 40
1.0
 40
1.0
 10
153.3535242494226
 20
92.4901062355658
 30
0.0
 10
153.3582244018514
 20
92.4901095496504
 30
0.0
 10
153.7595409255813
 20
92.49039251853742
 30
0.0
 10
154.5695988630545
 20
92.56968152248093
 30
0.0
 10
155.7552665343608
 20
92.89350377116762
 30
0.0
 10
156.508128798377
 20
93.31927018455559
 30
0.0
 10
156.8760566733476
 20
93.52734454184377
 30
0.0
  0
SPLINE
  5
FA
330
1F
100
AcDbEntity
  8
0
  6
Continuous
 62
     7
370
    25
100
AcDbSpline
210
0.0
220
0.0
230
1.0
 70
     8
 71
     3
 72
    15
 73
    11
 74
     0
 42
0.00000001
 43
0.00000001
 40
0.0
 40
0.0
 40
0.0
 40
0.0
 40
0.131744525182488
 40
0.2637434170107735
 40
0.3887694962713453
 40
0.501173831272519
 40
0.6141932746330019
 40
0.738697527781732
 40
0.8727943609316746
 40
0.9999999999999999
 40
0.9999999999999999
 40
0.9999999999999999
 40
0.9999999999999999
 10
175.8535241933171
 20
92.4901060704941
 30
0.0
 10
175.8593151736738
 20
92.50864624055804
 30
0.0
 10
175.870908315362
 20
92.54576237724643
 30
0.0
 10
175.9905136594816
 20
92.82910700352551
 30
0.0
 10
176.2428229369487
 20
93.19379544256411
 30
0.0
 10
176.6285250016175
 20
93.5308297473228
 30
0.0
 10
177.1158602509332
 20
93.77159884225847
 30
0.0
 10
177.691320873296
 20
93.87532123161904
 30
0.0
 10
178.3053554143352
 20
93.80723965258545
 30
0.0
 10
178.6588875279115
 20
93.61898802469433
 30
0.0
 10
178.8309918254976
 20
93.52734454184377
 30
0.0
  0
SPLINE
  5
FB
330
1F
100
AcDbEntity
  8
0
  6
Continuous
 62
     7
370
    25
100
AcDbSpline
210
0.0
220
0.0
230
1.0
 70
     8
 71
     3
 72
    15
 73
    11
 74
     0
 42
0.00000001
 43
0.00000001
 40
0.0
 40
0.0
 40
0.0
 40
0.0
 40
0.003294074559561
 40
0.038954659568953
 40
0.0923144308921385
 40
0.2214788780354812
 40
0.4512478393974726
 40
0.6896098766067243
 40
0.8424208092306297
 40
1.0
 40
1.0
 40
1.0
 40
1.0
 10
182.3535242494226
 20
92.4901062355658
 30
0.0
 10
182.3578298641526
 20
92.49011025824556
 30
0.0
 10
182.4087466703781
 20
92.49015782915437
 30
0.0
 10
182.529411918301
 20
92.49241487620719
 30
0.0
 10
182.8144923570792
 20
92.50869851938093
 30
0.0
 10
183.3522398261507
 20
92.58254181800166
 30
0.0
 10
184.1252107225444
 20
92.81223821003027
 30
0.0
 10
184.9053306211759
 20
93.22491562321595
 30
0.0
 10
185.5652526540281
 20
93.71002760269617
 30
0.0
 10
185.9086502830015
 20
94.05045411458491
 30
0.0
 10
186.0829867596077
 20
94.22328221128274
 30
0.0
  0
SPLINE
  5
FC
330
1F
100
AcDbEntity
  8
0
  6
Continuous
 62
     7
370
    25
100
AcDbSpline
210
0.0
220
0.0
230
1.0
 70
     8
 71
     3
 72
    12
 73
     8
 74
     0
 42
0.00000001
 43
0.00000001
 40
0.0
 40
0.0
 40
0.0
 40
0.0
 40
0.2353653050919929
 40
0.4767533333124057
 40
0.7341407436541063
 40
0.9960857492732744
 40
1.0
 40
1.0
 40
1.0
 40
1.0
 10
178.8309918254976
 20
93.52734454184377
 30
0.0
 10
179.0956903431927
 20
93.37193783363998
 30
0.0
 10
179.6318607043454
 20
93.05714774116518
 30
0.0
 10
180.494433209234
 20
92.74079942775609
 30
0.0
 10
181.400416164479
 20
92.53688331616496
 30
0.0
 10
182.0295873101675
 20
92.49034098440076
 30
0.0
 10
182.3488241199931
 20
92.4901096416297
 30
0.0
 10
182.3535242494226
 20
92.4901062355658
 30
0.0
  0
SPLINE
  5
FD
330
1F
100
AcDbEntity
  8
0
  6
Continuous
 62
     7
370
    25
100
AcDbSpline
210
0.0
220
0.0
230
1.0
 70
     8
 71
     3
 72
    14
 73
    10
 74
     0
 42
0.00000001
 43
0.00000001
 40
0.0
 40
0.0
 40
0.0
 40
0.0
 40
0.1525945052627502
 40
0.3054077645105566
 40
0.5406281452054312
 40
0.7761410232968937
 40
0.9796791864300253
 40
0.9965136875876055
 40
0.9999999999999999
 40
0.9999999999999999
 40
0.9999999999999999
 40
0.9999999999999999
 10
186.3937753021231
 20
93.89831171583582
 30
0.0
 10
186.2057907807238
 20
93.75875457958344
 30
0.0
 10
185.8295522500881
 20
93.47944024299615
 30
0.0
 10
185.1206669710797
 20
93.08853629115612
 30
0.0
 10
184.2744517809474
 20
92.75278693313261
 30
0.0
 10
183.3388383544083
 20
92.54289766628577
 30
0.0
 10
182.7002365566672
 20
92.49259201782748
 30
0.0
 10
182.3868534820734
 20
92.49013017110433
 30
0.0
 10
182.3584049778891
 20
92.49010974068295
 30
0.0
 10
182.3535242494226
 20
92.49010623556582
 30
0.0
  0
LINE
  5
FE
330
1F
100
AcDbEntity
  8
0
  6
Continuous
 62
     7
370
    25
100
AcDbLine
 10
182.1535242494
 20
79.780087128
 30
0.0
 11
182.1535242494
 21
82.9901062356
 31
0.0
  0
LINE
  5
FF
330
1F
100
AcDbEntity
  8
0
  6
Continuous
 62
     7
370
    25
100
AcDbLine
 10
182.1535242494
 20
66.9901062356
 30
0.0
 11
182.1535242494
 21
79.780087128
 31
0.0
  0
LINE
  5
100
330
1F
100
AcDbEntity
  8
0
  6
Continuous
 62
     7
370
    25
100
AcDbLine
 10
182.3535242494
 20
79.6603376057
 30
0.0
 11
182.3535242494
 21
67.1901062356
 31
0.0
  0
LINE
  5
101
330
1F
100
AcDbEntity
  8
0
  6
Continuous
 62
     7
370
    25
100
AcDbLine
 10
182.3535242494
 20
82.7901062356
 30
0.0
 11
182.3535242494
 21
79.6603376057
 31
0.0
  0
LINE
  5
102
330
1F
100
AcDbEntity
  8
0
  6
Continuous
 62
     7
370
    25
100
AcDbLine
 10
185.3535242494
 20
76.7863490702
 30
0.0
 11
185.3535242494
 21
77.9901062356
 31
0.0
  0
LINE
  5
103
330
1F
100
AcDbEntity
  8
0
  6
Continuous
 62
     7
370
    25
100
AcDbLine
 10
185.3535242494
 20
71.9901062356
 30
0.0
 11
185.3535242494
 21
76.7863490702
 31
0.0
  0
LINE
  5
104
330
1F
100
AcDbEntity
  8
0
  6
Continuous
 62
     7
370
    25
100
AcDbLine
 10
193.3535242494
 20
76.7863490702
 30
0.0
 11
193.3535242494
 21
77.9901062356
 31
0.0
  0
LINE
  5
105
330
1F
100
AcDbEntity
  8
0
  6
Continuous
 62
     7
370
    25
100
AcDbLine
 10
193.3535242494
 20
71.9901062356
 30
0.0
 11
193.3535242494
 21
76.7863490702
 31
0.0
  0
LINE
  5
106
330
1F
100
AcDbEntity
  8
0
  6
Continuous
 62
     7
370
    25
100
AcDbLine
 10
189.3535242494
 20
76.7863490702
 30
0.0
 11
189.3535242494
 21
77.9901062356
 31
0.0
  0
LINE
  5
107
330
1F
100
AcDbEntity
  8
0
  6
Continuous
 62
     7
370
    25
100
AcDbLine
 10
189.3535242494
 20
71.9901062356
 30
0.0
 11
189.3535242494
 21
76.7863490702
 31
0.0
  0
LINE
  5
108
330
1F
100
AcDbEntity
  8
0
  6
Continuous
 62
     7
370
    25
100
AcDbLine
 10
197.3535242494
 20
76.7863490702
 30
0.0
 11
197.3535242494
 21
77.9901062356
 31
0.0
  0
LINE
  5
109
330
1F
100
AcDbEntity
  8
0
  6
Continuous
 62
     7
370
    25
100
AcDbLine
 10
197.3535242494
 20
71.9901062356
 30
0.0
 11
197.3535242494
 21
76.7863490702
 31
0.0
  0
LINE
  5
10A
330
1F
100
AcDbEntity
  8
0
  6
Continuous
 62
     7
370
    25
100
AcDbLine
 10
204.8612165571
 20
72.6477985433
 30
0.0
 11
204.8612165571
 21
77.3324139279
 31
0.0
  0
LINE
  5
10B
330
1F
100
AcDbEntity
  8
0
  6
Continuous
 62
     7
370
    25
100
AcDbLine
 10
201.3535242494
 20
76.7863490702
 30
0.0
 11
201.3535242494
 21
77.9901062356
 31
0.0
  0
LINE
  5
10C
330
1F
100
AcDbEntity
  8
0
  6
Continuous
 62
     7
370
    25
100
AcDbLine
 10
201.3535242494
 20
71.9901062356
 30
0.0
 11
201.3535242494
 21
76.7863490702
 31
0.0
  0
LINE
  5
10D
330
1F
100
AcDbEntity
  8
0
  6
Continuous
 62
     7
370
    25
100
AcDbLine
 10
205.3535242494
 20
76.0977893169
 30
0.0
 11
205.3535242494
 21
73.1401062356
 31
0.0
  0
LINE
  5
10E
330
1F
100
AcDbEntity
  8
0
  6
Continuous
 62
     7
370
    25
100
AcDbLine
 10
205.3535242494
 20
76.8401062356
 30
0.0
 11
205.3535242494
 21
76.0977893169
 31
0.0
  0
LINE
  5
10F
330
1F
100
AcDbEntity
  8
0
  6
Continuous
 62
     7
370
    25
100
AcDbLine
 10
153.5535242494
 20
82.9901062356
 30
0.0
 11
153.5535242494
 21
66.9901062356
 31
0.0
  0
LINE
  5
110
330
1F
100
AcDbEntity
  8
0
  6
Continuous
 62
     7
370
    25
100
AcDbLine
 10
153.3535242494
 20
67.1901062356
 30
0.0
 11
153.3535242494
 21
82.7901062356
 31
0.0
  0
LINE
  5
111
330
1F
100
AcDbEntity
  8
0
  6
Continuous
 62
     7
370
    25
100
AcDbLine
 10
142.3535242494
 20
77.9901062356
 30
0.0
 11
142.3535242494
 21
71.9901062356
 31
0.0
  0
LINE
  5
112
330
1F
100
AcDbEntity
  8
0
  6
Continuous
 62
     7
370
    25
100
AcDbLine
 10
150.3535242494
 20
77.9901062356
 30
0.0
 11
150.3535242494
 21
71.9901062356
 31
0.0
  0
LINE
  5
113
330
1F
100
AcDbEntity
  8
0
  6
Continuous
 62
     7
370
    25
100
AcDbLine
 10
146.3535242494
 20
77.9901062356
 30
0.0
 11
146.3535242494
 21
71.9901062356
 31
0.0
  0
LINE
  5
114
330
1F
100
AcDbEntity
  8
0
  6
Continuous
 62
     7
370
    25
100
AcDbLine
 10
138.3535242494
 20
77.9901062356
 30
0.0
 11
138.3535242494
 21
71.9901062356
 31
0.0
  0
LINE
  5
115
330
1F
100
AcDbEntity
  8
0
  6
Continuous
 62
     7
370
    25
100
AcDbLine
 10
130.8458319417
 20
74.9901062356
 30
0.0
 11
130.8458319417
 21
72.6477985433
 31
0.0
  0
LINE
  5
116
330
1F
100
AcDbEntity
  8
0
  6
Continuous
 62
     7
370
    25
100
AcDbLine
 10
130.8458319417
 20
77.3324139279
 30
0.0
 11
130.8458319417
 21
74.9901062356
 31
0.0
  0
LINE
  5
117
330
1F
100
AcDbEntity
  8
0
  6
Continuous
 62
     7
370
    25
100
AcDbLine
 10
134.3535242494
 20
77.9901062356
 30
0.0
 11
134.3535242494
 21
71.9901062356
 31
0.0
  0
LINE
  5
118
330
1F
100
AcDbEntity
  8
0
  6
Continuous
 62
     7
370
    25
100
AcDbLine
 10
130.3535242494
 20
73.1401062356
 30
0.0
 11
130.3535242494
 21
76.8401062356
 31
0.0
  0
SPLINE
  5
119
330
1F
100
AcDbEntity
  8
0
  6
Continuous
 62
     7
370
    25
100
AcDbSpline
210
0.0
220
0.0
230
1.0
 70
     8
 71
     3
 72
    10
 73
     6
 74
     0
 42
0.00000001
 43
0.00000001
 40
0.0
 40
0.0
 40
0.0
 40
0.0
 40
0.5
 40
0.5
 40
1.0
 40
1.0
 40
1.0
 40
1.0
 10
163.2347220959056
 20
63.66782764082597
 30
0.0
 10
163.9848184577785
 20
63.4610581129024
 30
0.0
 10
164.7462698108582
 20
63.28972590664031
 30
0.0
 10
166.3028738791314
 20
63.05223867901267
 30
0.0
 10
167.0797210575925
 20
62.99010623556582
 30
0.0
 10
167.8535242494226
 20
62.99010623556582
 30
0.0
  0
LINE
  5
11A
330
1F
100
AcDbEntity
  8
0
  6
Continuous
 62
     7
370
    25
100
AcDbLine
 10
163.2347220959
 20
67.0237096957
 30
0.0
 11
163.2347220959
 21
63.6678276408
 31
0.0
  0
SPLINE
  5
11B
330
1F
100
AcDbEntity
  8
0
  6
Continuous
 62
     7
370
    25
100
AcDbSpline
210
0.0
220
0.0
230
1.0
 70
     8
 71
     3
 72
     8
 73
     4
 74
     0
 42
0.00000001
 43
0.00000001
 40
0.0
 40
0.0
 40
0.0
 40
0.0
 40
1.0
 40
1.0
 40
1.0
 40
1.0
 10
163.2347220959056
 20
67.02370969571082
 30
0.0
 10
163.4399079184489
 20
67.08027066283505
 30
0.0
 10
163.6461311191562
 20
67.13421073424888
 30
0.0
 10
163.8535242494227
 20
67.18519502399184
 30
0.0
  0
LINE
  5
11C
330
1F
100
AcDbEntity
  8
0
  6
Continuous
 62
     7
370
    25
100
AcDbLine
 10
163.8535242494
 20
67.185195024
 30
0.0
 11
163.8535242494
 21
70.9901062356
 31
0.0
  0
SPLINE
  5
11D
330
1F
100
AcDbEntity
  8
0
  6
Continuous
 62
     7
370
    25
100
AcDbSpline
210
0.0
220
0.0
230
1.0
 70
     8
 71
     3
 72
     8
 73
     4
 74
     0
 42
0.00000001
 43
0.00000001
 40
0.0
 40
0.0
 40
0.0
 40
0.0
 40
1.0
 40
1.0
 40
1.0
 40
1.0
 10
161.1758028441624
 20
70.37130408204878
 30
0.0
 10
161.2323662136307
 20
70.57649861955855
 30
0.0
 10
161.2863061364519
 20
70.7827222730757
 30
0.0
 10
161.3372881724435
 20
70.99010623556582
 30
0.0
  0
LINE
  5
11E
330
1F
100
AcDbEntity
  8
0
  6
Continuous
 62
     7
370
    25
100
AcDbLine
 10
157.0312456547
 20
70.371304082
 30
0.0
 11
161.1758028442
 21
70.371304082
 31
0.0
  0
SPLINE
  5
11F
330
1F
100
AcDbEntity
  8
0
  6
Continuous
 62
     7
370
    25
100
AcDbSpline
210
0.0
220
0.0
230
1.0
 70
     8
 71
     3
 72
    10
 73
     6
 74
     0
 42
0.00000001
 43
0.00000001
 40
0.0
 40
0.0
 40
0.0
 40
0.0
 40
0.5
 40
0.5
 40
1.0
 40
1.0
 40
1.0
 40
1.0
 10
157.0312456546828
 20
70.37130408204881
 30
0.0
 10
156.8231769784516
 20
71.1261133550981
 30
0.0
 10
156.6527779724271
 20
71.88685974233
 30
0.0
 10
156.4176179927282
 20
73.42500211995326
 30
0.0
 10
156.3535242494226
 20
74.20250327247807
 30
0.0
 10
156.3535242494226
 20
74.99010623556582
 30
0.0
  0
SPLINE
  5
120
330
1F
100
AcDbEntity
  8
0
  6
Continuous
 62
     7
370
    25
100
AcDbSpline
210
0.0
220
0.0
230
1.0
 70
     8
 71
     3
 72
    12
 73
     8
 74
     0
 42
0.00000001
 43
0.00000001
 40
0.0
 40
0.0
 40
0.0
 40
0.0
 40
0.2500000000000001
 40
0.2500000000000001
 40
0.5000000000000001
 40
0.5000000000000001
 40
1.0
 40
1.0
 40
1.0
 40
1.0
 10
156.3535242494226
 20
74.99010623556582
 30
0.0
 10
156.3535242494226
 20
75.38442431623767
 30
0.0
 10
156.3695230544037
 20
75.77808336018809
 30
0.0
 10
156.4312931927181
 20
76.55761935973344
 30
0.0
 10
156.4770353170197
 20
76.94457254785885
 30
0.0
 10
156.6537054643665
 20
78.09795911071286
 30
0.0
 10
156.8239605298469
 20
78.85694159991789
 30
0.0
 10
157.0312456546828
 20
79.60890838908283
 30
0.0
  0
LINE
  5
121
330
1F
100
AcDbEntity
  8
0
  6
Continuous
 62
     7
370
    25
100
AcDbLine
 10
161.1758028442
 20
79.6089083891
 30
0.0
 11
157.0312456547
 21
79.6089083891
 31
0.0
  0
SPLINE
  5
122
330
1F
100
AcDbEntity
  8
0
  6
Continuous
 62
     7
370
    25
100
AcDbSpline
210
0.0
220
0.0
230
1.0
 70
     8
 71
     3
 72
     8
 73
     4
 74
     0
 42
0.00000001
 43
0.00000001
 40
0.0
 40
0.0
 40
0.0
 40
0.0
 40
1.0
 40
1.0
 40
1.0
 40
1.0
 10
161.3372881724435
 20
78.99010623556582
 30
0.0
 10
161.2863894555209
 20
79.19715127399482
 30
0.0
 10
161.2324553192702
 20
79.40339060367145
 30
0.0
 10
161.1758028441624
 20
79.60890838908283
 30
0.0
  0
SPLINE
  5
123
330
1F
100
AcDbEntity
  8
0
  6
Continuous
 62
     7
370
    25
100
AcDbSpline
210
0.0
220
0.0
230
1.0
 70
     8
 71
     3
 72
     8
 73
     4
 74
     0
 42
0.00000001
 43
0.00000001
 40
0.0
 40
0.0
 40
0.0
 40
0.0
 40
1.0
 40
1.0
 40
1.0
 40
1.0
 10
174.3697603264018
 20
78.99010623556589
 30
0.0
 10
174.4206565596569
 20
79.19714117096966
 30
0.0
 10
174.4745905146206
 20
79.40338093603465
 30
0.0
 10
174.5312456546828
 20
79.60890838908284
 30
0.0
  0
LINE
  5
124
330
1F
100
AcDbEntity
  8
0
  6
Continuous
 62
     7
370
    25
100
AcDbLine
 10
178.6758028442
 20
79.6089083891
 30
0.0
 11
174.5312456547
 21
79.6089083891
 31
0.0
  0
SPLINE
  5
125
330
1F
100
AcDbEntity
  8
0
  6
Continuous
 62
     7
370
    25
100
AcDbSpline
210
0.0
220
0.0
230
1.0
 70
     8
 71
     3
 72
    12
 73
     8
 74
     0
 42
0.00000001
 43
0.00000001
 40
0.0
 40
0.0
 40
0.0
 40
0.0
 40
0.25
 40
0.25
 40
0.5
 40
0.5
 40
1.0
 40
1.0
 40
1.0
 40
1.0
 10
179.3535242494226
 20
74.99010623556582
 30
0.0
 10
179.3535242494226
 20
75.38177816194074
 30
0.0
 10
179.3376184437545
 20
75.77668105346235
 30
0.0
 10
179.275773572862
 20
76.55761708370964
 30
0.0
 10
179.2299602319958
 20
76.94502521564092
 30
0.0
 10
179.0531270580935
 20
78.0991548423009
 30
0.0
 10
178.8828487945898
 20
78.85780925123743
 30
0.0
 10
178.6758028441624
 20
79.60890838908283
 30
0.0
  0
SPLINE
  5
126
330
1F
100
AcDbEntity
  8
0
  6
Continuous
 62
     7
370
    25
100
AcDbSpline
210
0.0
220
0.0
230
1.0
 70
     8
 71
     3
 72
    10
 73
     6
 74
     0
 42
0.00000001
 43
0.00000001
 40
0.0
 40
0.0
 40
0.0
 40
0.0
 40
0.5
 40
0.5
 40
1.0
 40
1.0
 40
1.0
 40
1.0
 10
178.6758028441624
 20
70.37130408204881
 30
0.0
 10
178.8846081833863
 20
71.12878574225437
 30
0.0
 10
179.0551550275455
 20
71.89125329069783
 30
0.0
 10
179.2899373549273
 20
73.42971742503721
 30
0.0
 10
179.3535242494226
 20
74.20584010347976
 30
0.0
 10
179.3535242494226
 20
74.99010623556582
 30
0.0
  0
LINE
  5
127
330
1F
100
AcDbEntity
  8
0
  6
Continuous
 62
     7
370
    25
100
AcDbLine
 10
174.5312456547
 20
70.371304082
 30
0.0
 11
178.6758028442
 21
70.371304082
 31
0.0
  0
SPLINE
  5
128
330
1F
100
AcDbEntity
  8
0
  6
Continuous
 62
     7
370
    25
100
AcDbSpline
210
0.0
220
0.0
230
1.0
 70
     8
 71
     3
 72
     8
 73
     4
 74
     0
 42
0.00000001
 43
0.00000001
 40
0.0
 40
0.0
 40
0.0
 40
0.0
 40
1.0
 40
1.0
 40
1.0
 40
1.0
 10
174.5312456546828
 20
70.37130408204878
 30
0.0
 10
174.4746838112459
 20
70.5764930835856
 30
0.0
 10
174.4207437939895
 20
70.7827164496503
 30
0.0
 10
174.3697603264018
 20
70.99010623556576
 30
0.0
  0
LINE
  5
129
330
1F
100
AcDbEntity
  8
0
  6
Continuous
 62
     7
370
    25
100
AcDbLine
 10
174.3697603264
 20
70.9901062356
 30
0.0
 11
171.8535242494
 21
70.9901062356
 31
0.0
  0
LINE
  5
12A
330
1F
100
AcDbEntity
  8
0
  6
Continuous
 62
     7
370
    25
100
AcDbLine
 10
171.8535242494
 20
67.185195024
 30
0.0
 11
171.8535242494
 21
70.9901062356
 31
0.0
  0
SPLINE
  5
12B
330
1F
100
AcDbEntity
  8
0
  6
Continuous
 62
     7
370
    25
100
AcDbSpline
210
0.0
220
0.0
230
1.0
 70
     8
 71
     3
 72
     8
 73
     4
 74
     0
 42
0.00000001
 43
0.00000001
 40
0.0
 40
0.0
 40
0.0
 40
0.0
 40
1.0
 40
1.0
 40
1.0
 40
1.0
 10
171.8535242494226
 20
67.18519502399184
 30
0.0
 10
172.060553312758
 20
67.134300234291
 30
0.0
 10
172.2667933300274
 20
67.08036638492958
 30
0.0
 10
172.4723264029396
 20
67.02370969571082
 30
0.0
  0
LINE
  5
12C
330
1F
100
AcDbEntity
  8
0
  6
Continuous
 62
     7
370
    25
100
AcDbLine
 10
172.4723264029
 20
63.6678276408
 30
0.0
 11
172.4723264029
 21
67.0237096957
 31
0.0
  0
SPLINE
  5
12D
330
1F
100
AcDbEntity
  8
0
  6
Continuous
 62
     7
370
    25
100
AcDbSpline
210
0.0
220
0.0
230
1.0
 70
     8
 71
     3
 72
    10
 73
     6
 74
     0
 42
0.00000001
 43
0.00000001
 40
0.0
 40
0.0
 40
0.0
 40
0.0
 40
0.4999999999999999
 40
0.4999999999999999
 40
1.0
 40
1.0
 40
1.0
 40
1.0
 10
167.8535242494226
 20
62.99010623556582
 30
0.0
 10
168.6296517124473
 20
62.99010623556582
 30
0.0
 10
169.4031757643715
 20
63.05246764347005
 30
0.0
 10
170.9456380236314
 20
63.28703854471297
 30
0.0
 10
171.7189189056754
 20
63.46014537430435
 30
0.0
 10
172.4723264029396
 20
63.66782764082601
 30
0.0
  0
ARC
  5
12E
330
1F
100
AcDbEntity
  8
0
  6
Continuous
 62
     7
370
    25
100
AcDbCircle
 10
169.4042556051
 20
74.4131872423
 30
0.0
 40
0.889000000000007
100
AcDbArc
 50
45.0
 51
315.0
  0
LINE
  5
12F
330
1F
100
AcDbEntity
  8
0
  6
Continuous
 62
     7
370
    25
100
AcDbLine
 10
170.0328735336
 20
75.0418051707
 30
0.0
 11
170.4994839192
 21
75.5084155564
 31
0.0
  0
ARC
  5
130
330
1F
100
AcDbEntity
  8
0
  6
Continuous
 62
     7
370
    25
100
AcDbCircle
 10
169.4042556051
 20
74.4131872423
 30
0.0
 40
1.548886735692424
100
AcDbArc
 50
45.0
 51
315.0
  0
LINE
  5
131
330
1F
100
AcDbEntity
  8
0
  6
Continuous
 62
     7
370
    25
100
AcDbLine
 10
170.4994839192
 20
73.3179589282
 30
0.0
 11
170.0328735336
 21
73.7845693138
 31
0.0
  0
ARC
  5
132
330
1F
100
AcDbEntity
  8
0
  6
Continuous
 62
     7
370
    25
100
AcDbCircle
 10
172.7464002015
 20
74.4131872423
 30
0.0
 40
0.8889999999999768
100
AcDbArc
 50
45.0
 51
159.0751675724
  0
LINE
  5
133
330
1F
100
AcDbEntity
  8
0
  6
Continuous
 62
     7
370
    25
100
AcDbLine
 10
173.37501813
 20
75.0418051707
 30
0.0
 11
173.8416285156
 21
75.5084155564
 31
0.0
  0
ARC
  5
134
330
1F
100
AcDbEntity
  8
0
  6
Continuous
 62
     7
370
    25
100
AcDbCircle
 10
172.7464002015
 20
74.4131872423
 30
0.0
 40
1.548886735692394
100
AcDbArc
 50
45.0
 51
315.0
  0
LINE
  5
135
330
1F
100
AcDbEntity
  8
0
  6
Continuous
 62
     7
370
    25
100
AcDbLine
 10
173.8416285156
 20
73.3179589282
 30
0.0
 11
173.37501813
 21
73.7845693138
 31
0.0
  0
ARC
  5
136
330
1F
100
AcDbEntity
  8
0
  6
Continuous
 62
     7
370
    25
100
AcDbCircle
 10
172.7464002015
 20
74.4131872423
 30
0.0
 40
0.889000000000014
100
AcDbArc
 50
200.9248324276
 51
315.0
  0
LINE
  5
137
330
1F
100
AcDbEntity
  8
0
  6
Continuous
 62
     7
370
    25
100
AcDbLine
 10
171.9160299528
 20
74.0956872423
 30
0.0
 11
173.8416285156
 21
74.0956872423
 31
0.0
  0
LINE
  5
138
330
1F
100
AcDbEntity
  8
0
  6
Continuous
 62
     7
370
    25
100
AcDbLine
 10
173.8416285156
 20
74.0956872423
 30
0.0
 11
173.8416285156
 21
74.7306872423
 31
0.0
  0
LINE
  5
139
330
1F
100
AcDbEntity
  8
0
  6
Continuous
 62
     7
370
    25
100
AcDbLine
 10
173.8416285156
 20
74.7306872423
 30
0.0
 11
171.9160299528
 21
74.7306872423
 31
0.0
  0
LINE
  5
13A
330
1F
100
AcDbEntity
  8
0
  6
Continuous
 62
     7
370
    25
100
AcDbLine
 10
166.9517653354
 20
73.567733218
 30
0.0
 11
166.9101150162
 21
73.5439282881
 31
0.0
  0
ELLIPSE
  5
13B
330
1F
100
AcDbEntity
  8
0
  6
Continuous
 62
     7
370
    25
100
AcDbEllipse
 10
166.5612718366
 20
74.0986107593
 30
0.0
 11
0.6784129479252385
 21
6.110667527536862E-13
 31
0.0
210
0.0
220
0.0
230
1.0
 40
0.9533039403
 41
3.470145824140252
 42
5.252469180536326
  0
LINE
  5
13C
330
1F
100
AcDbEntity
  8
0
  6
Continuous
 62
     7
370
    25
100
AcDbLine
 10
165.9191470696
 20
73.8899266444
 30
0.0
 11
164.6594928647
 21
77.412371041
 31
0.0
  0
ELLIPSE
  5
13D
330
1F
100
AcDbEntity
  8
0
  6
Continuous
 62
     7
370
    25
100
AcDbEllipse
 10
164.0685103068
 20
77.150031805
 30
0.0
 11
0.6519124952381503
 21
6.110667527536862E-13
 31
0.0
210
0.0
220
0.0
230
1.0
 40
0.9533023292
 41
0.4357905044354566
 42
2.705800116361515
  0
LINE
  5
13E
330
1F
100
AcDbEntity
  8
0
  6
Continuous
 62
     7
370
    25
100
AcDbLine
 10
163.4775283083
 20
77.4123721863
 30
0.0
 11
162.2181635066
 21
73.8907487846
 31
0.0
  0
ELLIPSE
  5
13F
330
1F
100
AcDbEntity
  8
0
  6
Continuous
 62
     7
370
    25
100
AcDbEllipse
 10
161.5760423226
 20
74.0994316182
 30
0.0
 11
-0.6784085062757867
 21
3.126388037344441E-13
 31
0.0
210
0.0
220
0.0
230
1.0
 40
0.9533122623
 41
1.047193771187946
 42
2.813042320199902
  0
LINE
  5
140
330
1F
100
AcDbEntity
  8
0
  6
Continuous
 62
     7
370
    25
100
AcDbLine
 10
161.2368358486
 20
73.539343773
 30
0.0
 11
161.1852552781
 21
73.567733218
 31
0.0
  0
LINE
  5
141
330
1F
100
AcDbEntity
  8
0
  6
Continuous
 62
     7
370
    25
100
AcDbLine
 10
161.1852552781
 20
73.567733218
 30
0.0
 11
161.9815239376
 21
72.0495611166
 31
0.0
  0
ELLIPSE
  5
142
330
1F
100
AcDbEntity
  8
0
  6
Continuous
 62
     7
370
    25
100
AcDbEllipse
 10
162.057372811
 20
72.0857146315
 30
0.0
 11
0.08480161849064416
 21
-2.842170943040401E-14
 31
0.0
210
0.0
220
0.0
230
1.0
 40
0.9533039403
 41
3.605240262590998
 42
5.462183310215358
  0
ELLIPSE
  5
143
330
1F
100
AcDbEntity
  8
0
  6
Continuous
 62
     7
370
    25
100
AcDbEllipse
 10
164.0685103068
 20
70.026866011
 30
0.0
 11
2.866293551216188
 21
-1.477928890381008E-12
 31
0.0
210
0.0
220
0.0
230
1.0
 40
0.9533046568
 41
0.8210016221243828
 42
2.320591031466437
  0
ELLIPSE
  5
144
330
1F
100
AcDbEntity
  8
0
  6
Continuous
 62
     7
370
    25
100
AcDbEllipse
 10
166.0796478025
 20
72.0857146315
 30
0.0
 11
0.08480161849061574
 21
0.0
 31
0.0
210
0.0
220
0.0
230
1.0
 40
0.9533039403
 41
3.962594650556246
 42
5.819537698177028
  0
LINE
  5
145
330
1F
100
AcDbEntity
  8
0
  6
Continuous
 62
     7
370
    25
100
AcDbLine
 10
166.1554966759
 20
72.0495611166
 30
0.0
 11
166.9517653354
 21
73.567733218
 31
0.0
  0
LINE
  5
146
330
1F
100
AcDbEntity
  8
0
  6
Continuous
 62
     7
370
    25
100
AcDbLine
 10
163.8535242494
 20
70.9901062356
 30
0.0
 11
161.3372881724
 21
70.9901062356
 31
0.0
  0
LINE
  5
147
330
1F
100
AcDbEntity
  8
0
  6
Continuous
 62
     7
370
    25
100
AcDbLine
 10
174.3697603264
 20
78.9901062356
 30
0.0
 11
161.3372881724
 21
78.9901062356
 31
0.0
  0
LINE
  5
148
330
1F
100
AcDbEntity
  8
0
  6
Continuous
 62
     7
370
    25
100
AcDbLine
 10
161.8535242494
 20
82.3513221677
 30
0.0
 11
161.8535242494
 21
78.9901062356
 31
0.0
  0
SPLINE
  5
149
330
1F
100
AcDbEntity
  8
0
  6
Continuous
 62
     7
370
    25
100
AcDbSpline
210
0.0
220
0.0
230
1.0
 70
     8
 71
     3
 72
    10
 73
     6
 74
     0
 42
0.00000001
 43
0.00000001
 40
0.0
 40
0.0
 40
0.0
 40
0.0
 40
0.5
 40
0.5
 40
1.0
 40
1.0
 40
1.0
 40
1.0
 10
161.1758028441624
 20
80.04192109097505
 30
0.0
 10
161.1521274497381
 20
79.99897756007383
 30
0.0
 10
161.1390363398534
 20
79.9355351154497
 30
0.0
 10
161.1389500185651
 20
79.78305627833072
 30
0.0
 10
161.152118952509
 20
79.69482627622345
 30
0.0
 10
161.1758028441624
 20
79.60890838908283
 30
0.0
  0
SPLINE
  5
14A
330
1F
100
AcDbEntity
  8
0
  6
Continuous
 62
     7
370
    25
100
AcDbSpline
210
0.0
220
0.0
230
1.0
 70
     8
 71
     3
 72
    12
 73
     8
 74
     0
 42
0.00000001
 43
0.00000001
 40
0.0
 40
0.0
 40
0.0
 40
0.0
 40
0.2500000000000001
 40
0.2500000000000001
 40
0.5000000000000002
 40
0.5000000000000002
 40
1.0
 40
1.0
 40
1.0
 40
1.0
 10
161.8535242494226
 20
82.35132216773356
 30
0.0
 10
161.8535242494226
 20
82.15557990485405
 30
0.0
 10
161.8376813133337
 20
81.95891329566348
 30
0.0
 10
161.776178453096
 20
81.56964506833519
 30
0.0
 10
161.7305748120523
 20
81.37624103538228
 30
0.0
 10
161.5541237945631
 20
80.79931198412551
 30
0.0
 10
161.3837264273112
 20
80.41906255092252
 30
0.0
 10
161.1758028441624
 20
80.04192109097505
 30
0.0
  0
SPLINE
  5
14B
330
1F
100
AcDbEntity
  8
0
  6
Continuous
 62
     7
370
    25
100
AcDbSpline
210
0.0
220
0.0
230
1.0
 70
     8
 71
     3
 72
    10
 73
     6
 74
     0
 42
0.00000001
 43
0.00000001
 40
0.0
 40
0.0
 40
0.0
 40
0.0
 40
0.5
 40
0.5
 40
1.0
 40
1.0
 40
1.0
 40
1.0
 10
174.5312456546828
 20
79.60890838908283
 30
0.0
 10
174.5549210491072
 20
79.69479545088528
 30
0.0
 10
174.5680121589918
 20
79.78220265986539
 30
0.0
 10
174.5680984802801
 20
79.93483910245912
 30
0.0
 10
174.5549295463363
 20
79.99896214740471
 30
0.0
 10
174.5312456546828
 20
80.04192109097502
 30
0.0
  0
LINE
  5
14C
330
1F
100
AcDbEntity
  8
0
  6
Continuous
 62
     7
370
    25
100
AcDbLine
 10
174.5312456547
 20
80.041921091
 30
0.0
 11
178.6758028442
 21
80.041921091
 31
0.0
  0
SPLINE
  5
14D
330
1F
100
AcDbEntity
  8
0
  6
Continuous
 62
     7
370
    25
100
AcDbSpline
210
0.0
220
0.0
230
1.0
 70
     8
 71
     3
 72
    10
 73
     6
 74
     0
 42
0.00000001
 43
0.00000001
 40
0.0
 40
0.0
 40
0.0
 40
0.0
 40
0.5
 40
0.5
 40
1.0
 40
1.0
 40
1.0
 40
1.0
 10
178.6758028441624
 20
79.60890838908283
 30
0.0
 10
178.6521289436065
 20
79.69479003158929
 30
0.0
 10
178.6390363864273
 20
79.78219923755472
 30
0.0
 10
178.6389499724451
 20
79.93484172262966
 30
0.0
 10
178.6521203640437
 20
79.99896470771202
 30
0.0
 10
178.6758028441624
 20
80.04192109097505
 30
0.0
  0
ELLIPSE
  5
14E
330
1F
100
AcDbEntity
  8
0
  6
Continuous
 62
     7
370
    25
100
AcDbEllipse
 10
163.7997632429
 20
74.4965160961
 30
0.0
 11
0.08480161849067258
 21
-1.421085471520200E-14
 31
0.0
210
0.0
220
0.0
230
1.0
 40
0.9533039403
 41
2.798568711308498
 42
4.712388980384862
  0
LINE
  5
14F
330
1F
100
AcDbEntity
  8
0
  6
Continuous
 62
     7
370
    25
100
AcDbLine
 10
164.0235761858
 20
75.334288725
 30
0.0
 11
163.7199020047
 21
74.5237061081
 31
0.0
  0
LINE
  5
150
330
1F
100
AcDbEntity
  8
0
  6
Continuous
 62
     7
370
    25
100
AcDbLine
 10
164.4869728401
 20
74.5237061078
 30
0.0
 11
164.1832986624
 21
75.334288725
 31
0.0
  0
ELLIPSE
  5
151
330
1F
100
AcDbEntity
  8
0
  6
Continuous
 62
     7
370
    25
100
AcDbEllipse
 10
164.4071116017
 20
74.4965160961
 30
0.0
 11
-0.08480161849067258
 21
-4.263256414560601E-14
 31
0.0
210
0.0
220
0.0
230
1.0
 40
0.9533039403
 41
1.570796326794417
 42
3.484616592149587
  0
LINE
  5
152
330
1F
100
AcDbEntity
  8
0
  6
Continuous
 62
     7
370
    25
100
AcDbLine
 10
163.7997632429
 20
74.4156743791
 30
0.0
 11
164.4071116017
 21
74.4156743791
 31
0.0
  0
ELLIPSE
  5
153
330
1F
100
AcDbEntity
  8
0
  6
Continuous
 62
     7
370
    25
100
AcDbEllipse
 10
164.1034374241
 20
75.3070987132
 30
0.0
 11
0.08480161849067258
 21
0.0
 31
0.0
210
0.0
220
0.0
230
1.0
 40
0.9533039403
 41
0.3430239404206357
 42
2.79856871316927
  0
LINE
  5
154
330
1F
100
AcDbEntity
  8
0
  6
Continuous
 62
     7
370
    25
100
AcDbLine
 10
179.3535242494
 20
82.3513221677
 30
0.0
 11
179.3535242494
 21
74.9901062356
 31
0.0
  0
SPLINE
  5
155
330
1F
100
AcDbEntity
  8
0
  6
Continuous
 62
     7
370
    25
100
AcDbSpline
210
0.0
220
0.0
230
1.0
 70
     8
 71
     3
 72
    12
 73
     8
 74
     0
 42
0.00000001
 43
0.00000001
 40
0.0
 40
0.0
 40
0.0
 40
0.0
 40
0.2500000000000001
 40
0.2500000000000001
 40
0.5000000000000002
 40
0.5000000000000002
 40
1.0
 40
1.0
 40
1.0
 40
1.0
 10
179.3535242494226
 20
82.35132216773356
 30
0.0
 10
179.3535242494226
 20
82.15631868772776
 30
0.0
 10
179.3377779194007
 20
81.95978402870335
 30
0.0
 10
179.2763328948152
 20
81.5703643410978
 30
0.0
 10
179.2307441355615
 20
81.37687964803754
 30
0.0
 10
179.0542931333049
 20
80.79969604928195
 30
0.0
 10
178.8838354313414
 20
80.41926026749897
 30
0.0
 10
178.6758028441626
 20
80.04192109097504
 30
0.0
  0
SPLINE
  5
156
330
1F
100
AcDbEntity
  8
0
  6
Continuous
 62
     7
370
    25
100
AcDbSpline
210
0.0
220
0.0
230
1.0
 70
     8
 71
     3
 72
    10
 73
     6
 74
     0
 42
0.00000001
 43
0.00000001
 40
0.0
 40
0.0
 40
0.0
 40
0.0
 40
0.5
 40
0.5
 40
1.0
 40
1.0
 40
1.0
 40
1.0
 10
174.5312456546796
 20
69.9382913801566
 30
0.0
 10
174.5549210491039
 20
69.98123491105775
 30
0.0
 10
174.5680121589918
 20
70.04467735568154
 30
0.0
 10
174.5680984802802
 20
70.19715619280063
 30
0.0
 10
174.5549295463363
 20
70.28538619490806
 30
0.0
 10
174.5312456546828
 20
70.37130408204881
 30
0.0
  0
SPLINE
  5
157
330
1F
100
AcDbEntity
  8
0
  6
Continuous
 62
     7
370
    25
100
AcDbSpline
210
0.0
220
0.0
230
1.0
 70
     8
 71
     3
 72
    10
 73
     6
 74
     0
 42
0.00000001
 43
0.00000001
 40
0.0
 40
0.0
 40
0.0
 40
0.0
 40
0.5
 40
0.5
 40
1.0
 40
1.0
 40
1.0
 40
1.0
 10
178.6758028441624
 20
69.9382913801566
 30
0.0
 10
178.6521306042509
 20
69.98122918925583
 30
0.0
 10
178.6390366143156
 20
70.04466977914802
 30
0.0
 10
178.6389497468542
 20
70.19715892465688
 30
0.0
 10
178.6521195366135
 20
70.2853883138602
 30
0.0
 10
178.6758028441624
 20
70.37130408204881
 30
0.0
  0
LINE
  5
158
330
1F
100
AcDbEntity
  8
0
  6
Continuous
 62
     7
370
    25
100
AcDbLine
 10
178.6758028442
 20
69.9382913802
 30
0.0
 11
174.5312456547
 21
69.9382913802
 31
0.0
  0
LINE
  5
159
330
1F
100
AcDbEntity
  8
0
  6
Continuous
 62
     7
370
    25
100
AcDbLine
 10
156.3535242494
 20
74.9901062356
 30
0.0
 11
156.3535242494
 21
67.6288903034
 31
0.0
  0
SPLINE
  5
15A
330
1F
100
AcDbEntity
  8
0
  6
Continuous
 62
     7
370
    25
100
AcDbSpline
210
0.0
220
0.0
230
1.0
 70
     8
 71
     3
 72
    10
 73
     6
 74
     0
 42
0.00000001
 43
0.00000001
 40
0.0
 40
0.0
 40
0.0
 40
0.0
 40
0.5
 40
0.5
 40
1.0
 40
1.0
 40
1.0
 40
1.0
 10
157.0312456546828
 20
70.37130408204881
 30
0.0
 10
157.0549195552388
 20
70.28542243954234
 30
0.0
 10
157.0680121124179
 20
70.19801323357693
 30
0.0
 10
157.0680985264002
 20
70.045370748502
 30
0.0
 10
157.0549281348016
 20
69.98124776341963
 30
0.0
 10
157.0312456546828
 20
69.9382913801566
 30
0.0
  0
SPLINE
  5
15B
330
1F
100
AcDbEntity
  8
0
  6
Continuous
 62
     7
370
    25
100
AcDbSpline
210
0.0
220
0.0
230
1.0
 70
     8
 71
     3
 72
    12
 73
     8
 74
     0
 42
0.00000001
 43
0.00000001
 40
0.0
 40
0.0
 40
0.0
 40
0.0
 40
0.2499999999999999
 40
0.2499999999999999
 40
0.4999999999999998
 40
0.4999999999999998
 40
1.0
 40
1.0
 40
1.0
 40
1.0
 10
156.3535242494226
 20
67.62889030339808
 30
0.0
 10
156.3535242494226
 20
67.82389378340388
 30
0.0
 10
156.3692705794446
 20
68.0204284424283
 30
0.0
 10
156.43071560403
 20
68.40984813003384
 30
0.0
 10
156.4763043632838
 20
68.6033328230941
 30
0.0
 10
156.6527553655403
 20
69.1805164218497
 30
0.0
 10
156.8232130675038
 20
69.56095220363268
 30
0.0
 10
157.0312456546827
 20
69.93829138015661
 30
0.0
  0
SPLINE
  5
15C
330
1F
100
AcDbEntity
  8
0
  6
Continuous
 62
     7
370
    25
100
AcDbSpline
210
0.0
220
0.0
230
1.0
 70
     8
 71
     3
 72
    10
 73
     6
 74
     0
 42
0.00000001
 43
0.00000001
 40
0.0
 40
0.0
 40
0.0
 40
0.0
 40
0.5
 40
0.5
 40
1.0
 40
1.0
 40
1.0
 40
1.0
 10
161.1758028441624
 20
70.37130408204881
 30
0.0
 10
161.152127449738
 20
70.28541702024634
 30
0.0
 10
161.1390363398534
 20
70.19800981126623
 30
0.0
 10
161.1389500185651
 20
70.04537336867249
 30
0.0
 10
161.152118952509
 20
69.9812503237269
 30
0.0
 10
161.1758028441624
 20
69.9382913801566
 30
0.0
  0
LINE
  5
15D
330
1F
100
AcDbEntity
  8
0
  6
Continuous
 62
     7
370
    25
100
AcDbLine
 10
161.1758028442
 20
69.9382913802
 30
0.0
 11
157.0312456547
 21
69.9382913802
 31
0.0
  0
SPLINE
  5
15E
330
1F
100
AcDbEntity
  8
0
  6
Continuous
 62
     7
370
    25
100
AcDbSpline
210
0.0
220
0.0
230
1.0
 70
     8
 71
     3
 72
    10
 73
     6
 74
     0
 42
0.00000001
 43
0.00000001
 40
0.0
 40
0.0
 40
0.0
 40
0.0
 40
0.5
 40
0.5
 40
1.0
 40
1.0
 40
1.0
 40
1.0
 10
157.0312456546828
 20
80.04192109097505
 30
0.0
 10
157.0549178945944
 20
79.99898328187581
 30
0.0
 10
157.0680118845297
 20
79.93554269198361
 30
0.0
 10
157.0680987519911
 20
79.78305354647478
 30
0.0
 10
157.0549289622317
 20
79.69482415727146
 30
0.0
 10
157.0312456546828
 20
79.60890838908283
 30
0.0
  0
LINE
  5
15F
330
1F
100
AcDbEntity
  8
0
  6
Continuous
 62
     7
370
    25
100
AcDbLine
 10
157.0312456547
 20
80.041921091
 30
0.0
 11
161.1758028442
 21
80.041921091
 31
0.0
  0
SPLINE
  5
160
330
1F
100
AcDbEntity
  8
0
  6
Continuous
 62
     7
370
    25
100
AcDbSpline
210
0.0
220
0.0
230
1.0
 70
     8
 71
     3
 72
     8
 73
     4
 74
     0
 42
0.00000001
 43
0.00000001
 40
0.0
 40
0.0
 40
0.0
 40
0.0
 40
1.0
 40
1.0
 40
1.0
 40
1.0
 10
173.9749077409188
 20
68.57998470224058
 30
0.0
 10
173.9337924652775
 20
68.71601509673013
 30
0.0
 10
173.8933034824097
 20
68.85271916136756
 30
0.0
 10
173.8535242494226
 20
68.99010623556582
 30
0.0
  0
LINE
  5
161
330
1F
100
AcDbEntity
  8
0
  6
Continuous
 62
     7
370
    25
100
AcDbLine
 10
173.8535242494
 20
70.9901062356
 30
0.0
 11
173.8535242494
 21
68.9901062356
 31
0.0
  0
SPLINE
  5
162
330
1F
100
AcDbEntity
  8
0
  6
Continuous
 62
     7
370
    25
100
AcDbSpline
210
0.0
220
0.0
230
1.0
 70
     8
 71
     3
 72
     8
 73
     4
 74
     0
 42
0.00000001
 43
0.00000001
 40
0.0
 40
0.0
 40
0.0
 40
0.0
 40
1.0
 40
1.0
 40
1.0
 40
1.0
 10
173.9749077409188
 20
68.57998470224058
 30
0.0
 10
174.0905403509478
 20
69.03853563429833
 30
0.0
 10
174.2844297557683
 20
69.4906052300566
 30
0.0
 10
174.5312456546827
 20
69.93829138015634
 30
0.0
  0
SPLINE
  5
163
330
1F
100
AcDbEntity
  8
0
  6
Continuous
 62
     7
370
    25
100
AcDbSpline
210
0.0
220
0.0
230
1.0
 70
     8
 71
     3
 72
     8
 73
     4
 74
     0
 42
0.00000001
 43
0.00000001
 40
0.0
 40
0.0
 40
0.0
 40
0.0
 40
1.0
 40
1.0
 40
1.0
 40
1.0
 10
160.564148064806
 20
67.70073005093708
 30
0.0
 10
160.8731652074478
 20
67.80173515876722
 30
0.0
 10
161.1884829637658
 20
67.89839194783315
 30
0.0
 10
161.5109622906088
 20
67.99010623556582
 30
0.0
  0
SPLINE
  5
164
330
1F
100
AcDbEntity
  8
0
  6
Continuous
 62
     7
370
    25
100
AcDbSpline
210
0.0
220
0.0
230
1.0
 70
     8
 71
     3
 72
    10
 73
     6
 74
     0
 42
0.00000001
 43
0.00000001
 40
0.0
 40
0.0
 40
0.0
 40
0.0
 40
0.5
 40
0.5
 40
1.0
 40
1.0
 40
1.0
 40
1.0
 10
162.8017093940134
 20
67.02370969571082
 30
0.0
 10
162.8446529249146
 20
67.00003430128643
 30
0.0
 10
162.9080953695388
 20
66.98694319140179
 30
0.0
 10
163.0605742066577
 20
66.98685687011351
 30
0.0
 10
163.148804208765
 20
67.00002580405736
 30
0.0
 10
163.2347220959056
 20
67.0237096957108
 30
0.0
  0
SPLINE
  5
165
330
1F
100
AcDbEntity
  8
0
  6
Continuous
 62
     7
370
    25
100
AcDbSpline
210
0.0
220
0.0
230
1.0
 70
     8
 71
     3
 72
    12
 73
     8
 74
     0
 42
0.00000001
 43
0.00000001
 40
0.0
 40
0.0
 40
0.0
 40
0.0
 40
0.2500000000000002
 40
0.2500000000000002
 40
0.5000000000000004
 40
0.5000000000000004
 40
1.0
 40
1.0
 40
1.0
 40
1.0
 10
160.5641480648008
 20
67.70073005093096
 30
0.0
 10
160.754174240104
 20
67.69702156507452
 30
0.0
 10
160.9443893027898
 20
67.67843906223685
 30
0.0
 10
161.3213260619222
 20
67.6135720252707
 30
0.0
 10
161.5086488531817
 20
67.56730647202045
 30
0.0
 10
162.0675588094958
 20
67.39158194171348
 30
0.0
 10
162.4360944676061
 20
67.22527853293673
 30
0.0
 10
162.8017093940134
 20
67.02370969571082
 30
0.0
  0
LINE
  5
166
330
1F
100
AcDbEntity
  8
0
  6
Continuous
 62
     7
370
    25
100
AcDbLine
 10
161.8535242494
 20
70.9901062356
 30
0.0
 11
161.8535242494
 21
68.9901062356
 31
0.0
  0
SPLINE
  5
167
330
1F
100
AcDbEntity
  8
0
  6
Continuous
 62
     7
370
    25
100
AcDbSpline
210
0.0
220
0.0
230
1.0
 70
     8
 71
     3
 72
     8
 73
     4
 74
     0
 42
0.00000001
 43
0.00000001
 40
0.0
 40
0.0
 40
0.0
 40
0.0
 40
1.0
 40
1.0
 40
1.0
 40
1.0
 10
161.8535242494226
 20
68.99010623556582
 30
0.0
 10
161.8137455912324
 20
68.85272114656571
 30
0.0
 10
161.7732566284042
 20
68.71601706475394
 30
0.0
 10
161.7321407579265
 20
68.57998470224058
 30
0.0
  0
SPLINE
  5
168
330
1F
100
AcDbEntity
  8
0
  6
Continuous
 62
     7
370
    25
100
AcDbSpline
210
0.0
220
0.0
230
1.0
 70
     8
 71
     3
 72
     8
 73
     4
 74
     0
 42
0.00000001
 43
0.00000001
 40
0.0
 40
0.0
 40
0.0
 40
0.0
 40
1.0
 40
1.0
 40
1.0
 40
1.0
 10
161.1758028441624
 20
69.9382913801566
 30
0.0
 10
161.4229766250464
 20
69.48995608710527
 30
0.0
 10
161.6166982933503
 20
69.03778159636167
 30
0.0
 10
161.7321407579265
 20
68.57998470224058
 30
0.0
  0
LINE
  5
169
330
1F
100
AcDbEntity
  8
0
  6
Continuous
 62
     7
370
    25
100
AcDbLine
 10
173.8535242494
 20
82.3513221677
 30
0.0
 11
173.8535242494
 21
78.9901062356
 31
0.0
  0
SPLINE
  5
16A
330
1F
100
AcDbEntity
  8
0
  6
Continuous
 62
     7
370
    25
100
AcDbSpline
210
0.0
220
0.0
230
1.0
 70
     8
 71
     3
 72
    10
 73
     6
 74
     0
 42
0.00000001
 43
0.00000001
 40
0.0
 40
0.0
 40
0.0
 40
0.0
 40
0.5
 40
0.5
 40
1.0
 40
1.0
 40
1.0
 40
1.0
 10
174.5312456546828
 20
80.04192109097502
 30
0.0
 10
174.3228249018654
 20
80.41996434037718
 30
0.0
 10
174.152361066588
 20
80.80073384517304
 30
0.0
 10
173.9173786316496
 20
81.56988237073058
 30
0.0
 10
173.8535242494226
 20
81.95830909890581
 30
0.0
 10
173.8535242494226
 20
82.35132216773356
 30
0.0
  0
SPLINE
  5
16B
330
1F
100
AcDbEntity
  8
0
  6
Continuous
 62
     7
370
    25
100
AcDbSpline
210
0.0
220
0.0
230
1.0
 70
     8
 71
     3
 72
    10
 73
     6
 74
     0
 42
0.00000001
 43
0.00000001
 40
0.0
 40
0.0
 40
0.0
 40
0.0
 40
0.5
 40
0.5
 40
1.0
 40
1.0
 40
1.0
 40
1.0
 10
157.0312456546824
 20
80.04192109097502
 30
0.0
 10
156.8224357300161
 20
80.42067023836631
 30
0.0
 10
156.6519015902688
 20
80.8018755147776
 30
0.0
 10
156.4171157852499
 20
81.5711061359654
 30
0.0
 10
156.3535242494226
 20
81.95917384076373
 30
0.0
 10
156.3535242494226
 20
82.35132216773356
 30
0.0
  0
LINE
  5
16C
330
1F
100
AcDbEntity
  8
0
  6
Continuous
 62
     7
370
    25
100
AcDbLine
 10
156.3535242494
 20
74.9901062356
 30
0.0
 11
156.3535242494
 21
82.3513221677
 31
0.0
  0
LINE
  5
16D
330
1F
100
AcDbEntity
  8
0
  6
Continuous
 62
     7
370
    25
100
AcDbLine
 10
179.3535242494
 20
74.9901062356
 30
0.0
 11
179.3535242494
 21
67.6288903034
 31
0.0
  0
SPLINE
  5
16E
330
1F
100
AcDbEntity
  8
0
  6
Continuous
 62
     7
370
    25
100
AcDbSpline
210
0.0
220
0.0
230
1.0
 70
     8
 71
     3
 72
    10
 73
     6
 74
     0
 42
0.00000001
 43
0.00000001
 40
0.0
 40
0.0
 40
0.0
 40
0.0
 40
0.5
 40
0.5
 40
1.0
 40
1.0
 40
1.0
 40
1.0
 10
178.6758028441629
 20
69.93829138015663
 30
0.0
 10
178.8846127688292
 20
69.55954223276534
 30
0.0
 10
179.0551469085764
 20
69.17833695635403
 30
0.0
 10
179.2899327135953
 20
68.40910633516626
 30
0.0
 10
179.3535242494226
 20
68.02103863036793
 30
0.0
 10
179.3535242494226
 20
67.6288903033981
 30
0.0
  0
SPLINE
  5
16F
330
1F
100
AcDbEntity
  8
0
  6
Continuous
 62
     7
370
    25
100
AcDbSpline
210
0.0
220
0.0
230
1.0
 70
     8
 71
     3
 72
     8
 73
     4
 74
     0
 42
0.00000001
 43
0.00000001
 40
0.0
 40
0.0
 40
0.0
 40
0.0
 40
1.0
 40
1.0
 40
1.0
 40
1.0
 10
174.1960862082365
 20
67.99010623556582
 30
0.0
 10
174.5185655350858
 20
67.89839194783137
 30
0.0
 10
174.8338832914097
 20
67.80173515876346
 30
0.0
 10
175.1429004340573
 20
67.7007300509312
 30
0.0
  0
SPLINE
  5
170
330
1F
100
AcDbEntity
  8
0
  6
Continuous
 62
     7
370
    25
100
AcDbSpline
210
0.0
220
0.0
230
1.0
 70
     8
 71
     3
 72
    10
 73
     6
 74
     0
 42
0.00000001
 43
0.00000001
 40
0.0
 40
0.0
 40
0.0
 40
0.0
 40
0.5
 40
0.5
 40
1.0
 40
1.0
 40
1.0
 40
1.0
 10
172.9053391048321
 20
67.02370969571098
 30
0.0
 10
173.2718570516727
 20
67.2257763812619
 30
0.0
 10
173.6409372771385
 20
67.39216915353255
 30
0.0
 10
174.3861896253659
 20
67.62621612740259
 30
0.0
 10
174.7624023973137
 20
67.69330438136143
 30
0.0
 10
175.1429004340573
 20
67.7007300509312
 30
0.0
  0
SPLINE
  5
171
330
1F
100
AcDbEntity
  8
0
  6
Continuous
 62
     7
370
    25
100
AcDbSpline
210
0.0
220
0.0
230
1.0
 70
     8
 71
     3
 72
    10
 73
     6
 74
     0
 42
0.00000001
 43
0.00000001
 40
0.0
 40
0.0
 40
0.0
 40
0.0
 40
0.5
 40
0.5
 40
1.0
 40
1.0
 40
1.0
 40
1.0
 10
172.4723264029396
 20
67.02370969571079
 30
0.0
 10
172.5582134647422
 20
67.00003430128639
 30
0.0
 10
172.6456206737224
 20
66.98694319140176
 30
0.0
 10
172.7982571163163
 20
66.98685687011353
 30
0.0
 10
172.862380161262
 20
67.00002580405747
 30
0.0
 10
172.9053391048323
 20
67.02370969571103
 30
0.0
  0
SPLINE
  5
172
330
1F
100
AcDbEntity
  8
0
  6
Continuous
 62
     7
370
    25
100
AcDbSpline
210
0.0
220
0.0
230
1.0
 70
     8
 71
     3
 72
    10
 73
     6
 74
     0
 42
0.00000001
 43
0.00000001
 40
0.0
 40
0.0
 40
0.0
 40
0.0
 40
0.5
 40
0.5
 40
1.0
 40
1.0
 40
1.0
 40
1.0
 10
162.8017093940134
 20
63.66782764082601
 30
0.0
 10
162.8446472031127
 20
63.69149988073757
 30
0.0
 10
162.9080877930048
 20
63.70459387067283
 30
0.0
 10
163.0605769385137
 20
63.70468073813428
 30
0.0
 10
163.148806327717
 20
63.69151094837491
 30
0.0
 10
163.2347220959056
 20
63.66782764082601
 30
0.0
  0
LINE
  5
173
330
1F
100
AcDbEntity
  8
0
  6
Continuous
 62
     7
370
    25
100
AcDbLine
 10
162.801709394
 20
63.6678276408
 30
0.0
 11
162.801709394
 21
67.0237096957
 31
0.0
  0
SPLINE
  5
174
330
1F
100
AcDbEntity
  8
0
  6
Continuous
 62
     7
370
    25
100
AcDbSpline
210
0.0
220
0.0
230
1.0
 70
     8
 71
     3
 72
    10
 73
     6
 74
     0
 42
0.00000001
 43
0.00000001
 40
0.0
 40
0.0
 40
0.0
 40
0.0
 40
0.5
 40
0.5
 40
1.0
 40
1.0
 40
1.0
 40
1.0
 10
162.8017093940134
 20
63.66782764082554
 30
0.0
 10
162.4229602466222
 20
63.45901771615929
 30
0.0
 10
162.0417549702108
 20
63.28848357641203
 30
0.0
 10
161.2725243490231
 20
63.05369777139311
 30
0.0
 10
160.8844566442247
 20
62.99010623556582
 30
0.0
 10
160.4923083172549
 20
62.99010623556582
 30
0.0
  0
LINE
  5
175
330
1F
100
AcDbEntity
  8
0
  6
Continuous
 62
     7
370
    25
100
AcDbLine
 10
167.8535242494
 20
62.9901062356
 30
0.0
 11
160.4923083173
 21
62.9901062356
 31
0.0
  0
SPLINE
  5
176
330
1F
100
AcDbEntity
  8
0
  6
Continuous
 62
     7
370
    25
100
AcDbSpline
210
0.0
220
0.0
230
1.0
 70
     8
 71
     3
 72
    10
 73
     6
 74
     0
 42
0.00000001
 43
0.00000001
 40
0.0
 40
0.0
 40
0.0
 40
0.0
 40
0.5
 40
0.5
 40
1.0
 40
1.0
 40
1.0
 40
1.0
 10
172.4723264029396
 20
63.66782764082601
 30
0.0
 10
172.5582080454461
 20
63.69150154138197
 30
0.0
 10
172.6456172514115
 20
63.70459409856111
 30
0.0
 10
172.7982597364865
 20
63.70468051254338
 30
0.0
 10
172.8623827215688
 20
63.69151012094476
 30
0.0
 10
172.9053391048319
 20
63.66782764082601
 30
0.0
  0
SPLINE
  5
177
330
1F
100
AcDbEntity
  8
0
  6
Continuous
 62
     7
370
    25
100
AcDbSpline
210
0.0
220
0.0
230
1.0
 70
     8
 71
     3
 72
    12
 73
     8
 74
     0
 42
0.00000001
 43
0.00000001
 40
0.0
 40
0.0
 40
0.0
 40
0.0
 40
0.2499999999999998
 40
0.2499999999999998
 40
0.4999999999999996
 40
0.4999999999999996
 40
1.0
 40
1.0
 40
1.0
 40
1.0
 10
175.2147401815904
 20
62.99010623556582
 30
0.0
 10
175.0197367015846
 20
62.99010623556582
 30
0.0
 10
174.8232020425602
 20
63.00585256558777
 30
0.0
 10
174.4337823549546
 20
63.06729759017321
 30
0.0
 10
174.2402976618943
 20
63.11288634942694
 30
0.0
 10
173.6631140631387
 20
63.28933735168353
 30
0.0
 10
173.2826782813558
 20
63.45979505364703
 30
0.0
 10
172.9053391048319
 20
63.66782764082586
 30
0.0
  0
LINE
  5
178
330
1F
100
AcDbEntity
  8
0
  6
Continuous
 62
     7
370
    25
100
AcDbLine
 10
175.2147401816
 20
62.9901062356
 30
0.0
 11
167.8535242494
 21
62.9901062356
 31
0.0
  0
LINE
  5
179
330
1F
100
AcDbEntity
  8
0
  6
Continuous
 62
     7
370
    25
100
AcDbLine
 10
172.9053391048
 20
67.0237096957
 30
0.0
 11
172.9053391048
 21
63.6678276408
 31
0.0
  0
SPLINE
  5
17A
330
1F
100
AcDbEntity
  8
0
  6
Continuous
 62
     7
370
    25
100
AcDbSpline
210
0.0
220
0.0
230
1.0
 70
     8
 71
     3
 72
    12
 73
     8
 74
     0
 42
0.00000001
 43
0.00000001
 40
0.0
 40
0.0
 40
0.0
 40
0.0
 40
0.2499999999999999
 40
0.2499999999999999
 40
0.4999999999999998
 40
0.4999999999999998
 40
1.0
 40
1.0
 40
1.0
 40
1.0
 10
173.8535242494226
 20
82.35132216773356
 30
0.0
 10
173.8535242494226
 20
82.54706443061308
 30
0.0
 10
173.8693671855116
 20
82.74373103980362
 30
0.0
 10
173.9308700457493
 20
83.13299926713191
 30
0.0
 10
173.976473686793
 20
83.32640330008482
 30
0.0
 10
174.1529247042822
 20
83.90333235134159
 30
0.0
 10
174.323322071534
 20
84.2835817845446
 30
0.0
 10
174.5312456546828
 20
84.66072324449206
 30
0.0
  0
LINE
  5
17B
330
1F
100
AcDbEntity
  8
0
  6
Continuous
 62
     7
370
    25
100
AcDbLine
 10
178.6758028442
 20
84.6607232445
 30
0.0
 11
174.5312456547
 21
84.6607232445
 31
0.0
  0
SPLINE
  5
17C
330
1F
100
AcDbEntity
  8
0
  6
Continuous
 62
     7
370
    25
100
AcDbSpline
210
0.0
220
0.0
230
1.0
 70
     8
 71
     3
 72
    10
 73
     6
 74
     0
 42
0.00000001
 43
0.00000001
 40
0.0
 40
0.0
 40
0.0
 40
0.0
 40
0.5
 40
0.5
 40
1.0
 40
1.0
 40
1.0
 40
1.0
 10
178.6758028441629
 20
84.66072324449209
 30
0.0
 10
178.8846127688292
 20
84.2819740971008
 30
0.0
 10
179.0551469085764
 20
83.90076882068949
 30
0.0
 10
179.2899327135953
 20
83.1315381995017
 30
0.0
 10
179.3535242494226
 20
82.74347049470339
 30
0.0
 10
179.3535242494226
 20
82.35132216773356
 30
0.0
  0
ELLIPSE
  5
17D
330
1F
100
AcDbEntity
  8
0
  6
Continuous
 62
     7
370
    25
100
AcDbEllipse
 10
167.8535242494
 20
65.1751516593
 30
0.0
 11
8.5
 21
0.0
 31
0.0
210
0.0
220
0.0
230
1.0
 40
0.5773502692
 41
2.374833212873085
 42
2.530692279913058
  0
LINE
  5
17E
330
1F
100
AcDbEntity
  8
0
  6
Continuous
 62
     7
370
    25
100
AcDbLine
 10
160.5641480648
 20
67.7007300509
 30
0.0
 11
158.1829072405
 21
65.3194892266
 31
0.0
  0
LINE
  5
17F
330
1F
100
AcDbEntity
  8
0
  6
Continuous
 62
     7
370
    25
100
AcDbLine
 10
157.0312456547
 20
65.3194892266
 30
0.0
 11
158.1829072405
 21
65.3194892266
 31
0.0
  0
SPLINE
  5
180
330
1F
100
AcDbEntity
  8
0
  6
Continuous
 62
     7
370
    25
100
AcDbSpline
210
0.0
220
0.0
230
1.0
 70
     8
 71
     3
 72
    10
 73
     6
 74
     0
 42
0.00000001
 43
0.00000001
 40
0.0
 40
0.0
 40
0.0
 40
0.0
 40
0.5
 40
0.5
 40
1.0
 40
1.0
 40
1.0
 40
1.0
 10
157.0312456546824
 20
65.31948922663955
 30
0.0
 10
156.8224357300161
 20
65.69823837403085
 30
0.0
 10
156.6519015902688
 20
66.07944365044214
 30
0.0
 10
156.4171157852499
 20
66.84867427162992
 30
0.0
 10
156.3535242494226
 20
67.23674197642825
 30
0.0
 10
156.3535242494226
 20
67.62889030339808
 30
0.0
  0
SPLINE
  5
181
330
1F
100
AcDbEntity
  8
0
  6
Continuous
 62
     7
370
    25
100
AcDbSpline
210
0.0
220
0.0
230
1.0
 70
     8
 71
     3
 72
    12
 73
     8
 74
     0
 42
0.00000001
 43
0.00000001
 40
0.0
 40
0.0
 40
0.0
 40
0.0
 40
0.2500000000000002
 40
0.2500000000000002
 40
0.5000000000000001
 40
0.5000000000000001
 40
1.0
 40
1.0
 40
1.0
 40
1.0
 10
160.4923083172549
 20
62.99010623556582
 30
0.0
 10
160.2973048372491
 20
62.9901062355658
 30
0.0
 10
160.1007701782247
 20
63.00585256558777
 30
0.0
 10
159.7113504906192
 20
63.06729759017321
 30
0.0
 10
159.5178657975589
 20
63.11288634942694
 30
0.0
 10
158.9406821988033
 20
63.28933735168353
 30
0.0
 10
158.5602464170203
 20
63.45979505364701
 30
0.0
 10
158.1829072404964
 20
63.66782764082586
 30
0.0
  0
LINE
  5
182
330
1F
100
AcDbEntity
  8
0
  6
Continuous
 62
     7
370
    25
100
AcDbLine
 10
158.1829072405
 20
65.3194892266
 30
0.0
 11
158.1829072405
 21
63.6678276408
 31
0.0
  0
SPLINE
  5
183
330
1F
100
AcDbEntity
  8
0
  6
Continuous
 62
     7
370
    25
100
AcDbSpline
210
0.0
220
0.0
230
1.0
 70
     8
 71
     3
 72
    12
 73
     8
 74
     0
 42
0.00000001
 43
0.00000001
 40
0.0
 40
0.0
 40
0.0
 40
0.0
 40
0.2499999999999999
 40
0.2499999999999999
 40
0.5
 40
0.5
 40
1.0
 40
1.0
 40
1.0
 40
1.0
 10
156.3535242494226
 20
82.35132216773356
 30
0.0
 10
156.3535242494226
 20
82.54632564773935
 30
0.0
 10
156.3692705794446
 20
82.74286030676376
 30
0.0
 10
156.43071560403
 20
83.13227999436931
 30
0.0
 10
156.4763043632838
 20
83.32576468742957
 30
0.0
 10
156.6527553655403
 20
83.90294828618516
 30
0.0
 10
156.8232130675038
 20
84.28338406796813
 30
0.0
 10
157.0312456546827
 20
84.66072324449208
 30
0.0
  0
LINE
  5
184
330
1F
100
AcDbEntity
  8
0
  6
Continuous
 62
     7
370
    25
100
AcDbLine
 10
161.1758028442
 20
84.6607232445
 30
0.0
 11
157.0312456547
 21
84.6607232445
 31
0.0
  0
SPLINE
  5
185
330
1F
100
AcDbEntity
  8
0
  6
Continuous
 62
     7
370
    25
100
AcDbSpline
210
0.0
220
0.0
230
1.0
 70
     8
 71
     3
 72
    10
 73
     6
 74
     0
 42
0.00000001
 43
0.00000001
 40
0.0
 40
0.0
 40
0.0
 40
0.0
 40
0.5
 40
0.5
 40
1.0
 40
1.0
 40
1.0
 40
1.0
 10
161.1758028441624
 20
84.66072324449209
 30
0.0
 10
161.3842235969798
 20
84.28267999508992
 30
0.0
 10
161.5546874322573
 20
83.90191049029407
 30
0.0
 10
161.7896698671957
 20
83.13276196473653
 30
0.0
 10
161.8535242494226
 20
82.74433523656128
 30
0.0
 10
161.8535242494226
 20
82.35132216773356
 30
0.0
  0
SPLINE
  5
186
330
1F
100
AcDbEntity
  8
0
  6
Continuous
 62
     7
370
    25
100
AcDbSpline
210
0.0
220
0.0
230
1.0
 70
     8
 71
     3
 72
    12
 73
     8
 74
     0
 42
0.00000001
 43
0.00000001
 40
0.0
 40
0.0
 40
0.0
 40
0.0
 40
0.2499999999999999
 40
0.2499999999999999
 40
0.5
 40
0.5
 40
1.0
 40
1.0
 40
1.0
 40
1.0
 10
179.3535242494226
 20
67.6288903033981
 30
0.0
 10
179.3535242494226
 20
67.4338868233923
 30
0.0
 10
179.3377779194007
 20
67.23735216436788
 30
0.0
 10
179.2763328948152
 20
66.84793247676234
 30
0.0
 10
179.2307441355615
 20
66.65444778370208
 30
0.0
 10
179.0542931333049
 20
66.07726418494647
 30
0.0
 10
178.8838354313414
 20
65.69682840316352
 30
0.0
 10
178.6758028441626
 20
65.31948922663958
 30
0.0
  0
LINE
  5
187
330
1F
100
AcDbEntity
  8
0
  6
Continuous
 62
     7
370
    25
100
AcDbLine
 10
177.5241412583
 20
65.3194892266
 30
0.0
 11
178.6758028442
 21
65.3194892266
 31
0.0
  0
LINE
  5
188
330
1F
100
AcDbEntity
  8
0
  6
Continuous
 62
     7
370
    25
100
AcDbLine
 10
177.5241412583
 20
65.3194892266
 30
0.0
 11
175.1429004341
 21
67.7007300509
 31
0.0
  0
ELLIPSE
  5
189
330
1F
100
AcDbEntity
  8
0
  6
Continuous
 62
     7
370
    25
100
AcDbEllipse
 10
167.8535242494
 20
65.1751516593
 30
0.0
 11
8.5
 21
0.0
 31
0.0
210
0.0
220
0.0
230
1.0
 40
0.5773502692
 41
0.6109003736767336
 42
0.7667594407167105
  0
LINE
  5
18A
330
1F
100
AcDbEntity
  8
0
  6
Continuous
 62
     7
370
    25
100
AcDbLine
 10
177.5241412583
 20
63.6678276408
 30
0.0
 11
177.5241412583
 21
65.3194892266
 31
0.0
  0
SPLINE
  5
18B
330
1F
100
AcDbEntity
  8
0
  6
Continuous
 62
     7
370
    25
100
AcDbSpline
210
0.0
220
0.0
230
1.0
 70
     8
 71
     3
 72
    10
 73
     6
 74
     0
 42
0.00000001
 43
0.00000001
 40
0.0
 40
0.0
 40
0.0
 40
0.0
 40
0.5
 40
0.5
 40
1.0
 40
1.0
 40
1.0
 40
1.0
 10
177.5241412583489
 20
63.66782764082554
 30
0.0
 10
177.1453921109576
 20
63.45901771615929
 30
0.0
 10
176.7641868345463
 20
63.28848357641203
 30
0.0
 10
175.9949562133585
 20
63.05369777139311
 30
0.0
 10
175.6068885085602
 20
62.99010623556582
 30
0.0
 10
175.2147401815904
 20
62.99010623556582
 30
0.0
  0
LINE
  5
18C
330
1F
100
AcDbEntity
  8
0
  6
Continuous
 62
     7
370
    25
100
AcDbLine
 10
173.8535242494
 20
68.9901062356
 30
0.0
 11
171.8535242494
 21
70.9901062356
 31
0.0
  0
LINE
  5
18D
330
1F
100
AcDbEntity
  8
0
  6
Continuous
 62
     7
370
    25
100
AcDbLine
 10
171.8535242494
 20
67.9901062356
 30
0.0
 11
174.8161453221
 21
67.9901062356
 31
0.0
  0
LINE
  5
18E
330
1F
100
AcDbEntity
  8
0
  6
Continuous
 62
     7
370
    25
100
AcDbLine
 10
163.8535242494
 20
70.9901062356
 30
0.0
 11
161.8535242494
 21
68.9901062356
 31
0.0
  0
LINE
  5
18F
330
1F
100
AcDbEntity
  8
0
  6
Continuous
 62
     7
370
    25
100
AcDbLine
 10
160.8909031768
 20
67.9901062356
 30
0.0
 11
163.8535242494
 21
67.9901062356
 31
0.0
  0
LINE
  5
190
330
1F
100
AcDbEntity
  8
0
  6
Continuous
 62
     7
370
    25
100
AcDbLine
 10
161.8535242494
 20
82.9245607138
 30
0.0
 11
161.8535242494
 21
82.3513221677
 31
0.0
  0
SPLINE
  5
191
330
1F
100
AcDbEntity
  8
0
  6
Continuous
 62
     7
370
    25
100
AcDbSpline
210
0.0
220
0.0
230
1.0
 70
     8
 71
     3
 72
    32
 73
    28
 74
     0
 42
0.00000001
 43
0.00000001
 40
0.0
 40
0.0
 40
0.0
 40
0.0
 40
0.0625000000000001
 40
0.0625000000000001
 40
0.1250000000000001
 40
0.1250000000000001
 40
0.1875000000000002
 40
0.1875000000000002
 40
0.2500000000000003
 40
0.2500000000000003
 40
0.3750000000000003
 40
0.3750000000000003
 40
0.4375000000000003
 40
0.4375000000000003
 40
0.5000000000000002
 40
0.5000000000000002
 40
0.5625000000000002
 40
0.5625000000000002
 40
0.6250000000000001
 40
0.6250000000000001
 40
0.7500000000000001
 40
0.7500000000000001
 40
0.8750000000000002
 40
0.8750000000000002
 40
0.9375000000000001
 40
0.9375000000000001
 40
1.0
 40
1.0
 40
1.0
 40
1.0
 10
173.8535242494142
 20
82.92456071378646
 30
0.0
 10
173.6966679134973
 20
82.82960373589079
 30
0.0
 10
173.5236694793416
 20
82.72685056126559
 30
0.0
 10
173.1469648927158
 20
82.51013935961733
 30
0.0
 10
172.9441121122591
 20
82.39672064912732
 30
0.0
 10
172.5181308494566
 20
82.16863051242915
 30
0.0
 10
172.2939528891685
 20
82.05332362997729
 30
0.0
 10
171.8226017955921
 20
81.82500052760251
 30
0.0
 10
171.573916280227
 20
81.71135051146875
 30
0.0
 10
170.8033437955354
 20
81.38828648023471
 30
0.0
 10
170.2577063854532
 20
81.19538795607123
 30
0.0
 10
169.3749266369569
 20
80.98379403079751
 30
0.0
 10
169.076287537084
 20
80.92815164467977
 30
0.0
 10
168.4697859363683
 20
80.85248357531594
 30
0.0
 10
168.1596386977023
 20
80.83251032953962
 30
0.0
 10
167.5395532090186
 20
80.83284409579288
 30
0.0
 10
167.2329821715506
 20
80.85284306111565
 30
0.0
 10
166.6263274242424
 20
80.92888184731211
 30
0.0
 10
166.3239543596171
 20
80.98553494744368
 30
0.0
 10
165.4473180568641
 20
81.19631349748951
 30
0.0
 10
164.8992639248872
 20
81.38985932806126
 30
0.0
 10
163.8687666576439
 20
81.82247862133707
 30
0.0
 10
163.4012066223644
 20
82.05495526602749
 30
0.0
 10
162.7629930187365
 20
82.39669326694653
 30
0.0
 10
162.5597832805467
 20
82.51031078237492
 30
0.0
 10
162.1834463541522
 20
82.72681317473116
 30
0.0
 10
162.0104677456607
 20
82.82955097117556
 30
0.0
 10
161.8535242494226
 20
82.92456071379164
 30
0.0
  0
LINE
  5
192
330
1F
100
AcDbEntity
  8
0
  6
Continuous
 62
     7
370
    25
100
AcDbLine
 10
173.8535242494
 20
82.9245607138
 30
0.0
 11
173.8535242494
 21
82.3513221677
 31
0.0
  0
SPLINE
  5
193
330
1F
100
AcDbEntity
  8
0
  6
Continuous
 62
     7
370
    25
100
AcDbSpline
210
0.0
220
0.0
230
1.0
 70
     8
 71
     3
 72
    11
 73
     7
 74
     0
 42
0.00000001
 43
0.00000001
 40
0.0
 40
0.0
 40
0.0
 40
0.0
 40
0.0860363962994498
 40
0.3126240132839471
 40
0.544481681962628
 40
1.0
 40
1.0
 40
1.0
 40
1.0
 10
174.0268714368896
 20
83.78300782926694
 30
0.0
 10
174.0280602539098
 20
83.7870214548053
 30
0.0
 10
174.0323799693311
 20
83.8016054654983
 30
0.0
 10
174.0012004610113
 20
83.69504924139602
 30
0.0
 10
173.9187728521034
 20
83.41450130953706
 30
0.0
 10
173.8795300958284
 20
83.1198341657452
 30
0.0
 10
173.8535242494226
 20
82.9245607137845
 30
0.0
  0
SPLINE
  5
194
330
1F
100
AcDbEntity
  8
0
  6
Continuous
 62
     7
370
    25
100
AcDbSpline
210
0.0
220
0.0
230
1.0
 70
     8
 71
     3
 72
    11
 73
     7
 74
     0
 42
0.00000001
 43
0.00000001
 40
0.0
 40
0.0
 40
0.0
 40
0.0
 40
0.3176241894613778
 40
0.6359354861807561
 40
0.8656562134271911
 40
1.0
 40
1.0
 40
1.0
 40
1.0
 10
161.8535242494226
 20
82.92456071379154
 30
0.0
 10
161.8398855320926
 20
83.05582520759819
 30
0.0
 10
161.8125785931882
 20
83.3186381559091
 30
0.0
 10
161.7245734005553
 20
83.63028454847831
 30
0.0
 10
161.6800118843574
 20
83.78403496982321
 30
0.0
 10
161.6803611597148
 20
83.78251963974617
 30
0.0
 10
161.6804900461409
 20
83.78196046637792
 30
0.0
  0
LINE
  5
195
330
1F
100
AcDbEntity
  8
0
  6
Continuous
 62
     7
370
    25
100
AcDbLine
 10
163.0712446226
 20
52.845054295
 30
0.0
 11
172.6358038763
 21
52.845054295
 31
0.0
  0
LINE
  5
196
330
1F
100
AcDbEntity
  8
0
  6
Continuous
 62
     7
370
    25
100
AcDbLine
 10
171.8535242494
 20
51.4901062356
 30
0.0
 11
163.8535242494
 21
51.4901062356
 31
0.0
  0
SPLINE
  5
197
330
1F
100
AcDbEntity
  8
0
  6
Continuous
 62
     7
370
    25
100
AcDbSpline
210
0.0
220
0.0
230
1.0
 70
     8
 71
     3
 72
    10
 73
     6
 74
     0
 42
0.00000001
 43
0.00000001
 40
0.0
 40
0.0
 40
0.0
 40
0.0
 40
0.1601790552921523
 40
0.7197651707804853
 40
1.0
 40
1.0
 40
1.0
 40
1.0
 10
161.1415734110455
 20
84.7230015232418
 30
0.0
 10
161.1408106209523
 20
84.72439375126817
 30
0.0
 10
161.1373830208785
 20
84.7306497329965
 30
0.0
 10
161.1518904856768
 20
84.70414246826859
 30
0.0
 10
161.1698200387947
 20
84.67158661312344
 30
0.0
 10
161.1758028441624
 20
84.66072324449209
 30
0.0
  0
SPLINE
  5
198
330
1F
100
AcDbEntity
  8
0
  6
Continuous
 62
     7
370
    25
100
AcDbSpline
210
0.0
220
0.0
230
1.0
 70
     8
 71
     3
 72
    10
 73
     6
 74
     0
 42
0.00000001
 43
0.00000001
 40
0.0
 40
0.0
 40
0.0
 40
0.0
 40
0.1593935212994637
 40
0.7189934545690476
 40
1.0
 40
1.0
 40
1.0
 40
1.0
 10
178.641565854585
 20
65.25719714717313
 30
0.0
 10
178.6408043275875
 20
65.25580722834651
 30
0.0
 10
178.6373692260716
 20
65.24953757239959
 30
0.0
 10
178.6518638485381
 20
65.27602151422337
 30
0.0
 10
178.6698052190308
 20
65.30859891827023
 30
0.0
 10
178.6758028441624
 20
65.31948922663959
 30
0.0
  0
LINE
  5
199
330
1F
100
AcDbEntity
  8
0
  6
Continuous
 62
     7
370
    25
100
AcDbLine
 10
179.3535242494
 20
67.6288903034
 30
0.0
 11
179.3535242494
 21
66.4901062356
 31
0.0
  0
SPLINE
  5
19A
330
1F
100
AcDbEntity
  8
0
  6
Continuous
 62
     7
370
    25
100
AcDbSpline
210
0.0
220
0.0
230
1.0
 70
     8
 71
     3
 72
     9
 73
     5
 74
     0
 42
0.00000001
 43
0.00000001
 40
0.0
 40
0.0
 40
0.0
 40
0.0
 40
0.5797912171256431
 40
1.0
 40
1.0
 40
1.0
 40
1.0
 10
174.5312456546828
 20
84.66072324449206
 30
0.0
 10
174.5436042580293
 20
84.68319689273319
 30
0.0
 10
174.5649198678237
 20
84.72195851515401
 30
0.0
 10
174.5653108103265
 20
84.72269291991222
 30
0.0
 10
174.5654750877997
 20
84.7230015232418
 30
0.0
  0
SPLINE
  5
19B
330
1F
100
AcDbEntity
  8
0
  6
Continuous
 62
     7
370
    25
100
AcDbSpline
210
0.0
220
0.0
230
1.0
 70
     8
 71
     3
 72
    10
 73
     6
 74
     0
 42
0.00000001
 43
0.00000001
 40
0.0
 40
0.0
 40
0.0
 40
0.0
 40
0.1593935212994522
 40
0.7189934545690309
 40
1.0
 40
1.0
 40
1.0
 40
1.0
 10
157.0654826442603
 20
84.7230153239585
 30
0.0
 10
157.0662441712577
 20
84.72440524278512
 30
0.0
 10
157.0696792727736
 20
84.73067489873206
 30
0.0
 10
157.0551846503072
 20
84.70419095690828
 30
0.0
 10
157.0372432798144
 20
84.6716135528614
 30
0.0
 10
157.0312456546828
 20
84.66072324449206
 30
0.0
  0
LINE
  5
19C
330
1F
100
AcDbEntity
  8
0
  6
Continuous
 62
     7
370
    25
100
AcDbLine
 10
156.3535242494
 20
83.4901062356
 30
0.0
 11
156.3535242494
 21
82.3513221677
 31
0.0
  0
SPLINE
  5
19D
330
1F
100
AcDbEntity
  8
0
  6
Continuous
 62
     7
370
    25
100
AcDbSpline
210
0.0
220
0.0
230
1.0
 70
     8
 71
     3
 72
    10
 73
     6
 74
     0
 42
0.00000001
 43
0.00000001
 40
0.0
 40
0.0
 40
0.0
 40
0.0
 40
0.1593935213061661
 40
0.7189934545756297
 40
1.0
 40
1.0
 40
1.0
 40
1.0
 10
158.12061516103
 20
63.7020646304034
 30
0.0
 10
158.1192252422034
 20
63.70282615740086
 30
0.0
 10
158.1129555862566
 20
63.70626125891672
 30
0.0
 10
158.1394395280806
 20
63.69176663645013
 30
0.0
 10
158.1720169321273
 20
63.6738252659575
 30
0.0
 10
158.1829072404964
 20
63.66782764082601
 30
0.0
  0
LINE
  5
19E
330
1F
100
AcDbEntity
  8
0
  6
Continuous
 62
     7
370
    25
100
AcDbLine
 10
160.4923083173
 20
62.9901062356
 30
0.0
 11
159.3535242494
 21
62.9901062356
 31
0.0
  0
SPLINE
  5
19F
330
1F
100
AcDbEntity
  8
0
  6
Continuous
 62
     7
370
    25
100
AcDbSpline
210
0.0
220
0.0
230
1.0
 70
     8
 71
     3
 72
     9
 73
     5
 74
     0
 42
0.00000001
 43
0.00000001
 40
0.0
 40
0.0
 40
0.0
 40
0.0
 40
0.5789479223911503
 40
1.0
 40
1.0
 40
1.0
 40
1.0
 10
177.5241412583489
 20
63.66782764082601
 30
0.0
 10
177.5465826255415
 20
63.68016853114042
 30
0.0
 10
177.585344949966
 20
63.70148459401434
 30
0.0
 10
177.5861108528251
 20
63.70189276792872
 30
0.0
 10
177.5864333378152
 20
63.7020646304034
 30
0.0
  0
LINE
  5
1A0
330
1F
100
AcDbEntity
  8
0
  6
Continuous
 62
     7
370
    25
100
AcDbLine
 10
176.3535242494
 20
62.9901062356
 30
0.0
 11
175.2147401816
 21
62.9901062356
 31
0.0
  0
SPLINE
  5
1A1
330
1F
100
AcDbEntity
  8
0
  6
Continuous
 62
     7
370
    25
100
AcDbSpline
210
0.0
220
0.0
230
1.0
 70
     8
 71
     3
 72
     9
 73
     5
 74
     0
 42
0.00000001
 43
0.00000001
 40
0.0
 40
0.0
 40
0.0
 40
0.0
 40
0.5789479223839474
 40
0.9999999999999999
 40
0.9999999999999999
 40
0.9999999999999999
 40
0.9999999999999999
 10
157.0312456546828
 20
65.31948922663958
 30
0.0
 10
157.0435865449971
 20
65.29704785944722
 30
0.0
 10
157.064902607871
 20
65.25828553502267
 30
0.0
 10
157.0653107817855
 20
65.25751963216331
 30
0.0
 10
157.0654826442603
 20
65.25719714717313
 30
0.0
  0
LINE
  5
1A2
330
1F
100
AcDbEntity
  8
0
  6
Continuous
 62
     7
370
    25
100
AcDbLine
 10
156.3535242494
 20
67.6288903034
 30
0.0
 11
156.3535242494
 21
66.4901062356
 31
0.0
  0
SPLINE
  5
1A3
330
1F
100
AcDbEntity
  8
0
  6
Continuous
 62
     7
370
    25
100
AcDbSpline
210
0.0
220
0.0
230
1.0
 70
     8
 71
     3
 72
     9
 73
     5
 74
     0
 42
0.00000001
 43
0.00000001
 40
0.0
 40
0.0
 40
0.0
 40
0.0
 40
0.5789479223839434
 40
1.0
 40
1.0
 40
1.0
 40
1.0
 10
178.6758028441624
 20
84.66072324449206
 30
0.0
 10
178.6634619538482
 20
84.68316461168443
 30
0.0
 10
178.6421458909743
 20
84.72192693610899
 30
0.0
 10
178.6417377170597
 20
84.72269283896834
 30
0.0
 10
178.641565854585
 20
84.72301532395852
 30
0.0
  0
LINE
  5
1A4
330
1F
100
AcDbEntity
  8
0
  6
Continuous
 62
     7
370
    25
100
AcDbLine
 10
179.3535242494
 20
83.4901062356
 30
0.0
 11
179.3535242494
 21
82.3513221677
 31
0.0
  0
LINE
  5
1A5
330
1F
100
AcDbEntity
  8
0
  6
Continuous
 62
     7
370
    25
100
AcDbLine
 10
177.5911285565
 20
65.2525019285
 30
0.0
 11
177.5241412583
 21
65.3194892266
 31
0.0
  0
LINE
  5
1A6
330
1F
100
AcDbEntity
  8
0
  6
Continuous
 62
     7
370
    25
100
AcDbLine
 10
158.1829072405
 20
65.3194892266
 30
0.0
 11
158.1159199424
 21
65.2525019285
 31
0.0
  0
LINE
  5
1A7
330
1F
100
AcDbEntity
  8
0
  6
Continuous
 62
     7
370
    25
100
AcDbLine
 10
167.7906413846
 20
104.578048571
 30
0.0
 11
167.7906413846
 21
104.5899991329
 31
0.0
  0
LINE
  5
1A8
330
1F
100
AcDbEntity
  8
0
  6
Continuous
 62
     7
370
    25
100
AcDbLine
 10
167.9164071142
 20
104.578048571
 30
0.0
 11
167.9164071142
 21
104.5899991329
 31
0.0
  0
LINE
  5
1A9
330
1F
100
AcDbEntity
  8
0
  6
Continuous
 62
     7
370
    25
100
AcDbLine
 10
167.8535242494
 20
85.9544827106
 30
0.0
 11
175.3866939976
 21
85.9544827106
 31
0.0
  0
LINE
  5
1AA
330
1F
100
AcDbEntity
  8
0
  6
Continuous
 62
     7
370
    25
100
AcDbLine
 10
160.3203545012
 20
85.9544827106
 30
0.0
 11
167.8535242494
 21
85.9544827106
 31
0.0
  0
LINE
  5
1AB
330
1F
100
AcDbEntity
  8
0
  6
Continuous
 62
     7
370
    25
100
AcDbLine
 10
173.4377060332
 20
103.594062081
 30
0.0
 11
162.2693424657
 21
103.594062081
 31
0.0
  0
SPLINE
  5
1AC
330
1F
100
AcDbEntity
  8
0
  6
Continuous
 62
     7
370
    25
100
AcDbSpline
210
0.0
220
0.0
230
1.0
 70
     8
 71
     3
 72
    30
 73
    26
 74
     0
 42
0.00000001
 43
0.00000001
 40
0.0
 40
0.0
 40
0.0
 40
0.0
 40
0.0110313081051184
 40
0.053277799841644
 40
0.0955514302813095
 40
0.1522058705437671
 40
0.2089599819051645
 40
0.21618950589724
 40
0.2769257563129174
 40
0.3376612329678114
 40
0.3847648555466039
 40
0.4317737216710655
 40
0.4687725867645245
 40
0.5057327121037644
 40
0.5426507587520378
 40
0.5796178828515417
 40
0.6291531184465571
 40
0.6787801059869255
 40
0.731815877400434
 40
0.7848429653889971
 40
0.8294820065847632
 40
0.8740862475776193
 40
0.9165667188203792
 40
0.9590121814954682
 40
1.0
 40
1.0
 40
1.0
 40
1.0
 10
161.9535242494226
 20
84.49010623556583
 30
0.0
 10
161.9543482967689
 20
84.48940840366811
 30
0.0
 10
161.9583281901011
 20
84.48603809184152
 30
0.0
 10
162.0291098990303
 20
84.42568844823619
 30
0.0
 10
162.2503986291296
 20
84.24015835257826
 30
0.0
 10
162.6409616445261
 20
83.91961240763662
 30
0.0
 10
163.0442037306123
 20
83.60593550409628
 30
0.0
 10
163.5110179697012
 20
83.25954621620637
 30
0.0
 10
164.0466458037792
 20
82.87912126920294
 30
0.0
 10
164.8623961817817
 20
82.38109771894229
 30
0.0
 10
165.7039559875462
 20
81.96897984586842
 30
0.0
 10
166.487362906173
 20
81.69198072965354
 30
0.0
 10
167.2603477832771
 20
81.54056357719105
 30
0.0
 10
167.990938087555
 20
81.50241410665754
 30
0.0
 10
168.715660550003
 20
81.58174600308945
 30
0.0
 10
169.4890301397527
 20
81.77424918637607
 30
0.0
 10
170.2794251082937
 20
82.09140877911862
 30
0.0
 10
171.0762290658132
 20
82.5166868184579
 30
0.0
 10
171.8035985133812
 20
82.9791495093756
 30
0.0
 10
172.4177959636226
 20
83.41955579001414
 30
0.0
 10
172.9112807594289
 20
83.79803745050825
 30
0.0
 10
173.2862553057352
 20
84.0997290198176
 30
0.0
 10
173.556778566946
 20
84.32360140299416
 30
0.0
 10
173.7279505482133
 20
84.4683870169942
 30
0.0
 10
173.7433622474106
 20
84.48140275354385
 30
0.0
 10
173.7509334698366
 20
84.48779692430946
 30
0.0
  0
LINE
  5
1AD
330
1F
100
AcDbEntity
  8
0
  6
Continuous
 62
     7
370
    18
100
AcDbLine
 10
163.2267742494
 20
62.4901062356
 30
0.0
 11
163.5543298791
 21
52.0083260863
 31
0.0
  0
LINE
  5
1AE
330
1F
100
AcDbEntity
  8
0
  6
Continuous
 62
     7
370
    18
100
AcDbLine
 10
172.1527186198
 20
52.0083260863
 30
0.0
 11
172.4802742494
 21
62.4901062356
 31
0.0
  0
LINE
  5
1AF
330
1F
100
AcDbEntity
  8
0
  6
CENTERX2
 62
     7
370
    18
100
AcDbLine
 10
167.8535242494
 20
50.845054295
 30
0.0
 11
167.8535242494
 21
106.2810838224
 31
0.0
  0
LINE
  5
1B0
330
1F
100
AcDbEntity
  8
0
  6
CENTERX2
 62
     7
370
    18
100
AcDbLine
 10
128.7175448988
 20
74.9901062356
 30
0.0
 11
207.3535242494
 21
74.9901062356
 31
0.0
  0
ARC
  5
1B1
330
1F
100
AcDbEntity
  8
0
  6
Continuous
 62
     7
370
    25
100
AcDbCircle
 10
232.7453370344
 20
83.9901062356
 30
0.0
 40
20.50000000000001
100
AcDbArc
 50
99.3449833975
 51
102.6803834918
  0
ARC
  5
1B2
330
1F
100
AcDbEntity
  8
0
  6
Continuous
 62
     7
370
    25
100
AcDbCircle
 10
232.7453370344
 20
83.9901062356
 30
0.0
 40
20.5
100
AcDbArc
 50
77.3196165082
 51
80.6550166025
  0
LINE
  5
1B3
330
1F
100
AcDbEntity
  8
0
  6
Continuous
 62
     7
370
    25
100
AcDbLine
 10
232.7441462071
 20
92.4901062356
 30
0.0
 11
232.7465278617
 21
92.4901062356
 31
0.0
  0
LINE
  5
1B4
330
1F
100
AcDbEntity
  8
0
  6
Continuous
 62
     7
370
    25
100
AcDbLine
 10
235.1017016788
 20
105.4901062356
 30
0.0
 11
230.38897239
 21
105.4901062356
 31
0.0
  0
ARC
  5
1B5
330
1F
100
AcDbEntity
  8
0
  6
Continuous
 62
     7
370
    25
100
AcDbCircle
 10
206.8295419879
 20
101.3796668463
 30
0.0
 40
19.99999999999999
100
AcDbArc
 50
333.6100518522
 51
1.749051671
  0
ARC
  5
1B6
330
1F
100
AcDbEntity
  8
0
  6
Continuous
 62
     7
370
    25
100
AcDbCircle
 10
258.6611320809
 20
101.3796668463
 30
0.0
 40
19.99999999999999
100
AcDbArc
 50
178.250948329
 51
206.3899481478
  0
LINE
  5
1B7
330
1F
100
AcDbEntity
  8
0
  6
Continuous
 62
     7
370
    25
100
AcDbLine
 10
224.7453370462
 20
92.4901060705
 30
0.0
 11
225.2121672862
 21
85.9544827106
 31
0.0
  0
LINE
  5
1B8
330
1F
100
AcDbEntity
  8
0
  6
Continuous
 62
     7
370
    25
100
AcDbLine
 10
240.2785067826
 20
85.9544827106
 30
0.0
 11
240.7453370226
 21
92.4901060705
 31
0.0
  0
ARC
  5
1B9
330
1F
100
AcDbEntity
  8
0
  6
Continuous
 62
     7
370
    25
100
AcDbCircle
 10
239.7797774327
 20
85.9901062356
 30
0.0
 40
0.5000000000000105
100
AcDbArc
 50
270.0
 51
355.91438322
  0
ARC
  5
1BA
330
1F
100
AcDbEntity
  8
0
  6
Continuous
 62
     7
370
    25
100
AcDbCircle
 10
225.7108966361
 20
85.9901062356
 30
0.0
 40
0.5000000000000105
100
AcDbArc
 50
184.08561678
 51
270.0
  0
LINE
  5
1BB
330
1F
100
AcDbEntity
  8
0
  6
Continuous
 62
     7
370
    25
100
AcDbLine
 10
238.6704501577
 20
101.9901062356
 30
0.0
 11
238.3295188182
 21
103.594062081
 31
0.0
  0
LINE
  5
1BC
330
1F
100
AcDbEntity
  8
0
  6
Continuous
 62
     7
370
    25
100
AcDbLine
 10
227.1611552506
 20
103.594062081
 30
0.0
 11
226.8202239111
 21
101.9901062356
 31
0.0
  0
ARC
  5
1BD
330
1F
100
AcDbEntity
  8
0
  6
Continuous
 62
     7
370
    25
100
AcDbCircle
 10
227.650229051
 20
103.4901062356
 30
0.0
 40
0.5000000000000201
100
AcDbArc
 50
90.0
 51
168.0
  0
ARC
  5
1BE
330
1F
100
AcDbEntity
  8
0
  6
Continuous
 62
     7
370
    25
100
AcDbCircle
 10
237.8404450178
 20
103.4901062356
 30
0.0
 40
0.5000000000000201
100
AcDbArc
 50
12.0
 51
90.0
  0
LINE
  5
1BF
330
1F
100
AcDbEntity
  8
0
  6
Continuous
 62
     7
370
    25
100
AcDbLine
 10
238.6453370344
 20
81.5286348995
 30
0.0
 11
238.6453370344
 21
85.4901062356
 31
0.0
  0
LINE
  5
1C0
330
1F
100
AcDbEntity
  8
0
  6
Continuous
 62
     7
370
    25
100
AcDbLine
 10
226.8453370344
 20
85.4901062356
 30
0.0
 11
226.8453370344
 21
81.5233324888
 31
0.0
  0
LINE
  5
1C1
330
1F
100
AcDbEntity
  8
0
  6
Continuous
 62
     7
370
    25
100
AcDbLine
 10
227.6460245344
 20
62.9901062356
 30
0.0
 11
227.9630574075
 21
52.845054295
 31
0.0
  0
LINE
  5
1C2
330
1F
100
AcDbEntity
  8
0
  6
Continuous
 62
     7
370
    25
100
AcDbLine
 10
237.5276166612
 20
52.845054295
 30
0.0
 11
237.8446495344
 21
62.9901062356
 31
0.0
  0
LINE
  5
1C3
330
1F
100
AcDbEntity
  8
0
  6
Continuous
 62
     7
370
    25
100
AcDbLine
 10
227.9630574075
 20
52.845054295
 30
0.0
 11
228.7453370344
 21
51.4901062356
 31
0.0
  0
LINE
  5
1C4
330
1F
100
AcDbEntity
  8
0
  6
Continuous
 62
     7
370
    25
100
AcDbLine
 10
236.7453370344
 20
51.4901062356
 30
0.0
 11
237.5276166612
 21
52.845054295
 31
0.0
  0
SPLINE
  5
1C5
330
1F
100
AcDbEntity
  8
0
  6
Continuous
 62
     7
370
    25
100
AcDbSpline
210
0.0
220
0.0
230
1.0
 70
     8
 71
     3
 72
    14
 73
    10
 74
     0
 42
0.00000001
 43
0.00000001
 40
0.0
 40
0.0
 40
0.0
 40
0.0
 40
0.1509076573000553
 40
0.3054080403738452
 40
0.5376023347316421
 40
0.7761416404828176
 40
0.9796792424551203
 40
0.9965136971994726
 40
1.0
 40
1.0
 40
1.0
 40
1.0
 10
231.2575552146246
 20
93.89831171583582
 30
0.0
 10
231.285204352394
 20
93.76015233387218
 30
0.0
 10
231.3411608832636
 20
93.480544348037
 30
0.0
 10
231.554634980471
 20
93.09177523802148
 30
0.0
 10
231.8770790473882
 20
92.75379283848207
 30
0.0
 10
232.2882268666271
 20
92.54329516517872
 30
0.0
 10
232.5841270112188
 20
92.49259084753379
 30
0.0
 10
232.728763503408
 20
92.49013017870264
 30
0.0
 10
232.7418935659499
 20
92.49010974179564
 30
0.0
 10
232.7441462070589
 20
92.4901062355658
 30
0.0
  0
LINE
  5
1C6
330
1F
100
AcDbEntity
  8
0
  6
Continuous
 62
     7
370
    25
100
AcDbLine
 10
229.8934420591
 20
104.876174729
 30
0.0
 11
231.2575552146
 21
93.8983117158
 31
0.0
  0
SPLINE
  5
1C7
330
1F
100
AcDbEntity
  8
0
  6
Continuous
 62
     7
370
    25
100
AcDbSpline
210
0.0
220
0.0
230
1.0
 70
     8
 71
     3
 72
    11
 73
     7
 74
     0
 42
0.00000001
 43
0.00000001
 40
0.0
 40
0.0
 40
0.0
 40
0.0
 40
0.0055682347466183
 40
0.1918263368321047
 40
0.6296575784328776
 40
1.0
 40
1.0
 40
1.0
 40
1.0
 10
230.3889723899554
 20
105.4901062355658
 30
0.0
 10
230.3875881718796
 20
105.4901022164922
 30
0.0
 10
230.3399016976284
 20
105.4899637589383
 30
0.0
 10
230.1859315147896
 20
105.463724982885
 30
0.0
 10
229.9403564400253
 20
105.3096520194636
 30
0.0
 10
229.908184654215
 20
105.0123926657047
 30
0.0
 10
229.893442059144
 20
104.8761747289891
 30
0.0
  0
SPLINE
  5
1C8
330
1F
100
AcDbEntity
  8
0
  6
Continuous
 62
     7
370
    25
100
AcDbSpline
210
0.0
220
0.0
230
1.0
 70
     8
 71
     3
 72
    11
 73
     7
 74
     0
 42
0.00000001
 43
0.00000001
 40
0.0
 40
0.0
 40
0.0
 40
0.0
 40
0.3703424215671223
 40
0.8081736631678952
 40
0.9944317652533818
 40
1.0
 40
1.0
 40
1.0
 40
1.0
 10
235.5972320096369
 20
104.8761747289891
 30
0.0
 10
235.5824894145659
 20
105.0123926657046
 30
0.0
 10
235.5503176287556
 20
105.3096520194635
 30
0.0
 10
235.304742553991
 20
105.463724982885
 30
0.0
 10
235.1507723711526
 20
105.4899637589382
 30
0.0
 10
235.1030858969013
 20
105.4901022164922
 30
0.0
 10
235.1017016788254
 20
105.4901062355658
 30
0.0
  0
LINE
  5
1C9
330
1F
100
AcDbEntity
  8
0
  6
Continuous
 62
     7
370
    25
100
AcDbLine
 10
234.2331188542
 20
93.8983117158
 30
0.0
 11
235.5972320096
 21
104.876174729
 31
0.0
  0
SPLINE
  5
1CA
330
1F
100
AcDbEntity
  8
0
  6
Continuous
 62
     7
370
    25
100
AcDbSpline
210
0.0
220
0.0
230
1.0
 70
     8
 71
     3
 72
    14
 73
    10
 74
     0
 42
0.00000001
 43
0.00000001
 40
0.0
 40
0.0
 40
0.0
 40
0.0
 40
0.0034863238848196
 40
0.0203208804397748
 40
0.2238597133569321
 40
0.4563556157495313
 40
0.694592489911249
 40
0.8457249965626097
 40
1.0
 40
1.0
 40
1.0
 40
1.0
 10
232.746527861722
 20
92.4901062355658
 30
0.0
 10
232.7487805031228
 20
92.49010974191474
 30
0.0
 10
232.761910567366
 20
92.49013017951593
 30
0.0
 10
232.9065467506208
 20
92.4925907222692
 30
0.0
 10
233.1985660098085
 20
92.54263398707688
 30
0.0
 10
233.6099504233461
 20
92.75123662426675
 30
0.0
 10
233.9319076531307
 20
93.08561293939553
 30
0.0
 10
234.1483356168419
 20
93.47781452996678
 30
0.0
 10
234.2046645757288
 20
93.75718778162798
 30
0.0
 10
234.2331188541563
 20
93.89831171583582
 30
0.0
  0
LINE
  5
1CB
330
1F
100
AcDbEntity
  8
0
  6
Continuous
 62
     7
370
    25
100
AcDbLine
 10
230.7620248838
 20
94.2232822113
 30
0.0
 11
229.3979117283
 21
104.3566942234
 31
0.0
  0
ARC
  5
1CC
330
1F
100
AcDbEntity
  8
0
  6
Continuous
 62
     7
370
    25
100
AcDbCircle
 10
229.8808787128
 20
104.3920764225
 30
0.0
 40
0.4842613014163485
100
AcDbArc
 50
88.5133904064
 51
184.1900080067
  0
ARC
  5
1CD
330
1F
100
AcDbEntity
  8
0
  6
Continuous
 62
     7
370
    25
100
AcDbCircle
 10
231.1897387714
 20
94.3351912581
 30
0.0
 40
0.4421117555840892
100
AcDbArc
 50
194.6624451414
 51
278.823554246
  0
ARC
  5
1CE
330
1F
100
AcDbEntity
  8
0
  6
Continuous
 62
     7
370
    25
100
AcDbCircle
 10
235.609795356
 20
104.3920764225
 30
0.0
 40
0.4842613014163493
100
AcDbArc
 50
355.8099919933
 51
91.4866095936
  0
LINE
  5
1CF
330
1F
100
AcDbEntity
  8
0
  6
Continuous
 62
     7
370
    25
100
AcDbLine
 10
236.0927623404
 20
104.3566942234
 30
0.0
 11
234.728649185
 21
94.2232822113
 31
0.0
  0
ARC
  5
1D0
330
1F
100
AcDbEntity
  8
0
  6
Continuous
 62
     7
370
    25
100
AcDbCircle
 10
234.3009352973
 20
94.3351912581
 30
0.0
 40
0.4421117555840936
100
AcDbArc
 50
261.176445754
 51
345.3375548586
  0
SPLINE
  5
1D1
330
1F
100
AcDbEntity
  8
0
  6
Continuous
 62
     7
370
    25
100
AcDbSpline
210
0.0
220
0.0
230
1.0
 70
     8
 71
     3
 72
    15
 73
    11
 74
     0
 42
0.00000001
 43
0.00000001
 40
0.0
 40
0.0
 40
0.0
 40
0.0
 40
0.0032941481656678
 40
0.0389555300109776
 40
0.0923164936584507
 40
0.2214838269818526
 40
0.455755886074647
 40
0.6896123828215205
 40
0.8449486292273378
 40
1.0
 40
1.0
 40
1.0
 40
1.0
 10
232.7441462070589
 20
92.4901062355658
 30
0.0
 10
232.7412757958052
 20
92.49011025962004
 30
0.0
 10
232.7073312413675
 20
92.49015784678294
 30
0.0
 10
232.6268940871061
 20
92.4924135658206
 30
0.0
 10
232.4371555736699
 20
92.50871019547644
 30
0.0
 10
232.078500600084
 20
92.58319247127214
 30
0.0
 10
231.5876677819339
 20
92.81565211287912
 30
0.0
 10
231.1576289849884
 20
93.23017467852826
 30
0.0
 10
230.8724430183823
 20
93.71311319338376
 30
0.0
 10
230.7988084012371
 20
94.05332995631763
 30
0.0
 10
230.7620248838132
 20
94.22328221128274
 30
0.0
  0
SPLINE
  5
1D2
330
1F
100
AcDbEntity
  8
0
  6
Continuous
 62
     7
370
    25
100
AcDbSpline
210
0.0
220
0.0
230
1.0
 70
     8
 71
     3
 72
    15
 73
    11
 74
     0
 42
0.00000001
 43
0.00000001
 40
0.0
 40
0.0
 40
0.0
 40
0.0
 40
0.1525119975281624
 40
0.310390868049384
 40
0.5397217434700955
 40
0.7785238912153801
 40
0.907686723357059
 40
0.9610458274988231
 40
0.9967059666277471
 40
0.9999999999999999
 40
0.9999999999999999
 40
0.9999999999999999
 40
0.9999999999999999
 10
234.7286491849677
 20
94.22328221128274
 30
0.0
 10
234.6926810300998
 20
94.05584629379283
 30
0.0
 10
234.6194790067015
 20
93.71508241544453
 30
0.0
 10
234.3371709832302
 20
93.23624823142556
 30
0.0
 10
233.9063411635475
 20
92.81704916142732
 30
0.0
 10
233.4161216018303
 20
92.58414587520896
 30
0.0
 10
233.0535153032077
 20
92.50869958877797
 30
0.0
 10
232.8637803398953
 20
92.49241475619074
 30
0.0
 10
232.7833428225958
 20
92.49015783076895
 30
0.0
 10
232.7493982726
 20
92.49011025837144
 30
0.0
 10
232.746527861722
 20
92.4901062355658
 30
0.0
  0
SPLINE
  5
1D3
330
1F
100
AcDbEntity
  8
0
  6
Continuous
 62
     7
370
    25
100
AcDbSpline
210
0.0
220
0.0
230
1.0
 70
     8
 71
     3
 72
    17
 73
    13
 74
     0
 42
0.00000001
 43
0.00000001
 40
0.0
 40
0.0
 40
0.0
 40
0.0
 40
0.1643985251551221
 40
0.3825210752049389
 40
0.7105911790613392
 40
0.8150577891621212
 40
0.8799902898774138
 40
0.9216743917957921
 40
0.9487595491592884
 40
0.9664454853042477
 40
0.9948962613988782
 40
1.0
 40
1.0
 40
1.0
 40
1.0
 10
229.3979117283326
 20
104.3566942234243
 30
0.0
 10
229.3946964079564
 20
104.4686987342375
 30
0.0
 10
229.3872150281433
 20
104.7293098672368
 30
0.0
 10
229.5705722431608
 20
105.1222484557228
 30
0.0
 10
229.8465703780353
 20
105.354949036103
 30
0.0
 10
230.0884353820876
 20
105.4469024743385
 30
0.0
 10
230.1940570502717
 20
105.4720891624808
 30
0.0
 10
230.2617541131022
 20
105.4824545984567
 30
0.0
 10
230.3057409624253
 20
105.4868378236046
 30
0.0
 10
230.3430715867367
 20
105.4892601802826
 30
0.0
 10
230.369232845238
 20
105.4900570602149
 30
0.0
 10
230.3863663364545
 20
105.4900997433393
 30
0.0
 10
230.3889723899554
 20
105.4901062355658
 30
0.0
  0
SPLINE
  5
1D4
330
1F
100
AcDbEntity
  8
0
  6
Continuous
 62
     7
370
    25
100
AcDbSpline
210
0.0
220
0.0
230
1.0
 70
     8
 71
     3
 72
    17
 73
    13
 74
     0
 42
0.00000001
 43
0.00000001
 40
0.0
 40
0.0
 40
0.0
 40
0.0
 40
0.0051037386011089
 40
0.0335545146957443
 40
0.0512404508407192
 40
0.0783256082042134
 40
0.1200097101225776
 40
0.1849422108378781
 40
0.2894088209386614
 40
0.6174789247950627
 40
0.8356014748448801
 40
1.0
 40
1.0
 40
1.0
 40
1.0
 10
235.1017016788254
 20
105.4901062355658
 30
0.0
 10
235.1043077323264
 20
105.4900997433393
 30
0.0
 10
235.121441223543
 20
105.4900570602149
 30
0.0
 10
235.1476024820441
 20
105.4892601802826
 30
0.0
 10
235.1849331063555
 20
105.4868378236046
 30
0.0
 10
235.2289199556788
 20
105.4824545984567
 30
0.0
 10
235.2966170185092
 20
105.4720891624808
 30
0.0
 10
235.4022386866932
 20
105.4469024743385
 30
0.0
 10
235.6441036907456
 20
105.354949036103
 30
0.0
 10
235.92010182562
 20
105.1222484557228
 30
0.0
 10
236.1034590406376
 20
104.7293098672368
 30
0.0
 10
236.0959776608244
 20
104.4686987342375
 30
0.0
 10
236.0927623404483
 20
104.3566942234243
 30
0.0
  0
LINE
  5
1D5
330
1F
100
AcDbEntity
  8
0
  6
Continuous
 62
     7
370
    25
100
AcDbLine
 10
229.7164908805
 20
101.9901062356
 30
0.0
 11
226.8202239111
 21
101.9901062356
 31
0.0
  0
LWPOLYLINE
  5
1D6
330
1F
100
AcDbEntity
  8
0
  6
Continuous
 62
     7
370
    25
100
AcDbPolyline
 90
       15
 70
   128
 43
0.0
 10
232.7441462072
 20
92.4901060705
 10
231.8154985641
 20
92.4901060716
 10
230.8994230109
 20
92.4901060749
 10
230.0083055527
 20
92.4901060804
 10
229.1541947431
 20
92.490106088
 10
228.3486387791
 20
92.4901060976
 10
227.602529361
 20
92.4901061091
 10
226.9259544287
 20
92.4901061223
 10
226.3280617655
 20
92.490106137
 10
225.8169353133
 20
92.490106153
 10
225.3994858721
 20
92.4901061702
 10
225.0813576608
 20
92.4901061882
 10
224.8668520032
 20
92.4901062069
 10
224.7588691714
 20
92.4901062259
 10
224.7453370344
 20
92.4901062356
  0
LWPOLYLINE
  5
1D7
330
1F
100
AcDbEntity
  8
0
  6
Continuous
 62
     7
370
    25
100
AcDbPolyline
 90
       15
 70
   128
 43
0.0
 10
240.7453370344
 20
92.4901062356
 10
240.7318048974
 20
92.4901062451
 10
240.6238220655
 20
92.4901062642
 10
240.409316408
 20
92.4901062829
 10
240.0911881967
 20
92.4901063009
 10
239.6737387555
 20
92.4901063181
 10
239.1626123033
 20
92.4901063341
 10
238.5647196401
 20
92.4901063488
 10
237.8881447078
 20
92.490106362
 10
237.1420352897
 20
92.4901063735
 10
236.3364793257
 20
92.4901063831
 10
235.4823685161
 20
92.4901063907
 10
234.5912510579
 20
92.4901063962
 10
233.6751755046
 20
92.4901063995
 10
232.7465278616
 20
92.4901060705
  0
LINE
  5
1D8
330
1F
100
AcDbEntity
  8
0
  6
Continuous
 62
     7
370
    25
100
AcDbLine
 10
238.6704501577
 20
101.9901062356
 30
0.0
 11
235.7741831882
 21
101.9901062356
 31
0.0
  0
LINE
  5
1D9
330
1F
100
AcDbEntity
  8
0
  6
Continuous
 62
     7
370
    25
100
AcDbLine
 10
239.7797774327
 20
85.4901062356
 30
0.0
 11
225.7108966361
 21
85.4901062356
 31
0.0
  0
LINE
  5
1DA
330
1F
100
AcDbEntity
  8
0
  6
Continuous
 62
     7
370
    25
100
AcDbLine
 10
227.650229051
 20
103.9901062356
 30
0.0
 11
229.4472601113
 21
103.9901062356
 31
0.0
  0
LINE
  5
1DB
330
1F
100
AcDbEntity
  8
0
  6
Continuous
 62
     7
370
    25
100
AcDbLine
 10
236.0434139575
 20
103.9901062356
 30
0.0
 11
237.8404449232
 21
103.9901062356
 31
0.0
  0
CIRCLE
  5
1DC
330
1F
100
AcDbEntity
  8
0
  6
Continuous
 62
     7
370
    25
100
AcDbCircle
 10
232.7453370344
 20
74.9901062356
 30
0.0
 40
2.342307692307685
  0
CIRCLE
  5
1DD
330
1F
100
AcDbEntity
  8
0
  6
Continuous
 62
     7
370
    25
100
AcDbCircle
 10
232.7453370344
 20
74.9901062356
 30
0.0
 40
1.849999999999994
  0
CIRCLE
  5
1DE
330
1F
100
AcDbEntity
  8
0
  6
Continuous
 62
     7
370
    25
100
AcDbCircle
 10
232.7453370344
 20
74.9901062356
 30
0.0
 40
1.599999999999994
  0
CIRCLE
  5
1DF
330
1F
100
AcDbEntity
  8
0
  6
Continuous
 62
     7
370
    25
100
AcDbCircle
 10
232.7453370344
 20
74.9901062356
 30
0.0
 40
1.500000000000028
  0
CIRCLE
  5
1E0
330
1F
100
AcDbEntity
  8
0
  6
Continuous
 62
     7
370
    25
100
AcDbCircle
 10
232.7453370344
 20
74.9901062356
 30
0.0
 40
3.000000000000028
  0
CIRCLE
  5
1E1
330
1F
100
AcDbEntity
  8
0
  6
Continuous
 62
     7
370
    25
100
AcDbCircle
 10
232.7453370344
 20
74.9901062356
 30
0.0
 40
8.000000000000028
  0
CIRCLE
  5
1E2
330
1F
100
AcDbEntity
  8
0
  6
Continuous
 62
     7
370
    25
100
AcDbCircle
 10
232.7453370344
 20
74.9901062356
 30
0.0
 40
7.800000000000011
  0
SPLINE
  5
1E3
330
1F
100
AcDbEntity
  8
0
  6
Continuous
 62
     7
370
    25
100
AcDbSpline
210
0.0
220
0.0
230
1.0
 70
     8
 71
     3
 72
    10
 73
     6
 74
     0
 42
0.00000001
 43
0.00000001
 40
0.0
 40
0.0
 40
0.0
 40
0.0
 40
0.5
 40
0.5
 40
1.0
 40
1.0
 40
1.0
 40
1.0
 10
224.4953370343904
 20
69.93829138015658
 30
0.0
 10
224.4209665674649
 20
69.98122918925583
 30
0.0
 10
224.356660971177
 20
70.04466977914801
 30
0.0
 10
224.2684381833712
 20
70.19715892465686
 30
0.0
 10
224.2453370343904
 20
70.28538831386018
 30
0.0
 10
224.2453370343904
 20
70.37130408204881
 30
0.0
  0
SPLINE
  5
1E4
330
1F
100
AcDbEntity
  8
0
  6
Continuous
 62
     7
370
    25
100
AcDbSpline
210
0.0
220
0.0
230
1.0
 70
    24
 71
     3
 72
    10
 73
     6
 74
     0
 42
0.00000001
 43
0.00000001
 40
0.0
 40
0.0
 40
0.0
 40
0.0
 40
0.5
 40
0.5
 40
1.0
 40
1.0
 40
1.0
 40
1.0
 10
224.2453370343904
 20
70.37130408204881
 30
0.0
 10
224.2453370343904
 20
71.1261133550981
 30
0.0
 10
224.2453370343904
 20
71.88685974233
 30
0.0
 10
224.2453370343904
 20
73.42500211995326
 30
0.0
 10
224.2453370343904
 20
74.20250327247807
 30
0.0
 10
224.2453370343904
 20
74.99010623556582
 30
0.0
  0
ARC
  5
1E5
330
1F
100
AcDbEntity
  8
0
  6
Continuous
 62
     7
370
    25
100
AcDbCircle
 10
232.7453370344
 20
74.9901062356
 30
0.0
 40
8.500000000000028
100
AcDbArc
 50
180.0
 51
240.0
  0
SPLINE
  5
1E6
330
1F
100
AcDbEntity
  8
0
  6
Continuous
 62
     7
370
    25
100
AcDbSpline
210
0.0
220
0.0
230
1.0
 70
    24
 71
     3
 72
    10
 73
     6
 74
     0
 42
0.00000001
 43
0.00000001
 40
0.0
 40
0.0
 40
0.0
 40
0.0
 40
0.5
 40
0.5
 40
1.0
 40
1.0
 40
1.0
 40
1.0
 10
224.4953370343904
 20
69.93829138015663
 30
0.0
 10
225.1513498009955
 20
69.55954223276534
 30
0.0
 10
225.8116167078532
 20
69.17833695635403
 30
0.0
 10
227.1439632264882
 20
68.40910633516626
 30
0.0
 10
227.8161162079755
 20
68.02103863036793
 30
0.0
 10
228.4953370343904
 20
67.6288903033981
 30
0.0
  0
SPLINE
  5
1E7
330
1F
100
AcDbEntity
  8
0
  6
Continuous
 62
     7
370
    25
100
AcDbSpline
210
0.0
220
0.0
230
1.0
 70
     8
 71
     3
 72
    10
 73
     6
 74
     0
 42
0.00000001
 43
0.00000001
 40
0.0
 40
0.0
 40
0.0
 40
0.0
 40
0.5
 40
0.5
 40
1.0
 40
1.0
 40
1.0
 40
1.0
 10
224.2453370343904
 20
79.60890838908283
 30
0.0
 10
224.2453370343904
 20
79.69479003158925
 30
0.0
 10
224.2681276060379
 20
79.78219923755469
 30
0.0
 10
224.3560736033367
 20
79.93484172262967
 30
0.0
 10
224.4209343960694
 20
79.99896470771202
 30
0.0
 10
224.4953370343904
 20
80.04192109097505
 30
0.0
  0
SPLINE
  5
1E8
330
1F
100
AcDbEntity
  8
0
  6
Continuous
 62
     7
370
    25
100
AcDbSpline
210
0.0
220
0.0
230
1.0
 70
    24
 71
     3
 72
    12
 73
     8
 74
     0
 42
0.00000001
 43
0.00000001
 40
0.0
 40
0.0
 40
0.0
 40
0.0
 40
0.2500000000000001
 40
0.2500000000000001
 40
0.5000000000000002
 40
0.5000000000000002
 40
1.0
 40
1.0
 40
1.0
 40
1.0
 10
228.4953370343904
 20
82.35132216773356
 30
0.0
 10
228.1575810993677
 20
82.15631868772776
 30
0.0
 10
227.8171730844892
 20
81.95978402870335
 30
0.0
 10
227.1426784000887
 20
81.5703643410978
 30
0.0
 10
226.8075530812215
 20
81.37687964803754
 30
0.0
 10
225.8078417628813
 20
80.79969604928195
 30
0.0
 10
225.1489076598161
 20
80.41926026749897
 30
0.0
 10
224.4953370343904
 20
80.04192109097504
 30
0.0
  0
ARC
  5
1E9
330
1F
100
AcDbEntity
  8
0
  6
Continuous
 62
     7
370
    25
100
AcDbCircle
 10
232.7453370344
 20
74.9901062356
 30
0.0
 40
8.500000000000028
100
AcDbArc
 50
120.0
 51
180.0
  0
SPLINE
  5
1EA
330
1F
100
AcDbEntity
  8
0
  6
Continuous
 62
     7
370
    25
100
AcDbSpline
210
0.0
220
0.0
230
1.0
 70
    24
 71
     3
 72
    12
 73
     8
 74
     0
 42
0.00000001
 43
0.00000001
 40
0.0
 40
0.0
 40
0.0
 40
0.0
 40
0.2499999999999999
 40
0.2499999999999999
 40
0.4999999999999998
 40
0.4999999999999998
 40
1.0
 40
1.0
 40
1.0
 40
1.0
 10
224.2453370343904
 20
74.99010623556582
 30
0.0
 10
224.2453370343904
 20
75.38442431623767
 30
0.0
 10
224.2453370343904
 20
75.77808336018809
 30
0.0
 10
224.2453370343904
 20
76.55761935973344
 30
0.0
 10
224.2453370343904
 20
76.94457254785885
 30
0.0
 10
224.2453370343904
 20
78.09795911071286
 30
0.0
 10
224.2453370343904
 20
78.8569415999179
 30
0.0
 10
224.2453370343904
 20
79.60890838908283
 30
0.0
  0
ARC
  5
1EB
330
1F
100
AcDbEntity
  8
0
  6
Continuous
 62
     7
370
    25
100
AcDbCircle
 10
232.7453370344
 20
74.9901062356
 30
0.0
 40
8.500000000000023
100
AcDbArc
 50
60.0
 51
120.0
  0
ARC
  5
1EC
330
1F
100
AcDbEntity
  8
0
  6
Continuous
 62
     7
370
    25
100
AcDbCircle
 10
232.7453370344
 20
74.9901062356
 30
0.0
 40
8.500000000000009
100
AcDbArc
 50
0.0
 51
60.0
  0
ARC
  5
1ED
330
1F
100
AcDbEntity
  8
0
  6
Continuous
 62
     7
370
    25
100
AcDbCircle
 10
232.7453370344
 20
74.9901062356
 30
0.0
 40
8.5
100
AcDbArc
 50
300.0
 51
0.0
  0
ARC
  5
1EE
330
1F
100
AcDbEntity
  8
0
  6
Continuous
 62
     7
370
    25
100
AcDbCircle
 10
232.7453370344
 20
74.9901062356
 30
0.0
 40
8.50000000000001
100
AcDbArc
 50
240.0
 51
300.0
  0
SPLINE
  5
1EF
330
1F
100
AcDbEntity
  8
0
  6
Continuous
 62
     7
370
    25
100
AcDbSpline
210
0.0
220
0.0
230
1.0
 70
    24
 71
     3
 72
    10
 73
     6
 74
     0
 42
0.00000001
 43
0.00000001
 40
0.0
 40
0.0
 40
0.0
 40
0.0
 40
0.5
 40
0.5
 40
1.0
 40
1.0
 40
1.0
 40
1.0
 10
232.9953370343904
 20
65.31948922663955
 30
0.0
 10
233.6513498009955
 20
65.69823837403085
 30
0.0
 10
234.3116167078532
 20
66.07944365044214
 30
0.0
 10
235.6439632264882
 20
66.84867427162992
 30
0.0
 10
236.3161162079755
 20
67.23674197642825
 30
0.0
 10
236.9953370343904
 20
67.62889030339808
 30
0.0
  0
SPLINE
  5
1F0
330
1F
100
AcDbEntity
  8
0
  6
Continuous
 62
     7
370
    25
100
AcDbSpline
210
0.0
220
0.0
230
1.0
 70
     8
 71
     3
 72
    10
 73
     6
 74
     0
 42
0.00000001
 43
0.00000001
 40
0.0
 40
0.0
 40
0.0
 40
0.0
 40
0.5
 40
0.5
 40
1.0
 40
1.0
 40
1.0
 40
1.0
 10
232.9953370343904
 20
65.31948922663959
 30
0.0
 10
232.9209622804004
 20
65.27654894240254
 30
0.0
 10
232.8338685488345
 20
65.25258115782673
 30
0.0
 10
232.65770272029
 20
65.2524231017212
 30
0.0
 10
232.5697416963997
 20
65.27653167499957
 30
0.0
 10
232.4953370343904
 20
65.31948922663959
 30
0.0
  0
SPLINE
  5
1F1
330
1F
100
AcDbEntity
  8
0
  6
Continuous
 62
     7
370
    25
100
AcDbSpline
210
0.0
220
0.0
230
1.0
 70
    24
 71
     3
 72
    12
 73
     8
 74
     0
 42
0.00000001
 43
0.00000001
 40
0.0
 40
0.0
 40
0.0
 40
0.0
 40
0.25
 40
0.25
 40
0.5000000000000002
 40
0.5000000000000002
 40
1.0
 40
1.0
 40
1.0
 40
1.0
 10
228.4953370343904
 20
67.6288903033981
 30
0.0
 10
228.8330929694132
 20
67.4338868233923
 30
0.0
 10
229.1735009842917
 20
67.23735216436788
 30
0.0
 10
229.8479956686921
 20
66.84793247676234
 30
0.0
 10
230.1831209875594
 20
66.65444778370208
 30
0.0
 10
231.1828323058995
 20
66.07726418494647
 30
0.0
 10
231.8417664089648
 20
65.69682840316352
 30
0.0
 10
232.4953370343904
 20
65.31948922663958
 30
0.0
  0
SPLINE
  5
1F2
330
1F
100
AcDbEntity
  8
0
  6
Continuous
 62
     7
370
    25
100
AcDbSpline
210
0.0
220
0.0
230
1.0
 70
     8
 71
     3
 72
    10
 73
     6
 74
     0
 42
0.00000001
 43
0.00000001
 40
0.0
 40
0.0
 40
0.0
 40
0.0
 40
0.5
 40
0.5
 40
1.0
 40
1.0
 40
1.0
 40
1.0
 10
232.4953370343904
 20
84.66072324449206
 30
0.0
 10
232.5697117883804
 20
84.7036635287291
 30
0.0
 10
232.6568055199463
 20
84.72763131330493
 30
0.0
 10
232.8329713484909
 20
84.72778936941044
 30
0.0
 10
232.9209323723811
 20
84.70368079613206
 30
0.0
 10
232.9953370343904
 20
84.66072324449206
 30
0.0
  0
SPLINE
  5
1F3
330
1F
100
AcDbEntity
  8
0
  6
Continuous
 62
     7
370
    25
100
AcDbSpline
210
0.0
220
0.0
230
1.0
 70
    24
 71
     3
 72
    12
 73
     8
 74
     0
 42
0.00000001
 43
0.00000001
 40
0.0
 40
0.0
 40
0.0
 40
0.0
 40
0.2499999999999999
 40
0.2499999999999999
 40
0.5
 40
0.5
 40
1.0
 40
1.0
 40
1.0
 40
1.0
 10
236.9953370343904
 20
82.35132216773356
 30
0.0
 10
236.6575810993677
 20
82.54632564773935
 30
0.0
 10
236.3171730844892
 20
82.74286030676376
 30
0.0
 10
235.6426784000887
 20
83.13227999436931
 30
0.0
 10
235.3075530812215
 20
83.32576468742957
 30
0.0
 10
234.3078417628814
 20
83.90294828618516
 30
0.0
 10
233.6489076598161
 20
84.28338406796813
 30
0.0
 10
232.9953370343904
 20
84.66072324449208
 30
0.0
  0
SPLINE
  5
1F4
330
1F
100
AcDbEntity
  8
0
  6
Continuous
 62
     7
370
    25
100
AcDbSpline
210
0.0
220
0.0
230
1.0
 70
    24
 71
     3
 72
    10
 73
     6
 74
     0
 42
0.00000001
 43
0.00000001
 40
0.0
 40
0.0
 40
0.0
 40
0.0
 40
0.5
 40
0.5
 40
1.0
 40
1.0
 40
1.0
 40
1.0
 10
232.4953370343905
 20
84.66072324449209
 30
0.0
 10
231.8393242677854
 20
84.2819740971008
 30
0.0
 10
231.1790573609277
 20
83.9007688206895
 30
0.0
 10
229.8467108422927
 20
83.1315381995017
 30
0.0
 10
229.1745578608053
 20
82.74347049470339
 30
0.0
 10
228.4953370343904
 20
82.35132216773356
 30
0.0
  0
SPLINE
  5
1F5
330
1F
100
AcDbEntity
  8
0
  6
Continuous
 62
     7
370
    25
100
AcDbSpline
210
0.0
220
0.0
230
1.0
 70
    24
 71
     3
 72
    10
 73
     6
 74
     0
 42
0.00000001
 43
0.00000001
 40
0.0
 40
0.0
 40
0.0
 40
0.0
 40
0.5
 40
0.5
 40
1.0
 40
1.0
 40
1.0
 40
1.0
 10
241.2453370343904
 20
70.37130408204881
 30
0.0
 10
241.2453370343904
 20
71.1261133550981
 30
0.0
 10
241.2453370343904
 20
71.88685974233
 30
0.0
 10
241.2453370343904
 20
73.42500211995326
 30
0.0
 10
241.2453370343904
 20
74.20250327247807
 30
0.0
 10
241.2453370343904
 20
74.99010623556582
 30
0.0
  0
SPLINE
  5
1F6
330
1F
100
AcDbEntity
  8
0
  6
Continuous
 62
     7
370
    25
100
AcDbSpline
210
0.0
220
0.0
230
1.0
 70
     8
 71
     3
 72
    10
 73
     6
 74
     0
 42
0.00000001
 43
0.00000001
 40
0.0
 40
0.0
 40
0.0
 40
0.0
 40
0.5
 40
0.5
 40
1.0
 40
1.0
 40
1.0
 40
1.0
 10
241.2453370343904
 20
70.37130408204881
 30
0.0
 10
241.2453370343904
 20
70.28542243954234
 30
0.0
 10
241.222546462743
 20
70.19801323357693
 30
0.0
 10
241.1346004654442
 20
70.045370748502
 30
0.0
 10
241.0697396727114
 20
69.98124776341963
 30
0.0
 10
240.9953370343904
 20
69.9382913801566
 30
0.0
  0
SPLINE
  5
1F7
330
1F
100
AcDbEntity
  8
0
  6
Continuous
 62
     7
370
    25
100
AcDbSpline
210
0.0
220
0.0
230
1.0
 70
    24
 71
     3
 72
    12
 73
     8
 74
     0
 42
0.00000001
 43
0.00000001
 40
0.0
 40
0.0
 40
0.0
 40
0.0
 40
0.2499999999999999
 40
0.2499999999999999
 40
0.4999999999999998
 40
0.4999999999999998
 40
1.0
 40
1.0
 40
1.0
 40
1.0
 10
236.9953370343904
 20
67.62889030339808
 30
0.0
 10
237.3330929694132
 20
67.82389378340388
 30
0.0
 10
237.6735009842917
 20
68.0204284424283
 30
0.0
 10
238.3479956686921
 20
68.40984813003384
 30
0.0
 10
238.6831209875594
 20
68.6033328230941
 30
0.0
 10
239.6828323058995
 20
69.1805164218497
 30
0.0
 10
240.3417664089648
 20
69.56095220363268
 30
0.0
 10
240.9953370343905
 20
69.93829138015661
 30
0.0
  0
SPLINE
  5
1F8
330
1F
100
AcDbEntity
  8
0
  6
Continuous
 62
     7
370
    25
100
AcDbSpline
210
0.0
220
0.0
230
1.0
 70
     8
 71
     3
 72
    10
 73
     6
 74
     0
 42
0.00000001
 43
0.00000001
 40
0.0
 40
0.0
 40
0.0
 40
0.0
 40
0.5
 40
0.5
 40
1.0
 40
1.0
 40
1.0
 40
1.0
 10
240.9953370343904
 20
80.04192109097505
 30
0.0
 10
241.069707501316
 20
79.99898328187581
 30
0.0
 10
241.1340130976039
 20
79.93554269198361
 30
0.0
 10
241.2222358854097
 20
79.78305354647478
 30
0.0
 10
241.2453370343904
 20
79.69482415727146
 30
0.0
 10
241.2453370343904
 20
79.60890838908283
 30
0.0
  0
SPLINE
  5
1F9
330
1F
100
AcDbEntity
  8
0
  6
Continuous
 62
     7
370
    25
100
AcDbSpline
210
0.0
220
0.0
230
1.0
 70
    24
 71
     3
 72
    12
 73
     8
 74
     0
 42
0.00000001
 43
0.00000001
 40
0.0
 40
0.0
 40
0.0
 40
0.0
 40
0.2500000000000001
 40
0.2500000000000001
 40
0.5000000000000001
 40
0.5000000000000001
 40
1.0
 40
1.0
 40
1.0
 40
1.0
 10
241.2453370343904
 20
74.99010623556582
 30
0.0
 10
241.2453370343904
 20
75.38442431623767
 30
0.0
 10
241.2453370343904
 20
75.77808336018809
 30
0.0
 10
241.2453370343904
 20
76.55761935973344
 30
0.0
 10
241.2453370343904
 20
76.94457254785885
 30
0.0
 10
241.2453370343904
 20
78.09795911071286
 30
0.0
 10
241.2453370343904
 20
78.85694159991789
 30
0.0
 10
241.2453370343904
 20
79.60890838908283
 30
0.0
  0
SPLINE
  5
1FA
330
1F
100
AcDbEntity
  8
0
  6
Continuous
 62
     7
370
    25
100
AcDbSpline
210
0.0
220
0.0
230
1.0
 70
    24
 71
     3
 72
    10
 73
     6
 74
     0
 42
0.00000001
 43
0.00000001
 40
0.0
 40
0.0
 40
0.0
 40
0.0
 40
0.5
 40
0.5
 40
1.0
 40
1.0
 40
1.0
 40
1.0
 10
240.9953370343905
 20
80.04192109097502
 30
0.0
 10
240.3393242677854
 20
80.42067023836631
 30
0.0
 10
239.6790573609277
 20
80.8018755147776
 30
0.0
 10
238.3467108422927
 20
81.5711061359654
 30
0.0
 10
237.6745578608053
 20
81.95917384076373
 30
0.0
 10
236.9953370343904
 20
82.35132216773356
 30
0.0
  0
LINE
  5
1FB
330
1F
100
AcDbEntity
  8
0
  6
Continuous
 62
     7
370
    25
100
AcDbLine
 10
236.9953370344
 20
62.9901062356
 30
0.0
 11
228.4953370344
 21
62.9901062356
 31
0.0
  0
SPLINE
  5
1FC
330
1F
100
AcDbEntity
  8
0
  6
Continuous
 62
     7
370
    25
100
AcDbSpline
210
0.0
220
0.0
230
1.0
 70
     8
 71
     3
 72
    10
 73
     6
 74
     0
 42
0.00000001
 43
0.00000001
 40
0.0
 40
0.0
 40
0.0
 40
0.0
 40
0.5
 40
0.5
 40
1.0
 40
1.0
 40
1.0
 40
1.0
 10
232.4953370343905
 20
63.66782764082554
 30
0.0
 10
231.8393242677854
 20
63.45901771615929
 30
0.0
 10
231.1790573609277
 20
63.28848357641203
 30
0.0
 10
229.8467108422927
 20
63.05369777139311
 30
0.0
 10
229.1745578608053
 20
62.99010623556582
 30
0.0
 10
228.4953370343904
 20
62.99010623556582
 30
0.0
  0
SPLINE
  5
1FD
330
1F
100
AcDbEntity
  8
0
  6
Continuous
 62
     7
370
    25
100
AcDbSpline
210
0.0
220
0.0
230
1.0
 70
     8
 71
     3
 72
    10
 73
     6
 74
     0
 42
0.00000001
 43
0.00000001
 40
0.0
 40
0.0
 40
0.0
 40
0.0
 40
0.5
 40
0.5
 40
1.0
 40
1.0
 40
1.0
 40
1.0
 10
232.4953370343904
 20
63.66782764082601
 30
0.0
 10
232.5697117883805
 20
63.69150124531714
 30
0.0
 10
232.6568055199464
 20
63.70459402111037
 30
0.0
 10
232.8329713484908
 20
63.70468058921131
 30
0.0
 10
232.9209323723811
 20
63.69151076508803
 30
0.0
 10
232.9953370343904
 20
63.66782764082601
 30
0.0
  0
SPLINE
  5
1FE
330
1F
100
AcDbEntity
  8
0
  6
Continuous
 62
     7
370
    25
100
AcDbSpline
210
0.0
220
0.0
230
1.0
 70
     8
 71
     3
 72
    12
 73
     8
 74
     0
 42
0.00000001
 43
0.00000001
 40
0.0
 40
0.0
 40
0.0
 40
0.0
 40
0.2500000000000002
 40
0.2500000000000002
 40
0.5000000000000001
 40
0.5000000000000001
 40
1.0
 40
1.0
 40
1.0
 40
1.0
 10
236.9953370343904
 20
62.99010623556582
 30
0.0
 10
236.6575810993677
 20
62.9901062355658
 30
0.0
 10
236.3171730844892
 20
63.00585256558777
 30
0.0
 10
235.6426784000887
 20
63.06729759017321
 30
0.0
 10
235.3075530812215
 20
63.11288634942694
 30
0.0
 10
234.3078417628814
 20
63.28933735168353
 30
0.0
 10
233.6489076598161
 20
63.45979505364701
 30
0.0
 10
232.9953370343904
 20
63.66782764082586
 30
0.0
  0
LINE
  5
1FF
330
1F
100
AcDbEntity
  8
0
  6
Continuous
 62
     7
370
    25
100
AcDbLine
 10
232.9953370344
 20
65.3194892266
 30
0.0
 11
232.9953370344
 21
63.6678276408
 31
0.0
  0
LINE
  5
200
330
1F
100
AcDbEntity
  8
0
  6
Continuous
 62
     7
370
    25
100
AcDbLine
 10
232.4953370344
 20
63.6678276408
 30
0.0
 11
232.4953370344
 21
65.3194892266
 31
0.0
  0
SPLINE
  5
201
330
1F
100
AcDbEntity
  8
0
  6
Continuous
 62
     7
370
    25
100
AcDbSpline
210
0.0
220
0.0
230
1.0
 70
     8
 71
     3
 72
    12
 73
     8
 74
     0
 42
0.00000001
 43
0.00000001
 40
0.0
 40
0.0
 40
0.0
 40
0.0
 40
0.2499999999999999
 40
0.2499999999999999
 40
0.4999999999999998
 40
0.4999999999999998
 40
1.0
 40
1.0
 40
1.0
 40
1.0
 10
228.4953370343904
 20
62.99010623556582
 30
0.0
 10
228.1575810993677
 20
62.99010623556582
 30
0.0
 10
227.8171730844892
 20
63.00585256558779
 30
0.0
 10
227.1426784000887
 20
63.06729759017321
 30
0.0
 10
226.8075530812215
 20
63.11288634942694
 30
0.0
 10
225.8078417628813
 20
63.28933735168353
 30
0.0
 10
225.1489076598161
 20
63.45979505364703
 30
0.0
 10
224.4953370343904
 20
63.66782764082588
 30
0.0
  0
LINE
  5
202
330
1F
100
AcDbEntity
  8
0
  6
Continuous
 62
     7
370
    25
100
AcDbLine
 10
224.4953370344
 20
67.0237096957
 30
0.0
 11
224.4953370344
 21
63.6678276408
 31
0.0
  0
SPLINE
  5
203
330
1F
100
AcDbEntity
  8
0
  6
Continuous
 62
     7
370
    25
100
AcDbSpline
210
0.0
220
0.0
230
1.0
 70
     8
 71
     3
 72
    10
 73
     6
 74
     0
 42
0.00000001
 43
0.00000001
 40
0.0
 40
0.0
 40
0.0
 40
0.0
 40
0.5
 40
0.5
 40
1.0
 40
1.0
 40
1.0
 40
1.0
 10
224.4953370343909
 20
67.02370969571098
 30
0.0
 10
225.1301647402045
 20
67.2257763812619
 30
0.0
 10
225.7694304427803
 20
67.39216915353255
 30
0.0
 10
227.0602453743702
 20
67.62621612740259
 30
0.0
 10
227.7118650098401
 20
67.69330438136143
 30
0.0
 10
228.3709069416601
 20
67.7007300509312
 30
0.0
  0
SPLINE
  5
204
330
1F
100
AcDbEntity
  8
0
  6
Continuous
 62
     7
370
    25
100
AcDbSpline
210
0.0
220
0.0
230
1.0
 70
     8
 71
     3
 72
    12
 73
     8
 74
     0
 42
0.00000001
 43
0.00000001
 40
0.0
 40
0.0
 40
0.0
 40
0.0
 40
0.2500000000000002
 40
0.2500000000000002
 40
0.5000000000000004
 40
0.5000000000000004
 40
1.0
 40
1.0
 40
1.0
 40
1.0
 10
237.1197671271428
 20
67.70073005093096
 30
0.0
 10
237.448902117536
 20
67.69702156507452
 30
0.0
 10
237.7783642704727
 20
67.67843906223685
 30
0.0
 10
238.4312378885303
 20
67.6135720252707
 30
0.0
 10
238.7556904804074
 20
67.56730647202045
 30
0.0
 10
239.7237509215995
 20
67.39158194171348
 30
0.0
 10
240.3620734058474
 20
67.22527853293673
 30
0.0
 10
240.9953370343904
 20
67.02370969571082
 30
0.0
  0
LINE
  5
205
330
1F
100
AcDbEntity
  8
0
  6
Continuous
 62
     7
370
    25
100
AcDbLine
 10
240.9953370344
 20
63.6678276408
 30
0.0
 11
240.9953370344
 21
67.0237096957
 31
0.0
  0
SPLINE
  5
206
330
1F
100
AcDbEntity
  8
0
  6
Continuous
 62
     7
370
    25
100
AcDbSpline
210
0.0
220
0.0
230
1.0
 70
     8
 71
     3
 72
    10
 73
     6
 74
     0
 42
0.00000001
 43
0.00000001
 40
0.0
 40
0.0
 40
0.0
 40
0.0
 40
0.5
 40
0.5
 40
1.0
 40
1.0
 40
1.0
 40
1.0
 10
240.9953370343905
 20
63.66782764082554
 30
0.0
 10
240.3393242677854
 20
63.45901771615929
 30
0.0
 10
239.6790573609277
 20
63.28848357641203
 30
0.0
 10
238.3467108422927
 20
63.05369777139311
 30
0.0
 10
237.6745578608053
 20
62.99010623556582
 30
0.0
 10
236.9953370343904
 20
62.99010623556582
 30
0.0
  0
SPLINE
  5
207
330
1F
100
AcDbEntity
  8
0
  6
Continuous
 62
     7
370
    25
100
AcDbSpline
210
0.0
220
0.0
230
1.0
 70
     8
 71
     3
 72
    10
 73
     6
 74
     0
 42
0.00000001
 43
0.00000001
 40
0.0
 40
0.0
 40
0.0
 40
0.0
 40
0.5
 40
0.5
 40
1.0
 40
1.0
 40
1.0
 40
1.0
 10
224.2453370343904
 20
63.66782764082601
 30
0.0
 10
224.2453370343904
 20
63.69150154138197
 30
0.0
 10
224.2681276060379
 20
63.70459409856111
 30
0.0
 10
224.3560736033367
 20
63.70468051254338
 30
0.0
 10
224.4209343960695
 20
63.69151012094476
 30
0.0
 10
224.4953370343904
 20
63.66782764082601
 30
0.0
  0
LINE
  5
208
330
1F
100
AcDbEntity
  8
0
  6
Continuous
 62
     7
370
    25
100
AcDbLine
 10
228.4953370344
 20
62.9901062356
 30
0.0
 11
224.2453370344
 21
62.9901062356
 31
0.0
  0
SPLINE
  5
209
330
1F
100
AcDbEntity
  8
0
  6
Continuous
 62
     7
370
    25
100
AcDbSpline
210
0.0
220
0.0
230
1.0
 70
    24
 71
     3
 72
    10
 73
     6
 74
     0
 42
0.00000001
 43
0.00000001
 40
0.0
 40
0.0
 40
0.0
 40
0.0
 40
0.5
 40
0.5
 40
1.0
 40
1.0
 40
1.0
 40
1.0
 10
224.2453370343904
 20
63.66782764082597
 30
0.0
 10
224.2453370343904
 20
63.4610581129024
 30
0.0
 10
224.2453370343904
 20
63.28972590664031
 30
0.0
 10
224.2453370343904
 20
63.05223867901267
 30
0.0
 10
224.2453370343904
 20
62.99010623556582
 30
0.0
 10
224.2453370343904
 20
62.99010623556582
 30
0.0
  0
SPLINE
  5
20A
330
1F
100
AcDbEntity
  8
0
  6
Continuous
 62
     7
370
    25
100
AcDbSpline
210
0.0
220
0.0
230
1.0
 70
     8
 71
     3
 72
    10
 73
     6
 74
     0
 42
0.00000001
 43
0.00000001
 40
0.0
 40
0.0
 40
0.0
 40
0.0
 40
0.5
 40
0.5
 40
1.0
 40
1.0
 40
1.0
 40
1.0
 10
240.9953370343904
 20
63.66782764082601
 30
0.0
 10
241.069707501316
 20
63.69149988073757
 30
0.0
 10
241.1340130976039
 20
63.70459387067283
 30
0.0
 10
241.2222358854097
 20
63.70468073813428
 30
0.0
 10
241.2453370343904
 20
63.69151094837491
 30
0.0
 10
241.2453370343904
 20
63.66782764082601
 30
0.0
  0
LINE
  5
20B
330
1F
100
AcDbEntity
  8
0
  6
Continuous
 62
     7
370
    25
100
AcDbLine
 10
241.2453370344
 20
62.9901062356
 30
0.0
 11
236.9953370344
 21
62.9901062356
 31
0.0
  0
SPLINE
  5
20C
330
1F
100
AcDbEntity
  8
0
  6
Continuous
 62
     7
370
    25
100
AcDbSpline
210
0.0
220
0.0
230
1.0
 70
    24
 71
     3
 72
    10
 73
     6
 74
     0
 42
0.00000001
 43
0.00000001
 40
0.0
 40
0.0
 40
0.0
 40
0.0
 40
0.5
 40
0.5
 40
1.0
 40
1.0
 40
1.0
 40
1.0
 10
241.2453370343904
 20
63.66782764082597
 30
0.0
 10
241.2453370343904
 20
63.4610581129024
 30
0.0
 10
241.2453370343904
 20
63.28972590664031
 30
0.0
 10
241.2453370343904
 20
63.05223867901267
 30
0.0
 10
241.2453370343904
 20
62.99010623556582
 30
0.0
 10
241.2453370343904
 20
62.99010623556582
 30
0.0
  0
SPLINE
  5
20D
330
1F
100
AcDbEntity
  8
0
  6
Continuous
 62
     7
370
    25
100
AcDbSpline
210
0.0
220
0.0
230
1.0
 70
     8
 71
     3
 72
     8
 73
     4
 74
     0
 42
0.00000001
 43
0.00000001
 40
0.0
 40
0.0
 40
0.0
 40
0.0
 40
1.0
 40
1.0
 40
1.0
 40
1.0
 10
225.8171338041149
 20
67.99010623556582
 30
0.0
 10
225.2907129429057
 20
67.72689580496122
 30
0.0
 10
224.767168486192
 20
67.4577983765745
 30
0.0
 10
224.2453370343904
 20
67.18519502399185
 30
0.0
  0
SPLINE
  5
20E
330
1F
100
AcDbEntity
  8
0
  6
Continuous
 62
     7
370
    25
100
AcDbSpline
210
0.0
220
0.0
230
1.0
 70
     8
 71
     3
 72
    10
 73
     6
 74
     0
 42
0.00000001
 43
0.00000001
 40
0.0
 40
0.0
 40
0.0
 40
0.0
 40
0.5
 40
0.5
 40
1.0
 40
1.0
 40
1.0
 40
1.0
 10
224.2453370343904
 20
67.02370969571075
 30
0.0
 10
224.2453370343904
 20
67.00003430128635
 30
0.0
 10
224.2681294837203
 20
66.98694319140176
 30
0.0
 10
224.3560721878135
 20
66.98685687011353
 30
0.0
 10
224.4209299614877
 20
67.00002580405747
 30
0.0
 10
224.4953370343911
 20
67.02370969571103
 30
0.0
  0
SPLINE
  5
20F
330
1F
100
AcDbEntity
  8
0
  6
Continuous
 62
     7
370
    25
100
AcDbSpline
210
0.0
220
0.0
230
1.0
 70
    24
 71
     3
 72
     8
 73
     4
 74
     0
 42
0.00000001
 43
0.00000001
 40
0.0
 40
0.0
 40
0.0
 40
0.0
 40
1.0
 40
1.0
 40
1.0
 40
1.0
 10
224.2453370343904
 20
67.02370969571082
 30
0.0
 10
224.2453370343904
 20
67.08027066283503
 30
0.0
 10
224.2453370343904
 20
67.13421073424888
 30
0.0
 10
224.2453370343904
 20
67.18519502399184
 30
0.0
  0
SPLINE
  5
210
330
1F
100
AcDbEntity
  8
0
  6
Continuous
 62
     7
370
    25
100
AcDbSpline
210
0.0
220
0.0
230
1.0
 70
     8
 71
     3
 72
     8
 73
     4
 74
     0
 42
0.00000001
 43
0.00000001
 40
0.0
 40
0.0
 40
0.0
 40
0.0
 40
1.0
 40
1.0
 40
1.0
 40
1.0
 10
241.2453370343904
 20
67.18519502399184
 30
0.0
 10
240.7235308830886
 20
67.4577851596612
 30
0.0
 10
240.1998774142324
 20
67.72693766078258
 30
0.0
 10
239.6735402646659
 20
67.99010623556582
 30
0.0
  0
SPLINE
  5
211
330
1F
100
AcDbEntity
  8
0
  6
Continuous
 62
     7
370
    25
100
AcDbSpline
210
0.0
220
0.0
230
1.0
 70
     8
 71
     3
 72
    10
 73
     6
 74
     0
 42
0.00000001
 43
0.00000001
 40
0.0
 40
0.0
 40
0.0
 40
0.0
 40
0.5
 40
0.5
 40
1.0
 40
1.0
 40
1.0
 40
1.0
 10
240.9953370343904
 20
67.02370969571082
 30
0.0
 10
241.0697174117678
 20
67.00003430128643
 30
0.0
 10
241.1340180505535
 20
66.98694319140179
 30
0.0
 10
241.2222337353365
 20
66.98685687011351
 30
0.0
 10
241.2453370343904
 20
67.00002580405736
 30
0.0
 10
241.2453370343904
 20
67.0237096957108
 30
0.0
  0
SPLINE
  5
212
330
1F
100
AcDbEntity
  8
0
  6
Continuous
 62
     7
370
    25
100
AcDbSpline
210
0.0
220
0.0
230
1.0
 70
    24
 71
     3
 72
     8
 73
     4
 74
     0
 42
0.00000001
 43
0.00000001
 40
0.0
 40
0.0
 40
0.0
 40
0.0
 40
1.0
 40
1.0
 40
1.0
 40
1.0
 10
241.2453370343904
 20
67.02370969571082
 30
0.0
 10
241.2453370343904
 20
67.08027066283505
 30
0.0
 10
241.2453370343904
 20
67.13421073424888
 30
0.0
 10
241.2453370343904
 20
67.18519502399184
 30
0.0
  0
LINE
  5
213
330
1F
100
AcDbEntity
  8
0
  6
Continuous
 62
     7
370
    25
100
AcDbLine
 10
225.2453370344
 20
69.5052786783
 30
0.0
 11
225.2453370344
 21
67.9901062356
 31
0.0
  0
LINE
  5
214
330
1F
100
AcDbEntity
  8
0
  6
Continuous
 62
     7
370
    25
100
AcDbLine
 10
225.2453370344
 20
67.9901062356
 30
0.0
 11
227.8696926874
 21
67.9901062356
 31
0.0
  0
LINE
  5
215
330
1F
100
AcDbEntity
  8
0
  6
Continuous
 62
     7
370
    25
100
AcDbLine
 10
240.2453370344
 20
67.9901062356
 30
0.0
 11
240.2453370344
 21
69.5052786783
 31
0.0
  0
LINE
  5
216
330
1F
100
AcDbEntity
  8
0
  6
Continuous
 62
     7
370
    25
100
AcDbLine
 10
237.6209813814
 20
67.9901062356
 30
0.0
 11
240.2453370344
 21
67.9901062356
 31
0.0
  0
LINE
  5
217
330
1F
100
AcDbEntity
  8
0
  6
Continuous
 62
     7
370
    25
100
AcDbLine
 10
227.9630574075
 20
52.845054295
 30
0.0
 11
237.5276166612
 21
52.845054295
 31
0.0
  0
LINE
  5
218
330
1F
100
AcDbEntity
  8
0
  6
Continuous
 62
     7
370
    25
100
AcDbLine
 10
224.2453370344
 20
63.6678276408
 30
0.0
 11
224.2453370344
 21
67.0237096957
 31
0.0
  0
LINE
  5
219
330
1F
100
AcDbEntity
  8
0
  6
Continuous
 62
     7
370
    25
100
AcDbLine
 10
241.2453370344
 20
67.0237096957
 30
0.0
 11
241.2453370344
 21
63.6678276408
 31
0.0
  0
LINE
  5
21A
330
1F
100
AcDbEntity
  8
0
  6
Continuous
 62
     7
370
    25
100
AcDbLine
 10
232.7453370344
 20
51.4901062356
 30
0.0
 11
228.7453370344
 21
51.4901062356
 31
0.0
  0
LINE
  5
21B
330
1F
100
AcDbEntity
  8
0
  6
Continuous
 62
     7
370
    25
100
AcDbLine
 10
236.7453370344
 20
51.4901062356
 30
0.0
 11
232.7453370344
 21
51.4901062356
 31
0.0
  0
LINE
  5
21C
330
1F
100
AcDbEntity
  8
0
  6
Continuous
 62
     7
370
    25
100
AcDbLine
 10
224.2453370344
 20
67.185195024
 30
0.0
 11
224.2453370344
 21
70.3177096036
 31
0.0
  0
LINE
  5
21D
330
1F
100
AcDbEntity
  8
0
  6
Continuous
 62
     7
370
    25
100
AcDbLine
 10
241.2453370344
 20
67.185195024
 30
0.0
 11
241.2453370344
 21
70.3177096036
 31
0.0
  0
LINE
  5
21E
330
1F
100
AcDbEntity
  8
0
  6
Continuous
 62
     7
370
    25
100
AcDbLine
 10
225.2121672862
 20
85.9544827106
 30
0.0
 11
240.2785067826
 21
85.9544827106
 31
0.0
  0
LINE
  5
21F
330
1F
100
AcDbEntity
  8
0
  6
Continuous
 62
     7
370
    25
100
AcDbLine
 10
238.3295188182
 20
103.594062081
 30
0.0
 11
235.9901003213
 21
103.594062081
 31
0.0
  0
LINE
  5
220
330
1F
100
AcDbEntity
  8
0
  6
Continuous
 62
     7
370
    25
100
AcDbLine
 10
229.5005737475
 20
103.594062081
 30
0.0
 11
227.1611552506
 21
103.594062081
 31
0.0
  0
SPLINE
  5
221
330
1F
100
AcDbEntity
  8
0
  6
Continuous
 62
     7
370
    25
100
AcDbSpline
210
0.0
220
0.0
230
1.0
 70
     8
 71
     3
 72
    18
 73
    14
 74
     0
 42
0.00000001
 43
0.00000001
 40
0.0
 40
0.0
 40
0.0
 40
0.0
 40
0.0468471397175739
 40
0.1374765919273043
 40
0.2589367275445577
 40
0.3806105457105798
 40
0.3961097539007551
 40
0.5263207872848424
 40
0.6565301618211985
 40
0.7575145217403848
 40
0.8582957355029711
 40
0.9376167410784845
 40
1.0
 40
1.0
 40
1.0
 40
1.0
 10
233.359794821377
 20
84.45030344306714
 30
0.0
 10
233.50244305118
 20
84.43963333502525
 30
0.0
 10
233.9210554274321
 20
84.40832106926175
 30
0.0
 10
234.6747461592343
 20
84.23577807743541
 30
0.0
 10
235.5722720152151
 20
83.9209975652996
 30
0.0
 10
236.1820557065492
 20
83.6058998212836
 30
0.0
 10
236.7577933780911
 20
83.25957510146706
 30
0.0
 10
237.2951658848592
 20
82.8790185321828
 30
0.0
 10
237.861085552005
 20
82.38139288089332
 30
0.0
 10
238.2626650801845
 20
81.9681586922356
 30
0.0
 10
238.5020018442627
 20
81.69478488845496
 30
0.0
 10
238.6271585202311
 20
81.54308854117006
 30
0.0
 10
238.6344742666436
 20
81.53365927018318
 30
0.0
 10
238.637694918501
 20
81.52950816961112
 30
0.0
  0
SPLINE
  5
222
330
1F
100
AcDbEntity
  8
0
  6
Continuous
 62
     7
370
    25
100
AcDbSpline
210
0.0
220
0.0
230
1.0
 70
     8
 71
     3
 72
    19
 73
    15
 74
     0
 42
0.00000001
 43
0.00000001
 40
0.0
 40
0.0
 40
0.0
 40
0.0
 40
0.066333443199128
 40
0.1059201266736015
 40
0.1953051683102085
 40
0.284856468247294
 40
0.4058504248310042
 40
0.52693061204925
 40
0.6283655224150105
 40
0.7297331551594419
 40
0.8191447823339053
 40
0.9084824326360129
 40
0.9868723020895536
 40
1.0
 40
1.0
 40
1.0
 40
1.0
 10
226.8472820834324
 20
81.52267780614507
 30
0.0
 10
226.852021655438
 20
81.52847488476228
 30
0.0
 10
226.8595897243186
 20
81.53773156241775
 30
0.0
 10
226.9408450050724
 20
81.6367372560073
 30
0.0
 10
227.0905133050582
 20
81.81357460232397
 30
0.0
 10
227.3989022425984
 20
82.15038547483219
 30
0.0
 10
227.8561460623947
 20
82.5909734603004
 30
0.0
 10
228.4544735121008
 20
83.07299225549703
 30
0.0
 10
229.1243580205587
 20
83.50891999044491
 30
0.0
 10
229.8145120379087
 20
83.86527079322094
 30
0.0
 10
230.5505986506642
 20
84.1521129699714
 30
0.0
 10
231.2834055447721
 20
84.34409579520572
 30
0.0
 10
231.8239669260886
 20
84.44379629221552
 30
0.0
 10
232.1049363235242
 20
84.4567381114192
 30
0.0
 10
232.1452398573468
 20
84.45859454508337
 30
0.0
  0
INSERT
  5
22E
330
1F
100
AcDbEntity
  8
0
  6
Continuous
 62
     7
370
    18
100
AcDbBlockReference
  2
SW_CENTERMARKSYMBOL_0
 10
232.7453370344
 20
74.9901062356
 30
0.0
  0
LINE
  5
22F
330
1F
100
AcDbEntity
  8
0
  6
Continuous
 62
     7
370
    18
100
AcDbLine
 10
228.1185870344
 20
62.4901062356
 30
0.0
 11
228.4461426641
 21
52.0083260863
 31
0.0
  0
LINE
  5
230
330
1F
100
AcDbEntity
  8
0
  6
Continuous
 62
     7
370
    18
100
AcDbLine
 10
237.0445314047
 20
52.0083260863
 30
0.0
 11
237.3720870344
 21
62.4901062356
 31
0.0
  0
LINE
  5
231
330
1F
100
AcDbEntity
  8
0
  6
Continuous
 62
     7
370
    25
100
AcDbLine
 10
155.929625118
 20
134.1616183309
 30
0.0
 11
155.740991668
 21
134.1651858759
 31
0.0
  0
LINE
  5
232
330
1F
100
AcDbEntity
  8
0
  6
Continuous
 62
     7
370
    25
100
AcDbLine
 10
179.9656955964
 20
134.1644443511
 30
0.0
 11
179.7775729895
 21
134.1594229267
 31
0.0
  0
LINE
  5
233
330
1F
100
AcDbEntity
  8
0
  6
Continuous
 62
     7
370
    25
100
AcDbLine
 10
184.929625118
 20
134.1616183309
 30
0.0
 11
184.740991668
 21
134.1651858759
 31
0.0
  0
LINE
  5
234
330
1F
100
AcDbEntity
  8
0
  6
Continuous
 62
     7
370
    25
100
AcDbLine
 10
188.8535242494
 20
128.6942028261
 30
0.0
 11
188.8535242494
 21
132.9351828552
 31
0.0
  0
LINE
  5
235
330
1F
100
AcDbEntity
  8
0
  6
Continuous
 62
     7
370
    25
100
AcDbLine
 10
146.8535242494
 20
132.9351828552
 30
0.0
 11
146.8535242494
 21
128.6942028261
 31
0.0
  0
LINE
  5
236
330
1F
100
AcDbEntity
  8
0
  6
Continuous
 62
     7
370
    25
100
AcDbLine
 10
150.9656955964
 20
134.1644443511
 30
0.0
 11
150.7774067237
 21
134.1594184887
 31
0.0
  0
LINE
  5
237
330
1F
100
AcDbEntity
  8
0
  6
Continuous
 62
     7
370
    25
100
AcDbLine
 10
184.743154081
 20
134.1710574851
 30
0.0
 11
179.9638944178
 21
134.1710574851
 31
0.0
  0
LINE
  5
238
330
1F
100
AcDbEntity
  8
0
  6
Continuous
 62
     7
370
    25
100
AcDbLine
 10
155.743154081
 20
134.1710574851
 30
0.0
 11
150.9638944178
 21
134.1710574851
 31
0.0
  0
LINE
  5
239
330
1F
100
AcDbEntity
  8
0
  6
Continuous
 62
     7
370
    25
100
AcDbLine
 10
150.7772415518
 20
127.4677707892
 30
0.0
 11
150.9660568308
 21
127.4641998054
 31
0.0
  0
LINE
  5
23A
330
1F
100
AcDbEntity
  8
0
  6
Continuous
 62
     7
370
    25
100
AcDbLine
 10
179.7774233808
 20
127.4677673504
 30
0.0
 11
179.9660568308
 21
127.4641998054
 31
0.0
  0
LINE
  5
23B
330
1F
100
AcDbEntity
  8
0
  6
Continuous
 62
     7
370
    25
100
AcDbLine
 10
155.7413529024
 20
127.4649413302
 30
0.0
 11
155.9296417751
 21
127.4699671926
 31
0.0
  0
LINE
  5
23C
330
1F
100
AcDbEntity
  8
0
  6
Continuous
 62
     7
370
    25
100
AcDbLine
 10
184.7413529024
 20
127.4649413302
 30
0.0
 11
184.9296417751
 21
127.4699671926
 31
0.0
  0
LINE
  5
23D
330
1F
100
AcDbEntity
  8
0
  6
Continuous
 62
     7
370
    25
100
AcDbLine
 10
179.9638944178
 20
127.4583281962
 30
0.0
 11
184.743154081
 21
127.4583281962
 31
0.0
  0
LINE
  5
23E
330
1F
100
AcDbEntity
  8
0
  6
Continuous
 62
     7
370
    25
100
AcDbLine
 10
150.9638944178
 20
127.4583281962
 30
0.0
 11
155.743154081
 21
127.4583281962
 31
0.0
  0
SPLINE
  5
23F
330
1F
100
AcDbEntity
  8
0
  6
Continuous
 62
     7
370
    25
100
AcDbSpline
210
0.0
220
0.0
230
1.0
 70
     8
 71
     3
 72
    19
 73
    15
 74
     0
 42
0.00000001
 43
0.00000001
 40
0.0
 40
0.0
 40
0.0
 40
0.0
 40
0.0565193422057504
 40
0.1645593607811896
 40
0.2730971041921225
 40
0.3824256941266925
 40
0.4930066705367843
 40
0.6058105106048189
 40
0.723294462812716
 40
0.8191322913495483
 40
0.880640311196156
 40
0.9372218808955411
 40
0.9914594681972334
 40
1.0
 40
1.0
 40
1.0
 40
1.0
 10
150.7766035816102
 20
134.1655964384523
 30
0.0
 10
150.6555738005833
 20
134.1575613170534
 30
0.0
 10
150.3031885352208
 20
134.1341665925289
 30
0.0
 10
149.7527794204989
 20
134.0863680228561
 30
0.0
 10
149.1506629236494
 20
134.0189733376285
 30
0.0
 10
148.609940235433
 20
133.9405650153832
 30
0.0
 10
148.1352260073866
 20
133.851203574704
 30
0.0
 10
147.7278166176997
 20
133.7488520240391
 30
0.0
 10
147.4115081619386
 20
133.6363797100934
 30
0.0
 10
147.1867616141612
 20
133.5155022266679
 30
0.0
 10
147.0166363634486
 20
133.3715922609888
 30
0.0
 10
146.9022983904137
 20
133.1961319832785
 30
0.0
 10
146.841634632183
 20
133.0248841417176
 30
0.0
 10
146.8575442503465
 20
132.937951956774
 30
0.0
 10
146.8597086445945
 20
132.9261254302583
 30
0.0
  0
SPLINE
  5
240
330
1F
100
AcDbEntity
  8
0
  6
Continuous
 62
     7
370
    25
100
AcDbSpline
210
0.0
220
0.0
230
1.0
 70
     8
 71
     3
 72
    12
 73
     8
 74
     0
 42
0.00000001
 43
0.00000001
 40
0.0
 40
0.0
 40
0.0
 40
0.0
 40
0.1160302486508213
 40
0.3441849156467269
 40
0.567993990279047
 40
0.7889503498052591
 40
1.0
 40
1.0
 40
1.0
 40
1.0
 10
158.5602276894182
 20
133.8491432126034
 30
0.0
 10
158.4831180325068
 20
133.8651648031034
 30
0.0
 10
158.254384740385
 20
133.912690253052
 30
0.0
 10
157.8188475720582
 20
133.9834151981535
 30
0.0
 10
157.2346524056609
 20
134.0571145826664
 30
0.0
 10
156.6061972650078
 20
134.1189602099074
 30
0.0
 10
156.1522255584854
 20
134.1502905165324
 30
0.0
 10
155.9304449172351
 20
134.1655964384523
 30
0.0
  0
SPLINE
  5
241
330
1F
100
AcDbEntity
  8
0
  6
Continuous
 62
     7
370
    25
100
AcDbSpline
210
0.0
220
0.0
230
1.0
 70
     8
 71
     3
 72
    19
 73
    15
 74
     0
 42
0.00000001
 43
0.00000001
 40
0.0
 40
0.0
 40
0.0
 40
0.0
 40
0.044775835477048
 40
0.0993513713431549
 40
0.1567620547389258
 40
0.2269486463571936
 40
0.3256894762442596
 40
0.4399645039024675
 40
0.5484789804869501
 40
0.6627086846222784
 40
0.7740287057158165
 40
0.8838370587436954
 40
0.9866935228806062
 40
1.0
 40
1.0
 40
1.0
 40
1.0
 10
188.8444476265885
 20
132.9439125535704
 30
0.0
 10
188.8408923064147
 20
133.0083851999584
 30
0.0
 10
188.8330035438476
 20
133.1514410640093
 30
0.0
 10
188.7239450973542
 20
133.3277152749104
 30
0.0
 10
188.5862710925175
 20
133.4658433060939
 30
0.0
 10
188.4046364025339
 20
133.5822275759321
 30
0.0
 10
188.1566448451391
 20
133.6903049408184
 30
0.0
 10
187.8158871697432
 20
133.7935221032039
 30
0.0
 10
187.383044685581
 20
133.8896917795994
 30
0.0
 10
186.8780359199265
 20
133.9749337271156
 30
0.0
 10
186.2985200219965
 20
134.0501145204523
 30
0.0
 10
185.6768787273806
 20
134.1121087775408
 30
0.0
 10
185.2082592644763
 20
134.1478464371017
 30
0.0
 10
184.958997839627
 20
134.1637721467408
 30
0.0
 10
184.9304449172351
 20
134.1655964384523
 30
0.0
  0
SPLINE
  5
242
330
1F
100
AcDbEntity
  8
0
  6
Continuous
 62
     7
370
    25
100
AcDbSpline
210
0.0
220
0.0
230
1.0
 70
     8
 71
     3
 72
    12
 73
     8
 74
     0
 42
0.00000001
 43
0.00000001
 40
0.0
 40
0.0
 40
0.0
 40
0.0
 40
0.1143914969617756
 40
0.3330575141923331
 40
0.5527308943323893
 40
0.7740048967404186
 40
1.0
 40
1.0
 40
1.0
 40
1.0
 10
179.7766035816101
 20
134.1655964384523
 30
0.0
 10
179.6555810067494
 20
134.1575603300094
 30
0.0
 10
179.3032167225604
 20
134.1341627316487
 30
0.0
 10
178.7525382892427
 20
134.0864010511199
 30
0.0
 10
178.1515555391596
 20
134.0188510741733
 30
0.0
 10
177.6047777274842
 20
133.9407706610551
 30
0.0
 10
177.3005435524639
 20
133.8798998671228
 30
0.0
 10
177.1468208094271
 20
133.8491432126034
 30
0.0
  0
SPLINE
  5
243
330
1F
100
AcDbEntity
  8
0
  6
Continuous
 62
     7
370
    25
100
AcDbSpline
210
0.0
220
0.0
230
1.0
 70
     8
 71
     3
 72
    19
 73
    15
 74
     0
 42
0.00000001
 43
0.00000001
 40
0.0
 40
0.0
 40
0.0
 40
0.0
 40
0.0565193422057508
 40
0.1645593607811959
 40
0.2730971041921285
 40
0.3824256941266875
 40
0.4930066705367815
 40
0.6058105106048148
 40
0.7232944628127118
 40
0.8191322913495448
 40
0.8806403111961544
 40
0.9372218808955392
 40
0.9914594681972336
 40
1.0
 40
1.0
 40
1.0
 40
1.0
 10
184.9304449172351
 20
127.463789242841
 30
0.0
 10
185.051474698262
 20
127.4718243642399
 30
0.0
 10
185.4038599636244
 20
127.4952190887644
 30
0.0
 10
185.9542690783464
 20
127.5430176584372
 30
0.0
 10
186.5563855751959
 20
127.6104123436648
 30
0.0
 10
187.0971082634123
 20
127.68882066591
 30
0.0
 10
187.5718224914587
 20
127.7781821065892
 30
0.0
 10
187.9792318811455
 20
127.8805336572542
 30
0.0
 10
188.2955403369066
 20
127.9930059711999
 30
0.0
 10
188.5202868846841
 20
128.1138834546253
 30
0.0
 10
188.6904121353967
 20
128.2577934203044
 30
0.0
 10
188.8047501084315
 20
128.4332536980148
 30
0.0
 10
188.8654138666623
 20
128.6045015395757
 30
0.0
 10
188.8495042484988
 20
128.6914337245193
 30
0.0
 10
188.8473398542507
 20
128.703260251035
 30
0.0
  0
SPLINE
  5
244
330
1F
100
AcDbEntity
  8
0
  6
Continuous
 62
     7
370
    25
100
AcDbSpline
210
0.0
220
0.0
230
1.0
 70
     8
 71
     3
 72
    19
 73
    15
 74
     0
 42
0.00000001
 43
0.00000001
 40
0.0
 40
0.0
 40
0.0
 40
0.0
 40
0.0447758354770506
 40
0.0993513713431561
 40
0.1567620547389327
 40
0.2269486463572052
 40
0.3256894762442752
 40
0.4399645039024865
 40
0.5484789804869677
 40
0.6627086846222943
 40
0.7740287057158303
 40
0.8838370587437097
 40
0.9866935228806202
 40
1.0
 40
1.0
 40
1.0
 40
1.0
 10
146.8626008722568
 20
128.6854731277229
 30
0.0
 10
146.8661561924305
 20
128.6210004813349
 30
0.0
 10
146.8740449549977
 20
128.4779446172839
 30
0.0
 10
146.9831034014911
 20
128.3016704063829
 30
0.0
 10
147.1207774063277
 20
128.1635423751994
 30
0.0
 10
147.3024120963114
 20
128.0471581053611
 30
0.0
 10
147.5504036537062
 20
127.9390807404749
 30
0.0
 10
147.8911613291021
 20
127.8358635780893
 30
0.0
 10
148.3240038132643
 20
127.7396939016938
 30
0.0
 10
148.8290125789188
 20
127.6544519541777
 30
0.0
 10
149.4085284768489
 20
127.579271160841
 30
0.0
 10
150.0301697714648
 20
127.5172769037524
 30
0.0
 10
150.498789234369
 20
127.4815392441915
 30
0.0
 10
150.7480506592183
 20
127.4656135345525
 30
0.0
 10
150.7766035816101
 20
127.463789242841
 30
0.0
  0
SPLINE
  5
245
330
1F
100
AcDbEntity
  8
0
  6
Continuous
 62
     7
370
    25
100
AcDbSpline
210
0.0
220
0.0
230
1.0
 70
     8
 71
     3
 72
    12
 73
     8
 74
     0
 42
0.00000001
 43
0.00000001
 40
0.0
 40
0.0
 40
0.0
 40
0.0
 40
0.1160302486508213
 40
0.3441849156467394
 40
0.5679939902790627
 40
0.7889503498052565
 40
1.0
 40
1.0
 40
1.0
 40
1.0
 10
177.1468208094271
 20
127.7802424686899
 30
0.0
 10
177.2239304663385
 20
127.7642208781899
 30
0.0
 10
177.4526637584603
 20
127.7166954282413
 30
0.0
 10
177.8882009267871
 20
127.6459704831397
 30
0.0
 10
178.4723960931844
 20
127.5722710986268
 30
0.0
 10
179.1008512338375
 20
127.5104254713858
 30
0.0
 10
179.5548229403599
 20
127.4790951647608
 30
0.0
 10
179.7766035816101
 20
127.463789242841
 30
0.0
  0
SPLINE
  5
246
330
1F
100
AcDbEntity
  8
0
  6
Continuous
 62
     7
370
    25
100
AcDbSpline
210
0.0
220
0.0
230
1.0
 70
     8
 71
     3
 72
    12
 73
     8
 74
     0
 42
0.00000001
 43
0.00000001
 40
0.0
 40
0.0
 40
0.0
 40
0.0
 40
0.1143914969617758
 40
0.3330575141923392
 40
0.5527308943323938
 40
0.7740048967404096
 40
1.0
 40
1.0
 40
1.0
 40
1.0
 10
155.9304449172351
 20
127.463789242841
 30
0.0
 10
156.0514674920958
 20
127.4718253512839
 30
0.0
 10
156.4038317762849
 20
127.4952229496445
 30
0.0
 10
156.9545102096026
 20
127.5429846301734
 30
0.0
 10
157.5554929596857
 20
127.61053460712
 30
0.0
 10
158.102270771361
 20
127.6886150202381
 30
0.0
 10
158.4065049463814
 20
127.7494858141705
 30
0.0
 10
158.5602276894182
 20
127.7802424686899
 30
0.0
  0
LINE
  5
247
330
1F
100
AcDbEntity
  8
0
  6
Continuous
 62
     7
370
    25
100
AcDbLine
 10
158.606092877
 20
133.8407857999
 30
0.0
 11
158.5602276894
 21
133.8491432126
 31
0.0
  0
LINE
  5
248
330
1F
100
AcDbEntity
  8
0
  6
Continuous
 62
     7
370
    25
100
AcDbLine
 10
177.1468208094
 20
133.8491432126
 30
0.0
 11
177.1001527556
 21
133.8400902551
 31
0.0
  0
LINE
  5
249
330
1F
100
AcDbEntity
  8
0
  6
Continuous
 62
     7
370
    25
100
AcDbLine
 10
158.5602276894
 20
127.7802424687
 30
0.0
 11
158.6068957432
 21
127.7892954262
 31
0.0
  0
LINE
  5
24A
330
1F
100
AcDbEntity
  8
0
  6
Continuous
 62
     7
370
    25
100
AcDbLine
 10
177.1009556219
 20
127.7885998814
 30
0.0
 11
177.1468208094
 21
127.7802424687
 31
0.0
  0
LINE
  5
24B
330
1F
100
AcDbEntity
  8
0
  6
Continuous
 62
     7
370
    25
100
AcDbLine
 10
179.3535242494
 20
122.8146928406
 30
0.0
 11
182.1535242494
 21
122.8146928406
 31
0.0
  0
LINE
  5
24C
330
1F
100
AcDbEntity
  8
0
  6
Continuous
 62
     7
370
    25
100
AcDbLine
 10
182.1535242494
 20
138.8146928406
 30
0.0
 11
179.3535242494
 21
138.8146928406
 31
0.0
  0
LINE
  5
24D
330
1F
100
AcDbEntity
  8
0
  6
Continuous
 62
     7
370
    25
100
AcDbLine
 10
182.1535242494
 20
122.8146928406
 30
0.0
 11
182.3535242494
 21
123.0146928406
 31
0.0
  0
LINE
  5
24E
330
1F
100
AcDbEntity
  8
0
  6
Continuous
 62
     7
370
    25
100
AcDbLine
 10
182.3535242494
 20
138.6146928406
 30
0.0
 11
182.1535242494
 21
138.8146928406
 31
0.0
  0
LINE
  5
24F
330
1F
100
AcDbEntity
  8
0
  6
Continuous
 62
     7
370
    25
100
AcDbLine
 10
193.3535242494
 20
127.8146928406
 30
0.0
 11
197.3535242494
 21
128.5646928406
 31
0.0
  0
LINE
  5
250
330
1F
100
AcDbEntity
  8
0
  6
Continuous
 62
     7
370
    25
100
AcDbLine
 10
197.3535242494
 20
133.0646928406
 30
0.0
 11
193.3535242494
 21
133.8146928406
 31
0.0
  0
LINE
  5
251
330
1F
100
AcDbEntity
  8
0
  6
Continuous
 62
     7
370
    25
100
AcDbLine
 10
189.3535242494
 20
127.8146928406
 30
0.0
 11
193.3535242494
 21
128.5646928406
 31
0.0
  0
LINE
  5
252
330
1F
100
AcDbEntity
  8
0
  6
Continuous
 62
     7
370
    25
100
AcDbLine
 10
193.3535242494
 20
133.0646928406
 30
0.0
 11
189.3535242494
 21
133.8146928406
 31
0.0
  0
LINE
  5
253
330
1F
100
AcDbEntity
  8
0
  6
Continuous
 62
     7
370
    25
100
AcDbLine
 10
188.805117951
 20
128.4618666597
 30
0.0
 11
189.3535242494
 21
128.5646928406
 31
0.0
  0
LINE
  5
254
330
1F
100
AcDbEntity
  8
0
  6
Continuous
 62
     7
370
    25
100
AcDbLine
 10
189.3535242494
 20
133.0646928406
 30
0.0
 11
188.80171447
 21
133.1681571743
 31
0.0
  0
LINE
  5
255
330
1F
100
AcDbEntity
  8
0
  6
Continuous
 62
     7
370
    25
100
AcDbLine
 10
197.3535242494
 20
127.8146928406
 30
0.0
 11
201.3535242494
 21
128.5646928406
 31
0.0
  0
LINE
  5
256
330
1F
100
AcDbEntity
  8
0
  6
Continuous
 62
     7
370
    25
100
AcDbLine
 10
201.3535242494
 20
133.0646928406
 30
0.0
 11
197.3535242494
 21
133.8146928406
 31
0.0
  0
LINE
  5
257
330
1F
100
AcDbEntity
  8
0
  6
Continuous
 62
     7
370
    25
100
AcDbLine
 10
201.3535242494
 20
127.8146928406
 30
0.0
 11
204.8612165571
 21
128.4723851483
 31
0.0
  0
LINE
  5
258
330
1F
100
AcDbEntity
  8
0
  6
Continuous
 62
     7
370
    25
100
AcDbLine
 10
204.8612165571
 20
133.157000533
 30
0.0
 11
201.3535242494
 21
133.8146928406
 31
0.0
  0
LINE
  5
259
330
1F
100
AcDbEntity
  8
0
  6
Continuous
 62
     7
370
    25
100
AcDbLine
 10
204.8612165571
 20
128.4723851483
 30
0.0
 11
205.3535242494
 21
128.9646928406
 31
0.0
  0
LINE
  5
25A
330
1F
100
AcDbEntity
  8
0
  6
Continuous
 62
     7
370
    25
100
AcDbLine
 10
205.3535242494
 20
132.6646928406
 30
0.0
 11
204.8612165571
 21
133.157000533
 31
0.0
  0
LINE
  5
25B
330
1F
100
AcDbEntity
  8
0
  6
Continuous
 62
     7
370
    25
100
AcDbLine
 10
156.3535242494
 20
138.8146928406
 30
0.0
 11
153.5535242494
 21
138.8146928406
 31
0.0
  0
LINE
  5
25C
330
1F
100
AcDbEntity
  8
0
  6
Continuous
 62
     7
370
    25
100
AcDbLine
 10
153.5535242494
 20
122.8146928406
 30
0.0
 11
156.3535242494
 21
122.8146928406
 31
0.0
  0
LINE
  5
25D
330
1F
100
AcDbEntity
  8
0
  6
Continuous
 62
     7
370
    25
100
AcDbLine
 10
153.5535242494
 20
138.8146928406
 30
0.0
 11
153.3535242494
 21
138.6146928406
 31
0.0
  0
LINE
  5
25E
330
1F
100
AcDbEntity
  8
0
  6
Continuous
 62
     7
370
    25
100
AcDbLine
 10
153.3535242494
 20
123.0146928406
 30
0.0
 11
153.5535242494
 21
122.8146928406
 31
0.0
  0
LINE
  5
25F
330
1F
100
AcDbEntity
  8
0
  6
Continuous
 62
     7
370
    25
100
AcDbLine
 10
142.3535242494
 20
133.8146928406
 30
0.0
 11
138.3535242494
 21
133.0646928406
 31
0.0
  0
LINE
  5
260
330
1F
100
AcDbEntity
  8
0
  6
Continuous
 62
     7
370
    25
100
AcDbLine
 10
138.3535242494
 20
128.5646928406
 30
0.0
 11
142.3535242494
 21
127.8146928406
 31
0.0
  0
LINE
  5
261
330
1F
100
AcDbEntity
  8
0
  6
Continuous
 62
     7
370
    25
100
AcDbLine
 10
146.3535242494
 20
133.8146928406
 30
0.0
 11
142.3535242494
 21
133.0646928406
 31
0.0
  0
LINE
  5
262
330
1F
100
AcDbEntity
  8
0
  6
Continuous
 62
     7
370
    25
100
AcDbLine
 10
142.3535242494
 20
128.5646928406
 30
0.0
 11
146.3535242494
 21
127.8146928406
 31
0.0
  0
LINE
  5
263
330
1F
100
AcDbEntity
  8
0
  6
Continuous
 62
     7
370
    25
100
AcDbLine
 10
146.9019305479
 20
133.1675190216
 30
0.0
 11
146.3535242494
 21
133.0646928406
 31
0.0
  0
LINE
  5
264
330
1F
100
AcDbEntity
  8
0
  6
Continuous
 62
     7
370
    25
100
AcDbLine
 10
146.3535242494
 20
128.5646928406
 30
0.0
 11
146.9053340288
 21
128.461228507
 31
0.0
  0
LINE
  5
265
330
1F
100
AcDbEntity
  8
0
  6
Continuous
 62
     7
370
    25
100
AcDbLine
 10
138.3535242494
 20
133.8146928406
 30
0.0
 11
134.3535242494
 21
133.0646928406
 31
0.0
  0
LINE
  5
266
330
1F
100
AcDbEntity
  8
0
  6
Continuous
 62
     7
370
    25
100
AcDbLine
 10
134.3535242494
 20
128.5646928406
 30
0.0
 11
138.3535242494
 21
127.8146928406
 31
0.0
  0
LINE
  5
267
330
1F
100
AcDbEntity
  8
0
  6
Continuous
 62
     7
370
    25
100
AcDbLine
 10
134.3535242494
 20
133.8146928406
 30
0.0
 11
130.8458319417
 21
133.157000533
 31
0.0
  0
LINE
  5
268
330
1F
100
AcDbEntity
  8
0
  6
Continuous
 62
     7
370
    25
100
AcDbLine
 10
130.8458319417
 20
128.4723851483
 30
0.0
 11
134.3535242494
 21
127.8146928406
 31
0.0
  0
LINE
  5
269
330
1F
100
AcDbEntity
  8
0
  6
Continuous
 62
     7
370
    25
100
AcDbLine
 10
130.8458319417
 20
133.157000533
 30
0.0
 11
130.3535242494
 21
132.6646928406
 31
0.0
  0
LINE
  5
26A
330
1F
100
AcDbEntity
  8
0
  6
Continuous
 62
     7
370
    25
100
AcDbLine
 10
130.3535242494
 20
128.9646928406
 30
0.0
 11
130.8458319417
 21
128.4723851483
 31
0.0
  0
LINE
  5
26B
330
1F
100
AcDbEntity
  8
0
  6
Continuous
 62
     7
370
    25
100
AcDbLine
 10
165.6160402279
 20
129.8394202956
 30
0.0
 11
165.5832447009
 21
129.8581643349
 31
0.0
  0
SPLINE
  5
26C
330
1F
100
AcDbEntity
  8
0
  6
Continuous
 62
     7
370
    25
100
AcDbSpline
210
0.0
220
0.0
230
1.0
 70
     8
 71
     3
 72
    15
 73
    11
 74
     0
 42
0.00000001
 43
0.00000001
 40
0.0
 40
0.0
 40
0.0
 40
0.0
 40
0.1241930067305288
 40
0.2496556654892299
 40
0.3743703853151211
 40
0.4998404796364203
 40
0.6240146704162364
 40
0.7475381382242064
 40
0.8745858500551822
 40
1.0
 40
1.0
 40
1.0
 40
1.0
 10
166.3963299495532
 20
130.1118599462324
 30
0.0
 10
166.3807695544434
 20
130.0760127434885
 30
0.0
 10
166.3494896869319
 20
130.0039518642767
 30
0.0
 10
166.2720533274436
 20
129.9140763509338
 30
0.0
 10
166.1786993237046
 20
129.8417525731394
 30
0.0
 10
166.0714737176837
 20
129.7928251546349
 30
0.0
 10
165.9570878069628
 20
129.7664971011801
 30
0.0
 10
165.8394170440774
 20
129.7656380071775
 30
0.0
 10
165.7225333188522
 20
129.7870207678071
 30
0.0
 10
165.6513844679575
 20
129.8220292942679
 30
0.0
 10
165.6160402278741
 20
129.8394202956493
 30
0.0
  0
LINE
  5
26D
330
1F
100
AcDbEntity
  8
0
  6
Continuous
 62
     7
370
    25
100
AcDbLine
 10
167.3881839943
 20
132.8854391621
 30
0.0
 11
166.3963299496
 21
130.1118599462
 31
0.0
  0
SPLINE
  5
26E
330
1F
100
AcDbEntity
  8
0
  6
Continuous
 62
     7
370
    25
100
AcDbSpline
210
0.0
220
0.0
230
1.0
 70
     8
 71
     3
 72
    15
 73
    11
 74
     0
 42
0.00000001
 43
0.00000001
 40
0.0
 40
0.0
 40
0.0
 40
0.0
 40
0.1233025178081761
 40
0.2485158700387113
 40
0.3756924668130947
 40
0.4999990880429329
 40
0.6243057092728392
 40
0.751482306047304
 40
0.8766757256079954
 40
1.0
 40
1.0
 40
1.0
 40
1.0
 10
168.3188645077743
 20
132.8854391621458
 30
0.0
 10
168.2947135358119
 20
132.9260842980815
 30
0.0
 10
168.2460373212772
 20
133.0080044526694
 30
0.0
 10
168.1306866630721
 20
133.0978234084819
 30
0.0
 10
167.9975270408102
 20
133.155397556643
 30
0.0
 10
167.8535243974414
 20
133.1745562523131
 30
0.0
 10
167.7095208687429
 20
133.155398149428
 30
0.0
 10
167.5763709957774
 20
133.0978240356895
 30
0.0
 10
167.461008638243
 20
133.0080184735428
 30
0.0
 10
167.4123368525718
 20
132.926093542018
 30
0.0
 10
167.388183994255
 20
132.8854391621459
 30
0.0
  0
LINE
  5
26F
330
1F
100
AcDbEntity
  8
0
  6
Continuous
 62
     7
370
    25
100
AcDbLine
 10
169.3104874141
 20
130.1125062918
 30
0.0
 11
168.3188645078
 21
132.8854391621
 31
0.0
  0
SPLINE
  5
270
330
1F
100
AcDbEntity
  8
0
  6
Continuous
 62
     7
370
    25
100
AcDbSpline
210
0.0
220
0.0
230
1.0
 70
     8
 71
     3
 72
    15
 73
    11
 74
     0
 42
0.00000001
 43
0.00000001
 40
0.0
 40
0.0
 40
0.0
 40
0.0
 40
0.1253320172137757
 40
0.2522975129251761
 40
0.3758847553984063
 40
0.5001929511416489
 40
0.6255758307380154
 40
0.7502289462456485
 40
0.875744493577783
 40
1.0
 40
1.0
 40
1.0
 40
1.0
 10
170.0831891786881
 20
129.8358104411915
 30
0.0
 10
170.0479382620601
 20
129.8191361327087
 30
0.0
 10
169.9769769962058
 20
129.7855701959794
 30
0.0
 10
169.8609901054174
 20
129.7657885797253
 30
0.0
 10
169.744393739177
 20
129.7678613600719
 30
0.0
 10
169.6312731325955
 20
129.7949393864224
 30
0.0
 10
169.5253974182561
 20
129.8441522021296
 30
0.0
 10
169.4332883336369
 20
129.9162379660035
 30
0.0
 10
169.3568566697685
 20
130.005525487503
 30
0.0
 10
169.3258917622692
 20
130.07696615794
 30
0.0
 10
169.310487414148
 20
130.112506291798
 30
0.0
  0
LINE
  5
271
330
1F
100
AcDbEntity
  8
0
  6
Continuous
 62
     7
370
    25
100
AcDbLine
 10
170.1238038012
 20
129.8581643349
 30
0.0
 11
170.0831891787
 21
129.8358104412
 31
0.0
  0
LINE
  5
272
330
1F
100
AcDbEntity
  8
0
  6
Continuous
 62
     7
370
    25
100
AcDbLine
 10
169.4968206047
 20
128.6627532314
 30
0.0
 11
170.1238038012
 21
129.8581643349
 31
0.0
  0
SPLINE
  5
273
330
1F
100
AcDbEntity
  8
0
  6
Continuous
 62
     7
370
    25
100
AcDbSpline
210
0.0
220
0.0
230
1.0
 70
     8
 71
     3
 72
    15
 73
    11
 74
     0
 42
0.00000001
 43
0.00000001
 40
0.0
 40
0.0
 40
0.0
 40
0.0
 40
0.124633218643854
 40
0.2519059530189772
 40
0.3765391000744918
 40
0.4994035903146518
 40
0.6264494152300148
 40
0.7526064410610419
 40
0.874680437736327
 40
1.0
 40
1.0
 40
1.0
 40
1.0
 10
169.3915921158791
 20
128.644636064694
 30
0.0
 10
169.3956065915472
 20
128.6415308298413
 30
0.0
 10
169.4037205625259
 20
128.6352545966395
 30
0.0
 10
169.4181591543625
 20
128.6296415831596
 30
0.0
 10
169.4332926042955
 20
128.6271052305329
 30
0.0
 10
169.4486551465773
 20
128.6279906341007
 30
0.0
 10
169.463585725414
 20
128.6321217046164
 30
0.0
 10
169.4770876254433
 20
128.6396124045622
 30
0.0
 10
169.4887732803297
 20
128.6497509864766
 30
0.0
 10
169.4941148046705
 20
128.6583814088194
 30
0.0
 10
169.4968206046723
 20
128.6627532314116
 30
0.0
  0
SPLINE
  5
274
330
1F
100
AcDbEntity
  8
0
  6
Continuous
 62
     7
370
    25
100
AcDbSpline
210
0.0
220
0.0
230
1.0
 70
     8
 71
     3
 72
    11
 73
     7
 74
     0
 42
0.00000001
 43
0.00000001
 40
0.0
 40
0.0
 40
0.0
 40
0.0
 40
0.2506252605986011
 40
0.4999999999996215
 40
0.7493747394010042
 40
1.0
 40
1.0
 40
1.0
 40
1.0
 10
166.3154563861502
 20
128.6446360646939
 30
0.0
 10
166.5451840803235
 20
128.8074903566549
 30
0.0
 10
167.0034932180865
 20
129.1323863618938
 30
0.0
 10
167.8535242510226
 20
129.2661183088309
 30
0.0
 10
168.7035552839529
 20
129.1323863618886
 30
0.0
 10
169.1618644217091
 20
128.8074903566532
 30
0.0
 10
169.3915921158791
 20
128.644636064694
 30
0.0
  0
SPLINE
  5
275
330
1F
100
AcDbEntity
  8
0
  6
Continuous
 62
     7
370
    25
100
AcDbSpline
210
0.0
220
0.0
230
1.0
 70
     8
 71
     3
 72
    15
 73
    11
 74
     0
 42
0.00000001
 43
0.00000001
 40
0.0
 40
0.0
 40
0.0
 40
0.0
 40
0.1253191957979138
 40
0.2473928354984065
 40
0.3734492416489706
 40
0.5005950046079967
 40
0.6235484391777611
 40
0.7480947836179483
 40
0.8753671458153899
 40
1.0
 40
1.0
 40
1.0
 40
1.0
 10
166.210227897357
 20
128.6627532314116
 30
0.0
 10
166.2129336936895
 20
128.6583814031277
 30
0.0
 10
166.2182752107866
 20
128.6497509695489
 30
0.0
 10
166.2299577833757
 20
128.6396151920491
 30
0.0
 10
166.243458763363
 20
128.6321230761755
 30
0.0
 10
166.258392792213
 20
128.6279906308833
 30
0.0
 10
166.2737598034021
 20
128.6271026891098
 30
0.0
 10
166.2888925398403
 20
128.6296436313674
 30
0.0
 10
166.303327969622
 20
128.6352544096345
 30
0.0
 10
166.3114419204512
 20
128.6415307679433
 30
0.0
 10
166.3154563861502
 20
128.6446360646939
 30
0.0
  0
LINE
  5
276
330
1F
100
AcDbEntity
  8
0
  6
Continuous
 62
     7
370
    25
100
AcDbLine
 10
165.5832447009
 20
129.8581643349
 30
0.0
 11
166.2102278974
 21
128.6627532314
 31
0.0
  0
SPLINE
  5
277
330
1F
100
AcDbEntity
  8
0
  6
Continuous
 62
     7
370
    25
100
AcDbSpline
210
0.0
220
0.0
230
1.0
 70
     8
 71
     3
 72
    15
 73
    11
 74
     0
 42
0.00000001
 43
0.00000001
 40
0.0
 40
0.0
 40
0.0
 40
0.0
 40
0.1233867499278388
 40
0.2487396502211602
 40
0.3739317114754985
 40
0.4999973617625659
 40
0.6259591330513601
 40
0.7512551380600303
 40
0.8765613478174267
 40
1.0
 40
1.0
 40
1.0
 40
1.0
 10
167.7906413846165
 20
130.8361022987894
 30
0.0
 10
167.7935195858084
 20
130.8421170948724
 30
0.0
 10
167.7993218519201
 20
130.8542425319611
 30
0.0
 10
167.8148512566408
 20
130.8676337923112
 30
0.0
 10
167.8332058385142
 20
130.8765115038911
 30
0.0
 10
167.8535186549971
 20
130.8792681671875
 30
0.0
 10
167.8738370727123
 20
130.8765134859869
 30
0.0
 10
167.8921899418764
 20
130.8676377876975
 30
0.0
 10
167.9077280462719
 20
130.8542474204438
 30
0.0
 10
167.9135286083032
 20
130.8421203228977
 30
0.0
 10
167.9164071142287
 20
130.8361022987894
 30
0.0
  0
LINE
  5
278
330
1F
100
AcDbEntity
  8
0
  6
Continuous
 62
     7
370
    25
100
AcDbLine
 10
167.5515278589
 20
130.1978482695
 30
0.0
 11
167.7906413846
 21
130.8361022988
 31
0.0
  0
SPLINE
  5
279
330
1F
100
AcDbEntity
  8
0
  6
Continuous
 62
     7
370
    25
100
AcDbSpline
210
0.0
220
0.0
230
1.0
 70
     8
 71
     3
 72
    15
 73
    11
 74
     0
 42
0.00000001
 43
0.00000001
 40
0.0
 40
0.0
 40
0.0
 40
0.0
 40
0.1261585224210642
 40
0.25131214515488
 40
0.3762846848783792
 40
0.4993062783340877
 40
0.6261594278645743
 40
0.7521171342021308
 40
0.8758196922692789
 40
1.0
 40
1.0
 40
1.0
 40
1.0
 10
167.6144107237449
 20
130.1127839161669
 30
0.0
 10
167.6091796272562
 20
130.1131062227592
 30
0.0
 10
167.5987591019135
 20
130.1137482686517
 30
0.0
 10
167.5839725513991
 20
130.1191965090269
 30
0.0
 10
167.5707821987736
 20
130.1274191116125
 30
0.0
 10
167.5599116239324
 20
130.1386757179251
 30
0.0
 10
167.5519040366038
 20
130.1521964632662
 30
0.0
 10
167.5477374095711
 20
130.167333350843
 30
0.0
 10
167.5471163580595
 20
130.1830224824141
 30
0.0
 10
167.5500554704143
 20
130.1928999947728
 30
0.0
 10
167.551527858897
 20
130.1978482695168
 30
0.0
  0
LINE
  5
27A
330
1F
100
AcDbEntity
  8
0
  6
Continuous
 62
     7
370
    25
100
AcDbLine
 10
168.0926377779
 20
130.1127839162
 30
0.0
 11
167.6144107237
 21
130.1127839162
 31
0.0
  0
SPLINE
  5
27B
330
1F
100
AcDbEntity
  8
0
  6
Continuous
 62
     7
370
    25
100
AcDbSpline
210
0.0
220
0.0
230
1.0
 70
     8
 71
     3
 72
    15
 73
    11
 74
     0
 42
0.00000001
 43
0.00000001
 40
0.0
 40
0.0
 40
0.0
 40
0.0
 40
0.1241186784437694
 40
0.2478474916628982
 40
0.3736574149478942
 40
0.5005082335853296
 40
0.6234527658309922
 40
0.7484986612277523
 40
0.8736976492452769
 40
1.0
 40
1.0
 40
1.0
 40
1.0
 10
168.1555206426742
 20
130.1978482697399
 30
0.0
 10
168.156991715283
 20
130.1929024240818
 30
0.0
 10
168.1599292397614
 20
130.1830262680037
 30
0.0
 10
168.1593125052613
 20
130.167344872378
 30
0.0
 10
168.1551505436667
 20
130.1522123402977
 30
0.0
 10
168.1471517958683
 20
130.1386974326832
 30
0.0
 10
168.1362857043315
 20
130.1274373714872
 30
0.0
 10
168.1230979865069
 20
130.1192076590538
 30
0.0
 10
168.1083035399317
 20
130.1137480886687
 30
0.0
 10
168.0978749490243
 20
130.1131062456118
 30
0.0
 10
168.0926377779099
 20
130.1127839161669
 30
0.0
  0
LINE
  5
27C
330
1F
100
AcDbEntity
  8
0
  6
Continuous
 62
     7
370
    25
100
AcDbLine
 10
167.9164071142
 20
130.8361022988
 30
0.0
 11
168.1555206427
 21
130.1978482697
 31
0.0
  0
CIRCLE
  5
27D
330
1F
100
AcDbEntity
  8
0
  6
Continuous
 62
     7
370
    25
100
AcDbCircle
 10
167.8535242494
 20
130.8146928406
 30
0.0
 40
4.5
  0
LINE
  5
27E
330
1F
100
AcDbEntity
  8
0
  6
Continuous
 62
     7
370
    25
100
AcDbLine
 10
155.8989743816
 20
134.1621181467
 30
0.0
 11
155.9301141272
 21
134.1656166866
 31
0.0
  0
SPLINE
  5
27F
330
1F
100
AcDbEntity
  8
0
  6
Continuous
 62
     7
370
    25
100
AcDbSpline
210
0.0
220
0.0
230
1.0
 70
     8
 71
     3
 72
    11
 73
     7
 74
     0
 42
0.00000001
 43
0.00000001
 40
0.0
 40
0.0
 40
0.0
 40
0.0
 40
0.3703424215671233
 40
0.808173663167896
 40
0.9944317652533816
 40
1.0
 40
1.0
 40
1.0
 40
1.0
 10
156.111095225976
 20
133.6665878158931
 30
0.0
 10
155.7791012597078
 20
133.6518452208221
 30
0.0
 10
155.0546128828882
 20
133.6196734350117
 30
0.0
 10
154.1244871373303
 20
133.3740983602475
 30
0.0
 10
153.5376494377877
 20
133.2201281774086
 30
0.0
 10
153.3587181727579
 20
133.1724417031575
 30
0.0
 10
153.3535242494226
 20
133.1710574850817
 30
0.0
  0
SPLINE
  5
280
330
1F
100
AcDbEntity
  8
0
  6
Continuous
 62
     7
370
    25
100
AcDbSpline
210
0.0
220
0.0
230
1.0
 70
     8
 71
     3
 72
    11
 73
     7
 74
     0
 42
0.00000001
 43
0.00000001
 40
0.0
 40
0.0
 40
0.0
 40
0.0
 40
0.0055682347466179
 40
0.1918263368321036
 40
0.6296575784328765
 40
1.0
 40
1.0
 40
1.0
 40
1.0
 10
182.3535242494226
 20
133.1710574850817
 30
0.0
 10
182.3483303260874
 20
133.1724417031575
 30
0.0
 10
182.1693990610574
 20
133.2201281774085
 30
0.0
 10
181.5825613615151
 20
133.3740983602476
 30
0.0
 10
180.6524356159571
 20
133.6196734350117
 30
0.0
 10
179.9279472391375
 20
133.6518452208221
 30
0.0
 10
179.5959532728693
 20
133.6665878158931
 30
0.0
  0
LINE
  5
281
330
1F
100
AcDbEntity
  8
0
  6
Continuous
 62
     7
370
    25
100
AcDbLine
 10
179.8080741172
 20
134.1621181467
 30
0.0
 11
179.7770089165
 21
134.1656210803
 31
0.0
  0
LINE
  5
282
330
1F
100
AcDbEntity
  8
0
  6
Continuous
 62
     7
370
    25
100
AcDbLine
 10
184.8989743816
 20
134.1621181467
 30
0.0
 11
184.9301141272
 21
134.1656166866
 31
0.0
  0
SPLINE
  5
283
330
1F
100
AcDbEntity
  8
0
  6
Continuous
 62
     7
370
    25
100
AcDbSpline
210
0.0
220
0.0
230
1.0
 70
     8
 71
     3
 72
    11
 73
     7
 74
     0
 42
0.00000001
 43
0.00000001
 40
0.0
 40
0.0
 40
0.0
 40
0.0
 40
0.3703424215671234
 40
0.8081736631678964
 40
0.9944317652533821
 40
1.0
 40
1.0
 40
1.0
 40
1.0
 10
185.111095225976
 20
133.6665878158931
 30
0.0
 10
184.7791012597077
 20
133.6518452208221
 30
0.0
 10
184.0546128828882
 20
133.6196734350117
 30
0.0
 10
183.1244871373302
 20
133.3740983602476
 30
0.0
 10
182.5376494377878
 20
133.2201281774085
 30
0.0
 10
182.3587181727579
 20
133.1724417031575
 30
0.0
 10
182.3535242494226
 20
133.1710574850817
 30
0.0
  0
SPLINE
  5
284
330
1F
100
AcDbEntity
  8
0
  6
Continuous
 62
     7
370
    25
100
AcDbSpline
210
0.0
220
0.0
230
1.0
 70
     8
 71
     3
 72
    11
 73
     7
 74
     0
 42
0.00000001
 43
0.00000001
 40
0.0
 40
0.0
 40
0.0
 40
0.0
 40
0.0055682347466184
 40
0.1918263368321039
 40
0.6296575784328784
 40
1.0
 40
1.0
 40
1.0
 40
1.0
 10
182.3535242494226
 20
128.4583281962116
 30
0.0
 10
182.3587181727579
 20
128.4569439781358
 30
0.0
 10
182.5376494377877
 20
128.4092575038844
 30
0.0
 10
183.1244871373303
 20
128.255287321046
 30
0.0
 10
184.0546128828882
 20
128.0097122462815
 30
0.0
 10
184.7791012597077
 20
127.9775404604712
 30
0.0
 10
185.111095225976
 20
127.9627978654002
 30
0.0
  0
SPLINE
  5
285
330
1F
100
AcDbEntity
  8
0
  6
Continuous
 62
     7
370
    25
100
AcDbSpline
210
0.0
220
0.0
230
1.0
 70
     8
 71
     3
 72
    11
 73
     7
 74
     0
 42
0.00000001
 43
0.00000001
 40
0.0
 40
0.0
 40
0.0
 40
0.0
 40
0.3703424215671238
 40
0.8081736631678934
 40
0.9944317652533823
 40
0.9999999999999999
 40
0.9999999999999999
 40
0.9999999999999999
 40
0.9999999999999999
 10
179.5959532728693
 20
127.9627978654002
 30
0.0
 10
179.9279472391375
 20
127.9775404604712
 30
0.0
 10
180.6524356159571
 20
128.0097122462814
 30
0.0
 10
181.582561361515
 20
128.2552873210461
 30
0.0
 10
182.1693990610575
 20
128.4092575038843
 30
0.0
 10
182.3483303260874
 20
128.4569439781358
 30
0.0
 10
182.3535242494226
 20
128.4583281962116
 30
0.0
  0
ELLIPSE
  5
286
330
1F
100
AcDbEntity
  8
0
  6
Continuous
 62
     7
370
    25
100
AcDbEllipse
 10
182.3535242494
 20
128.6942028261
 30
0.0
 11
6.5
 21
0.0
 31
0.0
210
0.0
220
0.0
230
1.0
 40
0.124260355
 41
3.696234591426875
 42
4.27426466424559
  0
LINE
  5
287
330
1F
100
AcDbEntity
  8
0
  6
Continuous
 62
     7
370
    25
100
AcDbLine
 10
176.8279453319
 20
128.2688405979
 30
0.0
 11
176.8279453319
 21
133.3605450834
 31
0.0
  0
ELLIPSE
  5
288
330
1F
100
AcDbEntity
  8
0
  6
Continuous
 62
     7
370
    25
100
AcDbEllipse
 10
182.3535242494
 20
132.9351828552
 30
0.0
 11
6.5
 21
0.0
 31
0.0
210
0.0
220
0.0
230
1.0
 40
0.124260355
 41
2.008920642933997
 42
2.586950715752777
  0
SPLINE
  5
289
330
1F
100
AcDbEntity
  8
0
  6
Continuous
 62
     7
370
    25
100
AcDbSpline
210
0.0
220
0.0
230
1.0
 70
     8
 71
     3
 72
    11
 73
     7
 74
     0
 42
0.00000001
 43
0.00000001
 40
0.0
 40
0.0
 40
0.0
 40
0.0
 40
0.0055682347466183
 40
0.1918263368321047
 40
0.6296575784328776
 40
1.0
 40
1.0
 40
1.0
 40
1.0
 10
153.3535242494226
 20
133.1710574850817
 30
0.0
 10
153.3483303260873
 20
133.1724417031575
 30
0.0
 10
153.1693990610574
 20
133.2201281774086
 30
0.0
 10
152.582561361515
 20
133.3740983602475
 30
0.0
 10
151.6524356159571
 20
133.6196734350117
 30
0.0
 10
150.9279472391375
 20
133.6518452208221
 30
0.0
 10
150.5959532728693
 20
133.6665878158931
 30
0.0
  0
ELLIPSE
  5
28A
330
1F
100
AcDbEntity
  8
0
  6
Continuous
 62
     7
370
    25
100
AcDbEllipse
 10
153.3535242494
 20
132.9351828552
 30
0.0
 11
6.499999999999972
 21
0.0
 31
0.0
210
0.0
220
0.0
230
1.0
 40
0.124260355
 41
0.5546419378370155
 42
1.132672010655795
  0
LINE
  5
28B
330
1F
100
AcDbEntity
  8
0
  6
Continuous
 62
     7
370
    25
100
AcDbLine
 10
158.879103167
 20
128.2688405979
 30
0.0
 11
158.879103167
 21
133.3605450834
 31
0.0
  0
ELLIPSE
  5
28C
330
1F
100
AcDbEntity
  8
0
  6
Continuous
 62
     7
370
    25
100
AcDbEllipse
 10
153.3535242494
 20
128.6942028261
 30
0.0
 11
6.499999999999972
 21
0.0
 31
0.0
210
0.0
220
0.0
230
1.0
 40
0.124260355
 41
5.150513296523834
 42
5.72854336934267
  0
SPLINE
  5
28D
330
1F
100
AcDbEntity
  8
0
  6
Continuous
 62
     7
370
    25
100
AcDbSpline
210
0.0
220
0.0
230
1.0
 70
     8
 71
     3
 72
    11
 73
     7
 74
     0
 42
0.00000001
 43
0.00000001
 40
0.0
 40
0.0
 40
0.0
 40
0.0
 40
0.0055682347466183
 40
0.1918263368321041
 40
0.6296575784328767
 40
1.0
 40
1.0
 40
1.0
 40
1.0
 10
153.3535242494226
 20
128.4583281962116
 30
0.0
 10
153.3587181727579
 20
128.4569439781358
 30
0.0
 10
153.5376494377877
 20
128.4092575038844
 30
0.0
 10
154.1244871373303
 20
128.255287321046
 30
0.0
 10
155.0546128828882
 20
128.0097122462815
 30
0.0
 10
155.7791012597078
 20
127.9775404604712
 30
0.0
 10
156.111095225976
 20
127.9627978654002
 30
0.0
  0
SPLINE
  5
28E
330
1F
100
AcDbEntity
  8
0
  6
Continuous
 62
     7
370
    25
100
AcDbSpline
210
0.0
220
0.0
230
1.0
 70
     8
 71
     3
 72
    11
 73
     7
 74
     0
 42
0.00000001
 43
0.00000001
 40
0.0
 40
0.0
 40
0.0
 40
0.0
 40
0.3703424215671223
 40
0.8081736631678952
 40
0.9944317652533818
 40
1.0
 40
1.0
 40
1.0
 40
1.0
 10
150.5959532728693
 20
127.9627978654002
 30
0.0
 10
150.9279472391375
 20
127.9775404604712
 30
0.0
 10
151.6524356159571
 20
128.0097122462815
 30
0.0
 10
152.5825613615149
 20
128.255287321046
 30
0.0
 10
153.1693990610576
 20
128.4092575038844
 30
0.0
 10
153.3483303260873
 20
128.4569439781358
 30
0.0
 10
153.3535242494226
 20
128.4583281962116
 30
0.0
  0
LINE
  5
28F
330
1F
100
AcDbEntity
  8
0
  6
Continuous
 62
     7
370
    25
100
AcDbLine
 10
150.7767949432
 20
134.1656083016
 30
0.0
 11
150.8080741172
 21
134.1621181467
 31
0.0
  0
LINE
  5
290
330
1F
100
AcDbEntity
  8
0
  6
Continuous
 62
     7
370
    25
100
AcDbLine
 10
179.8080741172
 20
127.4672675346
 30
0.0
 11
179.7769343716
 21
127.4637689946
 31
0.0
  0
LINE
  5
291
330
1F
100
AcDbEntity
  8
0
  6
Continuous
 62
     7
370
    25
100
AcDbLine
 10
155.9302535556
 20
127.4637773797
 30
0.0
 11
155.8989743816
 21
127.4672675346
 31
0.0
  0
LINE
  5
292
330
1F
100
AcDbEntity
  8
0
  6
Continuous
 62
     7
370
    25
100
AcDbLine
 10
184.9302535556
 20
127.4637773797
 30
0.0
 11
184.8989743816
 21
127.4672675346
 31
0.0
  0
CIRCLE
  5
293
330
1F
100
AcDbEntity
  8
0
  6
Continuous
 62
     7
370
    25
100
AcDbCircle
 10
167.8535242494
 20
130.8146928406
 30
0.0
 40
5.584181783769395
  0
CIRCLE
  5
294
330
1F
100
AcDbEntity
  8
0
  6
Continuous
 62
     7
370
    25
100
AcDbCircle
 10
167.8535242494
 20
130.8146928406
 30
0.0
 40
5.095107983402528
  0
ARC
  5
295
330
1F
100
AcDbEntity
  8
0
  6
Continuous
 62
     7
370
    25
100
AcDbCircle
 10
167.8535242494
 20
130.8146928406
 30
0.0
 40
5.92511312334006
100
AcDbArc
 50
30.7429878175
 51
149.2570121824
  0
ARC
  5
296
330
1F
100
AcDbEntity
  8
0
  6
Continuous
 62
     7
370
    25
100
AcDbCircle
 10
167.8535242494
 20
130.8146928406
 30
0.0
 40
5.92511312334006
100
AcDbArc
 50
0.0
 51
30.7429878175
  0
ARC
  5
297
330
1F
100
AcDbEntity
  8
0
  6
Continuous
 62
     7
370
    25
100
AcDbCircle
 10
167.8535242494
 20
130.8146928406
 30
0.0
 40
5.925113123340045
100
AcDbArc
 50
329.2570121825
 51
0.0
  0
ARC
  5
298
330
1F
100
AcDbEntity
  8
0
  6
Continuous
 62
     7
370
    25
100
AcDbCircle
 10
167.8535242494
 20
130.8146928406
 30
0.0
 40
5.925113123340045
100
AcDbArc
 50
210.7429878176
 51
329.2570121825
  0
ARC
  5
299
330
1F
100
AcDbEntity
  8
0
  6
Continuous
 62
     7
370
    25
100
AcDbCircle
 10
167.8535242494
 20
130.8146928406
 30
0.0
 40
5.925113123340054
100
AcDbArc
 50
180.0
 51
210.7429878176
  0
ARC
  5
29A
330
1F
100
AcDbEntity
  8
0
  6
Continuous
 62
     7
370
    25
100
AcDbCircle
 10
167.8535242494
 20
130.8146928406
 30
0.0
 40
5.925113123340054
100
AcDbArc
 50
149.2570121824
 51
180.0
  0
ELLIPSE
  5
29B
330
1F
100
AcDbEntity
  8
0
  6
Continuous
 62
     7
370
    25
100
AcDbEllipse
 10
160.5792812955
 20
133.5377793452
 30
0.0
 11
2.0
 21
0.0
 31
0.0
210
0.0
220
0.0
230
1.0
 40
0.1682692308
 41
3.696234591426893
 42
5.452764150231705
  0
SPLINE
  5
29C
330
1F
100
AcDbEntity
  8
0
  6
Continuous
 62
     7
370
    25
100
AcDbSpline
210
0.0
220
0.0
230
1.0
 70
     8
 71
     3
 72
    12
 73
     8
 74
     0
 42
0.00000001
 43
0.00000001
 40
0.0
 40
0.0
 40
0.0
 40
0.0
 40
0.2571943124574416
 40
0.524550343975796
 40
0.7385170215182983
 40
0.8882338470637771
 40
1.0
 40
1.0
 40
1.0
 40
1.0
 10
162.6439060188162
 20
133.8435389944928
 30
0.0
 10
162.559207741295
 20
133.8349237202499
 30
0.0
 10
162.3864647666026
 20
133.8173527832242
 30
0.0
 10
162.1672397378378
 20
133.6988423774964
 30
0.0
 10
162.0178599624584
 20
133.5528542328173
 30
0.0
 10
161.9404634458643
 20
133.4122717698278
 30
0.0
 10
161.9320200867005
 20
133.326151830059
 30
0.0
 10
161.9284111260826
 20
133.2893414249804
 30
0.0
  0
ELLIPSE
  5
29D
330
1F
100
AcDbEntity
  8
0
  6
Continuous
 62
     7
370
    25
100
AcDbEllipse
 10
160.5792812955
 20
134.033309676
 30
0.0
 11
2.5
 21
0.0
 31
0.0
210
0.0
220
0.0
230
1.0
 40
0.1346153846
 41
3.77131653850183
 42
5.684096710957716
  0
ELLIPSE
  5
29E
330
1F
100
AcDbEntity
  8
0
  6
Continuous
 62
     7
370
    25
100
AcDbEllipse
 10
175.1277672034
 20
133.5377793452
 30
0.0
 11
2.0
 21
0.0
 31
0.0
210
0.0
220
0.0
230
1.0
 40
0.1682692308
 41
3.972013810537753
 42
5.728543369342606
  0
SPLINE
  5
29F
330
1F
100
AcDbEntity
  8
0
  6
Continuous
 62
     7
370
    25
100
AcDbSpline
210
0.0
220
0.0
230
1.0
 70
     8
 71
     3
 72
    12
 73
     8
 74
     0
 42
0.00000001
 43
0.00000001
 40
0.0
 40
0.0
 40
0.0
 40
0.0
 40
0.144300502635625
 40
0.2873275205918761
 40
0.5201185386439748
 40
0.7602843466484799
 40
1.0
 40
1.0
 40
1.0
 40
1.0
 10
173.7786373727627
 20
133.2893414249804
 30
0.0
 10
173.7726531127382
 20
133.3369128754264
 30
0.0
 10
173.7607374051418
 20
133.4316359474736
 30
0.0
 10
173.6673521829454
 20
133.5796929107998
 30
0.0
 10
173.5145942395438
 20
133.7151925073381
 30
0.0
 10
173.3001283243555
 20
133.8210881884428
 30
0.0
 10
173.1420883448008
 20
133.8360600739544
 30
0.0
 10
173.0631424800291
 20
133.8435389944928
 30
0.0
  0
ELLIPSE
  5
2A0
330
1F
100
AcDbEntity
  8
0
  6
Continuous
 62
     7
370
    25
100
AcDbEllipse
 10
175.1277672034
 20
134.033309676
 30
0.0
 11
2.5
 21
0.0
 31
0.0
210
0.0
220
0.0
230
1.0
 40
0.1346153846
 41
3.740681249811817
 42
5.650516359159404
  0
LINE
  5
2A1
330
1F
100
AcDbEntity
  8
0
  6
Continuous
 62
     7
370
    25
100
AcDbLine
 10
161.9284111261
 20
130.8146928406
 30
0.0
 11
161.9284111261
 21
133.289341425
 31
0.0
  0
LINE
  5
2A2
330
1F
100
AcDbEntity
  8
0
  6
Continuous
 62
     7
370
    25
100
AcDbLine
 10
161.9284111261
 20
128.3400442563
 30
0.0
 11
161.9284111261
 21
130.8146928406
 31
0.0
  0
ELLIPSE
  5
2A3
330
1F
100
AcDbEntity
  8
0
  6
Continuous
 62
     7
370
    25
100
AcDbEllipse
 10
160.5792812955
 20
128.0916063361
 30
0.0
 11
2.0
 21
0.0
 31
0.0
210
0.0
220
0.0
230
1.0
 40
0.1682692308
 41
0.8304211569479573
 42
2.5869507157527
  0
LINE
  5
2A4
330
1F
100
AcDbEntity
  8
0
  6
Continuous
 62
     7
370
    25
100
AcDbLine
 10
173.7786373728
 20
130.8146928406
 30
0.0
 11
173.7786373728
 21
133.289341425
 31
0.0
  0
ELLIPSE
  5
2A5
330
1F
100
AcDbEntity
  8
0
  6
Continuous
 62
     7
370
    25
100
AcDbEllipse
 10
175.1277672034
 20
128.0916063361
 30
0.0
 11
2.0
 21
0.0
 31
0.0
210
0.0
220
0.0
230
1.0
 40
0.1682692308
 41
0.5546419378370928
 42
2.311171496641836
  0
LINE
  5
2A6
330
1F
100
AcDbEntity
  8
0
  6
Continuous
 62
     7
370
    25
100
AcDbLine
 10
173.7786373728
 20
128.3400442563
 30
0.0
 11
173.7786373728
 21
130.8146928406
 31
0.0
  0
SPLINE
  5
2A7
330
1F
100
AcDbEntity
  8
0
  6
Continuous
 62
     7
370
    25
100
AcDbSpline
210
0.0
220
0.0
230
1.0
 70
     8
 71
     3
 72
    12
 73
     8
 74
     0
 42
0.00000001
 43
0.00000001
 40
0.0
 40
0.0
 40
0.0
 40
0.0
 40
0.1443005026356244
 40
0.2873275205918753
 40
0.5201185386439743
 40
0.7602843466484757
 40
1.0
 40
1.0
 40
1.0
 40
1.0
 10
161.9284111260826
 20
128.3400442563128
 30
0.0
 10
161.9343953861071
 20
128.2924728058669
 30
0.0
 10
161.9463110937035
 20
128.1977497338196
 30
0.0
 10
162.0396963158998
 20
128.0496927704935
 30
0.0
 10
162.1924542593015
 20
127.9141931739552
 30
0.0
 10
162.4069201744898
 20
127.8082974928504
 30
0.0
 10
162.5649601540445
 20
127.7933256073388
 30
0.0
 10
162.6439060188162
 20
127.7858466868005
 30
0.0
  0
ELLIPSE
  5
2A8
330
1F
100
AcDbEntity
  8
0
  6
Continuous
 62
     7
370
    25
100
AcDbEllipse
 10
160.5792812955
 20
127.5960760053
 30
0.0
 11
2.5
 21
0.0
 31
0.0
210
0.0
220
0.0
230
1.0
 40
0.1346153846
 41
0.5990885962219282
 42
2.508923705569521
  0
SPLINE
  5
2A9
330
1F
100
AcDbEntity
  8
0
  6
Continuous
 62
     7
370
    25
100
AcDbSpline
210
0.0
220
0.0
230
1.0
 70
     8
 71
     3
 72
    12
 73
     8
 74
     0
 42
0.00000001
 43
0.00000001
 40
0.0
 40
0.0
 40
0.0
 40
0.0
 40
0.2571943124574413
 40
0.5245503439757948
 40
0.7385170215182973
 40
0.8882338470637767
 40
1.0
 40
1.0
 40
1.0
 40
1.0
 10
173.0631424800291
 20
127.7858466868005
 30
0.0
 10
173.1478407575503
 20
127.7944619610434
 30
0.0
 10
173.3205837322427
 20
127.812032898069
 30
0.0
 10
173.5398087610075
 20
127.9305433037969
 30
0.0
 10
173.6891885363869
 20
128.076531448476
 30
0.0
 10
173.7665850529809
 20
128.2171139114655
 30
0.0
 10
173.7750284121448
 20
128.3032338512343
 30
0.0
 10
173.7786373727627
 20
128.3400442563128
 30
0.0
  0
ELLIPSE
  5
2AA
330
1F
100
AcDbEntity
  8
0
  6
Continuous
 62
     7
370
    25
100
AcDbEllipse
 10
175.1277672034
 20
127.5960760053
 30
0.0
 11
2.5
 21
0.0
 31
0.0
210
0.0
220
0.0
230
1.0
 40
0.1346153846
 41
0.6297238849119476
 42
2.542504057367935
  0
ARC
  5
2AB
330
1F
100
AcDbEntity
  8
0
  6
Continuous
 62
     7
370
    25
100
AcDbCircle
 10
167.8535242494
 20
130.8146928406
 30
0.0
 40
7.999999999999993
100
AcDbArc
 50
21.1234840263
 51
158.8765159737
  0
LINE
  5
2AC
330
1F
100
AcDbEntity
  8
0
  6
Continuous
 62
     7
370
    25
100
AcDbLine
 10
162.6439060188
 20
133.8435389945
 30
0.0
 11
162.7610733168
 21
133.8435389945
 31
0.0
  0
LINE
  5
2AD
330
1F
100
AcDbEntity
  8
0
  6
Continuous
 62
     7
370
    25
100
AcDbLine
 10
172.945975182
 20
133.8435389945
 30
0.0
 11
173.06314248
 21
133.8435389945
 31
0.0
  0
LINE
  5
2AE
330
1F
100
AcDbEntity
  8
0
  6
Continuous
 62
     7
370
    25
100
AcDbLine
 10
162.7610733168
 20
127.7858466868
 30
0.0
 11
162.6439060188
 21
127.7858466868
 31
0.0
  0
ARC
  5
2AF
330
1F
100
AcDbEntity
  8
0
  6
Continuous
 62
     7
370
    25
100
AcDbCircle
 10
167.8535242494
 20
130.8146928406
 30
0.0
 40
7.999999999999978
100
AcDbArc
 50
201.1234840263
 51
338.8765159737
  0
LINE
  5
2B0
330
1F
100
AcDbEntity
  8
0
  6
Continuous
 62
     7
370
    25
100
AcDbLine
 10
173.06314248
 20
127.7858466868
 30
0.0
 11
172.945975182
 21
127.7858466868
 31
0.0
  0
LINE
  5
2B1
330
1F
100
AcDbEntity
  8
0
  6
Continuous
 62
     7
370
    25
100
AcDbLine
 10
182.1535242494
 20
124.4071907493
 30
0.0
 11
182.1535242494
 21
127.4583281962
 31
0.0
  0
LINE
  5
2B2
330
1F
100
AcDbEntity
  8
0
  6
Continuous
 62
     7
370
    25
100
AcDbLine
 10
182.1535242494
 20
134.1710574851
 30
0.0
 11
182.1535242494
 21
138.8146928406
 31
0.0
  0
LINE
  5
2B3
330
1F
100
AcDbEntity
  8
0
  6
Continuous
 62
     7
370
    25
100
AcDbLine
 10
182.1535242494
 20
122.8146928406
 30
0.0
 11
182.1535242494
 21
124.4071907493
 31
0.0
  0
LINE
  5
2B4
330
1F
100
AcDbEntity
  8
0
  6
Continuous
 62
     7
370
    25
100
AcDbLine
 10
182.3535242494
 20
124.5673783016
 30
0.0
 11
182.3535242494
 21
123.0146928406
 31
0.0
  0
LINE
  5
2B5
330
1F
100
AcDbEntity
  8
0
  6
Continuous
 62
     7
370
    25
100
AcDbLine
 10
182.3535242494
 20
138.6146928406
 30
0.0
 11
182.3535242494
 21
134.1710574851
 31
0.0
  0
LINE
  5
2B6
330
1F
100
AcDbEntity
  8
0
  6
Continuous
 62
     7
370
    25
100
AcDbLine
 10
182.3535242494
 20
127.4583281962
 30
0.0
 11
182.3535242494
 21
124.5673783016
 31
0.0
  0
LINE
  5
2B7
330
1F
100
AcDbEntity
  8
0
  6
Continuous
 62
     7
370
    25
100
AcDbLine
 10
193.3535242494
 20
128.4118795564
 30
0.0
 11
193.3535242494
 21
133.8146928406
 31
0.0
  0
LINE
  5
2B8
330
1F
100
AcDbEntity
  8
0
  6
Continuous
 62
     7
370
    25
100
AcDbLine
 10
193.3535242494
 20
127.8146928406
 30
0.0
 11
193.3535242494
 21
128.4118795564
 31
0.0
  0
LINE
  5
2B9
330
1F
100
AcDbEntity
  8
0
  6
Continuous
 62
     7
370
    25
100
AcDbLine
 10
189.3535242494
 20
128.4118795564
 30
0.0
 11
189.3535242494
 21
133.8146928406
 31
0.0
  0
LINE
  5
2BA
330
1F
100
AcDbEntity
  8
0
  6
Continuous
 62
     7
370
    25
100
AcDbLine
 10
189.3535242494
 20
127.8146928406
 30
0.0
 11
189.3535242494
 21
128.4118795564
 31
0.0
  0
LINE
  5
2BB
330
1F
100
AcDbEntity
  8
0
  6
Continuous
 62
     7
370
    25
100
AcDbLine
 10
197.3535242494
 20
128.4118795564
 30
0.0
 11
197.3535242494
 21
133.8146928406
 31
0.0
  0
LINE
  5
2BC
330
1F
100
AcDbEntity
  8
0
  6
Continuous
 62
     7
370
    25
100
AcDbLine
 10
197.3535242494
 20
127.8146928406
 30
0.0
 11
197.3535242494
 21
128.4118795564
 31
0.0
  0
LINE
  5
2BD
330
1F
100
AcDbEntity
  8
0
  6
Continuous
 62
     7
370
    25
100
AcDbLine
 10
201.3535242494
 20
128.4118795564
 30
0.0
 11
201.3535242494
 21
133.8146928406
 31
0.0
  0
LINE
  5
2BE
330
1F
100
AcDbEntity
  8
0
  6
Continuous
 62
     7
370
    25
100
AcDbLine
 10
201.3535242494
 20
127.8146928406
 30
0.0
 11
201.3535242494
 21
128.4118795564
 31
0.0
  0
LINE
  5
2BF
330
1F
100
AcDbEntity
  8
0
  6
Continuous
 62
     7
370
    25
100
AcDbLine
 10
204.8612165571
 20
128.4723851483
 30
0.0
 11
204.8612165571
 21
133.157000533
 31
0.0
  0
LINE
  5
2C0
330
1F
100
AcDbEntity
  8
0
  6
Continuous
 62
     7
370
    25
100
AcDbLine
 10
205.3535242494
 20
129.332957982
 30
0.0
 11
205.3535242494
 21
128.9646928406
 31
0.0
  0
LINE
  5
2C1
330
1F
100
AcDbEntity
  8
0
  6
Continuous
 62
     7
370
    25
100
AcDbLine
 10
205.3535242494
 20
132.6646928406
 30
0.0
 11
205.3535242494
 21
129.332957982
 31
0.0
  0
LINE
  5
2C2
330
1F
100
AcDbEntity
  8
0
  6
Continuous
 62
     7
370
    25
100
AcDbLine
 10
153.5535242494
 20
138.8146928406
 30
0.0
 11
153.5535242494
 21
134.1710574851
 31
0.0
  0
LINE
  5
2C3
330
1F
100
AcDbEntity
  8
0
  6
Continuous
 62
     7
370
    25
100
AcDbLine
 10
153.5535242494
 20
127.4583281962
 30
0.0
 11
153.5535242494
 21
122.8146928406
 31
0.0
  0
LINE
  5
2C4
330
1F
100
AcDbEntity
  8
0
  6
Continuous
 62
     7
370
    25
100
AcDbLine
 10
153.3535242494
 20
123.0146928406
 30
0.0
 11
153.3535242494
 21
127.4583281962
 31
0.0
  0
LINE
  5
2C5
330
1F
100
AcDbEntity
  8
0
  6
Continuous
 62
     7
370
    25
100
AcDbLine
 10
153.3535242494
 20
134.1710574851
 30
0.0
 11
153.3535242494
 21
138.6146928406
 31
0.0
  0
LINE
  5
2C6
330
1F
100
AcDbEntity
  8
0
  6
Continuous
 62
     7
370
    25
100
AcDbLine
 10
142.3535242494
 20
133.8146928406
 30
0.0
 11
142.3535242494
 21
127.8146928406
 31
0.0
  0
LINE
  5
2C7
330
1F
100
AcDbEntity
  8
0
  6
Continuous
 62
     7
370
    25
100
AcDbLine
 10
146.3535242494
 20
133.8146928406
 30
0.0
 11
146.3535242494
 21
127.8146928406
 31
0.0
  0
LINE
  5
2C8
330
1F
100
AcDbEntity
  8
0
  6
Continuous
 62
     7
370
    25
100
AcDbLine
 10
138.3535242494
 20
133.8146928406
 30
0.0
 11
138.3535242494
 21
127.8146928406
 31
0.0
  0
LINE
  5
2C9
330
1F
100
AcDbEntity
  8
0
  6
Continuous
 62
     7
370
    25
100
AcDbLine
 10
130.8458319417
 20
133.157000533
 30
0.0
 11
130.8458319417
 21
128.4723851483
 31
0.0
  0
LINE
  5
2CA
330
1F
100
AcDbEntity
  8
0
  6
Continuous
 62
     7
370
    25
100
AcDbLine
 10
134.3535242494
 20
133.8146928406
 30
0.0
 11
134.3535242494
 21
127.8146928406
 31
0.0
  0
LINE
  5
2CB
330
1F
100
AcDbEntity
  8
0
  6
Continuous
 62
     7
370
    25
100
AcDbLine
 10
130.3535242494
 20
128.9646928406
 30
0.0
 11
130.3535242494
 21
132.6646928406
 31
0.0
  0
SPLINE
  5
2CC
330
1F
100
AcDbEntity
  8
0
  6
Continuous
 62
     7
370
    25
100
AcDbSpline
210
0.0
220
0.0
230
1.0
 70
     8
 71
     3
 72
     9
 73
     5
 74
     0
 42
0.00000001
 43
0.00000001
 40
0.0
 40
0.0
 40
0.0
 40
0.0
 40
0.5312684406627551
 40
1.0
 40
1.0
 40
1.0
 40
1.0
 10
179.3535242494226
 20
135.0646928406466
 30
0.0
 10
179.3541284444185
 20
134.8985140843375
 30
0.0
 10
179.3552657131693
 20
134.5857178713688
 30
0.0
 10
179.3102642229037
 20
134.2754112823521
 30
0.0
 10
179.289170604199
 20
134.1299607910096
 30
0.0
  0
LINE
  5
2CD
330
1F
100
AcDbEntity
  8
0
  6
Continuous
 62
     7
370
    25
100
AcDbLine
 10
179.3535242494
 20
135.0646928406
 30
0.0
 11
179.3535242494
 21
134.1567060632
 31
0.0
  0
LINE
  5
2CE
330
1F
100
AcDbEntity
  8
0
  6
Continuous
 62
     7
370
    25
100
AcDbLine
 10
179.3535242494
 20
127.4890381215
 30
0.0
 11
179.3535242494
 21
126.5646928406
 31
0.0
  0
LINE
  5
2CF
330
1F
100
AcDbEntity
  8
0
  6
Continuous
 62
     7
370
    25
100
AcDbLine
 10
179.2687492082
 20
127.5010873427
 30
0.0
 11
179.3535242494
 21
126.5646928406
 31
0.0
  0
SPLINE
  5
2D0
330
1F
100
AcDbEntity
  8
0
  6
Continuous
 62
     7
370
    25
100
AcDbSpline
210
0.0
220
0.0
230
1.0
 70
     8
 71
     3
 72
     9
 73
     5
 74
     0
 42
0.00000001
 43
0.00000001
 40
0.0
 40
0.0
 40
0.0
 40
0.0
 40
0.5312684406628398
 40
1.0
 40
1.0
 40
1.0
 40
1.0
 10
156.3535242494226
 20
126.5646928406466
 30
0.0
 10
156.3529200544268
 20
126.7308715969558
 30
0.0
 10
156.351782785676
 20
127.0436678099245
 30
0.0
 10
156.3967842759416
 20
127.3539743989411
 30
0.0
 10
156.4178778946463
 20
127.4994248902835
 30
0.0
  0
LINE
  5
2D1
330
1F
100
AcDbEntity
  8
0
  6
Continuous
 62
     7
370
    25
100
AcDbLine
 10
156.3535242494
 20
135.0646928406
 30
0.0
 11
156.3535242494
 21
134.1557360111
 31
0.0
  0
LINE
  5
2D2
330
1F
100
AcDbEntity
  8
0
  6
Continuous
 62
     7
370
    25
100
AcDbLine
 10
156.3535242494
 20
127.4880512846
 30
0.0
 11
156.3535242494
 21
126.5646928406
 31
0.0
  0
LINE
  5
2D3
330
1F
100
AcDbEntity
  8
0
  6
Continuous
 62
     7
370
    25
100
AcDbLine
 10
156.4382992906
 20
134.1282983386
 30
0.0
 11
156.3535242494
 21
135.0646928406
 31
0.0
  0
SPLINE
  5
2D4
330
1F
100
AcDbEntity
  8
0
  6
Continuous
 62
     7
370
    25
100
AcDbSpline
210
0.0
220
0.0
230
1.0
 70
     8
 71
     3
 72
     9
 73
     5
 74
     0
 42
0.00000001
 43
0.00000001
 40
0.0
 40
0.0
 40
0.0
 40
0.0
 40
0.4032167587355928
 40
1.0
 40
1.0
 40
1.0
 40
1.0
 10
173.9207892468772
 20
135.9466810782047
 30
0.0
 10
173.9548320873702
 20
136.3722960391633
 30
0.0
 10
174.0392602262197
 20
137.4278448270988
 30
0.0
 10
174.3473705669029
 20
138.4529357544383
 30
0.0
 10
174.5312456546828
 20
139.0646928406466
 30
0.0
  0
LINE
  5
2D5
330
1F
100
AcDbEntity
  8
0
  6
Continuous
 62
     7
370
    25
100
AcDbLine
 10
178.6758028442
 20
139.0646928406
 30
0.0
 11
174.5312456547
 21
139.0646928406
 31
0.0
  0
SPLINE
  5
2D6
330
1F
100
AcDbEntity
  8
0
  6
Continuous
 62
     7
370
    25
100
AcDbSpline
210
0.0
220
0.0
230
1.0
 70
     8
 71
     3
 72
    10
 73
     6
 74
     0
 42
0.00000001
 43
0.00000001
 40
0.0
 40
0.0
 40
0.0
 40
0.0
 40
0.5
 40
0.5
 40
1.0
 40
1.0
 40
1.0
 40
1.0
 10
178.6758028441629
 20
139.0646928406467
 30
0.0
 10
178.8846127688292
 20
138.4086800740416
 30
0.0
 10
179.0551469085764
 20
137.7484131671839
 30
0.0
 10
179.2899327135953
 20
136.4160666485488
 30
0.0
 10
179.3535242494226
 20
135.7439136670615
 30
0.0
 10
179.3535242494226
 20
135.0646928406466
 30
0.0
  0
SPLINE
  5
2D7
330
1F
100
AcDbEntity
  8
0
  6
Continuous
 62
     7
370
    25
100
AcDbSpline
210
0.0
220
0.0
230
1.0
 70
     8
 71
     3
 72
    12
 73
     8
 74
     0
 42
0.00000001
 43
0.00000001
 40
0.0
 40
0.0
 40
0.0
 40
0.0
 40
0.2500000000000001
 40
0.2500000000000001
 40
0.5000000000000002
 40
0.5000000000000002
 40
1.0
 40
1.0
 40
1.0
 40
1.0
 10
156.3535242494226
 20
135.0646928406466
 30
0.0
 10
156.3535242494226
 20
135.4024487756694
 30
0.0
 10
156.3692705794446
 20
135.7428567905479
 30
0.0
 10
156.43071560403
 20
136.4173514749483
 30
0.0
 10
156.4763043632838
 20
136.7524767938156
 30
0.0
 10
156.6527553655403
 20
137.7521881121557
 30
0.0
 10
156.8232130675038
 20
138.411122215221
 30
0.0
 10
157.0312456546827
 20
139.0646928406466
 30
0.0
  0
LINE
  5
2D8
330
1F
100
AcDbEntity
  8
0
  6
Continuous
 62
     7
370
    25
100
AcDbLine
 10
161.1758028442
 20
139.0646928406
 30
0.0
 11
157.0312456547
 21
139.0646928406
 31
0.0
  0
SPLINE
  5
2D9
330
1F
100
AcDbEntity
  8
0
  6
Continuous
 62
     7
370
    25
100
AcDbSpline
210
0.0
220
0.0
230
1.0
 70
     8
 71
     3
 72
     9
 73
     5
 74
     0
 42
0.00000001
 43
0.00000001
 40
0.0
 40
0.0
 40
0.0
 40
0.0
 40
0.6441300873160124
 40
1.0
 40
1.0
 40
1.0
 40
1.0
 10
161.1758028441624
 20
139.0646928406467
 30
0.0
 10
161.3737346532076
 20
138.4145900541768
 30
0.0
 10
161.6810201114448
 20
137.4053175496447
 30
0.0
 10
161.7461308383956
 20
136.3651485919721
 30
0.0
 10
161.7693017871104
 20
135.9949837558286
 30
0.0
  0
SPLINE
  5
2DA
330
1F
100
AcDbEntity
  8
0
  6
Continuous
 62
     7
370
    25
100
AcDbSpline
210
0.0
220
0.0
230
1.0
 70
     8
 71
     3
 72
     9
 73
     5
 74
     0
 42
0.00000001
 43
0.00000001
 40
0.0
 40
0.0
 40
0.0
 40
0.0
 40
0.4032167587355794
 40
1.0
 40
1.0
 40
1.0
 40
1.0
 10
161.7862592519681
 20
125.6827046030885
 30
0.0
 10
161.7522164114751
 20
125.2570896421299
 30
0.0
 10
161.6677882726255
 20
124.2015408541944
 30
0.0
 10
161.3596779319424
 20
123.176449926855
 30
0.0
 10
161.1758028441624
 20
122.5646928406466
 30
0.0
  0
LINE
  5
2DB
330
1F
100
AcDbEntity
  8
0
  6
Continuous
 62
     7
370
    25
100
AcDbLine
 10
157.0312456547
 20
122.5646928406
 30
0.0
 11
161.1758028442
 21
122.5646928406
 31
0.0
  0
SPLINE
  5
2DC
330
1F
100
AcDbEntity
  8
0
  6
Continuous
 62
     7
370
    25
100
AcDbSpline
210
0.0
220
0.0
230
1.0
 70
     8
 71
     3
 72
    10
 73
     6
 74
     0
 42
0.00000001
 43
0.00000001
 40
0.0
 40
0.0
 40
0.0
 40
0.0
 40
0.5
 40
0.5
 40
1.0
 40
1.0
 40
1.0
 40
1.0
 10
157.0312456546824
 20
122.5646928406466
 30
0.0
 10
156.8224357300161
 20
123.2207056072517
 30
0.0
 10
156.6519015902688
 20
123.8809725141094
 30
0.0
 10
156.4171157852499
 20
125.2133190327444
 30
0.0
 10
156.3535242494226
 20
125.8854720142317
 30
0.0
 10
156.3535242494226
 20
126.5646928406466
 30
0.0
  0
SPLINE
  5
2DD
330
1F
100
AcDbEntity
  8
0
  6
Continuous
 62
     7
370
    25
100
AcDbSpline
210
0.0
220
0.0
230
1.0
 70
     8
 71
     3
 72
    12
 73
     8
 74
     0
 42
0.00000001
 43
0.00000001
 40
0.0
 40
0.0
 40
0.0
 40
0.0
 40
0.2500000000000001
 40
0.2500000000000001
 40
0.5000000000000002
 40
0.5000000000000002
 40
1.0
 40
1.0
 40
1.0
 40
1.0
 10
179.3535242494226
 20
126.5646928406466
 30
0.0
 10
179.3535242494226
 20
126.2269369056238
 30
0.0
 10
179.3377779194007
 20
125.8865288907453
 30
0.0
 10
179.2763328948152
 20
125.2120342063449
 30
0.0
 10
179.2307441355615
 20
124.8769088874777
 30
0.0
 10
179.0542931333049
 20
123.8771975691376
 30
0.0
 10
178.8838354313414
 20
123.2182634660723
 30
0.0
 10
178.6758028441626
 20
122.5646928406466
 30
0.0
  0
LINE
  5
2DE
330
1F
100
AcDbEntity
  8
0
  6
Continuous
 62
     7
370
    25
100
AcDbLine
 10
174.5312456547
 20
122.5646928406
 30
0.0
 11
178.6758028442
 21
122.5646928406
 31
0.0
  0
SPLINE
  5
2DF
330
1F
100
AcDbEntity
  8
0
  6
Continuous
 62
     7
370
    25
100
AcDbSpline
210
0.0
220
0.0
230
1.0
 70
     8
 71
     3
 72
     9
 73
     5
 74
     0
 42
0.00000001
 43
0.00000001
 40
0.0
 40
0.0
 40
0.0
 40
0.0
 40
0.6441300873160263
 40
1.0
 40
1.0
 40
1.0
 40
1.0
 10
174.5312456546828
 20
122.5646928406466
 30
0.0
 10
174.3333138456376
 20
123.2147956271165
 30
0.0
 10
174.0260283874005
 20
124.2240681316486
 30
0.0
 10
173.9609176604496
 20
125.2642370893211
 30
0.0
 10
173.9377467117348
 20
125.6344019254646
 30
0.0
  0
LINE
  5
2E0
330
1F
100
AcDbEntity
  8
0
  6
Continuous
 62
     7
370
    25
100
AcDbLine
 10
173.8535242494
 20
125.5231902185
 30
0.0
 11
173.8535242494
 21
123.3146928406
 31
0.0
  0
LINE
  5
2E1
330
1F
100
AcDbEntity
  8
0
  6
Continuous
 62
     7
370
    25
100
AcDbLine
 10
173.8535242494
 20
123.3146928406
 30
0.0
 11
170.6374064308
 21
123.3146928406
 31
0.0
  0
LINE
  5
2E2
330
1F
100
AcDbEntity
  8
0
  6
Continuous
 62
     7
370
    25
100
AcDbLine
 10
165.069642068
 20
123.3146928406
 30
0.0
 11
161.8535242494
 21
123.3146928406
 31
0.0
  0
LINE
  5
2E3
330
1F
100
AcDbEntity
  8
0
  6
Continuous
 62
     7
370
    25
100
AcDbLine
 10
161.8535242494
 20
125.5231902185
 30
0.0
 11
161.8535242494
 21
123.3146928406
 31
0.0
  0
LINE
  5
2E4
330
1F
100
AcDbEntity
  8
0
  6
Continuous
 62
     7
370
    25
100
AcDbLine
 10
161.8535242494
 20
138.3146928406
 30
0.0
 11
161.8535242494
 21
136.1061954628
 31
0.0
  0
LINE
  5
2E5
330
1F
100
AcDbEntity
  8
0
  6
Continuous
 62
     7
370
    25
100
AcDbLine
 10
161.8535242494
 20
138.3146928406
 30
0.0
 11
165.069642068
 21
138.3146928406
 31
0.0
  0
LINE
  5
2E6
330
1F
100
AcDbEntity
  8
0
  6
Continuous
 62
     7
370
    25
100
AcDbLine
 10
170.6374064308
 20
138.3146928406
 30
0.0
 11
173.8535242494
 21
138.3146928406
 31
0.0
  0
LINE
  5
2E7
330
1F
100
AcDbEntity
  8
0
  6
Continuous
 62
     7
370
    25
100
AcDbLine
 10
173.8535242494
 20
138.3146928406
 30
0.0
 11
173.8535242494
 21
136.1061954628
 31
0.0
  0
SPLINE
  5
2E8
330
1F
100
AcDbEntity
  8
0
  6
Continuous
 62
     7
370
    25
100
AcDbSpline
210
0.0
220
0.0
230
1.0
 70
     8
 71
     3
 72
     8
 73
     4
 74
     0
 42
0.00000001
 43
0.00000001
 40
0.0
 40
0.0
 40
0.0
 40
0.0
 40
1.0
 40
1.0
 40
1.0
 40
1.0
 10
161.3372881724435
 20
139.3146928406466
 30
0.0
 10
161.5109912486632
 20
138.9821814185111
 30
0.0
 10
161.6832934677259
 20
138.6488543186123
 30
0.0
 10
161.8535242494226
 20
138.3146928406466
 30
0.0
  0
SPLINE
  5
2E9
330
1F
100
AcDbEntity
  8
0
  6
Continuous
 62
     7
370
    25
100
AcDbSpline
210
0.0
220
0.0
230
1.0
 70
     8
 71
     3
 72
    10
 73
     6
 74
     0
 42
0.00000001
 43
0.00000001
 40
0.0
 40
0.0
 40
0.0
 40
0.0
 40
0.5
 40
0.5
 40
1.0
 40
1.0
 40
1.0
 40
1.0
 10
161.1758028441681
 20
139.3146928406466
 30
0.0
 10
161.1521274497438
 20
139.3146928406466
 30
0.0
 10
161.1390363398535
 20
139.2919003913171
 30
0.0
 10
161.1389500185651
 20
139.2039576872241
 30
0.0
 10
161.1521189525089
 20
139.1390999135501
 30
0.0
 10
161.1758028441624
 20
139.0646928406467
 30
0.0
  0
SPLINE
  5
2EA
330
1F
100
AcDbEntity
  8
0
  6
Continuous
 62
     7
370
    25
100
AcDbSpline
210
0.0
220
0.0
230
1.0
 70
    24
 71
     3
 72
     8
 73
     4
 74
     0
 42
0.00000001
 43
0.00000001
 40
0.0
 40
0.0
 40
0.0
 40
0.0
 40
1.0
 40
1.0
 40
1.0
 40
1.0
 10
161.3372881724434
 20
139.3146928406466
 30
0.0
 10
161.286389455521
 20
139.3146928406466
 30
0.0
 10
161.2324553192704
 20
139.3146928406466
 30
0.0
 10
161.1758028441628
 20
139.3146928406466
 30
0.0
  0
SPLINE
  5
2EB
330
1F
100
AcDbEntity
  8
0
  6
Continuous
 62
     7
370
    25
100
AcDbSpline
210
0.0
220
0.0
230
1.0
 70
     8
 71
     3
 72
     8
 73
     4
 74
     0
 42
0.00000001
 43
0.00000001
 40
0.0
 40
0.0
 40
0.0
 40
0.0
 40
1.0
 40
1.0
 40
1.0
 40
1.0
 10
173.8535242494226
 20
138.3146928406466
 30
0.0
 10
174.0238018567664
 20
138.648946236932
 30
0.0
 10
174.196073605392
 20
138.9822127265009
 30
0.0
 10
174.3697603264017
 20
139.3146928406464
 30
0.0
  0
SPLINE
  5
2EC
330
1F
100
AcDbEntity
  8
0
  6
Continuous
 62
     7
370
    25
100
AcDbSpline
210
0.0
220
0.0
230
1.0
 70
    24
 71
     3
 72
     8
 73
     4
 74
     0
 42
0.00000001
 43
0.00000001
 40
0.0
 40
0.0
 40
0.0
 40
0.0
 40
1.0
 40
1.0
 40
1.0
 40
1.0
 10
174.3697603264013
 20
139.3146928406466
 30
0.0
 10
174.4206565596565
 20
139.3146928406466
 30
0.0
 10
174.4745905146204
 20
139.3146928406466
 30
0.0
 10
174.5312456546828
 20
139.3146928406466
 30
0.0
  0
SPLINE
  5
2ED
330
1F
100
AcDbEntity
  8
0
  6
Continuous
 62
     7
370
    25
100
AcDbSpline
210
0.0
220
0.0
230
1.0
 70
     8
 71
     3
 72
    10
 73
     6
 74
     0
 42
0.00000001
 43
0.00000001
 40
0.0
 40
0.0
 40
0.0
 40
0.0
 40
0.5
 40
0.5
 40
1.0
 40
1.0
 40
1.0
 40
1.0
 10
174.5312456546828
 20
139.0646928406466
 30
0.0
 10
174.5549210491072
 20
139.139073218024
 30
0.0
 10
174.5680121589918
 20
139.2033738568097
 30
0.0
 10
174.5680984802801
 20
139.2915895415927
 30
0.0
 10
174.5549295463363
 20
139.3146928406466
 30
0.0
 10
174.5312456546828
 20
139.3146928406466
 30
0.0
  0
SPLINE
  5
2EE
330
1F
100
AcDbEntity
  8
0
  6
Continuous
 62
     7
370
    25
100
AcDbSpline
210
0.0
220
0.0
230
1.0
 70
     8
 71
     3
 72
    10
 73
     6
 74
     0
 42
0.00000001
 43
0.00000001
 40
0.0
 40
0.0
 40
0.0
 40
0.0
 40
0.5
 40
0.5
 40
1.0
 40
1.0
 40
1.0
 40
1.0
 10
157.0312456546828
 20
139.3146928406466
 30
0.0
 10
157.0549195552388
 20
139.3146928406466
 30
0.0
 10
157.0680121124179
 20
139.2919022689992
 30
0.0
 10
157.0680985264002
 20
139.2039562717004
 30
0.0
 10
157.0549281348016
 20
139.1390954789676
 30
0.0
 10
157.0312456546828
 20
139.0646928406466
 30
0.0
  0
SPLINE
  5
2EF
330
1F
100
AcDbEntity
  8
0
  6
Continuous
 62
     7
370
    25
100
AcDbSpline
210
0.0
220
0.0
230
1.0
 70
    24
 71
     3
 72
    12
 73
     8
 74
     0
 42
0.00000001
 43
0.00000001
 40
0.0
 40
0.0
 40
0.0
 40
0.0
 40
0.2499999999999999
 40
0.2499999999999999
 40
0.4999999999999998
 40
0.4999999999999998
 40
1.0
 40
1.0
 40
1.0
 40
1.0
 10
156.3535242494226
 20
139.3146928406466
 30
0.0
 10
156.3535242494226
 20
139.3146928406466
 30
0.0
 10
156.3695230544037
 20
139.3146928406466
 30
0.0
 10
156.4312931927181
 20
139.3146928406466
 30
0.0
 10
156.4770353170197
 20
139.3146928406466
 30
0.0
 10
156.6537054643665
 20
139.3146928406466
 30
0.0
 10
156.8239605298469
 20
139.3146928406466
 30
0.0
 10
157.0312456546828
 20
139.3146928406466
 30
0.0
  0
LINE
  5
2F0
330
1F
100
AcDbEntity
  8
0
  6
Continuous
 62
     7
370
    25
100
AcDbLine
 10
156.3535242494
 20
139.3146928406
 30
0.0
 11
156.3535242494
 21
135.0646928406
 31
0.0
  0
SPLINE
  5
2F1
330
1F
100
AcDbEntity
  8
0
  6
Continuous
 62
     7
370
    25
100
AcDbSpline
210
0.0
220
0.0
230
1.0
 70
     8
 71
     3
 72
    10
 73
     6
 74
     0
 42
0.00000001
 43
0.00000001
 40
0.0
 40
0.0
 40
0.0
 40
0.0
 40
0.5
 40
0.5
 40
1.0
 40
1.0
 40
1.0
 40
1.0
 10
178.6758028441624
 20
139.0646928406466
 30
0.0
 10
178.6521306042509
 20
139.1390633075722
 30
0.0
 10
178.6390366143156
 20
139.2033689038601
 30
0.0
 10
178.6389497468542
 20
139.2915916916659
 30
0.0
 10
178.6521195366135
 20
139.3146928406466
 30
0.0
 10
178.6758028441624
 20
139.3146928406466
 30
0.0
  0
SPLINE
  5
2F2
330
1F
100
AcDbEntity
  8
0
  6
Continuous
 62
     7
370
    25
100
AcDbSpline
210
0.0
220
0.0
230
1.0
 70
    24
 71
     3
 72
    12
 73
     8
 74
     0
 42
0.00000001
 43
0.00000001
 40
0.0
 40
0.0
 40
0.0
 40
0.0
 40
0.25
 40
0.25
 40
0.5
 40
0.5
 40
1.0
 40
1.0
 40
1.0
 40
1.0
 10
179.3535242494226
 20
139.3146928406466
 30
0.0
 10
179.3535242494226
 20
139.3146928406466
 30
0.0
 10
179.3376184437545
 20
139.3146928406466
 30
0.0
 10
179.275773572862
 20
139.3146928406466
 30
0.0
 10
179.2299602319958
 20
139.3146928406466
 30
0.0
 10
179.0531270580935
 20
139.3146928406466
 30
0.0
 10
178.8828487945898
 20
139.3146928406466
 30
0.0
 10
178.6758028441624
 20
139.3146928406466
 30
0.0
  0
LINE
  5
2F3
330
1F
100
AcDbEntity
  8
0
  6
Continuous
 62
     7
370
    25
100
AcDbLine
 10
179.3535242494
 20
139.3146928406
 30
0.0
 11
179.3535242494
 21
135.0646928406
 31
0.0
  0
SPLINE
  5
2F4
330
1F
100
AcDbEntity
  8
0
  6
Continuous
 62
     7
370
    25
100
AcDbSpline
210
0.0
220
0.0
230
1.0
 70
     8
 71
     3
 72
     8
 73
     4
 74
     0
 42
0.00000001
 43
0.00000001
 40
0.0
 40
0.0
 40
0.0
 40
0.0
 40
1.0
 40
1.0
 40
1.0
 40
1.0
 10
174.3697603264018
 20
122.3146928406466
 30
0.0
 10
174.196057250182
 20
122.6472042627821
 30
0.0
 10
174.0237550311193
 20
122.980531362681
 30
0.0
 10
173.8535242494226
 20
123.3146928406466
 30
0.0
  0
SPLINE
  5
2F5
330
1F
100
AcDbEntity
  8
0
  6
Continuous
 62
     7
370
    25
100
AcDbSpline
210
0.0
220
0.0
230
1.0
 70
     8
 71
     3
 72
    10
 73
     6
 74
     0
 42
0.00000001
 43
0.00000001
 40
0.0
 40
0.0
 40
0.0
 40
0.0
 40
0.5
 40
0.5
 40
1.0
 40
1.0
 40
1.0
 40
1.0
 10
174.5312456546828
 20
122.3146928406466
 30
0.0
 10
174.5549210491072
 20
122.3146928406466
 30
0.0
 10
174.5680121589918
 20
122.3374852899764
 30
0.0
 10
174.5680984802801
 20
122.4254279940695
 30
0.0
 10
174.5549295463363
 20
122.4902857677433
 30
0.0
 10
174.5312456546828
 20
122.5646928406466
 30
0.0
  0
SPLINE
  5
2F6
330
1F
100
AcDbEntity
  8
0
  6
Continuous
 62
     7
370
    25
100
AcDbSpline
210
0.0
220
0.0
230
1.0
 70
    24
 71
     3
 72
     8
 73
     4
 74
     0
 42
0.00000001
 43
0.00000001
 40
0.0
 40
0.0
 40
0.0
 40
0.0
 40
1.0
 40
1.0
 40
1.0
 40
1.0
 10
174.3697603264018
 20
122.3146928406466
 30
0.0
 10
174.4206565596569
 20
122.3146928406466
 30
0.0
 10
174.4745905146206
 20
122.3146928406466
 30
0.0
 10
174.5312456546828
 20
122.3146928406466
 30
0.0
  0
SPLINE
  5
2F7
330
1F
100
AcDbEntity
  8
0
  6
Continuous
 62
     7
370
    25
100
AcDbSpline
210
0.0
220
0.0
230
1.0
 70
     8
 71
     3
 72
     8
 73
     4
 74
     0
 42
0.00000001
 43
0.00000001
 40
0.0
 40
0.0
 40
0.0
 40
0.0
 40
1.0
 40
1.0
 40
1.0
 40
1.0
 10
161.8535242494226
 20
123.3146928406466
 30
0.0
 10
161.6832466420789
 20
122.9804394443612
 30
0.0
 10
161.5109748934532
 20
122.6471729547922
 30
0.0
 10
161.3372881724435
 20
122.3146928406466
 30
0.0
  0
SPLINE
  5
2F8
330
1F
100
AcDbEntity
  8
0
  6
Continuous
 62
     7
370
    25
100
AcDbSpline
210
0.0
220
0.0
230
1.0
 70
    24
 71
     3
 72
     8
 73
     4
 74
     0
 42
0.00000001
 43
0.00000001
 40
0.0
 40
0.0
 40
0.0
 40
0.0
 40
1.0
 40
1.0
 40
1.0
 40
1.0
 10
161.3372881724435
 20
122.3146928406466
 30
0.0
 10
161.2863894555209
 20
122.3146928406466
 30
0.0
 10
161.2324553192702
 20
122.3146928406466
 30
0.0
 10
161.1758028441624
 20
122.3146928406466
 30
0.0
  0
SPLINE
  5
2F9
330
1F
100
AcDbEntity
  8
0
  6
Continuous
 62
     7
370
    25
100
AcDbSpline
210
0.0
220
0.0
230
1.0
 70
     8
 71
     3
 72
    10
 73
     6
 74
     0
 42
0.00000001
 43
0.00000001
 40
0.0
 40
0.0
 40
0.0
 40
0.0
 40
0.5
 40
0.5
 40
1.0
 40
1.0
 40
1.0
 40
1.0
 10
161.1758028441624
 20
122.5646928406466
 30
0.0
 10
161.1521274497381
 20
122.4903124632693
 30
0.0
 10
161.1390363398534
 20
122.4260118244835
 30
0.0
 10
161.1389500185651
 20
122.3377961397006
 30
0.0
 10
161.152118952509
 20
122.3146928406466
 30
0.0
 10
161.1758028441624
 20
122.3146928406466
 30
0.0
  0
SPLINE
  5
2FA
330
1F
100
AcDbEntity
  8
0
  6
Continuous
 62
     7
370
    25
100
AcDbSpline
210
0.0
220
0.0
230
1.0
 70
    24
 71
     3
 72
    12
 73
     8
 74
     0
 42
0.00000001
 43
0.00000001
 40
0.0
 40
0.0
 40
0.0
 40
0.0
 40
0.25
 40
0.25
 40
0.5
 40
0.5
 40
1.0
 40
1.0
 40
1.0
 40
1.0
 10
179.3535242494226
 20
122.3146928406466
 30
0.0
 10
179.3535242494226
 20
122.3146928406466
 30
0.0
 10
179.3376184437545
 20
122.3146928406466
 30
0.0
 10
179.275773572862
 20
122.3146928406466
 30
0.0
 10
179.2299602319958
 20
122.3146928406466
 30
0.0
 10
179.0531270580935
 20
122.3146928406466
 30
0.0
 10
178.8828487945898
 20
122.3146928406466
 30
0.0
 10
178.6758028441624
 20
122.3146928406466
 30
0.0
  0
SPLINE
  5
2FB
330
1F
100
AcDbEntity
  8
0
  6
Continuous
 62
     7
370
    25
100
AcDbSpline
210
0.0
220
0.0
230
1.0
 70
     8
 71
     3
 72
    10
 73
     6
 74
     0
 42
0.00000001
 43
0.00000001
 40
0.0
 40
0.0
 40
0.0
 40
0.0
 40
0.5
 40
0.5
 40
1.0
 40
1.0
 40
1.0
 40
1.0
 10
178.6758028441624
 20
122.3146928406466
 30
0.0
 10
178.6521289436065
 20
122.3146928406466
 30
0.0
 10
178.6390363864273
 20
122.3374834122941
 30
0.0
 10
178.6389499724451
 20
122.4254294095929
 30
0.0
 10
178.6521203640437
 20
122.4902902023257
 30
0.0
 10
178.6758028441624
 20
122.5646928406466
 30
0.0
  0
LINE
  5
2FC
330
1F
100
AcDbEntity
  8
0
  6
Continuous
 62
     7
370
    25
100
AcDbLine
 10
179.3535242494
 20
126.5646928406
 30
0.0
 11
179.3535242494
 21
122.3146928406
 31
0.0
  0
SPLINE
  5
2FD
330
1F
100
AcDbEntity
  8
0
  6
Continuous
 62
     7
370
    25
100
AcDbSpline
210
0.0
220
0.0
230
1.0
 70
     8
 71
     3
 72
    10
 73
     6
 74
     0
 42
0.00000001
 43
0.00000001
 40
0.0
 40
0.0
 40
0.0
 40
0.0
 40
0.5
 40
0.5
 40
1.0
 40
1.0
 40
1.0
 40
1.0
 10
157.0312456546828
 20
122.5646928406466
 30
0.0
 10
157.0549178945944
 20
122.4903223737211
 30
0.0
 10
157.0680118845297
 20
122.4260167774332
 30
0.0
 10
157.0680987519911
 20
122.3377939896274
 30
0.0
 10
157.0549289622317
 20
122.3146928406466
 30
0.0
 10
157.0312456546828
 20
122.3146928406466
 30
0.0
  0
SPLINE
  5
2FE
330
1F
100
AcDbEntity
  8
0
  6
Continuous
 62
     7
370
    25
100
AcDbSpline
210
0.0
220
0.0
230
1.0
 70
    24
 71
     3
 72
    12
 73
     8
 74
     0
 42
0.00000001
 43
0.00000001
 40
0.0
 40
0.0
 40
0.0
 40
0.0
 40
0.2500000000000001
 40
0.2500000000000001
 40
0.5000000000000001
 40
0.5000000000000001
 40
1.0
 40
1.0
 40
1.0
 40
1.0
 10
156.3535242494226
 20
122.3146928406466
 30
0.0
 10
156.3535242494226
 20
122.3146928406466
 30
0.0
 10
156.3695230544037
 20
122.3146928406466
 30
0.0
 10
156.4312931927181
 20
122.3146928406466
 30
0.0
 10
156.4770353170197
 20
122.3146928406466
 30
0.0
 10
156.6537054643665
 20
122.3146928406466
 30
0.0
 10
156.8239605298469
 20
122.3146928406466
 30
0.0
 10
157.0312456546828
 20
122.3146928406466
 30
0.0
  0
LINE
  5
2FF
330
1F
100
AcDbEntity
  8
0
  6
Continuous
 62
     7
370
    25
100
AcDbLine
 10
156.3535242494
 20
122.3146928406
 30
0.0
 11
156.3535242494
 21
126.5646928406
 31
0.0
  0
LINE
  5
300
330
1F
100
AcDbEntity
  8
0
  6
Continuous
 62
     7
370
    25
100
AcDbLine
 10
174.5312456547
 20
139.3146928406
 30
0.0
 11
178.6758028442
 21
139.3146928406
 31
0.0
  0
LINE
  5
301
330
1F
100
AcDbEntity
  8
0
  6
Continuous
 62
     7
370
    25
100
AcDbLine
 10
157.0312456547
 20
139.3146928406
 30
0.0
 11
161.1758028442
 21
139.3146928406
 31
0.0
  0
LINE
  5
302
330
1F
100
AcDbEntity
  8
0
  6
Continuous
 62
     7
370
    25
100
AcDbLine
 10
161.1758028442
 20
122.3146928406
 30
0.0
 11
157.0312456547
 21
122.3146928406
 31
0.0
  0
LINE
  5
303
330
1F
100
AcDbEntity
  8
0
  6
Continuous
 62
     7
370
    25
100
AcDbLine
 10
178.6758028442
 20
122.3146928406
 30
0.0
 11
174.5312456547
 21
122.3146928406
 31
0.0
  0
LINE
  5
304
330
1F
100
AcDbEntity
  8
0
  6
Continuous
 62
     7
370
    25
100
AcDbLine
 10
174.3697603264
 20
139.3146928406
 30
0.0
 11
161.3372881724
 21
139.3146928406
 31
0.0
  0
LINE
  5
305
330
1F
100
AcDbEntity
  8
0
  6
Continuous
 62
     7
370
    25
100
AcDbLine
 10
174.3697603264
 20
122.3146928406
 30
0.0
 11
161.3372881724
 21
122.3146928406
 31
0.0
  0
LWPOLYLINE
  5
306
330
1F
100
AcDbEntity
  8
0
  6
Continuous
 62
     7
370
    25
100
AcDbPolyline
 90
        9
 70
   128
 43
0.0
 10
155.9301141272
 20
134.1656166866
 10
155.9438302513
 20
134.1637369623
 10
155.9866873133
 20
134.1432024768
 10
156.0256358278
 20
134.1014297208
 10
156.058940223
 20
134.0402801163
 10
156.0851164324
 20
133.9624785311
 10
156.1029980266
 20
133.8714918562
 10
156.1117881897
 20
133.7713745191
 10
156.111095226
 20
133.6665878159
  0
SPLINE
  5
307
330
1F
100
AcDbEntity
  8
0
  6
Continuous
 62
     7
370
    25
100
AcDbSpline
210
0.0
220
0.0
230
1.0
 70
     8
 71
     3
 72
    17
 73
    13
 74
     0
 42
0.00000001
 43
0.00000001
 40
0.0
 40
0.0
 40
0.0
 40
0.0
 40
0.0054759789932183
 40
0.036001808078774
 40
0.0549776652638621
 40
0.0840382744255432
 40
0.1287625999241079
 40
0.1984309426201647
 40
0.3105168089062726
 40
0.6625146554702869
 40
0.8965459402538405
 40
1.0
 40
1.0
 40
1.0
 40
1.0
 10
153.3535242494226
 20
133.1710574850817
 30
0.0
 10
153.3580380663804
 20
133.1736635387176
 30
0.0
 10
153.3877141429353
 20
133.1907970308224
 30
0.0
 10
153.4330330534427
 20
133.2169582639407
 30
0.0
 10
153.4977813534211
 20
133.2542889759008
 30
0.0
 10
153.5742170666919
 20
133.2982752847629
 30
0.0
 10
153.6923663078225
 20
133.3659763485282
 30
0.0
 10
153.8786943986329
 20
133.4715677040024
 30
0.0
 10
154.3164826087041
 20
133.7137832322323
 30
0.0
 10
154.8835426786356
 20
133.9859543195384
 30
0.0
 10
155.4245193247419
 20
134.1615249215889
 30
0.0
 10
155.6664470762279
 20
134.1588245745352
 30
0.0
 10
155.7406085426802
 20
134.1579967997297
 30
0.0
  0
SPLINE
  5
308
330
1F
100
AcDbEntity
  8
0
  6
Continuous
 62
     7
370
    25
100
AcDbSpline
210
0.0
220
0.0
230
1.0
 70
     8
 71
     3
 72
    17
 73
    13
 74
     0
 42
0.00000001
 43
0.00000001
 40
0.0
 40
0.0
 40
0.0
 40
0.0
 40
0.1035824274477813
 40
0.3375802035657035
 40
0.6895276509783627
 40
0.801597468778404
 40
0.8712558363414296
 40
0.9159737581983927
 40
0.945030206453804
 40
0.9640033466703054
 40
0.9945248050590052
 40
1.0
 40
1.0
 40
1.0
 40
1.0
 10
179.966129019572
 20
134.1580048916111
 30
0.0
 10
180.0403924778578
 20
134.1588363791813
 30
0.0
 10
180.2824207251516
 20
134.1615462378914
 30
0.0
 10
180.8235036304986
 20
133.9859628072915
 30
0.0
 10
181.3905660924887
 20
133.7137824478933
 30
0.0
 10
181.8283540834682
 20
133.4715677689061
 30
0.0
 10
182.0146821932252
 20
133.3659763399909
 30
0.0
 10
182.1328314318551
 20
133.2982752859189
 30
0.0
 10
182.2092671454637
 20
133.2542889757475
 30
0.0
 10
182.2740154453874
 20
133.2169582639996
 30
0.0
 10
182.3193343559106
 20
133.1907970308199
 30
0.0
 10
182.349010432465
 20
133.1736635387173
 30
0.0
 10
182.3535242494226
 20
133.1710574850817
 30
0.0
  0
LWPOLYLINE
  5
309
330
1F
100
AcDbEntity
  8
0
  6
Continuous
 62
     7
370
    25
100
AcDbPolyline
 90
        9
 70
   128
 43
0.0
 10
179.7770089165
 20
134.1656210803
 10
179.7632182475
 20
134.1637369623
 10
179.7203611856
 20
134.1432024768
 10
179.681412671
 20
134.1014297208
 10
179.6481082758
 20
134.0402801163
 10
179.6219320664
 20
133.9624785311
 10
179.6040504722
 20
133.8714918562
 10
179.5952603092
 20
133.7713745191
 10
179.5959532729
 20
133.6665878159
  0
LWPOLYLINE
  5
30A
330
1F
100
AcDbEntity
  8
0
  6
Continuous
 62
     7
370
    25
100
AcDbPolyline
 90
        9
 70
   128
 43
0.0
 10
184.9301141272
 20
134.1656166866
 10
184.9438302513
 20
134.1637369623
 10
184.9866873133
 20
134.1432024768
 10
185.0256358278
 20
134.1014297208
 10
185.058940223
 20
134.0402801163
 10
185.0851164324
 20
133.9624785311
 10
185.1029980266
 20
133.8714918562
 10
185.1117881897
 20
133.7713745191
 10
185.111095226
 20
133.6665878159
  0
SPLINE
  5
30B
330
1F
100
AcDbEntity
  8
0
  6
Continuous
 62
     7
370
    25
100
AcDbSpline
210
0.0
220
0.0
230
1.0
 70
     8
 71
     3
 72
    17
 73
    13
 74
     0
 42
0.00000001
 43
0.00000001
 40
0.0
 40
0.0
 40
0.0
 40
0.0
 40
0.0054759789932181
 40
0.0360018080787181
 40
0.0549776652638466
 40
0.0840382744255424
 40
0.1287625999240932
 40
0.1984309426201546
 40
0.3105168089062715
 40
0.6625146554702835
 40
0.8965459402538363
 40
1.0
 40
1.0
 40
1.0
 40
1.0
 10
182.3535242494226
 20
133.1710574850817
 30
0.0
 10
182.3580380663804
 20
133.1736635387176
 30
0.0
 10
182.3877141429352
 20
133.1907970308224
 30
0.0
 10
182.4330330534426
 20
133.2169582639406
 30
0.0
 10
182.4977813534211
 20
133.2542889759008
 30
0.0
 10
182.5742170666919
 20
133.2982752847628
 30
0.0
 10
182.6923663078225
 20
133.3659763485282
 30
0.0
 10
182.8786943986329
 20
133.4715677040024
 30
0.0
 10
183.3164826087041
 20
133.7137832322323
 30
0.0
 10
183.8835426786356
 20
133.9859543195384
 30
0.0
 10
184.4245193247419
 20
134.1615249215889
 30
0.0
 10
184.6664470762279
 20
134.1588245745352
 30
0.0
 10
184.7406085426802
 20
134.1579967997297
 30
0.0
  0
ELLIPSE
  5
30C
330
1F
100
AcDbEntity
  8
0
  6
Continuous
 62
     7
370
    25
100
AcDbEllipse
 10
182.3535242494
 20
132.9351828552
 30
0.0
 11
6.5
 21
0.0
 31
0.0
210
0.0
220
0.0
230
1.0
 40
0.124260355
 41
0.0
 42
1.132672010655797
  0
ELLIPSE
  5
30D
330
1F
100
AcDbEntity
  8
0
  6
Continuous
 62
     7
370
    25
100
AcDbEllipse
 10
182.3535242494
 20
128.6942028261
 30
0.0
 11
6.5
 21
0.0
 31
0.0
210
0.0
220
0.0
230
1.0
 40
0.124260355
 41
5.150513296523832
 42
6.283185307179586
  0
ELLIPSE
  5
30E
330
1F
100
AcDbEntity
  8
0
  6
Continuous
 62
     7
370
    25
100
AcDbEllipse
 10
153.3535242494
 20
132.9351828552
 30
0.0
 11
6.499999999999972
 21
0.0
 31
0.0
210
0.0
220
0.0
230
1.0
 40
0.124260355
 41
2.008920642933999
 42
3.141592653589792
  0
ELLIPSE
  5
30F
330
1F
100
AcDbEntity
  8
0
  6
Continuous
 62
     7
370
    25
100
AcDbEllipse
 10
153.3535242494
 20
128.6942028261
 30
0.0
 11
6.499999999999972
 21
0.0
 31
0.0
210
0.0
220
0.0
230
1.0
 40
0.124260355
 41
3.141592653589792
 42
4.274264664245589
  0
LWPOLYLINE
  5
310
330
1F
100
AcDbEntity
  8
0
  6
Continuous
 62
     7
370
    25
100
AcDbPolyline
 90
        9
 70
   128
 43
0.0
 10
150.5959532729
 20
133.6665878159
 10
150.5952603092
 20
133.7713745191
 10
150.6040504722
 20
133.8714918562
 10
150.6219320664
 20
133.9624785311
 10
150.6481082758
 20
134.0402801163
 10
150.681412671
 20
134.1014297208
 10
150.7203611856
 20
134.1432024768
 10
150.7632182475
 20
134.1637369623
 10
150.7767949432
 20
134.1656083016
  0
SPLINE
  5
311
330
1F
100
AcDbEntity
  8
0
  6
Continuous
 62
     7
370
    25
100
AcDbSpline
210
0.0
220
0.0
230
1.0
 70
     8
 71
     3
 72
    17
 73
    13
 74
     0
 42
0.00000001
 43
0.00000001
 40
0.0
 40
0.0
 40
0.0
 40
0.0
 40
0.1035824274477779
 40
0.3375802035657001
 40
0.6895276509783612
 40
0.801597468778392
 40
0.8712558363414142
 40
0.9159737581983962
 40
0.9450302064538132
 40
0.9640033466703514
 40
0.994524805059005
 40
0.9999999999999999
 40
0.9999999999999999
 40
0.9999999999999999
 40
0.9999999999999999
 10
150.966129019572
 20
134.1580048916111
 30
0.0
 10
151.0403924778578
 20
134.1588363791813
 30
0.0
 10
151.2824207251516
 20
134.1615462378914
 30
0.0
 10
151.8235036304986
 20
133.9859628072915
 30
0.0
 10
152.3905660924887
 20
133.7137824478933
 30
0.0
 10
152.8283540834682
 20
133.4715677689061
 30
0.0
 10
153.0146821932252
 20
133.3659763399909
 30
0.0
 10
153.1328314318551
 20
133.2982752859189
 30
0.0
 10
153.2092671454637
 20
133.2542889757474
 30
0.0
 10
153.2740154453874
 20
133.2169582639997
 30
0.0
 10
153.3193343559104
 20
133.1907970308193
 30
0.0
 10
153.3490104324649
 20
133.1736635387172
 30
0.0
 10
153.3535242494226
 20
133.1710574850817
 30
0.0
  0
LWPOLYLINE
  5
312
330
1F
100
AcDbEntity
  8
0
  6
Continuous
 62
     7
370
    25
100
AcDbPolyline
 90
        9
 70
   128
 43
0.0
 10
150.5959532729
 20
127.9627978654
 10
150.5952603092
 20
127.8580111622
 10
150.6040504722
 20
127.7578938251
 10
150.6219320664
 20
127.6669071502
 10
150.6481082758
 20
127.589105565
 10
150.681412671
 20
127.5279559605
 10
150.7203611856
 20
127.4861832045
 10
150.7632182475
 20
127.465648719
 10
150.7768040831
 20
127.4637768234
  0
SPLINE
  5
313
330
1F
100
AcDbEntity
  8
0
  6
Continuous
 62
     7
370
    25
100
AcDbSpline
210
0.0
220
0.0
230
1.0
 70
     8
 71
     3
 72
    17
 73
    13
 74
     0
 42
0.00000001
 43
0.00000001
 40
0.0
 40
0.0
 40
0.0
 40
0.0
 40
0.0054759789932042
 40
0.0360018080787162
 40
0.0549776652638767
 40
0.0840382744255409
 40
0.1287625999240982
 40
0.1984309426201658
 40
0.3105168089062746
 40
0.6625146554702909
 40
0.8965459402538448
 40
1.0
 40
1.0
 40
1.0
 40
1.0
 10
153.3535242494226
 20
128.4583281962116
 30
0.0
 10
153.3490104324648
 20
128.4557221425757
 30
0.0
 10
153.3193343559098
 20
128.4385886504713
 30
0.0
 10
153.2740154454027
 20
128.4124274173527
 30
0.0
 10
153.2092671454241
 20
128.3750967053925
 30
0.0
 10
153.1328314321534
 20
128.3311103965303
 30
0.0
 10
153.0146821910227
 20
128.2634093327651
 30
0.0
 10
152.8283541002124
 20
128.1578179772909
 30
0.0
 10
152.3905658901411
 20
127.9156024490609
 30
0.0
 10
151.8235058202097
 20
127.6434313617548
 30
0.0
 10
151.2825291741034
 20
127.4678607597043
 30
0.0
 10
151.0406014226174
 20
127.4705611067581
 30
0.0
 10
150.9664399561651
 20
127.4713888815636
 30
0.0
  0
LWPOLYLINE
  5
314
330
1F
100
AcDbEntity
  8
0
  6
Continuous
 62
     7
370
    25
100
AcDbPolyline
 90
        9
 70
   128
 43
0.0
 10
179.7769343716
 20
127.4637689946
 10
179.7632182475
 20
127.465648719
 10
179.7203611856
 20
127.4861832045
 10
179.681412671
 20
127.5279559605
 10
179.6481082758
 20
127.589105565
 10
179.6219320664
 20
127.6669071502
 10
179.6040504722
 20
127.7578938251
 10
179.5952603092
 20
127.8580111622
 10
179.5959532729
 20
127.9627978654
  0
SPLINE
  5
315
330
1F
100
AcDbEntity
  8
0
  6
Continuous
 62
     7
370
    25
100
AcDbSpline
210
0.0
220
0.0
230
1.0
 70
     8
 71
     3
 72
    17
 73
    13
 74
     0
 42
0.00000001
 43
0.00000001
 40
0.0
 40
0.0
 40
0.0
 40
0.0
 40
0.0054759789932038
 40
0.0360018080787582
 40
0.054977665263864
 40
0.0840382744255444
 40
0.1287625999241084
 40
0.1984309426201634
 40
0.3105168089062796
 40
0.6625146554702888
 40
0.8965459402538452
 40
0.9999999999999999
 40
0.9999999999999999
 40
0.9999999999999999
 40
0.9999999999999999
 10
182.3535242494226
 20
128.4583281962116
 30
0.0
 10
182.3490104324649
 20
128.4557221425757
 30
0.0
 10
182.3193343559098
 20
128.4385886504712
 30
0.0
 10
182.2740154454027
 20
128.4124274173525
 30
0.0
 10
182.2092671454241
 20
128.3750967053925
 30
0.0
 10
182.1328314321534
 20
128.3311103965304
 30
0.0
 10
182.0146821910227
 20
128.2634093327651
 30
0.0
 10
181.8283541002124
 20
128.1578179772909
 30
0.0
 10
181.3905658901411
 20
127.9156024490609
 30
0.0
 10
180.8235058202097
 20
127.6434313617548
 30
0.0
 10
180.2825291741034
 20
127.4678607597043
 30
0.0
 10
180.0406014226174
 20
127.4705611067581
 30
0.0
 10
179.9664399561651
 20
127.4713888815636
 30
0.0
  0
LWPOLYLINE
  5
316
330
1F
100
AcDbEntity
  8
0
  6
Continuous
 62
     7
370
    25
100
AcDbPolyline
 90
        9
 70
   128
 43
0.0
 10
156.111095226
 20
127.9627978654
 10
156.1117881897
 20
127.8580111622
 10
156.1029980266
 20
127.7578938251
 10
156.0851164324
 20
127.6669071502
 10
156.058940223
 20
127.589105565
 10
156.0256358278
 20
127.5279559605
 10
155.9866873133
 20
127.4861832045
 10
155.9438302513
 20
127.465648719
 10
155.9302535556
 20
127.4637773797
  0
SPLINE
  5
317
330
1F
100
AcDbEntity
  8
0
  6
Continuous
 62
     7
370
    25
100
AcDbSpline
210
0.0
220
0.0
230
1.0
 70
     8
 71
     3
 72
    17
 73
    13
 74
     0
 42
0.00000001
 43
0.00000001
 40
0.0
 40
0.0
 40
0.0
 40
0.0
 40
0.1035824274477805
 40
0.3375802035657029
 40
0.6895276509783625
 40
0.801597468778394
 40
0.8712558363414243
 40
0.9159737581983909
 40
0.9450302064538054
 40
0.9640033466703603
 40
0.9945248050590189
 40
1.0
 40
1.0
 40
1.0
 40
1.0
 10
155.7409194792732
 20
127.4713807896822
 30
0.0
 10
155.6666560209875
 20
127.4705493021119
 30
0.0
 10
155.4246277736937
 20
127.4678394434019
 30
0.0
 10
154.8835448683467
 20
127.6434228740017
 30
0.0
 10
154.3164824063566
 20
127.9156032333999
 30
0.0
 10
153.8786944153771
 20
128.1578179123872
 30
0.0
 10
153.69236630562
 20
128.2634093413024
 30
0.0
 10
153.5742170669901
 20
128.3311103953742
 30
0.0
 10
153.4977813533816
 20
128.3750967055459
 30
0.0
 10
153.4330330534578
 20
128.4124274172936
 30
0.0
 10
153.3877141429348
 20
128.4385886504737
 30
0.0
 10
153.3580380663803
 20
128.455722142576
 30
0.0
 10
153.3535242494226
 20
128.4583281962116
 30
0.0
  0
LWPOLYLINE
  5
318
330
1F
100
AcDbEntity
  8
0
  6
Continuous
 62
     7
370
    25
100
AcDbPolyline
 90
        9
 70
   128
 43
0.0
 10
185.111095226
 20
127.9627978654
 10
185.1117881897
 20
127.8580111622
 10
185.1029980266
 20
127.7578938251
 10
185.0851164324
 20
127.6669071502
 10
185.058940223
 20
127.589105565
 10
185.0256358278
 20
127.5279559605
 10
184.9866873133
 20
127.4861832045
 10
184.9438302513
 20
127.465648719
 10
184.9302535556
 20
127.4637773797
  0
SPLINE
  5
319
330
1F
100
AcDbEntity
  8
0
  6
Continuous
 62
     7
370
    25
100
AcDbSpline
210
0.0
220
0.0
230
1.0
 70
     8
 71
     3
 72
    17
 73
    13
 74
     0
 42
0.00000001
 43
0.00000001
 40
0.0
 40
0.0
 40
0.0
 40
0.0
 40
0.1035824274477756
 40
0.3375802035656978
 40
0.68952765097836
 40
0.8015974687783916
 40
0.8712558363414326
 40
0.9159737581984025
 40
0.9450302064538179
 40
0.9640033466703768
 40
0.9945248050590191
 40
1.0
 40
1.0
 40
1.0
 40
1.0
 10
184.7409194792732
 20
127.4713807896822
 30
0.0
 10
184.6666560209874
 20
127.4705493021119
 30
0.0
 10
184.4246277736937
 20
127.4678394434019
 30
0.0
 10
183.8835448683467
 20
127.6434228740017
 30
0.0
 10
183.3164824063566
 20
127.9156032334
 30
0.0
 10
182.878694415377
 20
128.1578179123872
 30
0.0
 10
182.69236630562
 20
128.2634093413024
 30
0.0
 10
182.5742170669901
 20
128.3311103953743
 30
0.0
 10
182.4977813533815
 20
128.3750967055459
 30
0.0
 10
182.4330330534578
 20
128.4124274172936
 30
0.0
 10
182.3877141429348
 20
128.4385886504738
 30
0.0
 10
182.3580380663803
 20
128.455722142576
 30
0.0
 10
182.3535242494226
 20
128.4583281962116
 30
0.0
  0
ARC
  5
31A
330
1F
100
AcDbEntity
  8
0
  6
Continuous
 62
     7
370
    25
100
AcDbCircle
 10
158.4407703173
 20
133.4228296355
 30
0.0
 40
0.4427358722394855
100
AcDbArc
 50
351.9127418086
 51
74.3423450641
  0
ARC
  5
31B
330
1F
100
AcDbEntity
  8
0
  6
Continuous
 62
     7
370
    25
100
AcDbCircle
 10
177.2785629961
 20
133.4148199434
 30
0.0
 40
0.4538744757563015
100
AcDbArc
 50
106.8900827373
 51
186.8679337738
  0
ARC
  5
31C
330
1F
100
AcDbEntity
  8
0
  6
Continuous
 62
     7
370
    25
100
AcDbCircle
 10
177.2662781816
 20
128.2065560458
 30
0.0
 40
0.4427358722396175
100
AcDbArc
 50
171.9127418086
 51
254.3423450641
  0
ARC
  5
31D
330
1F
100
AcDbEntity
  8
0
  6
Continuous
 62
     7
370
    25
100
AcDbCircle
 10
158.4284855028
 20
128.2145657379
 30
0.0
 40
0.4538744757560928
100
AcDbArc
 50
286.8900827373
 51
6.8679337738
  0
INSERT
  5
329
330
1F
100
AcDbEntity
  8
0
  6
Continuous
 62
     7
370
    18
100
AcDbBlockReference
  2
SW_CENTERMARKSYMBOL_1
 10
167.8535242494
 20
130.8146928406
 30
0.0
  0
ENDSEC
  0
SECTION
  2
OBJECTS
  0
DICTIONARY
  5
C
330
0
100
AcDbDictionary
281
     1
  3
ACAD_GROUP
350
D
  3
ACAD_LAYOUT
350
1A
  3
ACAD_MLINESTYLE
350
17
  3
ACAD_PLOTSETTINGS
350
19
  3
ACAD_PLOTSTYLENAME
350
E
  3
ACAD_SCALELIST
350
47
  3
DWGPROPS
350
32A
  0
DICTIONARY
  5
D
102
{ACAD_REACTORS
330
C
102
}
330
C
100
AcDbDictionary
281
     1
  0
DICTIONARY
  5
1A
102
{ACAD_REACTORS
330
C
102
}
330
C
100
AcDbDictionary
281
     1
  3
Layout1
350
1E
  3
Layout2
350
26
  3
Model
350
22
  0
DICTIONARY
  5
17
102
{ACAD_REACTORS
330
C
102
}
330
C
100
AcDbDictionary
281
     1
  3
Standard
350
18
  0
DICTIONARY
  5
19
102
{ACAD_REACTORS
330
C
102
}
330
C
100
AcDbDictionary
281
     1
  0
ACDBDICTIONARYWDFLT
  5
E
102
{ACAD_REACTORS
330
C
102
}
330
C
100
AcDbDictionary
281
     1
  3
Normal
350
F
100
AcDbDictionaryWithDefault
340
F
  0
DICTIONARY
  5
47
102
{ACAD_REACTORS
330
C
102
}
330
C
100
AcDbDictionary
281
     1
  3
A0
350
48
  3
A1
350
49
  3
A2
350
4A
  3
A3
350
4B
  3
A4
350
4C
  3
A5
350
4D
  3
A6
350
4E
  3
A7
350
4F
  3
A8
350
50
  3
A9
350
51
  3
B0
350
52
  3
B1
350
53
  3
B2
350
54
  3
B3
350
55
  3
B4
350
56
  3
B5
350
57
  3
B6
350
58
  0
XRECORD
  5
32A
102
{ACAD_REACTORS
330
C
102
}
330
C
100
AcDbXrecord
280
     1
  1
DWGPROPS COOKIE
  2

  3

  4

  6

  7

  8
user28
  9

300
=
301
=
302
=
303
=
304
=
305
=
306
=
307
=
308
=
309
=
 40
0.0
 41
2460276.250652674
 42
2460276.250654016
  1

 90
        0
  0
LAYOUT
  5
1E
102
{ACAD_REACTORS
330
1A
102
}
330
1A
100
AcDbPlotSettings
  1

  2
none_device
  4

  6

 40
0.0
 41
0.0
 42
0.0
 43
0.0
 44
0.0
 45
0.0
 46
0.0
 47
0.0
 48
0.0
 49
0.0
140
0.0
141
0.0
142
1.0
143
1.0
 70
   688
 72
     1
 73
     0
 74
     5
  7

 75
    16
147
1.0
148
0.0
149
0.0
100
AcDbLayout
  1
Layout1
 70
     1
 71
     1
 10
0.0
 20
0.0
 11
420.0
 21
297.0
 12
0.0
 22
0.0
 32
0.0
 14
1.0000000000E+20
 24
1.0000000000E+20
 34
1.0000000000E+20
 15
-1.0000000000E+20
 25
-1.0000000000E+20
 35
-1.0000000000E+20
146
0.0
 13
0.0
 23
0.0
 33
0.0
 16
1.0
 26
0.0
 36
0.0
 17
0.0
 27
1.0
 37
0.0
 76
     0
330
1B
  0
LAYOUT
  5
26
102
{ACAD_REACTORS
330
1A
102
}
330
1A
100
AcDbPlotSettings
  1

  2
none_device
  4

  6

 40
0.0
 41
0.0
 42
0.0
 43
0.0
 44
0.0
 45
0.0
 46
0.0
 47
0.0
 48
0.0
 49
0.0
140
0.0
141
0.0
142
1.0
143
1.0
 70
   688
 72
     1
 73
     0
 74
     5
  7

 75
    16
147
1.0
148
0.0
149
0.0
100
AcDbLayout
  1
Layout2
 70
     1
 71
     2
 10
0.0
 20
0.0
 11
0.0
 21
0.0
 12
0.0
 22
0.0
 32
0.0
 14
0.0
 24
0.0
 34
0.0
 15
0.0
 25
0.0
 35
0.0
146
0.0
 13
0.0
 23
0.0
 33
0.0
 16
1.0
 26
0.0
 36
0.0
 17
0.0
 27
1.0
 37
0.0
 76
     0
330
23
  0
LAYOUT
  5
22
102
{ACAD_REACTORS
330
1A
102
}
330
1A
100
AcDbPlotSettings
  1

  2
none_device
  4
Letter_(8.50_x_11.00_Inches)
  6

 40
6.35
 41
6.35
 42
6.35000508
 43
6.35000508
 44
215.9
 45
279.4
 46
0.0
 47
0.0
 48
0.0
 49
0.0
140
0.0
141
0.0
142
1.0
143
1.0
 70
  1712
 72
     1
 73
     0
 74
     0
  7

 75
     0
147
1.0
148
0.0
149
0.0
100
AcDbLayout
  1
Model
 70
     1
 71
     0
 10
0.0
 20
0.0
 11
431.8
 21
279.4
 12
0.0
 22
0.0
 32
0.0
 14
0.0
 24
0.0
 34
0.0
 15
431.8
 25
279.4
 35
0.0
146
0.0
 13
0.0
 23
0.0
 33
0.0
 16
1.0
 26
0.0
 36
0.0
 17
0.0
 27
1.0
 37
0.0
 76
     0
330
1F
331
29
  0
MLINESTYLE
  5
18
102
{ACAD_REACTORS
330
17
102
}
330
17
100
AcDbMlineStyle
  2
Standard
 70
     0
  3

 62
   256
 51
90.0
 52
90.0
 71
     2
 49
0.5
 62
   256
  6
BYLAYER
 49
-0.5
 62
   256
  6
BYLAYER
  0
ACDBPLACEHOLDER
  5
F
102
{ACAD_REACTORS
330
E
102
}
330
E
  0
SCALE
  5
48
102
{ACAD_REACTORS
330
47
102
}
330
47
100
AcDbScale
 70
     0
300
1:1
140
1.0
141
1.0
290
     1
  0
SCALE
  5
49
102
{ACAD_REACTORS
330
47
102
}
330
47
100
AcDbScale
 70
     0
300
1:2
140
1.0
141
2.0
290
     0
  0
SCALE
  5
4A
102
{ACAD_REACTORS
330
47
102
}
330
47
100
AcDbScale
 70
     0
300
1:4
140
1.0
141
4.0
290
     0
  0
SCALE
  5
4B
102
{ACAD_REACTORS
330
47
102
}
330
47
100
AcDbScale
 70
     0
300
1:5
140
1.0
141
5.0
290
     0
  0
SCALE
  5
4C
102
{ACAD_REACTORS
330
47
102
}
330
47
100
AcDbScale
 70
     0
300
1:8
140
1.0
141
8.0
290
     0
  0
SCALE
  5
4D
102
{ACAD_REACTORS
330
47
102
}
330
47
100
AcDbScale
 70
     0
300
1:10
140
1.0
141
10.0
290
     0
  0
SCALE
  5
4E
102
{ACAD_REACTORS
330
47
102
}
330
47
100
AcDbScale
 70
     0
300
1:16
140
1.0
141
16.0
290
     0
  0
SCALE
  5
4F
102
{ACAD_REACTORS
330
47
102
}
330
47
100
AcDbScale
 70
     0
300
1:20
140
1.0
141
20.0
290
     0
  0
SCALE
  5
50
102
{ACAD_REACTORS
330
47
102
}
330
47
100
AcDbScale
 70
     0
300
1:30
140
1.0
141
30.0
290
     0
  0
SCALE
  5
51
102
{ACAD_REACTORS
330
47
102
}
330
47
100
AcDbScale
 70
     0
300
1:40
140
1.0
141
40.0
290
     0
  0
SCALE
  5
52
102
{ACAD_REACTORS
330
47
102
}
330
47
100
AcDbScale
 70
     0
300
1:50
140
1.0
141
50.0
290
     0
  0
SCALE
  5
53
102
{ACAD_REACTORS
330
47
102
}
330
47
100
AcDbScale
 70
     0
300
1:100
140
1.0
141
100.0
290
     0
  0
SCALE
  5
54
102
{ACAD_REACTORS
330
47
102
}
330
47
100
AcDbScale
 70
     0
300
2:1
140
2.0
141
1.0
290
     0
  0
SCALE
  5
55
102
{ACAD_REACTORS
330
47
102
}
330
47
100
AcDbScale
 70
     0
300
4:1
140
4.0
141
1.0
290
     0
  0
SCALE
  5
56
102
{ACAD_REACTORS
330
47
102
}
330
47
100
AcDbScale
 70
     0
300
8:1
140
8.0
141
1.0
290
     0
  0
SCALE
  5
57
102
{ACAD_REACTORS
330
47
102
}
330
47
100
AcDbScale
 70
     0
300
10:1
140
10.0
141
1.0
290
     0
  0
SCALE
  5
58
102
{ACAD_REACTORS
330
47
102
}
330
47
100
AcDbScale
 70
     0
300
100:1
140
100.0
141
1.0
290
     0
  0
ENDSEC
  0
EOF
