  0
SECTION
  2
HEADER
  9
$ACADVER
  1
AC1015
  9
$ACADMAINTVER
 70
     6
  9
$DWGCODEPAGE
  3
DOS932
  9
$INSBASE
 10
0.0
 20
0.0
 30
0.0
  9
$EXTMIN
 10
0.0
 20
0.0
 30
0.0
  9
$EXTMAX
 10
297.0
 20
210.0
 30
0.0
  9
$LIMMIN
 10
0.0
 20
0.0
  9
$LIMMAX
 10
297.0
 20
210.0
  9
$ORTHOMODE
 70
     0
  9
$REGENMODE
 70
     1
  9
$FILLMODE
 70
     1
  9
$QTEXTMODE
 70
     0
  9
$MIRRTEXT
 70
     1
  9
$LTSCALE
 40
1.0
  9
$ATTMODE
 70
     1
  9
$TEXTSIZE
 40
3.5277777778
  9
$TRACEWID
 40
1.0
  9
$TEXTSTYLE
  7
Standard
  9
$CLAYER
  8
0
  9
$CELTYPE
  6
ByLayer
  9
$CECOLOR
 62
   256
  9
$CELTSCALE
 40
1.0
  9
$DISPSILH
 70
     0
  9
$DIMSCALE
 40
1.0
  9
$DIMASZ
 40
2.728515625
  9
$DIMEXO
 40
1.0
  9
$DIMDLI
 40
3.75
  9
$DIMRND
 40
0.0
  9
$DIMDLE
 40
0.0
  9
$DIMEXE
 40
1.0
  9
$DIMTP
 40
0.0
  9
$DIMTM
 40
0.0
  9
$DIMTXT
 40
3.5277777778
  9
$DIMCEN
 40
2.5
  9
$DIMTSZ
 40
0.0
  9
$DIMTOL
 70
     0
  9
$DIMLIM
 70
     0
  9
$DIMTIH
 70
     1
  9
$DIMTOH
 70
     1
  9
$DIMSE1
 70
     0
  9
$DIMSE2
 70
     0
  9
$DIMTAD
 70
     1
  9
$DIMZIN
 70
     0
  9
$DIMBLK
  1

  9
$DIMASO
 70
     1
  9
$DIMSHO
 70
     1
  9
$DIMPOST
  1

  9
$DIMAPOST
  1

  9
$DIMALT
 70
     0
  9
$DIMALTD
 70
     3
  9
$DIMALTF
 40
0.0393700787
  9
$DIMLFAC
 40
1.0
  9
$DIMTOFL
 70
     1
  9
$DIMTVP
 40
0.0
  9
$DIMTIX
 70
     0
  9
$DIMSOXD
 70
     0
  9
$DIMSAH
 70
     0
  9
$DIMBLK1
  1

  9
$DIMBLK2
  1

  9
$DIMSTYLE
  2
ISO-25
  9
$DIMCLRD
 70
     0
  9
$DIMCLRE
 70
     0
  9
$DIMCLRT
 70
     0
  9
$DIMTFAC
 40
1.0
  9
$DIMGAP
 40
1.524
  9
$DIMJUST
 70
     0
  9
$DIMSD1
 70
     0
  9
$DIMSD2
 70
     0
  9
$DIMTOLJ
 70
     0
  9
$DIMTZIN
 70
     0
  9
$DIMALTZ
 70
     0
  9
$DIMALTTZ
 70
     0
  9
$DIMUPT
 70
     0
  9
$DIMDEC
 70
     2
  9
$DIMTDEC
 70
     2
  9
$DIMALTU
 70
     2
  9
$DIMALTTD
 70
     3
  9
$DIMTXSTY
  7
Standard
  9
$DIMAUNIT
 70
     0
  9
$DIMADEC
 70
     2
  9
$DIMALTRND
 40
0.0
  9
$DIMAZIN
 70
     0
  9
$DIMDSEP
 70
    44
  9
$DIMATFIT
 70
     3
  9
$DIMFRAC
 70
     0
  9
$DIMLDRBLK
  1

  9
$DIMLUNIT
 70
     2
  9
$DIMLWD
 70
    -2
  9
$DIMLWE
 70
    -2
  9
$DIMTMOVE
 70
     0
  9
$LUNITS
 70
     2
  9
$LUPREC
 70
     2
  9
$SKETCHINC
 40
1.0
  9
$FILLETRAD
 40
0.0
  9
$AUNITS
 70
     0
  9
$AUPREC
 70
     2
  9
$MENU
  1
.
  9
$ELEVATION
 40
0.0
  9
$PELEVATION
 40
0.0
  9
$THICKNESS
 40
0.0
  9
$LIMCHECK
 70
     0
  9
$CHAMFERA
 40
0.0
  9
$CHAMFERB
 40
0.0
  9
$CHAMFERC
 40
0.0
  9
$CHAMFERD
 40
0.0
  9
$SKPOLY
 70
     0
  9
$TDCREATE
 40
2460336.654076215
  9
$TDUCREATE
 40
2460336.279076215
  9
$TDUPDATE
 40
2460336.65407691
  9
$TDUUPDATE
 40
2460336.27907691
  9
$TDINDWG
 40
0.0000000116
  9
$TDUSRTIMER
 40
0.0000000116
  9
$USRTIMER
 70
     1
  9
$ANGBASE
 50
0.0
  9
$ANGDIR
 70
     0
  9
$PDMODE
 70
     0
  9
$PDSIZE
 40
-1.0
  9
$PLINEWID
 40
0.0
  9
$SPLFRAME
 70
     0
  9
$SPLINETYPE
 70
     6
  9
$SPLINESEGS
 70
     8
  9
$HANDSEED
  5
27F
  9
$SURFTAB1
 70
     6
  9
$SURFTAB2
 70
     6
  9
$SURFTYPE
 70
     6
  9
$SURFU
 70
     6
  9
$SURFV
 70
     6
  9
$UCSBASE
  2

  9
$UCSNAME
  2

  9
$UCSORG
 10
0.0
 20
0.0
 30
0.0
  9
$UCSXDIR
 10
1.0
 20
0.0
 30
0.0
  9
$UCSYDIR
 10
0.0
 20
1.0
 30
0.0
  9
$UCSORTHOREF
  2

  9
$UCSORTHOVIEW
 70
     0
  9
$UCSORGTOP
 10
0.0
 20
0.0
 30
0.0
  9
$UCSORGBOTTOM
 10
0.0
 20
0.0
 30
0.0
  9
$UCSORGLEFT
 10
0.0
 20
0.0
 30
0.0
  9
$UCSORGRIGHT
 10
0.0
 20
0.0
 30
0.0
  9
$UCSORGFRONT
 10
0.0
 20
0.0
 30
0.0
  9
$UCSORGBACK
 10
0.0
 20
0.0
 30
0.0
  9
$PUCSBASE
  2

  9
$PUCSNAME
  2

  9
$PUCSORG
 10
0.0
 20
0.0
 30
0.0
  9
$PUCSXDIR
 10
1.0
 20
0.0
 30
0.0
  9
$PUCSYDIR
 10
0.0
 20
1.0
 30
0.0
  9
$PUCSORTHOREF
  2

  9
$PUCSORTHOVIEW
 70
     0
  9
$PUCSORGTOP
 10
0.0
 20
0.0
 30
0.0
  9
$PUCSORGBOTTOM
 10
0.0
 20
0.0
 30
0.0
  9
$PUCSORGLEFT
 10
0.0
 20
0.0
 30
0.0
  9
$PUCSORGRIGHT
 10
0.0
 20
0.0
 30
0.0
  9
$PUCSORGFRONT
 10
0.0
 20
0.0
 30
0.0
  9
$PUCSORGBACK
 10
0.0
 20
0.0
 30
0.0
  9
$USERI1
 70
     0
  9
$USERI2
 70
     0
  9
$USERI3
 70
     0
  9
$USERI4
 70
     0
  9
$USERI5
 70
     0
  9
$USERR1
 40
0.0
  9
$USERR2
 40
0.0
  9
$USERR3
 40
0.0
  9
$USERR4
 40
0.0
  9
$USERR5
 40
0.0
  9
$WORLDVIEW
 70
     1
  9
$SHADEDGE
 70
     3
  9
$SHADEDIF
 70
    70
  9
$TILEMODE
 70
     1
  9
$MAXACTVP
 70
    64
  9
$PINSBASE
 10
0.0
 20
0.0
 30
0.0
  9
$PLIMCHECK
 70
     0
  9
$PEXTMIN
 10
1.0000000000E+20
 20
1.0000000000E+20
 30
1.0000000000E+20
  9
$PEXTMAX
 10
-1.0000000000E+20
 20
-1.0000000000E+20
 30
-1.0000000000E+20
  9
$PLIMMIN
 10
0.0
 20
0.0
  9
$PLIMMAX
 10
420.0
 20
297.0
  9
$UNITMODE
 70
     0
  9
$VISRETAIN
 70
     1
  9
$PLINEGEN
 70
     0
  9
$PSLTSCALE
 70
     1
  9
$TREEDEPTH
 70
  3020
  9
$CMLSTYLE
  2
Standard
  9
$CMLJUST
 70
     0
  9
$CMLSCALE
 40
20.0
  9
$PROXYGRAPHICS
 70
     1
  9
$MEASUREMENT
 70
     1
  9
$CELWEIGHT
370
    -1
  9
$ENDCAPS
280
     0
  9
$JOINSTYLE
280
     0
  9
$LWDISPLAY
290
     1
  9
$INSUNITS
 70
     4
  9
$HYPERLINKBASE
  1

  9
$STYLESHEET
  1

  9
$XEDIT
290
     1
  9
$CEPSNTYPE
380
     0
  9
$PSTYLEMODE
290
     1
  9
$FINGERPRINTGUID
  2
{b7cb6a23-3296-4b09-b03e-3bc1f565786c}
  9
$VERSIONGUID
  2
{FAEB1C32-E019-11D5-929B-00C0DF256EC4}
  9
$EXTNAMES
290
     1
  9
$PSVPSCALE
 40
0.0
  9
$OLESTARTUP
290
     0
  0
ENDSEC
  0
SECTION
  2
CLASSES
  0
CLASS
  1
ACDBDICTIONARYWDFLT
  2
AcDbDictionaryWithDefault
  3
ObjectDBX Classes
 90
        0
280
     0
281
     0
  0
CLASS
  1
VISUALSTYLE
  2
AcDbVisualStyle
  3
ObjectDBX Classes
 90
     4095
280
     0
281
     0
  0
CLASS
  1
MATERIAL
  2
AcDbMaterial
  3
ObjectDBX Classes
 90
     1153
280
     0
281
     0
  0
CLASS
  1
SCALE
  2
AcDbScale
  3
ObjectDBX Classes
 90
     1153
280
     0
281
     0
  0
CLASS
  1
TABLESTYLE
  2
AcDbTableStyle
  3
ObjectDBX Classes
 90
     4095
280
     0
281
     0
  0
CLASS
  1
MLEADERSTYLE
  2
AcDbMLeaderStyle
  3
ACDB_MLEADERSTYLE_CLASS
 90
     4095
280
     0
281
     0
  0
CLASS
  1
SUN
  2
AcDbSun
  3
SCENEOE
 90
     1153
280
     0
281
     0
  0
CLASS
  1
ACDBPLACEHOLDER
  2
AcDbPlaceHolder
  3
ObjectDBX Classes
 90
        0
280
     0
281
     0
  0
CLASS
  1
LAYOUT
  2
AcDbLayout
  3
ObjectDBX Classes
 90
        0
280
     0
281
     0
  0
ENDSEC
  0
SECTION
  2
TABLES
  0
TABLE
  2
VPORT
  5
8
330
0
100
AcDbSymbolTable
 70
     1
  0
VPORT
  5
29
330
8
100
AcDbSymbolTableRecord
100
AcDbViewportTableRecord
  2
*Active
 70
     0
 10
0.0
 20
0.0
 11
1.0
 21
1.0
 12
148.5
 22
105.0
 13
0.0
 23
0.0
 14
10.0
 24
10.0
 15
10.0
 25
10.0
 16
0.0
 26
0.0
 36
1.0
 17
0.0
 27
0.0
 37
0.0
 40
210.0
 41
1.4142857143
 42
50.0
 43
0.0
 44
0.0
 50
0.0
 51
0.0
 71
     0
 72
  2000
 73
     1
 74
     3
 75
     0
 76
     0
 77
     0
 78
     0
281
     0
 65
     1
110
0.0
120
0.0
130
0.0
111
1.0
121
0.0
131
0.0
112
0.0
122
1.0
132
0.0
 79
     0
146
0.0
  0
ENDTAB
  0
TABLE
  2
LTYPE
  5
5
330
0
100
AcDbSymbolTable
 70
     6
  0
LTYPE
  5
14
330
5
100
AcDbSymbolTableRecord
100
AcDbLinetypeTableRecord
  2
ByBlock
 70
     0
  3

 72
    65
 73
     0
 40
0.0
  0
LTYPE
  5
15
330
5
100
AcDbSymbolTableRecord
100
AcDbLinetypeTableRecord
  2
ByLayer
 70
     0
  3

 72
    65
 73
     0
 40
0.0
  0
LTYPE
  5
16
330
5
100
AcDbSymbolTableRecord
100
AcDbLinetypeTableRecord
  2
Continuous
 70
     0
  3
Solid line
 72
    65
 73
     0
 40
0.0
  0
LTYPE
  5
5E
330
5
100
AcDbSymbolTableRecord
100
AcDbLinetypeTableRecord
  2
HIDDEN
 70
     0
  3
Hidden __ __ __ __ __ __ __ __ __ __ __ __ __ __
 72
    65
 73
     2
 40
1.905
 49
1.27
 74
     0
 49
-0.635
 74
     0
  0
LTYPE
  5
5F
330
5
100
AcDbSymbolTableRecord
100
AcDbLinetypeTableRecord
  2
PHANTOM
 70
     0
  3
Phantom ______  __  __  ______  __  __  ______
 72
    65
 73
     6
 40
12.7
 49
6.35
 74
     0
 49
-1.27
 74
     0
 49
1.27
 74
     0
 49
-1.27
 74
     0
 49
1.27
 74
     0
 49
-1.27
 74
     0
  0
LTYPE
  5
60
330
5
100
AcDbSymbolTableRecord
100
AcDbLinetypeTableRecord
  2
CENTER
 70
     0
  3
Center ____ _ ____ _ ____ _ ____ _ ____ _ ____
 72
    65
 73
     4
 40
10.16
 49
6.35
 74
     0
 49
-1.27
 74
     0
 49
1.27
 74
     0
 49
-1.27
 74
     0
  0
LTYPE
  5
61
330
5
100
AcDbSymbolTableRecord
100
AcDbLinetypeTableRecord
  2
CENTERX2
 70
     0
  3
Center (2x) ________  __  ________  __  _____
 72
    65
 73
     4
 40
20.32
 49
12.7
 74
     0
 49
-2.54
 74
     0
 49
2.54
 74
     0
 49
-2.54
 74
     0
  0
LTYPE
  5
62
330
5
100
AcDbSymbolTableRecord
100
AcDbLinetypeTableRecord
  2
DOT2
 70
     0
  3
Dot (.5x) ........................................
 72
    65
 73
     2
 40
0.635
 49
0.0
 74
     0
 49
-0.635
 74
     0
  0
ENDTAB
  0
TABLE
  2
LAYER
  5
2
330
0
100
AcDbSymbolTable
 70
     2
  0
LAYER
  5
10
330
2
100
AcDbSymbolTableRecord
100
AcDbLayerTableRecord
  2
0
 70
     0
 62
     7
  6
Continuous
370
    -3
390
F
  0
LAYER
  5
63
330
2
100
AcDbSymbolTableRecord
100
AcDbLayerTableRecord
  2
FORMAT
 70
     0
 62
     7
  6
Continuous
370
    -3
390
F
  0
ENDTAB
  0
TABLE
  2
STYLE
  5
3
330
0
100
AcDbSymbolTable
 70
     2
  0
STYLE
  5
11
330
3
100
AcDbSymbolTableRecord
100
AcDbTextStyleTableRecord
  2
Standard
 70
     0
 40
0.0
 41
1.0
 50
0.0
 71
     0
 42
3.5277777778
  3
txt
  4
bigfont
  0
STYLE
  5
64
330
3
100
AcDbSymbolTableRecord
100
AcDbTextStyleTableRecord
  2
SLDTEXTSTYLE0
 70
     0
 40
0.0
 41
0.7
 50
0.0
 71
     0
 42
3.5277777778
  3
TXT
  4
bigfont
  0
ENDTAB
  0
TABLE
  2
VIEW
  5
6
330
0
100
AcDbSymbolTable
 70
     0
  0
ENDTAB
  0
TABLE
  2
UCS
  5
7
330
0
100
AcDbSymbolTable
 70
     0
  0
ENDTAB
  0
TABLE
  2
APPID
  5
9
330
0
100
AcDbSymbolTable
 70
     1
  0
APPID
  5
12
330
9
100
AcDbSymbolTableRecord
100
AcDbRegAppTableRecord
  2
ACAD
 70
     0
  0
ENDTAB
  0
TABLE
  2
DIMSTYLE
  5
A
330
0
100
AcDbSymbolTable
 70
     1
100
AcDbDimStyleTable
  0
DIMSTYLE
105
27
330
A
100
AcDbSymbolTableRecord
100
AcDbDimStyleTableRecord
  2
ISO-25
 70
     0
 41
2.5
 42
0.625
 43
3.75
 44
1.25
 73
     0
 74
     0
 77
     1
 78
     8
140
2.5
141
2.5
143
0.0393700787
147
0.625
171
     3
172
     1
178
     0
271
     2
272
     2
274
     3
278
    44
283
     0
284
     8
340
11
  0
ENDTAB
  0
TABLE
  2
BLOCK_RECORD
  5
1
330
0
100
AcDbSymbolTable
 70
     3
  0
BLOCK_RECORD
  5
1F
330
1
100
AcDbSymbolTableRecord
100
AcDbBlockTableRecord
  2
*Model_Space
340
22
  0
BLOCK_RECORD
  5
1B
330
1
100
AcDbSymbolTableRecord
100
AcDbBlockTableRecord
  2
*Paper_Space
340
1E
  0
BLOCK_RECORD
  5
23
330
1
100
AcDbSymbolTableRecord
100
AcDbBlockTableRecord
  2
*Paper_Space0
340
26
  0
BLOCK_RECORD
  5
1CD
330
1
100
AcDbSymbolTableRecord
100
AcDbBlockTableRecord
  2
SW_CENTERMARKSYMBOL_0
340
0
102
{BLKREFS
331
1D8
102
}
  0
BLOCK_RECORD
  5
272
330
1
100
AcDbSymbolTableRecord
100
AcDbBlockTableRecord
  2
SW_CENTERMARKSYMBOL_1
340
0
102
{BLKREFS
331
27D
102
}
  0
ENDTAB
  0
ENDSEC
  0
SECTION
  2
BLOCKS
  0
BLOCK
  5
20
330
1F
100
AcDbEntity
  8
0
100
AcDbBlockBegin
  2
*Model_Space
 70
     0
 10
0.0
 20
0.0
 30
0.0
  3
*Model_Space
  1

  0
ENDBLK
  5
21
330
1F
100
AcDbEntity
  8
0
100
AcDbBlockEnd
  0
BLOCK
  5
1C
330
1B
100
AcDbEntity
 67
     1
  8
0
100
AcDbBlockBegin
  2
*Paper_Space
 70
     0
 10
0.0
 20
0.0
 30
0.0
  3
*Paper_Space
  1

  0
ENDBLK
  5
1D
330
1B
100
AcDbEntity
 67
     1
  8
0
100
AcDbBlockEnd
  0
BLOCK
  5
24
330
23
100
AcDbEntity
  8
0
100
AcDbBlockBegin
  2
*Paper_Space0
 70
     0
 10
0.0
 20
0.0
 30
0.0
  3
*Paper_Space0
  1

  0
ENDBLK
  5
25
330
23
100
AcDbEntity
  8
0
100
AcDbBlockEnd
  0
BLOCK
  5
1CE
330
1CD
100
AcDbEntity
  8
0
100
AcDbBlockBegin
  2
SW_CENTERMARKSYMBOL_0
 70
     0
 10
0.0
 20
0.0
 30
0.0
  3
SW_CENTERMARKSYMBOL_0
  1

  0
LINE
  5
1D0
330
1CD
100
AcDbEntity
  8
FORMAT
 62
     0
100
AcDbLine
 10
0.0
 20
0.0
 30
0.0
 11
0.0
 21
2.5
 31
0.0
  0
LINE
  5
1D1
330
1CD
100
AcDbEntity
  8
FORMAT
 62
     0
100
AcDbLine
 10
0.0
 20
0.0
 30
0.0
 11
-2.5
 21
0.0
 31
0.0
  0
LINE
  5
1D2
330
1CD
100
AcDbEntity
  8
FORMAT
 62
     0
100
AcDbLine
 10
0.0
 20
0.0
 30
0.0
 11
0.0
 21
-2.5
 31
0.0
  0
LINE
  5
1D3
330
1CD
100
AcDbEntity
  8
FORMAT
 62
     0
100
AcDbLine
 10
0.0
 20
0.0
 30
0.0
 11
2.5
 21
0.0
 31
0.0
  0
LINE
  5
1D4
330
1CD
100
AcDbEntity
  8
FORMAT
 62
     0
100
AcDbLine
 10
0.0
 20
5.0
 30
0.0
 11
0.0
 21
30.0085394561
 31
0.0
  0
LINE
  5
1D5
330
1CD
100
AcDbEntity
  8
FORMAT
 62
     0
100
AcDbLine
 10
-5.0
 20
0.0
 30
0.0
 11
-10.75
 21
0.0
 31
0.0
  0
LINE
  5
1D6
330
1CD
100
AcDbEntity
  8
FORMAT
 62
     0
100
AcDbLine
 10
0.0
 20
-5.0
 30
0.0
 11
0.0
 21
-25.1657311102
 31
0.0
  0
LINE
  5
1D7
330
1CD
100
AcDbEntity
  8
FORMAT
 62
     0
100
AcDbLine
 10
5.0
 20
0.0
 30
0.0
 11
10.75
 21
0.0
 31
0.0
  0
ENDBLK
  5
1CF
330
1CD
100
AcDbEntity
  8
0
100
AcDbBlockEnd
  0
BLOCK
  5
273
330
272
100
AcDbEntity
  8
0
100
AcDbBlockBegin
  2
SW_CENTERMARKSYMBOL_1
 70
     0
 10
0.0
 20
0.0
 30
0.0
  3
SW_CENTERMARKSYMBOL_1
  1

  0
LINE
  5
275
330
272
100
AcDbEntity
  8
FORMAT
 62
     0
100
AcDbLine
 10
0.0
 20
0.0
 30
0.0
 11
0.0
 21
2.5
 31
0.0
  0
LINE
  5
276
330
272
100
AcDbEntity
  8
FORMAT
 62
     0
100
AcDbLine
 10
0.0
 20
0.0
 30
0.0
 11
-2.5
 21
0.0
 31
0.0
  0
LINE
  5
277
330
272
100
AcDbEntity
  8
FORMAT
 62
     0
100
AcDbLine
 10
0.0
 20
0.0
 30
0.0
 11
0.0
 21
-2.5
 31
0.0
  0
LINE
  5
278
330
272
100
AcDbEntity
  8
FORMAT
 62
     0
100
AcDbLine
 10
0.0
 20
0.0
 30
0.0
 11
2.5
 21
0.0
 31
0.0
  0
LINE
  5
279
330
272
100
AcDbEntity
  8
FORMAT
 62
     0
100
AcDbLine
 10
0.0
 20
5.0
 30
0.0
 11
0.0
 21
9.95
 31
0.0
  0
LINE
  5
27A
330
272
100
AcDbEntity
  8
FORMAT
 62
     0
100
AcDbLine
 10
-5.0
 20
0.0
 30
0.0
 11
-42.8873060723
 21
0.0
 31
0.0
  0
LINE
  5
27B
330
272
100
AcDbEntity
  8
FORMAT
 62
     0
100
AcDbLine
 10
0.0
 20
-5.0
 30
0.0
 11
0.0
 21
-9.95
 31
0.0
  0
LINE
  5
27C
330
272
100
AcDbEntity
  8
FORMAT
 62
     0
100
AcDbLine
 10
5.0
 20
0.0
 30
0.0
 11
13.8588810344
 21
0.0
 31
0.0
  0
ENDBLK
  5
274
330
272
100
AcDbEntity
  8
0
100
AcDbBlockEnd
  0
ENDSEC
  0
SECTION
  2
ENTITIES
  0
MTEXT
  5
65
330
1F
100
AcDbEntity
  8
FORMAT
100
AcDbMText
 10
119.0506399017
 20
91.3748994401
 30
0.0
 40
2.6458333333
 41
0.0
 71
     1
 72
     1
  1
エースボール　アングル型　BH-3310R
  7
SLDTEXTSTYLE0
 73
     1
 44
1.0
  0
LINE
  5
66
330
1F
100
AcDbEntity
  8
0
  6
Continuous
 62
     7
370
    25
100
AcDbLine
 10
104.3424286728
 20
58.4567134423
 30
0.0
 11
104.1424286728
 21
58.2567134423
 31
0.0
  0
LINE
  5
67
330
1F
100
AcDbEntity
  8
0
  6
Continuous
 62
     7
370
    25
100
AcDbLine
 10
104.1424286728
 20
42.6567134423
 30
0.0
 11
104.3424286728
 21
42.4567134423
 31
0.0
  0
LINE
  5
68
330
1F
100
AcDbEntity
  8
0
  6
Continuous
 62
     7
370
    25
100
AcDbLine
 10
107.1424286728
 20
58.4567134423
 30
0.0
 11
104.3424286728
 21
58.4567134423
 31
0.0
  0
LINE
  5
69
330
1F
100
AcDbEntity
  8
0
  6
Continuous
 62
     7
370
    25
100
AcDbLine
 10
104.3424286728
 20
42.4567134423
 30
0.0
 11
107.1424286728
 21
42.4567134423
 31
0.0
  0
LINE
  5
6A
330
1F
100
AcDbEntity
  8
0
  6
Continuous
 62
     7
370
    25
100
AcDbLine
 10
90.6424286728
 20
55.7067134423
 30
0.0
 11
86.1424286728
 21
54.9567134423
 31
0.0
  0
LINE
  5
6B
330
1F
100
AcDbEntity
  8
0
  6
Continuous
 62
     7
370
    25
100
AcDbLine
 10
86.1424286728
 20
45.9567134423
 30
0.0
 11
90.6424286728
 21
45.2067134423
 31
0.0
  0
LINE
  5
6C
330
1F
100
AcDbEntity
  8
0
  6
Continuous
 62
     7
370
    25
100
AcDbLine
 10
81.6424286728
 20
55.7067134423
 30
0.0
 11
77.6224286728
 21
55.0367134423
 31
0.0
  0
LINE
  5
6D
330
1F
100
AcDbEntity
  8
0
  6
Continuous
 62
     7
370
    25
100
AcDbLine
 10
77.6224286728
 20
45.8767134423
 30
0.0
 11
81.6424286728
 21
45.2067134423
 31
0.0
  0
LINE
  5
6E
330
1F
100
AcDbEntity
  8
0
  6
Continuous
 62
     7
370
    25
100
AcDbLine
 10
86.1424286728
 20
55.7067134423
 30
0.0
 11
81.6424286728
 21
54.9567134423
 31
0.0
  0
LINE
  5
6F
330
1F
100
AcDbEntity
  8
0
  6
Continuous
 62
     7
370
    25
100
AcDbLine
 10
81.6424286728
 20
45.9567134423
 30
0.0
 11
86.1424286728
 21
45.2067134423
 31
0.0
  0
LINE
  5
70
330
1F
100
AcDbEntity
  8
0
  6
Continuous
 62
     7
370
    25
100
AcDbLine
 10
104.1424286728
 20
55.7067134423
 30
0.0
 11
99.6424286728
 21
55.7067134423
 31
0.0
  0
LINE
  5
71
330
1F
100
AcDbEntity
  8
0
  6
Continuous
 62
     7
370
    25
100
AcDbLine
 10
99.6424286728
 20
45.2067134423
 30
0.0
 11
104.1424286728
 21
45.2067134423
 31
0.0
  0
LINE
  5
72
330
1F
100
AcDbEntity
  8
0
  6
Continuous
 62
     7
370
    25
100
AcDbLine
 10
95.1424286728
 20
55.7067134423
 30
0.0
 11
90.6424286728
 21
54.9567134423
 31
0.0
  0
LINE
  5
73
330
1F
100
AcDbEntity
  8
0
  6
Continuous
 62
     7
370
    25
100
AcDbLine
 10
90.6424286728
 20
45.9567134423
 30
0.0
 11
95.1424286728
 21
45.2067134423
 31
0.0
  0
LINE
  5
74
330
1F
100
AcDbEntity
  8
0
  6
Continuous
 62
     7
370
    25
100
AcDbLine
 10
99.6424286728
 20
55.7067134423
 30
0.0
 11
95.1424286728
 21
54.9567134423
 31
0.0
  0
LINE
  5
75
330
1F
100
AcDbEntity
  8
0
  6
Continuous
 62
     7
370
    25
100
AcDbLine
 10
95.1424286728
 20
45.9567134423
 30
0.0
 11
99.6424286728
 21
45.2067134423
 31
0.0
  0
LINE
  5
76
330
1F
100
AcDbEntity
  8
0
  6
Continuous
 62
     7
370
    25
100
AcDbLine
 10
77.6224286728
 20
55.0367134423
 30
0.0
 11
77.1424286728
 21
54.5567134423
 31
0.0
  0
LINE
  5
77
330
1F
100
AcDbEntity
  8
0
  6
Continuous
 62
     7
370
    25
100
AcDbLine
 10
77.1424286728
 20
46.3567134423
 30
0.0
 11
77.6224286728
 21
45.8767134423
 31
0.0
  0
LINE
  5
78
330
1F
100
AcDbEntity
  8
0
  6
Continuous
 62
     7
370
    25
100
AcDbLine
 10
129.7835599257
 20
40.7191091352
 30
0.0
 11
130.6424286728
 21
42.2067134423
 31
0.0
  0
LINE
  5
79
330
1F
100
AcDbEntity
  8
0
  6
Continuous
 62
     7
370
    25
100
AcDbLine
 10
130.6424286728
 20
58.7067134423
 30
0.0
 11
129.7835599257
 21
60.1943177493
 31
0.0
  0
LINE
  5
7A
330
1F
100
AcDbEntity
  8
0
  6
Continuous
 62
     7
370
    25
100
AcDbLine
 10
108.9048243658
 20
39.1758995086
 30
0.0
 11
110.1504911728
 21
38.4567134423
 31
0.0
  0
LINE
  5
7B
330
1F
100
AcDbEntity
  8
0
  6
Continuous
 62
     7
370
    25
100
AcDbLine
 10
127.1343661728
 20
38.4567134423
 30
0.0
 11
128.3800329799
 21
39.1758995086
 31
0.0
  0
LINE
  5
7C
330
1F
100
AcDbEntity
  8
0
  6
Continuous
 62
     7
370
    25
100
AcDbLine
 10
110.1504911728
 20
38.4567134423
 30
0.0
 11
110.445056503
 21
29.0306228759
 31
0.0
  0
LINE
  5
7D
330
1F
100
AcDbEntity
  8
0
  6
Continuous
 62
     7
370
    25
100
AcDbLine
 10
126.8398008426
 20
29.0306228759
 30
0.0
 11
127.1343661728
 21
38.4567134423
 31
0.0
  0
LINE
  5
7E
330
1F
100
AcDbEntity
  8
0
  6
Continuous
 62
     7
370
    25
100
AcDbLine
 10
110.445056503
 20
29.0306228759
 30
0.0
 11
111.6424286728
 21
26.9567134423
 31
0.0
  0
LINE
  5
7F
330
1F
100
AcDbEntity
  8
0
  6
Continuous
 62
     7
370
    25
100
AcDbLine
 10
125.6424286728
 20
26.9567134423
 30
0.0
 11
126.8398008426
 21
29.0306228759
 31
0.0
  0
SPLINE
  5
80
330
1F
100
AcDbEntity
  8
0
  6
Continuous
 62
     7
370
    25
100
AcDbSpline
210
0.0
220
0.0
230
1.0
 70
     8
 71
     3
 72
    12
 73
     8
 74
     0
 42
0.00000001
 43
0.00000001
 40
0.0
 40
0.0
 40
0.0
 40
0.0
 40
0.0264345322159502
 40
0.2768766196124239
 40
0.5348474756979654
 40
0.7962213943385898
 40
0.9999999999999999
 40
0.9999999999999999
 40
0.9999999999999999
 40
0.9999999999999999
 10
112.7545725692391
 20
59.95717038819794
 30
0.0
 10
112.7552368790724
 20
59.95027635056707
 30
0.0
 10
112.7621948936689
 20
59.87806785377494
 30
0.0
 10
112.7404325640159
 20
59.73712355204599
 30
0.0
 10
112.6822534935593
 20
59.54425822879264
 30
0.0
 10
112.5919715676385
 20
59.3746161812806
 30
0.0
 10
112.5080699129329
 20
59.28579923454908
 30
0.0
 10
112.4713134485146
 20
59.24688943052038
 30
0.0
  0
SPLINE
  5
81
330
1F
100
AcDbEntity
  8
0
  6
Continuous
 62
     7
370
    25
100
AcDbSpline
210
0.0
220
0.0
230
1.0
 70
     8
 71
     3
 72
    12
 73
     8
 74
     0
 42
0.00000001
 43
0.00000001
 40
0.0
 40
0.0
 40
0.0
 40
0.0
 40
0.0795002362549457
 40
0.3725756989704734
 40
0.6398853657976934
 40
0.8860294523897543
 40
1.0
 40
1.0
 40
1.0
 40
1.0
 10
124.8275665416192
 20
59.26227308546536
 30
0.0
 10
124.8125481551137
 20
59.27594155941445
 30
0.0
 10
124.7421648944684
 20
59.33999849151099
 30
0.0
 10
124.6544128647705
 20
59.48155804898561
 30
0.0
 10
124.576921006535
 20
59.67201327782271
 30
0.0
 10
124.5431117630164
 20
59.83061984795135
 30
0.0
 10
124.5449780801602
 20
59.92259071411826
 30
0.0
 10
124.5455687398189
 20
59.95169802880557
 30
0.0
  0
LINE
  5
82
330
1F
100
AcDbEntity
  8
0
  6
Continuous
 62
     7
370
    25
100
AcDbLine
 10
124.5424286728
 20
59.9521826222
 30
0.0
 11
124.5424286728
 21
60.9567134423
 31
0.0
  0
LINE
  5
83
330
1F
100
AcDbEntity
  8
0
  6
Continuous
 62
     7
370
    25
100
AcDbLine
 10
112.7424286728
 20
60.9567134423
 30
0.0
 11
112.7424286728
 21
59.9567134423
 31
0.0
  0
LINE
  5
84
330
1F
100
AcDbEntity
  8
0
  6
Continuous
 62
     7
370
    25
100
AcDbLine
 10
112.4722617655
 20
59.2514511715
 30
0.0
 11
111.927897493
 21
60.1943177493
 31
0.0
  0
LINE
  5
85
330
1F
100
AcDbEntity
  8
0
  6
Continuous
 62
     7
370
    25
100
AcDbLine
 10
107.8569598527
 20
60.1943177493
 30
0.0
 11
107.1424286728
 21
58.9567134423
 31
0.0
  0
LINE
  5
86
330
1F
100
AcDbEntity
  8
0
  6
Continuous
 62
     7
370
    25
100
AcDbLine
 10
125.3569598527
 20
60.1943177493
 30
0.0
 11
124.8125955802
 21
59.2514511715
 31
0.0
  0
LINE
  5
87
330
1F
100
AcDbEntity
  8
0
  6
Continuous
 62
     7
370
    25
100
AcDbLine
 10
107.1424286728
 20
41.9567134423
 30
0.0
 11
107.8569598527
 21
40.7191091352
 31
0.0
  0
LINE
  5
88
330
1F
100
AcDbEntity
  8
0
  6
Continuous
 62
     7
370
    25
100
AcDbLine
 10
128.3800329799
 20
39.1733391273
 30
0.0
 11
128.3800329799
 21
40.7191091352
 31
0.0
  0
LINE
  5
89
330
1F
100
AcDbEntity
  8
0
  6
Continuous
 62
     7
370
    25
100
AcDbLine
 10
128.3800329799
 20
40.7191091352
 30
0.0
 11
129.7861279812
 21
40.7191091352
 31
0.0
  0
LINE
  5
8A
330
1F
100
AcDbEntity
  8
0
  6
Continuous
 62
     7
370
    25
100
AcDbLine
 10
111.9304655485
 20
60.1943177493
 30
0.0
 11
107.8543994713
 21
60.1943177493
 31
0.0
  0
LINE
  5
8B
330
1F
100
AcDbEntity
  8
0
  6
Continuous
 62
     7
370
    25
100
AcDbLine
 10
129.7861279812
 20
60.1943177493
 30
0.0
 11
125.3543917972
 21
60.1943177493
 31
0.0
  0
LINE
  5
8C
330
1F
100
AcDbEntity
  8
0
  6
Continuous
 62
     7
370
    25
100
AcDbLine
 10
108.9048243658
 20
40.7191091352
 30
0.0
 11
108.9048243658
 21
39.1733391273
 31
0.0
  0
LINE
  5
8D
330
1F
100
AcDbEntity
  8
0
  6
Continuous
 62
     7
370
    25
100
AcDbLine
 10
107.8543994713
 20
40.7191091352
 30
0.0
 11
108.9048243658
 21
40.7191091352
 31
0.0
  0
LINE
  5
8E
330
1F
100
AcDbEntity
  8
0
  6
Continuous
 62
     7
370
    25
100
AcDbLine
 10
125.6424286728
 20
60.9567134423
 30
0.0
 11
126.0924286728
 21
68.9567134423
 31
0.0
  0
LINE
  5
8F
330
1F
100
AcDbEntity
  8
0
  6
Continuous
 62
     7
370
    25
100
AcDbLine
 10
126.0924286728
 20
68.9567134423
 30
0.0
 11
124.1424286728
 21
76.9567134422
 31
0.0
  0
LINE
  5
90
330
1F
100
AcDbEntity
  8
0
  6
Continuous
 62
     7
370
    25
100
AcDbLine
 10
111.5717720471
 20
62.2128312336
 30
0.0
 11
111.6424286728
 21
60.9567134423
 31
0.0
  0
LINE
  5
91
330
1F
100
AcDbEntity
  8
0
  6
Continuous
 62
     7
370
    25
100
AcDbLine
 10
113.1424286729
 20
76.9567134422
 30
0.0
 11
112.8891971383
 21
75.9178148391
 31
0.0
  0
LINE
  5
92
330
1F
100
AcDbEntity
  8
0
  6
Continuous
 62
     7
370
    25
100
AcDbLine
 10
104.3424286728
 20
58.4567134423
 30
0.0
 11
104.3424286728
 21
42.4567134423
 31
0.0
  0
LINE
  5
93
330
1F
100
AcDbEntity
  8
0
  6
Continuous
 62
     7
370
    25
100
AcDbLine
 10
104.1424286728
 20
42.6567134423
 30
0.0
 11
104.1424286728
 21
58.2567134423
 31
0.0
  0
LINE
  5
94
330
1F
100
AcDbEntity
  8
0
  6
Continuous
 62
     7
370
    25
100
AcDbLine
 10
90.6424286728
 20
55.7067134423
 30
0.0
 11
90.6424286728
 21
45.2067134423
 31
0.0
  0
LINE
  5
95
330
1F
100
AcDbEntity
  8
0
  6
Continuous
 62
     7
370
    25
100
AcDbLine
 10
77.6224286728
 20
55.0367134423
 30
0.0
 11
77.6224286728
 21
45.8767134423
 31
0.0
  0
LINE
  5
96
330
1F
100
AcDbEntity
  8
0
  6
Continuous
 62
     7
370
    25
100
AcDbLine
 10
81.6424286728
 20
55.7067134423
 30
0.0
 11
81.6424286728
 21
45.2067134423
 31
0.0
  0
LINE
  5
97
330
1F
100
AcDbEntity
  8
0
  6
Continuous
 62
     7
370
    25
100
AcDbLine
 10
86.1424286728
 20
55.7067134423
 30
0.0
 11
86.1424286728
 21
45.2067134423
 31
0.0
  0
LINE
  5
98
330
1F
100
AcDbEntity
  8
0
  6
Continuous
 62
     7
370
    25
100
AcDbLine
 10
99.6424286728
 20
55.7067134423
 30
0.0
 11
99.6424286728
 21
45.2067134423
 31
0.0
  0
LINE
  5
99
330
1F
100
AcDbEntity
  8
0
  6
Continuous
 62
     7
370
    25
100
AcDbLine
 10
95.1424286728
 20
55.7067134423
 30
0.0
 11
95.1424286728
 21
45.2067134423
 31
0.0
  0
LINE
  5
9A
330
1F
100
AcDbEntity
  8
0
  6
Continuous
 62
     7
370
    25
100
AcDbLine
 10
77.1424286728
 20
46.3567134423
 30
0.0
 11
77.1424286728
 21
54.5567134423
 31
0.0
  0
SPLINE
  5
9B
330
1F
100
AcDbEntity
  8
0
  6
Continuous
 62
     7
370
    25
100
AcDbSpline
210
0.0
220
0.0
230
1.0
 70
     8
 71
     3
 72
     8
 73
     4
 74
     0
 42
0.00000001
 43
0.00000001
 40
0.0
 40
0.0
 40
0.0
 40
0.0
 40
1.0
 40
1.0
 40
1.0
 40
1.0
 10
114.0236265193295
 20
42.49031690240132
 30
0.0
 10
114.2288123418727
 20
42.54687786952554
 30
0.0
 10
114.4350355425801
 20
42.60081794093937
 30
0.0
 10
114.6424286728465
 20
42.65180223068234
 30
0.0
  0
LINE
  5
9C
330
1F
100
AcDbEntity
  8
0
  6
Continuous
 62
     7
370
    25
100
AcDbLine
 10
114.6424286728
 20
42.6518022307
 30
0.0
 11
114.6424286728
 21
46.4567134423
 31
0.0
  0
LINE
  5
9D
330
1F
100
AcDbEntity
  8
0
  6
Continuous
 62
     7
370
    25
100
AcDbLine
 10
114.6424286728
 20
46.4567134423
 30
0.0
 11
112.1261925959
 21
46.4567134423
 31
0.0
  0
SPLINE
  5
9E
330
1F
100
AcDbEntity
  8
0
  6
Continuous
 62
     7
370
    25
100
AcDbSpline
210
0.0
220
0.0
230
1.0
 70
     8
 71
     3
 72
     8
 73
     4
 74
     0
 42
0.00000001
 43
0.00000001
 40
0.0
 40
0.0
 40
0.0
 40
0.0
 40
1.0
 40
1.0
 40
1.0
 40
1.0
 10
111.9647072675863
 20
45.83791128873928
 30
0.0
 10
112.0212706370545
 20
46.04310582624904
 30
0.0
 10
112.0752105598758
 20
46.2493294797662
 30
0.0
 10
112.1261925958673
 20
46.45671344225631
 30
0.0
  0
LINE
  5
9F
330
1F
100
AcDbEntity
  8
0
  6
Continuous
 62
     7
370
    25
100
AcDbLine
 10
107.8201500781
 20
45.8379112887
 30
0.0
 11
111.9647072676
 21
45.8379112887
 31
0.0
  0
SPLINE
  5
A0
330
1F
100
AcDbEntity
  8
0
  6
Continuous
 62
     7
370
    25
100
AcDbSpline
210
0.0
220
0.0
230
1.0
 70
     8
 71
     3
 72
    10
 73
     6
 74
     0
 42
0.00000001
 43
0.00000001
 40
0.0
 40
0.0
 40
0.0
 40
0.0
 40
0.5
 40
0.5
 40
1.0
 40
1.0
 40
1.0
 40
1.0
 10
107.8201500781067
 20
45.8379112887393
 30
0.0
 10
107.6120814018754
 20
46.59272056178859
 30
0.0
 10
107.4416823958509
 20
47.35346694902049
 30
0.0
 10
107.2065224161521
 20
48.89160932664375
 30
0.0
 10
107.1424286728465
 20
49.66911047916857
 30
0.0
 10
107.1424286728465
 20
50.45671344225632
 30
0.0
  0
SPLINE
  5
A1
330
1F
100
AcDbEntity
  8
0
  6
Continuous
 62
     7
370
    25
100
AcDbSpline
210
0.0
220
0.0
230
1.0
 70
     8
 71
     3
 72
    12
 73
     8
 74
     0
 42
0.00000001
 43
0.00000001
 40
0.0
 40
0.0
 40
0.0
 40
0.0
 40
0.2500000000000001
 40
0.2500000000000001
 40
0.5000000000000001
 40
0.5000000000000001
 40
1.0
 40
1.0
 40
1.0
 40
1.0
 10
107.1424286728465
 20
50.45671344225632
 30
0.0
 10
107.1424286728465
 20
50.85103152292816
 30
0.0
 10
107.1584274778276
 20
51.24469056687859
 30
0.0
 10
107.2201976161419
 20
52.02422656642393
 30
0.0
 10
107.2659397404435
 20
52.41117975454936
 30
0.0
 10
107.4426098877904
 20
53.56456631740335
 30
0.0
 10
107.6128649532707
 20
54.32354880660839
 30
0.0
 10
107.8201500781067
 20
55.07551559577333
 30
0.0
  0
LINE
  5
A2
330
1F
100
AcDbEntity
  8
0
  6
Continuous
 62
     7
370
    25
100
AcDbLine
 10
111.9647072676
 20
55.0755155958
 30
0.0
 11
107.8201500781
 21
55.0755155958
 31
0.0
  0
SPLINE
  5
A3
330
1F
100
AcDbEntity
  8
0
  6
Continuous
 62
     7
370
    25
100
AcDbSpline
210
0.0
220
0.0
230
1.0
 70
     8
 71
     3
 72
     8
 73
     4
 74
     0
 42
0.00000001
 43
0.00000001
 40
0.0
 40
0.0
 40
0.0
 40
0.0
 40
1.0
 40
1.0
 40
1.0
 40
1.0
 10
112.1261925958673
 20
54.45671344225632
 30
0.0
 10
112.0752938789448
 20
54.66375848068531
 30
0.0
 10
112.021359742694
 20
54.86999781036195
 30
0.0
 10
111.9647072675863
 20
55.07551559577333
 30
0.0
  0
SPLINE
  5
A4
330
1F
100
AcDbEntity
  8
0
  6
Continuous
 62
     7
370
    25
100
AcDbSpline
210
0.0
220
0.0
230
1.0
 70
     8
 71
     3
 72
     8
 73
     4
 74
     0
 42
0.00000001
 43
0.00000001
 40
0.0
 40
0.0
 40
0.0
 40
0.0
 40
1.0
 40
1.0
 40
1.0
 40
1.0
 10
125.1586647498257
 20
54.45671344225638
 30
0.0
 10
125.2095609830807
 20
54.66374837766014
 30
0.0
 10
125.2634949380444
 20
54.86998814272514
 30
0.0
 10
125.3201500781067
 20
55.07551559577333
 30
0.0
  0
LINE
  5
A5
330
1F
100
AcDbEntity
  8
0
  6
Continuous
 62
     7
370
    25
100
AcDbLine
 10
129.8203697003
 20
55.0755155958
 30
0.0
 11
125.3201500781
 21
55.0755155958
 31
0.0
  0
SPLINE
  5
A6
330
1F
100
AcDbEntity
  8
0
  6
Continuous
 62
     7
370
    25
100
AcDbSpline
210
0.0
220
0.0
230
1.0
 70
     8
 71
     3
 72
    14
 73
    10
 74
     0
 42
0.00000001
 43
0.00000001
 40
0.0
 40
0.0
 40
0.0
 40
0.0
 40
0.25
 40
0.25
 40
0.5
 40
0.5
 40
0.75
 40
0.75
 40
1.0
 40
1.0
 40
1.0
 40
1.0
 10
129.8203697002889
 20
45.83791128873926
 30
0.0
 10
130.0283200609946
 20
46.59229134938925
 30
0.0
 10
130.2005418696835
 20
47.36173251685474
 30
0.0
 10
130.4351769924344
 20
48.9022438777959
 30
0.0
 10
130.4981210510621
 20
49.67709825780292
 30
0.0
 10
130.4980611383307
 20
51.23745921268848
 30
0.0
 10
130.4334464720385
 20
52.02791540547351
 30
0.0
 10
130.1968871326373
 20
53.57019506828198
 30
0.0
 10
130.0265419925579
 20
54.32758582148316
 30
0.0
 10
129.8203697002889
 20
55.07551559577333
 30
0.0
  0
LINE
  5
A7
330
1F
100
AcDbEntity
  8
0
  6
Continuous
 62
     7
370
    25
100
AcDbLine
 10
125.3201500781
 20
45.8379112887
 30
0.0
 11
129.8203697003
 21
45.8379112887
 31
0.0
  0
SPLINE
  5
A8
330
1F
100
AcDbEntity
  8
0
  6
Continuous
 62
     7
370
    25
100
AcDbSpline
210
0.0
220
0.0
230
1.0
 70
     8
 71
     3
 72
     8
 73
     4
 74
     0
 42
0.00000001
 43
0.00000001
 40
0.0
 40
0.0
 40
0.0
 40
0.0
 40
1.0
 40
1.0
 40
1.0
 40
1.0
 10
125.3201500781066
 20
45.83791128873928
 30
0.0
 10
125.2635882346697
 20
46.0431002902761
 30
0.0
 10
125.2096482174133
 20
46.2493236563408
 30
0.0
 10
125.1586647498257
 20
46.45671344225626
 30
0.0
  0
LINE
  5
A9
330
1F
100
AcDbEntity
  8
0
  6
Continuous
 62
     7
370
    25
100
AcDbLine
 10
122.6424286728
 20
42.6518022307
 30
0.0
 11
122.6424286728
 21
46.4567134423
 31
0.0
  0
SPLINE
  5
AA
330
1F
100
AcDbEntity
  8
0
  6
Continuous
 62
     7
370
    25
100
AcDbSpline
210
0.0
220
0.0
230
1.0
 70
     8
 71
     3
 72
     8
 73
     4
 74
     0
 42
0.00000001
 43
0.00000001
 40
0.0
 40
0.0
 40
0.0
 40
0.0
 40
1.0
 40
1.0
 40
1.0
 40
1.0
 10
122.6424286728465
 20
42.65180223068233
 30
0.0
 10
122.8494577361819
 20
42.60090744098151
 30
0.0
 10
123.0556977534512
 20
42.54697359162007
 30
0.0
 10
123.2612308263635
 20
42.49031690240131
 30
0.0
  0
LINE
  5
AB
330
1F
100
AcDbEntity
  8
0
  6
Continuous
 62
     7
370
    25
100
AcDbLine
 10
123.2612308264
 20
39.1390897341
 30
0.0
 11
123.2612308264
 21
42.4903169024
 31
0.0
  0
SPLINE
  5
AC
330
1F
100
AcDbEntity
  8
0
  6
Continuous
 62
     7
370
    25
100
AcDbSpline
210
0.0
220
0.0
230
1.0
 70
     8
 71
     3
 72
    14
 73
    10
 74
     0
 42
0.00000001
 43
0.00000001
 40
0.0
 40
0.0
 40
0.0
 40
0.0
 40
0.4999999999999999
 40
0.4999999999999999
 40
0.6249999999999999
 40
0.6249999999999999
 40
0.7499999999999998
 40
0.7499999999999998
 40
1.0
 40
1.0
 40
1.0
 40
1.0
 10
114.0236265193295
 20
39.13908973406185
 30
0.0
 10
115.52194944393
 20
38.72606610197385
 30
0.0
 10
117.0498494972772
 20
38.46276215497228
 30
0.0
 10
119.0244014090086
 20
38.46102697802256
 30
0.0
 10
119.4212683050356
 20
38.47683429829876
 30
0.0
 10
120.2044243845702
 20
38.53851240323037
 30
0.0
 10
120.5927948009275
 20
38.584322402227
 30
0.0
 10
121.7494372293699
 20
38.76127894102549
 30
0.0
 10
122.5092715607628
 20
38.93180668315116
 30
0.0
 10
123.2612308263635
 20
39.13908973406185
 30
0.0
  0
LINE
  5
AD
330
1F
100
AcDbEntity
  8
0
  6
Continuous
 62
     7
370
    25
100
AcDbLine
 10
114.0236265193
 20
42.4903169024
 30
0.0
 11
114.0236265193
 21
39.1390897341
 31
0.0
  0
LINE
  5
AE
330
1F
100
AcDbEntity
  8
0
  6
Continuous
 62
     7
370
    25
100
AcDbLine
 10
117.7406697589
 20
49.0343404247
 30
0.0
 11
117.6990194396
 21
49.0105354948
 31
0.0
  0
ELLIPSE
  5
AF
330
1F
100
AcDbEntity
  8
0
  6
Continuous
 62
     7
370
    25
100
AcDbEllipse
 10
117.3501762601
 20
49.565217966
 30
0.0
 11
0.678412947925267
 21
6.110667527536863E-13
 31
0.0
210
0.0
220
0.0
230
1.0
 40
0.9533039403
 41
3.470145824140268
 42
5.252469180536287
  0
LINE
  5
B0
330
1F
100
AcDbEntity
  8
0
  6
Continuous
 62
     7
370
    25
100
AcDbLine
 10
116.708051493
 20
49.3565338511
 30
0.0
 11
115.4483972881
 21
52.8789782477
 31
0.0
  0
ELLIPSE
  5
B1
330
1F
100
AcDbEntity
  8
0
  6
Continuous
 62
     7
370
    25
100
AcDbEllipse
 10
114.8574147302
 20
52.6166390117
 30
0.0
 11
0.6519124952381503
 21
6.110667527536862E-13
 31
0.0
210
0.0
220
0.0
230
1.0
 40
0.9533023292
 41
0.4357905044354821
 42
2.705800116361509
  0
LINE
  5
B2
330
1F
100
AcDbEntity
  8
0
  6
Continuous
 62
     7
370
    25
100
AcDbLine
 10
114.2664327317
 20
52.878979393
 30
0.0
 11
113.00706793
 21
49.3573559912
 31
0.0
  0
ELLIPSE
  5
B3
330
1F
100
AcDbEntity
  8
0
  6
Continuous
 62
     7
370
    25
100
AcDbEllipse
 10
112.364946746
 20
49.5660388249
 30
0.0
 11
-0.6784085062757867
 21
3.268496584496461E-13
 31
0.0
210
0.0
220
0.0
230
1.0
 40
0.9533122623
 41
1.047193771187948
 42
2.813042320199934
  0
LINE
  5
B4
330
1F
100
AcDbEntity
  8
0
  6
Continuous
 62
     7
370
    25
100
AcDbLine
 10
112.025740272
 20
49.0059509797
 30
0.0
 11
111.9741597015
 21
49.0343404247
 31
0.0
  0
LINE
  5
B5
330
1F
100
AcDbEntity
  8
0
  6
Continuous
 62
     7
370
    25
100
AcDbLine
 10
111.9741597015
 20
49.0343404247
 30
0.0
 11
112.770428361
 21
47.5161683232
 31
0.0
  0
ELLIPSE
  5
B6
330
1F
100
AcDbEntity
  8
0
  6
Continuous
 62
     7
370
    25
100
AcDbEllipse
 10
112.8462772345
 20
47.5523218382
 30
0.0
 11
0.08480161849064416
 21
-2.131628207280301E-14
 31
0.0
210
0.0
220
0.0
230
1.0
 40
0.9533039403
 41
3.605240262590644
 42
5.462183310215379
  0
ELLIPSE
  5
B7
330
1F
100
AcDbEntity
  8
0
  6
Continuous
 62
     7
370
    25
100
AcDbEllipse
 10
114.8574147302
 20
45.4934732177
 30
0.0
 11
2.866293551216202
 21
-1.492139745096210E-12
 31
0.0
210
0.0
220
0.0
230
1.0
 40
0.9533046568
 41
0.821001622124378
 42
2.32059103146644
  0
ELLIPSE
  5
B8
330
1F
100
AcDbEntity
  8
0
  6
Continuous
 62
     7
370
    25
100
AcDbEllipse
 10
116.8685522259
 20
47.5523218382
 30
0.0
 11
0.08480161849060153
 21
-7.105427357601002E-15
 31
0.0
210
0.0
220
0.0
230
1.0
 40
0.9533039403
 41
3.962594650556508
 42
5.819537698177291
  0
LINE
  5
B9
330
1F
100
AcDbEntity
  8
0
  6
Continuous
 62
     7
370
    25
100
AcDbLine
 10
116.9444010993
 20
47.5161683232
 30
0.0
 11
117.7406697589
 21
49.0343404247
 31
0.0
  0
ARC
  5
BA
330
1F
100
AcDbEntity
  8
0
  6
Continuous
 62
     7
370
    25
100
AcDbCircle
 10
123.5353046249
 20
49.8797944489
 30
0.0
 40
0.8889999999999868
100
AcDbArc
 50
45.0
 51
159.0751675724
  0
LINE
  5
BB
330
1F
100
AcDbEntity
  8
0
  6
Continuous
 62
     7
370
    25
100
AcDbLine
 10
124.1639225534
 20
50.5084123774
 30
0.0
 11
124.630532939
 21
50.975022763
 31
0.0
  0
ARC
  5
BC
330
1F
100
AcDbEntity
  8
0
  6
Continuous
 62
     7
370
    25
100
AcDbCircle
 10
123.5353046249
 20
49.8797944489
 30
0.0
 40
1.548886735692379
100
AcDbArc
 50
45.0
 51
315.0
  0
LINE
  5
BD
330
1F
100
AcDbEntity
  8
0
  6
Continuous
 62
     7
370
    25
100
AcDbLine
 10
124.630532939
 20
48.7845661348
 30
0.0
 11
124.1639225534
 21
49.2511765205
 31
0.0
  0
ARC
  5
BE
330
1F
100
AcDbEntity
  8
0
  6
Continuous
 62
     7
370
    25
100
AcDbCircle
 10
123.5353046249
 20
49.8797944489
 30
0.0
 40
0.8890000000000007
100
AcDbArc
 50
200.9248324276
 51
315.0
  0
LINE
  5
BF
330
1F
100
AcDbEntity
  8
0
  6
Continuous
 62
     7
370
    25
100
AcDbLine
 10
122.7049343762
 20
49.5622944489
 30
0.0
 11
124.630532939
 21
49.5622944489
 31
0.0
  0
LINE
  5
C0
330
1F
100
AcDbEntity
  8
0
  6
Continuous
 62
     7
370
    25
100
AcDbLine
 10
124.630532939
 20
49.5622944489
 30
0.0
 11
124.630532939
 21
50.1972944489
 31
0.0
  0
LINE
  5
C1
330
1F
100
AcDbEntity
  8
0
  6
Continuous
 62
     7
370
    25
100
AcDbLine
 10
124.630532939
 20
50.1972944489
 30
0.0
 11
122.7049343762
 21
50.1972944489
 31
0.0
  0
ARC
  5
C2
330
1F
100
AcDbEntity
  8
0
  6
Continuous
 62
     7
370
    25
100
AcDbCircle
 10
120.1931600286
 20
49.8797944489
 30
0.0
 40
0.8889999999999919
100
AcDbArc
 50
45.0
 51
315.0
  0
LINE
  5
C3
330
1F
100
AcDbEntity
  8
0
  6
Continuous
 62
     7
370
    25
100
AcDbLine
 10
120.821777957
 20
50.5084123774
 30
0.0
 11
121.2883883427
 21
50.975022763
 31
0.0
  0
ARC
  5
C4
330
1F
100
AcDbEntity
  8
0
  6
Continuous
 62
     7
370
    25
100
AcDbCircle
 10
120.1931600286
 20
49.8797944489
 30
0.0
 40
1.548886735692394
100
AcDbArc
 50
45.0
 51
315.0
  0
LINE
  5
C5
330
1F
100
AcDbEntity
  8
0
  6
Continuous
 62
     7
370
    25
100
AcDbLine
 10
121.2883883427
 20
48.7845661348
 30
0.0
 11
120.821777957
 21
49.2511765205
 31
0.0
  0
LINE
  5
C6
330
1F
100
AcDbEntity
  8
0
  6
Continuous
 62
     7
370
    25
100
AcDbLine
 10
125.1586647498
 20
46.4567134423
 30
0.0
 11
122.6424286728
 21
46.4567134423
 31
0.0
  0
LINE
  5
C7
330
1F
100
AcDbEntity
  8
0
  6
Continuous
 62
     7
370
    25
100
AcDbLine
 10
125.1586647498
 20
54.4567134423
 30
0.0
 11
112.1261925959
 21
54.4567134423
 31
0.0
  0
LINE
  5
C8
330
1F
100
AcDbEntity
  8
0
  6
Continuous
 62
     7
370
    25
100
AcDbLine
 10
112.6424286728
 20
57.8179293744
 30
0.0
 11
112.6424286728
 21
54.4567134423
 31
0.0
  0
SPLINE
  5
C9
330
1F
100
AcDbEntity
  8
0
  6
Continuous
 62
     7
370
    25
100
AcDbSpline
210
0.0
220
0.0
230
1.0
 70
     8
 71
     3
 72
    10
 73
     6
 74
     0
 42
0.00000001
 43
0.00000001
 40
0.0
 40
0.0
 40
0.0
 40
0.0
 40
0.5
 40
0.5
 40
1.0
 40
1.0
 40
1.0
 40
1.0
 10
111.9647072675863
 20
55.50852829766555
 30
0.0
 10
111.9410318731619
 20
55.46558476676432
 30
0.0
 10
111.9279407632773
 20
55.40214232214019
 30
0.0
 10
111.927854441989
 20
55.24966348502122
 30
0.0
 10
111.9410233759328
 20
55.16143348291396
 30
0.0
 10
111.9647072675863
 20
55.07551559577333
 30
0.0
  0
SPLINE
  5
CA
330
1F
100
AcDbEntity
  8
0
  6
Continuous
 62
     7
370
    25
100
AcDbSpline
210
0.0
220
0.0
230
1.0
 70
     8
 71
     3
 72
    12
 73
     8
 74
     0
 42
0.00000001
 43
0.00000001
 40
0.0
 40
0.0
 40
0.0
 40
0.0
 40
0.2500000000000001
 40
0.2500000000000001
 40
0.5000000000000002
 40
0.5000000000000002
 40
1.0
 40
1.0
 40
1.0
 40
1.0
 10
112.6424286728465
 20
57.81792937442405
 30
0.0
 10
112.6424286728465
 20
57.62218711154453
 30
0.0
 10
112.6265857367575
 20
57.42552050235397
 30
0.0
 10
112.5650828765199
 20
57.03625227502569
 30
0.0
 10
112.5194792354762
 20
56.84284824207278
 30
0.0
 10
112.3430282179869
 20
56.26591919081601
 30
0.0
 10
112.1726308507351
 20
55.88566975761301
 30
0.0
 10
111.9647072675863
 20
55.50852829766555
 30
0.0
  0
LINE
  5
CB
330
1F
100
AcDbEntity
  8
0
  6
Continuous
 62
     7
370
    25
100
AcDbLine
 10
107.1424286728
 20
50.4567134423
 30
0.0
 11
107.1424286728
 21
57.8179293744
 31
0.0
  0
SPLINE
  5
CC
330
1F
100
AcDbEntity
  8
0
  6
Continuous
 62
     7
370
    25
100
AcDbSpline
210
0.0
220
0.0
230
1.0
 70
     8
 71
     3
 72
    10
 73
     6
 74
     0
 42
0.00000001
 43
0.00000001
 40
0.0
 40
0.0
 40
0.0
 40
0.0
 40
0.5
 40
0.5
 40
1.0
 40
1.0
 40
1.0
 40
1.0
 10
107.8201500781062
 20
55.50852829766551
 30
0.0
 10
107.6113401534399
 20
55.8872774450568
 30
0.0
 10
107.4408060136927
 20
56.2684827214681
 30
0.0
 10
107.2060202086738
 20
57.03771334265588
 30
0.0
 10
107.1424286728465
 20
57.42578104745421
 30
0.0
 10
107.1424286728465
 20
57.81792937442405
 30
0.0
  0
SPLINE
  5
CD
330
1F
100
AcDbEntity
  8
0
  6
Continuous
 62
     7
370
    25
100
AcDbSpline
210
0.0
220
0.0
230
1.0
 70
     8
 71
     3
 72
    10
 73
     6
 74
     0
 42
0.00000001
 43
0.00000001
 40
0.0
 40
0.0
 40
0.0
 40
0.0
 40
0.5
 40
0.5
 40
1.0
 40
1.0
 40
1.0
 40
1.0
 10
107.8201500781067
 20
55.50852829766555
 30
0.0
 10
107.8438223180182
 20
55.46559048856631
 30
0.0
 10
107.8569163079535
 20
55.4021498986741
 30
0.0
 10
107.8570031754149
 20
55.24966075316527
 30
0.0
 10
107.8438333856556
 20
55.16143136396195
 30
0.0
 10
107.8201500781067
 20
55.07551559577333
 30
0.0
  0
LINE
  5
CE
330
1F
100
AcDbEntity
  8
0
  6
Continuous
 62
     7
370
    25
100
AcDbLine
 10
113.5906138174
 20
39.1390897341
 30
0.0
 11
113.5906138174
 21
42.4903169024
 31
0.0
  0
SPLINE
  5
CF
330
1F
100
AcDbEntity
  8
0
  6
Continuous
 62
     7
370
    25
100
AcDbSpline
210
0.0
220
0.0
230
1.0
 70
     8
 71
     3
 72
    10
 73
     6
 74
     0
 42
0.00000001
 43
0.00000001
 40
0.0
 40
0.0
 40
0.0
 40
0.0
 40
0.5
 40
0.5
 40
1.0
 40
1.0
 40
1.0
 40
1.0
 10
113.5906138174372
 20
42.49031690240131
 30
0.0
 10
113.6335573483385
 20
42.46664150797692
 30
0.0
 10
113.6969997929626
 20
42.45355039809229
 30
0.0
 10
113.8494786300816
 20
42.453464076804
 30
0.0
 10
113.9377086321888
 20
42.46663301074784
 30
0.0
 10
114.0236265193295
 20
42.4903169024013
 30
0.0
  0
SPLINE
  5
D0
330
1F
100
AcDbEntity
  8
0
  6
Continuous
 62
     7
370
    25
100
AcDbSpline
210
0.0
220
0.0
230
1.0
 70
     8
 71
     3
 72
    10
 73
     6
 74
     0
 42
0.00000001
 43
0.00000001
 40
0.0
 40
0.0
 40
0.0
 40
0.0
 40
0.5
 40
0.5
 40
1.0
 40
1.0
 40
1.0
 40
1.0
 10
114.0236265193295
 20
39.13908973406185
 30
0.0
 10
113.937744876823
 20
39.1627636346178
 30
0.0
 10
113.8503356708576
 20
39.17585619179694
 30
0.0
 10
113.6976931857827
 20
39.17594260577922
 30
0.0
 10
113.6335702007003
 20
39.16277221418059
 30
0.0
 10
113.5906138174372
 20
39.13908973406185
 30
0.0
  0
LINE
  5
D1
330
1F
100
AcDbEntity
  8
0
  6
Continuous
 62
     7
370
    25
100
AcDbLine
 10
124.6424286728
 20
57.8179293744
 30
0.0
 11
124.6424286728
 21
54.4567134423
 31
0.0
  0
SPLINE
  5
D2
330
1F
100
AcDbEntity
  8
0
  6
Continuous
 62
     7
370
    25
100
AcDbSpline
210
0.0
220
0.0
230
1.0
 70
     8
 71
     3
 72
    10
 73
     6
 74
     0
 42
0.00000001
 43
0.00000001
 40
0.0
 40
0.0
 40
0.0
 40
0.0
 40
0.5
 40
0.5
 40
1.0
 40
1.0
 40
1.0
 40
1.0
 10
125.3201500781067
 20
55.50852829766552
 30
0.0
 10
125.1117293252892
 20
55.88657154706768
 30
0.0
 10
124.9412654900118
 20
56.26734105186353
 30
0.0
 10
124.7062830550734
 20
57.03648957742107
 30
0.0
 10
124.6424286728465
 20
57.42491630559632
 30
0.0
 10
124.6424286728465
 20
57.81792937442405
 30
0.0
  0
SPLINE
  5
D3
330
1F
100
AcDbEntity
  8
0
  6
Continuous
 62
     7
370
    25
100
AcDbSpline
210
0.0
220
0.0
230
1.0
 70
     8
 71
     3
 72
    10
 73
     6
 74
     0
 42
0.00000001
 43
0.00000001
 40
0.0
 40
0.0
 40
0.0
 40
0.0
 40
0.5
 40
0.5
 40
1.0
 40
1.0
 40
1.0
 40
1.0
 10
125.3201500781067
 20
55.07551559577333
 30
0.0
 10
125.3438254725311
 20
55.16140265757578
 30
0.0
 10
125.3569165824157
 20
55.24880986655589
 30
0.0
 10
125.357002903704
 20
55.40144630914961
 30
0.0
 10
125.3438339697602
 20
55.46556935409519
 30
0.0
 10
125.3201500781067
 20
55.50852829766551
 30
0.0
  0
SPLINE
  5
D4
330
1F
100
AcDbEntity
  8
0
  6
Continuous
 62
     7
370
    25
100
AcDbSpline
210
0.0
220
0.0
230
1.0
 70
     8
 71
     3
 72
    10
 73
     6
 74
     0
 42
0.00000001
 43
0.00000001
 40
0.0
 40
0.0
 40
0.0
 40
0.0
 40
0.5
 40
0.5
 40
1.0
 40
1.0
 40
1.0
 40
1.0
 10
129.8203697002888
 20
45.83791128873931
 30
0.0
 10
129.7966943058644
 20
45.75202422693685
 30
0.0
 10
129.7836031959799
 20
45.66461701795671
 30
0.0
 10
129.7835168746916
 20
45.51198057536298
 30
0.0
 10
129.7966858086354
 20
45.4478575304174
 30
0.0
 10
129.8203697002889
 20
45.40489858684709
 30
0.0
  0
SPLINE
  5
D5
330
1F
100
AcDbEntity
  8
0
  6
Continuous
 62
     7
370
    25
100
AcDbSpline
210
0.0
220
0.0
230
1.0
 70
     8
 71
     3
 72
    10
 73
     6
 74
     0
 42
0.00000001
 43
0.00000001
 40
0.0
 40
0.0
 40
0.0
 40
0.0
 40
0.5
 40
0.5
 40
1.0
 40
1.0
 40
1.0
 40
1.0
 10
129.8203697002889
 20
55.50852829766555
 30
0.0
 10
129.7966943058645
 20
55.46558476676432
 30
0.0
 10
129.7836031959799
 20
55.40214232214019
 30
0.0
 10
129.7835168746916
 20
55.24966348502122
 30
0.0
 10
129.7966858086354
 20
55.16143348291395
 30
0.0
 10
129.8203697002889
 20
55.07551559577333
 30
0.0
  0
SPLINE
  5
D6
330
1F
100
AcDbEntity
  8
0
  6
Continuous
 62
     7
370
    25
100
AcDbSpline
210
0.0
220
0.0
230
1.0
 70
     8
 71
     3
 72
    16
 73
    12
 74
     0
 42
0.00000001
 43
0.00000001
 40
0.0
 40
0.0
 40
0.0
 40
0.0
 40
0.2500000000000001
 40
0.2500000000000001
 40
0.5000000000000001
 40
0.5000000000000001
 40
0.6250000000000001
 40
0.6250000000000001
 40
0.7500000000000002
 40
0.7500000000000002
 40
1.0
 40
1.0
 40
1.0
 40
1.0
 10
129.8203697002889
 20
60.12733045118255
 30
0.0
 10
130.0283851483946
 20
59.75002236230605
 30
0.0
 10
130.1985914533676
 20
59.36999863193186
 30
0.0
 10
130.4335274849352
 20
58.60237531652115
 30
0.0
 10
130.4975996165988
 20
58.21472849973236
 30
0.0
 10
130.4983325655199
 20
57.62640794784451
 30
0.0
 10
130.4826730854369
 20
57.42933475528886
 30
0.0
 10
130.4213979587999
 20
57.03927777773477
 30
0.0
 10
130.3758416863008
 20
56.84548487714672
 30
0.0
 10
130.1993556535445
 20
56.2674038923833
 30
0.0
 10
130.0286992000588
 20
55.88640602804848
 30
0.0
 10
129.8203697002889
 20
55.50852829766555
 30
0.0
  0
SPLINE
  5
D7
330
1F
100
AcDbEntity
  8
0
  6
Continuous
 62
     7
370
    25
100
AcDbSpline
210
0.0
220
0.0
230
1.0
 70
     8
 71
     3
 72
    10
 73
     6
 74
     0
 42
0.00000001
 43
0.00000001
 40
0.0
 40
0.0
 40
0.0
 40
0.0
 40
0.1601790552921226
 40
0.7197651707803578
 40
1.0
 40
1.0
 40
1.0
 40
1.0
 10
129.786140267172
 20
60.1896087299323
 30
0.0
 10
129.7853774770787
 20
60.19100095795866
 30
0.0
 10
129.781949877005
 20
60.19725693968699
 30
0.0
 10
129.7964573418033
 20
60.17074967495908
 30
0.0
 10
129.8143868949211
 20
60.13819381981392
 30
0.0
 10
129.8203697002889
 20
60.12733045118255
 30
0.0
  0
SPLINE
  5
D8
330
1F
100
AcDbEntity
  8
0
  6
Continuous
 62
     7
370
    25
100
AcDbSpline
210
0.0
220
0.0
230
1.0
 70
     8
 71
     3
 72
     9
 73
     5
 74
     0
 42
0.00000001
 43
0.00000001
 40
0.0
 40
0.0
 40
0.0
 40
0.0
 40
0.5797912171256352
 40
1.0
 40
1.0
 40
1.0
 40
1.0
 10
129.8203697002889
 20
40.78609643333008
 30
0.0
 10
129.8080110969424
 20
40.76362278508895
 30
0.0
 10
129.786695487148
 20
40.72486116266813
 30
0.0
 10
129.7863045446452
 20
40.72412675790992
 30
0.0
 10
129.786140267172
 20
40.72381815458034
 30
0.0
  0
SPLINE
  5
D9
330
1F
100
AcDbEntity
  8
0
  6
Continuous
 62
     7
370
    25
100
AcDbSpline
210
0.0
220
0.0
230
1.0
 70
     8
 71
     3
 72
    16
 73
    12
 74
     0
 42
0.00000001
 43
0.00000001
 40
0.0
 40
0.0
 40
0.0
 40
0.0
 40
0.2500000000000001
 40
0.2500000000000001
 40
0.5000000000000002
 40
0.5000000000000002
 40
0.6250000000000001
 40
0.6250000000000001
 40
0.7500000000000001
 40
0.7500000000000001
 40
1.0
 40
1.0
 40
1.0
 40
1.0
 10
129.8203697002889
 20
45.40489858684709
 30
0.0
 10
130.0283851483946
 20
45.02759049797059
 30
0.0
 10
130.1985914533676
 20
44.64756676759639
 30
0.0
 10
130.4335274849352
 20
43.8799434521857
 30
0.0
 10
130.4975996165988
 20
43.4922966353969
 30
0.0
 10
130.4983325655199
 20
42.90397608350905
 30
0.0
 10
130.4826730854369
 20
42.7069028909534
 30
0.0
 10
130.4213979587999
 20
42.3168459133993
 30
0.0
 10
130.3758416863008
 20
42.12305301281127
 30
0.0
 10
130.1993556535445
 20
41.54497202804784
 30
0.0
 10
130.0286992000588
 20
41.16397416371301
 30
0.0
 10
129.8203697002889
 20
40.78609643333008
 30
0.0
  0
LINE
  5
DA
330
1F
100
AcDbEntity
  8
0
  6
Continuous
 62
     7
370
    25
100
AcDbLine
 10
130.6424286728
 20
58.7067134423
 30
0.0
 11
130.6424286728
 21
42.2067134423
 31
0.0
  0
LINE
  5
DB
330
1F
100
AcDbEntity
  8
0
  6
Continuous
 62
     7
370
    25
100
AcDbLine
 10
112.6424286728
 20
46.4567134423
 30
0.0
 11
112.6424286728
 21
44.4567134423
 31
0.0
  0
SPLINE
  5
DC
330
1F
100
AcDbEntity
  8
0
  6
Continuous
 62
     7
370
    25
100
AcDbSpline
210
0.0
220
0.0
230
1.0
 70
     8
 71
     3
 72
     8
 73
     4
 74
     0
 42
0.00000001
 43
0.00000001
 40
0.0
 40
0.0
 40
0.0
 40
0.0
 40
1.0
 40
1.0
 40
1.0
 40
1.0
 10
112.6424286728465
 20
44.45671344225631
 30
0.0
 10
112.6026500146563
 20
44.31932835325621
 30
0.0
 10
112.5621610518281
 20
44.18262427144444
 30
0.0
 10
112.5210451813503
 20
44.04659190893106
 30
0.0
  0
SPLINE
  5
DD
330
1F
100
AcDbEntity
  8
0
  6
Continuous
 62
     7
370
    25
100
AcDbSpline
210
0.0
220
0.0
230
1.0
 70
     8
 71
     3
 72
     8
 73
     4
 74
     0
 42
0.00000001
 43
0.00000001
 40
0.0
 40
0.0
 40
0.0
 40
0.0
 40
1.0
 40
1.0
 40
1.0
 40
1.0
 10
111.9647072675863
 20
45.40489858684709
 30
0.0
 10
112.2118810484702
 20
44.95656329379576
 30
0.0
 10
112.4056027167742
 20
44.50438880305217
 30
0.0
 10
112.5210451813503
 20
44.04659190893106
 30
0.0
  0
SPLINE
  5
DE
330
1F
100
AcDbEntity
  8
0
  6
Continuous
 62
     7
370
    25
100
AcDbSpline
210
0.0
220
0.0
230
1.0
 70
     8
 71
     3
 72
    10
 73
     6
 74
     0
 42
0.00000001
 43
0.00000001
 40
0.0
 40
0.0
 40
0.0
 40
0.0
 40
0.5
 40
0.5
 40
1.0
 40
1.0
 40
1.0
 40
1.0
 10
111.9647072675862
 20
45.83791128873931
 30
0.0
 10
111.9410318731618
 20
45.75202422693685
 30
0.0
 10
111.9279407632772
 20
45.66461701795672
 30
0.0
 10
111.927854441989
 20
45.51198057536298
 30
0.0
 10
111.9410233759328
 20
45.4478575304174
 30
0.0
 10
111.9647072675863
 20
45.40489858684709
 30
0.0
  0
LINE
  5
DF
330
1F
100
AcDbEntity
  8
0
  6
Continuous
 62
     7
370
    25
100
AcDbLine
 10
107.1424286728
 20
50.4567134423
 30
0.0
 11
107.1424286728
 21
43.0954975101
 31
0.0
  0
SPLINE
  5
E0
330
1F
100
AcDbEntity
  8
0
  6
Continuous
 62
     7
370
    25
100
AcDbSpline
210
0.0
220
0.0
230
1.0
 70
     8
 71
     3
 72
    10
 73
     6
 74
     0
 42
0.00000001
 43
0.00000001
 40
0.0
 40
0.0
 40
0.0
 40
0.0
 40
0.5
 40
0.5
 40
1.0
 40
1.0
 40
1.0
 40
1.0
 10
107.8201500781067
 20
45.8379112887393
 30
0.0
 10
107.8438239786626
 20
45.75202964623284
 30
0.0
 10
107.8569165358418
 20
45.66462044026741
 30
0.0
 10
107.857002949824
 20
45.51197795519249
 30
0.0
 10
107.8438325582254
 20
45.44785497011011
 30
0.0
 10
107.8201500781067
 20
45.40489858684709
 30
0.0
  0
SPLINE
  5
E1
330
1F
100
AcDbEntity
  8
0
  6
Continuous
 62
     7
370
    25
100
AcDbSpline
210
0.0
220
0.0
230
1.0
 70
     8
 71
     3
 72
    12
 73
     8
 74
     0
 42
0.00000001
 43
0.00000001
 40
0.0
 40
0.0
 40
0.0
 40
0.0
 40
0.2499999999999999
 40
0.2499999999999999
 40
0.4999999999999998
 40
0.4999999999999998
 40
1.0
 40
1.0
 40
1.0
 40
1.0
 10
107.1424286728465
 20
43.09549751008858
 30
0.0
 10
107.1424286728465
 20
43.29050099009438
 30
0.0
 10
107.1581750028684
 20
43.48703564911879
 30
0.0
 10
107.2196200274539
 20
43.87645533672434
 30
0.0
 10
107.2652087867076
 20
44.0699400297846
 30
0.0
 10
107.4416597889642
 20
44.6471236285402
 30
0.0
 10
107.6121174909277
 20
45.02755941032316
 30
0.0
 10
107.8201500781065
 20
45.4048985868471
 30
0.0
  0
LINE
  5
E2
330
1F
100
AcDbEntity
  8
0
  6
Continuous
 62
     7
370
    25
100
AcDbLine
 10
107.8201500781
 20
55.5085282977
 30
0.0
 11
111.9647072676
 21
55.5085282977
 31
0.0
  0
SPLINE
  5
E3
330
1F
100
AcDbEntity
  8
0
  6
Continuous
 62
     7
370
    25
100
AcDbSpline
210
0.0
220
0.0
230
1.0
 70
     8
 71
     3
 72
    10
 73
     6
 74
     0
 42
0.00000001
 43
0.00000001
 40
0.0
 40
0.0
 40
0.0
 40
0.0
 40
0.5
 40
0.5
 40
1.0
 40
1.0
 40
1.0
 40
1.0
 10
123.2612308263635
 20
42.49031690240129
 30
0.0
 10
123.347117888166
 20
42.46664150797688
 30
0.0
 10
123.4345250971462
 20
42.45355039809225
 30
0.0
 10
123.5871615397401
 20
42.45346407680403
 30
0.0
 10
123.6512845846859
 20
42.46663301074798
 30
0.0
 10
123.6942435282561
 20
42.49031690240153
 30
0.0
  0
LINE
  5
E4
330
1F
100
AcDbEntity
  8
0
  6
Continuous
 62
     7
370
    25
100
AcDbLine
 10
123.6942435283
 20
42.4903169024
 30
0.0
 11
123.6942435283
 21
39.1390897341
 31
0.0
  0
SPLINE
  5
E5
330
1F
100
AcDbEntity
  8
0
  6
Continuous
 62
     7
370
    25
100
AcDbSpline
210
0.0
220
0.0
230
1.0
 70
     8
 71
     3
 72
    10
 73
     6
 74
     0
 42
0.00000001
 43
0.00000001
 40
0.0
 40
0.0
 40
0.0
 40
0.0
 40
0.5
 40
0.5
 40
1.0
 40
1.0
 40
1.0
 40
1.0
 10
123.6942435282557
 20
39.13908973406185
 30
0.0
 10
123.6513057191565
 20
39.1627619739734
 30
0.0
 10
123.5878651292643
 20
39.17585596390867
 30
0.0
 10
123.4353759837554
 20
39.17594283137011
 30
0.0
 10
123.3471465945521
 20
39.16277304161076
 30
0.0
 10
123.2612308263635
 20
39.13908973406185
 30
0.0
  0
SPLINE
  5
E6
330
1F
100
AcDbEntity
  8
0
  6
Continuous
 62
     7
370
    25
100
AcDbSpline
210
0.0
220
0.0
230
1.0
 70
     8
 71
     3
 72
     8
 73
     4
 74
     0
 42
0.00000001
 43
0.00000001
 40
0.0
 40
0.0
 40
0.0
 40
0.0
 40
1.0
 40
1.0
 40
1.0
 40
1.0
 10
124.7638121643426
 20
44.04659190893107
 30
0.0
 10
124.7226968887014
 20
44.18262230342062
 30
0.0
 10
124.6822079058335
 20
44.31932636805806
 30
0.0
 10
124.6424286728465
 20
44.45671344225631
 30
0.0
  0
LINE
  5
E7
330
1F
100
AcDbEntity
  8
0
  6
Continuous
 62
     7
370
    25
100
AcDbLine
 10
124.6424286728
 20
46.4567134423
 30
0.0
 11
124.6424286728
 21
44.4567134423
 31
0.0
  0
SPLINE
  5
E8
330
1F
100
AcDbEntity
  8
0
  6
Continuous
 62
     7
370
    25
100
AcDbSpline
210
0.0
220
0.0
230
1.0
 70
     8
 71
     3
 72
    10
 73
     6
 74
     0
 42
0.00000001
 43
0.00000001
 40
0.0
 40
0.0
 40
0.0
 40
0.0
 40
0.5
 40
0.5
 40
1.0
 40
1.0
 40
1.0
 40
1.0
 10
125.3201500781034
 20
45.40489858684709
 30
0.0
 10
125.3438254725278
 20
45.44784211774824
 30
0.0
 10
125.3569165824156
 20
45.51128456237204
 30
0.0
 10
125.357002903704
 20
45.66376339949112
 30
0.0
 10
125.3438339697602
 20
45.75199340159855
 30
0.0
 10
125.3201500781067
 20
45.8379112887393
 30
0.0
  0
SPLINE
  5
E9
330
1F
100
AcDbEntity
  8
0
  6
Continuous
 62
     7
370
    25
100
AcDbSpline
210
0.0
220
0.0
230
1.0
 70
     8
 71
     3
 72
     8
 73
     4
 74
     0
 42
0.00000001
 43
0.00000001
 40
0.0
 40
0.0
 40
0.0
 40
0.0
 40
1.0
 40
1.0
 40
1.0
 40
1.0
 10
124.7638121643426
 20
44.04659190893107
 30
0.0
 10
124.8794447743717
 20
44.50514284098883
 30
0.0
 10
125.0733341791921
 20
44.95721243674708
 30
0.0
 10
125.3201500781065
 20
45.40489858684683
 30
0.0
  0
SPLINE
  5
EA
330
1F
100
AcDbEntity
  8
0
  6
Continuous
 62
     7
370
    25
100
AcDbSpline
210
0.0
220
0.0
230
1.0
 70
     8
 71
     3
 72
     8
 73
     4
 74
     0
 42
0.00000001
 43
0.00000001
 40
0.0
 40
0.0
 40
0.0
 40
0.0
 40
1.0
 40
1.0
 40
1.0
 40
1.0
 10
111.3530524882298
 20
43.16733725762758
 30
0.0
 10
111.6620696308716
 20
43.26834236545771
 30
0.0
 10
111.9773873871896
 20
43.36499915452364
 30
0.0
 10
112.2998667140326
 20
43.45671344225632
 30
0.0
  0
SPLINE
  5
EB
330
1F
100
AcDbEntity
  8
0
  6
Continuous
 62
     7
370
    25
100
AcDbSpline
210
0.0
220
0.0
230
1.0
 70
     8
 71
     3
 72
    12
 73
     8
 74
     0
 42
0.00000001
 43
0.00000001
 40
0.0
 40
0.0
 40
0.0
 40
0.0
 40
0.2500000000000002
 40
0.2500000000000002
 40
0.5000000000000004
 40
0.5000000000000004
 40
1.0
 40
1.0
 40
1.0
 40
1.0
 10
111.3530524882246
 20
43.16733725762145
 30
0.0
 10
111.5430786635278
 20
43.16362877176502
 30
0.0
 10
111.7332937262136
 20
43.14504626892735
 30
0.0
 10
112.1102304853461
 20
43.0801792319612
 30
0.0
 10
112.2975532766056
 20
43.03391367871093
 30
0.0
 10
112.8564632329197
 20
42.85818914840397
 30
0.0
 10
113.22499889103
 20
42.69188573962722
 30
0.0
 10
113.5906138174372
 20
42.49031690240131
 30
0.0
  0
LINE
  5
EC
330
1F
100
AcDbEntity
  8
0
  6
Continuous
 62
     7
370
    25
100
AcDbLine
 10
129.8203697003
 20
45.4048985868
 30
0.0
 11
125.3201500781
 21
45.4048985868
 31
0.0
  0
LINE
  5
ED
330
1F
100
AcDbEntity
  8
0
  6
Continuous
 62
     7
370
    25
100
AcDbLine
 10
111.9647072676
 20
45.4048985868
 30
0.0
 11
107.8201500781
 21
45.4048985868
 31
0.0
  0
SPLINE
  5
EE
330
1F
100
AcDbEntity
  8
0
  6
Continuous
 62
     7
370
    25
100
AcDbSpline
210
0.0
220
0.0
230
1.0
 70
     8
 71
     3
 72
     8
 73
     4
 74
     0
 42
0.00000001
 43
0.00000001
 40
0.0
 40
0.0
 40
0.0
 40
0.0
 40
1.0
 40
1.0
 40
1.0
 40
1.0
 10
124.9849906316603
 20
43.45671344225632
 30
0.0
 10
125.3074699585096
 20
43.36499915452185
 30
0.0
 10
125.6227877148336
 20
43.26834236545395
 30
0.0
 10
125.9318048574811
 20
43.1673372576217
 30
0.0
  0
SPLINE
  5
EF
330
1F
100
AcDbEntity
  8
0
  6
Continuous
 62
     7
370
    25
100
AcDbSpline
210
0.0
220
0.0
230
1.0
 70
     8
 71
     3
 72
    10
 73
     6
 74
     0
 42
0.00000001
 43
0.00000001
 40
0.0
 40
0.0
 40
0.0
 40
0.0
 40
0.5
 40
0.5
 40
1.0
 40
1.0
 40
1.0
 40
1.0
 10
123.694243528256
 20
42.49031690240147
 30
0.0
 10
124.0607614750965
 20
42.69238358795239
 30
0.0
 10
124.4298417005623
 20
42.85877636022303
 30
0.0
 10
125.1750940487897
 20
43.09282333409309
 30
0.0
 10
125.5513068207375
 20
43.15991158805191
 30
0.0
 10
125.9318048574811
 20
43.1673372576217
 30
0.0
  0
LINE
  5
F0
330
1F
100
AcDbEntity
  8
0
  6
Continuous
 62
     7
370
    25
100
AcDbLine
 10
110.1504911728
 20
38.4567134423
 30
0.0
 11
127.1343661728
 21
38.4567134423
 31
0.0
  0
SPLINE
  5
F1
330
1F
100
AcDbEntity
  8
0
  6
Continuous
 62
     7
370
    25
100
AcDbSpline
210
0.0
220
0.0
230
1.0
 70
     8
 71
     3
 72
    16
 73
    12
 74
     0
 42
0.00000001
 43
0.00000001
 40
0.0
 40
0.0
 40
0.0
 40
0.0
 40
0.2499999999999999
 40
0.2499999999999999
 40
0.4999999999999998
 40
0.4999999999999998
 40
0.6249999999999998
 40
0.6249999999999998
 40
0.7499999999999997
 40
0.7499999999999997
 40
1.0
 40
1.0
 40
1.0
 40
1.0
 10
123.6942435282557
 20
39.13908973406139
 30
0.0
 10
124.0719585759787
 20
38.93084992361273
 30
0.0
 10
124.4521163246046
 20
38.76067663720329
 30
0.0
 10
125.219209656496
 20
38.52595437758745
 30
0.0
 10
125.6061870138337
 20
38.46205640251298
 30
0.0
 10
126.1927377888584
 20
38.46103270042647
 30
0.0
 10
126.3898169487814
 20
38.47651924757118
 30
0.0
 10
126.7803460882897
 20
38.53764296902916
 30
0.0
 10
126.9743777919628
 20
38.58316469632418
 30
0.0
 10
127.5531818643838
 20
38.75966406006935
 30
0.0
 10
127.9346705985503
 20
38.93048603642318
 30
0.0
 10
128.3130456817727
 20
39.1390897340617
 30
0.0
  0
SPLINE
  5
F2
330
1F
100
AcDbEntity
  8
0
  6
Continuous
 62
     7
370
    25
100
AcDbSpline
210
0.0
220
0.0
230
1.0
 70
     8
 71
     3
 72
    10
 73
     6
 74
     0
 42
0.00000001
 43
0.00000001
 40
0.0
 40
0.0
 40
0.0
 40
0.0
 40
0.1593935213061874
 40
0.7189934545756529
 40
1.0
 40
1.0
 40
1.0
 40
1.0
 10
128.3753377612391
 20
39.17332672363924
 30
0.0
 10
128.3767276800657
 20
39.17408825063669
 30
0.0
 10
128.3829973360125
 20
39.17752335215255
 30
0.0
 10
128.3565133941885
 20
39.16302872968595
 30
0.0
 10
128.3239359901418
 20
39.14508735919334
 30
0.0
 10
128.3130456817727
 20
39.13908973406185
 30
0.0
  0
SPLINE
  5
F3
330
1F
100
AcDbEntity
  8
0
  6
Continuous
 62
     7
370
    25
100
AcDbSpline
210
0.0
220
0.0
230
1.0
 70
     8
 71
     3
 72
     9
 73
     5
 74
     0
 42
0.00000001
 43
0.00000001
 40
0.0
 40
0.0
 40
0.0
 40
0.0
 40
0.5789479223911734
 40
1.0
 40
1.0
 40
1.0
 40
1.0
 10
108.9718116639202
 20
39.13908973406185
 30
0.0
 10
108.9493702967276
 20
39.15143062437626
 30
0.0
 10
108.9106079723031
 20
39.17274668725017
 30
0.0
 10
108.909842069444
 20
39.17315486116456
 30
0.0
 10
108.9095195844539
 20
39.17332672363924
 30
0.0
  0
SPLINE
  5
F4
330
1F
100
AcDbEntity
  8
0
  6
Continuous
 62
     7
370
    25
100
AcDbSpline
210
0.0
220
0.0
230
1.0
 70
     8
 71
     3
 72
    16
 73
    12
 74
     0
 42
0.00000001
 43
0.00000001
 40
0.0
 40
0.0
 40
0.0
 40
0.0
 40
0.2500000000000001
 40
0.2500000000000001
 40
0.5000000000000001
 40
0.5000000000000001
 40
0.6250000000000001
 40
0.6250000000000001
 40
0.7500000000000002
 40
0.7500000000000002
 40
1.0
 40
1.0
 40
1.0
 40
1.0
 10
108.9718116639202
 20
39.13908973406139
 30
0.0
 10
109.3495267116432
 20
38.93084992361273
 30
0.0
 10
109.7296844602692
 20
38.76067663720329
 30
0.0
 10
110.4967777921606
 20
38.52595437758744
 30
0.0
 10
110.8837551494982
 20
38.46205640251298
 30
0.0
 10
111.4703059245229
 20
38.46103270042647
 30
0.0
 10
111.667385084446
 20
38.47651924757118
 30
0.0
 10
112.0579142239542
 20
38.53764296902916
 30
0.0
 10
112.2519459276273
 20
38.58316469632418
 30
0.0
 10
112.8307500000483
 20
38.75966406006935
 30
0.0
 10
113.2122387342148
 20
38.93048603642317
 30
0.0
 10
113.5906138174373
 20
39.1390897340617
 30
0.0
  0
LINE
  5
F5
330
1F
100
AcDbEntity
  8
0
  6
Continuous
 62
     7
370
    25
100
AcDbLine
 10
114.5886676663
 20
49.8822815858
 30
0.0
 11
115.1960160251
 21
49.8822815858
 31
0.0
  0
LINE
  5
F6
330
1F
100
AcDbEntity
  8
0
  6
Continuous
 62
     7
370
    25
100
AcDbLine
 10
114.8124806092
 20
50.8008959317
 30
0.0
 11
114.5088064281
 21
49.9903133148
 31
0.0
  0
LINE
  5
F7
330
1F
100
AcDbEntity
  8
0
  6
Continuous
 62
     7
370
    25
100
AcDbLine
 10
115.2758772635
 20
49.9903133145
 30
0.0
 11
114.9722030858
 21
50.8008959317
 31
0.0
  0
ELLIPSE
  5
F8
330
1F
100
AcDbEntity
  8
0
  6
Continuous
 62
     7
370
    25
100
AcDbEllipse
 10
115.1960160251
 20
49.9631233028
 30
0.0
 11
-0.08480161849065837
 21
-4.263256414560602E-14
 31
0.0
210
0.0
220
0.0
230
1.0
 40
0.9533039403
 41
1.570796326794417
 42
3.484616592149227
  0
ELLIPSE
  5
F9
330
1F
100
AcDbEntity
  8
0
  6
Continuous
 62
     7
370
    25
100
AcDbEllipse
 10
114.8923418475
 20
50.7737059199
 30
0.0
 11
0.08480161849065837
 21
0.0
 31
0.0
210
0.0
220
0.0
230
1.0
 40
0.9533039403
 41
0.3430239404206368
 42
2.798568713169074
  0
ELLIPSE
  5
FA
330
1F
100
AcDbEntity
  8
0
  6
Continuous
 62
     7
370
    25
100
AcDbEllipse
 10
114.5886676663
 20
49.9631233028
 30
0.0
 11
0.08480161849065837
 21
-7.105427357601002E-15
 31
0.0
210
0.0
220
0.0
230
1.0
 40
0.9533039403
 41
2.798568711308381
 42
4.712388980384782
  0
LINE
  5
FB
330
1F
100
AcDbEntity
  8
0
  6
Continuous
 62
     7
370
    25
100
AcDbLine
 10
125.3201500781
 20
55.5085282977
 30
0.0
 11
129.8203697003
 21
55.5085282977
 31
0.0
  0
LINE
  5
FC
330
1F
100
AcDbEntity
  8
0
  6
Continuous
 62
     7
370
    25
100
AcDbLine
 10
126.8398008426
 20
29.0306228759
 30
0.0
 11
110.445056503
 21
29.0306228759
 31
0.0
  0
SPLINE
  5
FD
330
1F
100
AcDbEntity
  8
0
  6
Continuous
 62
     7
370
    25
100
AcDbSpline
210
0.0
220
0.0
230
1.0
 70
     8
 71
     3
 72
    12
 73
     8
 74
     0
 42
0.00000001
 43
0.00000001
 40
0.0
 40
0.0
 40
0.0
 40
0.0
 40
0.2499999999999999
 40
0.2499999999999999
 40
0.4999999999999998
 40
0.4999999999999998
 40
1.0
 40
1.0
 40
1.0
 40
1.0
 10
124.6424286728465
 20
57.81792937442405
 30
0.0
 10
124.6424286728465
 20
58.01367163730356
 30
0.0
 10
124.6582716089354
 20
58.21033824649412
 30
0.0
 10
124.7197744691731
 20
58.5996064738224
 30
0.0
 10
124.7653781102168
 20
58.79301050677532
 30
0.0
 10
124.941829127706
 20
59.36993955803208
 30
0.0
 10
125.1122264949579
 20
59.75018899123509
 30
0.0
 10
125.3201500781067
 20
60.12733045118255
 30
0.0
  0
LINE
  5
FE
330
1F
100
AcDbEntity
  8
0
  6
Continuous
 62
     7
370
    25
100
AcDbLine
 10
129.8203697003
 20
60.1273304512
 30
0.0
 11
125.3201500781
 21
60.1273304512
 31
0.0
  0
ELLIPSE
  5
FF
330
1F
100
AcDbEntity
  8
0
  6
Continuous
 62
     7
370
    25
100
AcDbEllipse
 10
118.6424286728
 20
40.641758866
 30
0.0
 11
8.5
 21
0.0
 31
0.0
210
0.0
220
0.0
230
1.0
 40
0.5773502692
 41
2.374833212873087
 42
2.530692279913058
  0
LINE
  5
100
330
1F
100
AcDbEntity
  8
0
  6
Continuous
 62
     7
370
    25
100
AcDbLine
 10
111.3530524882
 20
43.1673372576
 30
0.0
 11
108.9718116639
 21
40.7860964333
 31
0.0
  0
LINE
  5
101
330
1F
100
AcDbEntity
  8
0
  6
Continuous
 62
     7
370
    25
100
AcDbLine
 10
107.8201500781
 20
40.7860964333
 30
0.0
 11
108.9718116639
 21
40.7860964333
 31
0.0
  0
SPLINE
  5
102
330
1F
100
AcDbEntity
  8
0
  6
Continuous
 62
     7
370
    25
100
AcDbSpline
210
0.0
220
0.0
230
1.0
 70
     8
 71
     3
 72
    10
 73
     6
 74
     0
 42
0.00000001
 43
0.00000001
 40
0.0
 40
0.0
 40
0.0
 40
0.0
 40
0.5
 40
0.5
 40
1.0
 40
1.0
 40
1.0
 40
1.0
 10
107.8201500781062
 20
40.78609643333004
 30
0.0
 10
107.6113401534399
 20
41.16484558072134
 30
0.0
 10
107.4408060136927
 20
41.54605085713264
 30
0.0
 10
107.2060202086738
 20
42.31528147832042
 30
0.0
 10
107.1424286728465
 20
42.70334918311875
 30
0.0
 10
107.1424286728465
 20
43.09549751008858
 30
0.0
  0
ELLIPSE
  5
103
330
1F
100
AcDbEntity
  8
0
  6
Continuous
 62
     7
370
    25
100
AcDbEllipse
 10
118.6424286728
 20
40.641758866
 30
0.0
 11
8.5
 21
0.0
 31
0.0
210
0.0
220
0.0
230
1.0
 40
0.5773502692
 41
0.6109003736767339
 42
0.7667594407167075
  0
LINE
  5
104
330
1F
100
AcDbEntity
  8
0
  6
Continuous
 62
     7
370
    25
100
AcDbLine
 10
128.3130456818
 20
40.7860964333
 30
0.0
 11
129.8203697003
 21
40.7860964333
 31
0.0
  0
LINE
  5
105
330
1F
100
AcDbEntity
  8
0
  6
Continuous
 62
     7
370
    25
100
AcDbLine
 10
128.3130456818
 20
40.7860964333
 30
0.0
 11
125.9318048575
 21
43.1673372576
 31
0.0
  0
LINE
  5
106
330
1F
100
AcDbEntity
  8
0
  6
Continuous
 62
     7
370
    25
100
AcDbLine
 10
108.9718116639
 20
40.7860964333
 30
0.0
 11
108.9718116639
 21
39.1390897341
 31
0.0
  0
SPLINE
  5
107
330
1F
100
AcDbEntity
  8
0
  6
Continuous
 62
     7
370
    25
100
AcDbSpline
210
0.0
220
0.0
230
1.0
 70
     8
 71
     3
 72
    12
 73
     8
 74
     0
 42
0.00000001
 43
0.00000001
 40
0.0
 40
0.0
 40
0.0
 40
0.0
 40
0.2499999999999999
 40
0.2499999999999999
 40
0.5
 40
0.5
 40
1.0
 40
1.0
 40
1.0
 40
1.0
 10
107.1424286728465
 20
57.81792937442405
 30
0.0
 10
107.1424286728465
 20
58.01293285442984
 30
0.0
 10
107.1581750028684
 20
58.20946751345425
 30
0.0
 10
107.2196200274539
 20
58.5988872010598
 30
0.0
 10
107.2652087867076
 20
58.79237189412006
 30
0.0
 10
107.4416597889642
 20
59.36955549287566
 30
0.0
 10
107.6121174909277
 20
59.74999127465863
 30
0.0
 10
107.8201500781065
 20
60.12733045118257
 30
0.0
  0
LINE
  5
108
330
1F
100
AcDbEntity
  8
0
  6
Continuous
 62
     7
370
    25
100
AcDbLine
 10
111.9647072676
 20
60.1273304512
 30
0.0
 11
107.8201500781
 21
60.1273304512
 31
0.0
  0
SPLINE
  5
109
330
1F
100
AcDbEntity
  8
0
  6
Continuous
 62
     7
370
    25
100
AcDbSpline
210
0.0
220
0.0
230
1.0
 70
     8
 71
     3
 72
    10
 73
     6
 74
     0
 42
0.00000001
 43
0.00000001
 40
0.0
 40
0.0
 40
0.0
 40
0.0
 40
0.5
 40
0.5
 40
1.0
 40
1.0
 40
1.0
 40
1.0
 10
111.9647072675863
 20
60.12733045118257
 30
0.0
 10
112.1731280204037
 20
59.74928720178041
 30
0.0
 10
112.3435918556811
 20
59.36851769698456
 30
0.0
 10
112.5785742906195
 20
58.59936917142701
 30
0.0
 10
112.6424286728465
 20
58.21094244325177
 30
0.0
 10
112.6424286728465
 20
57.81792937442405
 30
0.0
  0
LINE
  5
10A
330
1F
100
AcDbEntity
  8
0
  6
Continuous
 62
     7
370
    25
100
AcDbLine
 10
128.3130456818
 20
39.1390897341
 30
0.0
 11
128.3130456818
 21
40.7860964333
 31
0.0
  0
LINE
  5
10B
330
1F
100
AcDbEntity
  8
0
  6
Continuous
 62
     7
370
    25
100
AcDbLine
 10
125.6424286728
 20
26.9567134423
 30
0.0
 11
111.6424286728
 21
26.9567134423
 31
0.0
  0
LINE
  5
10C
330
1F
100
AcDbEntity
  8
0
  6
Continuous
 62
     7
370
    25
100
AcDbLine
 10
114.6424286728
 20
46.4567134423
 30
0.0
 11
112.6424286728
 21
44.4567134423
 31
0.0
  0
LINE
  5
10D
330
1F
100
AcDbEntity
  8
0
  6
Continuous
 62
     7
370
    25
100
AcDbLine
 10
111.6798076002
 20
43.4567134423
 30
0.0
 11
114.6424286728
 21
43.4567134423
 31
0.0
  0
LINE
  5
10E
330
1F
100
AcDbEntity
  8
0
  6
Continuous
 62
     7
370
    25
100
AcDbLine
 10
124.6424286728
 20
44.4567134423
 30
0.0
 11
122.6424286728
 21
46.4567134423
 31
0.0
  0
LINE
  5
10F
330
1F
100
AcDbEntity
  8
0
  6
Continuous
 62
     7
370
    25
100
AcDbLine
 10
122.6424286728
 20
43.4567134423
 30
0.0
 11
125.6050497455
 21
43.4567134423
 31
0.0
  0
LINE
  5
110
330
1F
100
AcDbEntity
  8
0
  6
Continuous
 62
     7
370
    25
100
AcDbLine
 10
112.6424286728
 20
58.3911679205
 30
0.0
 11
112.6424286728
 21
57.8179293744
 31
0.0
  0
SPLINE
  5
111
330
1F
100
AcDbEntity
  8
0
  6
Continuous
 62
     7
370
    25
100
AcDbSpline
210
0.0
220
0.0
230
1.0
 70
     8
 71
     3
 72
    32
 73
    28
 74
     0
 42
0.00000001
 43
0.00000001
 40
0.0
 40
0.0
 40
0.0
 40
0.0
 40
0.0625000000000001
 40
0.0625000000000001
 40
0.1250000000000001
 40
0.1250000000000001
 40
0.1875000000000002
 40
0.1875000000000002
 40
0.2500000000000003
 40
0.2500000000000003
 40
0.3750000000000003
 40
0.3750000000000003
 40
0.4375000000000003
 40
0.4375000000000003
 40
0.5000000000000002
 40
0.5000000000000002
 40
0.5625000000000002
 40
0.5625000000000002
 40
0.6250000000000001
 40
0.6250000000000001
 40
0.7500000000000001
 40
0.7500000000000001
 40
0.8750000000000002
 40
0.8750000000000002
 40
0.9375000000000001
 40
0.9375000000000001
 40
1.0
 40
1.0
 40
1.0
 40
1.0
 10
124.642428672838
 20
58.39116792047697
 30
0.0
 10
124.4855723369211
 20
58.29621094258127
 30
0.0
 10
124.3125739027655
 20
58.19345776795609
 30
0.0
 10
123.9358693161397
 20
57.97674656630782
 30
0.0
 10
123.733016535683
 20
57.86332785581781
 30
0.0
 10
123.3070352728804
 20
57.63523771911964
 30
0.0
 10
123.0828573125924
 20
57.51993083666779
 30
0.0
 10
122.611506219016
 20
57.29160773429301
 30
0.0
 10
122.3628207036509
 20
57.17795771815926
 30
0.0
 10
121.5922482189593
 20
56.85489368692522
 30
0.0
 10
121.0466108088771
 20
56.66199516276171
 30
0.0
 10
120.1638310603807
 20
56.45040123748801
 30
0.0
 10
119.8651919605079
 20
56.39475885137027
 30
0.0
 10
119.2586903597921
 20
56.31909078200643
 30
0.0
 10
118.9485431211262
 20
56.29911753623011
 30
0.0
 10
118.3284576324424
 20
56.29945130248336
 30
0.0
 10
118.0218865949744
 20
56.31945026780615
 30
0.0
 10
117.4152318476662
 20
56.39548905400262
 30
0.0
 10
117.1128587830409
 20
56.45214215413417
 30
0.0
 10
116.2362224802879
 20
56.66292070418001
 30
0.0
 10
115.688168348311
 20
56.85646653475177
 30
0.0
 10
114.6576710810677
 20
57.28908582802756
 30
0.0
 10
114.1901110457883
 20
57.52156247271798
 30
0.0
 10
113.5518974421604
 20
57.86330047363703
 30
0.0
 10
113.3486877039705
 20
57.97691798906541
 30
0.0
 10
112.9723507775761
 20
58.19342038142165
 30
0.0
 10
112.7993721690846
 20
58.29615817786604
 30
0.0
 10
112.6424286728465
 20
58.39116792048212
 30
0.0
  0
LINE
  5
112
330
1F
100
AcDbEntity
  8
0
  6
Continuous
 62
     7
370
    25
100
AcDbLine
 10
124.6424286728
 20
58.3911679205
 30
0.0
 11
124.6424286728
 21
57.8179293744
 31
0.0
  0
SPLINE
  5
113
330
1F
100
AcDbEntity
  8
0
  6
Continuous
 62
     7
370
    25
100
AcDbSpline
210
0.0
220
0.0
230
1.0
 70
     8
 71
     3
 72
    12
 73
     8
 74
     0
 42
0.00000001
 43
0.00000001
 40
0.0
 40
0.0
 40
0.0
 40
0.0
 40
0.0821719012301597
 40
0.3096922517783138
 40
0.5425043478544225
 40
0.7710679150838742
 40
0.9999999999999999
 40
0.9999999999999999
 40
0.9999999999999999
 40
0.9999999999999999
 10
124.8158678302167
 20
59.24992280187036
 30
0.0
 10
124.8169998790575
 20
59.25369267262877
 30
0.0
 10
124.8212663831711
 20
59.26790068956164
 30
0.0
 10
124.7888110127767
 20
59.16054418882137
 30
0.0
 10
124.7328463972316
 20
58.95460588553397
 30
0.0
 10
124.6646370065219
 20
58.67131055182583
 30
0.0
 10
124.6498354250162
 20
58.48459893033419
 30
0.0
 10
124.6424286728465
 20
58.39116792047499
 30
0.0
  0
SPLINE
  5
114
330
1F
100
AcDbEntity
  8
0
  6
Continuous
 62
     7
370
    25
100
AcDbSpline
210
0.0
220
0.0
230
1.0
 70
     8
 71
     3
 72
    11
 73
     7
 74
     0
 42
0.00000001
 43
0.00000001
 40
0.0
 40
0.0
 40
0.0
 40
0.0
 40
0.3176364843707654
 40
0.6359601025967546
 40
0.8656897220989423
 40
1.0
 40
1.0
 40
1.0
 40
1.0
 10
112.6424286728465
 20
58.39116792048203
 30
0.0
 10
112.6287899158762
 20
58.5224325515689
 30
0.0
 10
112.6014828976057
 20
58.78524577473719
 30
0.0
 10
112.513478245853
 20
59.09689029415389
 30
0.0
 10
112.4689179224573
 20
59.2506366171453
 30
0.0
 10
112.4692666454309
 20
59.24912323256515
 30
0.0
 10
112.4693953046241
 20
59.24856487864576
 30
0.0
  0
LINE
  5
115
330
1F
100
AcDbEntity
  8
0
  6
Continuous
 62
     7
370
    25
100
AcDbLine
 10
112.7424286728
 20
59.9567134423
 30
0.0
 11
112.7430807098
 21
59.9561596775
 31
0.0
  0
SPLINE
  5
116
330
1F
100
AcDbEntity
  8
0
  6
Continuous
 62
     7
370
    25
100
AcDbSpline
210
0.0
220
0.0
230
1.0
 70
     8
 71
     3
 72
    10
 73
     6
 74
     0
 42
0.00000001
 43
0.00000001
 40
0.0
 40
0.0
 40
0.0
 40
0.0
 40
0.1601790552921523
 40
0.7197651707804853
 40
1.0
 40
1.0
 40
1.0
 40
1.0
 10
111.9304778344694
 20
60.1896087299323
 30
0.0
 10
111.9297150443761
 20
60.19100095795866
 30
0.0
 10
111.9262874443024
 20
60.19725693968699
 30
0.0
 10
111.9407949091007
 20
60.17074967495908
 30
0.0
 10
111.9587244622185
 20
60.13819381981393
 30
0.0
 10
111.9647072675863
 20
60.12733045118257
 30
0.0
  0
SPLINE
  5
117
330
1F
100
AcDbEntity
  8
0
  6
Continuous
 62
     7
370
    25
100
AcDbSpline
210
0.0
220
0.0
230
1.0
 70
     8
 71
     3
 72
    10
 73
     6
 74
     0
 42
0.00000001
 43
0.00000001
 40
0.0
 40
0.0
 40
0.0
 40
0.0
 40
0.1593935212994522
 40
0.7189934545690309
 40
1.0
 40
1.0
 40
1.0
 40
1.0
 10
107.8543870676841
 20
60.18962253064901
 30
0.0
 10
107.8551485946816
 20
60.19101244947563
 30
0.0
 10
107.8585836961975
 20
60.19728210542257
 30
0.0
 10
107.844089073731
 20
60.17079816359876
 30
0.0
 10
107.8261477032383
 20
60.1382207595519
 30
0.0
 10
107.8201500781067
 20
60.12733045118255
 30
0.0
  0
LINE
  5
118
330
1F
100
AcDbEntity
  8
0
  6
Continuous
 62
     7
370
    25
100
AcDbLine
 10
107.1424286728
 20
58.9567134423
 30
0.0
 11
107.1424286728
 21
57.8179293744
 31
0.0
  0
SPLINE
  5
119
330
1F
100
AcDbEntity
  8
0
  6
Continuous
 62
     7
370
    25
100
AcDbSpline
210
0.0
220
0.0
230
1.0
 70
     8
 71
     3
 72
     9
 73
     5
 74
     0
 42
0.00000001
 43
0.00000001
 40
0.0
 40
0.0
 40
0.0
 40
0.0
 40
0.5797912171256431
 40
1.0
 40
1.0
 40
1.0
 40
1.0
 10
125.3201500781067
 20
60.12733045118255
 30
0.0
 10
125.3325086814531
 20
60.14980409942368
 30
0.0
 10
125.3538242912475
 20
60.1885657218445
 30
0.0
 10
125.3542152337503
 20
60.18930012660272
 30
0.0
 10
125.3543795112236
 20
60.1896087299323
 30
0.0
  0
SPLINE
  5
11A
330
1F
100
AcDbEntity
  8
0
  6
Continuous
 62
     7
370
    25
100
AcDbSpline
210
0.0
220
0.0
230
1.0
 70
     8
 71
     3
 72
     9
 73
     5
 74
     0
 42
0.00000001
 43
0.00000001
 40
0.0
 40
0.0
 40
0.0
 40
0.0
 40
0.5789479223839474
 40
0.9999999999999999
 40
0.9999999999999999
 40
0.9999999999999999
 40
0.9999999999999999
 10
107.8201500781067
 20
40.78609643333007
 30
0.0
 10
107.8324909684209
 20
40.76365506613771
 30
0.0
 10
107.8538070312948
 20
40.72489274171316
 30
0.0
 10
107.8542152052094
 20
40.72412683885379
 30
0.0
 10
107.8543870676841
 20
40.72380435386361
 30
0.0
  0
LINE
  5
11B
330
1F
100
AcDbEntity
  8
0
  6
Continuous
 62
     7
370
    25
100
AcDbLine
 10
107.1424286728
 20
43.0954975101
 30
0.0
 11
107.1424286728
 21
41.9567134423
 31
0.0
  0
LINE
  5
11C
330
1F
100
AcDbEntity
  8
0
  6
Continuous
 62
     7
370
    25
100
AcDbLine
 10
128.3800329799
 20
40.7191091352
 30
0.0
 11
128.3130456818
 21
40.7860964333
 31
0.0
  0
LINE
  5
11D
330
1F
100
AcDbEntity
  8
0
  6
Continuous
 62
     7
370
    25
100
AcDbLine
 10
108.9718116639
 20
40.7860964333
 30
0.0
 11
108.9048243658
 21
40.7191091352
 31
0.0
  0
SPLINE
  5
11E
330
1F
100
AcDbEntity
  8
0
  6
Continuous
 62
     7
370
    25
100
AcDbSpline
210
0.0
220
0.0
230
1.0
 70
     8
 71
     3
 72
    15
 73
    11
 74
     0
 42
0.00000001
 43
0.00000001
 40
0.0
 40
0.0
 40
0.0
 40
0.0
 40
0.0090459071881971
 40
0.1032433785236875
 40
0.1542564497735248
 40
0.313316902671511
 40
0.5243720399414434
 40
0.6678060008509189
 40
0.9918332554187028
 40
1.0
 40
1.0
 40
1.0
 40
1.0
 10
123.8815140055046
 20
77.55671344225631
 30
0.0
 10
123.8815083135379
 20
77.55839454084074
 30
0.0
 10
123.8814433495871
 20
77.57758137239625
 30
0.0
 10
123.8794476631512
 20
77.60627565191625
 30
0.0
 10
123.8716306669348
 20
77.65695169188815
 30
0.0
 10
123.8544608431798
 20
77.71482799146507
 30
0.0
 10
123.8278769466123
 20
77.75969350619977
 30
0.0
 10
123.7900476481236
 20
77.79705588945428
 30
0.0
 10
123.7617668681134
 20
77.80660190172385
 30
0.0
 10
123.7419357205821
 20
77.80671076591054
 30
0.0
 10
123.7414481864393
 20
77.80671344225631
 30
0.0
  0
LINE
  5
11F
330
1F
100
AcDbEntity
  8
0
  6
Continuous
 62
     7
370
    25
100
AcDbLine
 10
123.8815140055
 20
77.5567134423
 30
0.0
 11
113.4033433402
 21
77.5567134423
 31
0.0
  0
SPLINE
  5
120
330
1F
100
AcDbEntity
  8
0
  6
Continuous
 62
     7
370
    25
100
AcDbSpline
210
0.0
220
0.0
230
1.0
 70
     8
 71
     3
 72
    15
 73
    11
 74
     0
 42
0.00000001
 43
0.00000001
 40
0.0
 40
0.0
 40
0.0
 40
0.0
 40
0.0081667445812973
 40
0.3321939991490813
 40
0.4756279600585592
 40
0.6866830973284899
 40
0.845743550226481
 40
0.8967566214763184
 40
0.9909540928118029
 40
1.0
 40
1.0
 40
1.0
 40
1.0
 10
113.5434091592537
 20
77.80671344225631
 30
0.0
 10
113.5429216251108
 20
77.80671076591054
 30
0.0
 10
113.5230904775795
 20
77.80660190172385
 30
0.0
 10
113.4948096975693
 20
77.7970558894543
 30
0.0
 10
113.4569803990807
 20
77.75969350619975
 30
0.0
 10
113.4303965025131
 20
77.71482799146507
 30
0.0
 10
113.4132266787582
 20
77.65695169188815
 30
0.0
 10
113.4054096825417
 20
77.60627565191625
 30
0.0
 10
113.4034139961058
 20
77.57758137239622
 30
0.0
 10
113.403349032155
 20
77.55839454084074
 30
0.0
 10
113.4033433401884
 20
77.55671344225631
 30
0.0
  0
LINE
  5
121
330
1F
100
AcDbEntity
  8
0
  6
Continuous
 62
     7
370
    25
100
AcDbLine
 10
113.5434091593
 20
77.8067134423
 30
0.0
 11
123.7414481864
 21
77.8067134423
 31
0.0
  0
LINE
  5
122
330
1F
100
AcDbEntity
  8
0
  6
Continuous
 62
     7
370
    25
100
AcDbLine
 10
123.8815140055
 20
76.9567134423
 30
0.0
 11
123.8815140055
 21
77.5567134423
 31
0.0
  0
LINE
  5
123
330
1F
100
AcDbEntity
  8
0
  6
Continuous
 62
     7
370
    25
100
AcDbLine
 10
113.4033433402
 20
77.5567134423
 30
0.0
 11
113.4033433402
 21
76.9567134423
 31
0.0
  0
LINE
  5
124
330
1F
100
AcDbEntity
  8
0
  6
Continuous
 62
     7
370
    25
100
AcDbLine
 10
113.4033433402
 20
76.9567134423
 30
0.0
 11
123.8815140055
 21
76.9567134423
 31
0.0
  0
SPLINE
  5
125
330
1F
100
AcDbEntity
  8
0
  6
Continuous
 62
     7
370
    25
100
AcDbSpline
210
0.0
220
0.0
230
1.0
 70
     8
 71
     3
 72
    15
 73
    11
 74
     0
 42
0.00000001
 43
0.00000001
 40
0.0
 40
0.0
 40
0.0
 40
0.0
 40
0.0080847466189581
 40
0.3310106400648237
 40
0.4750333064304937
 40
0.6874363079215094
 40
0.8468367539418249
 40
0.9000996640391792
 40
0.9910442771984082
 40
1.0
 40
1.0
 40
1.0
 40
1.0
 10
123.7414481864393
 20
77.80671344225631
 30
0.0
 10
123.7427280179834
 20
77.80671076584663
 30
0.0
 10
123.7951276637066
 20
77.80660118664493
 30
0.0
 10
123.8704827551617
 20
77.79692203180728
 30
0.0
 10
123.9724018671794
 20
77.75964020834553
 30
0.0
 10
124.0447928121713
 20
77.71493233516213
 30
0.0
 10
124.0924982404361
 20
77.65679668502948
 30
0.0
 10
124.1140337241435
 20
77.60590961156116
 30
0.0
 10
124.119462740163
 20
77.57714738245365
 30
0.0
 10
124.1196384923195
 20
77.55839456782923
 30
0.0
 10
124.1196542478981
 20
77.55671344225631
 30
0.0
  0
LINE
  5
126
330
1F
100
AcDbEntity
  8
0
  6
Continuous
 62
     7
370
    25
100
AcDbLine
 10
123.8815140055
 20
77.5567134423
 30
0.0
 11
124.1196542479
 21
77.5567134423
 31
0.0
  0
SPLINE
  5
127
330
1F
100
AcDbEntity
  8
0
  6
Continuous
 62
     7
370
    25
100
AcDbSpline
210
0.0
220
0.0
230
1.0
 70
     8
 71
     3
 72
    15
 73
    11
 74
     0
 42
0.00000001
 43
0.00000001
 40
0.0
 40
0.0
 40
0.0
 40
0.0
 40
0.0089557228015919
 40
0.0999003359608153
 40
0.1531632460581696
 40
0.3125636920784855
 40
0.5249666935695051
 40
0.6689893599351772
 40
0.991915253381045
 40
1.0
 40
1.0
 40
1.0
 40
1.0
 10
113.1652030977948
 20
77.55671344225631
 30
0.0
 10
113.1652188533734
 20
77.55839456782923
 30
0.0
 10
113.16539460553
 20
77.57714738245366
 30
0.0
 10
113.1708236215495
 20
77.60590961156115
 30
0.0
 10
113.1923591052568
 20
77.65679668502946
 30
0.0
 10
113.2400645335216
 20
77.71493233516213
 30
0.0
 10
113.3124554785136
 20
77.75964020834553
 30
0.0
 10
113.4143745905312
 20
77.79692203180728
 30
0.0
 10
113.4897296819863
 20
77.80660118664488
 30
0.0
 10
113.5421293277096
 20
77.80671076584663
 30
0.0
 10
113.5434091592537
 20
77.80671344225631
 30
0.0
  0
LINE
  5
128
330
1F
100
AcDbEntity
  8
0
  6
Continuous
 62
     7
370
    25
100
AcDbLine
 10
113.1652030978
 20
77.5567134423
 30
0.0
 11
113.4033433402
 21
77.5567134423
 31
0.0
  0
LINE
  5
129
330
1F
100
AcDbEntity
  8
0
  6
Continuous
 62
     7
370
    25
100
AcDbLine
 10
113.1652030978
 20
76.9567134423
 30
0.0
 11
113.1652030978
 21
77.5567134423
 31
0.0
  0
LINE
  5
12A
330
1F
100
AcDbEntity
  8
0
  6
Continuous
 62
     7
370
    25
100
AcDbLine
 10
113.4033433402
 20
76.9567134423
 30
0.0
 11
113.1652030978
 21
76.9567134423
 31
0.0
  0
LINE
  5
12B
330
1F
100
AcDbEntity
  8
0
  6
Continuous
 62
     7
370
    25
100
AcDbLine
 10
124.1196542479
 20
77.5567134423
 30
0.0
 11
124.1196542479
 21
76.9567134423
 31
0.0
  0
LINE
  5
12C
330
1F
100
AcDbEntity
  8
0
  6
Continuous
 62
     7
370
    25
100
AcDbLine
 10
124.1196542479
 20
76.9567134423
 30
0.0
 11
123.8815140055
 21
76.9567134423
 31
0.0
  0
LINE
  5
12D
330
1F
100
AcDbEntity
  8
0
  6
Continuous
 62
     7
370
    25
100
AcDbLine
 10
124.3924286728
 20
77.5567134423
 30
0.0
 11
124.3924286728
 21
77.8067134423
 31
0.0
  0
LINE
  5
12E
330
1F
100
AcDbEntity
  8
0
  6
Continuous
 62
     7
370
    25
100
AcDbLine
 10
124.3924286728
 20
77.5567134423
 30
0.0
 11
124.1196542479
 21
77.5567134423
 31
0.0
  0
LINE
  5
12F
330
1F
100
AcDbEntity
  8
0
  6
Continuous
 62
     7
370
    25
100
AcDbLine
 10
123.7414481864
 20
77.8067134423
 30
0.0
 11
124.3924286728
 21
77.8067134423
 31
0.0
  0
LINE
  5
130
330
1F
100
AcDbEntity
  8
0
  6
Continuous
 62
     7
370
    25
100
AcDbLine
 10
124.3924286728
 20
76.9567134423
 30
0.0
 11
124.3924286728
 21
77.5567134423
 31
0.0
  0
LINE
  5
131
330
1F
100
AcDbEntity
  8
0
  6
Continuous
 62
     7
370
    25
100
AcDbLine
 10
124.3924286728
 20
77.5567134423
 30
0.0
 11
124.6424286728
 21
77.5567134423
 31
0.0
  0
LINE
  5
132
330
1F
100
AcDbEntity
  8
0
  6
Continuous
 62
     7
370
    25
100
AcDbLine
 10
124.6424286728
 20
77.5567134423
 30
0.0
 11
124.6424286728
 21
76.9567134423
 31
0.0
  0
LINE
  5
133
330
1F
100
AcDbEntity
  8
0
  6
Continuous
 62
     7
370
    25
100
AcDbLine
 10
124.6424286728
 20
76.9567134423
 30
0.0
 11
124.3924286728
 21
76.9567134423
 31
0.0
  0
LINE
  5
134
330
1F
100
AcDbEntity
  8
0
  6
Continuous
 62
     7
370
    25
100
AcDbLine
 10
113.1652030978
 20
77.5567134423
 30
0.0
 11
112.8924286728
 21
77.5567134423
 31
0.0
  0
LINE
  5
135
330
1F
100
AcDbEntity
  8
0
  6
Continuous
 62
     7
370
    25
100
AcDbLine
 10
112.8924286728
 20
77.8067134423
 30
0.0
 11
112.8924286728
 21
77.5567134423
 31
0.0
  0
LINE
  5
136
330
1F
100
AcDbEntity
  8
0
  6
Continuous
 62
     7
370
    25
100
AcDbLine
 10
112.8924286728
 20
77.8067134423
 30
0.0
 11
113.5434091593
 21
77.8067134423
 31
0.0
  0
LINE
  5
137
330
1F
100
AcDbEntity
  8
0
  6
Continuous
 62
     7
370
    25
100
AcDbLine
 10
124.1196542479
 20
76.9567134423
 30
0.0
 11
124.3924286728
 21
76.9567134423
 31
0.0
  0
LINE
  5
138
330
1F
100
AcDbEntity
  8
0
  6
Continuous
 62
     7
370
    25
100
AcDbLine
 10
112.8924286728
 20
77.5567134423
 30
0.0
 11
112.8924286728
 21
76.9567134423
 31
0.0
  0
LINE
  5
139
330
1F
100
AcDbEntity
  8
0
  6
Continuous
 62
     7
370
    25
100
AcDbLine
 10
112.8924286728
 20
76.9567134423
 30
0.0
 11
113.1652030978
 21
76.9567134423
 31
0.0
  0
ARC
  5
13A
330
1F
100
AcDbEntity
  8
0
  6
Continuous
 62
     7
370
    25
100
AcDbCircle
 10
124.3924286728
 20
77.5567134423
 30
0.0
 40
0.25
100
AcDbArc
 50
0.0
 51
90.0
  0
LINE
  5
13B
330
1F
100
AcDbEntity
  8
0
  6
Continuous
 62
     7
370
    25
100
AcDbLine
 10
112.6424286728
 20
76.9567134423
 30
0.0
 11
112.6424286728
 21
77.5567134423
 31
0.0
  0
LINE
  5
13C
330
1F
100
AcDbEntity
  8
0
  6
Continuous
 62
     7
370
    25
100
AcDbLine
 10
112.6424286728
 20
77.5567134423
 30
0.0
 11
112.8924286728
 21
77.5567134423
 31
0.0
  0
LINE
  5
13D
330
1F
100
AcDbEntity
  8
0
  6
Continuous
 62
     7
370
    25
100
AcDbLine
 10
112.8924286728
 20
76.9567134423
 30
0.0
 11
112.6424286728
 21
76.9567134423
 31
0.0
  0
ARC
  5
13E
330
1F
100
AcDbEntity
  8
0
  6
Continuous
 62
     7
370
    25
100
AcDbCircle
 10
112.8924286728
 20
77.5567134423
 30
0.0
 40
0.25
100
AcDbArc
 50
90.0
 51
180.0
  0
LINE
  5
13F
330
1F
100
AcDbEntity
  8
0
  6
Continuous
 62
     7
370
    25
100
AcDbLine
 10
113.6424286728
 20
77.8067134423
 30
0.0
 11
113.6424286728
 21
77.8167134423
 31
0.0
  0
LINE
  5
140
330
1F
100
AcDbEntity
  8
0
  6
Continuous
 62
     7
370
    25
100
AcDbLine
 10
123.6424286728
 20
77.8067134423
 30
0.0
 11
123.6424286728
 21
77.8167134423
 31
0.0
  0
LINE
  5
141
330
1F
100
AcDbEntity
  8
0
  6
Continuous
 62
     7
370
    25
100
AcDbLine
 10
113.6424286728
 20
77.8167134423
 30
0.0
 11
123.6424286728
 21
77.8167134423
 31
0.0
  0
LINE
  5
142
330
1F
100
AcDbEntity
  8
0
  6
Continuous
 62
     7
370
    25
100
AcDbLine
 10
116.6424286728
 20
60.9567134423
 30
0.0
 11
125.6424286728
 21
60.9567134423
 31
0.0
  0
LINE
  5
143
330
1F
100
AcDbEntity
  8
0
  6
Continuous
 62
     7
370
    25
100
AcDbLine
 10
116.6424286728
 20
60.9945303661
 30
0.0
 11
116.6424286728
 21
60.9567134423
 31
0.0
  0
SPLINE
  5
144
330
1F
100
AcDbEntity
  8
0
  6
Continuous
 62
     7
370
    25
100
AcDbSpline
210
0.0
220
0.0
230
1.0
 70
     8
 71
     3
 72
     9
 73
     5
 74
     0
 42
0.00000001
 43
0.00000001
 40
0.0
 40
0.0
 40
0.0
 40
0.0
 40
0.4875141023677128
 40
0.9999999999999999
 40
0.9999999999999999
 40
0.9999999999999999
 40
0.9999999999999999
 10
116.4864834224193
 20
60.95671344225638
 30
0.0
 10
116.5127899963419
 20
60.95844078822808
 30
0.0
 10
116.5667506382901
 20
60.96198395951956
 30
0.0
 10
116.6167861689849
 20
60.98350244546887
 30
0.0
 10
116.6424286728465
 20
60.9945303660563
 30
0.0
  0
SPLINE
  5
145
330
1F
100
AcDbEntity
  8
0
  6
Continuous
 62
     7
370
    25
100
AcDbSpline
210
0.0
220
0.0
230
1.0
 70
     8
 71
     3
 72
    17
 73
    13
 74
     0
 42
0.00000001
 43
0.00000001
 40
0.0
 40
0.0
 40
0.0
 40
0.0
 40
0.3241697628029873
 40
0.5422758463620719
 40
0.689509052693928
 40
0.7894036290694505
 40
0.8577090008137825
 40
0.9049823971474138
 40
0.9551712229700868
 40
0.9753097783197817
 40
0.9919572060138848
 40
1.0
 40
1.0
 40
1.0
 40
1.0
 10
114.1678817887643
 20
68.95671344225394
 30
0.0
 10
114.3105971487815
 20
68.04409993964828
 30
0.0
 10
114.5493334577235
 20
66.51746693338693
 30
0.0
 10
114.9289206521751
 20
64.59069403110595
 30
0.0
 10
115.2380548605222
 20
63.30305856017319
 30
0.0
 10
115.4941683887223
 20
62.44390659345144
 30
0.0
 10
115.7084793916173
 20
61.87043870507404
 30
0.0
 10
115.9117136126452
 20
61.44890655104408
 30
0.0
 10
116.0962588771878
 20
61.16841400824865
 30
0.0
 10
116.282329963556
 20
61.01286533966799
 30
0.0
 10
116.3975405628119
 20
60.96225474047049
 30
0.0
 10
116.4646293682847
 20
60.95807498866585
 30
0.0
 10
116.4864834224193
 20
60.95671344225638
 30
0.0
  0
LINE
  5
146
330
1F
100
AcDbEntity
  8
0
  6
Continuous
 62
     7
370
    25
100
AcDbLine
 10
114.1678817888
 20
68.9567134423
 30
0.0
 11
126.0924286728
 21
68.9567134422
 31
0.0
  0
SPLINE
  5
147
330
1F
100
AcDbEntity
  8
0
  6
Continuous
 62
     7
370
    25
100
AcDbSpline
210
0.0
220
0.0
230
1.0
 70
     8
 71
     3
 72
     9
 73
     5
 74
     0
 42
0.00000001
 43
0.00000001
 40
0.0
 40
0.0
 40
0.0
 40
0.0
 40
0.4978401817595073
 40
1.0
 40
1.0
 40
1.0
 40
1.0
 10
114.9280925445261
 20
69.95145702022323
 30
0.0
 10
114.7917706361554
 20
69.79494583753063
 30
0.0
 10
114.5179439878345
 20
69.48056546321163
 30
0.0
 10
114.2849047367379
 20
69.13183291518536
 30
0.0
 10
114.1678817887643
 20
68.95671344225394
 30
0.0
  0
LINE
  5
148
330
1F
100
AcDbEntity
  8
0
  6
Continuous
 62
     7
370
    25
100
AcDbLine
 10
113.4186264985
 20
76.9567134422
 30
0.0
 11
111.6904878345
 21
69.9514570202
 31
0.0
  0
LINE
  5
149
330
1F
100
AcDbEntity
  8
0
  6
Continuous
 62
     7
370
    25
100
AcDbLine
 10
123.8815140055
 20
76.9567134422
 30
0.0
 11
113.4186264985
 21
76.9567134422
 31
0.0
  0
SPLINE
  5
14A
330
1F
100
AcDbEntity
  8
0
  6
Continuous
 62
     7
370
    25
100
AcDbSpline
210
0.0
220
0.0
230
1.0
 70
     8
 71
     3
 72
    14
 73
    10
 74
     0
 42
0.00000001
 43
0.00000001
 40
0.0
 40
0.0
 40
0.0
 40
0.0
 40
0.1576095309202822
 40
0.3152382602707094
 40
0.4726926441579498
 40
0.6301650083177254
 40
0.7907313191165901
 40
0.9513050385928076
 40
1.0
 40
1.0
 40
1.0
 40
1.0
 10
112.1424286728465
 20
60.95671344225632
 30
0.0
 10
112.0758576580645
 20
61.17021523073372
 30
0.0
 10
111.9427075194795
 20
61.59724481435923
 30
0.0
 10
111.6141405577288
 20
62.18249189321554
 30
0.0
 10
111.2007509169968
 20
62.70464643403796
 30
0.0
 10
110.7050759980522
 20
63.15362456145783
 30
0.0
 10
110.1387862927676
 20
63.51290629326422
 30
0.0
 10
109.6625356363746
 20
63.71747247236539
 30
0.0
 10
109.3823410681818
 20
63.7982670207167
 30
0.0
 10
109.3171422834088
 20
63.81706719376347
 30
0.0
  0
LINE
  5
14B
330
1F
100
AcDbEntity
  8
0
  6
Continuous
 62
     7
370
    25
100
AcDbLine
 10
109.3171422834
 20
63.8170671938
 30
0.0
 11
103.5373854336
 21
65.3856886342
 31
0.0
  0
SPLINE
  5
14C
330
1F
100
AcDbEntity
  8
0
  6
Continuous
 62
     7
370
    25
100
AcDbSpline
210
0.0
220
0.0
230
1.0
 70
     8
 71
     3
 72
    11
 73
     7
 74
     0
 42
0.00000001
 43
0.00000001
 40
0.0
 40
0.0
 40
0.0
 40
0.0
 40
0.2488466353289361
 40
0.4976946020535204
 40
0.7488461225871278
 40
1.0
 40
1.0
 40
1.0
 40
1.0
 10
96.46699181130982
 20
66.70888913523186
 30
0.0
 10
97.06142786044609
 20
66.63936475873822
 30
0.0
 10
98.25030313910949
 20
66.50031563377705
 30
0.0
 10
100.0250278098185
 20
66.19998689565176
 30
0.0
 10
101.7916084515609
 20
65.83807727739662
 30
0.0
 10
102.9554579525806
 20
65.53648532033208
 30
0.0
 10
103.5373854335536
 20
65.38568863424635
 30
0.0
  0
LINE
  5
14D
330
1F
100
AcDbEntity
  8
0
  6
Continuous
 62
     7
370
    25
100
AcDbLine
 10
96.4669918113
 20
66.7088891352
 30
0.0
 11
96.4669918113
 21
69.9514570202
 31
0.0
  0
LINE
  5
14E
330
1F
100
AcDbEntity
  8
0
  6
Continuous
 62
     7
370
    25
100
AcDbLine
 10
96.4669918113
 20
69.9514570202
 30
0.0
 11
114.9280925445
 21
69.9514570202
 31
0.0
  0
LINE
  5
14F
330
1F
100
AcDbEntity
  8
0
  6
Continuous
 62
     7
370
    25
100
AcDbLine
 10
116.4864834224
 20
60.9567134423
 30
0.0
 11
112.1424286728
 21
60.9567134423
 31
0.0
  0
LINE
  5
150
330
1F
100
AcDbEntity
  8
0
  6
Continuous
 62
     7
370
    25
100
AcDbLine
 10
116.6424286728
 20
60.9945303661
 30
0.0
 11
116.6356293149
 21
60.9567134423
 31
0.0
  0
LINE
  5
151
330
1F
100
AcDbEntity
  8
0
  6
Continuous
 62
     7
370
    25
100
AcDbLine
 10
116.6424286728
 20
60.9567134423
 30
0.0
 11
116.6356293149
 21
60.9567134423
 31
0.0
  0
LINE
  5
152
330
1F
100
AcDbEntity
  8
0
  6
Continuous
 62
     7
370
    25
100
AcDbLine
 10
116.6356293149
 20
60.9567134423
 30
0.0
 11
116.4864834224
 21
60.9567134423
 31
0.0
  0
LINE
  5
153
330
1F
100
AcDbEntity
  8
0
  6
Continuous
 62
     7
370
    25
100
AcDbLine
 10
78.6424286728
 20
78.9567134423
 30
0.0
 11
96.4669918113
 21
78.9567134423
 31
0.0
  0
LINE
  5
154
330
1F
100
AcDbEntity
  8
0
  6
Continuous
 62
     7
370
    25
100
AcDbLine
 10
96.4669918113
 20
78.9567134423
 30
0.0
 11
96.4669918113
 21
69.9514570202
 31
0.0
  0
LINE
  5
155
330
1F
100
AcDbEntity
  8
0
  6
Continuous
 62
     7
370
    25
100
AcDbLine
 10
91.7507608151
 20
66.9567134423
 30
0.0
 11
83.6424286728
 21
66.9567134423
 31
0.0
  0
ARC
  5
156
330
1F
100
AcDbEntity
  8
0
  6
Continuous
 62
     7
370
    25
100
AcDbCircle
 10
83.6424286728
 20
71.9567134423
 30
0.0
 40
5.0
100
AcDbArc
 50
180.0
 51
270.0
  0
LINE
  5
157
330
1F
100
AcDbEntity
  8
0
  6
Continuous
 62
     7
370
    25
100
AcDbLine
 10
78.6424286728
 20
71.9567134423
 30
0.0
 11
78.6424286728
 21
78.9567134423
 31
0.0
  0
ARC
  5
158
330
1F
100
AcDbEntity
  8
0
  6
Continuous
 62
     7
370
    25
100
AcDbCircle
 10
91.7507608151
 20
21.9565841881
 30
0.0
 40
45.00012925418374
100
AcDbArc
 50
83.9840777705
 51
90.0
  0
LINE
  5
159
330
1F
100
AcDbEntity
  8
0
  6
Continuous
 62
     7
370
    25
100
AcDbLine
 10
96.4669918113
 20
78.9567134423
 30
0.0
 11
98.6424286728
 21
78.9567134423
 31
0.0
  0
LINE
  5
15A
330
1F
100
AcDbEntity
  8
0
  6
Continuous
 62
     7
370
    25
100
AcDbLine
 10
98.6424286728
 20
78.9567134423
 30
0.0
 11
98.6424286728
 21
76.9756689656
 31
0.0
  0
ARC
  5
15B
330
1F
100
AcDbEntity
  8
0
  6
Continuous
 62
     7
370
    25
100
AcDbCircle
 10
104.6424286728
 20
76.9756689656
 30
0.0
 40
6.000000000000003
100
AcDbArc
 50
180.0
 51
275.5801667845
  0
ARC
  5
15C
330
1F
100
AcDbEntity
  8
0
  6
Continuous
 62
     7
370
    25
100
AcDbCircle
 10
104.2534751086
 20
80.9567134423
 30
0.0
 40
10.00000000000848
100
AcDbArc
 50
275.5801667845
 51
336.4218215217
  0
LINE
  5
15D
330
1F
100
AcDbEntity
  8
0
  6
Continuous
 62
     7
370
    25
100
AcDbLine
 10
112.1424286728
 20
60.9567134423
 30
0.0
 11
111.6424286728
 21
60.9567134423
 31
0.0
  0
LINE
  5
15E
330
1F
100
AcDbEntity
  8
0
  6
Continuous
 62
     7
370
    25
100
AcDbLine
 10
113.4033433402
 20
76.9567134422
 30
0.0
 11
113.4186264985
 21
76.9567134422
 31
0.0
  0
SPLINE
  5
15F
330
1F
100
AcDbEntity
  8
0
  6
Continuous
 62
     7
370
    25
100
AcDbSpline
210
0.0
220
0.0
230
1.0
 70
     8
 71
     3
 72
    31
 73
    27
 74
     0
 42
0.00000001
 43
0.00000001
 40
0.0
 40
0.0
 40
0.0
 40
0.0
 40
0.0092726086841302
 40
0.0517133411999476
 40
0.0941813371971441
 40
0.1321033027257551
 40
0.1702154178099982
 40
0.2082066451721393
 40
0.2154694090455969
 40
0.276484912391567
 40
0.3374996384191588
 40
0.3848198338772861
 40
0.4320448372101718
 40
0.4692138155625846
 40
0.5063438760432651
 40
0.5434316643637138
 40
0.5805687557835351
 40
0.6303317443201294
 40
0.680186906658866
 40
0.733466525765905
 40
0.7867374215233762
 40
0.8315817039543858
 40
0.8763910261782282
 40
0.919066813990476
 40
0.9617074322727769
 40
1.0
 40
1.0
 40
1.0
 40
1.0
 10
112.7430807097704
 20
59.95615967753878
 30
0.0
 10
112.7438254648423
 20
59.95552864999551
 30
0.0
 10
112.7479789640847
 20
59.95200940921193
 30
0.0
 10
112.8182601589186
 20
59.89208402342394
 30
0.0
 10
113.0095792839891
 20
59.73169390923342
 30
0.0
 10
113.284500744059
 20
59.50539912810005
 30
0.0
 10
113.6169178319163
 20
59.24002937745098
 30
0.0
 10
113.9039809874672
 20
59.01995059790887
 30
0.0
 10
114.2999283937097
 20
58.72615162834867
 30
0.0
 10
114.8355476411432
 20
58.34572924928114
 30
0.0
 10
115.6513011277692
 20
57.84770476937022
 30
0.0
 10
116.4928602854881
 20
57.43558709003955
 30
0.0
 10
117.2762673554603
 20
57.15858792876737
 30
0.0
 10
118.0492522001277
 20
57.00717078539523
 30
0.0
 10
118.7798425141132
 20
56.96902131410882
 30
0.0
 10
119.5045649674542
 20
57.04835320522911
 30
0.0
 10
120.2779345869971
 20
57.2408564130337
 30
0.0
 10
121.0683294092831
 20
57.55801588227877
 30
0.0
 10
121.8651339557385
 20
57.98329441981828
 30
0.0
 10
122.5925010638148
 20
58.44575513141743
 30
0.0
 10
123.2067068936435
 20
58.88616850164392
 30
0.0
 10
123.7001651427911
 20
59.26462770220049
 30
0.0
 10
124.0752333735755
 20
59.56639853375001
 30
0.0
 10
124.3454226530346
 20
59.78998834992669
 30
0.0
 10
124.5138831198523
 20
59.93248067848643
 30
0.0
 10
124.529297493326
 20
59.94549948310036
 30
0.0
 10
124.5365906195369
 20
59.95165917459389
 30
0.0
  0
LINE
  5
160
330
1F
100
AcDbEntity
  8
FORMAT
100
AcDbLine
 10
111.2087656426
 20
27.707839844
 30
0.0
 11
110.8884883426
 21
37.9567134423
 31
0.0
  0
LINE
  5
161
330
1F
100
AcDbEntity
  8
FORMAT
100
AcDbLine
 10
126.0760917031
 20
27.707839844
 30
0.0
 11
126.396369003
 21
37.9567134423
 31
0.0
  0
LINE
  5
162
330
1F
100
AcDbEntity
  8
FORMAT
100
AcDbLine
 10
127.1187411728
 20
37.9567134423
 30
0.0
 11
110.1661161728
 21
37.9567134423
 31
0.0
  0
LINE
  5
163
330
1F
100
AcDbEntity
  8
FORMAT
  6
CENTERX2
370
    18
100
AcDbLine
 10
132.3441180532
 20
50.4567134423
 30
0.0
 11
75.1424286728
 21
50.4567134423
 31
0.0
  0
LINE
  5
164
330
1F
100
AcDbEntity
  8
FORMAT
  6
CENTERX2
370
    18
100
AcDbLine
 10
118.6424286728
 20
79.8364862822
 30
0.0
 11
118.6424286728
 21
24.662215716
 31
0.0
  0
LINE
  5
165
330
1F
100
AcDbEntity
  8
0
  6
Continuous
 62
     7
370
    25
100
AcDbLine
 10
154.1821072819
 20
38.4613683288
 30
0.0
 11
154.1901697819
 21
38.4567134423
 31
0.0
  0
LINE
  5
166
330
1F
100
AcDbEntity
  8
0
  6
Continuous
 62
     7
370
    25
100
AcDbLine
 10
154.1901697819
 20
38.4567134423
 30
0.0
 11
154.4847351121
 21
29.0306228759
 31
0.0
  0
LINE
  5
167
330
1F
100
AcDbEntity
  8
0
  6
Continuous
 62
     7
370
    25
100
AcDbLine
 10
170.8794794517
 20
29.0306228759
 30
0.0
 11
171.1740447819
 21
38.4567134423
 31
0.0
  0
LINE
  5
168
330
1F
100
AcDbEntity
  8
0
  6
Continuous
 62
     7
370
    25
100
AcDbLine
 10
154.4847351121
 20
29.0306228759
 30
0.0
 11
155.6821072819
 21
26.9567134423
 31
0.0
  0
LINE
  5
169
330
1F
100
AcDbEntity
  8
0
  6
Continuous
 62
     7
370
    25
100
AcDbLine
 10
169.6821072819
 20
26.9567134423
 30
0.0
 11
170.8794794517
 21
29.0306228759
 31
0.0
  0
SPLINE
  5
16A
330
1F
100
AcDbEntity
  8
0
  6
Continuous
 62
     7
370
    25
100
AcDbSpline
210
0.0
220
0.0
230
1.0
 70
     8
 71
     3
 72
     9
 73
     5
 74
     0
 42
0.00000001
 43
0.00000001
 40
0.0
 40
0.0
 40
0.0
 40
0.0
 40
0.3325824180471039
 40
1.0
 40
1.0
 40
1.0
 40
1.0
 10
168.5931177867325
 20
56.85894451235448
 30
0.0
 10
168.5900236556502
 20
56.87318687698573
 30
0.0
 10
168.5807203043169
 20
56.9160104414871
 30
0.0
 10
168.5834404828936
 20
56.95995337106322
 30
0.0
 10
168.5852559779017
 20
56.98928165486485
 30
0.0
  0
SPLINE
  5
16B
330
1F
100
AcDbEntity
  8
0
  6
Continuous
 62
     7
370
    25
100
AcDbSpline
210
0.0
220
0.0
230
1.0
 70
     8
 71
     3
 72
     9
 73
     5
 74
     0
 42
0.00000001
 43
0.00000001
 40
0.0
 40
0.0
 40
0.0
 40
0.0
 40
0.3456348986269277
 40
1.0
 40
1.0
 40
1.0
 40
1.0
 10
156.7804995779041
 20
56.99572503420178
 30
0.0
 10
156.7815798369237
 20
56.97995090376588
 30
0.0
 10
156.7847052707957
 20
56.93431277376639
 30
0.0
 10
156.7770597445594
 20
56.88909058912579
 30
0.0
 10
156.7720567790087
 20
56.85949876968913
 30
0.0
  0
LINE
  5
16C
330
1F
100
AcDbEntity
  8
0
  6
Continuous
 62
     7
370
    25
100
AcDbLine
 10
168.5821072819
 20
56.9899396954
 30
0.0
 11
168.5821072819
 21
60.9567134423
 31
0.0
  0
LINE
  5
16D
330
1F
100
AcDbEntity
  8
0
  6
Continuous
 62
     7
370
    25
100
AcDbLine
 10
156.7821072819
 20
60.9567134423
 30
0.0
 11
156.7821072819
 21
56.9952421062
 31
0.0
  0
ARC
  5
16E
330
1F
100
AcDbEntity
  8
0
  6
Continuous
 62
     7
370
    25
100
AcDbCircle
 10
157.4321072819
 20
77.5567134423
 30
0.0
 40
0.25
100
AcDbArc
 50
90.0
 51
180.0
  0
ARC
  5
16F
330
1F
100
AcDbEntity
  8
0
  6
Continuous
 62
     7
370
    25
100
AcDbCircle
 10
167.9321072819
 20
77.5567134423
 30
0.0
 40
0.25
100
AcDbArc
 50
0.0
 51
90.0
  0
LINE
  5
170
330
1F
100
AcDbEntity
  8
0
  6
Continuous
 62
     7
370
    25
100
AcDbLine
 10
157.1821072819
 20
77.5567134423
 30
0.0
 11
157.1821072819
 21
76.9567134423
 31
0.0
  0
LINE
  5
171
330
1F
100
AcDbEntity
  8
0
  6
Continuous
 62
     7
370
    25
100
AcDbLine
 10
168.1821072819
 20
76.9567134423
 30
0.0
 11
168.1821072819
 21
77.5567134423
 31
0.0
  0
LINE
  5
172
330
1F
100
AcDbEntity
  8
0
  6
Continuous
 62
     7
370
    25
100
AcDbLine
 10
170.1321072819
 20
68.9567134423
 30
0.0
 11
168.1821072819
 21
76.9567134422
 31
0.0
  0
LINE
  5
173
330
1F
100
AcDbEntity
  8
0
  6
Continuous
 62
     7
370
    25
100
AcDbLine
 10
157.1821072819
 20
76.9567134422
 30
0.0
 11
155.2321072819
 21
68.9567134423
 31
0.0
  0
LINE
  5
174
330
1F
100
AcDbEntity
  8
0
  6
Continuous
 62
     7
370
    25
100
AcDbLine
 10
155.2321072819
 20
68.9567134423
 30
0.0
 11
155.6821072819
 21
60.9567134423
 31
0.0
  0
LINE
  5
175
330
1F
100
AcDbEntity
  8
0
  6
Continuous
 62
     7
370
    25
100
AcDbLine
 10
169.6821072819
 20
60.9567134423
 30
0.0
 11
170.1321072819
 21
68.9567134423
 31
0.0
  0
CIRCLE
  5
176
330
1F
100
AcDbEntity
  8
0
  6
Continuous
 62
     7
370
    25
100
AcDbCircle
 10
162.6821072819
 20
50.4567134423
 30
0.0
 40
8.25
  0
SPLINE
  5
177
330
1F
100
AcDbEntity
  8
0
  6
Continuous
 62
     7
370
    25
100
AcDbSpline
210
0.0
220
0.0
230
1.0
 70
     8
 71
     3
 72
    10
 73
     6
 74
     0
 42
0.00000001
 43
0.00000001
 40
0.0
 40
0.0
 40
0.0
 40
0.0
 40
0.5
 40
0.5
 40
1.0
 40
1.0
 40
1.0
 40
1.0
 10
154.1821072819385
 20
45.83791128873931
 30
0.0
 10
154.1821072819385
 20
45.75202422693685
 30
0.0
 10
154.2048997312684
 20
45.66461701795671
 30
0.0
 10
154.2928424353614
 20
45.51198057536298
 30
0.0
 10
154.3577002090353
 20
45.4478575304174
 30
0.0
 10
154.4321072819385
 20
45.40489858684709
 30
0.0
  0
SPLINE
  5
178
330
1F
100
AcDbEntity
  8
0
  6
Continuous
 62
     7
370
    25
100
AcDbSpline
210
0.0
220
0.0
230
1.0
 70
    24
 71
     3
 72
    14
 73
    10
 74
     0
 42
0.00000001
 43
0.00000001
 40
0.0
 40
0.0
 40
0.0
 40
0.0
 40
0.25
 40
0.25
 40
0.5
 40
0.5
 40
0.75
 40
0.75
 40
1.0
 40
1.0
 40
1.0
 40
1.0
 10
154.1821072819385
 20
45.83791128873926
 30
0.0
 10
154.1821072819385
 20
46.59229134938925
 30
0.0
 10
154.1821072819385
 20
47.36173251685474
 30
0.0
 10
154.1821072819385
 20
48.9022438777959
 30
0.0
 10
154.1821072819385
 20
49.67709825780292
 30
0.0
 10
154.1821072819385
 20
51.23745921268848
 30
0.0
 10
154.1821072819385
 20
52.02791540547351
 30
0.0
 10
154.1821072819385
 20
53.57019506828198
 30
0.0
 10
154.1821072819385
 20
54.32758582148316
 30
0.0
 10
154.1821072819385
 20
55.07551559577333
 30
0.0
  0
SPLINE
  5
179
330
1F
100
AcDbEntity
  8
0
  6
Continuous
 62
     7
370
    25
100
AcDbSpline
210
0.0
220
0.0
230
1.0
 70
     8
 71
     3
 72
    10
 73
     6
 74
     0
 42
0.00000001
 43
0.00000001
 40
0.0
 40
0.0
 40
0.0
 40
0.0
 40
0.5
 40
0.5
 40
1.0
 40
1.0
 40
1.0
 40
1.0
 10
154.4321072819385
 20
55.50852829766555
 30
0.0
 10
154.3577269045612
 20
55.46558476676432
 30
0.0
 10
154.2934262657755
 20
55.40214232214019
 30
0.0
 10
154.2052105809925
 20
55.24966348502122
 30
0.0
 10
154.1821072819385
 20
55.16143348291395
 30
0.0
 10
154.1821072819385
 20
55.07551559577333
 30
0.0
  0
SPLINE
  5
17A
330
1F
100
AcDbEntity
  8
0
  6
Continuous
 62
     7
370
    25
100
AcDbSpline
210
0.0
220
0.0
230
1.0
 70
    24
 71
     3
 72
    16
 73
    12
 74
     0
 42
0.00000001
 43
0.00000001
 40
0.0
 40
0.0
 40
0.0
 40
0.0
 40
0.2500000000000001
 40
0.2500000000000001
 40
0.5000000000000001
 40
0.5000000000000001
 40
0.6250000000000001
 40
0.6250000000000001
 40
0.7500000000000002
 40
0.7500000000000002
 40
1.0
 40
1.0
 40
1.0
 40
1.0
 10
162.4321072819386
 20
60.12733045118255
 30
0.0
 10
161.7785905018978
 20
59.75002236230605
 30
0.0
 10
161.1203700928078
 20
59.36999863193186
 30
0.0
 10
159.790807509442
 20
58.60237531652115
 30
0.0
 10
159.1193835273714
 20
58.21472849973236
 30
0.0
 10
158.1003824403647
 20
57.62640794784451
 30
0.0
 10
157.7590416580485
 20
57.42933475528886
 30
0.0
 10
157.0834431550781
 20
57.03927777773477
 30
0.0
 10
156.7477840051135
 20
56.84548487714672
 30
0.0
 10
155.7465183686137
 20
56.2674038923833
 30
0.0
 10
155.0866107100106
 20
55.88640602804848
 30
0.0
 10
154.4321072819385
 20
55.50852829766555
 30
0.0
  0
SPLINE
  5
17B
330
1F
100
AcDbEntity
  8
0
  6
Continuous
 62
     7
370
    25
100
AcDbSpline
210
0.0
220
0.0
230
1.0
 70
     8
 71
     3
 72
    10
 73
     6
 74
     0
 42
0.00000001
 43
0.00000001
 40
0.0
 40
0.0
 40
0.0
 40
0.0
 40
0.5
 40
0.5
 40
1.0
 40
1.0
 40
1.0
 40
1.0
 10
162.9321072819386
 20
60.12733045118255
 30
0.0
 10
162.8577269045612
 20
60.17027398208378
 30
0.0
 10
162.7706338164457
 20
60.19423874643976
 30
0.0
 10
162.5944754275696
 20
60.19439635191454
 30
0.0
 10
162.5065143548418
 20
60.17028939475286
 30
0.0
 10
162.4321072819386
 20
60.12733045118256
 30
0.0
  0
SPLINE
  5
17C
330
1F
100
AcDbEntity
  8
0
  6
Continuous
 62
     7
370
    25
100
AcDbSpline
210
0.0
220
0.0
230
1.0
 70
    24
 71
     3
 72
    16
 73
    12
 74
     0
 42
0.00000001
 43
0.00000001
 40
0.0
 40
0.0
 40
0.0
 40
0.0
 40
0.2499999999999997
 40
0.2499999999999997
 40
0.4999999999999993
 40
0.4999999999999993
 40
0.6249999999999993
 40
0.6249999999999993
 40
0.7499999999999996
 40
0.7499999999999996
 40
1.0
 40
1.0
 40
1.0
 40
1.0
 10
170.9321072819386
 20
55.50852829766555
 30
0.0
 10
170.2785905018978
 20
55.88583638654205
 30
0.0
 10
169.6203700928078
 20
56.26586011691624
 30
0.0
 10
168.290807509442
 20
57.03348343232693
 30
0.0
 10
167.6193835273714
 20
57.42113024911574
 30
0.0
 10
166.6003824403647
 20
58.00945080100359
 30
0.0
 10
166.2590416580485
 20
58.20652399355923
 30
0.0
 10
165.5834431550781
 20
58.59658097111333
 30
0.0
 10
165.2477840051135
 20
58.79037387170137
 30
0.0
 10
164.2465183686137
 20
59.3684548564648
 30
0.0
 10
163.5866107100106
 20
59.74945272079962
 30
0.0
 10
162.9321072819386
 20
60.12733045118255
 30
0.0
  0
SPLINE
  5
17D
330
1F
100
AcDbEntity
  8
0
  6
Continuous
 62
     7
370
    25
100
AcDbSpline
210
0.0
220
0.0
230
1.0
 70
     8
 71
     3
 72
    10
 73
     6
 74
     0
 42
0.00000001
 43
0.00000001
 40
0.0
 40
0.0
 40
0.0
 40
0.0
 40
0.5
 40
0.5
 40
1.0
 40
1.0
 40
1.0
 40
1.0
 10
171.1821072819386
 20
55.07551559577333
 30
0.0
 10
171.1821072819386
 20
55.16140265757578
 30
0.0
 10
171.1593148326088
 20
55.2488098665559
 30
0.0
 10
171.0713721285157
 20
55.40144630914964
 30
0.0
 10
171.0065143548418
 20
55.46556935409523
 30
0.0
 10
170.9321072819386
 20
55.50852829766555
 30
0.0
  0
SPLINE
  5
17E
330
1F
100
AcDbEntity
  8
0
  6
Continuous
 62
     7
370
    25
100
AcDbSpline
210
0.0
220
0.0
230
1.0
 70
    24
 71
     3
 72
    14
 73
    10
 74
     0
 42
0.00000001
 43
0.00000001
 40
0.0
 40
0.0
 40
0.0
 40
0.0
 40
0.25
 40
0.25
 40
0.5
 40
0.5
 40
0.75
 40
0.75
 40
1.0
 40
1.0
 40
1.0
 40
1.0
 10
171.1821072819386
 20
45.83791128873926
 30
0.0
 10
171.1821072819386
 20
46.59229134938924
 30
0.0
 10
171.1821072819386
 20
47.36173251685474
 30
0.0
 10
171.1821072819386
 20
48.9022438777959
 30
0.0
 10
171.1821072819386
 20
49.67709825780292
 30
0.0
 10
171.1821072819386
 20
51.23745921268848
 30
0.0
 10
171.1821072819386
 20
52.02791540547351
 30
0.0
 10
171.1821072819386
 20
53.57019506828198
 30
0.0
 10
171.1821072819386
 20
54.32758582148316
 30
0.0
 10
171.1821072819386
 20
55.07551559577333
 30
0.0
  0
SPLINE
  5
17F
330
1F
100
AcDbEntity
  8
0
  6
Continuous
 62
     7
370
    25
100
AcDbSpline
210
0.0
220
0.0
230
1.0
 70
     8
 71
     3
 72
    10
 73
     6
 74
     0
 42
0.00000001
 43
0.00000001
 40
0.0
 40
0.0
 40
0.0
 40
0.0
 40
0.5
 40
0.5
 40
1.0
 40
1.0
 40
1.0
 40
1.0
 10
170.9321072819386
 20
45.40489858684709
 30
0.0
 10
171.0064876593157
 20
45.44784211774822
 30
0.0
 10
171.0707882981012
 20
45.51128456237189
 30
0.0
 10
171.1590039828845
 20
45.66376339949101
 30
0.0
 10
171.1821072819386
 20
45.7519934015985
 30
0.0
 10
171.1821072819386
 20
45.83791128873928
 30
0.0
  0
SPLINE
  5
180
330
1F
100
AcDbEntity
  8
0
  6
Continuous
 62
     7
370
    25
100
AcDbSpline
210
0.0
220
0.0
230
1.0
 70
    24
 71
     3
 72
    16
 73
    12
 74
     0
 42
0.00000001
 43
0.00000001
 40
0.0
 40
0.0
 40
0.0
 40
0.0
 40
0.2500000000000002
 40
0.2500000000000002
 40
0.5000000000000004
 40
0.5000000000000004
 40
0.6250000000000003
 40
0.6250000000000003
 40
0.7500000000000002
 40
0.7500000000000002
 40
1.0
 40
1.0
 40
1.0
 40
1.0
 10
162.9321072819386
 20
40.78609643333008
 30
0.0
 10
163.5856240619793
 20
41.16340452220655
 30
0.0
 10
164.2438444710692
 20
41.54342825258072
 30
0.0
 10
165.5734070544349
 20
42.31105156799136
 30
0.0
 10
166.2448310365054
 20
42.69869838478013
 30
0.0
 10
167.263832123512
 20
43.28701893666792
 30
0.0
 10
167.6051729058282
 20
43.48409212922355
 30
0.0
 10
168.2807714087986
 20
43.87414910677763
 30
0.0
 10
168.6164305587632
 20
44.06794200736566
 30
0.0
 10
169.6176961952629
 20
44.64602299212904
 30
0.0
 10
170.2776038538659
 20
45.02702085646383
 30
0.0
 10
170.9321072819379
 20
45.40489858684673
 30
0.0
  0
SPLINE
  5
181
330
1F
100
AcDbEntity
  8
0
  6
Continuous
 62
     7
370
    25
100
AcDbSpline
210
0.0
220
0.0
230
1.0
 70
     8
 71
     3
 72
    10
 73
     6
 74
     0
 42
0.00000001
 43
0.00000001
 40
0.0
 40
0.0
 40
0.0
 40
0.0
 40
0.5
 40
0.5
 40
1.0
 40
1.0
 40
1.0
 40
1.0
 10
162.4321072819386
 20
40.78609643333008
 30
0.0
 10
162.5064876593159
 20
40.74315290242885
 30
0.0
 10
162.5935807474314
 20
40.71918813807287
 30
0.0
 10
162.7697391363075
 20
40.71903053259809
 30
0.0
 10
162.8577002090353
 20
40.74313748975977
 30
0.0
 10
162.9321072819386
 20
40.78609643333008
 30
0.0
  0
SPLINE
  5
182
330
1F
100
AcDbEntity
  8
0
  6
Continuous
 62
     7
370
    25
100
AcDbSpline
210
0.0
220
0.0
230
1.0
 70
    24
 71
     3
 72
    16
 73
    12
 74
     0
 42
0.00000001
 43
0.00000001
 40
0.0
 40
0.0
 40
0.0
 40
0.0
 40
0.2500000000000001
 40
0.2500000000000001
 40
0.5000000000000002
 40
0.5000000000000002
 40
0.6250000000000001
 40
0.6250000000000001
 40
0.7500000000000001
 40
0.7500000000000001
 40
1.0
 40
1.0
 40
1.0
 40
1.0
 10
154.4321072819385
 20
45.40489858684709
 30
0.0
 10
155.0856240619793
 20
45.02759049797059
 30
0.0
 10
155.7438444710693
 20
44.64756676759639
 30
0.0
 10
157.0734070544351
 20
43.8799434521857
 30
0.0
 10
157.7448310365057
 20
43.4922966353969
 30
0.0
 10
158.7638321235124
 20
42.90397608350905
 30
0.0
 10
159.1051729058286
 20
42.7069028909534
 30
0.0
 10
159.780771408799
 20
42.3168459133993
 30
0.0
 10
160.1164305587637
 20
42.12305301281127
 30
0.0
 10
161.1176961952633
 20
41.54497202804784
 30
0.0
 10
161.7776038538665
 20
41.16397416371301
 30
0.0
 10
162.4321072819386
 20
40.78609643333008
 30
0.0
  0
LINE
  5
183
330
1F
100
AcDbEntity
  8
0
  6
Continuous
 62
     7
370
    25
100
AcDbLine
 10
154.1901697819
 20
38.4567134423
 30
0.0
 11
171.1740447819
 21
38.4567134423
 31
0.0
  0
SPLINE
  5
184
330
1F
100
AcDbEntity
  8
0
  6
Continuous
 62
     7
370
    25
100
AcDbSpline
210
0.0
220
0.0
230
1.0
 70
     8
 71
     3
 72
    10
 73
     6
 74
     0
 42
0.00000001
 43
0.00000001
 40
0.0
 40
0.0
 40
0.0
 40
0.0
 40
0.5
 40
0.5
 40
1.0
 40
1.0
 40
1.0
 40
1.0
 10
154.4321072819385
 20
39.13908973406185
 30
0.0
 10
154.357736815013
 20
39.1627619739734
 30
0.0
 10
154.2934312187251
 20
39.17585596390867
 30
0.0
 10
154.2052084309193
 20
39.17594283137011
 30
0.0
 10
154.1821072819385
 20
39.16277304161076
 30
0.0
 10
154.1821072819385
 20
39.13908973406185
 30
0.0
  0
SPLINE
  5
185
330
1F
100
AcDbEntity
  8
0
  6
Continuous
 62
     7
370
    25
100
AcDbSpline
210
0.0
220
0.0
230
1.0
 70
     8
 71
     3
 72
    16
 73
    12
 74
     0
 42
0.00000001
 43
0.00000001
 40
0.0
 40
0.0
 40
0.0
 40
0.0
 40
0.2499999999999999
 40
0.2499999999999999
 40
0.4999999999999998
 40
0.4999999999999998
 40
0.6249999999999998
 40
0.6249999999999998
 40
0.7499999999999997
 40
0.7499999999999997
 40
1.0
 40
1.0
 40
1.0
 40
1.0
 10
154.4321072819385
 20
39.13908973406139
 30
0.0
 10
155.086328935378
 20
38.93084992361273
 30
0.0
 10
155.7447814708892
 20
38.76067663720329
 30
0.0
 10
157.0734260958724
 20
38.52595437758745
 30
0.0
 10
157.74369054016
 20
38.46205640251298
 30
0.0
 10
158.7596262837216
 20
38.46103270042647
 30
0.0
 10
159.1009774018213
 20
38.47651924757118
 30
0.0
 10
159.7773937132858
 20
38.53764296902916
 30
0.0
 10
160.1134664823267
 20
38.58316469632418
 30
0.0
 10
161.1159845433877
 20
38.75966406006935
 30
0.0
 10
161.7767424134792
 20
38.93048603642318
 30
0.0
 10
162.4321072819386
 20
39.1390897340617
 30
0.0
  0
SPLINE
  5
186
330
1F
100
AcDbEntity
  8
0
  6
Continuous
 62
     7
370
    25
100
AcDbSpline
210
0.0
220
0.0
230
1.0
 70
     8
 71
     3
 72
    10
 73
     6
 74
     0
 42
0.00000001
 43
0.00000001
 40
0.0
 40
0.0
 40
0.0
 40
0.0
 40
0.5
 40
0.5
 40
1.0
 40
1.0
 40
1.0
 40
1.0
 10
162.9321072819386
 20
39.13908973406185
 30
0.0
 10
162.8577325279485
 20
39.16276333855296
 30
0.0
 10
162.7706387963826
 20
39.1758561143462
 30
0.0
 10
162.5944729678381
 20
39.17594268244714
 30
0.0
 10
162.5065119439478
 20
39.16277285832386
 30
0.0
 10
162.4321072819386
 20
39.13908973406185
 30
0.0
  0
SPLINE
  5
187
330
1F
100
AcDbEntity
  8
0
  6
Continuous
 62
     7
370
    25
100
AcDbSpline
210
0.0
220
0.0
230
1.0
 70
     8
 71
     3
 72
    16
 73
    12
 74
     0
 42
0.00000001
 43
0.00000001
 40
0.0
 40
0.0
 40
0.0
 40
0.0
 40
0.2500000000000001
 40
0.2500000000000001
 40
0.5000000000000001
 40
0.5000000000000001
 40
0.6250000000000001
 40
0.6250000000000001
 40
0.7500000000000002
 40
0.7500000000000002
 40
1.0
 40
1.0
 40
1.0
 40
1.0
 10
162.9321072819385
 20
39.13908973406139
 30
0.0
 10
163.586328935378
 20
38.93084992361273
 30
0.0
 10
164.2447814708892
 20
38.76067663720329
 30
0.0
 10
165.5734260958724
 20
38.52595437758744
 30
0.0
 10
166.2436905401599
 20
38.46205640251298
 30
0.0
 10
167.2596262837216
 20
38.46103270042648
 30
0.0
 10
167.6009774018213
 20
38.47651924757118
 30
0.0
 10
168.2773937132858
 20
38.53764296902916
 30
0.0
 10
168.6134664823267
 20
38.58316469632418
 30
0.0
 10
169.6159845433877
 20
38.75966406006935
 30
0.0
 10
170.2767424134792
 20
38.93048603642318
 30
0.0
 10
170.9321072819386
 20
39.1390897340617
 30
0.0
  0
SPLINE
  5
188
330
1F
100
AcDbEntity
  8
0
  6
Continuous
 62
     7
370
    25
100
AcDbSpline
210
0.0
220
0.0
230
1.0
 70
     8
 71
     3
 72
    10
 73
     6
 74
     0
 42
0.00000001
 43
0.00000001
 40
0.0
 40
0.0
 40
0.0
 40
0.0
 40
0.5
 40
0.5
 40
1.0
 40
1.0
 40
1.0
 40
1.0
 10
171.1821072819386
 20
39.13908973406185
 30
0.0
 10
171.1821072819386
 20
39.1627636346178
 30
0.0
 10
171.1593167102911
 20
39.17585619179694
 30
0.0
 10
171.0713707129923
 20
39.17594260577923
 30
0.0
 10
171.0065099202595
 20
39.1627722141806
 30
0.0
 10
170.9321072819386
 20
39.13908973406185
 30
0.0
  0
SPLINE
  5
189
330
1F
100
AcDbEntity
  8
0
  6
Continuous
 62
     7
370
    25
100
AcDbSpline
210
0.0
220
0.0
230
1.0
 70
    24
 71
     3
 72
    12
 73
     8
 74
     0
 42
0.00000001
 43
0.00000001
 40
0.0
 40
0.0
 40
0.0
 40
0.0
 40
0.0617571580340976
 40
0.2943286854734785
 40
0.5269295588271141
 40
0.7634445546488585
 40
1.0
 40
1.0
 40
1.0
 40
1.0
 10
154.1821072819385
 20
38.47091896660552
 30
0.0
 10
154.1821072819385
 20
38.46795366250146
 30
0.0
 10
154.1821072819385
 20
38.4538213078602
 30
0.0
 10
154.1821072819385
 20
38.51743019854229
 30
0.0
 10
154.1821072819385
 20
38.65086750921629
 30
0.0
 10
154.1821072819385
 20
38.85921589909633
 30
0.0
 10
154.1821072819385
 20
39.04579313802489
 30
0.0
 10
154.1821072819385
 20
39.13908973406185
 30
0.0
  0
SPLINE
  5
18A
330
1F
100
AcDbEntity
  8
0
  6
Continuous
 62
     7
370
    25
100
AcDbSpline
210
0.0
220
0.0
230
1.0
 70
    24
 71
     3
 72
    12
 73
     8
 74
     0
 42
0.00000001
 43
0.00000001
 40
0.0
 40
0.0
 40
0.0
 40
0.0
 40
0.2328642324708655
 40
0.4656905567186608
 40
0.7019919530700085
 40
0.9382618479897168
 40
1.0
 40
1.0
 40
1.0
 40
1.0
 10
171.1821072819386
 20
39.13908973406185
 30
0.0
 10
171.1821072819386
 20
39.04717527416326
 30
0.0
 10
171.1821072819386
 20
38.86336131722152
 30
0.0
 10
171.1821072819386
 20
38.65464687752094
 30
0.0
 10
171.1821072819386
 20
38.5186359604049
 30
0.0
 10
171.1821072819386
 20
38.453977841828
 30
0.0
 10
171.1821072819386
 20
38.46779290469505
 30
0.0
 10
171.1821072819386
 20
38.4706549631532
 30
0.0
  0
LINE
  5
18B
330
1F
100
AcDbEntity
  8
0
  6
Continuous
 62
     7
370
    25
100
AcDbLine
 10
162.4321072819
 20
39.1390897341
 30
0.0
 11
162.4321072819
 21
40.7860964333
 31
0.0
  0
LINE
  5
18C
330
1F
100
AcDbEntity
  8
0
  6
Continuous
 62
     7
370
    25
100
AcDbLine
 10
162.9321072819
 20
40.7860964333
 30
0.0
 11
162.9321072819
 21
39.1390897341
 31
0.0
  0
SPLINE
  5
18D
330
1F
100
AcDbEntity
  8
0
  6
Continuous
 62
     7
370
    25
100
AcDbSpline
210
0.0
220
0.0
230
1.0
 70
     8
 71
     3
 72
    10
 73
     6
 74
     0
 42
0.00000001
 43
0.00000001
 40
0.0
 40
0.0
 40
0.0
 40
0.0
 40
0.5
 40
0.5
 40
1.0
 40
1.0
 40
1.0
 40
1.0
 10
154.432107281939
 20
42.49031690240147
 30
0.0
 10
155.0669349877527
 20
42.69238358795239
 30
0.0
 10
155.7062006903284
 20
42.85877636022303
 30
0.0
 10
156.9970156219183
 20
43.09282333409309
 30
0.0
 10
157.6486352573882
 20
43.15991158805191
 30
0.0
 10
158.3076771892083
 20
43.1673372576217
 30
0.0
  0
LINE
  5
18E
330
1F
100
AcDbEntity
  8
0
  6
Continuous
 62
     7
370
    25
100
AcDbLine
 10
154.4321072819
 20
42.4903169024
 30
0.0
 11
154.4321072819
 21
39.1390897341
 31
0.0
  0
SPLINE
  5
18F
330
1F
100
AcDbEntity
  8
0
  6
Continuous
 62
     7
370
    25
100
AcDbSpline
210
0.0
220
0.0
230
1.0
 70
     8
 71
     3
 72
    12
 73
     8
 74
     0
 42
0.00000001
 43
0.00000001
 40
0.0
 40
0.0
 40
0.0
 40
0.0
 40
0.2499999999999999
 40
0.2499999999999999
 40
0.4999999999999998
 40
0.4999999999999998
 40
1.0
 40
1.0
 40
1.0
 40
1.0
 10
167.0565373746909
 20
43.16733725762145
 30
0.0
 10
167.3856723650841
 20
43.16362877176502
 30
0.0
 10
167.7151345180208
 20
43.14504626892735
 30
0.0
 10
168.3680081360785
 20
43.0801792319612
 30
0.0
 10
168.6924607279555
 20
43.03391367871093
 30
0.0
 10
169.6605211691476
 20
42.85818914840397
 30
0.0
 10
170.2988436533956
 20
42.69188573962721
 30
0.0
 10
170.9321072819386
 20
42.49031690240131
 30
0.0
  0
LINE
  5
190
330
1F
100
AcDbEntity
  8
0
  6
Continuous
 62
     7
370
    25
100
AcDbLine
 10
170.9321072819
 20
39.1390897341
 30
0.0
 11
170.9321072819
 21
42.4903169024
 31
0.0
  0
LINE
  5
191
330
1F
100
AcDbEntity
  8
0
  6
Continuous
 62
     7
370
    25
100
AcDbLine
 10
162.6821072819
 20
29.0306228759
 30
0.0
 11
154.4847351121
 21
29.0306228759
 31
0.0
  0
LINE
  5
192
330
1F
100
AcDbEntity
  8
0
  6
Continuous
 62
     7
370
    25
100
AcDbLine
 10
170.8794794517
 20
29.0306228759
 30
0.0
 11
162.6821072819
 21
29.0306228759
 31
0.0
  0
LINE
  5
193
330
1F
100
AcDbEntity
  8
0
  6
Continuous
 62
     7
370
    25
100
AcDbLine
 10
169.6821072819
 20
26.9567134423
 30
0.0
 11
155.6821072819
 21
26.9567134423
 31
0.0
  0
SPLINE
  5
194
330
1F
100
AcDbEntity
  8
0
  6
Continuous
 62
     7
370
    25
100
AcDbSpline
210
0.0
220
0.0
230
1.0
 70
     8
 71
     3
 72
     8
 73
     4
 74
     0
 42
0.00000001
 43
0.00000001
 40
0.0
 40
0.0
 40
0.0
 40
0.0
 40
1.0
 40
1.0
 40
1.0
 40
1.0
 10
154.1821072819385
 20
42.65180223068233
 30
0.0
 10
154.7039134332404
 20
42.92439236635168
 30
0.0
 10
155.2275669020966
 20
43.19354486747308
 30
0.0
 10
155.753904051663
 20
43.45671344225632
 30
0.0
  0
SPLINE
  5
195
330
1F
100
AcDbEntity
  8
0
  6
Continuous
 62
     7
370
    25
100
AcDbSpline
210
0.0
220
0.0
230
1.0
 70
     8
 71
     3
 72
    10
 73
     6
 74
     0
 42
0.00000001
 43
0.00000001
 40
0.0
 40
0.0
 40
0.0
 40
0.0
 40
0.5
 40
0.5
 40
1.0
 40
1.0
 40
1.0
 40
1.0
 10
154.1821072819385
 20
42.49031690240129
 30
0.0
 10
154.1821072819385
 20
42.46664150797688
 30
0.0
 10
154.2048997312684
 20
42.45355039809225
 30
0.0
 10
154.2928424353616
 20
42.45346407680403
 30
0.0
 10
154.3577002090358
 20
42.46663301074798
 30
0.0
 10
154.4321072819392
 20
42.49031690240153
 30
0.0
  0
SPLINE
  5
196
330
1F
100
AcDbEntity
  8
0
  6
Continuous
 62
     7
370
    25
100
AcDbSpline
210
0.0
220
0.0
230
1.0
 70
    24
 71
     3
 72
     8
 73
     4
 74
     0
 42
0.00000001
 43
0.00000001
 40
0.0
 40
0.0
 40
0.0
 40
0.0
 40
1.0
 40
1.0
 40
1.0
 40
1.0
 10
154.1821072819385
 20
42.65180223068233
 30
0.0
 10
154.1821072819385
 20
42.60090744098151
 30
0.0
 10
154.1821072819385
 20
42.54697359162007
 30
0.0
 10
154.1821072819385
 20
42.49031690240131
 30
0.0
  0
SPLINE
  5
197
330
1F
100
AcDbEntity
  8
0
  6
Continuous
 62
     7
370
    25
100
AcDbSpline
210
0.0
220
0.0
230
1.0
 70
     8
 71
     3
 72
     8
 73
     4
 74
     0
 42
0.00000001
 43
0.00000001
 40
0.0
 40
0.0
 40
0.0
 40
0.0
 40
1.0
 40
1.0
 40
1.0
 40
1.0
 10
169.6103105122141
 20
43.45671344225631
 30
0.0
 10
170.1367313734233
 20
43.19350301165171
 30
0.0
 10
170.660275830137
 20
42.92440558326501
 30
0.0
 10
171.1821072819386
 20
42.65180223068235
 30
0.0
  0
SPLINE
  5
198
330
1F
100
AcDbEntity
  8
0
  6
Continuous
 62
     7
370
    25
100
AcDbSpline
210
0.0
220
0.0
230
1.0
 70
     8
 71
     3
 72
    10
 73
     6
 74
     0
 42
0.00000001
 43
0.00000001
 40
0.0
 40
0.0
 40
0.0
 40
0.0
 40
0.5
 40
0.5
 40
1.0
 40
1.0
 40
1.0
 40
1.0
 10
170.9321072819386
 20
42.49031690240131
 30
0.0
 10
171.0064876593159
 20
42.46664150797692
 30
0.0
 10
171.0707882981017
 20
42.45355039809229
 30
0.0
 10
171.1590039828846
 20
42.453464076804
 30
0.0
 10
171.1821072819386
 20
42.46663301074784
 30
0.0
 10
171.1821072819386
 20
42.4903169024013
 30
0.0
  0
SPLINE
  5
199
330
1F
100
AcDbEntity
  8
0
  6
Continuous
 62
     7
370
    25
100
AcDbSpline
210
0.0
220
0.0
230
1.0
 70
    24
 71
     3
 72
     8
 73
     4
 74
     0
 42
0.00000001
 43
0.00000001
 40
0.0
 40
0.0
 40
0.0
 40
0.0
 40
1.0
 40
1.0
 40
1.0
 40
1.0
 10
171.1821072819386
 20
42.65180223068233
 30
0.0
 10
171.1821072819386
 20
42.60090744098151
 30
0.0
 10
171.1821072819386
 20
42.54697359162007
 30
0.0
 10
171.1821072819386
 20
42.49031690240131
 30
0.0
  0
LINE
  5
19A
330
1F
100
AcDbEntity
  8
0
  6
Continuous
 62
     7
370
    25
100
AcDbLine
 10
155.1821072819
 20
43.4567134423
 30
0.0
 11
157.8064629349
 21
43.4567134423
 31
0.0
  0
LINE
  5
19B
330
1F
100
AcDbEntity
  8
0
  6
Continuous
 62
     7
370
    25
100
AcDbLine
 10
155.1821072819
 20
43.4567134423
 30
0.0
 11
155.1821072819
 21
44.971885885
 31
0.0
  0
LINE
  5
19C
330
1F
100
AcDbEntity
  8
0
  6
Continuous
 62
     7
370
    25
100
AcDbLine
 10
170.1821072819
 20
44.971885885
 30
0.0
 11
170.1821072819
 21
43.4567134423
 31
0.0
  0
LINE
  5
19D
330
1F
100
AcDbEntity
  8
0
  6
Continuous
 62
     7
370
    25
100
AcDbLine
 10
167.557751629
 20
43.4567134423
 30
0.0
 11
170.1821072819
 21
43.4567134423
 31
0.0
  0
LINE
  5
19E
330
1F
100
AcDbEntity
  8
0
  6
Continuous
 62
     7
370
    25
100
AcDbLine
 10
154.1821072819
 20
39.1390897341
 30
0.0
 11
154.1821072819
 21
42.4903169024
 31
0.0
  0
LINE
  5
19F
330
1F
100
AcDbEntity
  8
0
  6
Continuous
 62
     7
370
    25
100
AcDbLine
 10
171.1821072819
 20
42.4903169024
 30
0.0
 11
171.1821072819
 21
39.1390897341
 31
0.0
  0
LINE
  5
1A0
330
1F
100
AcDbEntity
  8
0
  6
Continuous
 62
     7
370
    25
100
AcDbLine
 10
154.1821072819
 20
42.6518022307
 30
0.0
 11
154.1821072819
 21
45.8117889734
 31
0.0
  0
LINE
  5
1A1
330
1F
100
AcDbEntity
  8
0
  6
Continuous
 62
     7
370
    25
100
AcDbLine
 10
171.1821072819
 20
42.6518022307
 30
0.0
 11
171.1821072819
 21
45.8117889734
 31
0.0
  0
LINE
  5
1A2
330
1F
100
AcDbEntity
  8
0
  6
Continuous
 62
     7
370
    25
100
AcDbLine
 10
163.9321072819
 20
76.9567134423
 30
0.0
 11
163.9321072819
 21
77.5567134423
 31
0.0
  0
LINE
  5
1A3
330
1F
100
AcDbEntity
  8
0
  6
Continuous
 62
     7
370
    25
100
AcDbLine
 10
163.9321072819
 20
77.5567134423
 30
0.0
 11
164.1821072819
 21
77.5567134423
 31
0.0
  0
LINE
  5
1A4
330
1F
100
AcDbEntity
  8
0
  6
Continuous
 62
     7
370
    25
100
AcDbLine
 10
164.1821072819
 20
77.5567134423
 30
0.0
 11
164.1821072819
 21
76.9567134423
 31
0.0
  0
LINE
  5
1A5
330
1F
100
AcDbEntity
  8
0
  6
Continuous
 62
     7
370
    25
100
AcDbLine
 10
164.1821072819
 20
76.9567134423
 30
0.0
 11
163.9321072819
 21
76.9567134423
 31
0.0
  0
LINE
  5
1A6
330
1F
100
AcDbEntity
  8
0
  6
Continuous
 62
     7
370
    25
100
AcDbLine
 10
163.9321072819
 20
77.5567134423
 30
0.0
 11
163.9321072819
 21
77.8067134423
 31
0.0
  0
ARC
  5
1A7
330
1F
100
AcDbEntity
  8
0
  6
Continuous
 62
     7
370
    25
100
AcDbCircle
 10
163.9321072819
 20
77.5567134423
 30
0.0
 40
0.25
100
AcDbArc
 50
0.0
 51
90.0
  0
LINE
  5
1A8
330
1F
100
AcDbEntity
  8
0
  6
Continuous
 62
     7
370
    25
100
AcDbLine
 10
161.4321072819
 20
76.9567134423
 30
0.0
 11
163.9321072819
 21
76.9567134423
 31
0.0
  0
LINE
  5
1A9
330
1F
100
AcDbEntity
  8
0
  6
Continuous
 62
     7
370
    25
100
AcDbLine
 10
161.4321072819
 20
77.5567134423
 30
0.0
 11
161.4321072819
 21
76.9567134423
 31
0.0
  0
LINE
  5
1AA
330
1F
100
AcDbEntity
  8
0
  6
Continuous
 62
     7
370
    25
100
AcDbLine
 10
163.9321072819
 20
77.5567134423
 30
0.0
 11
161.4321072819
 21
77.5567134423
 31
0.0
  0
LINE
  5
1AB
330
1F
100
AcDbEntity
  8
0
  6
Continuous
 62
     7
370
    25
100
AcDbLine
 10
161.4321072819
 20
77.8067134423
 30
0.0
 11
161.4321072819
 21
77.5567134423
 31
0.0
  0
LINE
  5
1AC
330
1F
100
AcDbEntity
  8
0
  6
Continuous
 62
     7
370
    25
100
AcDbLine
 10
161.4321072819
 20
77.8067134423
 30
0.0
 11
163.9321072819
 21
77.8067134423
 31
0.0
  0
LINE
  5
1AD
330
1F
100
AcDbEntity
  8
0
  6
Continuous
 62
     7
370
    25
100
AcDbLine
 10
161.1821072819
 20
77.5567134423
 30
0.0
 11
161.4321072819
 21
77.5567134423
 31
0.0
  0
ARC
  5
1AE
330
1F
100
AcDbEntity
  8
0
  6
Continuous
 62
     7
370
    25
100
AcDbCircle
 10
161.4321072819
 20
77.5567134423
 30
0.0
 40
0.25
100
AcDbArc
 50
90.0
 51
180.0
  0
LINE
  5
1AF
330
1F
100
AcDbEntity
  8
0
  6
Continuous
 62
     7
370
    25
100
AcDbLine
 10
161.1821072819
 20
76.9567134423
 30
0.0
 11
161.1821072819
 21
77.5567134423
 31
0.0
  0
LINE
  5
1B0
330
1F
100
AcDbEntity
  8
0
  6
Continuous
 62
     7
370
    25
100
AcDbLine
 10
161.4321072819
 20
76.9567134423
 30
0.0
 11
161.1821072819
 21
76.9567134423
 31
0.0
  0
SPLINE
  5
1B1
330
1F
100
AcDbEntity
  8
0
  6
Continuous
 62
     7
370
    25
100
AcDbSpline
210
0.0
220
0.0
230
1.0
 70
     8
 71
     3
 72
    15
 73
    11
 74
     0
 42
0.00000001
 43
0.00000001
 40
0.0
 40
0.0
 40
0.0
 40
0.0
 40
0.0090459071881971
 40
0.1032433785236875
 40
0.1542564497735248
 40
0.313316902671511
 40
0.5243720399414434
 40
0.6678060008509189
 40
0.9918332554187028
 40
1.0
 40
1.0
 40
1.0
 40
1.0
 10
161.0081942384603
 20
77.55671344225631
 30
0.0
 10
161.0082118841847
 20
77.55839454084074
 30
0.0
 10
161.0084132795973
 20
77.57758137239625
 30
0.0
 10
161.0146029002635
 20
77.60627565191625
 30
0.0
 10
161.0388048321076
 20
77.65695169188815
 30
0.0
 10
161.0918238241093
 20
77.71482799146507
 30
0.0
 10
161.1731947113059
 20
77.75969350619977
 30
0.0
 10
161.2877737833284
 20
77.79705588945428
 30
0.0
 10
161.3721989610475
 20
77.80660190172385
 30
0.0
 10
161.4306698189995
 20
77.80671076591054
 30
0.0
 10
161.4321072819386
 20
77.80671344225631
 30
0.0
  0
LINE
  5
1B2
330
1F
100
AcDbEntity
  8
0
  6
Continuous
 62
     7
370
    25
100
AcDbLine
 10
161.0081942385
 20
77.5567134423
 30
0.0
 11
161.1821072819
 21
77.5567134423
 31
0.0
  0
LINE
  5
1B3
330
1F
100
AcDbEntity
  8
0
  6
Continuous
 62
     7
370
    25
100
AcDbLine
 10
164.1821072819
 20
77.5567134423
 30
0.0
 11
164.3560203254
 21
77.5567134423
 31
0.0
  0
SPLINE
  5
1B4
330
1F
100
AcDbEntity
  8
0
  6
Continuous
 62
     7
370
    25
100
AcDbSpline
210
0.0
220
0.0
230
1.0
 70
     8
 71
     3
 72
    15
 73
    11
 74
     0
 42
0.00000001
 43
0.00000001
 40
0.0
 40
0.0
 40
0.0
 40
0.0
 40
0.0081667445812695
 40
0.3321939991490077
 40
0.4756279600585576
 40
0.68668309732849
 40
0.8457435502264807
 40
0.8967566214763126
 40
0.9909540928118029
 40
1.0
 40
1.0
 40
1.0
 40
1.0
 10
163.9321072819386
 20
77.80671344225631
 30
0.0
 10
163.9335447448776
 20
77.80671076591054
 30
0.0
 10
163.9920156028293
 20
77.8066019017238
 30
0.0
 10
164.0764407805488
 20
77.7970558894543
 30
0.0
 10
164.1910198525712
 20
77.75969350619975
 30
0.0
 10
164.2723907397678
 20
77.71482799146507
 30
0.0
 10
164.3254097317695
 20
77.65695169188815
 30
0.0
 10
164.3496116636136
 20
77.60627565191625
 30
0.0
 10
164.3558012842798
 20
77.57758137239622
 30
0.0
 10
164.3560026796924
 20
77.55839454084074
 30
0.0
 10
164.3560203254168
 20
77.55671344225631
 30
0.0
  0
LINE
  5
1B5
330
1F
100
AcDbEntity
  8
0
  6
Continuous
 62
     7
370
    25
100
AcDbLine
 10
161.0081942385
 20
76.9567134423
 30
0.0
 11
161.0081942385
 21
77.5567134423
 31
0.0
  0
LINE
  5
1B6
330
1F
100
AcDbEntity
  8
0
  6
Continuous
 62
     7
370
    25
100
AcDbLine
 10
161.1821072819
 20
76.9567134423
 30
0.0
 11
161.0081942385
 21
76.9567134423
 31
0.0
  0
LINE
  5
1B7
330
1F
100
AcDbEntity
  8
0
  6
Continuous
 62
     7
370
    25
100
AcDbLine
 10
164.3560203254
 20
77.5567134423
 30
0.0
 11
164.3560203254
 21
76.9567134423
 31
0.0
  0
LINE
  5
1B8
330
1F
100
AcDbEntity
  8
0
  6
Continuous
 62
     7
370
    25
100
AcDbLine
 10
164.3560203254
 20
76.9567134423
 30
0.0
 11
164.1821072819
 21
76.9567134423
 31
0.0
  0
LINE
  5
1B9
330
1F
100
AcDbEntity
  8
0
  6
Continuous
 62
     7
370
    25
100
AcDbLine
 10
157.4321072819
 20
77.8067134423
 30
0.0
 11
161.4321072819
 21
77.8067134423
 31
0.0
  0
LINE
  5
1BA
330
1F
100
AcDbEntity
  8
0
  6
Continuous
 62
     7
370
    25
100
AcDbLine
 10
163.9321072819
 20
77.8067134423
 30
0.0
 11
167.9321072819
 21
77.8067134423
 31
0.0
  0
LINE
  5
1BB
330
1F
100
AcDbEntity
  8
0
  6
Continuous
 62
     7
370
    25
100
AcDbLine
 10
157.1821072819
 20
76.9567134423
 30
0.0
 11
161.0081942385
 21
76.9567134423
 31
0.0
  0
LINE
  5
1BC
330
1F
100
AcDbEntity
  8
0
  6
Continuous
 62
     7
370
    25
100
AcDbLine
 10
164.3560203254
 20
76.9567134423
 30
0.0
 11
168.1821072819
 21
76.9567134423
 31
0.0
  0
LINE
  5
1BD
330
1F
100
AcDbEntity
  8
0
  6
Continuous
 62
     7
370
    25
100
AcDbLine
 10
162.0821072819
 20
77.8067134423
 30
0.0
 11
162.0821072819
 21
77.8167134423
 31
0.0
  0
LINE
  5
1BE
330
1F
100
AcDbEntity
  8
0
  6
Continuous
 62
     7
370
    25
100
AcDbLine
 10
163.2821072819
 20
77.8067134423
 30
0.0
 11
163.2821072819
 21
77.8167134423
 31
0.0
  0
LINE
  5
1BF
330
1F
100
AcDbEntity
  8
0
  6
Continuous
 62
     7
370
    25
100
AcDbLine
 10
162.0821072819
 20
77.8167134423
 30
0.0
 11
163.2821072819
 21
77.8167134423
 31
0.0
  0
LINE
  5
1C0
330
1F
100
AcDbEntity
  8
0
  6
Continuous
 62
     7
370
    25
100
AcDbLine
 10
155.2321072819
 20
68.9567134422
 30
0.0
 11
170.1321072819
 21
68.9567134422
 31
0.0
  0
LINE
  5
1C1
330
1F
100
AcDbEntity
  8
0
  6
Continuous
 62
     7
370
    25
100
AcDbLine
 10
155.6821072819
 20
60.9567134423
 30
0.0
 11
169.6821072819
 21
60.9567134423
 31
0.0
  0
LINE
  5
1C2
330
1F
100
AcDbEntity
  8
0
  6
Continuous
 62
     7
370
    25
100
AcDbLine
 10
159.1821072819
 20
78.9567134423
 30
0.0
 11
159.1821072819
 21
77.8067134423
 31
0.0
  0
LINE
  5
1C3
330
1F
100
AcDbEntity
  8
0
  6
Continuous
 62
     7
370
    25
100
AcDbLine
 10
159.1821072819
 20
78.9567134423
 30
0.0
 11
159.4104080179
 21
78.9567134423
 31
0.0
  0
LINE
  5
1C4
330
1F
100
AcDbEntity
  8
0
  6
Continuous
 62
     7
370
    25
100
AcDbLine
 10
159.4104080179
 20
78.9567134423
 30
0.0
 11
159.4104080179
 21
77.8067134423
 31
0.0
  0
LINE
  5
1C5
330
1F
100
AcDbEntity
  8
0
  6
Continuous
 62
     7
370
    25
100
AcDbLine
 10
165.953806546
 20
78.9567134423
 30
0.0
 11
165.953806546
 21
77.8067134423
 31
0.0
  0
LINE
  5
1C6
330
1F
100
AcDbEntity
  8
0
  6
Continuous
 62
     7
370
    25
100
AcDbLine
 10
165.953806546
 20
78.9567134423
 30
0.0
 11
166.1821072819
 21
78.9567134423
 31
0.0
  0
LINE
  5
1C7
330
1F
100
AcDbEntity
  8
0
  6
Continuous
 62
     7
370
    25
100
AcDbLine
 10
166.1821072819
 20
77.8067134423
 30
0.0
 11
166.1821072819
 21
78.9567134423
 31
0.0
  0
LINE
  5
1C8
330
1F
100
AcDbEntity
  8
0
  6
Continuous
 62
     7
370
    25
100
AcDbLine
 10
159.4104080179
 20
78.9567134423
 30
0.0
 11
165.953806546
 21
78.9567134423
 31
0.0
  0
SPLINE
  5
1C9
330
1F
100
AcDbEntity
  8
0
  6
Continuous
 62
     7
370
    25
100
AcDbSpline
210
0.0
220
0.0
230
1.0
 70
     8
 71
     3
 72
    19
 73
    15
 74
     0
 42
0.00000001
 43
0.00000001
 40
0.0
 40
0.0
 40
0.0
 40
0.0
 40
0.0167604845610224
 40
0.0954783595939646
 40
0.174300879184884
 40
0.2799215400623503
 40
0.3857378374597314
 40
0.498822456106517
 40
0.6118885596686282
 40
0.7070693935820876
 40
0.8021760253566886
 40
0.892754285319542
 40
0.983257898861331
 40
1.0
 40
1.0
 40
1.0
 40
1.0
 10
156.7897484338003
 20
56.99611418060728
 30
0.0
 10
156.7872250609344
 20
56.99298219570243
 30
0.0
 10
156.7728503272562
 20
56.97514042150438
 30
0.0
 10
156.8362957037332
 20
57.05420346032068
 30
0.0
 10
156.991399394835
 20
57.2386855785444
 30
0.0
 10
157.2796977153783
 20
57.55866550135916
 30
0.0
 10
157.7121314006163
 20
57.9831134780166
 30
0.0
 10
158.2665642227662
 20
58.44577814026151
 30
0.0
 10
158.9094597595678
 20
58.88625811316961
 30
0.0
 10
159.608896688602
 20
59.26431905179214
 30
0.0
 10
160.3308970076285
 20
59.56754258049817
 30
0.0
 10
161.1086163971466
 20
59.78594169898344
 30
0.0
 10
161.6966648698513
 20
59.90734145869495
 30
0.0
 10
162.0262550483668
 20
59.92064128604576
 30
0.0
 10
162.0777072869897
 20
59.92271751869801
 30
0.0
  0
SPLINE
  5
1CA
330
1F
100
AcDbEntity
  8
0
  6
Continuous
 62
     7
370
    25
100
AcDbSpline
210
0.0
220
0.0
230
1.0
 70
     8
 71
     3
 72
    20
 73
    16
 74
     0
 42
0.00000001
 43
0.00000001
 40
0.0
 40
0.0
 40
0.0
 40
0.0
 40
0.0313497729836357
 40
0.0973831518676498
 40
0.1973826870041847
 40
0.2974944717802789
 40
0.4180651843766626
 40
0.5387323261985631
 40
0.6171130452890259
 40
0.6956751881705973
 40
0.7739408396511653
 40
0.8504646961766029
 40
0.9268878573192578
 40
0.9967449743883793
 40
1.0
 40
1.0
 40
1.0
 40
1.0
 10
163.2943044918796
 20
59.91821579452335
 30
0.0
 10
163.3901764031112
 20
59.91299576269032
 30
0.0
 10
163.6879874557203
 20
59.89678055267861
 30
0.0
 10
164.2708734019266
 20
59.78240768452643
 30
0.0
 10
165.0201143402862
 20
59.57313769838794
 30
0.0
 10
165.8405935605115
 20
59.22880506602451
 30
0.0
 10
166.6076754683138
 20
58.79325402332014
 30
0.0
 10
167.2147008760552
 20
58.35185383121322
 30
0.0
 10
167.6599326648686
 20
57.96947479325497
 30
0.0
 10
167.9817241289971
 20
57.66073888217434
 30
0.0
 10
168.241422171245
 20
57.38674718373434
 30
0.0
 10
168.4365158000664
 20
57.16369317552301
 30
0.0
 10
168.5475913677256
 20
57.02926057264873
 30
0.0
 10
168.5915742945225
 20
56.97535716415113
 30
0.0
 10
168.5806507018299
 20
56.9886888613278
 30
0.0
 10
168.5801643725735
 20
56.98928240180091
 30
0.0
  0
LINE
  5
1CB
330
1F
100
AcDbEntity
  8
0
  6
Continuous
 62
     7
370
    25
100
AcDbLine
 10
161.0081942385
 20
77.5567134423
 30
0.0
 11
157.1821072819
 21
77.5567134423
 31
0.0
  0
LINE
  5
1CC
330
1F
100
AcDbEntity
  8
0
  6
Continuous
 62
     7
370
    25
100
AcDbLine
 10
168.1821072819
 20
77.5567134423
 30
0.0
 11
164.3560203254
 21
77.5567134423
 31
0.0
  0
INSERT
  5
1D8
330
1F
100
AcDbEntity
  8
FORMAT
100
AcDbBlockReference
  2
SW_CENTERMARKSYMBOL_0
 10
162.6821072819
 20
50.4567134423
 30
0.0
  0
ARC
  5
1D9
330
1F
100
AcDbEntity
  8
FORMAT
100
AcDbCircle
 10
162.6821072819
 20
50.4567134423
 30
0.0
 40
6.999999999999998
100
AcDbArc
 50
75.0
 51
345.0
  0
LINE
  5
1DA
330
1F
100
AcDbEntity
  8
FORMAT
100
AcDbLine
 10
155.2484442517
 20
27.707839844
 30
0.0
 11
154.9281669517
 21
37.9567134423
 31
0.0
  0
LINE
  5
1DB
330
1F
100
AcDbEntity
  8
FORMAT
100
AcDbLine
 10
170.1157703122
 20
27.707839844
 30
0.0
 11
170.4360476121
 21
37.9567134423
 31
0.0
  0
LINE
  5
1DC
330
1F
100
AcDbEntity
  8
FORMAT
100
AcDbLine
 10
171.1584197819
 20
37.9567134423
 30
0.0
 11
154.2057947819
 21
37.9567134423
 31
0.0
  0
LINE
  5
1DD
330
1F
100
AcDbEntity
  8
0
  6
Continuous
 62
     7
370
    25
100
AcDbLine
 10
107.1424286728
 20
117.8600922029
 30
0.0
 11
104.3424286728
 21
117.8600922029
 31
0.0
  0
LINE
  5
1DE
330
1F
100
AcDbEntity
  8
0
  6
Continuous
 62
     7
370
    25
100
AcDbLine
 10
104.3424286728
 20
101.8600922029
 30
0.0
 11
107.1424286728
 21
101.8600922029
 31
0.0
  0
LINE
  5
1DF
330
1F
100
AcDbEntity
  8
0
  6
Continuous
 62
     7
370
    25
100
AcDbLine
 10
104.3424286728
 20
117.8600922029
 30
0.0
 11
104.1424286728
 21
117.6600922029
 31
0.0
  0
LINE
  5
1E0
330
1F
100
AcDbEntity
  8
0
  6
Continuous
 62
     7
370
    25
100
AcDbLine
 10
104.1424286728
 20
102.0600922029
 30
0.0
 11
104.3424286728
 21
101.8600922029
 31
0.0
  0
LINE
  5
1E1
330
1F
100
AcDbEntity
  8
0
  6
Continuous
 62
     7
370
    25
100
AcDbLine
 10
90.6424286728
 20
115.1100922029
 30
0.0
 11
86.1424286728
 21
114.3600922029
 31
0.0
  0
LINE
  5
1E2
330
1F
100
AcDbEntity
  8
0
  6
Continuous
 62
     7
370
    25
100
AcDbLine
 10
86.1424286728
 20
105.3600922029
 30
0.0
 11
90.6424286728
 21
104.6100922029
 31
0.0
  0
LINE
  5
1E3
330
1F
100
AcDbEntity
  8
0
  6
Continuous
 62
     7
370
    25
100
AcDbLine
 10
104.1424286728
 20
115.1100922029
 30
0.0
 11
99.6424286728
 21
115.1100922029
 31
0.0
  0
LINE
  5
1E4
330
1F
100
AcDbEntity
  8
0
  6
Continuous
 62
     7
370
    25
100
AcDbLine
 10
99.6424286728
 20
104.6100922029
 30
0.0
 11
104.1424286728
 21
104.6100922029
 31
0.0
  0
LINE
  5
1E5
330
1F
100
AcDbEntity
  8
0
  6
Continuous
 62
     7
370
    25
100
AcDbLine
 10
95.1424286728
 20
115.1100922029
 30
0.0
 11
90.6424286728
 21
114.3600922029
 31
0.0
  0
LINE
  5
1E6
330
1F
100
AcDbEntity
  8
0
  6
Continuous
 62
     7
370
    25
100
AcDbLine
 10
90.6424286728
 20
105.3600922029
 30
0.0
 11
95.1424286728
 21
104.6100922029
 31
0.0
  0
LINE
  5
1E7
330
1F
100
AcDbEntity
  8
0
  6
Continuous
 62
     7
370
    25
100
AcDbLine
 10
86.1424286728
 20
115.1100922029
 30
0.0
 11
81.6424286728
 21
114.3600922029
 31
0.0
  0
LINE
  5
1E8
330
1F
100
AcDbEntity
  8
0
  6
Continuous
 62
     7
370
    25
100
AcDbLine
 10
81.6424286728
 20
105.3600922029
 30
0.0
 11
86.1424286728
 21
104.6100922029
 31
0.0
  0
LINE
  5
1E9
330
1F
100
AcDbEntity
  8
0
  6
Continuous
 62
     7
370
    25
100
AcDbLine
 10
99.6424286728
 20
115.1100922029
 30
0.0
 11
95.1424286728
 21
114.3600922029
 31
0.0
  0
LINE
  5
1EA
330
1F
100
AcDbEntity
  8
0
  6
Continuous
 62
     7
370
    25
100
AcDbLine
 10
95.1424286728
 20
105.3600922029
 30
0.0
 11
99.6424286728
 21
104.6100922029
 31
0.0
  0
LINE
  5
1EB
330
1F
100
AcDbEntity
  8
0
  6
Continuous
 62
     7
370
    25
100
AcDbLine
 10
81.6424286728
 20
115.1100922029
 30
0.0
 11
77.6224286728
 21
114.4400922029
 31
0.0
  0
LINE
  5
1EC
330
1F
100
AcDbEntity
  8
0
  6
Continuous
 62
     7
370
    25
100
AcDbLine
 10
77.6224286728
 20
105.2800922029
 30
0.0
 11
81.6424286728
 21
104.6100922029
 31
0.0
  0
LINE
  5
1ED
330
1F
100
AcDbEntity
  8
0
  6
Continuous
 62
     7
370
    25
100
AcDbLine
 10
77.6224286728
 20
114.4400922029
 30
0.0
 11
77.1424286728
 21
113.9600922029
 31
0.0
  0
LINE
  5
1EE
330
1F
100
AcDbEntity
  8
0
  6
Continuous
 62
     7
370
    25
100
AcDbLine
 10
77.1424286728
 20
105.7600922029
 30
0.0
 11
77.6224286728
 21
105.2800922029
 31
0.0
  0
LINE
  5
1EF
330
1F
100
AcDbEntity
  8
0
  6
Continuous
 62
     7
370
    25
100
AcDbLine
 10
130.4980911055
 20
101.3600922029
 30
0.0
 11
130.6424286728
 21
101.6100922029
 31
0.0
  0
LINE
  5
1F0
330
1F
100
AcDbEntity
  8
0
  6
Continuous
 62
     7
370
    25
100
AcDbLine
 10
130.6424286728
 20
118.1100922029
 30
0.0
 11
130.4980911055
 21
118.3600922029
 31
0.0
  0
LINE
  5
1F1
330
1F
100
AcDbEntity
  8
0
  6
Continuous
 62
     7
370
    25
100
AcDbLine
 10
104.3424286728
 20
105.8812321048
 30
0.0
 11
104.3424286728
 21
101.8600922029
 31
0.0
  0
LINE
  5
1F2
330
1F
100
AcDbEntity
  8
0
  6
Continuous
 62
     7
370
    25
100
AcDbLine
 10
104.3424286728
 20
117.8600922029
 30
0.0
 11
104.3424286728
 21
113.838952301
 31
0.0
  0
LINE
  5
1F3
330
1F
100
AcDbEntity
  8
0
  6
Continuous
 62
     7
370
    25
100
AcDbLine
 10
104.1424286728
 20
113.8148548187
 30
0.0
 11
104.1424286728
 21
117.6600922029
 31
0.0
  0
LINE
  5
1F4
330
1F
100
AcDbEntity
  8
0
  6
Continuous
 62
     7
370
    25
100
AcDbLine
 10
104.1424286728
 20
102.0600922029
 30
0.0
 11
104.1424286728
 21
105.9053295871
 31
0.0
  0
LINE
  5
1F5
330
1F
100
AcDbEntity
  8
0
  6
Continuous
 62
     7
370
    25
100
AcDbLine
 10
90.6424286728
 20
106.3600922029
 30
0.0
 11
90.6424286728
 21
104.6100922029
 31
0.0
  0
LINE
  5
1F6
330
1F
100
AcDbEntity
  8
0
  6
Continuous
 62
     7
370
    25
100
AcDbLine
 10
90.6424286728
 20
115.1100922029
 30
0.0
 11
90.6424286728
 21
113.3600922029
 31
0.0
  0
LINE
  5
1F7
330
1F
100
AcDbEntity
  8
0
  6
Continuous
 62
     7
370
    25
100
AcDbLine
 10
99.6424286728
 20
106.2824812589
 30
0.0
 11
99.6424286728
 21
104.6100922029
 31
0.0
  0
LINE
  5
1F8
330
1F
100
AcDbEntity
  8
0
  6
Continuous
 62
     7
370
    25
100
AcDbLine
 10
99.6424286728
 20
115.1100922029
 30
0.0
 11
99.6424286728
 21
113.4377031469
 31
0.0
  0
LINE
  5
1F9
330
1F
100
AcDbEntity
  8
0
  6
Continuous
 62
     7
370
    25
100
AcDbLine
 10
95.1424286728
 20
106.3600922029
 30
0.0
 11
95.1424286728
 21
104.6100922029
 31
0.0
  0
LINE
  5
1FA
330
1F
100
AcDbEntity
  8
0
  6
Continuous
 62
     7
370
    25
100
AcDbLine
 10
95.1424286728
 20
115.1100922029
 30
0.0
 11
95.1424286728
 21
113.3600922029
 31
0.0
  0
LINE
  5
1FB
330
1F
100
AcDbEntity
  8
0
  6
Continuous
 62
     7
370
    25
100
AcDbLine
 10
86.1424286728
 20
106.3600922029
 30
0.0
 11
86.1424286728
 21
104.6100922029
 31
0.0
  0
LINE
  5
1FC
330
1F
100
AcDbEntity
  8
0
  6
Continuous
 62
     7
370
    25
100
AcDbLine
 10
86.1424286728
 20
115.1100922029
 30
0.0
 11
86.1424286728
 21
113.3600922029
 31
0.0
  0
LINE
  5
1FD
330
1F
100
AcDbEntity
  8
0
  6
Continuous
 62
     7
370
    25
100
AcDbLine
 10
77.6224286728
 20
114.4400922029
 30
0.0
 11
77.6224286728
 21
105.2800922029
 31
0.0
  0
LINE
  5
1FE
330
1F
100
AcDbEntity
  8
0
  6
Continuous
 62
     7
370
    25
100
AcDbLine
 10
81.6424286728
 20
106.3600922029
 30
0.0
 11
81.6424286728
 21
104.6100922029
 31
0.0
  0
LINE
  5
1FF
330
1F
100
AcDbEntity
  8
0
  6
Continuous
 62
     7
370
    25
100
AcDbLine
 10
81.6424286728
 20
115.1100922029
 30
0.0
 11
81.6424286728
 21
113.3600922029
 31
0.0
  0
LINE
  5
200
330
1F
100
AcDbEntity
  8
0
  6
Continuous
 62
     7
370
    25
100
AcDbLine
 10
77.1424286728
 20
109.8600922029
 30
0.0
 11
77.1424286728
 21
113.9600922029
 31
0.0
  0
LINE
  5
201
330
1F
100
AcDbEntity
  8
0
  6
Continuous
 62
     7
370
    25
100
AcDbLine
 10
77.1424286728
 20
105.7600922029
 30
0.0
 11
77.1424286728
 21
109.8600922029
 31
0.0
  0
SPLINE
  5
202
330
1F
100
AcDbEntity
  8
0
  6
Continuous
 62
     7
370
    25
100
AcDbSpline
210
0.0
220
0.0
230
1.0
 70
    24
 71
     3
 72
    10
 73
     6
 74
     0
 42
0.00000001
 43
0.00000001
 40
0.0
 40
0.0
 40
0.0
 40
0.0
 40
0.3696338613306325
 40
0.7423134050662267
 40
1.0
 40
1.0
 40
1.0
 40
1.0
 10
129.8203697002889
 20
101.3600922029283
 30
0.0
 10
129.9615722542333
 20
101.3600922029283
 30
0.0
 10
130.245140832732
 20
101.3600922029283
 30
0.0
 10
130.4642742598931
 20
101.3600922029283
 30
0.0
 10
130.4866651794236
 20
101.3600922029283
 30
0.0
 10
130.4958183357518
 20
101.3600922029283
 30
0.0
  0
SPLINE
  5
203
330
1F
100
AcDbEntity
  8
0
  6
Continuous
 62
     7
370
    25
100
AcDbSpline
210
0.0
220
0.0
230
1.0
 70
     8
 71
     3
 72
    10
 73
     6
 74
     0
 42
0.00000001
 43
0.00000001
 40
0.0
 40
0.0
 40
0.0
 40
0.0
 40
0.5
 40
0.5
 40
1.0
 40
1.0
 40
1.0
 40
1.0
 10
129.8203697002889
 20
101.6100922029283
 30
0.0
 10
129.7966943058645
 20
101.535711825551
 30
0.0
 10
129.7836031959799
 20
101.4714111867652
 30
0.0
 10
129.7835168746916
 20
101.3831955019823
 30
0.0
 10
129.7966858086354
 20
101.3600922029283
 30
0.0
 10
129.8203697002889
 20
101.3600922029283
 30
0.0
  0
SPLINE
  5
204
330
1F
100
AcDbEntity
  8
0
  6
Continuous
 62
     7
370
    25
100
AcDbSpline
210
0.0
220
0.0
230
1.0
 70
     8
 71
     3
 72
    16
 73
    12
 74
     0
 42
0.00000001
 43
0.00000001
 40
0.0
 40
0.0
 40
0.0
 40
0.0
 40
0.2500000000000001
 40
0.2500000000000001
 40
0.5000000000000001
 40
0.5000000000000001
 40
0.6250000000000001
 40
0.6250000000000001
 40
0.7500000000000002
 40
0.7500000000000002
 40
1.0
 40
1.0
 40
1.0
 40
1.0
 10
129.8203697002889
 20
109.6100922029283
 30
0.0
 10
130.0283851483946
 20
108.9565754228875
 30
0.0
 10
130.1985914533676
 20
108.2983550137975
 30
0.0
 10
130.4335274849352
 20
106.9687924304317
 30
0.0
 10
130.4975996165988
 20
106.2973684483612
 30
0.0
 10
130.4983325655199
 20
105.2783673613545
 30
0.0
 10
130.4826730854369
 20
104.9370265790383
 30
0.0
 10
130.4213979587999
 20
104.2614280760678
 30
0.0
 10
130.3758416863008
 20
103.9257689261032
 30
0.0
 10
130.1993556535445
 20
102.9245032896035
 30
0.0
 10
130.0286992000588
 20
102.2645956310004
 30
0.0
 10
129.8203697002889
 20
101.6100922029283
 30
0.0
  0
SPLINE
  5
205
330
1F
100
AcDbEntity
  8
0
  6
Continuous
 62
     7
370
    25
100
AcDbSpline
210
0.0
220
0.0
230
1.0
 70
     8
 71
     3
 72
    10
 73
     6
 74
     0
 42
0.00000001
 43
0.00000001
 40
0.0
 40
0.0
 40
0.0
 40
0.0
 40
0.5
 40
0.5
 40
1.0
 40
1.0
 40
1.0
 40
1.0
 10
129.8203697002889
 20
110.1100922029283
 30
0.0
 10
129.7966943058645
 20
110.035711825551
 30
0.0
 10
129.7836031959799
 20
109.9486187374354
 30
0.0
 10
129.7835168746916
 20
109.7724603485594
 30
0.0
 10
129.7966858086354
 20
109.6844992758316
 30
0.0
 10
129.8203697002889
 20
109.6100922029283
 30
0.0
  0
SPLINE
  5
206
330
1F
100
AcDbEntity
  8
0
  6
Continuous
 62
     7
370
    25
100
AcDbSpline
210
0.0
220
0.0
230
1.0
 70
     8
 71
     3
 72
    16
 73
    12
 74
     0
 42
0.00000001
 43
0.00000001
 40
0.0
 40
0.0
 40
0.0
 40
0.0
 40
0.2499999999999997
 40
0.2499999999999997
 40
0.4999999999999993
 40
0.4999999999999993
 40
0.6249999999999993
 40
0.6249999999999993
 40
0.7499999999999996
 40
0.7499999999999996
 40
1.0
 40
1.0
 40
1.0
 40
1.0
 10
129.8203697002889
 20
118.1100922029283
 30
0.0
 10
130.0283851483946
 20
117.4565754228875
 30
0.0
 10
130.1985914533676
 20
116.7983550137975
 30
0.0
 10
130.4335274849352
 20
115.4687924304318
 30
0.0
 10
130.4975996165988
 20
114.7973684483612
 30
0.0
 10
130.4983325655199
 20
113.7783673613545
 30
0.0
 10
130.4826730854369
 20
113.4370265790383
 30
0.0
 10
130.4213979587999
 20
112.7614280760679
 30
0.0
 10
130.3758416863008
 20
112.4257689261032
 30
0.0
 10
130.1993556535445
 20
111.4245032896035
 30
0.0
 10
130.0286992000588
 20
110.7645956310004
 30
0.0
 10
129.8203697002889
 20
110.1100922029283
 30
0.0
  0
SPLINE
  5
207
330
1F
100
AcDbEntity
  8
0
  6
Continuous
 62
     7
370
    25
100
AcDbSpline
210
0.0
220
0.0
230
1.0
 70
     8
 71
     3
 72
    10
 73
     6
 74
     0
 42
0.00000001
 43
0.00000001
 40
0.0
 40
0.0
 40
0.0
 40
0.0
 40
0.5
 40
0.5
 40
1.0
 40
1.0
 40
1.0
 40
1.0
 10
129.8203697002889
 20
118.3600922029283
 30
0.0
 10
129.7966943058645
 20
118.3600922029283
 30
0.0
 10
129.7836031959799
 20
118.3372997535985
 30
0.0
 10
129.7835168746916
 20
118.2493570495055
 30
0.0
 10
129.7966858086354
 20
118.1844992758316
 30
0.0
 10
129.8203697002889
 20
118.1100922029283
 30
0.0
  0
SPLINE
  5
208
330
1F
100
AcDbEntity
  8
0
  6
Continuous
 62
     7
370
    25
100
AcDbSpline
210
0.0
220
0.0
230
1.0
 70
    24
 71
     3
 72
    10
 73
     6
 74
     0
 42
0.00000001
 43
0.00000001
 40
0.0
 40
0.0
 40
0.0
 40
0.0
 40
0.2576835082942232
 40
0.6270639467022707
 40
1.0
 40
1.0
 40
1.0
 40
1.0
 10
130.4944769421416
 20
118.3600922029283
 30
0.0
 10
130.4858741103681
 20
118.3600922029283
 30
0.0
 10
130.4649394153987
 20
118.3600922029283
 30
0.0
 10
130.2459751526702
 20
118.3600922029283
 30
0.0
 10
129.9626904852843
 20
118.3600922029283
 30
0.0
 10
129.8203697002889
 20
118.3600922029283
 30
0.0
  0
LINE
  5
209
330
1F
100
AcDbEntity
  8
0
  6
Continuous
 62
     7
370
    25
100
AcDbLine
 10
130.6424286728
 20
118.1100922029
 30
0.0
 11
130.6424286728
 21
101.6100922029
 31
0.0
  0
SPLINE
  5
20A
330
1F
100
AcDbEntity
  8
0
  6
Continuous
 62
     7
370
    25
100
AcDbSpline
210
0.0
220
0.0
230
1.0
 70
     8
 71
     3
 72
    12
 73
     8
 74
     0
 42
0.00000001
 43
0.00000001
 40
0.0
 40
0.0
 40
0.0
 40
0.0
 40
0.0360969705242388
 40
0.275096213440358
 40
0.5141251399211615
 40
0.7570426833258924
 40
1.0
 40
1.0
 40
1.0
 40
1.0
 10
124.6446406501655
 20
114.2717938817205
 30
0.0
 10
124.6451483794673
 20
114.3186342634445
 30
0.0
 10
124.649017801371
 20
114.6756063711101
 30
0.0
 10
124.6995570927992
 20
115.3421885369108
 30
0.0
 10
124.8380861561547
 20
116.2704241053167
 30
0.0
 10
125.043722696759
 20
117.1949258328762
 30
0.0
 10
125.2280025893299
 20
117.8050200989924
 30
0.0
 10
125.3201500781067
 20
118.1100922029283
 30
0.0
  0
LINE
  5
20B
330
1F
100
AcDbEntity
  8
0
  6
Continuous
 62
     7
370
    25
100
AcDbLine
 10
129.8203697003
 20
118.1100922029
 30
0.0
 11
125.3201500781
 21
118.1100922029
 31
0.0
  0
SPLINE
  5
20C
330
1F
100
AcDbEntity
  8
0
  6
Continuous
 62
     7
370
    25
100
AcDbSpline
210
0.0
220
0.0
230
1.0
 70
     8
 71
     3
 72
    12
 73
     8
 74
     0
 42
0.00000001
 43
0.00000001
 40
0.0
 40
0.0
 40
0.0
 40
0.0
 40
0.0895622510394323
 40
0.3155342113396383
 40
0.5415321646138823
 40
0.7707502589803313
 40
0.9999999999999999
 40
0.9999999999999999
 40
0.9999999999999999
 40
0.9999999999999999
 10
107.1457612603331
 20
114.258092953389
 30
0.0
 10
107.147553134012
 20
114.3747250290997
 30
0.0
 10
107.1538660330466
 20
114.7856281674105
 30
0.0
 10
107.2179916006313
 20
115.4894857665404
 30
0.0
 10
107.3581759460816
 20
116.3685408140817
 30
0.0
 10
107.5576978617811
 20
117.2436771710377
 30
0.0
 10
107.7326619802495
 20
117.8212739023775
 30
0.0
 10
107.8201500781067
 20
118.1100922029283
 30
0.0
  0
LINE
  5
20D
330
1F
100
AcDbEntity
  8
0
  6
Continuous
 62
     7
370
    25
100
AcDbLine
 10
111.9647072676
 20
118.1100922029
 30
0.0
 11
107.8201500781
 21
118.1100922029
 31
0.0
  0
SPLINE
  5
20E
330
1F
100
AcDbEntity
  8
0
  6
Continuous
 62
     7
370
    25
100
AcDbSpline
210
0.0
220
0.0
230
1.0
 70
     8
 71
     3
 72
    10
 73
     6
 74
     0
 42
0.00000001
 43
0.00000001
 40
0.0
 40
0.0
 40
0.0
 40
0.0
 40
0.3648550002341182
 40
0.7296378204174007
 40
1.0
 40
1.0
 40
1.0
 40
1.0
 10
111.9647072675863
 20
118.1100922029284
 30
0.0
 10
112.0617775305265
 20
117.7857851076428
 30
0.0
 10
112.2558988527876
 20
117.1372350754431
 30
0.0
 10
112.4582649779816
 20
116.2344623134939
 30
0.0
 10
112.528137743177
 20
115.6542278932245
 30
0.0
 10
112.5578804839664
 20
115.4072395006674
 30
0.0
  0
SPLINE
  5
20F
330
1F
100
AcDbEntity
  8
0
  6
Continuous
 62
     7
370
    25
100
AcDbSpline
210
0.0
220
0.0
230
1.0
 70
     8
 71
     3
 72
    10
 73
     6
 74
     0
 42
0.00000001
 43
0.00000001
 40
0.0
 40
0.0
 40
0.0
 40
0.0
 40
0.3125846795983332
 40
0.6562642042060761
 40
0.9999999999999999
 40
0.9999999999999999
 40
0.9999999999999999
 40
0.9999999999999999
 10
112.5636891232804
 20
104.309266314611
 30
0.0
 10
112.5254484780667
 20
104.024401573984
 30
0.0
 10
112.4451631402448
 20
103.4263347315714
 30
0.0
 10
112.24021908562
 20
102.52535082522
 30
0.0
 10
112.0565495519373
 20
101.9151950592889
 30
0.0
 10
111.9647072675863
 20
101.6100922029283
 30
0.0
  0
LINE
  5
210
330
1F
100
AcDbEntity
  8
0
  6
Continuous
 62
     7
370
    25
100
AcDbLine
 10
107.8201500781
 20
101.6100922029
 30
0.0
 11
111.9647072676
 21
101.6100922029
 31
0.0
  0
SPLINE
  5
211
330
1F
100
AcDbEntity
  8
0
  6
Continuous
 62
     7
370
    25
100
AcDbSpline
210
0.0
220
0.0
230
1.0
 70
     8
 71
     3
 72
    11
 73
     7
 74
     0
 42
0.00000001
 43
0.00000001
 40
0.0
 40
0.0
 40
0.0
 40
0.0
 40
0.2569038803871839
 40
0.5137569369261694
 40
0.7750870478597607
 40
1.0
 40
1.0
 40
1.0
 40
1.0
 10
107.8201500781067
 20
101.6100922029283
 30
0.0
 10
107.7223889035281
 20
101.9343461357248
 30
0.0
 10
107.5268858946747
 20
102.5827898534637
 30
0.0
 10
107.3145467958679
 20
103.5773449803805
 30
0.0
 10
107.1755273456093
 20
104.5403024810631
 30
0.0
 10
107.1574018948398
 20
105.1745207656359
 30
0.0
 10
107.1490179219854
 20
105.4678800287642
 30
0.0
  0
LINE
  5
212
330
1F
100
AcDbEntity
  8
0
  6
Continuous
 62
     7
370
    25
100
AcDbLine
 10
125.3201500781
 20
101.6100922029
 30
0.0
 11
129.8203697003
 21
101.6100922029
 31
0.0
  0
SPLINE
  5
213
330
1F
100
AcDbEntity
  8
0
  6
Continuous
 62
     7
370
    25
100
AcDbSpline
210
0.0
220
0.0
230
1.0
 70
     8
 71
     3
 72
    11
 73
     7
 74
     0
 42
0.00000001
 43
0.00000001
 40
0.0
 40
0.0
 40
0.0
 40
0.0
 40
0.2551148067322074
 40
0.5101791435525126
 40
0.7696893566471976
 40
1.0
 40
1.0
 40
1.0
 40
1.0
 10
125.3201500781067
 20
101.6100922029283
 30
0.0
 10
125.2223958753162
 20
101.9343465290503
 30
0.0
 10
125.0269068086597
 20
102.5827910333624
 30
0.0
 10
124.8144625518224
 20
103.5773402276064
 30
0.0
 10
124.6745221238764
 20
104.5494075013149
 30
0.0
 10
124.6563106595221
 20
105.1927826648629
 30
0.0
 10
124.6477477451084
 20
105.4952935642734
 30
0.0
  0
LINE
  5
214
330
1F
100
AcDbEntity
  8
0
  6
Continuous
 62
     7
370
    25
100
AcDbLine
 10
124.6424286728
 20
105.4439287096
 30
0.0
 11
124.6424286728
 21
102.3600922029
 31
0.0
  0
LINE
  5
215
330
1F
100
AcDbEntity
  8
0
  6
Continuous
 62
     7
370
    25
100
AcDbLine
 10
124.6424286728
 20
102.3600922029
 30
0.0
 11
112.6424286728
 21
102.3600922029
 31
0.0
  0
LINE
  5
216
330
1F
100
AcDbEntity
  8
0
  6
Continuous
 62
     7
370
    25
100
AcDbLine
 10
112.6424286728
 20
104.315276599
 30
0.0
 11
112.6424286728
 21
102.3600922029
 31
0.0
  0
LINE
  5
217
330
1F
100
AcDbEntity
  8
0
  6
Continuous
 62
     7
370
    25
100
AcDbLine
 10
112.6424286728
 20
117.3600922029
 30
0.0
 11
112.6424286728
 21
115.4049078069
 31
0.0
  0
LINE
  5
218
330
1F
100
AcDbEntity
  8
0
  6
Continuous
 62
     7
370
    25
100
AcDbLine
 10
112.6424286728
 20
117.3600922029
 30
0.0
 11
124.6424286728
 21
117.3600922029
 31
0.0
  0
LINE
  5
219
330
1F
100
AcDbEntity
  8
0
  6
Continuous
 62
     7
370
    25
100
AcDbLine
 10
124.6424286728
 20
117.3600922029
 30
0.0
 11
124.6424286728
 21
114.2762556963
 31
0.0
  0
SPLINE
  5
21A
330
1F
100
AcDbEntity
  8
0
  6
Continuous
 62
     7
370
    25
100
AcDbSpline
210
0.0
220
0.0
230
1.0
 70
     8
 71
     3
 72
     8
 73
     4
 74
     0
 42
0.00000001
 43
0.00000001
 40
0.0
 40
0.0
 40
0.0
 40
0.0
 40
1.0
 40
1.0
 40
1.0
 40
1.0
 10
112.1261925958673
 20
118.3600922029283
 30
0.0
 10
112.2998956720871
 20
118.0275807807928
 30
0.0
 10
112.4721978911498
 20
117.694253680894
 30
0.0
 10
112.6424286728465
 20
117.3600922029283
 30
0.0
  0
SPLINE
  5
21B
330
1F
100
AcDbEntity
  8
0
  6
Continuous
 62
     7
370
    25
100
AcDbSpline
210
0.0
220
0.0
230
1.0
 70
     8
 71
     3
 72
    10
 73
     6
 74
     0
 42
0.00000001
 43
0.00000001
 40
0.0
 40
0.0
 40
0.0
 40
0.0
 40
0.5
 40
0.5
 40
1.0
 40
1.0
 40
1.0
 40
1.0
 10
111.9647072675919
 20
118.3600922029283
 30
0.0
 10
111.9410318731676
 20
118.3600922029283
 30
0.0
 10
111.9279407632773
 20
118.3372997535988
 30
0.0
 10
111.9278544419889
 20
118.2493570495058
 30
0.0
 10
111.9410233759328
 20
118.1844992758318
 30
0.0
 10
111.9647072675863
 20
118.1100922029284
 30
0.0
  0
SPLINE
  5
21C
330
1F
100
AcDbEntity
  8
0
  6
Continuous
 62
     7
370
    25
100
AcDbSpline
210
0.0
220
0.0
230
1.0
 70
    24
 71
     3
 72
     8
 73
     4
 74
     0
 42
0.00000001
 43
0.00000001
 40
0.0
 40
0.0
 40
0.0
 40
0.0
 40
1.0
 40
1.0
 40
1.0
 40
1.0
 10
112.1261925958673
 20
118.3600922029283
 30
0.0
 10
112.0752938789449
 20
118.3600922029283
 30
0.0
 10
112.0213597426943
 20
118.3600922029283
 30
0.0
 10
111.9647072675867
 20
118.3600922029283
 30
0.0
  0
SPLINE
  5
21D
330
1F
100
AcDbEntity
  8
0
  6
Continuous
 62
     7
370
    25
100
AcDbSpline
210
0.0
220
0.0
230
1.0
 70
     8
 71
     3
 72
     8
 73
     4
 74
     0
 42
0.00000001
 43
0.00000001
 40
0.0
 40
0.0
 40
0.0
 40
0.0
 40
1.0
 40
1.0
 40
1.0
 40
1.0
 10
124.6424286728465
 20
117.3600922029283
 30
0.0
 10
124.8127062801902
 20
117.6943455992137
 30
0.0
 10
124.9849780288159
 20
118.0276120887826
 30
0.0
 10
125.1586647498255
 20
118.3600922029281
 30
0.0
  0
SPLINE
  5
21E
330
1F
100
AcDbEntity
  8
0
  6
Continuous
 62
     7
370
    25
100
AcDbSpline
210
0.0
220
0.0
230
1.0
 70
    24
 71
     3
 72
     8
 73
     4
 74
     0
 42
0.00000001
 43
0.00000001
 40
0.0
 40
0.0
 40
0.0
 40
0.0
 40
1.0
 40
1.0
 40
1.0
 40
1.0
 10
125.1586647498251
 20
118.3600922029283
 30
0.0
 10
125.2095609830804
 20
118.3600922029283
 30
0.0
 10
125.2634949380442
 20
118.3600922029283
 30
0.0
 10
125.3201500781067
 20
118.3600922029283
 30
0.0
  0
SPLINE
  5
21F
330
1F
100
AcDbEntity
  8
0
  6
Continuous
 62
     7
370
    25
100
AcDbSpline
210
0.0
220
0.0
230
1.0
 70
     8
 71
     3
 72
    10
 73
     6
 74
     0
 42
0.00000001
 43
0.00000001
 40
0.0
 40
0.0
 40
0.0
 40
0.0
 40
0.5
 40
0.5
 40
1.0
 40
1.0
 40
1.0
 40
1.0
 10
125.3201500781067
 20
118.1100922029283
 30
0.0
 10
125.3438254725311
 20
118.1844725803057
 30
0.0
 10
125.3569165824157
 20
118.2487732190914
 30
0.0
 10
125.357002903704
 20
118.3369889038744
 30
0.0
 10
125.3438339697602
 20
118.3600922029283
 30
0.0
 10
125.3201500781067
 20
118.3600922029283
 30
0.0
  0
SPLINE
  5
220
330
1F
100
AcDbEntity
  8
0
  6
Continuous
 62
     7
370
    25
100
AcDbSpline
210
0.0
220
0.0
230
1.0
 70
     8
 71
     3
 72
    10
 73
     6
 74
     0
 42
0.00000001
 43
0.00000001
 40
0.0
 40
0.0
 40
0.0
 40
0.0
 40
0.5
 40
0.5
 40
1.0
 40
1.0
 40
1.0
 40
1.0
 10
107.8201500781067
 20
118.3600922029283
 30
0.0
 10
107.8438239786626
 20
118.3600922029283
 30
0.0
 10
107.8569165358418
 20
118.3373016312809
 30
0.0
 10
107.8570029498241
 20
118.2493556339821
 30
0.0
 10
107.8438325582254
 20
118.1844948412493
 30
0.0
 10
107.8201500781067
 20
118.1100922029283
 30
0.0
  0
SPLINE
  5
221
330
1F
100
AcDbEntity
  8
0
  6
Continuous
 62
     7
370
    25
100
AcDbSpline
210
0.0
220
0.0
230
1.0
 70
    24
 71
     3
 72
    12
 73
     8
 74
     0
 42
0.00000001
 43
0.00000001
 40
0.0
 40
0.0
 40
0.0
 40
0.0
 40
0.2499999999999999
 40
0.2499999999999999
 40
0.4999999999999998
 40
0.4999999999999998
 40
1.0
 40
1.0
 40
1.0
 40
1.0
 10
107.1424286728465
 20
118.3600922029283
 30
0.0
 10
107.1424286728465
 20
118.3600922029283
 30
0.0
 10
107.1584274778276
 20
118.3600922029283
 30
0.0
 10
107.2201976161419
 20
118.3600922029283
 30
0.0
 10
107.2659397404435
 20
118.3600922029283
 30
0.0
 10
107.4426098877904
 20
118.3600922029283
 30
0.0
 10
107.6128649532707
 20
118.3600922029283
 30
0.0
 10
107.8201500781067
 20
118.3600922029283
 30
0.0
  0
LINE
  5
222
330
1F
100
AcDbEntity
  8
0
  6
Continuous
 62
     7
370
    25
100
AcDbLine
 10
107.1424286728
 20
118.3600922029
 30
0.0
 11
107.1424286728
 21
114.2427384848
 31
0.0
  0
SPLINE
  5
223
330
1F
100
AcDbEntity
  8
0
  6
Continuous
 62
     7
370
    25
100
AcDbSpline
210
0.0
220
0.0
230
1.0
 70
     8
 71
     3
 72
     8
 73
     4
 74
     0
 42
0.00000001
 43
0.00000001
 40
0.0
 40
0.0
 40
0.0
 40
0.0
 40
1.0
 40
1.0
 40
1.0
 40
1.0
 10
112.6424286728465
 20
102.3600922029283
 30
0.0
 10
112.4721510655027
 20
102.0258388066429
 30
0.0
 10
112.299879316877
 20
101.6925723170739
 30
0.0
 10
112.1261925958673
 20
101.3600922029283
 30
0.0
  0
SPLINE
  5
224
330
1F
100
AcDbEntity
  8
0
  6
Continuous
 62
     7
370
    25
100
AcDbSpline
210
0.0
220
0.0
230
1.0
 70
    24
 71
     3
 72
     8
 73
     4
 74
     0
 42
0.00000001
 43
0.00000001
 40
0.0
 40
0.0
 40
0.0
 40
0.0
 40
1.0
 40
1.0
 40
1.0
 40
1.0
 10
112.1261925958673
 20
101.3600922029283
 30
0.0
 10
112.0752938789448
 20
101.3600922029283
 30
0.0
 10
112.021359742694
 20
101.3600922029283
 30
0.0
 10
111.9647072675863
 20
101.3600922029283
 30
0.0
  0
SPLINE
  5
225
330
1F
100
AcDbEntity
  8
0
  6
Continuous
 62
     7
370
    25
100
AcDbSpline
210
0.0
220
0.0
230
1.0
 70
     8
 71
     3
 72
    10
 73
     6
 74
     0
 42
0.00000001
 43
0.00000001
 40
0.0
 40
0.0
 40
0.0
 40
0.0
 40
0.5
 40
0.5
 40
1.0
 40
1.0
 40
1.0
 40
1.0
 10
111.9647072675863
 20
101.6100922029283
 30
0.0
 10
111.9410318731619
 20
101.535711825551
 30
0.0
 10
111.9279407632773
 20
101.4714111867652
 30
0.0
 10
111.927854441989
 20
101.3831955019823
 30
0.0
 10
111.9410233759328
 20
101.3600922029283
 30
0.0
 10
111.9647072675863
 20
101.3600922029283
 30
0.0
  0
SPLINE
  5
226
330
1F
100
AcDbEntity
  8
0
  6
Continuous
 62
     7
370
    25
100
AcDbSpline
210
0.0
220
0.0
230
1.0
 70
     8
 71
     3
 72
     8
 73
     4
 74
     0
 42
0.00000001
 43
0.00000001
 40
0.0
 40
0.0
 40
0.0
 40
0.0
 40
1.0
 40
1.0
 40
1.0
 40
1.0
 10
125.1586647498256
 20
101.3600922029283
 30
0.0
 10
124.9849616736059
 20
101.6926036250638
 30
0.0
 10
124.8126594545432
 20
102.0259307249627
 30
0.0
 10
124.6424286728465
 20
102.3600922029283
 30
0.0
  0
SPLINE
  5
227
330
1F
100
AcDbEntity
  8
0
  6
Continuous
 62
     7
370
    25
100
AcDbSpline
210
0.0
220
0.0
230
1.0
 70
     8
 71
     3
 72
    10
 73
     6
 74
     0
 42
0.00000001
 43
0.00000001
 40
0.0
 40
0.0
 40
0.0
 40
0.0
 40
0.5
 40
0.5
 40
1.0
 40
1.0
 40
1.0
 40
1.0
 10
125.3201500781067
 20
101.3600922029283
 30
0.0
 10
125.3438254725311
 20
101.3600922029283
 30
0.0
 10
125.3569165824157
 20
101.3828846522581
 30
0.0
 10
125.357002903704
 20
101.4708273563512
 30
0.0
 10
125.3438339697602
 20
101.535685130025
 30
0.0
 10
125.3201500781067
 20
101.6100922029283
 30
0.0
  0
SPLINE
  5
228
330
1F
100
AcDbEntity
  8
0
  6
Continuous
 62
     7
370
    25
100
AcDbSpline
210
0.0
220
0.0
230
1.0
 70
    24
 71
     3
 72
     8
 73
     4
 74
     0
 42
0.00000001
 43
0.00000001
 40
0.0
 40
0.0
 40
0.0
 40
0.0
 40
1.0
 40
1.0
 40
1.0
 40
1.0
 10
125.1586647498257
 20
101.3600922029283
 30
0.0
 10
125.2095609830807
 20
101.3600922029283
 30
0.0
 10
125.2634949380444
 20
101.3600922029283
 30
0.0
 10
125.3201500781067
 20
101.3600922029283
 30
0.0
  0
SPLINE
  5
229
330
1F
100
AcDbEntity
  8
0
  6
Continuous
 62
     7
370
    25
100
AcDbSpline
210
0.0
220
0.0
230
1.0
 70
     8
 71
     3
 72
    10
 73
     6
 74
     0
 42
0.00000001
 43
0.00000001
 40
0.0
 40
0.0
 40
0.0
 40
0.0
 40
0.5
 40
0.5
 40
1.0
 40
1.0
 40
1.0
 40
1.0
 10
107.8201500781067
 20
101.6100922029283
 30
0.0
 10
107.8438223180182
 20
101.5357217360028
 30
0.0
 10
107.8569163079535
 20
101.4714161397149
 30
0.0
 10
107.8570031754149
 20
101.3831933519091
 30
0.0
 10
107.8438333856556
 20
101.3600922029283
 30
0.0
 10
107.8201500781067
 20
101.3600922029283
 30
0.0
  0
SPLINE
  5
22A
330
1F
100
AcDbEntity
  8
0
  6
Continuous
 62
     7
370
    25
100
AcDbSpline
210
0.0
220
0.0
230
1.0
 70
    24
 71
     3
 72
    12
 73
     8
 74
     0
 42
0.00000001
 43
0.00000001
 40
0.0
 40
0.0
 40
0.0
 40
0.0
 40
0.2500000000000001
 40
0.2500000000000001
 40
0.5000000000000001
 40
0.5000000000000001
 40
1.0
 40
1.0
 40
1.0
 40
1.0
 10
107.1424286728465
 20
101.3600922029283
 30
0.0
 10
107.1424286728465
 20
101.3600922029283
 30
0.0
 10
107.1584274778276
 20
101.3600922029283
 30
0.0
 10
107.2201976161419
 20
101.3600922029283
 30
0.0
 10
107.2659397404435
 20
101.3600922029283
 30
0.0
 10
107.4426098877904
 20
101.3600922029283
 30
0.0
 10
107.6128649532707
 20
101.3600922029283
 30
0.0
 10
107.8201500781067
 20
101.3600922029283
 30
0.0
  0
LINE
  5
22B
330
1F
100
AcDbEntity
  8
0
  6
Continuous
 62
     7
370
    25
100
AcDbLine
 10
107.1424286728
 20
101.3600922029
 30
0.0
 11
107.1424286728
 21
105.4774459211
 31
0.0
  0
LINE
  5
22C
330
1F
100
AcDbEntity
  8
0
  6
Continuous
 62
     7
370
    25
100
AcDbLine
 10
125.3201500781
 20
118.3600922029
 30
0.0
 11
129.8203697003
 21
118.3600922029
 31
0.0
  0
LINE
  5
22D
330
1F
100
AcDbEntity
  8
0
  6
Continuous
 62
     7
370
    25
100
AcDbLine
 10
107.8201500781
 20
118.3600922029
 30
0.0
 11
111.9647072676
 21
118.3600922029
 31
0.0
  0
LINE
  5
22E
330
1F
100
AcDbEntity
  8
0
  6
Continuous
 62
     7
370
    25
100
AcDbLine
 10
129.8203697003
 20
101.3600922029
 30
0.0
 11
125.3201500781
 21
101.3600922029
 31
0.0
  0
LINE
  5
22F
330
1F
100
AcDbEntity
  8
0
  6
Continuous
 62
     7
370
    25
100
AcDbLine
 10
111.9647072676
 20
101.3600922029
 30
0.0
 11
107.8201500781
 21
101.3600922029
 31
0.0
  0
LINE
  5
230
330
1F
100
AcDbEntity
  8
0
  6
Continuous
 62
     7
370
    25
100
AcDbLine
 10
125.1586647498
 20
118.3600922029
 30
0.0
 11
112.1261925959
 21
118.3600922029
 31
0.0
  0
LINE
  5
231
330
1F
100
AcDbEntity
  8
0
  6
Continuous
 62
     7
370
    25
100
AcDbLine
 10
125.1586647498
 20
101.3600922029
 30
0.0
 11
112.1261925959
 21
101.3600922029
 31
0.0
  0
SPLINE
  5
232
330
1F
100
AcDbEntity
  8
0
  6
Continuous
 62
     7
370
    25
100
AcDbSpline
210
0.0
220
0.0
230
1.0
 70
     8
 71
     3
 72
    15
 73
    11
 74
     0
 42
0.00000001
 43
0.00000001
 40
0.0
 40
0.0
 40
0.0
 40
0.0
 40
0.0081667445812695
 40
0.3321939991490077
 40
0.4756279600585576
 40
0.68668309732849
 40
0.8457435502264807
 40
0.8967566214763126
 40
0.9909540928118029
 40
1.0
 40
1.0
 40
1.0
 40
1.0
 10
123.7414481864393
 20
111.1100922029283
 30
0.0
 10
123.7419357205821
 20
111.1115296658674
 30
0.0
 10
123.7617668681143
 20
111.1700005238191
 30
0.0
 10
123.7900476481235
 20
111.2544257015385
 30
0.0
 10
123.8278769466123
 20
111.369004773561
 30
0.0
 10
123.8544608431798
 20
111.4503756607576
 30
0.0
 10
123.8716306669348
 20
111.5033946527592
 30
0.0
 10
123.8794476631512
 20
111.5275965846034
 30
0.0
 10
123.8814433495871
 20
111.5337862052696
 30
0.0
 10
123.8815083135379
 20
111.5339876006821
 30
0.0
 10
123.8815140055046
 20
111.5340052464066
 30
0.0
  0
ARC
  5
233
330
1F
100
AcDbEntity
  8
0
  6
Continuous
 62
     7
370
    25
100
AcDbCircle
 10
118.6424286728
 20
109.8600922029
 30
0.0
 40
5.250000000000005
100
AcDbArc
 50
13.774146998
 51
166.225853002
  0
SPLINE
  5
234
330
1F
100
AcDbEntity
  8
0
  6
Continuous
 62
     7
370
    25
100
AcDbSpline
210
0.0
220
0.0
230
1.0
 70
     8
 71
     3
 72
    15
 73
    11
 74
     0
 42
0.00000001
 43
0.00000001
 40
0.0
 40
0.0
 40
0.0
 40
0.0
 40
0.0090459071881971
 40
0.1032433785236816
 40
0.1542564497735189
 40
0.3133169026715104
 40
0.5243720399414397
 40
0.6678060008509895
 40
0.9918332554187292
 40
1.0
 40
1.0
 40
1.0
 40
1.0
 10
113.4033433401884
 20
111.5340052464066
 30
0.0
 10
113.403349032155
 20
111.5339876006821
 30
0.0
 10
113.4034139961058
 20
111.5337862052696
 30
0.0
 10
113.4054096825417
 20
111.5275965846034
 30
0.0
 10
113.4132266787582
 20
111.5033946527592
 30
0.0
 10
113.4303965025131
 20
111.4503756607576
 30
0.0
 10
113.4569803990806
 20
111.369004773561
 30
0.0
 10
113.4948096975695
 20
111.2544257015385
 30
0.0
 10
113.5230904775787
 20
111.1700005238191
 30
0.0
 10
113.5429216251108
 20
111.1115296658674
 30
0.0
 10
113.5434091592537
 20
111.1100922029283
 30
0.0
  0
ARC
  5
235
330
1F
100
AcDbEntity
  8
0
  6
Continuous
 62
     7
370
    25
100
AcDbCircle
 10
118.6424286728
 20
109.8600922029
 30
0.0
 40
5.500000000000011
100
AcDbArc
 50
17.7189318734
 51
162.2810681266
  0
SPLINE
  5
236
330
1F
100
AcDbEntity
  8
0
  6
Continuous
 62
     7
370
    25
100
AcDbSpline
210
0.0
220
0.0
230
1.0
 70
     8
 71
     3
 72
    15
 73
    11
 74
     0
 42
0.00000001
 43
0.00000001
 40
0.0
 40
0.0
 40
0.0
 40
0.0
 40
0.0090459071881971
 40
0.1032433785236875
 40
0.1542564497735248
 40
0.313316902671511
 40
0.5243720399414434
 40
0.6678060008509189
 40
0.9918332554187028
 40
1.0
 40
1.0
 40
1.0
 40
1.0
 10
123.8815140055046
 20
108.1861791594501
 30
0.0
 10
123.8815083135379
 20
108.1861968051745
 30
0.0
 10
123.8814433495871
 20
108.1863982005871
 30
0.0
 10
123.8794476631512
 20
108.1925878212533
 30
0.0
 10
123.8716306669348
 20
108.2167897530974
 30
0.0
 10
123.8544608431798
 20
108.2698087450991
 30
0.0
 10
123.8278769466123
 20
108.3511796322957
 30
0.0
 10
123.7900476481236
 20
108.4657587043181
 30
0.0
 10
123.7617668681134
 20
108.5501838820373
 30
0.0
 10
123.7419357205821
 20
108.6086547399893
 30
0.0
 10
123.7414481864393
 20
108.6100922029283
 30
0.0
  0
ARC
  5
237
330
1F
100
AcDbEntity
  8
0
  6
Continuous
 62
     7
370
    25
100
AcDbCircle
 10
118.6424286728
 20
109.8600922029
 30
0.0
 40
5.500000000000007
100
AcDbArc
 50
197.7189318734
 51
342.2810681266
  0
SPLINE
  5
238
330
1F
100
AcDbEntity
  8
0
  6
Continuous
 62
     7
370
    25
100
AcDbSpline
210
0.0
220
0.0
230
1.0
 70
     8
 71
     3
 72
    15
 73
    11
 74
     0
 42
0.00000001
 43
0.00000001
 40
0.0
 40
0.0
 40
0.0
 40
0.0
 40
0.0081667445812973
 40
0.3321939991490813
 40
0.4756279600585592
 40
0.6866830973284899
 40
0.845743550226481
 40
0.8967566214763184
 40
0.9909540928118029
 40
1.0
 40
1.0
 40
1.0
 40
1.0
 10
113.5434091592537
 20
108.6100922029283
 30
0.0
 10
113.5429216251108
 20
108.6086547399893
 30
0.0
 10
113.5230904775795
 20
108.5501838820373
 30
0.0
 10
113.4948096975693
 20
108.4657587043181
 30
0.0
 10
113.4569803990807
 20
108.3511796322957
 30
0.0
 10
113.4303965025131
 20
108.2698087450991
 30
0.0
 10
113.4132266787582
 20
108.2167897530974
 30
0.0
 10
113.4054096825417
 20
108.1925878212533
 30
0.0
 10
113.4034139961058
 20
108.1863982005871
 30
0.0
 10
113.403349032155
 20
108.1861968051745
 30
0.0
 10
113.4033433401884
 20
108.1861791594501
 30
0.0
  0
ARC
  5
239
330
1F
100
AcDbEntity
  8
0
  6
Continuous
 62
     7
370
    25
100
AcDbCircle
 10
118.6424286728
 20
109.8600922029
 30
0.0
 40
5.250000000000009
100
AcDbArc
 50
193.774146998
 51
346.225853002
  0
SPLINE
  5
23A
330
1F
100
AcDbEntity
  8
0
  6
Continuous
 62
     7
370
    25
100
AcDbSpline
210
0.0
220
0.0
230
1.0
 70
     8
 71
     3
 72
    15
 73
    11
 74
     0
 42
0.00000001
 43
0.00000001
 40
0.0
 40
0.0
 40
0.0
 40
0.0
 40
0.0089557228015919
 40
0.0999003359608153
 40
0.1531632460581696
 40
0.3125636920784855
 40
0.5249666935695051
 40
0.6689893599351772
 40
0.991915253381045
 40
1.0
 40
1.0
 40
1.0
 40
1.0
 10
113.1652030977948
 20
108.3600922029283
 30
0.0
 10
113.1652188533734
 20
108.3601029872915
 30
0.0
 10
113.16539460553
 20
108.360223285957
 30
0.0
 10
113.1708236215495
 20
108.3639417368751
 30
0.0
 10
113.1923591052568
 20
108.3786527779414
 30
0.0
 10
113.2400645335216
 20
108.4111016393999
 30
0.0
 10
113.3124554785136
 20
108.4596856797434
 30
0.0
 10
113.4143745905312
 20
108.5270561520117
 30
0.0
 10
113.4897296819863
 20
108.5758697167456
 30
0.0
 10
113.5421293277096
 20
108.60927626694
 30
0.0
 10
113.5434091592537
 20
108.6100922029283
 30
0.0
  0
ARC
  5
23B
330
1F
100
AcDbEntity
  8
0
  6
Continuous
 62
     7
370
    25
100
AcDbCircle
 10
113.1652030978
 20
108.1100922029
 30
0.0
 40
0.2500000000000077
100
AcDbArc
 50
17.7189318734
 51
90.0
  0
SPLINE
  5
23C
330
1F
100
AcDbEntity
  8
0
  6
Continuous
 62
     7
370
    25
100
AcDbSpline
210
0.0
220
0.0
230
1.0
 70
     8
 71
     3
 72
    15
 73
    11
 74
     0
 42
0.00000001
 43
0.00000001
 40
0.0
 40
0.0
 40
0.0
 40
0.0
 40
0.0080847466189581
 40
0.3310106400648237
 40
0.4750333064304937
 40
0.6874363079215094
 40
0.8468367539418249
 40
0.9000996640391792
 40
0.9910442771984082
 40
1.0
 40
1.0
 40
1.0
 40
1.0
 10
123.7414481864393
 20
108.6100922029283
 30
0.0
 10
123.7427280179834
 20
108.60927626694
 30
0.0
 10
123.7951276637066
 20
108.5758697167455
 30
0.0
 10
123.8704827551617
 20
108.5270561520117
 30
0.0
 10
123.9724018671794
 20
108.4596856797433
 30
0.0
 10
124.0447928121713
 20
108.4111016393999
 30
0.0
 10
124.0924982404361
 20
108.3786527779414
 30
0.0
 10
124.1140337241435
 20
108.3639417368751
 30
0.0
 10
124.119462740163
 20
108.360223285957
 30
0.0
 10
124.1196384923195
 20
108.3601029872915
 30
0.0
 10
124.1196542478981
 20
108.3600922029283
 30
0.0
  0
ARC
  5
23D
330
1F
100
AcDbEntity
  8
0
  6
Continuous
 62
     7
370
    25
100
AcDbCircle
 10
124.1196542479
 20
108.1100922029
 30
0.0
 40
0.25
100
AcDbArc
 50
90.0
 51
162.2810681266
  0
ARC
  5
23E
330
1F
100
AcDbEntity
  8
0
  6
Continuous
 62
     7
370
    25
100
AcDbCircle
 10
113.1652030978
 20
111.6100922029
 30
0.0
 40
0.2500000000000034
100
AcDbArc
 50
270.0
 51
342.2810681266
  0
SPLINE
  5
23F
330
1F
100
AcDbEntity
  8
0
  6
Continuous
 62
     7
370
    25
100
AcDbSpline
210
0.0
220
0.0
230
1.0
 70
     8
 71
     3
 72
    15
 73
    11
 74
     0
 42
0.00000001
 43
0.00000001
 40
0.0
 40
0.0
 40
0.0
 40
0.0
 40
0.0080847466189819
 40
0.3310106400647582
 40
0.4750333064304994
 40
0.6874363079215138
 40
0.8468367539418308
 40
0.9000996640391851
 40
0.9910442771984082
 40
1.0
 40
1.0
 40
1.0
 40
1.0
 10
113.5434091592537
 20
111.1100922029283
 30
0.0
 10
113.5421293277095
 20
111.1109081389166
 30
0.0
 10
113.4897296819858
 20
111.1443146891102
 30
0.0
 10
113.4143745905313
 20
111.1931282538451
 30
0.0
 10
113.3124554785136
 20
111.2604987261133
 30
0.0
 10
113.2400645335216
 20
111.3090827664567
 30
0.0
 10
113.1923591052568
 20
111.3415316279153
 30
0.0
 10
113.1708236215495
 20
111.3562426689816
 30
0.0
 10
113.16539460553
 20
111.3599611198997
 30
0.0
 10
113.1652188533734
 20
111.3600814185652
 30
0.0
 10
113.1652030977948
 20
111.3600922029283
 30
0.0
  0
ARC
  5
240
330
1F
100
AcDbEntity
  8
0
  6
Continuous
 62
     7
370
    25
100
AcDbCircle
 10
124.1196542479
 20
111.6100922029
 30
0.0
 40
0.25
100
AcDbArc
 50
197.7189318734
 51
270.0
  0
SPLINE
  5
241
330
1F
100
AcDbEntity
  8
0
  6
Continuous
 62
     7
370
    25
100
AcDbSpline
210
0.0
220
0.0
230
1.0
 70
     8
 71
     3
 72
    15
 73
    11
 74
     0
 42
0.00000001
 43
0.00000001
 40
0.0
 40
0.0
 40
0.0
 40
0.0
 40
0.0089557228015919
 40
0.0999003359608147
 40
0.1531632460581688
 40
0.3125636920784845
 40
0.5249666935695023
 40
0.6689893599352456
 40
0.9919152533810159
 40
1.0
 40
1.0
 40
1.0
 40
1.0
 10
124.1196542478981
 20
111.3600922029283
 30
0.0
 10
124.1196384923195
 20
111.3600814185652
 30
0.0
 10
124.119462740163
 20
111.3599611198997
 30
0.0
 10
124.1140337241435
 20
111.3562426689816
 30
0.0
 10
124.0924982404361
 20
111.3415316279153
 30
0.0
 10
124.0447928121713
 20
111.3090827664567
 30
0.0
 10
123.9724018671794
 20
111.2604987261133
 30
0.0
 10
123.8704827551616
 20
111.1931282538451
 30
0.0
 10
123.7951276637072
 20
111.1443146891103
 30
0.0
 10
123.7427280179834
 20
111.1109081389166
 30
0.0
 10
123.7414481864393
 20
111.1100922029283
 30
0.0
  0
LINE
  5
242
330
1F
100
AcDbEntity
  8
0
  6
Continuous
 62
     7
370
    25
100
AcDbLine
 10
113.6424286728
 20
109.2600922029
 30
0.0
 11
123.6424286728
 21
109.2600922029
 31
0.0
  0
LINE
  5
243
330
1F
100
AcDbEntity
  8
0
  6
Continuous
 62
     7
370
    25
100
AcDbLine
 10
123.6424286728
 20
110.4600922029
 30
0.0
 11
113.6424286728
 21
110.4600922029
 31
0.0
  0
LINE
  5
244
330
1F
100
AcDbEntity
  8
0
  6
Continuous
 62
     7
370
    25
100
AcDbLine
 10
123.6424286728
 20
109.2600922029
 30
0.0
 11
123.6424286728
 21
110.4600922029
 31
0.0
  0
LINE
  5
245
330
1F
100
AcDbEntity
  8
0
  6
Continuous
 62
     7
370
    25
100
AcDbLine
 10
113.6424286728
 20
110.4600922029
 30
0.0
 11
113.6424286728
 21
109.2600922029
 31
0.0
  0
LINE
  5
246
330
1F
100
AcDbEntity
  8
0
  6
Continuous
 62
     7
370
    25
100
AcDbLine
 10
124.3924286728
 20
111.1100922029
 30
0.0
 11
123.7414481864
 21
111.1100922029
 31
0.0
  0
LINE
  5
247
330
1F
100
AcDbEntity
  8
0
  6
Continuous
 62
     7
370
    25
100
AcDbLine
 10
124.3924286728
 20
108.6100922029
 30
0.0
 11
124.3924286728
 21
111.1100922029
 31
0.0
  0
LINE
  5
248
330
1F
100
AcDbEntity
  8
0
  6
Continuous
 62
     7
370
    25
100
AcDbLine
 10
123.7414481864
 20
108.6100922029
 30
0.0
 11
124.3924286728
 21
108.6100922029
 31
0.0
  0
LINE
  5
249
330
1F
100
AcDbEntity
  8
0
  6
Continuous
 62
     7
370
    25
100
AcDbLine
 10
112.8924286728
 20
108.6100922029
 30
0.0
 11
113.5434091593
 21
108.6100922029
 31
0.0
  0
LINE
  5
24A
330
1F
100
AcDbEntity
  8
0
  6
Continuous
 62
     7
370
    25
100
AcDbLine
 10
112.8924286728
 20
111.1100922029
 30
0.0
 11
112.8924286728
 21
108.6100922029
 31
0.0
  0
LINE
  5
24B
330
1F
100
AcDbEntity
  8
0
  6
Continuous
 62
     7
370
    25
100
AcDbLine
 10
113.5434091593
 20
111.1100922029
 30
0.0
 11
112.8924286728
 21
111.1100922029
 31
0.0
  0
ARC
  5
24C
330
1F
100
AcDbEntity
  8
0
  6
Continuous
 62
     7
370
    25
100
AcDbCircle
 10
124.3924286728
 20
111.1100922029
 30
0.0
 40
0.25
100
AcDbArc
 50
0.0
 51
90.0
  0
LINE
  5
24D
330
1F
100
AcDbEntity
  8
0
  6
Continuous
 62
     7
370
    25
100
AcDbLine
 10
124.6424286728
 20
111.1100922029
 30
0.0
 11
124.3924286728
 21
111.1100922029
 31
0.0
  0
LINE
  5
24E
330
1F
100
AcDbEntity
  8
0
  6
Continuous
 62
     7
370
    25
100
AcDbLine
 10
124.3924286728
 20
111.1100922029
 30
0.0
 11
124.3924286728
 21
111.3600922029
 31
0.0
  0
LINE
  5
24F
330
1F
100
AcDbEntity
  8
0
  6
Continuous
 62
     7
370
    25
100
AcDbLine
 10
124.1196542479
 20
111.3600922029
 30
0.0
 11
124.3924286728
 21
111.3600922029
 31
0.0
  0
LINE
  5
250
330
1F
100
AcDbEntity
  8
0
  6
Continuous
 62
     7
370
    25
100
AcDbLine
 10
112.8924286728
 20
111.3600922029
 30
0.0
 11
112.8924286728
 21
111.1100922029
 31
0.0
  0
LINE
  5
251
330
1F
100
AcDbEntity
  8
0
  6
Continuous
 62
     7
370
    25
100
AcDbLine
 10
112.8924286728
 20
111.3600922029
 30
0.0
 11
113.1652030978
 21
111.3600922029
 31
0.0
  0
LINE
  5
252
330
1F
100
AcDbEntity
  8
0
  6
Continuous
 62
     7
370
    25
100
AcDbLine
 10
112.8924286728
 20
111.1100922029
 30
0.0
 11
112.6424286728
 21
111.1100922029
 31
0.0
  0
ARC
  5
253
330
1F
100
AcDbEntity
  8
0
  6
Continuous
 62
     7
370
    25
100
AcDbCircle
 10
112.8924286728
 20
111.1100922029
 30
0.0
 40
0.25
100
AcDbArc
 50
90.0
 51
180.0
  0
LINE
  5
254
330
1F
100
AcDbEntity
  8
0
  6
Continuous
 62
     7
370
    25
100
AcDbLine
 10
124.6424286728
 20
111.1100922029
 30
0.0
 11
124.6424286728
 21
108.6100922029
 31
0.0
  0
LINE
  5
255
330
1F
100
AcDbEntity
  8
0
  6
Continuous
 62
     7
370
    25
100
AcDbLine
 10
124.3924286728
 20
108.6100922029
 30
0.0
 11
124.6424286728
 21
108.6100922029
 31
0.0
  0
LINE
  5
256
330
1F
100
AcDbEntity
  8
0
  6
Continuous
 62
     7
370
    25
100
AcDbLine
 10
112.6424286728
 20
108.6100922029
 30
0.0
 11
112.8924286728
 21
108.6100922029
 31
0.0
  0
LINE
  5
257
330
1F
100
AcDbEntity
  8
0
  6
Continuous
 62
     7
370
    25
100
AcDbLine
 10
112.6424286728
 20
108.6100922029
 30
0.0
 11
112.6424286728
 21
111.1100922029
 31
0.0
  0
LINE
  5
258
330
1F
100
AcDbEntity
  8
0
  6
Continuous
 62
     7
370
    25
100
AcDbLine
 10
113.1652030978
 20
108.3600922029
 30
0.0
 11
112.8924286728
 21
108.3600922029
 31
0.0
  0
LINE
  5
259
330
1F
100
AcDbEntity
  8
0
  6
Continuous
 62
     7
370
    25
100
AcDbLine
 10
112.8924286728
 20
108.6100922029
 30
0.0
 11
112.8924286728
 21
108.3600922029
 31
0.0
  0
ARC
  5
25A
330
1F
100
AcDbEntity
  8
0
  6
Continuous
 62
     7
370
    25
100
AcDbCircle
 10
124.3924286728
 20
108.6100922029
 30
0.0
 40
0.25
100
AcDbArc
 50
270.0
 51
0.0
  0
LINE
  5
25B
330
1F
100
AcDbEntity
  8
0
  6
Continuous
 62
     7
370
    25
100
AcDbLine
 10
124.3924286728
 20
108.3600922029
 30
0.0
 11
124.3924286728
 21
108.6100922029
 31
0.0
  0
LINE
  5
25C
330
1F
100
AcDbEntity
  8
0
  6
Continuous
 62
     7
370
    25
100
AcDbLine
 10
124.3924286728
 20
108.3600922029
 30
0.0
 11
124.1196542479
 21
108.3600922029
 31
0.0
  0
ARC
  5
25D
330
1F
100
AcDbEntity
  8
0
  6
Continuous
 62
     7
370
    25
100
AcDbCircle
 10
112.8924286728
 20
108.6100922029
 30
0.0
 40
0.25
100
AcDbArc
 50
180.0
 51
270.0
  0
LINE
  5
25E
330
1F
100
AcDbEntity
  8
0
  6
Continuous
 62
     7
370
    25
100
AcDbLine
 10
98.6424286728
 20
113.131791467
 30
0.0
 11
96.4669918113
 21
113.3600922029
 31
0.0
  0
LINE
  5
25F
330
1F
100
AcDbEntity
  8
0
  6
Continuous
 62
     7
370
    25
100
AcDbLine
 10
98.6424286728
 20
106.5883929389
 30
0.0
 11
98.6424286728
 21
113.131791467
 31
0.0
  0
LINE
  5
260
330
1F
100
AcDbEntity
  8
0
  6
Continuous
 62
     7
370
    25
100
AcDbLine
 10
96.4669918113
 20
106.3600922029
 30
0.0
 11
98.6424286728
 21
106.5883929389
 31
0.0
  0
LINE
  5
261
330
1F
100
AcDbEntity
  8
0
  6
Continuous
 62
     7
370
    25
100
AcDbLine
 10
78.6424286728
 20
106.3600922029
 30
0.0
 11
96.4669918113
 21
106.3600922029
 31
0.0
  0
LINE
  5
262
330
1F
100
AcDbEntity
  8
0
  6
Continuous
 62
     7
370
    25
100
AcDbLine
 10
96.4669918113
 20
113.3600922029
 30
0.0
 11
78.6424286728
 21
113.3600922029
 31
0.0
  0
LINE
  5
263
330
1F
100
AcDbEntity
  8
0
  6
Continuous
 62
     7
370
    25
100
AcDbLine
 10
78.6424286728
 20
113.3600922029
 30
0.0
 11
78.6424286728
 21
106.3600922029
 31
0.0
  0
LINE
  5
264
330
1F
100
AcDbEntity
  8
0
  6
Continuous
 62
     7
370
    25
100
AcDbLine
 10
113.4186264985
 20
111.5811066837
 30
0.0
 11
113.2902174598
 21
111.3969650503
 31
0.0
  0
LINE
  5
265
330
1F
100
AcDbEntity
  8
0
  6
Continuous
 62
     7
370
    25
100
AcDbLine
 10
113.2997848006
 20
108.3148745356
 30
0.0
 11
113.4186264985
 21
108.1390777221
 31
0.0
  0
LINE
  5
266
330
1F
100
AcDbEntity
  8
0
  6
Continuous
 62
     7
370
    25
100
AcDbLine
 10
105.2258590192
 20
112.4408948385
 30
0.0
 11
105.2258590192
 21
107.2792895674
 31
0.0
  0
LINE
  5
267
330
1F
100
AcDbEntity
  8
0
  6
Continuous
 62
     7
370
    25
100
AcDbLine
 10
113.4186264985
 20
108.1390777221
 30
0.0
 11
105.2258590192
 21
107.2792895674
 31
0.0
  0
LINE
  5
268
330
1F
100
AcDbEntity
  8
0
  6
Continuous
 62
     7
370
    25
100
AcDbLine
 10
105.2258590192
 20
112.4408948385
 30
0.0
 11
113.4186264985
 21
111.5811066838
 31
0.0
  0
LINE
  5
269
330
1F
100
AcDbEntity
  8
0
  6
Continuous
 62
     7
370
    25
100
AcDbLine
 10
105.2258590192
 20
107.2792895674
 30
0.0
 11
98.6424286728
 21
106.5883929389
 31
0.0
  0
LINE
  5
26A
330
1F
100
AcDbEntity
  8
0
  6
Continuous
 62
     7
370
    25
100
AcDbLine
 10
98.6424286728
 20
113.131791467
 30
0.0
 11
105.2258590192
 21
112.4408948385
 31
0.0
  0
ARC
  5
26B
330
1F
100
AcDbEntity
  8
0
  6
Continuous
 62
     7
370
    25
100
AcDbCircle
 10
118.6424286728
 20
109.8600922029
 30
0.0
 40
7.450000000000647
100
AcDbArc
 50
233.0863788866
 51
126.9136211134
  0
ARC
  5
26C
330
1F
100
AcDbEntity
  8
0
  6
Continuous
 62
     7
370
    25
100
AcDbCircle
 10
118.6424286728
 20
109.8600922029
 30
0.0
 40
7.207531252870791
100
AcDbArc
 50
195.3041237151
 51
238.9797515565
  0
ARC
  5
26D
330
1F
100
AcDbEntity
  8
0
  6
Continuous
 62
     7
370
    25
100
AcDbCircle
 10
118.6424286728
 20
109.8600922029
 30
0.0
 40
7.207531252872447
100
AcDbArc
 50
121.0202484435
 51
164.6958762849
  0
ARC
  5
26E
330
1F
100
AcDbEntity
  8
0
  6
Continuous
 62
     7
370
    25
100
AcDbCircle
 10
96.4669918113
 20
178.3600922029
 30
0.0
 40
65.00000000000001
100
AcDbArc
 50
270.0
 51
286.5000949923
  0
ARC
  5
26F
330
1F
100
AcDbEntity
  8
0
  6
Continuous
 62
     7
370
    25
100
AcDbCircle
 10
96.4669918113
 20
41.3600922029
 30
0.0
 40
65.00000000000001
100
AcDbArc
 50
73.4999050077
 51
90.0
  0
LINE
  5
270
330
1F
100
AcDbEntity
  8
0
  6
Continuous
 62
     7
370
    25
100
AcDbLine
 10
129.8203697003
 20
109.6100922029
 30
0.0
 11
126.0882328604
 21
109.6100922029
 31
0.0
  0
LINE
  5
271
330
1F
100
AcDbEntity
  8
0
  6
Continuous
 62
     7
370
    25
100
AcDbLine
 10
126.0882328604
 20
110.1100922029
 30
0.0
 11
129.8203697003
 21
110.1100922029
 31
0.0
  0
INSERT
  5
27D
330
1F
100
AcDbEntity
  8
FORMAT
100
AcDbBlockReference
  2
SW_CENTERMARKSYMBOL_1
 10
118.6424286728
 20
109.8600922029
 30
0.0
  0
ENDSEC
  0
SECTION
  2
OBJECTS
  0
DICTIONARY
  5
C
330
0
100
AcDbDictionary
281
     1
  3
ACAD_GROUP
350
D
  3
ACAD_LAYOUT
350
1A
  3
ACAD_MLINESTYLE
350
17
  3
ACAD_PLOTSETTINGS
350
19
  3
ACAD_PLOTSTYLENAME
350
E
  3
ACAD_SCALELIST
350
47
  3
DWGPROPS
350
27E
  0
DICTIONARY
  5
D
102
{ACAD_REACTORS
330
C
102
}
330
C
100
AcDbDictionary
281
     1
  0
DICTIONARY
  5
1A
102
{ACAD_REACTORS
330
C
102
}
330
C
100
AcDbDictionary
281
     1
  3
Layout1
350
1E
  3
Layout2
350
26
  3
Model
350
22
  0
DICTIONARY
  5
17
102
{ACAD_REACTORS
330
C
102
}
330
C
100
AcDbDictionary
281
     1
  3
Standard
350
18
  0
DICTIONARY
  5
19
102
{ACAD_REACTORS
330
C
102
}
330
C
100
AcDbDictionary
281
     1
  0
ACDBDICTIONARYWDFLT
  5
E
102
{ACAD_REACTORS
330
C
102
}
330
C
100
AcDbDictionary
281
     1
  3
Normal
350
F
100
AcDbDictionaryWithDefault
340
F
  0
DICTIONARY
  5
47
102
{ACAD_REACTORS
330
C
102
}
330
C
100
AcDbDictionary
281
     1
  3
A0
350
48
  3
A1
350
49
  3
A2
350
4A
  3
A3
350
4B
  3
A4
350
4C
  3
A5
350
4D
  3
A6
350
4E
  3
A7
350
4F
  3
A8
350
50
  3
A9
350
51
  3
B0
350
52
  3
B1
350
53
  3
B2
350
54
  3
B3
350
55
  3
B4
350
56
  3
B5
350
57
  3
B6
350
58
  0
XRECORD
  5
27E
102
{ACAD_REACTORS
330
C
102
}
330
C
100
AcDbXrecord
280
     1
  1
DWGPROPS COOKIE
  2

  3

  4

  6

  7

  8
user28
  9

300
=
301
=
302
=
303
=
304
=
305
=
306
=
307
=
308
=
309
=
 40
0.0
 41
2460336.279076215
 42
2460336.27907691
  1

 90
        0
  0
LAYOUT
  5
1E
102
{ACAD_REACTORS
330
1A
102
}
330
1A
100
AcDbPlotSettings
  1

  2
none_device
  4

  6

 40
0.0
 41
0.0
 42
0.0
 43
0.0
 44
0.0
 45
0.0
 46
0.0
 47
0.0
 48
0.0
 49
0.0
140
0.0
141
0.0
142
1.0
143
1.0
 70
   688
 72
     1
 73
     0
 74
     5
  7

 75
    16
147
1.0
148
0.0
149
0.0
100
AcDbLayout
  1
Layout1
 70
     1
 71
     1
 10
0.0
 20
0.0
 11
420.0
 21
297.0
 12
0.0
 22
0.0
 32
0.0
 14
1.0000000000E+20
 24
1.0000000000E+20
 34
1.0000000000E+20
 15
-1.0000000000E+20
 25
-1.0000000000E+20
 35
-1.0000000000E+20
146
0.0
 13
0.0
 23
0.0
 33
0.0
 16
1.0
 26
0.0
 36
0.0
 17
0.0
 27
1.0
 37
0.0
 76
     0
330
1B
  0
LAYOUT
  5
26
102
{ACAD_REACTORS
330
1A
102
}
330
1A
100
AcDbPlotSettings
  1

  2
none_device
  4

  6

 40
0.0
 41
0.0
 42
0.0
 43
0.0
 44
0.0
 45
0.0
 46
0.0
 47
0.0
 48
0.0
 49
0.0
140
0.0
141
0.0
142
1.0
143
1.0
 70
   688
 72
     1
 73
     0
 74
     5
  7

 75
    16
147
1.0
148
0.0
149
0.0
100
AcDbLayout
  1
Layout2
 70
     1
 71
     2
 10
0.0
 20
0.0
 11
0.0
 21
0.0
 12
0.0
 22
0.0
 32
0.0
 14
0.0
 24
0.0
 34
0.0
 15
0.0
 25
0.0
 35
0.0
146
0.0
 13
0.0
 23
0.0
 33
0.0
 16
1.0
 26
0.0
 36
0.0
 17
0.0
 27
1.0
 37
0.0
 76
     0
330
23
  0
LAYOUT
  5
22
102
{ACAD_REACTORS
330
1A
102
}
330
1A
100
AcDbPlotSettings
  1

  2
none_device
  4
Letter_(8.50_x_11.00_Inches)
  6

 40
6.35
 41
6.35
 42
6.35000508
 43
6.35000508
 44
215.9
 45
279.4
 46
0.0
 47
0.0
 48
0.0
 49
0.0
140
0.0
141
0.0
142
1.0
143
1.0
 70
  1712
 72
     1
 73
     0
 74
     0
  7

 75
     0
147
1.0
148
0.0
149
0.0
100
AcDbLayout
  1
Model
 70
     1
 71
     0
 10
0.0
 20
0.0
 11
297.0
 21
210.0
 12
0.0
 22
0.0
 32
0.0
 14
0.0
 24
0.0
 34
0.0
 15
297.0
 25
210.0
 35
0.0
146
0.0
 13
0.0
 23
0.0
 33
0.0
 16
1.0
 26
0.0
 36
0.0
 17
0.0
 27
1.0
 37
0.0
 76
     0
330
1F
331
29
  0
MLINESTYLE
  5
18
102
{ACAD_REACTORS
330
17
102
}
330
17
100
AcDbMlineStyle
  2
Standard
 70
     0
  3

 62
   256
 51
90.0
 52
90.0
 71
     2
 49
0.5
 62
   256
  6
BYLAYER
 49
-0.5
 62
   256
  6
BYLAYER
  0
ACDBPLACEHOLDER
  5
F
102
{ACAD_REACTORS
330
E
102
}
330
E
  0
SCALE
  5
48
102
{ACAD_REACTORS
330
47
102
}
330
47
100
AcDbScale
 70
     0
300
1:1
140
1.0
141
1.0
290
     1
  0
SCALE
  5
49
102
{ACAD_REACTORS
330
47
102
}
330
47
100
AcDbScale
 70
     0
300
1:2
140
1.0
141
2.0
290
     0
  0
SCALE
  5
4A
102
{ACAD_REACTORS
330
47
102
}
330
47
100
AcDbScale
 70
     0
300
1:4
140
1.0
141
4.0
290
     0
  0
SCALE
  5
4B
102
{ACAD_REACTORS
330
47
102
}
330
47
100
AcDbScale
 70
     0
300
1:5
140
1.0
141
5.0
290
     0
  0
SCALE
  5
4C
102
{ACAD_REACTORS
330
47
102
}
330
47
100
AcDbScale
 70
     0
300
1:8
140
1.0
141
8.0
290
     0
  0
SCALE
  5
4D
102
{ACAD_REACTORS
330
47
102
}
330
47
100
AcDbScale
 70
     0
300
1:10
140
1.0
141
10.0
290
     0
  0
SCALE
  5
4E
102
{ACAD_REACTORS
330
47
102
}
330
47
100
AcDbScale
 70
     0
300
1:16
140
1.0
141
16.0
290
     0
  0
SCALE
  5
4F
102
{ACAD_REACTORS
330
47
102
}
330
47
100
AcDbScale
 70
     0
300
1:20
140
1.0
141
20.0
290
     0
  0
SCALE
  5
50
102
{ACAD_REACTORS
330
47
102
}
330
47
100
AcDbScale
 70
     0
300
1:30
140
1.0
141
30.0
290
     0
  0
SCALE
  5
51
102
{ACAD_REACTORS
330
47
102
}
330
47
100
AcDbScale
 70
     0
300
1:40
140
1.0
141
40.0
290
     0
  0
SCALE
  5
52
102
{ACAD_REACTORS
330
47
102
}
330
47
100
AcDbScale
 70
     0
300
1:50
140
1.0
141
50.0
290
     0
  0
SCALE
  5
53
102
{ACAD_REACTORS
330
47
102
}
330
47
100
AcDbScale
 70
     0
300
1:100
140
1.0
141
100.0
290
     0
  0
SCALE
  5
54
102
{ACAD_REACTORS
330
47
102
}
330
47
100
AcDbScale
 70
     0
300
2:1
140
2.0
141
1.0
290
     0
  0
SCALE
  5
55
102
{ACAD_REACTORS
330
47
102
}
330
47
100
AcDbScale
 70
     0
300
4:1
140
4.0
141
1.0
290
     0
  0
SCALE
  5
56
102
{ACAD_REACTORS
330
47
102
}
330
47
100
AcDbScale
 70
     0
300
8:1
140
8.0
141
1.0
290
     0
  0
SCALE
  5
57
102
{ACAD_REACTORS
330
47
102
}
330
47
100
AcDbScale
 70
     0
300
10:1
140
10.0
141
1.0
290
     0
  0
SCALE
  5
58
102
{ACAD_REACTORS
330
47
102
}
330
47
100
AcDbScale
 70
     0
300
100:1
140
100.0
141
1.0
290
     0
  0
ENDSEC
  0
EOF
