  0
SECTION
  2
HEADER
  9
$ACADVER
  1
AC1015
  9
$ACADMAINTVER
 70
     6
  9
$DWGCODEPAGE
  3
DOS932
  9
$INSBASE
 10
0.0
 20
0.0
 30
0.0
  9
$EXTMIN
 10
0.0
 20
0.0
 30
0.0
  9
$EXTMAX
 10
297.0
 20
210.0
 30
0.0
  9
$LIMMIN
 10
0.0
 20
0.0
  9
$LIMMAX
 10
297.0
 20
210.0
  9
$ORTHOMODE
 70
     0
  9
$REGENMODE
 70
     1
  9
$FILLMODE
 70
     1
  9
$QTEXTMODE
 70
     0
  9
$MIRRTEXT
 70
     1
  9
$LTSCALE
 40
1.0
  9
$ATTMODE
 70
     1
  9
$TEXTSIZE
 40
3.5277777778
  9
$TRACEWID
 40
1.0
  9
$TEXTSTYLE
  7
Standard
  9
$CLAYER
  8
0
  9
$CELTYPE
  6
ByLayer
  9
$CECOLOR
 62
   256
  9
$CELTSCALE
 40
1.0
  9
$DISPSILH
 70
     0
  9
$DIMSCALE
 40
1.0
  9
$DIMASZ
 40
2.728515625
  9
$DIMEXO
 40
1.0
  9
$DIMDLI
 40
3.75
  9
$DIMRND
 40
0.0
  9
$DIMDLE
 40
0.0
  9
$DIMEXE
 40
1.0
  9
$DIMTP
 40
0.0
  9
$DIMTM
 40
0.0
  9
$DIMTXT
 40
3.5277777778
  9
$DIMCEN
 40
2.5
  9
$DIMTSZ
 40
0.0
  9
$DIMTOL
 70
     0
  9
$DIMLIM
 70
     0
  9
$DIMTIH
 70
     1
  9
$DIMTOH
 70
     1
  9
$DIMSE1
 70
     0
  9
$DIMSE2
 70
     0
  9
$DIMTAD
 70
     1
  9
$DIMZIN
 70
     0
  9
$DIMBLK
  1

  9
$DIMASO
 70
     1
  9
$DIMSHO
 70
     1
  9
$DIMPOST
  1

  9
$DIMAPOST
  1

  9
$DIMALT
 70
     0
  9
$DIMALTD
 70
     3
  9
$DIMALTF
 40
0.0393700787
  9
$DIMLFAC
 40
1.0
  9
$DIMTOFL
 70
     1
  9
$DIMTVP
 40
0.0
  9
$DIMTIX
 70
     0
  9
$DIMSOXD
 70
     0
  9
$DIMSAH
 70
     0
  9
$DIMBLK1
  1

  9
$DIMBLK2
  1

  9
$DIMSTYLE
  2
ISO-25
  9
$DIMCLRD
 70
     0
  9
$DIMCLRE
 70
     0
  9
$DIMCLRT
 70
     0
  9
$DIMTFAC
 40
1.0
  9
$DIMGAP
 40
1.524
  9
$DIMJUST
 70
     0
  9
$DIMSD1
 70
     0
  9
$DIMSD2
 70
     0
  9
$DIMTOLJ
 70
     0
  9
$DIMTZIN
 70
     0
  9
$DIMALTZ
 70
     0
  9
$DIMALTTZ
 70
     0
  9
$DIMUPT
 70
     0
  9
$DIMDEC
 70
     2
  9
$DIMTDEC
 70
     2
  9
$DIMALTU
 70
     2
  9
$DIMALTTD
 70
     3
  9
$DIMTXSTY
  7
Standard
  9
$DIMAUNIT
 70
     0
  9
$DIMADEC
 70
     2
  9
$DIMALTRND
 40
0.0
  9
$DIMAZIN
 70
     0
  9
$DIMDSEP
 70
    44
  9
$DIMATFIT
 70
     3
  9
$DIMFRAC
 70
     0
  9
$DIMLDRBLK
  1

  9
$DIMLUNIT
 70
     2
  9
$DIMLWD
 70
    -2
  9
$DIMLWE
 70
    -2
  9
$DIMTMOVE
 70
     0
  9
$LUNITS
 70
     2
  9
$LUPREC
 70
     2
  9
$SKETCHINC
 40
1.0
  9
$FILLETRAD
 40
0.0
  9
$AUNITS
 70
     0
  9
$AUPREC
 70
     2
  9
$MENU
  1
.
  9
$ELEVATION
 40
0.0
  9
$PELEVATION
 40
0.0
  9
$THICKNESS
 40
0.0
  9
$LIMCHECK
 70
     0
  9
$CHAMFERA
 40
0.0
  9
$CHAMFERB
 40
0.0
  9
$CHAMFERC
 40
0.0
  9
$CHAMFERD
 40
0.0
  9
$SKPOLY
 70
     0
  9
$TDCREATE
 40
2460336.651752153
  9
$TDUCREATE
 40
2460336.276752153
  9
$TDUPDATE
 40
2460336.651752928
  9
$TDUUPDATE
 40
2460336.276752928
  9
$TDINDWG
 40
0.0000000116
  9
$TDUSRTIMER
 40
0.0000000116
  9
$USRTIMER
 70
     1
  9
$ANGBASE
 50
0.0
  9
$ANGDIR
 70
     0
  9
$PDMODE
 70
     0
  9
$PDSIZE
 40
-1.0
  9
$PLINEWID
 40
0.0
  9
$SPLFRAME
 70
     0
  9
$SPLINETYPE
 70
     6
  9
$SPLINESEGS
 70
     8
  9
$HANDSEED
  5
27E
  9
$SURFTAB1
 70
     6
  9
$SURFTAB2
 70
     6
  9
$SURFTYPE
 70
     6
  9
$SURFU
 70
     6
  9
$SURFV
 70
     6
  9
$UCSBASE
  2

  9
$UCSNAME
  2

  9
$UCSORG
 10
0.0
 20
0.0
 30
0.0
  9
$UCSXDIR
 10
1.0
 20
0.0
 30
0.0
  9
$UCSYDIR
 10
0.0
 20
1.0
 30
0.0
  9
$UCSORTHOREF
  2

  9
$UCSORTHOVIEW
 70
     0
  9
$UCSORGTOP
 10
0.0
 20
0.0
 30
0.0
  9
$UCSORGBOTTOM
 10
0.0
 20
0.0
 30
0.0
  9
$UCSORGLEFT
 10
0.0
 20
0.0
 30
0.0
  9
$UCSORGRIGHT
 10
0.0
 20
0.0
 30
0.0
  9
$UCSORGFRONT
 10
0.0
 20
0.0
 30
0.0
  9
$UCSORGBACK
 10
0.0
 20
0.0
 30
0.0
  9
$PUCSBASE
  2

  9
$PUCSNAME
  2

  9
$PUCSORG
 10
0.0
 20
0.0
 30
0.0
  9
$PUCSXDIR
 10
1.0
 20
0.0
 30
0.0
  9
$PUCSYDIR
 10
0.0
 20
1.0
 30
0.0
  9
$PUCSORTHOREF
  2

  9
$PUCSORTHOVIEW
 70
     0
  9
$PUCSORGTOP
 10
0.0
 20
0.0
 30
0.0
  9
$PUCSORGBOTTOM
 10
0.0
 20
0.0
 30
0.0
  9
$PUCSORGLEFT
 10
0.0
 20
0.0
 30
0.0
  9
$PUCSORGRIGHT
 10
0.0
 20
0.0
 30
0.0
  9
$PUCSORGFRONT
 10
0.0
 20
0.0
 30
0.0
  9
$PUCSORGBACK
 10
0.0
 20
0.0
 30
0.0
  9
$USERI1
 70
     0
  9
$USERI2
 70
     0
  9
$USERI3
 70
     0
  9
$USERI4
 70
     0
  9
$USERI5
 70
     0
  9
$USERR1
 40
0.0
  9
$USERR2
 40
0.0
  9
$USERR3
 40
0.0
  9
$USERR4
 40
0.0
  9
$USERR5
 40
0.0
  9
$WORLDVIEW
 70
     1
  9
$SHADEDGE
 70
     3
  9
$SHADEDIF
 70
    70
  9
$TILEMODE
 70
     1
  9
$MAXACTVP
 70
    64
  9
$PINSBASE
 10
0.0
 20
0.0
 30
0.0
  9
$PLIMCHECK
 70
     0
  9
$PEXTMIN
 10
1.0000000000E+20
 20
1.0000000000E+20
 30
1.0000000000E+20
  9
$PEXTMAX
 10
-1.0000000000E+20
 20
-1.0000000000E+20
 30
-1.0000000000E+20
  9
$PLIMMIN
 10
0.0
 20
0.0
  9
$PLIMMAX
 10
420.0
 20
297.0
  9
$UNITMODE
 70
     0
  9
$VISRETAIN
 70
     1
  9
$PLINEGEN
 70
     0
  9
$PSLTSCALE
 70
     1
  9
$TREEDEPTH
 70
  3020
  9
$CMLSTYLE
  2
Standard
  9
$CMLJUST
 70
     0
  9
$CMLSCALE
 40
20.0
  9
$PROXYGRAPHICS
 70
     1
  9
$MEASUREMENT
 70
     1
  9
$CELWEIGHT
370
    -1
  9
$ENDCAPS
280
     0
  9
$JOINSTYLE
280
     0
  9
$LWDISPLAY
290
     1
  9
$INSUNITS
 70
     4
  9
$HYPERLINKBASE
  1

  9
$STYLESHEET
  1

  9
$XEDIT
290
     1
  9
$CEPSNTYPE
380
     0
  9
$PSTYLEMODE
290
     1
  9
$FINGERPRINTGUID
  2
{c3188d72-dd0a-4e99-92a1-fb1da7fda504}
  9
$VERSIONGUID
  2
{FAEB1C32-E019-11D5-929B-00C0DF256EC4}
  9
$EXTNAMES
290
     1
  9
$PSVPSCALE
 40
0.0
  9
$OLESTARTUP
290
     0
  0
ENDSEC
  0
SECTION
  2
CLASSES
  0
CLASS
  1
ACDBDICTIONARYWDFLT
  2
AcDbDictionaryWithDefault
  3
ObjectDBX Classes
 90
        0
280
     0
281
     0
  0
CLASS
  1
VISUALSTYLE
  2
AcDbVisualStyle
  3
ObjectDBX Classes
 90
     4095
280
     0
281
     0
  0
CLASS
  1
MATERIAL
  2
AcDbMaterial
  3
ObjectDBX Classes
 90
     1153
280
     0
281
     0
  0
CLASS
  1
SCALE
  2
AcDbScale
  3
ObjectDBX Classes
 90
     1153
280
     0
281
     0
  0
CLASS
  1
TABLESTYLE
  2
AcDbTableStyle
  3
ObjectDBX Classes
 90
     4095
280
     0
281
     0
  0
CLASS
  1
MLEADERSTYLE
  2
AcDbMLeaderStyle
  3
ACDB_MLEADERSTYLE_CLASS
 90
     4095
280
     0
281
     0
  0
CLASS
  1
SUN
  2
AcDbSun
  3
SCENEOE
 90
     1153
280
     0
281
     0
  0
CLASS
  1
ACDBPLACEHOLDER
  2
AcDbPlaceHolder
  3
ObjectDBX Classes
 90
        0
280
     0
281
     0
  0
CLASS
  1
LAYOUT
  2
AcDbLayout
  3
ObjectDBX Classes
 90
        0
280
     0
281
     0
  0
ENDSEC
  0
SECTION
  2
TABLES
  0
TABLE
  2
VPORT
  5
8
330
0
100
AcDbSymbolTable
 70
     1
  0
VPORT
  5
29
330
8
100
AcDbSymbolTableRecord
100
AcDbViewportTableRecord
  2
*Active
 70
     0
 10
0.0
 20
0.0
 11
1.0
 21
1.0
 12
148.5
 22
105.0
 13
0.0
 23
0.0
 14
10.0
 24
10.0
 15
10.0
 25
10.0
 16
0.0
 26
0.0
 36
1.0
 17
0.0
 27
0.0
 37
0.0
 40
210.0
 41
1.4142857143
 42
50.0
 43
0.0
 44
0.0
 50
0.0
 51
0.0
 71
     0
 72
  2000
 73
     1
 74
     3
 75
     0
 76
     0
 77
     0
 78
     0
281
     0
 65
     1
110
0.0
120
0.0
130
0.0
111
1.0
121
0.0
131
0.0
112
0.0
122
1.0
132
0.0
 79
     0
146
0.0
  0
ENDTAB
  0
TABLE
  2
LTYPE
  5
5
330
0
100
AcDbSymbolTable
 70
     6
  0
LTYPE
  5
14
330
5
100
AcDbSymbolTableRecord
100
AcDbLinetypeTableRecord
  2
ByBlock
 70
     0
  3

 72
    65
 73
     0
 40
0.0
  0
LTYPE
  5
15
330
5
100
AcDbSymbolTableRecord
100
AcDbLinetypeTableRecord
  2
ByLayer
 70
     0
  3

 72
    65
 73
     0
 40
0.0
  0
LTYPE
  5
16
330
5
100
AcDbSymbolTableRecord
100
AcDbLinetypeTableRecord
  2
Continuous
 70
     0
  3
Solid line
 72
    65
 73
     0
 40
0.0
  0
LTYPE
  5
5E
330
5
100
AcDbSymbolTableRecord
100
AcDbLinetypeTableRecord
  2
HIDDEN
 70
     0
  3
Hidden __ __ __ __ __ __ __ __ __ __ __ __ __ __
 72
    65
 73
     2
 40
1.905
 49
1.27
 74
     0
 49
-0.635
 74
     0
  0
LTYPE
  5
5F
330
5
100
AcDbSymbolTableRecord
100
AcDbLinetypeTableRecord
  2
PHANTOM
 70
     0
  3
Phantom ______  __  __  ______  __  __  ______
 72
    65
 73
     6
 40
12.7
 49
6.35
 74
     0
 49
-1.27
 74
     0
 49
1.27
 74
     0
 49
-1.27
 74
     0
 49
1.27
 74
     0
 49
-1.27
 74
     0
  0
LTYPE
  5
60
330
5
100
AcDbSymbolTableRecord
100
AcDbLinetypeTableRecord
  2
CENTER
 70
     0
  3
Center ____ _ ____ _ ____ _ ____ _ ____ _ ____
 72
    65
 73
     4
 40
10.16
 49
6.35
 74
     0
 49
-1.27
 74
     0
 49
1.27
 74
     0
 49
-1.27
 74
     0
  0
LTYPE
  5
61
330
5
100
AcDbSymbolTableRecord
100
AcDbLinetypeTableRecord
  2
CENTERX2
 70
     0
  3
Center (2x) ________  __  ________  __  _____
 72
    65
 73
     4
 40
20.32
 49
12.7
 74
     0
 49
-2.54
 74
     0
 49
2.54
 74
     0
 49
-2.54
 74
     0
  0
LTYPE
  5
62
330
5
100
AcDbSymbolTableRecord
100
AcDbLinetypeTableRecord
  2
DOT2
 70
     0
  3
Dot (.5x) ........................................
 72
    65
 73
     2
 40
0.635
 49
0.0
 74
     0
 49
-0.635
 74
     0
  0
ENDTAB
  0
TABLE
  2
LAYER
  5
2
330
0
100
AcDbSymbolTable
 70
     2
  0
LAYER
  5
10
330
2
100
AcDbSymbolTableRecord
100
AcDbLayerTableRecord
  2
0
 70
     0
 62
     7
  6
Continuous
370
    -3
390
F
  0
LAYER
  5
63
330
2
100
AcDbSymbolTableRecord
100
AcDbLayerTableRecord
  2
FORMAT
 70
     0
 62
     7
  6
Continuous
370
    -3
390
F
  0
ENDTAB
  0
TABLE
  2
STYLE
  5
3
330
0
100
AcDbSymbolTable
 70
     2
  0
STYLE
  5
11
330
3
100
AcDbSymbolTableRecord
100
AcDbTextStyleTableRecord
  2
Standard
 70
     0
 40
0.0
 41
1.0
 50
0.0
 71
     0
 42
3.5277777778
  3
txt
  4
bigfont
  0
STYLE
  5
64
330
3
100
AcDbSymbolTableRecord
100
AcDbTextStyleTableRecord
  2
SLDTEXTSTYLE0
 70
     0
 40
0.0
 41
0.7
 50
0.0
 71
     0
 42
3.5277777778
  3
TXT
  4
bigfont
  0
ENDTAB
  0
TABLE
  2
VIEW
  5
6
330
0
100
AcDbSymbolTable
 70
     0
  0
ENDTAB
  0
TABLE
  2
UCS
  5
7
330
0
100
AcDbSymbolTable
 70
     0
  0
ENDTAB
  0
TABLE
  2
APPID
  5
9
330
0
100
AcDbSymbolTable
 70
     1
  0
APPID
  5
12
330
9
100
AcDbSymbolTableRecord
100
AcDbRegAppTableRecord
  2
ACAD
 70
     0
  0
ENDTAB
  0
TABLE
  2
DIMSTYLE
  5
A
330
0
100
AcDbSymbolTable
 70
     1
100
AcDbDimStyleTable
  0
DIMSTYLE
105
27
330
A
100
AcDbSymbolTableRecord
100
AcDbDimStyleTableRecord
  2
ISO-25
 70
     0
 41
2.5
 42
0.625
 43
3.75
 44
1.25
 73
     0
 74
     0
 77
     1
 78
     8
140
2.5
141
2.5
143
0.0393700787
147
0.625
171
     3
172
     1
178
     0
271
     2
272
     2
274
     3
278
    44
283
     0
284
     8
340
11
  0
ENDTAB
  0
TABLE
  2
BLOCK_RECORD
  5
1
330
0
100
AcDbSymbolTable
 70
     3
  0
BLOCK_RECORD
  5
1F
330
1
100
AcDbSymbolTableRecord
100
AcDbBlockTableRecord
  2
*Model_Space
340
22
  0
BLOCK_RECORD
  5
1B
330
1
100
AcDbSymbolTableRecord
100
AcDbBlockTableRecord
  2
*Paper_Space
340
1E
  0
BLOCK_RECORD
  5
23
330
1
100
AcDbSymbolTableRecord
100
AcDbBlockTableRecord
  2
*Paper_Space0
340
26
  0
BLOCK_RECORD
  5
1CD
330
1
100
AcDbSymbolTableRecord
100
AcDbBlockTableRecord
  2
SW_CENTERMARKSYMBOL_0
340
0
102
{BLKREFS
331
1D8
102
}
  0
BLOCK_RECORD
  5
271
330
1
100
AcDbSymbolTableRecord
100
AcDbBlockTableRecord
  2
SW_CENTERMARKSYMBOL_1
340
0
102
{BLKREFS
331
27C
102
}
  0
ENDTAB
  0
ENDSEC
  0
SECTION
  2
BLOCKS
  0
BLOCK
  5
20
330
1F
100
AcDbEntity
  8
0
100
AcDbBlockBegin
  2
*Model_Space
 70
     0
 10
0.0
 20
0.0
 30
0.0
  3
*Model_Space
  1

  0
ENDBLK
  5
21
330
1F
100
AcDbEntity
  8
0
100
AcDbBlockEnd
  0
BLOCK
  5
1C
330
1B
100
AcDbEntity
 67
     1
  8
0
100
AcDbBlockBegin
  2
*Paper_Space
 70
     0
 10
0.0
 20
0.0
 30
0.0
  3
*Paper_Space
  1

  0
ENDBLK
  5
1D
330
1B
100
AcDbEntity
 67
     1
  8
0
100
AcDbBlockEnd
  0
BLOCK
  5
24
330
23
100
AcDbEntity
  8
0
100
AcDbBlockBegin
  2
*Paper_Space0
 70
     0
 10
0.0
 20
0.0
 30
0.0
  3
*Paper_Space0
  1

  0
ENDBLK
  5
25
330
23
100
AcDbEntity
  8
0
100
AcDbBlockEnd
  0
BLOCK
  5
1CE
330
1CD
100
AcDbEntity
  8
0
100
AcDbBlockBegin
  2
SW_CENTERMARKSYMBOL_0
 70
     0
 10
0.0
 20
0.0
 30
0.0
  3
SW_CENTERMARKSYMBOL_0
  1

  0
LINE
  5
1D0
330
1CD
100
AcDbEntity
  8
FORMAT
 62
     0
100
AcDbLine
 10
0.0
 20
0.0
 30
0.0
 11
0.0
 21
2.5
 31
0.0
  0
LINE
  5
1D1
330
1CD
100
AcDbEntity
  8
FORMAT
 62
     0
100
AcDbLine
 10
0.0
 20
0.0
 30
0.0
 11
-2.5
 21
0.0
 31
0.0
  0
LINE
  5
1D2
330
1CD
100
AcDbEntity
  8
FORMAT
 62
     0
100
AcDbLine
 10
0.0
 20
0.0
 30
0.0
 11
0.0
 21
-2.5
 31
0.0
  0
LINE
  5
1D3
330
1CD
100
AcDbEntity
  8
FORMAT
 62
     0
100
AcDbLine
 10
0.0
 20
0.0
 30
0.0
 11
2.5
 21
0.0
 31
0.0
  0
LINE
  5
1D4
330
1CD
100
AcDbEntity
  8
FORMAT
 62
     0
100
AcDbLine
 10
0.0
 20
5.0
 30
0.0
 11
0.0
 21
29.8513478021
 31
0.0
  0
LINE
  5
1D5
330
1CD
100
AcDbEntity
  8
FORMAT
 62
     0
100
AcDbLine
 10
-5.0
 20
0.0
 30
0.0
 11
-10.75
 21
0.0
 31
0.0
  0
LINE
  5
1D6
330
1CD
100
AcDbEntity
  8
FORMAT
 62
     0
100
AcDbLine
 10
0.0
 20
-5.0
 30
0.0
 11
0.0
 21
-25.4801144182
 31
0.0
  0
LINE
  5
1D7
330
1CD
100
AcDbEntity
  8
FORMAT
 62
     0
100
AcDbLine
 10
5.0
 20
0.0
 30
0.0
 11
10.75
 21
0.0
 31
0.0
  0
ENDBLK
  5
1CF
330
1CD
100
AcDbEntity
  8
0
100
AcDbBlockEnd
  0
BLOCK
  5
272
330
271
100
AcDbEntity
  8
0
100
AcDbBlockBegin
  2
SW_CENTERMARKSYMBOL_1
 70
     0
 10
0.0
 20
0.0
 30
0.0
  3
SW_CENTERMARKSYMBOL_1
  1

  0
LINE
  5
274
330
271
100
AcDbEntity
  8
FORMAT
 62
     0
100
AcDbLine
 10
0.0
 20
0.0
 30
0.0
 11
0.0
 21
2.5
 31
0.0
  0
LINE
  5
275
330
271
100
AcDbEntity
  8
FORMAT
 62
     0
100
AcDbLine
 10
0.0
 20
0.0
 30
0.0
 11
-2.5
 21
0.0
 31
0.0
  0
LINE
  5
276
330
271
100
AcDbEntity
  8
FORMAT
 62
     0
100
AcDbLine
 10
0.0
 20
0.0
 30
0.0
 11
0.0
 21
-2.5
 31
0.0
  0
LINE
  5
277
330
271
100
AcDbEntity
  8
FORMAT
 62
     0
100
AcDbLine
 10
0.0
 20
0.0
 30
0.0
 11
2.5
 21
0.0
 31
0.0
  0
LINE
  5
278
330
271
100
AcDbEntity
  8
FORMAT
 62
     0
100
AcDbLine
 10
0.0
 20
5.0
 30
0.0
 11
0.0
 21
9.95
 31
0.0
  0
LINE
  5
279
330
271
100
AcDbEntity
  8
FORMAT
 62
     0
100
AcDbLine
 10
-5.0
 20
0.0
 30
0.0
 11
-41.5085394561
 21
0.0
 31
0.0
  0
LINE
  5
27A
330
271
100
AcDbEntity
  8
FORMAT
 62
     0
100
AcDbLine
 10
0.0
 20
-5.0
 30
0.0
 11
0.0
 21
-9.95
 31
0.0
  0
LINE
  5
27B
330
271
100
AcDbEntity
  8
FORMAT
 62
     0
100
AcDbLine
 10
5.0
 20
0.0
 30
0.0
 11
13.6657311102
 21
0.0
 31
0.0
  0
ENDBLK
  5
273
330
271
100
AcDbEntity
  8
0
100
AcDbBlockEnd
  0
ENDSEC
  0
SECTION
  2
ENTITIES
  0
MTEXT
  5
65
330
1F
100
AcDbEntity
  8
FORMAT
100
AcDbMText
 10
119.0506399017
 20
91.3748994401
 30
0.0
 40
2.6458333333
 41
0.0
 71
     1
 72
     1
  1
エースボール　アングル型　BH-3309R
  7
SLDTEXTSTYLE0
 73
     1
 44
1.0
  0
LINE
  5
66
330
1F
100
AcDbEntity
  8
0
  6
Continuous
 62
     7
370
    25
100
AcDbLine
 10
107.815968958
 20
38.8163975178
 30
0.0
 11
109.0616357651
 21
38.0972114515
 31
0.0
  0
LINE
  5
67
330
1F
100
AcDbEntity
  8
0
  6
Continuous
 62
     7
370
    25
100
AcDbLine
 10
126.0455107651
 20
38.0972114515
 30
0.0
 11
127.2911775721
 21
38.8163975178
 31
0.0
  0
LINE
  5
68
330
1F
100
AcDbEntity
  8
0
  6
Continuous
 62
     7
370
    25
100
AcDbLine
 10
128.6947045179
 20
40.3596071444
 30
0.0
 11
129.5535732651
 21
41.8472114515
 31
0.0
  0
LINE
  5
69
330
1F
100
AcDbEntity
  8
0
  6
Continuous
 62
     7
370
    25
100
AcDbLine
 10
129.5535732651
 20
58.3472114515
 30
0.0
 11
128.6947045179
 21
59.8348157585
 31
0.0
  0
LINE
  5
6A
330
1F
100
AcDbEntity
  8
0
  6
Continuous
 62
     7
370
    25
100
AcDbLine
 10
109.0616357651
 20
38.0972114515
 30
0.0
 11
109.3562010953
 21
28.6711208851
 31
0.0
  0
LINE
  5
6B
330
1F
100
AcDbEntity
  8
0
  6
Continuous
 62
     7
370
    25
100
AcDbLine
 10
125.7509454349
 20
28.6711208851
 30
0.0
 11
126.0455107651
 21
38.0972114515
 31
0.0
  0
LINE
  5
6C
330
1F
100
AcDbEntity
  8
0
  6
Continuous
 62
     7
370
    25
100
AcDbLine
 10
109.3562010953
 20
28.6711208851
 30
0.0
 11
110.5535732651
 21
26.5972114515
 31
0.0
  0
LINE
  5
6D
330
1F
100
AcDbEntity
  8
0
  6
Continuous
 62
     7
370
    25
100
AcDbLine
 10
124.5535732651
 20
26.5972114515
 30
0.0
 11
125.7509454349
 21
28.6711208851
 31
0.0
  0
SPLINE
  5
6E
330
1F
100
AcDbEntity
  8
0
  6
Continuous
 62
     7
370
    25
100
AcDbSpline
210
0.0
220
0.0
230
1.0
 70
     8
 71
     3
 72
    12
 73
     8
 74
     0
 42
0.00000001
 43
0.00000001
 40
0.0
 40
0.0
 40
0.0
 40
0.0
 40
0.1607859063965061
 40
0.4144649494842351
 40
0.6730857881191626
 40
0.958828110235571
 40
0.9999999999999999
 40
0.9999999999999999
 40
0.9999999999999999
 40
0.9999999999999999
 10
111.6633045219995
 20
59.59652625508222
 30
0.0
 10
111.6640503345885
 20
59.55437324366784
 30
0.0
 10
111.665972848719
 20
59.44571355988072
 30
0.0
 10
111.6255547801358
 20
59.2717025274499
 30
0.0
 10
111.540667737469
 20
59.08118837729933
 30
0.0
 10
111.456002647371
 20
58.94930348755707
 30
0.0
 10
111.3915437435481
 20
58.89293736177897
 30
0.0
 10
111.3834257273038
 20
58.88583855777277
 30
0.0
  0
SPLINE
  5
6F
330
1F
100
AcDbEntity
  8
0
  6
Continuous
 62
     7
370
    25
100
AcDbSpline
210
0.0
220
0.0
230
1.0
 70
     8
 71
     3
 72
    12
 73
     8
 74
     0
 42
0.00000001
 43
0.00000001
 40
0.0
 40
0.0
 40
0.0
 40
0.0
 40
0.0905597638590951
 40
0.3804955599270435
 40
0.6453705950803176
 40
0.8896166704505155
 40
1.0
 40
1.0
 40
1.0
 40
1.0
 10
123.7390070986833
 20
58.90285716190503
 30
0.0
 10
123.7220034149385
 20
58.91855118615564
 30
0.0
 10
123.6505608018882
 20
58.98449113884848
 30
0.0
 10
123.5626680214655
 20
59.12748361046049
 30
0.0
 10
123.4869936953485
 20
59.31670800427928
 30
0.0
 10
123.4540591331601
 20
59.47340168264796
 30
0.0
 10
123.4560425724137
 20
59.56398209878418
 30
0.0
 10
123.4566599454395
 20
59.59217651184295
 30
0.0
  0
LINE
  5
70
330
1F
100
AcDbEntity
  8
0
  6
Continuous
 62
     7
370
    25
100
AcDbLine
 10
123.4535732651
 20
59.5926806314
 30
0.0
 11
123.4535732651
 21
60.5972114515
 31
0.0
  0
LINE
  5
71
330
1F
100
AcDbEntity
  8
0
  6
Continuous
 62
     7
370
    25
100
AcDbLine
 10
111.6535732651
 20
60.5972114515
 30
0.0
 11
111.6535732651
 21
59.5972114515
 31
0.0
  0
LINE
  5
72
330
1F
100
AcDbEntity
  8
0
  6
Continuous
 62
     7
370
    25
100
AcDbLine
 10
111.3834063577
 20
58.8919491807
 30
0.0
 11
110.8390420852
 21
59.8348157585
 31
0.0
  0
LINE
  5
73
330
1F
100
AcDbEntity
  8
0
  6
Continuous
 62
     7
370
    25
100
AcDbLine
 10
106.7681044449
 20
59.8348157585
 30
0.0
 11
106.0535732651
 21
58.5972114515
 31
0.0
  0
LINE
  5
74
330
1F
100
AcDbEntity
  8
0
  6
Continuous
 62
     7
370
    25
100
AcDbLine
 10
124.2681044449
 20
59.8348157585
 30
0.0
 11
123.7237401724
 21
58.8919491807
 31
0.0
  0
LINE
  5
75
330
1F
100
AcDbEntity
  8
0
  6
Continuous
 62
     7
370
    25
100
AcDbLine
 10
106.0535732651
 20
41.5972114515
 30
0.0
 11
106.7681044449
 21
40.3596071444
 31
0.0
  0
LINE
  5
76
330
1F
100
AcDbEntity
  8
0
  6
Continuous
 62
     7
370
    25
100
AcDbLine
 10
127.2911775721
 20
40.3596071444
 30
0.0
 11
128.6972725734
 21
40.3596071444
 31
0.0
  0
LINE
  5
77
330
1F
100
AcDbEntity
  8
0
  6
Continuous
 62
     7
370
    25
100
AcDbLine
 10
127.2911775721
 20
38.8138371365
 30
0.0
 11
127.2911775721
 21
40.3596071444
 31
0.0
  0
LINE
  5
78
330
1F
100
AcDbEntity
  8
0
  6
Continuous
 62
     7
370
    25
100
AcDbLine
 10
110.8416101407
 20
59.8348157585
 30
0.0
 11
106.7655440636
 21
59.8348157585
 31
0.0
  0
LINE
  5
79
330
1F
100
AcDbEntity
  8
0
  6
Continuous
 62
     7
370
    25
100
AcDbLine
 10
128.6972725734
 20
59.8348157585
 30
0.0
 11
124.2655363894
 21
59.8348157585
 31
0.0
  0
LINE
  5
7A
330
1F
100
AcDbEntity
  8
0
  6
Continuous
 62
     7
370
    25
100
AcDbLine
 10
107.815968958
 20
40.3596071444
 30
0.0
 11
107.815968958
 21
38.8138371365
 31
0.0
  0
LINE
  5
7B
330
1F
100
AcDbEntity
  8
0
  6
Continuous
 62
     7
370
    25
100
AcDbLine
 10
106.7655440636
 20
40.3596071444
 30
0.0
 11
107.815968958
 21
40.3596071444
 31
0.0
  0
LINE
  5
7C
330
1F
100
AcDbEntity
  8
0
  6
Continuous
 62
     7
370
    25
100
AcDbLine
 10
106.0535732651
 20
58.0972114515
 30
0.0
 11
103.2535732651
 21
58.0972114515
 31
0.0
  0
LINE
  5
7D
330
1F
100
AcDbEntity
  8
0
  6
Continuous
 62
     7
370
    25
100
AcDbLine
 10
103.2535732651
 20
42.0972114515
 30
0.0
 11
106.0535732651
 21
42.0972114515
 31
0.0
  0
LINE
  5
7E
330
1F
100
AcDbEntity
  8
0
  6
Continuous
 62
     7
370
    25
100
AcDbLine
 10
103.2535732651
 20
58.0972114515
 30
0.0
 11
103.0535732651
 21
57.8972114515
 31
0.0
  0
LINE
  5
7F
330
1F
100
AcDbEntity
  8
0
  6
Continuous
 62
     7
370
    25
100
AcDbLine
 10
103.0535732651
 20
42.2972114515
 30
0.0
 11
103.2535732651
 21
42.0972114515
 31
0.0
  0
LINE
  5
80
330
1F
100
AcDbEntity
  8
0
  6
Continuous
 62
     7
370
    25
100
AcDbLine
 10
82.5535732651
 20
54.5972114515
 30
0.0
 11
78.5335732651
 21
53.9272114515
 31
0.0
  0
LINE
  5
81
330
1F
100
AcDbEntity
  8
0
  6
Continuous
 62
     7
370
    25
100
AcDbLine
 10
78.5335732651
 20
46.2672114515
 30
0.0
 11
82.5535732651
 21
45.5972114515
 31
0.0
  0
LINE
  5
82
330
1F
100
AcDbEntity
  8
0
  6
Continuous
 62
     7
370
    25
100
AcDbLine
 10
96.0535732651
 20
54.5972114515
 30
0.0
 11
91.5535732651
 21
53.8472114515
 31
0.0
  0
LINE
  5
83
330
1F
100
AcDbEntity
  8
0
  6
Continuous
 62
     7
370
    25
100
AcDbLine
 10
91.5535732651
 20
46.3472114515
 30
0.0
 11
96.0535732651
 21
45.5972114515
 31
0.0
  0
LINE
  5
84
330
1F
100
AcDbEntity
  8
0
  6
Continuous
 62
     7
370
    25
100
AcDbLine
 10
91.5535732651
 20
54.5972114515
 30
0.0
 11
87.0535732651
 21
53.8472114515
 31
0.0
  0
LINE
  5
85
330
1F
100
AcDbEntity
  8
0
  6
Continuous
 62
     7
370
    25
100
AcDbLine
 10
87.0535732651
 20
46.3472114515
 30
0.0
 11
91.5535732651
 21
45.5972114515
 31
0.0
  0
LINE
  5
86
330
1F
100
AcDbEntity
  8
0
  6
Continuous
 62
     7
370
    25
100
AcDbLine
 10
103.0535732651
 20
54.5972114515
 30
0.0
 11
100.5535732651
 21
54.5972114515
 31
0.0
  0
LINE
  5
87
330
1F
100
AcDbEntity
  8
0
  6
Continuous
 62
     7
370
    25
100
AcDbLine
 10
100.5535732651
 20
45.5972114515
 30
0.0
 11
103.0535732651
 21
45.5972114515
 31
0.0
  0
LINE
  5
88
330
1F
100
AcDbEntity
  8
0
  6
Continuous
 62
     7
370
    25
100
AcDbLine
 10
87.0535732651
 20
54.5972114515
 30
0.0
 11
82.5535732651
 21
53.8472114515
 31
0.0
  0
LINE
  5
89
330
1F
100
AcDbEntity
  8
0
  6
Continuous
 62
     7
370
    25
100
AcDbLine
 10
82.5535732651
 20
46.3472114515
 30
0.0
 11
87.0535732651
 21
45.5972114515
 31
0.0
  0
LINE
  5
8A
330
1F
100
AcDbEntity
  8
0
  6
Continuous
 62
     7
370
    25
100
AcDbLine
 10
100.5535732651
 20
54.5972114515
 30
0.0
 11
96.0535732651
 21
53.8472114515
 31
0.0
  0
LINE
  5
8B
330
1F
100
AcDbEntity
  8
0
  6
Continuous
 62
     7
370
    25
100
AcDbLine
 10
96.0535732651
 20
46.3472114515
 30
0.0
 11
100.5535732651
 21
45.5972114515
 31
0.0
  0
LINE
  5
8C
330
1F
100
AcDbEntity
  8
0
  6
Continuous
 62
     7
370
    25
100
AcDbLine
 10
78.5335732651
 20
53.9272114515
 30
0.0
 11
78.0535732651
 21
53.4472114515
 31
0.0
  0
LINE
  5
8D
330
1F
100
AcDbEntity
  8
0
  6
Continuous
 62
     7
370
    25
100
AcDbLine
 10
78.0535732651
 20
46.7472114515
 30
0.0
 11
78.5335732651
 21
46.2672114515
 31
0.0
  0
LINE
  5
8E
330
1F
100
AcDbEntity
  8
0
  6
Continuous
 62
     7
370
    25
100
AcDbLine
 10
124.5535732651
 20
60.5972114515
 30
0.0
 11
125.0035732651
 21
68.5972114515
 31
0.0
  0
LINE
  5
8F
330
1F
100
AcDbEntity
  8
0
  6
Continuous
 62
     7
370
    25
100
AcDbLine
 10
125.0035732651
 20
68.5972114515
 30
0.0
 11
123.0535732651
 21
76.5972114514
 31
0.0
  0
LINE
  5
90
330
1F
100
AcDbEntity
  8
0
  6
Continuous
 62
     7
370
    25
100
AcDbLine
 10
110.4829166393
 20
61.8533292428
 30
0.0
 11
110.5535732651
 21
60.5972114515
 31
0.0
  0
LINE
  5
91
330
1F
100
AcDbEntity
  8
0
  6
Continuous
 62
     7
370
    25
100
AcDbLine
 10
112.0535732651
 20
76.5972114514
 30
0.0
 11
111.7995964248
 21
75.5552551836
 31
0.0
  0
SPLINE
  5
92
330
1F
100
AcDbEntity
  8
0
  6
Continuous
 62
     7
370
    25
100
AcDbSpline
210
0.0
220
0.0
230
1.0
 70
     8
 71
     3
 72
     8
 73
     4
 74
     0
 42
0.00000001
 43
0.00000001
 40
0.0
 40
0.0
 40
0.0
 40
0.0
 40
1.0
 40
1.0
 40
1.0
 40
1.0
 10
112.9347711115461
 20
42.13081491159964
 30
0.0
 10
113.1399569340894
 20
42.18737587872386
 30
0.0
 10
113.3461801347967
 20
42.2413159501377
 30
0.0
 10
113.5535732650631
 20
42.29230023988066
 30
0.0
  0
LINE
  5
93
330
1F
100
AcDbEntity
  8
0
  6
Continuous
 62
     7
370
    25
100
AcDbLine
 10
113.5535732651
 20
46.0972114515
 30
0.0
 11
111.0373371881
 21
46.0972114515
 31
0.0
  0
SPLINE
  5
94
330
1F
100
AcDbEntity
  8
0
  6
Continuous
 62
     7
370
    25
100
AcDbSpline
210
0.0
220
0.0
230
1.0
 70
     8
 71
     3
 72
     8
 73
     4
 74
     0
 42
0.00000001
 43
0.00000001
 40
0.0
 40
0.0
 40
0.0
 40
0.0
 40
1.0
 40
1.0
 40
1.0
 40
1.0
 10
110.8758518598029
 20
45.4784092979376
 30
0.0
 10
110.9324152292711
 20
45.68360383544736
 30
0.0
 10
110.9863551520924
 20
45.88982748896453
 30
0.0
 10
111.0373371880839
 20
46.09721145145463
 30
0.0
  0
LINE
  5
95
330
1F
100
AcDbEntity
  8
0
  6
Continuous
 62
     7
370
    25
100
AcDbLine
 10
106.7312946703
 20
45.4784092979
 30
0.0
 11
110.8758518598
 21
45.4784092979
 31
0.0
  0
SPLINE
  5
96
330
1F
100
AcDbEntity
  8
0
  6
Continuous
 62
     7
370
    25
100
AcDbSpline
210
0.0
220
0.0
230
1.0
 70
     8
 71
     3
 72
    10
 73
     6
 74
     0
 42
0.00000001
 43
0.00000001
 40
0.0
 40
0.0
 40
0.0
 40
0.0
 40
0.5
 40
0.5
 40
1.0
 40
1.0
 40
1.0
 40
1.0
 10
106.7312946703233
 20
45.47840929793762
 30
0.0
 10
106.5232259940921
 20
46.23321857098691
 30
0.0
 10
106.3528269880675
 20
46.99396495821882
 30
0.0
 10
106.1176670083687
 20
48.53210733584208
 30
0.0
 10
106.0535732650631
 20
49.30960848836689
 30
0.0
 10
106.0535732650631
 20
50.09721145145464
 30
0.0
  0
SPLINE
  5
97
330
1F
100
AcDbEntity
  8
0
  6
Continuous
 62
     7
370
    25
100
AcDbSpline
210
0.0
220
0.0
230
1.0
 70
     8
 71
     3
 72
    12
 73
     8
 74
     0
 42
0.00000001
 43
0.00000001
 40
0.0
 40
0.0
 40
0.0
 40
0.0
 40
0.2500000000000001
 40
0.2500000000000001
 40
0.5000000000000001
 40
0.5000000000000001
 40
1.0
 40
1.0
 40
1.0
 40
1.0
 10
106.0535732650631
 20
50.09721145145464
 30
0.0
 10
106.0535732650631
 20
50.49152953212648
 30
0.0
 10
106.0695720700442
 20
50.88518857607691
 30
0.0
 10
106.1313422083586
 20
51.66472457562225
 30
0.0
 10
106.1770843326602
 20
52.05167776374768
 30
0.0
 10
106.353754480007
 20
53.20506432660168
 30
0.0
 10
106.5240095454873
 20
53.96404681580672
 30
0.0
 10
106.7312946703233
 20
54.71601360497165
 30
0.0
  0
LINE
  5
98
330
1F
100
AcDbEntity
  8
0
  6
Continuous
 62
     7
370
    25
100
AcDbLine
 10
110.8758518598
 20
54.716013605
 30
0.0
 11
106.7312946703
 21
54.716013605
 31
0.0
  0
SPLINE
  5
99
330
1F
100
AcDbEntity
  8
0
  6
Continuous
 62
     7
370
    25
100
AcDbSpline
210
0.0
220
0.0
230
1.0
 70
     8
 71
     3
 72
     8
 73
     4
 74
     0
 42
0.00000001
 43
0.00000001
 40
0.0
 40
0.0
 40
0.0
 40
0.0
 40
1.0
 40
1.0
 40
1.0
 40
1.0
 10
111.0373371880839
 20
54.09721145145464
 30
0.0
 10
110.9864384711614
 20
54.30425648988363
 30
0.0
 10
110.9325043349106
 20
54.51049581956028
 30
0.0
 10
110.8758518598029
 20
54.71601360497165
 30
0.0
  0
SPLINE
  5
9A
330
1F
100
AcDbEntity
  8
0
  6
Continuous
 62
     7
370
    25
100
AcDbSpline
210
0.0
220
0.0
230
1.0
 70
     8
 71
     3
 72
     8
 73
     4
 74
     0
 42
0.00000001
 43
0.00000001
 40
0.0
 40
0.0
 40
0.0
 40
0.0
 40
1.0
 40
1.0
 40
1.0
 40
1.0
 10
124.0698093420423
 20
54.0972114514547
 30
0.0
 10
124.1207055752974
 20
54.30424638685847
 30
0.0
 10
124.174639530261
 20
54.51048615192347
 30
0.0
 10
124.2312946703233
 20
54.71601360497166
 30
0.0
  0
LINE
  5
9B
330
1F
100
AcDbEntity
  8
0
  6
Continuous
 62
     7
370
    25
100
AcDbLine
 10
128.7315142925
 20
54.716013605
 30
0.0
 11
124.2312946703
 21
54.716013605
 31
0.0
  0
SPLINE
  5
9C
330
1F
100
AcDbEntity
  8
0
  6
Continuous
 62
     7
370
    25
100
AcDbSpline
210
0.0
220
0.0
230
1.0
 70
     8
 71
     3
 72
    14
 73
    10
 74
     0
 42
0.00000001
 43
0.00000001
 40
0.0
 40
0.0
 40
0.0
 40
0.0
 40
0.25
 40
0.25
 40
0.5
 40
0.5
 40
0.75
 40
0.75
 40
1.0
 40
1.0
 40
1.0
 40
1.0
 10
128.7315142925055
 20
45.47840929793759
 30
0.0
 10
128.9394646532113
 20
46.23278935858757
 30
0.0
 10
129.1116864619001
 20
47.00223052605307
 30
0.0
 10
129.3463215846511
 20
48.54274188699423
 30
0.0
 10
129.4092656432787
 20
49.31759626700125
 30
0.0
 10
129.4092057305473
 20
50.87795722188681
 30
0.0
 10
129.3445910642551
 20
51.66841341467183
 30
0.0
 10
129.1080317248539
 20
53.2106930774803
 30
0.0
 10
128.9376865847745
 20
53.96808383068149
 30
0.0
 10
128.7315142925055
 20
54.71601360497165
 30
0.0
  0
LINE
  5
9D
330
1F
100
AcDbEntity
  8
0
  6
Continuous
 62
     7
370
    25
100
AcDbLine
 10
124.2312946703
 20
45.4784092979
 30
0.0
 11
128.7315142925
 21
45.4784092979
 31
0.0
  0
SPLINE
  5
9E
330
1F
100
AcDbEntity
  8
0
  6
Continuous
 62
     7
370
    25
100
AcDbSpline
210
0.0
220
0.0
230
1.0
 70
     8
 71
     3
 72
     8
 73
     4
 74
     0
 42
0.00000001
 43
0.00000001
 40
0.0
 40
0.0
 40
0.0
 40
0.0
 40
1.0
 40
1.0
 40
1.0
 40
1.0
 10
124.2312946703233
 20
45.47840929793761
 30
0.0
 10
124.1747328268863
 20
45.68359829947443
 30
0.0
 10
124.12079280963
 20
45.88982166553912
 30
0.0
 10
124.0698093420423
 20
46.09721145145458
 30
0.0
  0
LINE
  5
9F
330
1F
100
AcDbEntity
  8
0
  6
Continuous
 62
     7
370
    25
100
AcDbLine
 10
124.069809342
 20
46.0972114515
 30
0.0
 11
121.5535732651
 21
46.0972114515
 31
0.0
  0
LINE
  5
A0
330
1F
100
AcDbEntity
  8
0
  6
Continuous
 62
     7
370
    25
100
AcDbLine
 10
121.5535732651
 20
42.2923002399
 30
0.0
 11
121.5535732651
 21
46.0972114515
 31
0.0
  0
SPLINE
  5
A1
330
1F
100
AcDbEntity
  8
0
  6
Continuous
 62
     7
370
    25
100
AcDbSpline
210
0.0
220
0.0
230
1.0
 70
     8
 71
     3
 72
     8
 73
     4
 74
     0
 42
0.00000001
 43
0.00000001
 40
0.0
 40
0.0
 40
0.0
 40
0.0
 40
1.0
 40
1.0
 40
1.0
 40
1.0
 10
121.5535732650631
 20
42.29230023988065
 30
0.0
 10
121.7606023283985
 20
42.24140545017983
 30
0.0
 10
121.9668423456678
 20
42.18747160081839
 30
0.0
 10
122.1723754185801
 20
42.13081491159964
 30
0.0
  0
LINE
  5
A2
330
1F
100
AcDbEntity
  8
0
  6
Continuous
 62
     7
370
    25
100
AcDbLine
 10
122.1723754186
 20
38.7795877433
 30
0.0
 11
122.1723754186
 21
42.1308149116
 31
0.0
  0
SPLINE
  5
A3
330
1F
100
AcDbEntity
  8
0
  6
Continuous
 62
     7
370
    25
100
AcDbSpline
210
0.0
220
0.0
230
1.0
 70
     8
 71
     3
 72
    14
 73
    10
 74
     0
 42
0.00000001
 43
0.00000001
 40
0.0
 40
0.0
 40
0.0
 40
0.0
 40
0.4999999999999999
 40
0.4999999999999999
 40
0.6249999999999999
 40
0.6249999999999999
 40
0.7499999999999998
 40
0.7499999999999998
 40
1.0
 40
1.0
 40
1.0
 40
1.0
 10
112.9347711115461
 20
38.77958774326017
 30
0.0
 10
114.4330940361467
 20
38.36656411117217
 30
0.0
 10
115.9609940894938
 20
38.10326016417061
 30
0.0
 10
117.9355460012252
 20
38.10152498722088
 30
0.0
 10
118.3324128972523
 20
38.11733230749709
 30
0.0
 10
119.1155689767868
 20
38.1790104124287
 30
0.0
 10
119.5039393931441
 20
38.22482041142533
 30
0.0
 10
120.6605818215865
 20
38.40177695022381
 30
0.0
 10
121.4204161529794
 20
38.57230469234948
 30
0.0
 10
122.1723754185801
 20
38.77958774326017
 30
0.0
  0
LINE
  5
A4
330
1F
100
AcDbEntity
  8
0
  6
Continuous
 62
     7
370
    25
100
AcDbLine
 10
112.9347711115
 20
42.1308149116
 30
0.0
 11
112.9347711115
 21
38.7795877433
 31
0.0
  0
LINE
  5
A5
330
1F
100
AcDbEntity
  8
0
  6
Continuous
 62
     7
370
    25
100
AcDbLine
 10
116.6518143511
 20
48.6748384339
 30
0.0
 11
116.6101640318
 21
48.651033504
 31
0.0
  0
ELLIPSE
  5
A6
330
1F
100
AcDbEntity
  8
0
  6
Continuous
 62
     7
370
    25
100
AcDbEllipse
 10
116.2613208523
 20
49.2057159752
 30
0.0
 11
0.678412947925267
 21
6.110667527536863E-13
 31
0.0
210
0.0
220
0.0
230
1.0
 40
0.9533039403
 41
3.470145824140261
 42
5.252469180536287
  0
LINE
  5
A7
330
1F
100
AcDbEntity
  8
0
  6
Continuous
 62
     7
370
    25
100
AcDbLine
 10
115.6191960853
 20
48.9970318603
 30
0.0
 11
114.3595418803
 21
52.5194762569
 31
0.0
  0
ELLIPSE
  5
A8
330
1F
100
AcDbEntity
  8
0
  6
Continuous
 62
     7
370
    25
100
AcDbEllipse
 10
113.7685593224
 20
52.2571370208
 30
0.0
 11
0.6519124952381503
 21
6.110667527536862E-13
 31
0.0
210
0.0
220
0.0
230
1.0
 40
0.9533023292
 41
0.4357905044354821
 42
2.705800116361509
  0
LINE
  5
A9
330
1F
100
AcDbEntity
  8
0
  6
Continuous
 62
     7
370
    25
100
AcDbLine
 10
113.1775773239
 20
52.5194774022
 30
0.0
 11
111.9182125222
 21
48.9978540004
 31
0.0
  0
ELLIPSE
  5
AA
330
1F
100
AcDbEntity
  8
0
  6
Continuous
 62
     7
370
    25
100
AcDbEllipse
 10
111.2760913382
 20
49.2065368341
 30
0.0
 11
-0.6784085062757867
 21
3.268496584496461E-13
 31
0.0
210
0.0
220
0.0
230
1.0
 40
0.9533122623
 41
1.047193771187948
 42
2.813042320199934
  0
LINE
  5
AB
330
1F
100
AcDbEntity
  8
0
  6
Continuous
 62
     7
370
    25
100
AcDbLine
 10
110.9368848643
 20
48.6464489889
 30
0.0
 11
110.8853042937
 21
48.6748384339
 31
0.0
  0
LINE
  5
AC
330
1F
100
AcDbEntity
  8
0
  6
Continuous
 62
     7
370
    25
100
AcDbLine
 10
110.8853042937
 20
48.6748384339
 30
0.0
 11
111.6815729533
 21
47.1566663324
 31
0.0
  0
ELLIPSE
  5
AD
330
1F
100
AcDbEntity
  8
0
  6
Continuous
 62
     7
370
    25
100
AcDbEllipse
 10
111.7574218267
 20
47.1928198474
 30
0.0
 11
0.08480161849065837
 21
-2.131628207280301E-14
 31
0.0
210
0.0
220
0.0
230
1.0
 40
0.9533039403
 41
3.605240262590861
 42
5.462183310215296
  0
ELLIPSE
  5
AE
330
1F
100
AcDbEntity
  8
0
  6
Continuous
 62
     7
370
    25
100
AcDbEllipse
 10
113.7685593224
 20
45.1339712269
 30
0.0
 11
2.866293551216202
 21
-1.492139745096210E-12
 31
0.0
210
0.0
220
0.0
230
1.0
 40
0.9533046568
 41
0.8210016221243817
 42
2.320591031466444
  0
ELLIPSE
  5
AF
330
1F
100
AcDbEntity
  8
0
  6
Continuous
 62
     7
370
    25
100
AcDbEllipse
 10
115.7796968181
 20
47.1928198474
 30
0.0
 11
0.08480161849060153
 21
-7.105427357601002E-15
 31
0.0
210
0.0
220
0.0
230
1.0
 40
0.9533039403
 41
3.962594650556384
 42
5.819537698177291
  0
LINE
  5
B0
330
1F
100
AcDbEntity
  8
0
  6
Continuous
 62
     7
370
    25
100
AcDbLine
 10
115.8555456916
 20
47.1566663324
 30
0.0
 11
116.6518143511
 21
48.6748384339
 31
0.0
  0
ARC
  5
B1
330
1F
100
AcDbEntity
  8
0
  6
Continuous
 62
     7
370
    25
100
AcDbCircle
 10
122.4464492171
 20
49.5202924581
 30
0.0
 40
0.8889999999999969
100
AcDbArc
 50
45.0
 51
159.0751675724
  0
LINE
  5
B2
330
1F
100
AcDbEntity
  8
0
  6
Continuous
 62
     7
370
    25
100
AcDbLine
 10
123.0750671456
 20
50.1489103866
 30
0.0
 11
123.5416775312
 21
50.6155207722
 31
0.0
  0
ARC
  5
B3
330
1F
100
AcDbEntity
  8
0
  6
Continuous
 62
     7
370
    25
100
AcDbCircle
 10
122.4464492171
 20
49.5202924581
 30
0.0
 40
1.548886735692379
100
AcDbArc
 50
45.0
 51
315.0
  0
LINE
  5
B4
330
1F
100
AcDbEntity
  8
0
  6
Continuous
 62
     7
370
    25
100
AcDbLine
 10
123.5416775312
 20
48.425064144
 30
0.0
 11
123.0750671456
 21
48.8916745297
 31
0.0
  0
ARC
  5
B5
330
1F
100
AcDbEntity
  8
0
  6
Continuous
 62
     7
370
    25
100
AcDbCircle
 10
122.4464492171
 20
49.5202924581
 30
0.0
 40
0.8890000000000019
100
AcDbArc
 50
200.9248324276
 51
315.0
  0
LINE
  5
B6
330
1F
100
AcDbEntity
  8
0
  6
Continuous
 62
     7
370
    25
100
AcDbLine
 10
121.6160789684
 20
49.2027924581
 30
0.0
 11
123.5416775312
 21
49.2027924581
 31
0.0
  0
LINE
  5
B7
330
1F
100
AcDbEntity
  8
0
  6
Continuous
 62
     7
370
    25
100
AcDbLine
 10
123.5416775312
 20
49.2027924581
 30
0.0
 11
123.5416775312
 21
49.8377924581
 31
0.0
  0
LINE
  5
B8
330
1F
100
AcDbEntity
  8
0
  6
Continuous
 62
     7
370
    25
100
AcDbLine
 10
123.5416775312
 20
49.8377924581
 30
0.0
 11
121.6160789684
 21
49.8377924581
 31
0.0
  0
ARC
  5
B9
330
1F
100
AcDbEntity
  8
0
  6
Continuous
 62
     7
370
    25
100
AcDbCircle
 10
119.1043046208
 20
49.5202924581
 30
0.0
 40
0.8890000000000019
100
AcDbArc
 50
45.0
 51
315.0
  0
LINE
  5
BA
330
1F
100
AcDbEntity
  8
0
  6
Continuous
 62
     7
370
    25
100
AcDbLine
 10
119.7329225493
 20
50.1489103866
 30
0.0
 11
120.1995329349
 21
50.6155207722
 31
0.0
  0
ARC
  5
BB
330
1F
100
AcDbEntity
  8
0
  6
Continuous
 62
     7
370
    25
100
AcDbCircle
 10
119.1043046208
 20
49.5202924581
 30
0.0
 40
1.548886735692404
100
AcDbArc
 50
45.0
 51
315.0
  0
LINE
  5
BC
330
1F
100
AcDbEntity
  8
0
  6
Continuous
 62
     7
370
    25
100
AcDbLine
 10
120.1995329349
 20
48.425064144
 30
0.0
 11
119.7329225493
 21
48.8916745297
 31
0.0
  0
LINE
  5
BD
330
1F
100
AcDbEntity
  8
0
  6
Continuous
 62
     7
370
    25
100
AcDbLine
 10
124.069809342
 20
54.0972114515
 30
0.0
 11
111.0373371881
 21
54.0972114515
 31
0.0
  0
LINE
  5
BE
330
1F
100
AcDbEntity
  8
0
  6
Continuous
 62
     7
370
    25
100
AcDbLine
 10
113.5535732651
 20
42.2923002399
 30
0.0
 11
113.5535732651
 21
46.0972114515
 31
0.0
  0
LINE
  5
BF
330
1F
100
AcDbEntity
  8
0
  6
Continuous
 62
     7
370
    25
100
AcDbLine
 10
111.5535732651
 20
57.4584273836
 30
0.0
 11
111.5535732651
 21
54.0972114515
 31
0.0
  0
SPLINE
  5
C0
330
1F
100
AcDbEntity
  8
0
  6
Continuous
 62
     7
370
    25
100
AcDbSpline
210
0.0
220
0.0
230
1.0
 70
     8
 71
     3
 72
    10
 73
     6
 74
     0
 42
0.00000001
 43
0.00000001
 40
0.0
 40
0.0
 40
0.0
 40
0.0
 40
0.5
 40
0.5
 40
1.0
 40
1.0
 40
1.0
 40
1.0
 10
110.8758518598029
 20
55.14902630686387
 30
0.0
 10
110.8521764653785
 20
55.10608277596264
 30
0.0
 10
110.8390853554939
 20
55.04264033133852
 30
0.0
 10
110.8389990342056
 20
54.89016149421955
 30
0.0
 10
110.8521679681494
 20
54.80193149211228
 30
0.0
 10
110.8758518598029
 20
54.71601360497165
 30
0.0
  0
SPLINE
  5
C1
330
1F
100
AcDbEntity
  8
0
  6
Continuous
 62
     7
370
    25
100
AcDbSpline
210
0.0
220
0.0
230
1.0
 70
     8
 71
     3
 72
    12
 73
     8
 74
     0
 42
0.00000001
 43
0.00000001
 40
0.0
 40
0.0
 40
0.0
 40
0.0
 40
0.2500000000000001
 40
0.2500000000000001
 40
0.5000000000000002
 40
0.5000000000000002
 40
1.0
 40
1.0
 40
1.0
 40
1.0
 10
111.5535732650631
 20
57.45842738362237
 30
0.0
 10
111.5535732650631
 20
57.26268512074286
 30
0.0
 10
111.5377303289741
 20
57.06601851155229
 30
0.0
 10
111.4762274687365
 20
56.67675028422401
 30
0.0
 10
111.4306238276928
 20
56.4833462512711
 30
0.0
 10
111.2541728102036
 20
55.90641720001434
 30
0.0
 10
111.0837754429517
 20
55.52616776681133
 30
0.0
 10
110.8758518598029
 20
55.14902630686387
 30
0.0
  0
LINE
  5
C2
330
1F
100
AcDbEntity
  8
0
  6
Continuous
 62
     7
370
    25
100
AcDbLine
 10
112.5017584097
 20
38.7795877433
 30
0.0
 11
112.5017584097
 21
42.1308149116
 31
0.0
  0
SPLINE
  5
C3
330
1F
100
AcDbEntity
  8
0
  6
Continuous
 62
     7
370
    25
100
AcDbSpline
210
0.0
220
0.0
230
1.0
 70
     8
 71
     3
 72
    10
 73
     6
 74
     0
 42
0.00000001
 43
0.00000001
 40
0.0
 40
0.0
 40
0.0
 40
0.0
 40
0.5
 40
0.5
 40
1.0
 40
1.0
 40
1.0
 40
1.0
 10
112.5017584096539
 20
42.13081491159964
 30
0.0
 10
112.5447019405551
 20
42.10713951717525
 30
0.0
 10
112.6081443851792
 20
42.09404840729061
 30
0.0
 10
112.7606232222982
 20
42.09396208600233
 30
0.0
 10
112.8488532244054
 20
42.10713101994617
 30
0.0
 10
112.9347711115461
 20
42.13081491159963
 30
0.0
  0
SPLINE
  5
C4
330
1F
100
AcDbEntity
  8
0
  6
Continuous
 62
     7
370
    25
100
AcDbSpline
210
0.0
220
0.0
230
1.0
 70
     8
 71
     3
 72
    10
 73
     6
 74
     0
 42
0.00000001
 43
0.00000001
 40
0.0
 40
0.0
 40
0.0
 40
0.0
 40
0.5
 40
0.5
 40
1.0
 40
1.0
 40
1.0
 40
1.0
 10
112.9347711115461
 20
38.77958774326017
 30
0.0
 10
112.8488894690396
 20
38.80326164381613
 30
0.0
 10
112.7614802630742
 20
38.81635420099526
 30
0.0
 10
112.6088377779993
 20
38.81644061497754
 30
0.0
 10
112.5447147929169
 20
38.80327022337892
 30
0.0
 10
112.5017584096539
 20
38.77958774326017
 30
0.0
  0
SPLINE
  5
C5
330
1F
100
AcDbEntity
  8
0
  6
Continuous
 62
     7
370
    25
100
AcDbSpline
210
0.0
220
0.0
230
1.0
 70
     8
 71
     3
 72
    10
 73
     6
 74
     0
 42
0.00000001
 43
0.00000001
 40
0.0
 40
0.0
 40
0.0
 40
0.0
 40
0.5
 40
0.5
 40
1.0
 40
1.0
 40
1.0
 40
1.0
 10
106.7312946703233
 20
55.14902630686387
 30
0.0
 10
106.7549669102349
 20
55.10608849776463
 30
0.0
 10
106.7680609001701
 20
55.04264790787243
 30
0.0
 10
106.7681477676315
 20
54.89015876236359
 30
0.0
 10
106.7549779778722
 20
54.80192937316028
 30
0.0
 10
106.7312946703233
 20
54.71601360497165
 30
0.0
  0
LINE
  5
C6
330
1F
100
AcDbEntity
  8
0
  6
Continuous
 62
     7
370
    25
100
AcDbLine
 10
106.7312946703
 20
55.1490263069
 30
0.0
 11
110.8758518598
 21
55.1490263069
 31
0.0
  0
SPLINE
  5
C7
330
1F
100
AcDbEntity
  8
0
  6
Continuous
 62
     7
370
    25
100
AcDbSpline
210
0.0
220
0.0
230
1.0
 70
     8
 71
     3
 72
    10
 73
     6
 74
     0
 42
0.00000001
 43
0.00000001
 40
0.0
 40
0.0
 40
0.0
 40
0.0
 40
0.5
 40
0.5
 40
1.0
 40
1.0
 40
1.0
 40
1.0
 10
122.1723754185801
 20
42.13081491159961
 30
0.0
 10
122.2582624803827
 20
42.10713951717521
 30
0.0
 10
122.3456696893629
 20
42.09404840729058
 30
0.0
 10
122.4983061319567
 20
42.09396208600236
 30
0.0
 10
122.5624291769025
 20
42.1071310199463
 30
0.0
 10
122.6053881204727
 20
42.13081491159986
 30
0.0
  0
LINE
  5
C8
330
1F
100
AcDbEntity
  8
0
  6
Continuous
 62
     7
370
    25
100
AcDbLine
 10
122.6053881205
 20
42.1308149116
 30
0.0
 11
122.6053881205
 21
38.7795877433
 31
0.0
  0
SPLINE
  5
C9
330
1F
100
AcDbEntity
  8
0
  6
Continuous
 62
     7
370
    25
100
AcDbSpline
210
0.0
220
0.0
230
1.0
 70
     8
 71
     3
 72
    10
 73
     6
 74
     0
 42
0.00000001
 43
0.00000001
 40
0.0
 40
0.0
 40
0.0
 40
0.0
 40
0.5
 40
0.5
 40
1.0
 40
1.0
 40
1.0
 40
1.0
 10
122.6053881204723
 20
38.77958774326017
 30
0.0
 10
122.5624503113731
 20
38.80325998317173
 30
0.0
 10
122.4990097214809
 20
38.81635397310699
 30
0.0
 10
122.346520575972
 20
38.81644084056843
 30
0.0
 10
122.2582911867687
 20
38.80327105080908
 30
0.0
 10
122.1723754185801
 20
38.77958774326017
 30
0.0
  0
SPLINE
  5
CA
330
1F
100
AcDbEntity
  8
0
  6
Continuous
 62
     7
370
    25
100
AcDbSpline
210
0.0
220
0.0
230
1.0
 70
     8
 71
     3
 72
     8
 73
     4
 74
     0
 42
0.00000001
 43
0.00000001
 40
0.0
 40
0.0
 40
0.0
 40
0.0
 40
1.0
 40
1.0
 40
1.0
 40
1.0
 10
110.2641970804465
 20
42.8078352668259
 30
0.0
 10
110.5732142230882
 20
42.90884037465603
 30
0.0
 10
110.8885319794062
 20
43.00549716372196
 30
0.0
 10
111.2110113062492
 20
43.09721145145464
 30
0.0
  0
SPLINE
  5
CB
330
1F
100
AcDbEntity
  8
0
  6
Continuous
 62
     7
370
    25
100
AcDbSpline
210
0.0
220
0.0
230
1.0
 70
     8
 71
     3
 72
    12
 73
     8
 74
     0
 42
0.00000001
 43
0.00000001
 40
0.0
 40
0.0
 40
0.0
 40
0.0
 40
0.2500000000000002
 40
0.2500000000000002
 40
0.5000000000000004
 40
0.5000000000000004
 40
1.0
 40
1.0
 40
1.0
 40
1.0
 10
110.2641970804412
 20
42.80783526681978
 30
0.0
 10
110.4542232557444
 20
42.80412678096334
 30
0.0
 10
110.6444383184303
 20
42.78554427812567
 30
0.0
 10
111.0213750775627
 20
42.72067724115952
 30
0.0
 10
111.2086978688222
 20
42.67441168790926
 30
0.0
 10
111.7676078251363
 20
42.49868715760229
 30
0.0
 10
112.1361434832466
 20
42.33238374882554
 30
0.0
 10
112.5017584096539
 20
42.13081491159964
 30
0.0
  0
LINE
  5
CC
330
1F
100
AcDbEntity
  8
0
  6
Continuous
 62
     7
370
    25
100
AcDbLine
 10
111.5535732651
 20
46.0972114515
 30
0.0
 11
111.5535732651
 21
44.0972114515
 31
0.0
  0
SPLINE
  5
CD
330
1F
100
AcDbEntity
  8
0
  6
Continuous
 62
     7
370
    25
100
AcDbSpline
210
0.0
220
0.0
230
1.0
 70
     8
 71
     3
 72
     8
 73
     4
 74
     0
 42
0.00000001
 43
0.00000001
 40
0.0
 40
0.0
 40
0.0
 40
0.0
 40
1.0
 40
1.0
 40
1.0
 40
1.0
 10
111.5535732650631
 20
44.09721145145463
 30
0.0
 10
111.5137946068729
 20
43.95982636245454
 30
0.0
 10
111.4733056440447
 20
43.82312228064276
 30
0.0
 10
111.4321897735669
 20
43.68708991812939
 30
0.0
  0
SPLINE
  5
CE
330
1F
100
AcDbEntity
  8
0
  6
Continuous
 62
     7
370
    25
100
AcDbSpline
210
0.0
220
0.0
230
1.0
 70
     8
 71
     3
 72
     8
 73
     4
 74
     0
 42
0.00000001
 43
0.00000001
 40
0.0
 40
0.0
 40
0.0
 40
0.0
 40
1.0
 40
1.0
 40
1.0
 40
1.0
 10
110.8758518598029
 20
45.04539659604541
 30
0.0
 10
111.1230256406868
 20
44.59706130299408
 30
0.0
 10
111.3167473089908
 20
44.1448868122505
 30
0.0
 10
111.4321897735669
 20
43.68708991812939
 30
0.0
  0
SPLINE
  5
CF
330
1F
100
AcDbEntity
  8
0
  6
Continuous
 62
     7
370
    25
100
AcDbSpline
210
0.0
220
0.0
230
1.0
 70
     8
 71
     3
 72
    10
 73
     6
 74
     0
 42
0.00000001
 43
0.00000001
 40
0.0
 40
0.0
 40
0.0
 40
0.0
 40
0.5
 40
0.5
 40
1.0
 40
1.0
 40
1.0
 40
1.0
 10
110.8758518598029
 20
45.47840929793763
 30
0.0
 10
110.8521764653784
 20
45.39252223613518
 30
0.0
 10
110.8390853554939
 20
45.30511502715505
 30
0.0
 10
110.8389990342056
 20
45.15247858456132
 30
0.0
 10
110.8521679681494
 20
45.08835553961573
 30
0.0
 10
110.8758518598029
 20
45.04539659604541
 30
0.0
  0
SPLINE
  5
D0
330
1F
100
AcDbEntity
  8
0
  6
Continuous
 62
     7
370
    25
100
AcDbSpline
210
0.0
220
0.0
230
1.0
 70
     8
 71
     3
 72
     8
 73
     4
 74
     0
 42
0.00000001
 43
0.00000001
 40
0.0
 40
0.0
 40
0.0
 40
0.0
 40
1.0
 40
1.0
 40
1.0
 40
1.0
 10
123.896135223877
 20
43.09721145145464
 30
0.0
 10
124.2186145507262
 20
43.00549716372018
 30
0.0
 10
124.5339323070502
 20
42.90884037465228
 30
0.0
 10
124.8429494496977
 20
42.80783526682003
 30
0.0
  0
SPLINE
  5
D1
330
1F
100
AcDbEntity
  8
0
  6
Continuous
 62
     7
370
    25
100
AcDbSpline
210
0.0
220
0.0
230
1.0
 70
     8
 71
     3
 72
    10
 73
     6
 74
     0
 42
0.00000001
 43
0.00000001
 40
0.0
 40
0.0
 40
0.0
 40
0.0
 40
0.5
 40
0.5
 40
1.0
 40
1.0
 40
1.0
 40
1.0
 10
122.6053881204726
 20
42.13081491159979
 30
0.0
 10
122.9719060673131
 20
42.33288159715072
 30
0.0
 10
123.340986292779
 20
42.49927436942136
 30
0.0
 10
124.0862386410064
 20
42.73332134329141
 30
0.0
 10
124.4624514129541
 20
42.80040959725024
 30
0.0
 10
124.8429494496977
 20
42.80783526682003
 30
0.0
  0
LINE
  5
D2
330
1F
100
AcDbEntity
  8
0
  6
Continuous
 62
     7
370
    25
100
AcDbLine
 10
128.7315142925
 20
45.045396596
 30
0.0
 11
124.2312946703
 21
45.045396596
 31
0.0
  0
SPLINE
  5
D3
330
1F
100
AcDbEntity
  8
0
  6
Continuous
 62
     7
370
    25
100
AcDbSpline
210
0.0
220
0.0
230
1.0
 70
     8
 71
     3
 72
    10
 73
     6
 74
     0
 42
0.00000001
 43
0.00000001
 40
0.0
 40
0.0
 40
0.0
 40
0.0
 40
0.5
 40
0.5
 40
1.0
 40
1.0
 40
1.0
 40
1.0
 10
124.23129467032
 20
45.04539659604541
 30
0.0
 10
124.2549700647444
 20
45.08834012694657
 30
0.0
 10
124.2680611746323
 20
45.15178257157037
 30
0.0
 10
124.2681474959206
 20
45.30426140868945
 30
0.0
 10
124.2549785619768
 20
45.39249141079688
 30
0.0
 10
124.2312946703233
 20
45.47840929793762
 30
0.0
  0
SPLINE
  5
D4
330
1F
100
AcDbEntity
  8
0
  6
Continuous
 62
     7
370
    25
100
AcDbSpline
210
0.0
220
0.0
230
1.0
 70
     8
 71
     3
 72
    10
 73
     6
 74
     0
 42
0.00000001
 43
0.00000001
 40
0.0
 40
0.0
 40
0.0
 40
0.0
 40
0.5
 40
0.5
 40
1.0
 40
1.0
 40
1.0
 40
1.0
 10
128.7315142925054
 20
45.47840929793763
 30
0.0
 10
128.707838898081
 20
45.39252223613517
 30
0.0
 10
128.6947477881965
 20
45.30511502715503
 30
0.0
 10
128.6946614669082
 20
45.15247858456131
 30
0.0
 10
128.707830400852
 20
45.08835553961573
 30
0.0
 10
128.7315142925055
 20
45.04539659604541
 30
0.0
  0
SPLINE
  5
D5
330
1F
100
AcDbEntity
  8
0
  6
Continuous
 62
     7
370
    25
100
AcDbSpline
210
0.0
220
0.0
230
1.0
 70
     8
 71
     3
 72
    10
 73
     6
 74
     0
 42
0.00000001
 43
0.00000001
 40
0.0
 40
0.0
 40
0.0
 40
0.0
 40
0.5
 40
0.5
 40
1.0
 40
1.0
 40
1.0
 40
1.0
 10
124.2312946703233
 20
54.71601360497165
 30
0.0
 10
124.2549700647477
 20
54.8019006667741
 30
0.0
 10
124.2680611746323
 20
54.88930787575421
 30
0.0
 10
124.2681474959206
 20
55.04194431834794
 30
0.0
 10
124.2549785619768
 20
55.10606736329352
 30
0.0
 10
124.2312946703233
 20
55.14902630686384
 30
0.0
  0
LINE
  5
D6
330
1F
100
AcDbEntity
  8
0
  6
Continuous
 62
     7
370
    25
100
AcDbLine
 10
124.2312946703
 20
55.1490263069
 30
0.0
 11
128.7315142925
 21
55.1490263069
 31
0.0
  0
SPLINE
  5
D7
330
1F
100
AcDbEntity
  8
0
  6
Continuous
 62
     7
370
    25
100
AcDbSpline
210
0.0
220
0.0
230
1.0
 70
     8
 71
     3
 72
    10
 73
     6
 74
     0
 42
0.00000001
 43
0.00000001
 40
0.0
 40
0.0
 40
0.0
 40
0.0
 40
0.5
 40
0.5
 40
1.0
 40
1.0
 40
1.0
 40
1.0
 10
128.7315142925055
 20
55.14902630686387
 30
0.0
 10
128.7078388980811
 20
55.10608277596264
 30
0.0
 10
128.6947477881965
 20
55.04264033133852
 30
0.0
 10
128.6946614669082
 20
54.89016149421955
 30
0.0
 10
128.707830400852
 20
54.80193149211227
 30
0.0
 10
128.7315142925055
 20
54.71601360497165
 30
0.0
  0
SPLINE
  5
D8
330
1F
100
AcDbEntity
  8
0
  6
Continuous
 62
     7
370
    25
100
AcDbSpline
210
0.0
220
0.0
230
1.0
 70
     8
 71
     3
 72
     8
 73
     4
 74
     0
 42
0.00000001
 43
0.00000001
 40
0.0
 40
0.0
 40
0.0
 40
0.0
 40
1.0
 40
1.0
 40
1.0
 40
1.0
 10
123.6749567565593
 20
43.6870899181294
 30
0.0
 10
123.633841480918
 20
43.82312031261895
 30
0.0
 10
123.5933524980502
 20
43.95982437725638
 30
0.0
 10
123.5535732650631
 20
44.09721145145463
 30
0.0
  0
LINE
  5
D9
330
1F
100
AcDbEntity
  8
0
  6
Continuous
 62
     7
370
    25
100
AcDbLine
 10
123.5535732651
 20
46.0972114515
 30
0.0
 11
123.5535732651
 21
44.0972114515
 31
0.0
  0
SPLINE
  5
DA
330
1F
100
AcDbEntity
  8
0
  6
Continuous
 62
     7
370
    25
100
AcDbSpline
210
0.0
220
0.0
230
1.0
 70
     8
 71
     3
 72
     8
 73
     4
 74
     0
 42
0.00000001
 43
0.00000001
 40
0.0
 40
0.0
 40
0.0
 40
0.0
 40
1.0
 40
1.0
 40
1.0
 40
1.0
 10
123.6749567565593
 20
43.6870899181294
 30
0.0
 10
123.7905893665883
 20
44.14564085018716
 30
0.0
 10
123.9844787714087
 20
44.5977104459454
 30
0.0
 10
124.2312946703232
 20
45.04539659604516
 30
0.0
  0
SPLINE
  5
DB
330
1F
100
AcDbEntity
  8
0
  6
Continuous
 62
     7
370
    25
100
AcDbSpline
210
0.0
220
0.0
230
1.0
 70
     8
 71
     3
 72
    10
 73
     6
 74
     0
 42
0.00000001
 43
0.00000001
 40
0.0
 40
0.0
 40
0.0
 40
0.0
 40
0.5
 40
0.5
 40
1.0
 40
1.0
 40
1.0
 40
1.0
 10
106.7312946703233
 20
45.47840929793762
 30
0.0
 10
106.7549685708792
 20
45.39252765543117
 30
0.0
 10
106.7680611280584
 20
45.30511844946574
 30
0.0
 10
106.7681475420407
 20
45.15247596439081
 30
0.0
 10
106.754977150442
 20
45.08835297930844
 30
0.0
 10
106.7312946703233
 20
45.04539659604541
 30
0.0
  0
SPLINE
  5
DC
330
1F
100
AcDbEntity
  8
0
  6
Continuous
 62
     7
370
    25
100
AcDbSpline
210
0.0
220
0.0
230
1.0
 70
     8
 71
     3
 72
    12
 73
     8
 74
     0
 42
0.00000001
 43
0.00000001
 40
0.0
 40
0.0
 40
0.0
 40
0.0
 40
0.2499999999999999
 40
0.2499999999999999
 40
0.4999999999999998
 40
0.4999999999999998
 40
1.0
 40
1.0
 40
1.0
 40
1.0
 10
106.0535732650631
 20
42.7359955192869
 30
0.0
 10
106.0535732650631
 20
42.9309989992927
 30
0.0
 10
106.0693195950851
 20
43.12753365831711
 30
0.0
 10
106.1307646196705
 20
43.51695334592267
 30
0.0
 10
106.1763533789242
 20
43.71043803898293
 30
0.0
 10
106.3528043811808
 20
44.28762163773852
 30
0.0
 10
106.5232620831443
 20
44.66805741952148
 30
0.0
 10
106.7312946703232
 20
45.04539659604543
 30
0.0
  0
LINE
  5
DD
330
1F
100
AcDbEntity
  8
0
  6
Continuous
 62
     7
370
    25
100
AcDbLine
 10
106.0535732651
 20
50.0972114515
 30
0.0
 11
106.0535732651
 21
42.7359955193
 31
0.0
  0
SPLINE
  5
DE
330
1F
100
AcDbEntity
  8
0
  6
Continuous
 62
     7
370
    25
100
AcDbSpline
210
0.0
220
0.0
230
1.0
 70
     8
 71
     3
 72
    10
 73
     6
 74
     0
 42
0.00000001
 43
0.00000001
 40
0.0
 40
0.0
 40
0.0
 40
0.0
 40
0.5
 40
0.5
 40
1.0
 40
1.0
 40
1.0
 40
1.0
 10
106.7312946703228
 20
55.14902630686384
 30
0.0
 10
106.5224847456566
 20
55.52777545425513
 30
0.0
 10
106.3519506059093
 20
55.90898073066643
 30
0.0
 10
106.1171648008904
 20
56.67821135185421
 30
0.0
 10
106.0535732650631
 20
57.06627905665253
 30
0.0
 10
106.0535732650631
 20
57.45842738362237
 30
0.0
  0
LINE
  5
DF
330
1F
100
AcDbEntity
  8
0
  6
Continuous
 62
     7
370
    25
100
AcDbLine
 10
106.0535732651
 20
50.0972114515
 30
0.0
 11
106.0535732651
 21
57.4584273836
 31
0.0
  0
LINE
  5
E0
330
1F
100
AcDbEntity
  8
0
  6
Continuous
 62
     7
370
    25
100
AcDbLine
 10
113.4998122585
 20
49.522779595
 30
0.0
 11
114.1071606173
 21
49.522779595
 31
0.0
  0
LINE
  5
E1
330
1F
100
AcDbEntity
  8
0
  6
Continuous
 62
     7
370
    25
100
AcDbLine
 10
113.7236252014
 20
50.4413939409
 30
0.0
 11
113.4199510203
 21
49.630811324
 31
0.0
  0
ELLIPSE
  5
E2
330
1F
100
AcDbEntity
  8
0
  6
Continuous
 62
     7
370
    25
100
AcDbEllipse
 10
113.8034864397
 20
50.4142039291
 30
0.0
 11
0.08480161849064416
 21
0.0
 31
0.0
210
0.0
220
0.0
230
1.0
 40
0.9533039403
 41
0.3430239404206401
 42
2.798568713169183
  0
LINE
  5
E3
330
1F
100
AcDbEntity
  8
0
  6
Continuous
 62
     7
370
    25
100
AcDbLine
 10
114.1870218557
 20
49.6308113237
 30
0.0
 11
113.883347678
 21
50.4413939409
 31
0.0
  0
ELLIPSE
  5
E4
330
1F
100
AcDbEntity
  8
0
  6
Continuous
 62
     7
370
    25
100
AcDbEllipse
 10
114.1071606173
 20
49.603621312
 30
0.0
 11
-0.08480161849067258
 21
-4.263256414560601E-14
 31
0.0
210
0.0
220
0.0
230
1.0
 40
0.9533039403
 41
1.570796326794417
 42
3.48461659214928
  0
ELLIPSE
  5
E5
330
1F
100
AcDbEntity
  8
0
  6
Continuous
 62
     7
370
    25
100
AcDbEllipse
 10
113.4998122585
 20
49.603621312
 30
0.0
 11
0.08480161849065837
 21
-7.105427357601002E-15
 31
0.0
210
0.0
220
0.0
230
1.0
 40
0.9533039403
 41
2.798568711308381
 42
4.712388980384782
  0
LINE
  5
E6
330
1F
100
AcDbEntity
  8
0
  6
Continuous
 62
     7
370
    25
100
AcDbLine
 10
110.8758518598
 20
45.045396596
 30
0.0
 11
106.7312946703
 21
45.045396596
 31
0.0
  0
LINE
  5
E7
330
1F
100
AcDbEntity
  8
0
  6
Continuous
 62
     7
370
    25
100
AcDbLine
 10
123.5535732651
 20
57.4584273836
 30
0.0
 11
123.5535732651
 21
54.0972114515
 31
0.0
  0
SPLINE
  5
E8
330
1F
100
AcDbEntity
  8
0
  6
Continuous
 62
     7
370
    25
100
AcDbSpline
210
0.0
220
0.0
230
1.0
 70
     8
 71
     3
 72
    10
 73
     6
 74
     0
 42
0.00000001
 43
0.00000001
 40
0.0
 40
0.0
 40
0.0
 40
0.0
 40
0.5
 40
0.5
 40
1.0
 40
1.0
 40
1.0
 40
1.0
 10
124.2312946703233
 20
55.14902630686385
 30
0.0
 10
124.0228739175059
 20
55.52706955626601
 30
0.0
 10
123.8524100822284
 20
55.90783906106186
 30
0.0
 10
123.6174276472901
 20
56.6769875866194
 30
0.0
 10
123.5535732650631
 20
57.06541431479464
 30
0.0
 10
123.5535732650631
 20
57.45842738362237
 30
0.0
  0
LINE
  5
E9
330
1F
100
AcDbEntity
  8
0
  6
Continuous
 62
     7
370
    25
100
AcDbLine
 10
109.0616357651
 20
38.0972114515
 30
0.0
 11
126.0455107651
 21
38.0972114515
 31
0.0
  0
SPLINE
  5
EA
330
1F
100
AcDbEntity
  8
0
  6
Continuous
 62
     7
370
    25
100
AcDbSpline
210
0.0
220
0.0
230
1.0
 70
     8
 71
     3
 72
    16
 73
    12
 74
     0
 42
0.00000001
 43
0.00000001
 40
0.0
 40
0.0
 40
0.0
 40
0.0
 40
0.2499999999999999
 40
0.2499999999999999
 40
0.4999999999999998
 40
0.4999999999999998
 40
0.6249999999999998
 40
0.6249999999999998
 40
0.7499999999999997
 40
0.7499999999999997
 40
1.0
 40
1.0
 40
1.0
 40
1.0
 10
122.6053881204723
 20
38.77958774325971
 30
0.0
 10
122.9831031681953
 20
38.57134793281106
 30
0.0
 10
123.3632609168212
 20
38.40117464640161
 30
0.0
 10
124.1303542487126
 20
38.16645238678577
 30
0.0
 10
124.5173316060503
 20
38.1025544117113
 30
0.0
 10
125.103882381075
 20
38.1015307096248
 30
0.0
 10
125.3009615409981
 20
38.1170172567695
 30
0.0
 10
125.6914906805063
 20
38.17814097822748
 30
0.0
 10
125.8855223841794
 20
38.22366270552251
 30
0.0
 10
126.4643264566004
 20
38.40016206926768
 30
0.0
 10
126.8458151907669
 20
38.5709840456215
 30
0.0
 10
127.2241902739894
 20
38.77958774326003
 30
0.0
  0
SPLINE
  5
EB
330
1F
100
AcDbEntity
  8
0
  6
Continuous
 62
     7
370
    25
100
AcDbSpline
210
0.0
220
0.0
230
1.0
 70
     8
 71
     3
 72
    10
 73
     6
 74
     0
 42
0.00000001
 43
0.00000001
 40
0.0
 40
0.0
 40
0.0
 40
0.0
 40
0.1593935213061874
 40
0.7189934545756529
 40
1.0
 40
1.0
 40
1.0
 40
1.0
 10
127.2864823534557
 20
38.81382473283756
 30
0.0
 10
127.2878722722823
 20
38.81458625983502
 30
0.0
 10
127.2941419282291
 20
38.81802136135087
 30
0.0
 10
127.2676579864051
 20
38.80352673888428
 30
0.0
 10
127.2350805823584
 20
38.78558536839166
 30
0.0
 10
127.2241902739893
 20
38.77958774326017
 30
0.0
  0
SPLINE
  5
EC
330
1F
100
AcDbEntity
  8
0
  6
Continuous
 62
     7
370
    25
100
AcDbSpline
210
0.0
220
0.0
230
1.0
 70
     8
 71
     3
 72
     9
 73
     5
 74
     0
 42
0.00000001
 43
0.00000001
 40
0.0
 40
0.0
 40
0.0
 40
0.0
 40
0.5789479223911734
 40
1.0
 40
1.0
 40
1.0
 40
1.0
 10
107.8829562561369
 20
38.77958774326017
 30
0.0
 10
107.8605148889442
 20
38.79192863357459
 30
0.0
 10
107.8217525645197
 20
38.81324469644849
 30
0.0
 10
107.8209866616606
 20
38.81365287036288
 30
0.0
 10
107.8206641766705
 20
38.81382473283756
 30
0.0
  0
SPLINE
  5
ED
330
1F
100
AcDbEntity
  8
0
  6
Continuous
 62
     7
370
    25
100
AcDbSpline
210
0.0
220
0.0
230
1.0
 70
     8
 71
     3
 72
    16
 73
    12
 74
     0
 42
0.00000001
 43
0.00000001
 40
0.0
 40
0.0
 40
0.0
 40
0.0
 40
0.2500000000000001
 40
0.2500000000000001
 40
0.5000000000000001
 40
0.5000000000000001
 40
0.6250000000000001
 40
0.6250000000000001
 40
0.7500000000000002
 40
0.7500000000000002
 40
1.0
 40
1.0
 40
1.0
 40
1.0
 10
107.8829562561368
 20
38.77958774325971
 30
0.0
 10
108.2606713038598
 20
38.57134793281106
 30
0.0
 10
108.6408290524858
 20
38.40117464640161
 30
0.0
 10
109.4079223843772
 20
38.16645238678576
 30
0.0
 10
109.7948997417148
 20
38.1025544117113
 30
0.0
 10
110.3814505167395
 20
38.1015307096248
 30
0.0
 10
110.5785296766626
 20
38.1170172567695
 30
0.0
 10
110.9690588161709
 20
38.17814097822748
 30
0.0
 10
111.1630905198439
 20
38.22366270552251
 30
0.0
 10
111.7418945922649
 20
38.40016206926768
 30
0.0
 10
112.1233833264315
 20
38.57098404562149
 30
0.0
 10
112.5017584096539
 20
38.77958774326003
 30
0.0
  0
SPLINE
  5
EE
330
1F
100
AcDbEntity
  8
0
  6
Continuous
 62
     7
370
    25
100
AcDbSpline
210
0.0
220
0.0
230
1.0
 70
     8
 71
     3
 72
    16
 73
    12
 74
     0
 42
0.00000001
 43
0.00000001
 40
0.0
 40
0.0
 40
0.0
 40
0.0
 40
0.2500000000000001
 40
0.2500000000000001
 40
0.5000000000000001
 40
0.5000000000000001
 40
0.6250000000000001
 40
0.6250000000000001
 40
0.7500000000000002
 40
0.7500000000000002
 40
1.0
 40
1.0
 40
1.0
 40
1.0
 10
128.7315142925055
 20
59.76782846038088
 30
0.0
 10
128.9395297406112
 20
59.39052037150438
 30
0.0
 10
129.1097360455842
 20
59.01049664113018
 30
0.0
 10
129.3446720771518
 20
58.24287332571948
 30
0.0
 10
129.4087442088155
 20
57.85522650893068
 30
0.0
 10
129.4094771577365
 20
57.26690595704284
 30
0.0
 10
129.3938176776535
 20
57.06983276448719
 30
0.0
 10
129.3325425510165
 20
56.67977578693309
 30
0.0
 10
129.2869862785174
 20
56.48598288634505
 30
0.0
 10
129.1105002457611
 20
55.90790190158162
 30
0.0
 10
128.9398437922754
 20
55.52690403724681
 30
0.0
 10
128.7315142925055
 20
55.14902630686387
 30
0.0
  0
SPLINE
  5
EF
330
1F
100
AcDbEntity
  8
0
  6
Continuous
 62
     7
370
    25
100
AcDbSpline
210
0.0
220
0.0
230
1.0
 70
     8
 71
     3
 72
    10
 73
     6
 74
     0
 42
0.00000001
 43
0.00000001
 40
0.0
 40
0.0
 40
0.0
 40
0.0
 40
0.1601790552921226
 40
0.7197651707803578
 40
1.0
 40
1.0
 40
1.0
 40
1.0
 10
128.6972848593886
 20
59.83010673913062
 30
0.0
 10
128.6965220692953
 20
59.83149896715699
 30
0.0
 10
128.6930944692216
 20
59.83775494888531
 30
0.0
 10
128.7076019340199
 20
59.81124768415741
 30
0.0
 10
128.7255314871377
 20
59.77869182901225
 30
0.0
 10
128.7315142925055
 20
59.76782846038088
 30
0.0
  0
SPLINE
  5
F0
330
1F
100
AcDbEntity
  8
0
  6
Continuous
 62
     7
370
    25
100
AcDbSpline
210
0.0
220
0.0
230
1.0
 70
     8
 71
     3
 72
     9
 73
     5
 74
     0
 42
0.00000001
 43
0.00000001
 40
0.0
 40
0.0
 40
0.0
 40
0.0
 40
0.5797912171256352
 40
1.0
 40
1.0
 40
1.0
 40
1.0
 10
128.7315142925055
 20
40.4265944425284
 30
0.0
 10
128.719155689159
 20
40.40412079428727
 30
0.0
 10
128.6978400793646
 20
40.36535917186646
 30
0.0
 10
128.6974491368618
 20
40.36462476710825
 30
0.0
 10
128.6972848593886
 20
40.36431616377866
 30
0.0
  0
SPLINE
  5
F1
330
1F
100
AcDbEntity
  8
0
  6
Continuous
 62
     7
370
    25
100
AcDbSpline
210
0.0
220
0.0
230
1.0
 70
     8
 71
     3
 72
    16
 73
    12
 74
     0
 42
0.00000001
 43
0.00000001
 40
0.0
 40
0.0
 40
0.0
 40
0.0
 40
0.2500000000000001
 40
0.2500000000000001
 40
0.5000000000000002
 40
0.5000000000000002
 40
0.6250000000000001
 40
0.6250000000000001
 40
0.7500000000000001
 40
0.7500000000000001
 40
1.0
 40
1.0
 40
1.0
 40
1.0
 10
128.7315142925055
 20
45.04539659604541
 30
0.0
 10
128.9395297406112
 20
44.66808850716892
 30
0.0
 10
129.1097360455842
 20
44.28806477679471
 30
0.0
 10
129.3446720771518
 20
43.52044146138402
 30
0.0
 10
129.4087442088155
 20
43.13279464459523
 30
0.0
 10
129.4094771577365
 20
42.54447409270738
 30
0.0
 10
129.3938176776535
 20
42.34740090015173
 30
0.0
 10
129.3325425510165
 20
41.95734392259762
 30
0.0
 10
129.2869862785174
 20
41.76355102200959
 30
0.0
 10
129.1105002457611
 20
41.18547003724617
 30
0.0
 10
128.9398437922754
 20
40.80447217291134
 30
0.0
 10
128.7315142925055
 20
40.4265944425284
 30
0.0
  0
LINE
  5
F2
330
1F
100
AcDbEntity
  8
0
  6
Continuous
 62
     7
370
    25
100
AcDbLine
 10
129.5535732651
 20
58.3472114515
 30
0.0
 11
129.5535732651
 21
41.8472114515
 31
0.0
  0
LINE
  5
F3
330
1F
100
AcDbEntity
  8
0
  6
Continuous
 62
     7
370
    25
100
AcDbLine
 10
125.7509454349
 20
28.6711208851
 30
0.0
 11
109.3562010953
 21
28.6711208851
 31
0.0
  0
SPLINE
  5
F4
330
1F
100
AcDbEntity
  8
0
  6
Continuous
 62
     7
370
    25
100
AcDbSpline
210
0.0
220
0.0
230
1.0
 70
     8
 71
     3
 72
    12
 73
     8
 74
     0
 42
0.00000001
 43
0.00000001
 40
0.0
 40
0.0
 40
0.0
 40
0.0
 40
0.2499999999999999
 40
0.2499999999999999
 40
0.4999999999999998
 40
0.4999999999999998
 40
1.0
 40
1.0
 40
1.0
 40
1.0
 10
123.5535732650631
 20
57.45842738362237
 30
0.0
 10
123.5535732650631
 20
57.65416964650188
 30
0.0
 10
123.5694162011521
 20
57.85083625569244
 30
0.0
 10
123.6309190613897
 20
58.24010448302073
 30
0.0
 10
123.6765227024334
 20
58.43350851597365
 30
0.0
 10
123.8529737199226
 20
59.0104375672304
 30
0.0
 10
124.0233710871745
 20
59.39068700043342
 30
0.0
 10
124.2312946703233
 20
59.76782846038088
 30
0.0
  0
LINE
  5
F5
330
1F
100
AcDbEntity
  8
0
  6
Continuous
 62
     7
370
    25
100
AcDbLine
 10
128.7315142925
 20
59.7678284604
 30
0.0
 11
124.2312946703
 21
59.7678284604
 31
0.0
  0
ELLIPSE
  5
F6
330
1F
100
AcDbEntity
  8
0
  6
Continuous
 62
     7
370
    25
100
AcDbEllipse
 10
117.5535732651
 20
40.2822568752
 30
0.0
 11
8.499999999999986
 21
0.0
 31
0.0
210
0.0
220
0.0
230
1.0
 40
0.5773502692
 41
2.374833212873086
 42
2.530692279913059
  0
LINE
  5
F7
330
1F
100
AcDbEntity
  8
0
  6
Continuous
 62
     7
370
    25
100
AcDbLine
 10
110.2641970804
 20
42.8078352668
 30
0.0
 11
107.8829562561
 21
40.4265944425
 31
0.0
  0
LINE
  5
F8
330
1F
100
AcDbEntity
  8
0
  6
Continuous
 62
     7
370
    25
100
AcDbLine
 10
106.7312946703
 20
40.4265944425
 30
0.0
 11
107.8829562561
 21
40.4265944425
 31
0.0
  0
SPLINE
  5
F9
330
1F
100
AcDbEntity
  8
0
  6
Continuous
 62
     7
370
    25
100
AcDbSpline
210
0.0
220
0.0
230
1.0
 70
     8
 71
     3
 72
    10
 73
     6
 74
     0
 42
0.00000001
 43
0.00000001
 40
0.0
 40
0.0
 40
0.0
 40
0.0
 40
0.5
 40
0.5
 40
1.0
 40
1.0
 40
1.0
 40
1.0
 10
106.7312946703228
 20
40.42659444252837
 30
0.0
 10
106.5224847456566
 20
40.80534358991967
 30
0.0
 10
106.3519506059093
 20
41.18654886633097
 30
0.0
 10
106.1171648008904
 20
41.95577948751875
 30
0.0
 10
106.0535732650631
 20
42.34384719231707
 30
0.0
 10
106.0535732650631
 20
42.7359955192869
 30
0.0
  0
ELLIPSE
  5
FA
330
1F
100
AcDbEntity
  8
0
  6
Continuous
 62
     7
370
    25
100
AcDbEllipse
 10
117.5535732651
 20
40.2822568752
 30
0.0
 11
8.499999999999986
 21
0.0
 31
0.0
210
0.0
220
0.0
230
1.0
 40
0.5773502692
 41
0.6109003736767331
 42
0.7667594407167057
  0
LINE
  5
FB
330
1F
100
AcDbEntity
  8
0
  6
Continuous
 62
     7
370
    25
100
AcDbLine
 10
127.224190274
 20
40.4265944425
 30
0.0
 11
128.7315142925
 21
40.4265944425
 31
0.0
  0
LINE
  5
FC
330
1F
100
AcDbEntity
  8
0
  6
Continuous
 62
     7
370
    25
100
AcDbLine
 10
127.224190274
 20
40.4265944425
 30
0.0
 11
124.8429494497
 21
42.8078352668
 31
0.0
  0
LINE
  5
FD
330
1F
100
AcDbEntity
  8
0
  6
Continuous
 62
     7
370
    25
100
AcDbLine
 10
127.224190274
 20
38.7795877433
 30
0.0
 11
127.224190274
 21
40.4265944425
 31
0.0
  0
SPLINE
  5
FE
330
1F
100
AcDbEntity
  8
0
  6
Continuous
 62
     7
370
    25
100
AcDbSpline
210
0.0
220
0.0
230
1.0
 70
     8
 71
     3
 72
    12
 73
     8
 74
     0
 42
0.00000001
 43
0.00000001
 40
0.0
 40
0.0
 40
0.0
 40
0.0
 40
0.2499999999999999
 40
0.2499999999999999
 40
0.5
 40
0.5
 40
1.0
 40
1.0
 40
1.0
 40
1.0
 10
106.0535732650631
 20
57.45842738362237
 30
0.0
 10
106.0535732650631
 20
57.65343086362817
 30
0.0
 10
106.0693195950851
 20
57.84996552265257
 30
0.0
 10
106.1307646196705
 20
58.23938521025813
 30
0.0
 10
106.1763533789242
 20
58.43286990331838
 30
0.0
 10
106.3528043811808
 20
59.01005350207399
 30
0.0
 10
106.5232620831443
 20
59.39048928385695
 30
0.0
 10
106.7312946703231
 20
59.76782846038089
 30
0.0
  0
LINE
  5
FF
330
1F
100
AcDbEntity
  8
0
  6
Continuous
 62
     7
370
    25
100
AcDbLine
 10
110.8758518598
 20
59.7678284604
 30
0.0
 11
106.7312946703
 21
59.7678284604
 31
0.0
  0
SPLINE
  5
100
330
1F
100
AcDbEntity
  8
0
  6
Continuous
 62
     7
370
    25
100
AcDbSpline
210
0.0
220
0.0
230
1.0
 70
     8
 71
     3
 72
    10
 73
     6
 74
     0
 42
0.00000001
 43
0.00000001
 40
0.0
 40
0.0
 40
0.0
 40
0.0
 40
0.5
 40
0.5
 40
1.0
 40
1.0
 40
1.0
 40
1.0
 10
110.8758518598029
 20
59.7678284603809
 30
0.0
 10
111.0842726126203
 20
59.38978521097874
 30
0.0
 10
111.2547364478978
 20
59.00901570618289
 30
0.0
 10
111.4897188828361
 20
58.23986718062534
 30
0.0
 10
111.5535732650631
 20
57.8514404524501
 30
0.0
 10
111.5535732650631
 20
57.45842738362237
 30
0.0
  0
LINE
  5
101
330
1F
100
AcDbEntity
  8
0
  6
Continuous
 62
     7
370
    25
100
AcDbLine
 10
107.8829562561
 20
40.4265944425
 30
0.0
 11
107.8829562561
 21
38.7795877433
 31
0.0
  0
LINE
  5
102
330
1F
100
AcDbEntity
  8
0
  6
Continuous
 62
     7
370
    25
100
AcDbLine
 10
124.5535732651
 20
26.5972114515
 30
0.0
 11
110.5535732651
 21
26.5972114515
 31
0.0
  0
LINE
  5
103
330
1F
100
AcDbEntity
  8
0
  6
Continuous
 62
     7
370
    25
100
AcDbLine
 10
123.5535732651
 20
44.0972114515
 30
0.0
 11
121.5535732651
 21
46.0972114515
 31
0.0
  0
LINE
  5
104
330
1F
100
AcDbEntity
  8
0
  6
Continuous
 62
     7
370
    25
100
AcDbLine
 10
121.5535732651
 20
43.0972114515
 30
0.0
 11
124.5161943377
 21
43.0972114515
 31
0.0
  0
LINE
  5
105
330
1F
100
AcDbEntity
  8
0
  6
Continuous
 62
     7
370
    25
100
AcDbLine
 10
113.5535732651
 20
46.0972114515
 30
0.0
 11
111.5535732651
 21
44.0972114515
 31
0.0
  0
LINE
  5
106
330
1F
100
AcDbEntity
  8
0
  6
Continuous
 62
     7
370
    25
100
AcDbLine
 10
110.5909521924
 20
43.0972114515
 30
0.0
 11
113.5535732651
 21
43.0972114515
 31
0.0
  0
LINE
  5
107
330
1F
100
AcDbEntity
  8
0
  6
Continuous
 62
     7
370
    25
100
AcDbLine
 10
111.5535732651
 20
58.0316659297
 30
0.0
 11
111.5535732651
 21
57.4584273836
 31
0.0
  0
SPLINE
  5
108
330
1F
100
AcDbEntity
  8
0
  6
Continuous
 62
     7
370
    25
100
AcDbSpline
210
0.0
220
0.0
230
1.0
 70
     8
 71
     3
 72
    32
 73
    28
 74
     0
 42
0.00000001
 43
0.00000001
 40
0.0
 40
0.0
 40
0.0
 40
0.0
 40
0.0625000000000001
 40
0.0625000000000001
 40
0.1250000000000001
 40
0.1250000000000001
 40
0.1875000000000002
 40
0.1875000000000002
 40
0.2500000000000003
 40
0.2500000000000003
 40
0.3750000000000003
 40
0.3750000000000003
 40
0.4375000000000003
 40
0.4375000000000003
 40
0.5000000000000002
 40
0.5000000000000002
 40
0.5625000000000002
 40
0.5625000000000002
 40
0.6250000000000001
 40
0.6250000000000001
 40
0.7500000000000001
 40
0.7500000000000001
 40
0.8750000000000002
 40
0.8750000000000002
 40
0.9375000000000001
 40
0.9375000000000001
 40
1.0
 40
1.0
 40
1.0
 40
1.0
 10
123.5535732650546
 20
58.03166592967529
 30
0.0
 10
123.3967169291377
 20
57.93670895177959
 30
0.0
 10
123.2237184949821
 20
57.83395577715442
 30
0.0
 10
122.8470139083563
 20
57.61724457550615
 30
0.0
 10
122.6441611278996
 20
57.50382586501614
 30
0.0
 10
122.218179865097
 20
57.27573572831796
 30
0.0
 10
121.994001904809
 20
57.16042884586611
 30
0.0
 10
121.5226508112326
 20
56.93210574349133
 30
0.0
 10
121.2739652958675
 20
56.81845572735758
 30
0.0
 10
120.5033928111759
 20
56.49539169612354
 30
0.0
 10
119.9577554010937
 20
56.30249317196004
 30
0.0
 10
119.0749756525973
 20
56.09089924668634
 30
0.0
 10
118.7763365527245
 20
56.03525686056859
 30
0.0
 10
118.1698349520087
 20
55.95958879120475
 30
0.0
 10
117.8596877133428
 20
55.93961554542844
 30
0.0
 10
117.239602224659
 20
55.93994931168169
 30
0.0
 10
116.933031187191
 20
55.95994827700447
 30
0.0
 10
116.3263764398828
 20
56.03598706320094
 30
0.0
 10
116.0240033752575
 20
56.09264016333249
 30
0.0
 10
115.1473670725046
 20
56.30341871337833
 30
0.0
 10
114.5993129405276
 20
56.49696454395009
 30
0.0
 10
113.5688156732844
 20
56.92958383722588
 30
0.0
 10
113.1012556380049
 20
57.16206048191631
 30
0.0
 10
112.463042034377
 20
57.50379848283535
 30
0.0
 10
112.2598322961871
 20
57.61741599826374
 30
0.0
 10
111.8834953697927
 20
57.83391839061998
 30
0.0
 10
111.7105167613012
 20
57.93665618706437
 30
0.0
 10
111.5535732650631
 20
58.03166592968045
 30
0.0
  0
LINE
  5
109
330
1F
100
AcDbEntity
  8
0
  6
Continuous
 62
     7
370
    25
100
AcDbLine
 10
123.5535732651
 20
58.0316659297
 30
0.0
 11
123.5535732651
 21
57.4584273836
 31
0.0
  0
SPLINE
  5
10A
330
1F
100
AcDbEntity
  8
0
  6
Continuous
 62
     7
370
    25
100
AcDbSpline
210
0.0
220
0.0
230
1.0
 70
     8
 71
     3
 72
    12
 73
     8
 74
     0
 42
0.00000001
 43
0.00000001
 40
0.0
 40
0.0
 40
0.0
 40
0.0
 40
0.0821706373085738
 40
0.3096913011701716
 40
0.5425037178468742
 40
0.7710675998263611
 40
0.9999999999999999
 40
0.9999999999999999
 40
0.9999999999999999
 40
0.9999999999999999
 10
123.7270124524546
 20
58.89042091153127
 30
0.0
 10
123.728144475995
 20
58.89419069815061
 30
0.0
 10
123.7324109372838
 20
58.90839857290385
 30
0.0
 10
123.699955588328
 20
58.80104214282404
 30
0.0
 10
123.6439909938439
 20
58.59510390929069
 30
0.0
 10
123.575781597646
 20
58.31180855740573
 30
0.0
 10
123.5609800168684
 20
58.12509693832573
 30
0.0
 10
123.5535732650631
 20
58.03166592967332
 30
0.0
  0
SPLINE
  5
10B
330
1F
100
AcDbEntity
  8
0
  6
Continuous
 62
     7
370
    25
100
AcDbSpline
210
0.0
220
0.0
230
1.0
 70
     8
 71
     3
 72
    11
 73
     7
 74
     0
 42
0.00000001
 43
0.00000001
 40
0.0
 40
0.0
 40
0.0
 40
0.0
 40
0.317641693171442
 40
0.6359705314661563
 40
0.8657039182175625
 40
0.9999999999999999
 40
0.9999999999999999
 40
0.9999999999999999
 40
0.9999999999999999
 10
111.5535732650631
 20
58.03166592968035
 30
0.0
 10
111.5399344912973
 20
58.16293061893295
 30
0.0
 10
111.5126274393992
 20
58.42574395855854
 30
0.0
 10
111.4246230168179
 20
58.73738768431906
 30
0.0
 10
111.3800631986844
 20
58.89113227127901
 30
0.0
 10
111.3804116876482
 20
58.88961971088183
 30
0.0
 10
111.3805402505983
 20
58.88906170403799
 30
0.0
  0
LINE
  5
10C
330
1F
100
AcDbEntity
  8
0
  6
Continuous
 62
     7
370
    25
100
AcDbLine
 10
111.6535732651
 20
59.5972114515
 30
0.0
 11
111.6542243462
 21
59.5966584985
 31
0.0
  0
SPLINE
  5
10D
330
1F
100
AcDbEntity
  8
0
  6
Continuous
 62
     7
370
    25
100
AcDbSpline
210
0.0
220
0.0
230
1.0
 70
     8
 71
     3
 72
    10
 73
     6
 74
     0
 42
0.00000001
 43
0.00000001
 40
0.0
 40
0.0
 40
0.0
 40
0.0
 40
0.1601790552921523
 40
0.7197651707804853
 40
1.0
 40
1.0
 40
1.0
 40
1.0
 10
110.841622426686
 20
59.83010673913062
 30
0.0
 10
110.8408596365928
 20
59.83149896715699
 30
0.0
 10
110.837432036519
 20
59.83775494888532
 30
0.0
 10
110.8519395013173
 20
59.81124768415741
 30
0.0
 10
110.8698690544351
 20
59.77869182901226
 30
0.0
 10
110.8758518598029
 20
59.7678284603809
 30
0.0
  0
SPLINE
  5
10E
330
1F
100
AcDbEntity
  8
0
  6
Continuous
 62
     7
370
    25
100
AcDbSpline
210
0.0
220
0.0
230
1.0
 70
     8
 71
     3
 72
    10
 73
     6
 74
     0
 42
0.00000001
 43
0.00000001
 40
0.0
 40
0.0
 40
0.0
 40
0.0
 40
0.1593935212994522
 40
0.7189934545690309
 40
1.0
 40
1.0
 40
1.0
 40
1.0
 10
106.7655316599007
 20
59.83012053984734
 30
0.0
 10
106.7662931868982
 20
59.83151045867395
 30
0.0
 10
106.7697282884141
 20
59.83778011462089
 30
0.0
 10
106.7552336659476
 20
59.81129617279709
 30
0.0
 10
106.7372922954549
 20
59.77871876875022
 30
0.0
 10
106.7312946703233
 20
59.76782846038088
 30
0.0
  0
LINE
  5
10F
330
1F
100
AcDbEntity
  8
0
  6
Continuous
 62
     7
370
    25
100
AcDbLine
 10
106.0535732651
 20
58.5972114515
 30
0.0
 11
106.0535732651
 21
57.4584273836
 31
0.0
  0
SPLINE
  5
110
330
1F
100
AcDbEntity
  8
0
  6
Continuous
 62
     7
370
    25
100
AcDbSpline
210
0.0
220
0.0
230
1.0
 70
     8
 71
     3
 72
     9
 73
     5
 74
     0
 42
0.00000001
 43
0.00000001
 40
0.0
 40
0.0
 40
0.0
 40
0.0
 40
0.5797912171256431
 40
1.0
 40
1.0
 40
1.0
 40
1.0
 10
124.2312946703233
 20
59.76782846038088
 30
0.0
 10
124.2436532736698
 20
59.79030210862201
 30
0.0
 10
124.2649688834641
 20
59.82906373104283
 30
0.0
 10
124.2653598259669
 20
59.82979813580104
 30
0.0
 10
124.2655241034402
 20
59.83010673913062
 30
0.0
  0
SPLINE
  5
111
330
1F
100
AcDbEntity
  8
0
  6
Continuous
 62
     7
370
    25
100
AcDbSpline
210
0.0
220
0.0
230
1.0
 70
     8
 71
     3
 72
     9
 73
     5
 74
     0
 42
0.00000001
 43
0.00000001
 40
0.0
 40
0.0
 40
0.0
 40
0.0
 40
0.5789479223839474
 40
0.9999999999999999
 40
0.9999999999999999
 40
0.9999999999999999
 40
0.9999999999999999
 10
106.7312946703233
 20
40.4265944425284
 30
0.0
 10
106.7436355606375
 20
40.40415307533603
 30
0.0
 10
106.7649516235115
 20
40.36539075091148
 30
0.0
 10
106.765359797426
 20
40.36462484805212
 30
0.0
 10
106.7655316599007
 20
40.36430236306194
 30
0.0
  0
LINE
  5
112
330
1F
100
AcDbEntity
  8
0
  6
Continuous
 62
     7
370
    25
100
AcDbLine
 10
106.0535732651
 20
42.7359955193
 30
0.0
 11
106.0535732651
 21
41.5972114515
 31
0.0
  0
LINE
  5
113
330
1F
100
AcDbEntity
  8
0
  6
Continuous
 62
     7
370
    25
100
AcDbLine
 10
127.2911775721
 20
40.3596071444
 30
0.0
 11
127.224190274
 21
40.4265944425
 31
0.0
  0
LINE
  5
114
330
1F
100
AcDbEntity
  8
0
  6
Continuous
 62
     7
370
    25
100
AcDbLine
 10
107.8829562561
 20
40.4265944425
 30
0.0
 11
107.815968958
 21
40.3596071444
 31
0.0
  0
LINE
  5
115
330
1F
100
AcDbEntity
  8
0
  6
Continuous
 62
     7
370
    25
100
AcDbLine
 10
103.2535732651
 20
58.0972114515
 30
0.0
 11
103.2535732651
 21
42.0972114515
 31
0.0
  0
LINE
  5
116
330
1F
100
AcDbEntity
  8
0
  6
Continuous
 62
     7
370
    25
100
AcDbLine
 10
103.0535732651
 20
42.2972114515
 30
0.0
 11
103.0535732651
 21
57.8972114515
 31
0.0
  0
LINE
  5
117
330
1F
100
AcDbEntity
  8
0
  6
Continuous
 62
     7
370
    25
100
AcDbLine
 10
78.5335732651
 20
53.9272114515
 30
0.0
 11
78.5335732651
 21
46.2672114515
 31
0.0
  0
LINE
  5
118
330
1F
100
AcDbEntity
  8
0
  6
Continuous
 62
     7
370
    25
100
AcDbLine
 10
82.5535732651
 20
54.5972114515
 30
0.0
 11
82.5535732651
 21
45.5972114515
 31
0.0
  0
LINE
  5
119
330
1F
100
AcDbEntity
  8
0
  6
Continuous
 62
     7
370
    25
100
AcDbLine
 10
96.0535732651
 20
54.5972114515
 30
0.0
 11
96.0535732651
 21
45.5972114515
 31
0.0
  0
LINE
  5
11A
330
1F
100
AcDbEntity
  8
0
  6
Continuous
 62
     7
370
    25
100
AcDbLine
 10
91.5535732651
 20
54.5972114515
 30
0.0
 11
91.5535732651
 21
45.5972114515
 31
0.0
  0
LINE
  5
11B
330
1F
100
AcDbEntity
  8
0
  6
Continuous
 62
     7
370
    25
100
AcDbLine
 10
100.5535732651
 20
54.5972114515
 30
0.0
 11
100.5535732651
 21
45.5972114515
 31
0.0
  0
LINE
  5
11C
330
1F
100
AcDbEntity
  8
0
  6
Continuous
 62
     7
370
    25
100
AcDbLine
 10
87.0535732651
 20
54.5972114515
 30
0.0
 11
87.0535732651
 21
45.5972114515
 31
0.0
  0
LINE
  5
11D
330
1F
100
AcDbEntity
  8
0
  6
Continuous
 62
     7
370
    25
100
AcDbLine
 10
78.0535732651
 20
46.7472114515
 30
0.0
 11
78.0535732651
 21
53.4472114515
 31
0.0
  0
SPLINE
  5
11E
330
1F
100
AcDbEntity
  8
0
  6
Continuous
 62
     7
370
    25
100
AcDbSpline
210
0.0
220
0.0
230
1.0
 70
     8
 71
     3
 72
    15
 73
    11
 74
     0
 42
0.00000001
 43
0.00000001
 40
0.0
 40
0.0
 40
0.0
 40
0.0
 40
0.0090459071881971
 40
0.1032433785236875
 40
0.1542564497735248
 40
0.313316902671511
 40
0.5243720399414434
 40
0.6678060008509189
 40
0.9918332554187028
 40
1.0
 40
1.0
 40
1.0
 40
1.0
 10
122.7926585977212
 20
77.19721145145463
 30
0.0
 10
122.7926529057545
 20
77.19889255003906
 30
0.0
 10
122.7925879418038
 20
77.21807938159458
 30
0.0
 10
122.7905922553679
 20
77.24677366111457
 30
0.0
 10
122.7827752591514
 20
77.29744970108648
 30
0.0
 10
122.7656054353964
 20
77.3553260006634
 30
0.0
 10
122.7390215388289
 20
77.40019151539809
 30
0.0
 10
122.7011922403403
 20
77.43755389865261
 30
0.0
 10
122.67291146033
 20
77.44709991092218
 30
0.0
 10
122.6530803127987
 20
77.44720877510886
 30
0.0
 10
122.6525927786559
 20
77.44721145145463
 30
0.0
  0
LINE
  5
11F
330
1F
100
AcDbEntity
  8
0
  6
Continuous
 62
     7
370
    25
100
AcDbLine
 10
122.7926585977
 20
77.1972114515
 30
0.0
 11
112.3144879324
 21
77.1972114515
 31
0.0
  0
SPLINE
  5
120
330
1F
100
AcDbEntity
  8
0
  6
Continuous
 62
     7
370
    25
100
AcDbSpline
210
0.0
220
0.0
230
1.0
 70
     8
 71
     3
 72
    15
 73
    11
 74
     0
 42
0.00000001
 43
0.00000001
 40
0.0
 40
0.0
 40
0.0
 40
0.0
 40
0.0081667445812973
 40
0.3321939991490813
 40
0.4756279600585592
 40
0.6866830973284899
 40
0.845743550226481
 40
0.8967566214763184
 40
0.9909540928118029
 40
1.0
 40
1.0
 40
1.0
 40
1.0
 10
112.4545537514703
 20
77.44721145145463
 30
0.0
 10
112.4540662173274
 20
77.44720877510886
 30
0.0
 10
112.4342350697961
 20
77.44709991092218
 30
0.0
 10
112.4059542897859
 20
77.43755389865262
 30
0.0
 10
112.3681249912973
 20
77.40019151539808
 30
0.0
 10
112.3415410947297
 20
77.3553260006634
 30
0.0
 10
112.3243712709748
 20
77.29744970108648
 30
0.0
 10
112.3165542747583
 20
77.24677366111457
 30
0.0
 10
112.3145585883225
 20
77.21807938159456
 30
0.0
 10
112.3144936243717
 20
77.19889255003906
 30
0.0
 10
112.314487932405
 20
77.19721145145463
 30
0.0
  0
LINE
  5
121
330
1F
100
AcDbEntity
  8
0
  6
Continuous
 62
     7
370
    25
100
AcDbLine
 10
112.4545537515
 20
77.4472114515
 30
0.0
 11
122.6525927787
 21
77.4472114515
 31
0.0
  0
LINE
  5
122
330
1F
100
AcDbEntity
  8
0
  6
Continuous
 62
     7
370
    25
100
AcDbLine
 10
122.7926585977
 20
76.5972114515
 30
0.0
 11
122.7926585977
 21
77.1972114515
 31
0.0
  0
LINE
  5
123
330
1F
100
AcDbEntity
  8
0
  6
Continuous
 62
     7
370
    25
100
AcDbLine
 10
112.3144879324
 20
77.1972114515
 30
0.0
 11
112.3144879324
 21
76.5972114515
 31
0.0
  0
LINE
  5
124
330
1F
100
AcDbEntity
  8
0
  6
Continuous
 62
     7
370
    25
100
AcDbLine
 10
112.3144879324
 20
76.5972114515
 30
0.0
 11
122.7926585977
 21
76.5972114515
 31
0.0
  0
SPLINE
  5
125
330
1F
100
AcDbEntity
  8
0
  6
Continuous
 62
     7
370
    25
100
AcDbSpline
210
0.0
220
0.0
230
1.0
 70
     8
 71
     3
 72
    15
 73
    11
 74
     0
 42
0.00000001
 43
0.00000001
 40
0.0
 40
0.0
 40
0.0
 40
0.0
 40
0.0080847466189581
 40
0.3310106400648237
 40
0.4750333064304937
 40
0.6874363079215094
 40
0.8468367539418249
 40
0.9000996640391792
 40
0.9910442771984082
 40
1.0
 40
1.0
 40
1.0
 40
1.0
 10
122.6525927786559
 20
77.44721145145463
 30
0.0
 10
122.6538726102
 20
77.44720877504496
 30
0.0
 10
122.7062722559233
 20
77.44709919584325
 30
0.0
 10
122.7816273473783
 20
77.43742004100561
 30
0.0
 10
122.883546459396
 20
77.40013821754386
 30
0.0
 10
122.9559374043879
 20
77.35543034436046
 30
0.0
 10
123.0036428326527
 20
77.2972946942278
 30
0.0
 10
123.0251783163601
 20
77.24640762075948
 30
0.0
 10
123.0306073323796
 20
77.21764539165197
 30
0.0
 10
123.0307830845362
 20
77.19889257702755
 30
0.0
 10
123.0307988401148
 20
77.19721145145463
 30
0.0
  0
LINE
  5
126
330
1F
100
AcDbEntity
  8
0
  6
Continuous
 62
     7
370
    25
100
AcDbLine
 10
122.7926585977
 20
77.1972114515
 30
0.0
 11
123.0307988401
 21
77.1972114515
 31
0.0
  0
SPLINE
  5
127
330
1F
100
AcDbEntity
  8
0
  6
Continuous
 62
     7
370
    25
100
AcDbSpline
210
0.0
220
0.0
230
1.0
 70
     8
 71
     3
 72
    15
 73
    11
 74
     0
 42
0.00000001
 43
0.00000001
 40
0.0
 40
0.0
 40
0.0
 40
0.0
 40
0.0089557228015919
 40
0.0999003359608153
 40
0.1531632460581696
 40
0.3125636920784855
 40
0.5249666935695051
 40
0.6689893599351772
 40
0.991915253381045
 40
1.0
 40
1.0
 40
1.0
 40
1.0
 10
112.0763476900114
 20
77.19721145145463
 30
0.0
 10
112.07636344559
 20
77.19889257702755
 30
0.0
 10
112.0765391977466
 20
77.21764539165198
 30
0.0
 10
112.0819682137661
 20
77.24640762075947
 30
0.0
 10
112.1035036974734
 20
77.29729469422779
 30
0.0
 10
112.1512091257382
 20
77.35543034436046
 30
0.0
 10
112.2236000707302
 20
77.40013821754386
 30
0.0
 10
112.3255191827479
 20
77.43742004100561
 30
0.0
 10
112.4008742742029
 20
77.44709919584321
 30
0.0
 10
112.4532739199262
 20
77.44720877504496
 30
0.0
 10
112.4545537514703
 20
77.44721145145463
 30
0.0
  0
LINE
  5
128
330
1F
100
AcDbEntity
  8
0
  6
Continuous
 62
     7
370
    25
100
AcDbLine
 10
112.07634769
 20
77.1972114515
 30
0.0
 11
112.3144879324
 21
77.1972114515
 31
0.0
  0
LINE
  5
129
330
1F
100
AcDbEntity
  8
0
  6
Continuous
 62
     7
370
    25
100
AcDbLine
 10
112.07634769
 20
76.5972114515
 30
0.0
 11
112.07634769
 21
77.1972114515
 31
0.0
  0
LINE
  5
12A
330
1F
100
AcDbEntity
  8
0
  6
Continuous
 62
     7
370
    25
100
AcDbLine
 10
112.3144879324
 20
76.5972114515
 30
0.0
 11
112.07634769
 21
76.5972114515
 31
0.0
  0
LINE
  5
12B
330
1F
100
AcDbEntity
  8
0
  6
Continuous
 62
     7
370
    25
100
AcDbLine
 10
123.0307988401
 20
77.1972114515
 30
0.0
 11
123.0307988401
 21
76.5972114515
 31
0.0
  0
LINE
  5
12C
330
1F
100
AcDbEntity
  8
0
  6
Continuous
 62
     7
370
    25
100
AcDbLine
 10
123.0307988401
 20
76.5972114515
 30
0.0
 11
122.7926585977
 21
76.5972114515
 31
0.0
  0
LINE
  5
12D
330
1F
100
AcDbEntity
  8
0
  6
Continuous
 62
     7
370
    25
100
AcDbLine
 10
112.07634769
 20
77.1972114515
 30
0.0
 11
111.8035732651
 21
77.1972114515
 31
0.0
  0
LINE
  5
12E
330
1F
100
AcDbEntity
  8
0
  6
Continuous
 62
     7
370
    25
100
AcDbLine
 10
111.8035732651
 20
77.4472114515
 30
0.0
 11
111.8035732651
 21
77.1972114515
 31
0.0
  0
LINE
  5
12F
330
1F
100
AcDbEntity
  8
0
  6
Continuous
 62
     7
370
    25
100
AcDbLine
 10
111.8035732651
 20
77.4472114515
 30
0.0
 11
112.4545537515
 21
77.4472114515
 31
0.0
  0
LINE
  5
130
330
1F
100
AcDbEntity
  8
0
  6
Continuous
 62
     7
370
    25
100
AcDbLine
 10
123.3035732651
 20
76.5972114515
 30
0.0
 11
123.3035732651
 21
77.1972114515
 31
0.0
  0
LINE
  5
131
330
1F
100
AcDbEntity
  8
0
  6
Continuous
 62
     7
370
    25
100
AcDbLine
 10
123.3035732651
 20
77.1972114515
 30
0.0
 11
123.5535732651
 21
77.1972114515
 31
0.0
  0
LINE
  5
132
330
1F
100
AcDbEntity
  8
0
  6
Continuous
 62
     7
370
    25
100
AcDbLine
 10
123.5535732651
 20
77.1972114515
 30
0.0
 11
123.5535732651
 21
76.5972114515
 31
0.0
  0
LINE
  5
133
330
1F
100
AcDbEntity
  8
0
  6
Continuous
 62
     7
370
    25
100
AcDbLine
 10
123.5535732651
 20
76.5972114515
 30
0.0
 11
123.3035732651
 21
76.5972114515
 31
0.0
  0
LINE
  5
134
330
1F
100
AcDbEntity
  8
0
  6
Continuous
 62
     7
370
    25
100
AcDbLine
 10
123.3035732651
 20
77.1972114515
 30
0.0
 11
123.3035732651
 21
77.4472114515
 31
0.0
  0
LINE
  5
135
330
1F
100
AcDbEntity
  8
0
  6
Continuous
 62
     7
370
    25
100
AcDbLine
 10
123.3035732651
 20
77.1972114515
 30
0.0
 11
123.0307988401
 21
77.1972114515
 31
0.0
  0
LINE
  5
136
330
1F
100
AcDbEntity
  8
0
  6
Continuous
 62
     7
370
    25
100
AcDbLine
 10
122.6525927787
 20
77.4472114515
 30
0.0
 11
123.3035732651
 21
77.4472114515
 31
0.0
  0
ARC
  5
137
330
1F
100
AcDbEntity
  8
0
  6
Continuous
 62
     7
370
    25
100
AcDbCircle
 10
123.3035732651
 20
77.1972114515
 30
0.0
 40
0.25
100
AcDbArc
 50
0.0
 51
90.0
  0
LINE
  5
138
330
1F
100
AcDbEntity
  8
0
  6
Continuous
 62
     7
370
    25
100
AcDbLine
 10
123.0307988401
 20
76.5972114515
 30
0.0
 11
123.3035732651
 21
76.5972114515
 31
0.0
  0
ARC
  5
139
330
1F
100
AcDbEntity
  8
0
  6
Continuous
 62
     7
370
    25
100
AcDbCircle
 10
111.8035732651
 20
77.1972114515
 30
0.0
 40
0.25
100
AcDbArc
 50
90.0
 51
180.0
  0
LINE
  5
13A
330
1F
100
AcDbEntity
  8
0
  6
Continuous
 62
     7
370
    25
100
AcDbLine
 10
111.5535732651
 20
77.1972114515
 30
0.0
 11
111.8035732651
 21
77.1972114515
 31
0.0
  0
LINE
  5
13B
330
1F
100
AcDbEntity
  8
0
  6
Continuous
 62
     7
370
    25
100
AcDbLine
 10
111.8035732651
 20
77.1972114515
 30
0.0
 11
111.8035732651
 21
76.5972114515
 31
0.0
  0
LINE
  5
13C
330
1F
100
AcDbEntity
  8
0
  6
Continuous
 62
     7
370
    25
100
AcDbLine
 10
111.8035732651
 20
76.5972114515
 30
0.0
 11
112.07634769
 21
76.5972114515
 31
0.0
  0
LINE
  5
13D
330
1F
100
AcDbEntity
  8
0
  6
Continuous
 62
     7
370
    25
100
AcDbLine
 10
111.5535732651
 20
76.5972114515
 30
0.0
 11
111.5535732651
 21
77.1972114515
 31
0.0
  0
LINE
  5
13E
330
1F
100
AcDbEntity
  8
0
  6
Continuous
 62
     7
370
    25
100
AcDbLine
 10
111.8035732651
 20
76.5972114515
 30
0.0
 11
111.5535732651
 21
76.5972114515
 31
0.0
  0
LINE
  5
13F
330
1F
100
AcDbEntity
  8
0
  6
Continuous
 62
     7
370
    25
100
AcDbLine
 10
112.5535732651
 20
77.4572114515
 30
0.0
 11
122.5535732651
 21
77.4572114515
 31
0.0
  0
LINE
  5
140
330
1F
100
AcDbEntity
  8
0
  6
Continuous
 62
     7
370
    25
100
AcDbLine
 10
112.5535732651
 20
77.4472114515
 30
0.0
 11
112.5535732651
 21
77.4572114515
 31
0.0
  0
LINE
  5
141
330
1F
100
AcDbEntity
  8
0
  6
Continuous
 62
     7
370
    25
100
AcDbLine
 10
122.5535732651
 20
77.4472114515
 30
0.0
 11
122.5535732651
 21
77.4572114515
 31
0.0
  0
LINE
  5
142
330
1F
100
AcDbEntity
  8
0
  6
Continuous
 62
     7
370
    25
100
AcDbLine
 10
115.5535732651
 20
60.5972114515
 30
0.0
 11
124.5535732651
 21
60.5972114515
 31
0.0
  0
LINE
  5
143
330
1F
100
AcDbEntity
  8
0
  6
Continuous
 62
     7
370
    25
100
AcDbLine
 10
115.5535732651
 20
60.6350283753
 30
0.0
 11
115.5535732651
 21
60.5972114515
 31
0.0
  0
SPLINE
  5
144
330
1F
100
AcDbEntity
  8
0
  6
Continuous
 62
     7
370
    25
100
AcDbSpline
210
0.0
220
0.0
230
1.0
 70
     8
 71
     3
 72
     9
 73
     5
 74
     0
 42
0.00000001
 43
0.00000001
 40
0.0
 40
0.0
 40
0.0
 40
0.0
 40
0.4875141023677128
 40
0.9999999999999999
 40
0.9999999999999999
 40
0.9999999999999999
 40
0.9999999999999999
 10
115.3976280146359
 20
60.5972114514547
 30
0.0
 10
115.4239345885585
 20
60.59893879742641
 30
0.0
 10
115.4778952305067
 20
60.60248196871788
 30
0.0
 10
115.5279307612015
 20
60.6240004546672
 30
0.0
 10
115.5535732650631
 20
60.63502837525462
 30
0.0
  0
SPLINE
  5
145
330
1F
100
AcDbEntity
  8
0
  6
Continuous
 62
     7
370
    25
100
AcDbSpline
210
0.0
220
0.0
230
1.0
 70
     8
 71
     3
 72
    17
 73
    13
 74
     0
 42
0.00000001
 43
0.00000001
 40
0.0
 40
0.0
 40
0.0
 40
0.0
 40
0.3241697628029873
 40
0.5422758463620719
 40
0.689509052693928
 40
0.7894036290694505
 40
0.8577090008137825
 40
0.9049823971474137
 40
0.9551712229700868
 40
0.9753097783197817
 40
0.9919572060138848
 40
1.0
 40
1.0
 40
1.0
 40
1.0
 10
113.0790263809809
 20
68.59721145145227
 30
0.0
 10
113.2217417409981
 20
67.6845979488466
 30
0.0
 10
113.4604780499401
 20
66.15796494258525
 30
0.0
 10
113.8400652443917
 20
64.23119204030428
 30
0.0
 10
114.1491994527388
 20
62.94355656937152
 30
0.0
 10
114.4053129809389
 20
62.08440460264978
 30
0.0
 10
114.6196239838339
 20
61.51093671427238
 30
0.0
 10
114.8228582048618
 20
61.08940456024241
 30
0.0
 10
115.0074034694044
 20
60.80891201744698
 30
0.0
 10
115.1934745557726
 20
60.65336334886631
 30
0.0
 10
115.3086851550285
 20
60.60275274966882
 30
0.0
 10
115.3757739605014
 20
60.59857299786417
 30
0.0
 10
115.3976280146359
 20
60.5972114514547
 30
0.0
  0
LINE
  5
146
330
1F
100
AcDbEntity
  8
0
  6
Continuous
 62
     7
370
    25
100
AcDbLine
 10
113.079026381
 20
68.5972114515
 30
0.0
 11
125.0035732651
 21
68.5972114514
 31
0.0
  0
SPLINE
  5
147
330
1F
100
AcDbEntity
  8
0
  6
Continuous
 62
     7
370
    25
100
AcDbSpline
210
0.0
220
0.0
230
1.0
 70
     8
 71
     3
 72
     9
 73
     5
 74
     0
 42
0.00000001
 43
0.00000001
 40
0.0
 40
0.0
 40
0.0
 40
0.0
 40
0.4978401817595073
 40
1.0
 40
1.0
 40
1.0
 40
1.0
 10
113.8392371367427
 20
69.59195502942156
 30
0.0
 10
113.702915228372
 20
69.43544384672896
 30
0.0
 10
113.4290885800512
 20
69.12106347240996
 30
0.0
 10
113.1960493289545
 20
68.77233092438368
 30
0.0
 10
113.0790263809809
 20
68.59721145145227
 30
0.0
  0
LINE
  5
148
330
1F
100
AcDbEntity
  8
0
  6
Continuous
 62
     7
370
    25
100
AcDbLine
 10
112.3297710907
 20
76.5972114514
 30
0.0
 11
110.6016324267
 21
69.5919550294
 31
0.0
  0
LINE
  5
149
330
1F
100
AcDbEntity
  8
0
  6
Continuous
 62
     7
370
    25
100
AcDbLine
 10
122.7926585977
 20
76.5972114514
 30
0.0
 11
112.3297710907
 21
76.5972114514
 31
0.0
  0
SPLINE
  5
14A
330
1F
100
AcDbEntity
  8
0
  6
Continuous
 62
     7
370
    25
100
AcDbSpline
210
0.0
220
0.0
230
1.0
 70
     8
 71
     3
 72
    14
 73
    10
 74
     0
 42
0.00000001
 43
0.00000001
 40
0.0
 40
0.0
 40
0.0
 40
0.0
 40
0.1576095309202822
 40
0.3152382602707094
 40
0.4726926441579498
 40
0.6301650083177254
 40
0.7907313191165901
 40
0.9513050385928076
 40
1.0
 40
1.0
 40
1.0
 40
1.0
 10
111.0535732650631
 20
60.59721145145464
 30
0.0
 10
110.9870022502811
 20
60.81071323993204
 30
0.0
 10
110.8538521116961
 20
61.23774282355755
 30
0.0
 10
110.5252851499454
 20
61.82298990241387
 30
0.0
 10
110.1118955092134
 20
62.34514444323629
 30
0.0
 10
109.6162205902688
 20
62.79412257065616
 30
0.0
 10
109.0499308849843
 20
63.15340430246254
 30
0.0
 10
108.5736802285912
 20
63.35797048156372
 30
0.0
 10
108.2934856603985
 20
63.43876502991503
 30
0.0
 10
108.2282868756254
 20
63.4575652029618
 30
0.0
  0
LINE
  5
14B
330
1F
100
AcDbEntity
  8
0
  6
Continuous
 62
     7
370
    25
100
AcDbLine
 10
108.2282868756
 20
63.457565203
 30
0.0
 11
102.4485300258
 21
65.0261866434
 31
0.0
  0
SPLINE
  5
14C
330
1F
100
AcDbEntity
  8
0
  6
Continuous
 62
     7
370
    25
100
AcDbSpline
210
0.0
220
0.0
230
1.0
 70
     8
 71
     3
 72
    11
 73
     7
 74
     0
 42
0.00000001
 43
0.00000001
 40
0.0
 40
0.0
 40
0.0
 40
0.0
 40
0.2488466353289361
 40
0.4976946020535204
 40
0.7488461225871278
 40
1.0
 40
1.0
 40
1.0
 40
1.0
 10
95.37813640352644
 20
66.34938714443018
 30
0.0
 10
95.9725724526627
 20
66.27986276793655
 30
0.0
 10
97.16144773132609
 20
66.14081364297537
 30
0.0
 10
98.93617240203514
 20
65.84048490485009
 30
0.0
 10
100.7027530437775
 20
65.47857528659495
 30
0.0
 10
101.8666025447972
 20
65.1769833295304
 30
0.0
 10
102.4485300257702
 20
65.02618664344467
 30
0.0
  0
LINE
  5
14D
330
1F
100
AcDbEntity
  8
0
  6
Continuous
 62
     7
370
    25
100
AcDbLine
 10
95.3781364035
 20
66.3493871444
 30
0.0
 11
95.3781364035
 21
69.5919550294
 31
0.0
  0
LINE
  5
14E
330
1F
100
AcDbEntity
  8
0
  6
Continuous
 62
     7
370
    25
100
AcDbLine
 10
95.3781364035
 20
69.5919550294
 30
0.0
 11
113.8392371367
 21
69.5919550294
 31
0.0
  0
LINE
  5
14F
330
1F
100
AcDbEntity
  8
0
  6
Continuous
 62
     7
370
    25
100
AcDbLine
 10
115.3976280146
 20
60.5972114515
 30
0.0
 11
111.0535732651
 21
60.5972114515
 31
0.0
  0
LINE
  5
150
330
1F
100
AcDbEntity
  8
0
  6
Continuous
 62
     7
370
    25
100
AcDbLine
 10
115.5535732651
 20
60.6350283753
 30
0.0
 11
115.5467739071
 21
60.5972114515
 31
0.0
  0
LINE
  5
151
330
1F
100
AcDbEntity
  8
0
  6
Continuous
 62
     7
370
    25
100
AcDbLine
 10
115.5535732651
 20
60.5972114515
 30
0.0
 11
115.5467739071
 21
60.5972114515
 31
0.0
  0
LINE
  5
152
330
1F
100
AcDbEntity
  8
0
  6
Continuous
 62
     7
370
    25
100
AcDbLine
 10
115.5467739071
 20
60.5972114515
 30
0.0
 11
115.3976280146
 21
60.5972114515
 31
0.0
  0
LINE
  5
153
330
1F
100
AcDbEntity
  8
0
  6
Continuous
 62
     7
370
    25
100
AcDbLine
 10
77.5535732651
 20
78.5972114515
 30
0.0
 11
95.3781364035
 21
78.5972114515
 31
0.0
  0
LINE
  5
154
330
1F
100
AcDbEntity
  8
0
  6
Continuous
 62
     7
370
    25
100
AcDbLine
 10
95.3781364035
 20
78.5972114515
 30
0.0
 11
95.3781364035
 21
69.5919550294
 31
0.0
  0
LINE
  5
155
330
1F
100
AcDbEntity
  8
0
  6
Continuous
 62
     7
370
    25
100
AcDbLine
 10
90.6619054073
 20
66.5972114515
 30
0.0
 11
82.5535732651
 21
66.5972114515
 31
0.0
  0
ARC
  5
156
330
1F
100
AcDbEntity
  8
0
  6
Continuous
 62
     7
370
    25
100
AcDbCircle
 10
82.5535732651
 20
71.5972114515
 30
0.0
 40
5.0
100
AcDbArc
 50
180.0
 51
270.0
  0
LINE
  5
157
330
1F
100
AcDbEntity
  8
0
  6
Continuous
 62
     7
370
    25
100
AcDbLine
 10
77.5535732651
 20
71.5972114515
 30
0.0
 11
77.5535732651
 21
78.5972114515
 31
0.0
  0
ARC
  5
158
330
1F
100
AcDbEntity
  8
0
  6
Continuous
 62
     7
370
    25
100
AcDbCircle
 10
90.6619054073
 20
21.5970821973
 30
0.0
 40
45.00012925418374
100
AcDbArc
 50
83.9840777705
 51
90.0
  0
LINE
  5
159
330
1F
100
AcDbEntity
  8
0
  6
Continuous
 62
     7
370
    25
100
AcDbLine
 10
95.3781364035
 20
78.5972114515
 30
0.0
 11
97.5535732651
 21
78.5972114515
 31
0.0
  0
LINE
  5
15A
330
1F
100
AcDbEntity
  8
0
  6
Continuous
 62
     7
370
    25
100
AcDbLine
 10
97.5535732651
 20
78.5972114515
 30
0.0
 11
97.5535732651
 21
76.6161669748
 31
0.0
  0
ARC
  5
15B
330
1F
100
AcDbEntity
  8
0
  6
Continuous
 62
     7
370
    25
100
AcDbCircle
 10
103.5535732651
 20
76.6161669748
 30
0.0
 40
6.000000000000004
100
AcDbArc
 50
180.0
 51
275.5801667845
  0
ARC
  5
15C
330
1F
100
AcDbEntity
  8
0
  6
Continuous
 62
     7
370
    25
100
AcDbCircle
 10
103.1646197008
 20
80.5972114515
 30
0.0
 40
10.00000000000848
100
AcDbArc
 50
275.5801667845
 51
336.4218215217
  0
LINE
  5
15D
330
1F
100
AcDbEntity
  8
0
  6
Continuous
 62
     7
370
    25
100
AcDbLine
 10
111.0535732651
 20
60.5972114515
 30
0.0
 11
110.5535732651
 21
60.5972114515
 31
0.0
  0
LINE
  5
15E
330
1F
100
AcDbEntity
  8
0
  6
Continuous
 62
     7
370
    25
100
AcDbLine
 10
112.3144879324
 20
76.5972114514
 30
0.0
 11
112.3297710907
 21
76.5972114514
 31
0.0
  0
SPLINE
  5
15F
330
1F
100
AcDbEntity
  8
0
  6
Continuous
 62
     7
370
    25
100
AcDbSpline
210
0.0
220
0.0
230
1.0
 70
     8
 71
     3
 72
    32
 73
    28
 74
     0
 42
0.00000001
 43
0.00000001
 40
0.0
 40
0.0
 40
0.0
 40
0.0
 40
0.009274521934124
 40
0.0517118722528723
 40
0.0941764838803118
 40
0.1320954273225199
 40
0.170204505166916
 40
0.2081927049230235
 40
0.2154548900105547
 40
0.25611233885426
 40
0.2968957405088296
 40
0.3375526517743442
 40
0.3848690761800674
 40
0.4320903160466227
 40
0.4692563323198677
 40
0.506383433822833
 40
0.5434682665343297
 40
0.5806023984161244
 40
0.6303614212286607
 40
0.6802126104978026
 40
0.7334879836326138
 40
0.7867546341130407
 40
0.8315953428027029
 40
0.8764010940712551
 40
0.9190734809543506
 40
0.9617107011102378
 40
0.9999999999999999
 40
0.9999999999999999
 40
0.9999999999999999
 40
0.9999999999999999
 10
111.6542243461701
 20
59.59665849849738
 30
0.0
 10
111.6549692300839
 20
59.5960273623451
 30
0.0
 10
111.6591224729212
 20
59.59250834192409
 30
0.0
 10
111.7294043732562
 20
59.53258234699185
 30
0.0
 10
111.9207240229273
 20
59.37219182091398
 30
0.0
 10
112.1956451115614
 20
59.14589723802496
 30
0.0
 10
112.5280631931692
 20
58.8805270727925
 30
0.0
 10
112.8151237116378
 20
58.66044936293795
 30
0.0
 10
113.1352364514571
 20
58.42292252833101
 30
0.0
 10
113.4916239143188
 20
58.16664224966598
 30
0.0
 10
114.0383048896245
 20
57.80590085576302
 30
0.0
 10
114.6724494026327
 20
57.43427872875792
 30
0.0
 10
115.404036955386
 20
57.07608499081883
 30
0.0
 10
116.1874053692347
 20
56.79908596020012
 30
0.0
 10
116.9603983722726
 20
56.64766878925354
 30
0.0
 10
117.6909866840264
 20
56.60951932473459
 30
0.0
 10
118.415709671841
 20
56.68885121404794
 30
0.0
 10
119.1890791375864
 20
56.8813544223743
 30
0.0
 10
119.979474013982
 20
57.19851389142678
 30
0.0
 10
120.7762785443833
 20
57.62379242905967
 30
0.0
 10
121.5036456568843
 20
58.08625314048842
 30
0.0
 10
122.117851486148
 20
58.5266665112736
 30
0.0
 10
122.6113097334951
 20
58.90512571007241
 30
0.0
 10
122.9863779715386
 20
59.20689654782202
 30
0.0
 10
123.2565672248915
 20
59.43048634189641
 30
0.0
 10
123.4250274887875
 20
59.57297849883776
 30
0.0
 10
123.4404418625717
 20
59.58599730377453
 30
0.0
 10
123.447734967131
 20
59.59215697701009
 30
0.0
  0
LINE
  5
160
330
1F
100
AcDbEntity
  8
FORMAT
100
AcDbLine
 10
110.1199102348
 20
27.3483378532
 30
0.0
 11
109.7996329349
 21
37.5972114515
 31
0.0
  0
LINE
  5
161
330
1F
100
AcDbEntity
  8
FORMAT
100
AcDbLine
 10
124.9872362953
 20
27.3483378532
 30
0.0
 11
125.3075135953
 21
37.5972114515
 31
0.0
  0
LINE
  5
162
330
1F
100
AcDbEntity
  8
FORMAT
100
AcDbLine
 10
126.0298857651
 20
37.5972114515
 30
0.0
 11
109.0772607651
 21
37.5972114515
 31
0.0
  0
LINE
  5
163
330
1F
100
AcDbEntity
  8
FORMAT
  6
CENTERX2
370
    18
100
AcDbLine
 10
131.3764960293
 20
50.0972114515
 30
0.0
 11
76.0535732651
 21
50.0972114515
 31
0.0
  0
LINE
  5
164
330
1F
100
AcDbEntity
  8
FORMAT
  6
CENTERX2
370
    18
100
AcDbLine
 10
117.5535732651
 20
79.4769842914
 30
0.0
 11
117.5535732651
 21
24.6170970332
 31
0.0
  0
LINE
  5
165
330
1F
100
AcDbEntity
  8
0
  6
Continuous
 62
     7
370
    25
100
AcDbLine
 10
154.3148268363
 20
38.101866338
 30
0.0
 11
154.3228893363
 21
38.0972114515
 31
0.0
  0
LINE
  5
166
330
1F
100
AcDbEntity
  8
0
  6
Continuous
 62
     7
370
    25
100
AcDbLine
 10
154.3228893363
 20
38.0972114515
 30
0.0
 11
154.6174546665
 21
28.6711208851
 31
0.0
  0
LINE
  5
167
330
1F
100
AcDbEntity
  8
0
  6
Continuous
 62
     7
370
    25
100
AcDbLine
 10
171.0121990061
 20
28.6711208851
 30
0.0
 11
171.3067643363
 21
38.0972114515
 31
0.0
  0
LINE
  5
168
330
1F
100
AcDbEntity
  8
0
  6
Continuous
 62
     7
370
    25
100
AcDbLine
 10
154.6174546665
 20
28.6711208851
 30
0.0
 11
155.8148268363
 21
26.5972114515
 31
0.0
  0
LINE
  5
169
330
1F
100
AcDbEntity
  8
0
  6
Continuous
 62
     7
370
    25
100
AcDbLine
 10
169.8148268363
 20
26.5972114515
 30
0.0
 11
171.0121990061
 21
28.6711208851
 31
0.0
  0
LINE
  5
16A
330
1F
100
AcDbEntity
  8
0
  6
Continuous
 62
     7
370
    25
100
AcDbLine
 10
168.7227610886
 20
56.5012185967
 30
0.0
 11
168.717400048
 21
56.6299744235
 31
0.0
  0
SPLINE
  5
16B
330
1F
100
AcDbEntity
  8
0
  6
Continuous
 62
     7
370
    25
100
AcDbSpline
210
0.0
220
0.0
230
1.0
 70
     8
 71
     3
 72
     9
 73
     5
 74
     0
 42
0.00000001
 43
0.00000001
 40
0.0
 40
0.0
 40
0.0
 40
0.0
 40
0.0282993288825642
 40
1.0
 40
1.0
 40
1.0
 40
1.0
 10
156.9156704178905
 20
56.63603024954034
 30
0.0
 10
156.9157829658188
 20
56.63475575412971
 30
0.0
 10
156.9197600187295
 20
56.58971951260209
 30
0.0
 10
156.9128815069036
 20
56.54463045009852
 30
0.0
 10
156.9061976523461
 20
56.50081737780374
 30
0.0
  0
LINE
  5
16C
330
1F
100
AcDbEntity
  8
0
  6
Continuous
 62
     7
370
    25
100
AcDbLine
 10
168.7148268363
 20
56.6304377046
 30
0.0
 11
168.7148268363
 21
60.5972114515
 31
0.0
  0
LINE
  5
16D
330
1F
100
AcDbEntity
  8
0
  6
Continuous
 62
     7
370
    25
100
AcDbLine
 10
156.9148268363
 20
60.5972114515
 30
0.0
 11
156.9148268363
 21
56.6357401154
 31
0.0
  0
ARC
  5
16E
330
1F
100
AcDbEntity
  8
0
  6
Continuous
 62
     7
370
    25
100
AcDbCircle
 10
157.5648268363
 20
77.1972114515
 30
0.0
 40
0.25
100
AcDbArc
 50
90.0
 51
180.0
  0
ARC
  5
16F
330
1F
100
AcDbEntity
  8
0
  6
Continuous
 62
     7
370
    25
100
AcDbCircle
 10
168.0648268363
 20
77.1972114515
 30
0.0
 40
0.25
100
AcDbArc
 50
0.0
 51
90.0
  0
LINE
  5
170
330
1F
100
AcDbEntity
  8
0
  6
Continuous
 62
     7
370
    25
100
AcDbLine
 10
168.3148268363
 20
76.5972114515
 30
0.0
 11
168.3148268363
 21
77.1972114515
 31
0.0
  0
LINE
  5
171
330
1F
100
AcDbEntity
  8
0
  6
Continuous
 62
     7
370
    25
100
AcDbLine
 10
157.3148268363
 20
77.1972114515
 30
0.0
 11
157.3148268363
 21
76.5972114515
 31
0.0
  0
LINE
  5
172
330
1F
100
AcDbEntity
  8
0
  6
Continuous
 62
     7
370
    25
100
AcDbLine
 10
170.2648268363
 20
68.5972114515
 30
0.0
 11
168.3148268363
 21
76.5972114514
 31
0.0
  0
LINE
  5
173
330
1F
100
AcDbEntity
  8
0
  6
Continuous
 62
     7
370
    25
100
AcDbLine
 10
157.3148268363
 20
76.5972114514
 30
0.0
 11
155.3648268363
 21
68.5972114515
 31
0.0
  0
LINE
  5
174
330
1F
100
AcDbEntity
  8
0
  6
Continuous
 62
     7
370
    25
100
AcDbLine
 10
155.3648268363
 20
68.5972114515
 30
0.0
 11
155.8148268363
 21
60.5972114515
 31
0.0
  0
LINE
  5
175
330
1F
100
AcDbEntity
  8
0
  6
Continuous
 62
     7
370
    25
100
AcDbLine
 10
169.8148268363
 20
60.5972114515
 30
0.0
 11
170.2648268363
 21
68.5972114515
 31
0.0
  0
CIRCLE
  5
176
330
1F
100
AcDbEntity
  8
0
  6
Continuous
 62
     7
370
    25
100
AcDbCircle
 10
162.8148268363
 20
50.0972114515
 30
0.0
 40
8.25
  0
SPLINE
  5
177
330
1F
100
AcDbEntity
  8
0
  6
Continuous
 62
     7
370
    25
100
AcDbSpline
210
0.0
220
0.0
230
1.0
 70
     8
 71
     3
 72
    10
 73
     6
 74
     0
 42
0.00000001
 43
0.00000001
 40
0.0
 40
0.0
 40
0.0
 40
0.0
 40
0.5
 40
0.5
 40
1.0
 40
1.0
 40
1.0
 40
1.0
 10
154.3148268362602
 20
45.47840929793763
 30
0.0
 10
154.3148268362602
 20
45.39252223613517
 30
0.0
 10
154.33761928559
 20
45.30511502715503
 30
0.0
 10
154.425561989683
 20
45.15247858456131
 30
0.0
 10
154.4904197633569
 20
45.08835553961573
 30
0.0
 10
154.5648268362602
 20
45.04539659604541
 30
0.0
  0
SPLINE
  5
178
330
1F
100
AcDbEntity
  8
0
  6
Continuous
 62
     7
370
    25
100
AcDbSpline
210
0.0
220
0.0
230
1.0
 70
    24
 71
     3
 72
    14
 73
    10
 74
     0
 42
0.00000001
 43
0.00000001
 40
0.0
 40
0.0
 40
0.0
 40
0.0
 40
0.25
 40
0.25
 40
0.5
 40
0.5
 40
0.75
 40
0.75
 40
1.0
 40
1.0
 40
1.0
 40
1.0
 10
154.3148268362602
 20
45.47840929793759
 30
0.0
 10
154.3148268362602
 20
46.23278935858757
 30
0.0
 10
154.3148268362602
 20
47.00223052605307
 30
0.0
 10
154.3148268362602
 20
48.54274188699423
 30
0.0
 10
154.3148268362602
 20
49.31759626700125
 30
0.0
 10
154.3148268362602
 20
50.87795722188681
 30
0.0
 10
154.3148268362602
 20
51.66841341467183
 30
0.0
 10
154.3148268362602
 20
53.2106930774803
 30
0.0
 10
154.3148268362602
 20
53.96808383068149
 30
0.0
 10
154.3148268362602
 20
54.71601360497165
 30
0.0
  0
SPLINE
  5
179
330
1F
100
AcDbEntity
  8
0
  6
Continuous
 62
     7
370
    25
100
AcDbSpline
210
0.0
220
0.0
230
1.0
 70
     8
 71
     3
 72
    10
 73
     6
 74
     0
 42
0.00000001
 43
0.00000001
 40
0.0
 40
0.0
 40
0.0
 40
0.0
 40
0.5
 40
0.5
 40
1.0
 40
1.0
 40
1.0
 40
1.0
 10
154.5648268362602
 20
55.14902630686387
 30
0.0
 10
154.4904464588828
 20
55.10608277596264
 30
0.0
 10
154.426145820097
 20
55.04264033133852
 30
0.0
 10
154.3379301353141
 20
54.89016149421955
 30
0.0
 10
154.3148268362602
 20
54.80193149211227
 30
0.0
 10
154.3148268362602
 20
54.71601360497165
 30
0.0
  0
SPLINE
  5
17A
330
1F
100
AcDbEntity
  8
0
  6
Continuous
 62
     7
370
    25
100
AcDbSpline
210
0.0
220
0.0
230
1.0
 70
    24
 71
     3
 72
    16
 73
    12
 74
     0
 42
0.00000001
 43
0.00000001
 40
0.0
 40
0.0
 40
0.0
 40
0.0
 40
0.2500000000000001
 40
0.2500000000000001
 40
0.5000000000000001
 40
0.5000000000000001
 40
0.6250000000000001
 40
0.6250000000000001
 40
0.7500000000000002
 40
0.7500000000000002
 40
1.0
 40
1.0
 40
1.0
 40
1.0
 10
162.5648268362602
 20
59.76782846038088
 30
0.0
 10
161.9113100562194
 20
59.39052037150438
 30
0.0
 10
161.2530896471294
 20
59.01049664113018
 30
0.0
 10
159.9235270637636
 20
58.24287332571948
 30
0.0
 10
159.252103081693
 20
57.85522650893068
 30
0.0
 10
158.2331019946863
 20
57.26690595704284
 30
0.0
 10
157.8917612123701
 20
57.06983276448719
 30
0.0
 10
157.2161627093997
 20
56.67977578693309
 30
0.0
 10
156.8805035594351
 20
56.48598288634505
 30
0.0
 10
155.8792379229354
 20
55.90790190158162
 30
0.0
 10
155.2193302643322
 20
55.52690403724681
 30
0.0
 10
154.5648268362602
 20
55.14902630686387
 30
0.0
  0
SPLINE
  5
17B
330
1F
100
AcDbEntity
  8
0
  6
Continuous
 62
     7
370
    25
100
AcDbSpline
210
0.0
220
0.0
230
1.0
 70
     8
 71
     3
 72
    10
 73
     6
 74
     0
 42
0.00000001
 43
0.00000001
 40
0.0
 40
0.0
 40
0.0
 40
0.0
 40
0.5
 40
0.5
 40
1.0
 40
1.0
 40
1.0
 40
1.0
 10
163.0648268362602
 20
59.76782846038088
 30
0.0
 10
162.9904464588828
 20
59.8107719912821
 30
0.0
 10
162.9033533707673
 20
59.83473675563808
 30
0.0
 10
162.7271949818912
 20
59.83489436111287
 30
0.0
 10
162.6392339091634
 20
59.81078740395119
 30
0.0
 10
162.5648268362602
 20
59.76782846038088
 30
0.0
  0
SPLINE
  5
17C
330
1F
100
AcDbEntity
  8
0
  6
Continuous
 62
     7
370
    25
100
AcDbSpline
210
0.0
220
0.0
230
1.0
 70
    24
 71
     3
 72
    16
 73
    12
 74
     0
 42
0.00000001
 43
0.00000001
 40
0.0
 40
0.0
 40
0.0
 40
0.0
 40
0.2499999999999997
 40
0.2499999999999997
 40
0.4999999999999993
 40
0.4999999999999993
 40
0.6249999999999993
 40
0.6249999999999993
 40
0.7499999999999996
 40
0.7499999999999996
 40
1.0
 40
1.0
 40
1.0
 40
1.0
 10
171.0648268362602
 20
55.14902630686387
 30
0.0
 10
170.4113100562194
 20
55.52633439574037
 30
0.0
 10
169.7530896471294
 20
55.90635812611457
 30
0.0
 10
168.4235270637636
 20
56.67398144152526
 30
0.0
 10
167.7521030816931
 20
57.06162825831407
 30
0.0
 10
166.7331019946863
 20
57.64994881020191
 30
0.0
 10
166.3917612123701
 20
57.84702200275756
 30
0.0
 10
165.7161627093997
 20
58.23707898031166
 30
0.0
 10
165.3805035594351
 20
58.43087188089969
 30
0.0
 10
164.3792379229354
 20
59.00895286566313
 30
0.0
 10
163.7193302643322
 20
59.38995072999795
 30
0.0
 10
163.0648268362602
 20
59.76782846038088
 30
0.0
  0
SPLINE
  5
17D
330
1F
100
AcDbEntity
  8
0
  6
Continuous
 62
     7
370
    25
100
AcDbSpline
210
0.0
220
0.0
230
1.0
 70
     8
 71
     3
 72
    10
 73
     6
 74
     0
 42
0.00000001
 43
0.00000001
 40
0.0
 40
0.0
 40
0.0
 40
0.0
 40
0.5
 40
0.5
 40
1.0
 40
1.0
 40
1.0
 40
1.0
 10
171.3148268362602
 20
54.71601360497165
 30
0.0
 10
171.3148268362602
 20
54.80190066677411
 30
0.0
 10
171.2920343869304
 20
54.88930787575422
 30
0.0
 10
171.2040916828373
 20
55.04194431834797
 30
0.0
 10
171.1392339091634
 20
55.10606736329355
 30
0.0
 10
171.0648268362602
 20
55.14902630686387
 30
0.0
  0
SPLINE
  5
17E
330
1F
100
AcDbEntity
  8
0
  6
Continuous
 62
     7
370
    25
100
AcDbSpline
210
0.0
220
0.0
230
1.0
 70
    24
 71
     3
 72
    14
 73
    10
 74
     0
 42
0.00000001
 43
0.00000001
 40
0.0
 40
0.0
 40
0.0
 40
0.0
 40
0.25
 40
0.25
 40
0.5
 40
0.5
 40
0.75
 40
0.75
 40
1.0
 40
1.0
 40
1.0
 40
1.0
 10
171.3148268362602
 20
45.47840929793758
 30
0.0
 10
171.3148268362602
 20
46.23278935858756
 30
0.0
 10
171.3148268362602
 20
47.00223052605306
 30
0.0
 10
171.3148268362602
 20
48.54274188699422
 30
0.0
 10
171.3148268362602
 20
49.31759626700124
 30
0.0
 10
171.3148268362602
 20
50.8779572218868
 30
0.0
 10
171.3148268362602
 20
51.66841341467183
 30
0.0
 10
171.3148268362602
 20
53.2106930774803
 30
0.0
 10
171.3148268362602
 20
53.96808383068149
 30
0.0
 10
171.3148268362602
 20
54.71601360497165
 30
0.0
  0
SPLINE
  5
17F
330
1F
100
AcDbEntity
  8
0
  6
Continuous
 62
     7
370
    25
100
AcDbSpline
210
0.0
220
0.0
230
1.0
 70
     8
 71
     3
 72
    10
 73
     6
 74
     0
 42
0.00000001
 43
0.00000001
 40
0.0
 40
0.0
 40
0.0
 40
0.0
 40
0.5
 40
0.5
 40
1.0
 40
1.0
 40
1.0
 40
1.0
 10
171.0648268362602
 20
45.04539659604541
 30
0.0
 10
171.1392072136373
 20
45.08834012694654
 30
0.0
 10
171.2035078524228
 20
45.15178257157022
 30
0.0
 10
171.2917235372061
 20
45.30426140868934
 30
0.0
 10
171.3148268362602
 20
45.39249141079682
 30
0.0
 10
171.3148268362602
 20
45.47840929793761
 30
0.0
  0
SPLINE
  5
180
330
1F
100
AcDbEntity
  8
0
  6
Continuous
 62
     7
370
    25
100
AcDbSpline
210
0.0
220
0.0
230
1.0
 70
    24
 71
     3
 72
    16
 73
    12
 74
     0
 42
0.00000001
 43
0.00000001
 40
0.0
 40
0.0
 40
0.0
 40
0.0
 40
0.2500000000000002
 40
0.2500000000000002
 40
0.5000000000000004
 40
0.5000000000000004
 40
0.6250000000000003
 40
0.6250000000000003
 40
0.7500000000000002
 40
0.7500000000000002
 40
1.0
 40
1.0
 40
1.0
 40
1.0
 10
163.0648268362602
 20
40.4265944425284
 30
0.0
 10
163.7183436163009
 20
40.80390253140487
 30
0.0
 10
164.3765640253908
 20
41.18392626177905
 30
0.0
 10
165.7061266087565
 20
41.95154957718969
 30
0.0
 10
166.377550590827
 20
42.33919639397845
 30
0.0
 10
167.3965516778337
 20
42.92751694586624
 30
0.0
 10
167.7378924601498
 20
43.12459013842188
 30
0.0
 10
168.4134909631202
 20
43.51464711597595
 30
0.0
 10
168.7491501130848
 20
43.70844001656398
 30
0.0
 10
169.7504157495845
 20
44.28652100132737
 30
0.0
 10
170.4103234081876
 20
44.66751886566215
 30
0.0
 10
171.0648268362596
 20
45.04539659604506
 30
0.0
  0
SPLINE
  5
181
330
1F
100
AcDbEntity
  8
0
  6
Continuous
 62
     7
370
    25
100
AcDbSpline
210
0.0
220
0.0
230
1.0
 70
     8
 71
     3
 72
    10
 73
     6
 74
     0
 42
0.00000001
 43
0.00000001
 40
0.0
 40
0.0
 40
0.0
 40
0.0
 40
0.5
 40
0.5
 40
1.0
 40
1.0
 40
1.0
 40
1.0
 10
162.5648268362602
 20
40.4265944425284
 30
0.0
 10
162.6392072136375
 20
40.38365091162718
 30
0.0
 10
162.7263003017531
 20
40.35968614727119
 30
0.0
 10
162.9024586906291
 20
40.35952854179641
 30
0.0
 10
162.9904197633569
 20
40.3836354989581
 30
0.0
 10
163.0648268362602
 20
40.4265944425284
 30
0.0
  0
SPLINE
  5
182
330
1F
100
AcDbEntity
  8
0
  6
Continuous
 62
     7
370
    25
100
AcDbSpline
210
0.0
220
0.0
230
1.0
 70
    24
 71
     3
 72
    16
 73
    12
 74
     0
 42
0.00000001
 43
0.00000001
 40
0.0
 40
0.0
 40
0.0
 40
0.0
 40
0.2500000000000001
 40
0.2500000000000001
 40
0.5000000000000002
 40
0.5000000000000002
 40
0.6250000000000001
 40
0.6250000000000001
 40
0.7500000000000001
 40
0.7500000000000001
 40
1.0
 40
1.0
 40
1.0
 40
1.0
 10
154.5648268362602
 20
45.04539659604541
 30
0.0
 10
155.218343616301
 20
44.66808850716892
 30
0.0
 10
155.8765640253909
 20
44.28806477679471
 30
0.0
 10
157.2061266087567
 20
43.52044146138402
 30
0.0
 10
157.8775505908273
 20
43.13279464459523
 30
0.0
 10
158.896551677834
 20
42.54447409270738
 30
0.0
 10
159.2378924601502
 20
42.34740090015173
 30
0.0
 10
159.9134909631206
 20
41.95734392259762
 30
0.0
 10
160.2491501130853
 20
41.76355102200959
 30
0.0
 10
161.250415749585
 20
41.18547003724617
 30
0.0
 10
161.9103234081881
 20
40.80447217291134
 30
0.0
 10
162.5648268362602
 20
40.4265944425284
 30
0.0
  0
LINE
  5
183
330
1F
100
AcDbEntity
  8
0
  6
Continuous
 62
     7
370
    25
100
AcDbLine
 10
154.3228893363
 20
38.0972114515
 30
0.0
 11
171.3067643363
 21
38.0972114515
 31
0.0
  0
SPLINE
  5
184
330
1F
100
AcDbEntity
  8
0
  6
Continuous
 62
     7
370
    25
100
AcDbSpline
210
0.0
220
0.0
230
1.0
 70
     8
 71
     3
 72
    10
 73
     6
 74
     0
 42
0.00000001
 43
0.00000001
 40
0.0
 40
0.0
 40
0.0
 40
0.0
 40
0.5
 40
0.5
 40
1.0
 40
1.0
 40
1.0
 40
1.0
 10
154.5648268362602
 20
38.77958774326017
 30
0.0
 10
154.4904563693346
 20
38.80325998317173
 30
0.0
 10
154.4261507730467
 20
38.81635397310699
 30
0.0
 10
154.3379279852409
 20
38.81644084056843
 30
0.0
 10
154.3148268362602
 20
38.80327105080908
 30
0.0
 10
154.3148268362602
 20
38.77958774326017
 30
0.0
  0
SPLINE
  5
185
330
1F
100
AcDbEntity
  8
0
  6
Continuous
 62
     7
370
    25
100
AcDbSpline
210
0.0
220
0.0
230
1.0
 70
     8
 71
     3
 72
    16
 73
    12
 74
     0
 42
0.00000001
 43
0.00000001
 40
0.0
 40
0.0
 40
0.0
 40
0.0
 40
0.2499999999999999
 40
0.2499999999999999
 40
0.4999999999999998
 40
0.4999999999999998
 40
0.6249999999999998
 40
0.6249999999999998
 40
0.7499999999999997
 40
0.7499999999999997
 40
1.0
 40
1.0
 40
1.0
 40
1.0
 10
154.5648268362601
 20
38.77958774325971
 30
0.0
 10
155.2190484896996
 20
38.57134793281106
 30
0.0
 10
155.8775010252108
 20
38.40117464640161
 30
0.0
 10
157.206145650194
 20
38.16645238678577
 30
0.0
 10
157.8764100944816
 20
38.1025544117113
 30
0.0
 10
158.8923458380432
 20
38.1015307096248
 30
0.0
 10
159.2336969561429
 20
38.1170172567695
 30
0.0
 10
159.9101132676074
 20
38.17814097822748
 30
0.0
 10
160.2461860366483
 20
38.22366270552251
 30
0.0
 10
161.2487040977093
 20
38.40016206926768
 30
0.0
 10
161.9094619678008
 20
38.5709840456215
 30
0.0
 10
162.5648268362602
 20
38.77958774326003
 30
0.0
  0
SPLINE
  5
186
330
1F
100
AcDbEntity
  8
0
  6
Continuous
 62
     7
370
    25
100
AcDbSpline
210
0.0
220
0.0
230
1.0
 70
     8
 71
     3
 72
    10
 73
     6
 74
     0
 42
0.00000001
 43
0.00000001
 40
0.0
 40
0.0
 40
0.0
 40
0.0
 40
0.5
 40
0.5
 40
1.0
 40
1.0
 40
1.0
 40
1.0
 10
163.0648268362602
 20
38.77958774326017
 30
0.0
 10
162.9904520822701
 20
38.80326134775129
 30
0.0
 10
162.9033583507042
 20
38.81635412354452
 30
0.0
 10
162.7271925221598
 20
38.81644069164547
 30
0.0
 10
162.6392314982695
 20
38.80327086752219
 30
0.0
 10
162.5648268362602
 20
38.77958774326017
 30
0.0
  0
SPLINE
  5
187
330
1F
100
AcDbEntity
  8
0
  6
Continuous
 62
     7
370
    25
100
AcDbSpline
210
0.0
220
0.0
230
1.0
 70
     8
 71
     3
 72
    16
 73
    12
 74
     0
 42
0.00000001
 43
0.00000001
 40
0.0
 40
0.0
 40
0.0
 40
0.0
 40
0.2500000000000001
 40
0.2500000000000001
 40
0.5000000000000001
 40
0.5000000000000001
 40
0.6250000000000001
 40
0.6250000000000001
 40
0.7500000000000002
 40
0.7500000000000002
 40
1.0
 40
1.0
 40
1.0
 40
1.0
 10
163.0648268362601
 20
38.77958774325971
 30
0.0
 10
163.7190484896996
 20
38.57134793281106
 30
0.0
 10
164.3775010252108
 20
38.40117464640161
 30
0.0
 10
165.706145650194
 20
38.16645238678576
 30
0.0
 10
166.3764100944816
 20
38.1025544117113
 30
0.0
 10
167.3923458380432
 20
38.1015307096248
 30
0.0
 10
167.7336969561429
 20
38.1170172567695
 30
0.0
 10
168.4101132676074
 20
38.17814097822749
 30
0.0
 10
168.7461860366483
 20
38.22366270552251
 30
0.0
 10
169.7487040977093
 20
38.40016206926768
 30
0.0
 10
170.4094619678009
 20
38.57098404562151
 30
0.0
 10
171.0648268362602
 20
38.77958774326003
 30
0.0
  0
SPLINE
  5
188
330
1F
100
AcDbEntity
  8
0
  6
Continuous
 62
     7
370
    25
100
AcDbSpline
210
0.0
220
0.0
230
1.0
 70
     8
 71
     3
 72
    10
 73
     6
 74
     0
 42
0.00000001
 43
0.00000001
 40
0.0
 40
0.0
 40
0.0
 40
0.0
 40
0.5
 40
0.5
 40
1.0
 40
1.0
 40
1.0
 40
1.0
 10
171.3148268362602
 20
38.77958774326017
 30
0.0
 10
171.3148268362602
 20
38.80326164381613
 30
0.0
 10
171.2920362646127
 20
38.81635420099526
 30
0.0
 10
171.2040902673139
 20
38.81644061497755
 30
0.0
 10
171.1392294745812
 20
38.80327022337893
 30
0.0
 10
171.0648268362602
 20
38.77958774326017
 30
0.0
  0
SPLINE
  5
189
330
1F
100
AcDbEntity
  8
0
  6
Continuous
 62
     7
370
    25
100
AcDbSpline
210
0.0
220
0.0
230
1.0
 70
    24
 71
     3
 72
    12
 73
     8
 74
     0
 42
0.00000001
 43
0.00000001
 40
0.0
 40
0.0
 40
0.0
 40
0.0
 40
0.0617571580340976
 40
0.2943286854734785
 40
0.5269295588271141
 40
0.7634445546488585
 40
1.0
 40
1.0
 40
1.0
 40
1.0
 10
154.3148268362602
 20
38.11141697580384
 30
0.0
 10
154.3148268362602
 20
38.10845167169979
 30
0.0
 10
154.3148268362602
 20
38.09431931705852
 30
0.0
 10
154.3148268362602
 20
38.15792820774061
 30
0.0
 10
154.3148268362602
 20
38.29136551841462
 30
0.0
 10
154.3148268362602
 20
38.49971390829465
 30
0.0
 10
154.3148268362602
 20
38.68629114722322
 30
0.0
 10
154.3148268362602
 20
38.77958774326017
 30
0.0
  0
SPLINE
  5
18A
330
1F
100
AcDbEntity
  8
0
  6
Continuous
 62
     7
370
    25
100
AcDbSpline
210
0.0
220
0.0
230
1.0
 70
    24
 71
     3
 72
    12
 73
     8
 74
     0
 42
0.00000001
 43
0.00000001
 40
0.0
 40
0.0
 40
0.0
 40
0.0
 40
0.2328642324708655
 40
0.4656905567186608
 40
0.7019919530700085
 40
0.9382618479897168
 40
1.0
 40
1.0
 40
1.0
 40
1.0
 10
171.3148268362602
 20
38.77958774326017
 30
0.0
 10
171.3148268362602
 20
38.68767328336158
 30
0.0
 10
171.3148268362602
 20
38.50385932641984
 30
0.0
 10
171.3148268362602
 20
38.29514488671926
 30
0.0
 10
171.3148268362602
 20
38.15913396960323
 30
0.0
 10
171.3148268362602
 20
38.09447585102632
 30
0.0
 10
171.3148268362602
 20
38.10829091389337
 30
0.0
 10
171.3148268362602
 20
38.11115297235153
 30
0.0
  0
LINE
  5
18B
330
1F
100
AcDbEntity
  8
0
  6
Continuous
 62
     7
370
    25
100
AcDbLine
 10
162.5648268363
 20
38.7795877433
 30
0.0
 11
162.5648268363
 21
40.4265944425
 31
0.0
  0
LINE
  5
18C
330
1F
100
AcDbEntity
  8
0
  6
Continuous
 62
     7
370
    25
100
AcDbLine
 10
163.0648268363
 20
40.4265944425
 30
0.0
 11
163.0648268363
 21
38.7795877433
 31
0.0
  0
SPLINE
  5
18D
330
1F
100
AcDbEntity
  8
0
  6
Continuous
 62
     7
370
    25
100
AcDbSpline
210
0.0
220
0.0
230
1.0
 70
     8
 71
     3
 72
    10
 73
     6
 74
     0
 42
0.00000001
 43
0.00000001
 40
0.0
 40
0.0
 40
0.0
 40
0.0
 40
0.5
 40
0.5
 40
1.0
 40
1.0
 40
1.0
 40
1.0
 10
154.5648268362606
 20
42.13081491159979
 30
0.0
 10
155.1996545420743
 20
42.33288159715072
 30
0.0
 10
155.8389202446501
 20
42.49927436942136
 30
0.0
 10
157.12973517624
 20
42.73332134329141
 30
0.0
 10
157.7813548117098
 20
42.80040959725024
 30
0.0
 10
158.4403967435299
 20
42.80783526682003
 30
0.0
  0
LINE
  5
18E
330
1F
100
AcDbEntity
  8
0
  6
Continuous
 62
     7
370
    25
100
AcDbLine
 10
154.5648268363
 20
42.1308149116
 30
0.0
 11
154.5648268363
 21
38.7795877433
 31
0.0
  0
SPLINE
  5
18F
330
1F
100
AcDbEntity
  8
0
  6
Continuous
 62
     7
370
    25
100
AcDbSpline
210
0.0
220
0.0
230
1.0
 70
     8
 71
     3
 72
    12
 73
     8
 74
     0
 42
0.00000001
 43
0.00000001
 40
0.0
 40
0.0
 40
0.0
 40
0.0
 40
0.2499999999999999
 40
0.2499999999999999
 40
0.4999999999999998
 40
0.4999999999999998
 40
1.0
 40
1.0
 40
1.0
 40
1.0
 10
167.1892569290125
 20
42.80783526681978
 30
0.0
 10
167.5183919194057
 20
42.80412678096334
 30
0.0
 10
167.8478540723424
 20
42.78554427812567
 30
0.0
 10
168.5007276904001
 20
42.72067724115952
 30
0.0
 10
168.8251802822772
 20
42.67441168790926
 30
0.0
 10
169.7932407234693
 20
42.49868715760229
 30
0.0
 10
170.4315632077172
 20
42.33238374882554
 30
0.0
 10
171.0648268362602
 20
42.13081491159964
 30
0.0
  0
LINE
  5
190
330
1F
100
AcDbEntity
  8
0
  6
Continuous
 62
     7
370
    25
100
AcDbLine
 10
171.0648268363
 20
38.7795877433
 30
0.0
 11
171.0648268363
 21
42.1308149116
 31
0.0
  0
LINE
  5
191
330
1F
100
AcDbEntity
  8
0
  6
Continuous
 62
     7
370
    25
100
AcDbLine
 10
162.8148268363
 20
28.6711208851
 30
0.0
 11
154.6174546665
 21
28.6711208851
 31
0.0
  0
LINE
  5
192
330
1F
100
AcDbEntity
  8
0
  6
Continuous
 62
     7
370
    25
100
AcDbLine
 10
171.0121990061
 20
28.6711208851
 30
0.0
 11
162.8148268363
 21
28.6711208851
 31
0.0
  0
LINE
  5
193
330
1F
100
AcDbEntity
  8
0
  6
Continuous
 62
     7
370
    25
100
AcDbLine
 10
169.8148268363
 20
26.5972114515
 30
0.0
 11
155.8148268363
 21
26.5972114515
 31
0.0
  0
SPLINE
  5
194
330
1F
100
AcDbEntity
  8
0
  6
Continuous
 62
     7
370
    25
100
AcDbSpline
210
0.0
220
0.0
230
1.0
 70
     8
 71
     3
 72
     8
 73
     4
 74
     0
 42
0.00000001
 43
0.00000001
 40
0.0
 40
0.0
 40
0.0
 40
0.0
 40
1.0
 40
1.0
 40
1.0
 40
1.0
 10
154.3148268362602
 20
42.29230023988065
 30
0.0
 10
154.836632987562
 20
42.56489037555001
 30
0.0
 10
155.3602864564182
 20
42.8340428766714
 30
0.0
 10
155.8866236059847
 20
43.09721145145464
 30
0.0
  0
SPLINE
  5
195
330
1F
100
AcDbEntity
  8
0
  6
Continuous
 62
     7
370
    25
100
AcDbSpline
210
0.0
220
0.0
230
1.0
 70
     8
 71
     3
 72
    10
 73
     6
 74
     0
 42
0.00000001
 43
0.00000001
 40
0.0
 40
0.0
 40
0.0
 40
0.0
 40
0.5
 40
0.5
 40
1.0
 40
1.0
 40
1.0
 40
1.0
 10
154.3148268362602
 20
42.13081491159961
 30
0.0
 10
154.3148268362602
 20
42.10713951717521
 30
0.0
 10
154.33761928559
 20
42.09404840729058
 30
0.0
 10
154.4255619896833
 20
42.09396208600236
 30
0.0
 10
154.4904197633574
 20
42.1071310199463
 30
0.0
 10
154.5648268362608
 20
42.13081491159986
 30
0.0
  0
SPLINE
  5
196
330
1F
100
AcDbEntity
  8
0
  6
Continuous
 62
     7
370
    25
100
AcDbSpline
210
0.0
220
0.0
230
1.0
 70
    24
 71
     3
 72
     8
 73
     4
 74
     0
 42
0.00000001
 43
0.00000001
 40
0.0
 40
0.0
 40
0.0
 40
0.0
 40
1.0
 40
1.0
 40
1.0
 40
1.0
 10
154.3148268362602
 20
42.29230023988065
 30
0.0
 10
154.3148268362602
 20
42.24140545017983
 30
0.0
 10
154.3148268362602
 20
42.18747160081839
 30
0.0
 10
154.3148268362602
 20
42.13081491159964
 30
0.0
  0
SPLINE
  5
197
330
1F
100
AcDbEntity
  8
0
  6
Continuous
 62
     7
370
    25
100
AcDbSpline
210
0.0
220
0.0
230
1.0
 70
     8
 71
     3
 72
     8
 73
     4
 74
     0
 42
0.00000001
 43
0.00000001
 40
0.0
 40
0.0
 40
0.0
 40
0.0
 40
1.0
 40
1.0
 40
1.0
 40
1.0
 10
169.7430300665357
 20
43.09721145145463
 30
0.0
 10
170.2694509277449
 20
42.83400102085003
 30
0.0
 10
170.7929953844586
 20
42.56490359246333
 30
0.0
 10
171.3148268362602
 20
42.29230023988067
 30
0.0
  0
SPLINE
  5
198
330
1F
100
AcDbEntity
  8
0
  6
Continuous
 62
     7
370
    25
100
AcDbSpline
210
0.0
220
0.0
230
1.0
 70
     8
 71
     3
 72
    10
 73
     6
 74
     0
 42
0.00000001
 43
0.00000001
 40
0.0
 40
0.0
 40
0.0
 40
0.0
 40
0.5
 40
0.5
 40
1.0
 40
1.0
 40
1.0
 40
1.0
 10
171.0648268362602
 20
42.13081491159964
 30
0.0
 10
171.1392072136375
 20
42.10713951717525
 30
0.0
 10
171.2035078524233
 20
42.09404840729061
 30
0.0
 10
171.2917235372062
 20
42.09396208600233
 30
0.0
 10
171.3148268362602
 20
42.10713101994617
 30
0.0
 10
171.3148268362602
 20
42.13081491159963
 30
0.0
  0
SPLINE
  5
199
330
1F
100
AcDbEntity
  8
0
  6
Continuous
 62
     7
370
    25
100
AcDbSpline
210
0.0
220
0.0
230
1.0
 70
    24
 71
     3
 72
     8
 73
     4
 74
     0
 42
0.00000001
 43
0.00000001
 40
0.0
 40
0.0
 40
0.0
 40
0.0
 40
1.0
 40
1.0
 40
1.0
 40
1.0
 10
171.3148268362602
 20
42.29230023988065
 30
0.0
 10
171.3148268362602
 20
42.24140545017983
 30
0.0
 10
171.3148268362602
 20
42.18747160081839
 30
0.0
 10
171.3148268362602
 20
42.13081491159964
 30
0.0
  0
LINE
  5
19A
330
1F
100
AcDbEntity
  8
0
  6
Continuous
 62
     7
370
    25
100
AcDbLine
 10
167.6904711833
 20
43.0972114515
 30
0.0
 11
170.3148268363
 21
43.0972114515
 31
0.0
  0
LINE
  5
19B
330
1F
100
AcDbEntity
  8
0
  6
Continuous
 62
     7
370
    25
100
AcDbLine
 10
170.3148268363
 20
44.6123838942
 30
0.0
 11
170.3148268363
 21
43.0972114515
 31
0.0
  0
LINE
  5
19C
330
1F
100
AcDbEntity
  8
0
  6
Continuous
 62
     7
370
    25
100
AcDbLine
 10
155.3148268363
 20
43.0972114515
 30
0.0
 11
157.9391824892
 21
43.0972114515
 31
0.0
  0
LINE
  5
19D
330
1F
100
AcDbEntity
  8
0
  6
Continuous
 62
     7
370
    25
100
AcDbLine
 10
155.3148268363
 20
43.0972114515
 30
0.0
 11
155.3148268363
 21
44.6123838942
 31
0.0
  0
LINE
  5
19E
330
1F
100
AcDbEntity
  8
0
  6
Continuous
 62
     7
370
    25
100
AcDbLine
 10
154.3148268363
 20
38.7795877433
 30
0.0
 11
154.3148268363
 21
42.1308149116
 31
0.0
  0
LINE
  5
19F
330
1F
100
AcDbEntity
  8
0
  6
Continuous
 62
     7
370
    25
100
AcDbLine
 10
171.3148268363
 20
42.1308149116
 30
0.0
 11
171.3148268363
 21
38.7795877433
 31
0.0
  0
LINE
  5
1A0
330
1F
100
AcDbEntity
  8
0
  6
Continuous
 62
     7
370
    25
100
AcDbLine
 10
154.3148268363
 20
42.2923002399
 30
0.0
 11
154.3148268363
 21
45.4526422688
 31
0.0
  0
LINE
  5
1A1
330
1F
100
AcDbEntity
  8
0
  6
Continuous
 62
     7
370
    25
100
AcDbLine
 10
171.3148268363
 20
42.2923002399
 30
0.0
 11
171.3148268363
 21
45.4526422688
 31
0.0
  0
LINE
  5
1A2
330
1F
100
AcDbEntity
  8
0
  6
Continuous
 62
     7
370
    25
100
AcDbLine
 10
164.0648268363
 20
76.5972114515
 30
0.0
 11
164.0648268363
 21
77.1972114515
 31
0.0
  0
LINE
  5
1A3
330
1F
100
AcDbEntity
  8
0
  6
Continuous
 62
     7
370
    25
100
AcDbLine
 10
164.0648268363
 20
77.1972114515
 30
0.0
 11
164.3148268363
 21
77.1972114515
 31
0.0
  0
LINE
  5
1A4
330
1F
100
AcDbEntity
  8
0
  6
Continuous
 62
     7
370
    25
100
AcDbLine
 10
164.3148268363
 20
77.1972114515
 30
0.0
 11
164.3148268363
 21
76.5972114515
 31
0.0
  0
LINE
  5
1A5
330
1F
100
AcDbEntity
  8
0
  6
Continuous
 62
     7
370
    25
100
AcDbLine
 10
164.3148268363
 20
76.5972114515
 30
0.0
 11
164.0648268363
 21
76.5972114515
 31
0.0
  0
LINE
  5
1A6
330
1F
100
AcDbEntity
  8
0
  6
Continuous
 62
     7
370
    25
100
AcDbLine
 10
161.5648268363
 20
77.1972114515
 30
0.0
 11
161.5648268363
 21
76.5972114515
 31
0.0
  0
LINE
  5
1A7
330
1F
100
AcDbEntity
  8
0
  6
Continuous
 62
     7
370
    25
100
AcDbLine
 10
164.0648268363
 20
77.1972114515
 30
0.0
 11
161.5648268363
 21
77.1972114515
 31
0.0
  0
LINE
  5
1A8
330
1F
100
AcDbEntity
  8
0
  6
Continuous
 62
     7
370
    25
100
AcDbLine
 10
161.5648268363
 20
76.5972114515
 30
0.0
 11
164.0648268363
 21
76.5972114515
 31
0.0
  0
LINE
  5
1A9
330
1F
100
AcDbEntity
  8
0
  6
Continuous
 62
     7
370
    25
100
AcDbLine
 10
164.0648268363
 20
77.1972114515
 30
0.0
 11
164.0648268363
 21
77.4472114515
 31
0.0
  0
LINE
  5
1AA
330
1F
100
AcDbEntity
  8
0
  6
Continuous
 62
     7
370
    25
100
AcDbLine
 10
161.5648268363
 20
77.4472114515
 30
0.0
 11
161.5648268363
 21
77.1972114515
 31
0.0
  0
LINE
  5
1AB
330
1F
100
AcDbEntity
  8
0
  6
Continuous
 62
     7
370
    25
100
AcDbLine
 10
161.5648268363
 20
77.4472114515
 30
0.0
 11
164.0648268363
 21
77.4472114515
 31
0.0
  0
LINE
  5
1AC
330
1F
100
AcDbEntity
  8
0
  6
Continuous
 62
     7
370
    25
100
AcDbLine
 10
161.3148268363
 20
77.1972114515
 30
0.0
 11
161.5648268363
 21
77.1972114515
 31
0.0
  0
ARC
  5
1AD
330
1F
100
AcDbEntity
  8
0
  6
Continuous
 62
     7
370
    25
100
AcDbCircle
 10
161.5648268363
 20
77.1972114515
 30
0.0
 40
0.2500000000000284
100
AcDbArc
 50
90.0
 51
180.0
  0
LINE
  5
1AE
330
1F
100
AcDbEntity
  8
0
  6
Continuous
 62
     7
370
    25
100
AcDbLine
 10
161.3148268363
 20
76.5972114515
 30
0.0
 11
161.3148268363
 21
77.1972114515
 31
0.0
  0
LINE
  5
1AF
330
1F
100
AcDbEntity
  8
0
  6
Continuous
 62
     7
370
    25
100
AcDbLine
 10
161.5648268363
 20
76.5972114515
 30
0.0
 11
161.3148268363
 21
76.5972114515
 31
0.0
  0
ARC
  5
1B0
330
1F
100
AcDbEntity
  8
0
  6
Continuous
 62
     7
370
    25
100
AcDbCircle
 10
164.0648268363
 20
77.1972114515
 30
0.0
 40
0.25
100
AcDbArc
 50
0.0
 51
90.0
  0
SPLINE
  5
1B1
330
1F
100
AcDbEntity
  8
0
  6
Continuous
 62
     7
370
    25
100
AcDbSpline
210
0.0
220
0.0
230
1.0
 70
     8
 71
     3
 72
    15
 73
    11
 74
     0
 42
0.00000001
 43
0.00000001
 40
0.0
 40
0.0
 40
0.0
 40
0.0
 40
0.0090459071881971
 40
0.1032433785236875
 40
0.1542564497735248
 40
0.313316902671511
 40
0.5243720399414434
 40
0.6678060008509189
 40
0.9918332554187028
 40
1.0
 40
1.0
 40
1.0
 40
1.0
 10
161.1409137927819
 20
77.19721145145463
 30
0.0
 10
161.1409314385064
 20
77.19889255003906
 30
0.0
 10
161.1411328339189
 20
77.21807938159458
 30
0.0
 10
161.1473224545851
 20
77.24677366111457
 30
0.0
 10
161.1715243864293
 20
77.29744970108648
 30
0.0
 10
161.2245433784309
 20
77.3553260006634
 30
0.0
 10
161.3059142656275
 20
77.40019151539809
 30
0.0
 10
161.42049333765
 20
77.43755389865261
 30
0.0
 10
161.5049185153691
 20
77.44709991092218
 30
0.0
 10
161.5633893733211
 20
77.44720877510886
 30
0.0
 10
161.5648268362602
 20
77.44721145145463
 30
0.0
  0
LINE
  5
1B2
330
1F
100
AcDbEntity
  8
0
  6
Continuous
 62
     7
370
    25
100
AcDbLine
 10
161.1409137928
 20
77.1972114515
 30
0.0
 11
161.3148268363
 21
77.1972114515
 31
0.0
  0
LINE
  5
1B3
330
1F
100
AcDbEntity
  8
0
  6
Continuous
 62
     7
370
    25
100
AcDbLine
 10
164.3148268363
 20
77.1972114515
 30
0.0
 11
164.4887398797
 21
77.1972114515
 31
0.0
  0
SPLINE
  5
1B4
330
1F
100
AcDbEntity
  8
0
  6
Continuous
 62
     7
370
    25
100
AcDbSpline
210
0.0
220
0.0
230
1.0
 70
     8
 71
     3
 72
    15
 73
    11
 74
     0
 42
0.00000001
 43
0.00000001
 40
0.0
 40
0.0
 40
0.0
 40
0.0
 40
0.0081667445812695
 40
0.3321939991490077
 40
0.4756279600585576
 40
0.68668309732849
 40
0.8457435502264807
 40
0.8967566214763126
 40
0.9909540928118029
 40
1.0
 40
1.0
 40
1.0
 40
1.0
 10
164.0648268362602
 20
77.44721145145463
 30
0.0
 10
164.0662642991992
 20
77.44720877510886
 30
0.0
 10
164.1247351571509
 20
77.44709991092212
 30
0.0
 10
164.2091603348704
 20
77.43755389865262
 30
0.0
 10
164.3237394068928
 20
77.40019151539808
 30
0.0
 10
164.4051102940894
 20
77.3553260006634
 30
0.0
 10
164.4581292860911
 20
77.29744970108648
 30
0.0
 10
164.4823312179352
 20
77.24677366111457
 30
0.0
 10
164.4885208386014
 20
77.21807938159456
 30
0.0
 10
164.488722234014
 20
77.19889255003906
 30
0.0
 10
164.4887398797384
 20
77.19721145145463
 30
0.0
  0
LINE
  5
1B5
330
1F
100
AcDbEntity
  8
0
  6
Continuous
 62
     7
370
    25
100
AcDbLine
 10
161.1409137928
 20
76.5972114515
 30
0.0
 11
161.1409137928
 21
77.1972114515
 31
0.0
  0
LINE
  5
1B6
330
1F
100
AcDbEntity
  8
0
  6
Continuous
 62
     7
370
    25
100
AcDbLine
 10
161.3148268363
 20
76.5972114515
 30
0.0
 11
161.1409137928
 21
76.5972114515
 31
0.0
  0
LINE
  5
1B7
330
1F
100
AcDbEntity
  8
0
  6
Continuous
 62
     7
370
    25
100
AcDbLine
 10
164.4887398797
 20
77.1972114515
 30
0.0
 11
164.4887398797
 21
76.5972114515
 31
0.0
  0
LINE
  5
1B8
330
1F
100
AcDbEntity
  8
0
  6
Continuous
 62
     7
370
    25
100
AcDbLine
 10
164.4887398797
 20
76.5972114515
 30
0.0
 11
164.3148268363
 21
76.5972114515
 31
0.0
  0
LINE
  5
1B9
330
1F
100
AcDbEntity
  8
0
  6
Continuous
 62
     7
370
    25
100
AcDbLine
 10
157.5648268363
 20
77.4472114515
 30
0.0
 11
161.5648268363
 21
77.4472114515
 31
0.0
  0
LINE
  5
1BA
330
1F
100
AcDbEntity
  8
0
  6
Continuous
 62
     7
370
    25
100
AcDbLine
 10
164.0648268363
 20
77.4472114515
 30
0.0
 11
168.0648268363
 21
77.4472114515
 31
0.0
  0
LINE
  5
1BB
330
1F
100
AcDbEntity
  8
0
  6
Continuous
 62
     7
370
    25
100
AcDbLine
 10
164.4887398797
 20
76.5972114515
 30
0.0
 11
168.3148268363
 21
76.5972114515
 31
0.0
  0
LINE
  5
1BC
330
1F
100
AcDbEntity
  8
0
  6
Continuous
 62
     7
370
    25
100
AcDbLine
 10
157.3148268363
 20
76.5972114515
 30
0.0
 11
161.1409137928
 21
76.5972114515
 31
0.0
  0
LINE
  5
1BD
330
1F
100
AcDbEntity
  8
0
  6
Continuous
 62
     7
370
    25
100
AcDbLine
 10
162.2148268363
 20
77.4572114515
 30
0.0
 11
163.4148268363
 21
77.4572114515
 31
0.0
  0
LINE
  5
1BE
330
1F
100
AcDbEntity
  8
0
  6
Continuous
 62
     7
370
    25
100
AcDbLine
 10
163.4148268363
 20
77.4472114515
 30
0.0
 11
163.4148268363
 21
77.4572114515
 31
0.0
  0
LINE
  5
1BF
330
1F
100
AcDbEntity
  8
0
  6
Continuous
 62
     7
370
    25
100
AcDbLine
 10
162.2148268363
 20
77.4472114515
 30
0.0
 11
162.2148268363
 21
77.4572114515
 31
0.0
  0
LINE
  5
1C0
330
1F
100
AcDbEntity
  8
0
  6
Continuous
 62
     7
370
    25
100
AcDbLine
 10
155.3648268363
 20
68.5972114514
 30
0.0
 11
170.2648268363
 21
68.5972114514
 31
0.0
  0
LINE
  5
1C1
330
1F
100
AcDbEntity
  8
0
  6
Continuous
 62
     7
370
    25
100
AcDbLine
 10
155.8148268363
 20
60.5972114515
 30
0.0
 11
169.8148268363
 21
60.5972114515
 31
0.0
  0
LINE
  5
1C2
330
1F
100
AcDbEntity
  8
0
  6
Continuous
 62
     7
370
    25
100
AcDbLine
 10
159.3148268363
 20
78.5972114515
 30
0.0
 11
159.3148268363
 21
77.4472114515
 31
0.0
  0
LINE
  5
1C3
330
1F
100
AcDbEntity
  8
0
  6
Continuous
 62
     7
370
    25
100
AcDbLine
 10
159.3148268363
 20
78.5972114515
 30
0.0
 11
159.5431275722
 21
78.5972114515
 31
0.0
  0
LINE
  5
1C4
330
1F
100
AcDbEntity
  8
0
  6
Continuous
 62
     7
370
    25
100
AcDbLine
 10
159.5431275722
 20
78.5972114515
 30
0.0
 11
159.5431275722
 21
77.4472114515
 31
0.0
  0
LINE
  5
1C5
330
1F
100
AcDbEntity
  8
0
  6
Continuous
 62
     7
370
    25
100
AcDbLine
 10
166.0865261003
 20
78.5972114515
 30
0.0
 11
166.0865261003
 21
77.4472114515
 31
0.0
  0
LINE
  5
1C6
330
1F
100
AcDbEntity
  8
0
  6
Continuous
 62
     7
370
    25
100
AcDbLine
 10
166.0865261003
 20
78.5972114515
 30
0.0
 11
166.3148268363
 21
78.5972114515
 31
0.0
  0
LINE
  5
1C7
330
1F
100
AcDbEntity
  8
0
  6
Continuous
 62
     7
370
    25
100
AcDbLine
 10
166.3148268363
 20
77.4472114515
 30
0.0
 11
166.3148268363
 21
78.5972114515
 31
0.0
  0
LINE
  5
1C8
330
1F
100
AcDbEntity
  8
0
  6
Continuous
 62
     7
370
    25
100
AcDbLine
 10
159.5431275722
 20
78.5972114515
 30
0.0
 11
166.0865261003
 21
78.5972114515
 31
0.0
  0
SPLINE
  5
1C9
330
1F
100
AcDbEntity
  8
0
  6
Continuous
 62
     7
370
    25
100
AcDbSpline
210
0.0
220
0.0
230
1.0
 70
     8
 71
     3
 72
    19
 73
    15
 74
     0
 42
0.00000001
 43
0.00000001
 40
0.0
 40
0.0
 40
0.0
 40
0.0
 40
0.0167787882523154
 40
0.0954951978969557
 40
0.1743162501515416
 40
0.2799349448265308
 40
0.3857492723795242
 40
0.4988317858770382
 40
0.6118957846345491
 40
0.7070748466902124
 40
0.8021797079883418
 40
0.8927562817735324
 40
0.9832582105272537
 40
1.0
 40
1.0
 40
1.0
 40
1.0
 10
156.9224747148196
 20
56.63662053300379
 30
0.0
 10
156.9199480887797
 20
56.63348450870883
 30
0.0
 10
156.9055679887352
 20
56.61563606481917
 30
0.0
 10
156.969013315828
 20
56.69469905201917
 30
0.0
 10
157.1241196699637
 20
56.87918448493503
 30
0.0
 10
157.4124170534043
 20
57.19916324133332
 30
0.0
 10
157.8448510174153
 20
57.62361156498081
 30
0.0
 10
158.3992837597835
 20
58.08627612792107
 30
0.0
 10
159.0421793177176
 20
58.52675612713288
 30
0.0
 10
159.7416162419724
 20
58.90481705980652
 30
0.0
 10
160.4636165621922
 20
59.20804058999784
 30
0.0
 10
161.241335951402
 20
59.42643970809938
 30
0.0
 10
161.8293844241752
 20
59.54783946789621
 30
0.0
 10
162.1589746026887
 20
59.56113929524448
 30
0.0
 10
162.2104268413113
 20
59.56321552789634
 30
0.0
  0
SPLINE
  5
1CA
330
1F
100
AcDbEntity
  8
0
  6
Continuous
 62
     7
370
    25
100
AcDbSpline
210
0.0
220
0.0
230
1.0
 70
     8
 71
     3
 72
    20
 73
    16
 74
     0
 42
0.00000001
 43
0.00000001
 40
0.0
 40
0.0
 40
0.0
 40
0.0
 40
0.0313496699912697
 40
0.0973828319380215
 40
0.197382038549411
 40
0.29749349443159
 40
0.4180638109210237
 40
0.5387305563191785
 40
0.617111017908073
 40
0.6956729026920505
 40
0.773938297049078
 40
0.8504619021732363
 40
0.9268848122454229
 40
0.996741699815282
 40
1.0
 40
1.0
 40
1.0
 40
1.0
 10
163.4270240462012
 20
59.55871380372167
 30
0.0
 10
163.522895957433
 20
59.55349377188857
 30
0.0
 10
163.8207070100422
 20
59.5372785618766
 30
0.0
 10
164.403592956245
 20
59.42290569372864
 30
0.0
 10
165.1528338946262
 20
59.21363570756383
 30
0.0
 10
165.9733131147598
 20
58.86930307531257
 30
0.0
 10
166.7403950229717
 20
58.43375203210692
 30
0.0
 10
167.3474204293137
 20
57.99235184171265
 30
0.0
 10
167.7926522216489
 20
57.6099727994443
 30
0.0
 10
168.1144436740019
 20
57.30123690277492
 30
0.0
 10
168.374141759898
 20
57.02724515091669
 30
0.0
 10
168.5692352294771
 20
56.8041913375915
 30
0.0
 10
168.6803113709824
 20
56.66975803242499
 30
0.0
 10
168.724293904482
 20
56.61585510359685
 30
0.0
 10
168.713369359874
 20
56.62918796409893
 30
0.0
 10
168.7128825192215
 20
56.62978212877484
 30
0.0
  0
LINE
  5
1CB
330
1F
100
AcDbEntity
  8
0
  6
Continuous
 62
     7
370
    25
100
AcDbLine
 10
161.1409137928
 20
77.1972114515
 30
0.0
 11
157.3148268363
 21
77.1972114515
 31
0.0
  0
LINE
  5
1CC
330
1F
100
AcDbEntity
  8
0
  6
Continuous
 62
     7
370
    25
100
AcDbLine
 10
168.3148268363
 20
77.1972114515
 30
0.0
 11
164.4887398797
 21
77.1972114515
 31
0.0
  0
INSERT
  5
1D8
330
1F
100
AcDbEntity
  8
FORMAT
100
AcDbBlockReference
  2
SW_CENTERMARKSYMBOL_0
 10
162.8148268363
 20
50.0972114515
 30
0.0
  0
ARC
  5
1D9
330
1F
100
AcDbEntity
  8
FORMAT
100
AcDbCircle
 10
162.8148268363
 20
50.0972114515
 30
0.0
 40
6.999999999999998
100
AcDbArc
 50
75.0
 51
345.0
  0
LINE
  5
1DA
330
1F
100
AcDbEntity
  8
FORMAT
100
AcDbLine
 10
155.381163806
 20
27.3483378532
 30
0.0
 11
155.0608865061
 21
37.5972114515
 31
0.0
  0
LINE
  5
1DB
330
1F
100
AcDbEntity
  8
FORMAT
100
AcDbLine
 10
170.2484898665
 20
27.3483378532
 30
0.0
 11
170.5687671665
 21
37.5972114515
 31
0.0
  0
LINE
  5
1DC
330
1F
100
AcDbEntity
  8
FORMAT
100
AcDbLine
 10
171.2911393363
 20
37.5972114515
 30
0.0
 11
154.3385143363
 21
37.5972114515
 31
0.0
  0
LINE
  5
1DD
330
1F
100
AcDbEntity
  8
0
  6
Continuous
 62
     7
370
    25
100
AcDbLine
 10
129.4092356978
 20
102.2581234444
 30
0.0
 11
129.5535732651
 21
102.5081234444
 31
0.0
  0
LINE
  5
1DE
330
1F
100
AcDbEntity
  8
0
  6
Continuous
 62
     7
370
    25
100
AcDbLine
 10
129.5535732651
 20
119.0081234444
 30
0.0
 11
129.4092356978
 21
119.2581234444
 31
0.0
  0
LINE
  5
1DF
330
1F
100
AcDbEntity
  8
0
  6
Continuous
 62
     7
370
    25
100
AcDbLine
 10
103.2535732651
 20
118.7581234444
 30
0.0
 11
103.0535732651
 21
118.5581234444
 31
0.0
  0
LINE
  5
1E0
330
1F
100
AcDbEntity
  8
0
  6
Continuous
 62
     7
370
    25
100
AcDbLine
 10
103.0535732651
 20
102.9581234444
 30
0.0
 11
103.2535732651
 21
102.7581234444
 31
0.0
  0
LINE
  5
1E1
330
1F
100
AcDbEntity
  8
0
  6
Continuous
 62
     7
370
    25
100
AcDbLine
 10
106.0535732651
 20
118.7581234444
 30
0.0
 11
103.2535732651
 21
118.7581234444
 31
0.0
  0
LINE
  5
1E2
330
1F
100
AcDbEntity
  8
0
  6
Continuous
 62
     7
370
    25
100
AcDbLine
 10
103.2535732651
 20
102.7581234444
 30
0.0
 11
106.0535732651
 21
102.7581234444
 31
0.0
  0
LINE
  5
1E3
330
1F
100
AcDbEntity
  8
0
  6
Continuous
 62
     7
370
    25
100
AcDbLine
 10
96.0535732651
 20
115.2581234444
 30
0.0
 11
91.5535732651
 21
114.5081234444
 31
0.0
  0
LINE
  5
1E4
330
1F
100
AcDbEntity
  8
0
  6
Continuous
 62
     7
370
    25
100
AcDbLine
 10
91.5535732651
 20
107.0081234444
 30
0.0
 11
96.0535732651
 21
106.2581234444
 31
0.0
  0
LINE
  5
1E5
330
1F
100
AcDbEntity
  8
0
  6
Continuous
 62
     7
370
    25
100
AcDbLine
 10
100.5535732651
 20
115.2581234444
 30
0.0
 11
96.0535732651
 21
114.5081234444
 31
0.0
  0
LINE
  5
1E6
330
1F
100
AcDbEntity
  8
0
  6
Continuous
 62
     7
370
    25
100
AcDbLine
 10
96.0535732651
 20
107.0081234444
 30
0.0
 11
100.5535732651
 21
106.2581234444
 31
0.0
  0
LINE
  5
1E7
330
1F
100
AcDbEntity
  8
0
  6
Continuous
 62
     7
370
    25
100
AcDbLine
 10
82.5535732651
 20
115.2581234444
 30
0.0
 11
78.5335732651
 21
114.5881234444
 31
0.0
  0
LINE
  5
1E8
330
1F
100
AcDbEntity
  8
0
  6
Continuous
 62
     7
370
    25
100
AcDbLine
 10
78.5335732651
 20
106.9281234444
 30
0.0
 11
82.5535732651
 21
106.2581234444
 31
0.0
  0
LINE
  5
1E9
330
1F
100
AcDbEntity
  8
0
  6
Continuous
 62
     7
370
    25
100
AcDbLine
 10
103.0535732651
 20
115.2581234444
 30
0.0
 11
100.5535732651
 21
115.2581234444
 31
0.0
  0
LINE
  5
1EA
330
1F
100
AcDbEntity
  8
0
  6
Continuous
 62
     7
370
    25
100
AcDbLine
 10
100.5535732651
 20
106.2581234444
 30
0.0
 11
103.0535732651
 21
106.2581234444
 31
0.0
  0
LINE
  5
1EB
330
1F
100
AcDbEntity
  8
0
  6
Continuous
 62
     7
370
    25
100
AcDbLine
 10
91.5535732651
 20
115.2581234444
 30
0.0
 11
87.0535732651
 21
114.5081234444
 31
0.0
  0
LINE
  5
1EC
330
1F
100
AcDbEntity
  8
0
  6
Continuous
 62
     7
370
    25
100
AcDbLine
 10
87.0535732651
 20
107.0081234444
 30
0.0
 11
91.5535732651
 21
106.2581234444
 31
0.0
  0
LINE
  5
1ED
330
1F
100
AcDbEntity
  8
0
  6
Continuous
 62
     7
370
    25
100
AcDbLine
 10
87.0535732651
 20
115.2581234444
 30
0.0
 11
82.5535732651
 21
114.5081234444
 31
0.0
  0
LINE
  5
1EE
330
1F
100
AcDbEntity
  8
0
  6
Continuous
 62
     7
370
    25
100
AcDbLine
 10
82.5535732651
 20
107.0081234444
 30
0.0
 11
87.0535732651
 21
106.2581234444
 31
0.0
  0
LINE
  5
1EF
330
1F
100
AcDbEntity
  8
0
  6
Continuous
 62
     7
370
    25
100
AcDbLine
 10
78.5335732651
 20
114.5881234444
 30
0.0
 11
78.2035732651
 21
114.2581234444
 31
0.0
  0
LINE
  5
1F0
330
1F
100
AcDbEntity
  8
0
  6
Continuous
 62
     7
370
    25
100
AcDbLine
 10
78.2035732651
 20
107.2581234444
 30
0.0
 11
78.5335732651
 21
106.9281234444
 31
0.0
  0
SPLINE
  5
1F1
330
1F
100
AcDbEntity
  8
0
  6
Continuous
 62
     7
370
    25
100
AcDbSpline
210
0.0
220
0.0
230
1.0
 70
    24
 71
     3
 72
    10
 73
     6
 74
     0
 42
0.00000001
 43
0.00000001
 40
0.0
 40
0.0
 40
0.0
 40
0.0
 40
0.3696341342713231
 40
0.7423139531965647
 40
1.0
 40
1.0
 40
1.0
 40
1.0
 10
128.7315142925055
 20
102.2581234444067
 30
0.0
 10
128.8727168422365
 20
102.2581234444067
 30
0.0
 10
129.1562854122735
 20
102.2581234444067
 30
0.0
 10
129.3754187349016
 20
102.2581234444067
 30
0.0
 10
129.3978096534418
 20
102.2581234444067
 30
0.0
 10
129.4069627938585
 20
102.2581234444067
 30
0.0
  0
SPLINE
  5
1F2
330
1F
100
AcDbEntity
  8
0
  6
Continuous
 62
     7
370
    25
100
AcDbSpline
210
0.0
220
0.0
230
1.0
 70
     8
 71
     3
 72
    10
 73
     6
 74
     0
 42
0.00000001
 43
0.00000001
 40
0.0
 40
0.0
 40
0.0
 40
0.0
 40
0.5
 40
0.5
 40
1.0
 40
1.0
 40
1.0
 40
1.0
 10
128.7315142925055
 20
102.5081234444067
 30
0.0
 10
128.7078388980811
 20
102.4337430670294
 30
0.0
 10
128.6947477881965
 20
102.3694424282436
 30
0.0
 10
128.6946614669082
 20
102.2812267434607
 30
0.0
 10
128.707830400852
 20
102.2581234444067
 30
0.0
 10
128.7315142925055
 20
102.2581234444067
 30
0.0
  0
SPLINE
  5
1F3
330
1F
100
AcDbEntity
  8
0
  6
Continuous
 62
     7
370
    25
100
AcDbSpline
210
0.0
220
0.0
230
1.0
 70
     8
 71
     3
 72
    16
 73
    12
 74
     0
 42
0.00000001
 43
0.00000001
 40
0.0
 40
0.0
 40
0.0
 40
0.0
 40
0.2500000000000001
 40
0.2500000000000001
 40
0.5000000000000001
 40
0.5000000000000001
 40
0.6250000000000001
 40
0.6250000000000001
 40
0.7500000000000002
 40
0.7500000000000002
 40
1.0
 40
1.0
 40
1.0
 40
1.0
 10
128.7315142925055
 20
110.5081234444067
 30
0.0
 10
128.9395297406112
 20
109.8546066643659
 30
0.0
 10
129.1097360455842
 20
109.1963862552759
 30
0.0
 10
129.3446720771518
 20
107.8668236719101
 30
0.0
 10
129.4087442088155
 20
107.1953996898396
 30
0.0
 10
129.4094771577365
 20
106.1763986028329
 30
0.0
 10
129.3938176776535
 20
105.8350578205167
 30
0.0
 10
129.3325425510165
 20
105.1594593175462
 30
0.0
 10
129.2869862785174
 20
104.8238001675816
 30
0.0
 10
129.1105002457611
 20
103.8225345310819
 30
0.0
 10
128.9398437922754
 20
103.1626268724788
 30
0.0
 10
128.7315142925055
 20
102.5081234444067
 30
0.0
  0
SPLINE
  5
1F4
330
1F
100
AcDbEntity
  8
0
  6
Continuous
 62
     7
370
    25
100
AcDbSpline
210
0.0
220
0.0
230
1.0
 70
     8
 71
     3
 72
    10
 73
     6
 74
     0
 42
0.00000001
 43
0.00000001
 40
0.0
 40
0.0
 40
0.0
 40
0.0
 40
0.5
 40
0.5
 40
1.0
 40
1.0
 40
1.0
 40
1.0
 10
128.7315142925055
 20
111.0081234444067
 30
0.0
 10
128.7078388980811
 20
110.9337430670294
 30
0.0
 10
128.6947477881965
 20
110.8466499789138
 30
0.0
 10
128.6946614669082
 20
110.6704915900378
 30
0.0
 10
128.707830400852
 20
110.58253051731
 30
0.0
 10
128.7315142925055
 20
110.5081234444067
 30
0.0
  0
SPLINE
  5
1F5
330
1F
100
AcDbEntity
  8
0
  6
Continuous
 62
     7
370
    25
100
AcDbSpline
210
0.0
220
0.0
230
1.0
 70
     8
 71
     3
 72
    16
 73
    12
 74
     0
 42
0.00000001
 43
0.00000001
 40
0.0
 40
0.0
 40
0.0
 40
0.0
 40
0.2499999999999997
 40
0.2499999999999997
 40
0.4999999999999993
 40
0.4999999999999993
 40
0.6249999999999993
 40
0.6249999999999993
 40
0.7499999999999996
 40
0.7499999999999996
 40
1.0
 40
1.0
 40
1.0
 40
1.0
 10
128.7315142925055
 20
119.0081234444067
 30
0.0
 10
128.9395297406112
 20
118.3546066643659
 30
0.0
 10
129.1097360455842
 20
117.6963862552759
 30
0.0
 10
129.3446720771518
 20
116.3668236719101
 30
0.0
 10
129.4087442088155
 20
115.6953996898396
 30
0.0
 10
129.4094771577365
 20
114.6763986028329
 30
0.0
 10
129.3938176776535
 20
114.3350578205167
 30
0.0
 10
129.3325425510165
 20
113.6594593175463
 30
0.0
 10
129.2869862785174
 20
113.3238001675816
 30
0.0
 10
129.1105002457611
 20
112.3225345310819
 30
0.0
 10
128.9398437922754
 20
111.6626268724788
 30
0.0
 10
128.7315142925055
 20
111.0081234444067
 30
0.0
  0
SPLINE
  5
1F6
330
1F
100
AcDbEntity
  8
0
  6
Continuous
 62
     7
370
    25
100
AcDbSpline
210
0.0
220
0.0
230
1.0
 70
     8
 71
     3
 72
    10
 73
     6
 74
     0
 42
0.00000001
 43
0.00000001
 40
0.0
 40
0.0
 40
0.0
 40
0.0
 40
0.5
 40
0.5
 40
1.0
 40
1.0
 40
1.0
 40
1.0
 10
128.7315142925055
 20
119.2581234444067
 30
0.0
 10
128.7078388980811
 20
119.2581234444067
 30
0.0
 10
128.6947477881965
 20
119.2353309950769
 30
0.0
 10
128.6946614669082
 20
119.1473882909839
 30
0.0
 10
128.707830400852
 20
119.08253051731
 30
0.0
 10
128.7315142925055
 20
119.0081234444067
 30
0.0
  0
SPLINE
  5
1F7
330
1F
100
AcDbEntity
  8
0
  6
Continuous
 62
     7
370
    25
100
AcDbSpline
210
0.0
220
0.0
230
1.0
 70
    24
 71
     3
 72
    10
 73
     6
 74
     0
 42
0.00000001
 43
0.00000001
 40
0.0
 40
0.0
 40
0.0
 40
0.0
 40
0.2576829734866751
 40
0.6270636780176618
 40
1.0
 40
1.0
 40
1.0
 40
1.0
 10
129.4056214072574
 20
119.2581234444067
 30
0.0
 10
129.3970185893433
 20
119.2581234444067
 30
0.0
 10
129.3760838936219
 20
119.2581234444067
 30
0.0
 10
129.1571197322305
 20
119.2581234444067
 30
0.0
 10
128.8738350732687
 20
119.2581234444067
 30
0.0
 10
128.7315142925055
 20
119.2581234444067
 30
0.0
  0
LINE
  5
1F8
330
1F
100
AcDbEntity
  8
0
  6
Continuous
 62
     7
370
    25
100
AcDbLine
 10
129.5535732651
 20
119.0081234444
 30
0.0
 11
129.5535732651
 21
102.5081234444
 31
0.0
  0
SPLINE
  5
1F9
330
1F
100
AcDbEntity
  8
0
  6
Continuous
 62
     7
370
    25
100
AcDbSpline
210
0.0
220
0.0
230
1.0
 70
     8
 71
     3
 72
    12
 73
     8
 74
     0
 42
0.00000001
 43
0.00000001
 40
0.0
 40
0.0
 40
0.0
 40
0.0
 40
0.04004145770127
 40
0.2780626671221366
 40
0.5161134386365054
 40
0.7580369140637168
 40
1.0
 40
1.0
 40
1.0
 40
1.0
 10
123.5555664364022
 20
115.1538297990275
 30
0.0
 10
123.5561178419475
 20
115.2060023339417
 30
0.0
 10
123.559947005654
 20
115.5683076804896
 30
0.0
 10
123.6106238460263
 20
116.2402207852367
 30
0.0
 10
123.7492518838475
 20
117.1684550734077
 30
0.0
 10
123.9548619686111
 20
118.0929571431735
 30
0.0
 10
124.1391454079949
 20
118.7030513634116
 30
0.0
 10
124.2312946703233
 20
119.0081234444067
 30
0.0
  0
LINE
  5
1FA
330
1F
100
AcDbEntity
  8
0
  6
Continuous
 62
     7
370
    25
100
AcDbLine
 10
128.7315142925
 20
119.0081234444
 30
0.0
 11
124.2312946703
 21
119.0081234444
 31
0.0
  0
SPLINE
  5
1FB
330
1F
100
AcDbEntity
  8
0
  6
Continuous
 62
     7
370
    25
100
AcDbSpline
210
0.0
220
0.0
230
1.0
 70
     8
 71
     3
 72
    12
 73
     8
 74
     0
 42
0.00000001
 43
0.00000001
 40
0.0
 40
0.0
 40
0.0
 40
0.0
 40
0.0893735743394649
 40
0.3153923644682927
 40
0.5414371529578733
 40
0.7707027498731427
 40
1.0
 40
1.0
 40
1.0
 40
1.0
 10
106.0569240760261
 20
115.1569335024092
 30
0.0
 10
106.0587131257759
 20
115.2732957265667
 30
0.0
 10
106.0650265426323
 20
115.683928928641
 30
0.0
 10
106.1291392921237
 20
116.38751692948
 30
0.0
 10
106.2693196986275
 20
117.2665720768382
 30
0.0
 10
106.4688426651854
 20
118.1417084071644
 30
0.0
 10
106.6438066428653
 20
118.7193051420719
 30
0.0
 10
106.7312946703233
 20
119.0081234444067
 30
0.0
  0
LINE
  5
1FC
330
1F
100
AcDbEntity
  8
0
  6
Continuous
 62
     7
370
    25
100
AcDbLine
 10
110.8758518598
 20
119.0081234444
 30
0.0
 11
106.7312946703
 21
119.0081234444
 31
0.0
  0
SPLINE
  5
1FD
330
1F
100
AcDbEntity
  8
0
  6
Continuous
 62
     7
370
    25
100
AcDbSpline
210
0.0
220
0.0
230
1.0
 70
     8
 71
     3
 72
    10
 73
     6
 74
     0
 42
0.00000001
 43
0.00000001
 40
0.0
 40
0.0
 40
0.0
 40
0.0
 40
0.3647917967455549
 40
0.7295114259439563
 40
1.0
 40
1.0
 40
1.0
 40
1.0
 10
110.8758518598029
 20
119.0081234444067
 30
0.0
 10
110.9729225966055
 20
118.6838164043991
 30
0.0
 10
111.1670448664978
 20
118.0352664827444
 30
0.0
 10
111.3694395592588
 20
117.1323365496489
 30
0.0
 10
111.4393284970949
 20
116.5519435123155
 30
0.0
 10
111.4690890685748
 20
116.3047966961125
 30
0.0
  0
SPLINE
  5
1FE
330
1F
100
AcDbEntity
  8
0
  6
Continuous
 62
     7
370
    25
100
AcDbSpline
210
0.0
220
0.0
230
1.0
 70
     8
 71
     3
 72
    10
 73
     6
 74
     0
 42
0.00000001
 43
0.00000001
 40
0.0
 40
0.0
 40
0.0
 40
0.0
 40
0.3125631102822423
 40
0.6562534186652085
 40
1.0
 40
1.0
 40
1.0
 40
1.0
 10
111.4748209654557
 20
105.2072119286362
 30
0.0
 10
111.4365839569682
 20
104.9223758072319
 30
0.0
 10
111.3563020340091
 20
104.324337611803
 30
0.0
 10
111.151363487634
 20
103.4233820904977
 30
0.0
 10
110.9676940807495
 20
102.8132263087008
 30
0.0
 10
110.8758518598029
 20
102.5081234444067
 30
0.0
  0
LINE
  5
1FF
330
1F
100
AcDbEntity
  8
0
  6
Continuous
 62
     7
370
    25
100
AcDbLine
 10
106.7312946703
 20
102.5081234444
 30
0.0
 11
110.8758518598
 21
102.5081234444
 31
0.0
  0
SPLINE
  5
200
330
1F
100
AcDbEntity
  8
0
  6
Continuous
 62
     7
370
    25
100
AcDbSpline
210
0.0
220
0.0
230
1.0
 70
     8
 71
     3
 72
    11
 73
     7
 74
     0
 42
0.00000001
 43
0.00000001
 40
0.0
 40
0.0
 40
0.0
 40
0.0
 40
0.2567799536879578
 40
0.5135091080444031
 40
0.7747131571294635
 40
1.0
 40
1.0
 40
1.0
 40
1.0
 10
106.7312946703233
 20
102.5081234444067
 30
0.0
 10
106.6335339824772
 20
102.8323774046631
 30
0.0
 10
106.4380319469926
 20
103.4808211773162
 30
0.0
 10
106.2256855066211
 20
104.4753758900459
 30
0.0
 10
106.0866028266341
 20
105.4389603288622
 30
0.0
 10
106.0684714688862
 20
106.073808785531
 30
0.0
 10
106.0600751013252
 20
106.367797854739
 30
0.0
  0
LINE
  5
201
330
1F
100
AcDbEntity
  8
0
  6
Continuous
 62
     7
370
    25
100
AcDbLine
 10
124.2312946703
 20
102.5081234444
 30
0.0
 11
128.7315142925
 21
102.5081234444
 31
0.0
  0
SPLINE
  5
202
330
1F
100
AcDbEntity
  8
0
  6
Continuous
 62
     7
370
    25
100
AcDbSpline
210
0.0
220
0.0
230
1.0
 70
     8
 71
     3
 72
    11
 73
     7
 74
     0
 42
0.00000001
 43
0.00000001
 40
0.0
 40
0.0
 40
0.0
 40
0.0
 40
0.2551574668651126
 40
0.510264455378777
 40
0.7698180636033749
 40
1.0
 40
1.0
 40
1.0
 40
1.0
 10
124.2312946703233
 20
102.5081234444067
 30
0.0
 10
124.1335403026555
 20
102.8323777612269
 30
0.0
 10
123.9380509062771
 20
103.4808222469371
 30
0.0
 10
123.7256091363442
 20
104.4753715814842
 30
0.0
 10
123.585690873858
 20
105.4472201506496
 30
0.0
 10
123.5674814790013
 20
106.090375475906
 30
0.0
 10
123.5589228317584
 20
106.3926666610104
 30
0.0
  0
LINE
  5
203
330
1F
100
AcDbEntity
  8
0
  6
Continuous
 62
     7
370
    25
100
AcDbLine
 10
123.5535732651
 20
106.341959951
 30
0.0
 11
123.5535732651
 21
103.2581234444
 31
0.0
  0
LINE
  5
204
330
1F
100
AcDbEntity
  8
0
  6
Continuous
 62
     7
370
    25
100
AcDbLine
 10
123.5535732651
 20
103.2581234444
 30
0.0
 11
111.5535732651
 21
103.2581234444
 31
0.0
  0
LINE
  5
205
330
1F
100
AcDbEntity
  8
0
  6
Continuous
 62
     7
370
    25
100
AcDbLine
 10
111.5535732651
 20
105.2133078404
 30
0.0
 11
111.5535732651
 21
103.2581234444
 31
0.0
  0
LINE
  5
206
330
1F
100
AcDbEntity
  8
0
  6
Continuous
 62
     7
370
    25
100
AcDbLine
 10
111.5535732651
 20
118.2581234444
 30
0.0
 11
111.5535732651
 21
116.3029390484
 31
0.0
  0
LINE
  5
207
330
1F
100
AcDbEntity
  8
0
  6
Continuous
 62
     7
370
    25
100
AcDbLine
 10
111.5535732651
 20
118.2581234444
 30
0.0
 11
123.5535732651
 21
118.2581234444
 31
0.0
  0
LINE
  5
208
330
1F
100
AcDbEntity
  8
0
  6
Continuous
 62
     7
370
    25
100
AcDbLine
 10
123.5535732651
 20
118.2581234444
 30
0.0
 11
123.5535732651
 21
115.1742869378
 31
0.0
  0
SPLINE
  5
209
330
1F
100
AcDbEntity
  8
0
  6
Continuous
 62
     7
370
    25
100
AcDbSpline
210
0.0
220
0.0
230
1.0
 70
     8
 71
     3
 72
     8
 73
     4
 74
     0
 42
0.00000001
 43
0.00000001
 40
0.0
 40
0.0
 40
0.0
 40
0.0
 40
1.0
 40
1.0
 40
1.0
 40
1.0
 10
111.0373371880839
 20
119.2581234444067
 30
0.0
 10
111.2110402643037
 20
118.9256120222712
 30
0.0
 10
111.3833424833664
 20
118.5922849223724
 30
0.0
 10
111.5535732650631
 20
118.2581234444067
 30
0.0
  0
SPLINE
  5
20A
330
1F
100
AcDbEntity
  8
0
  6
Continuous
 62
     7
370
    25
100
AcDbSpline
210
0.0
220
0.0
230
1.0
 70
     8
 71
     3
 72
    10
 73
     6
 74
     0
 42
0.00000001
 43
0.00000001
 40
0.0
 40
0.0
 40
0.0
 40
0.0
 40
0.5
 40
0.5
 40
1.0
 40
1.0
 40
1.0
 40
1.0
 10
110.8758518598085
 20
119.2581234444067
 30
0.0
 10
110.8521764653842
 20
119.2581234444067
 30
0.0
 10
110.8390853554939
 20
119.2353309950772
 30
0.0
 10
110.8389990342055
 20
119.1473882909842
 30
0.0
 10
110.8521679681494
 20
119.0825305173102
 30
0.0
 10
110.8758518598029
 20
119.0081234444068
 30
0.0
  0
SPLINE
  5
20B
330
1F
100
AcDbEntity
  8
0
  6
Continuous
 62
     7
370
    25
100
AcDbSpline
210
0.0
220
0.0
230
1.0
 70
    24
 71
     3
 72
     8
 73
     4
 74
     0
 42
0.00000001
 43
0.00000001
 40
0.0
 40
0.0
 40
0.0
 40
0.0
 40
1.0
 40
1.0
 40
1.0
 40
1.0
 10
111.0373371880839
 20
119.2581234444067
 30
0.0
 10
110.9864384711615
 20
119.2581234444067
 30
0.0
 10
110.9325043349109
 20
119.2581234444067
 30
0.0
 10
110.8758518598033
 20
119.2581234444067
 30
0.0
  0
SPLINE
  5
20C
330
1F
100
AcDbEntity
  8
0
  6
Continuous
 62
     7
370
    25
100
AcDbSpline
210
0.0
220
0.0
230
1.0
 70
     8
 71
     3
 72
     8
 73
     4
 74
     0
 42
0.00000001
 43
0.00000001
 40
0.0
 40
0.0
 40
0.0
 40
0.0
 40
1.0
 40
1.0
 40
1.0
 40
1.0
 10
123.5535732650631
 20
118.2581234444067
 30
0.0
 10
123.7238508724068
 20
118.592376840692
 30
0.0
 10
123.8961226210325
 20
118.925643330261
 30
0.0
 10
124.0698093420421
 20
119.2581234444065
 30
0.0
  0
SPLINE
  5
20D
330
1F
100
AcDbEntity
  8
0
  6
Continuous
 62
     7
370
    25
100
AcDbSpline
210
0.0
220
0.0
230
1.0
 70
    24
 71
     3
 72
     8
 73
     4
 74
     0
 42
0.00000001
 43
0.00000001
 40
0.0
 40
0.0
 40
0.0
 40
0.0
 40
1.0
 40
1.0
 40
1.0
 40
1.0
 10
124.0698093420418
 20
119.2581234444067
 30
0.0
 10
124.120705575297
 20
119.2581234444067
 30
0.0
 10
124.1746395302608
 20
119.2581234444067
 30
0.0
 10
124.2312946703233
 20
119.2581234444067
 30
0.0
  0
SPLINE
  5
20E
330
1F
100
AcDbEntity
  8
0
  6
Continuous
 62
     7
370
    25
100
AcDbSpline
210
0.0
220
0.0
230
1.0
 70
     8
 71
     3
 72
    10
 73
     6
 74
     0
 42
0.00000001
 43
0.00000001
 40
0.0
 40
0.0
 40
0.0
 40
0.0
 40
0.5
 40
0.5
 40
1.0
 40
1.0
 40
1.0
 40
1.0
 10
124.2312946703233
 20
119.0081234444067
 30
0.0
 10
124.2549700647477
 20
119.082503821784
 30
0.0
 10
124.2680611746323
 20
119.1468044605698
 30
0.0
 10
124.2681474959206
 20
119.2350201453527
 30
0.0
 10
124.2549785619768
 20
119.2581234444067
 30
0.0
 10
124.2312946703233
 20
119.2581234444067
 30
0.0
  0
SPLINE
  5
20F
330
1F
100
AcDbEntity
  8
0
  6
Continuous
 62
     7
370
    25
100
AcDbSpline
210
0.0
220
0.0
230
1.0
 70
     8
 71
     3
 72
    10
 73
     6
 74
     0
 42
0.00000001
 43
0.00000001
 40
0.0
 40
0.0
 40
0.0
 40
0.0
 40
0.5
 40
0.5
 40
1.0
 40
1.0
 40
1.0
 40
1.0
 10
106.7312946703233
 20
119.2581234444067
 30
0.0
 10
106.7549685708792
 20
119.2581234444067
 30
0.0
 10
106.7680611280584
 20
119.2353328727593
 30
0.0
 10
106.7681475420407
 20
119.1473868754605
 30
0.0
 10
106.754977150442
 20
119.0825260827277
 30
0.0
 10
106.7312946703233
 20
119.0081234444067
 30
0.0
  0
SPLINE
  5
210
330
1F
100
AcDbEntity
  8
0
  6
Continuous
 62
     7
370
    25
100
AcDbSpline
210
0.0
220
0.0
230
1.0
 70
    24
 71
     3
 72
    12
 73
     8
 74
     0
 42
0.00000001
 43
0.00000001
 40
0.0
 40
0.0
 40
0.0
 40
0.0
 40
0.2499999999999999
 40
0.2499999999999999
 40
0.4999999999999998
 40
0.4999999999999998
 40
1.0
 40
1.0
 40
1.0
 40
1.0
 10
106.0535732650631
 20
119.2581234444067
 30
0.0
 10
106.0535732650631
 20
119.2581234444067
 30
0.0
 10
106.0695720700442
 20
119.2581234444067
 30
0.0
 10
106.1313422083586
 20
119.2581234444067
 30
0.0
 10
106.1770843326602
 20
119.2581234444067
 30
0.0
 10
106.353754480007
 20
119.2581234444067
 30
0.0
 10
106.5240095454873
 20
119.2581234444067
 30
0.0
 10
106.7312946703233
 20
119.2581234444067
 30
0.0
  0
LINE
  5
211
330
1F
100
AcDbEntity
  8
0
  6
Continuous
 62
     7
370
    25
100
AcDbLine
 10
106.0535732651
 20
119.2581234444
 30
0.0
 11
106.0535732651
 21
115.1407697263
 31
0.0
  0
SPLINE
  5
212
330
1F
100
AcDbEntity
  8
0
  6
Continuous
 62
     7
370
    25
100
AcDbSpline
210
0.0
220
0.0
230
1.0
 70
     8
 71
     3
 72
     8
 73
     4
 74
     0
 42
0.00000001
 43
0.00000001
 40
0.0
 40
0.0
 40
0.0
 40
0.0
 40
1.0
 40
1.0
 40
1.0
 40
1.0
 10
111.5535732650631
 20
103.2581234444067
 30
0.0
 10
111.3832956577193
 20
102.9238700481213
 30
0.0
 10
111.2110239090936
 20
102.5906035585523
 30
0.0
 10
111.0373371880839
 20
102.2581234444067
 30
0.0
  0
SPLINE
  5
213
330
1F
100
AcDbEntity
  8
0
  6
Continuous
 62
     7
370
    25
100
AcDbSpline
210
0.0
220
0.0
230
1.0
 70
    24
 71
     3
 72
     8
 73
     4
 74
     0
 42
0.00000001
 43
0.00000001
 40
0.0
 40
0.0
 40
0.0
 40
0.0
 40
1.0
 40
1.0
 40
1.0
 40
1.0
 10
111.0373371880839
 20
102.2581234444067
 30
0.0
 10
110.9864384711614
 20
102.2581234444067
 30
0.0
 10
110.9325043349106
 20
102.2581234444067
 30
0.0
 10
110.8758518598029
 20
102.2581234444067
 30
0.0
  0
SPLINE
  5
214
330
1F
100
AcDbEntity
  8
0
  6
Continuous
 62
     7
370
    25
100
AcDbSpline
210
0.0
220
0.0
230
1.0
 70
     8
 71
     3
 72
    10
 73
     6
 74
     0
 42
0.00000001
 43
0.00000001
 40
0.0
 40
0.0
 40
0.0
 40
0.0
 40
0.5
 40
0.5
 40
1.0
 40
1.0
 40
1.0
 40
1.0
 10
110.8758518598029
 20
102.5081234444067
 30
0.0
 10
110.8521764653785
 20
102.4337430670294
 30
0.0
 10
110.8390853554939
 20
102.3694424282436
 30
0.0
 10
110.8389990342056
 20
102.2812267434607
 30
0.0
 10
110.8521679681494
 20
102.2581234444067
 30
0.0
 10
110.8758518598029
 20
102.2581234444067
 30
0.0
  0
SPLINE
  5
215
330
1F
100
AcDbEntity
  8
0
  6
Continuous
 62
     7
370
    25
100
AcDbSpline
210
0.0
220
0.0
230
1.0
 70
     8
 71
     3
 72
     8
 73
     4
 74
     0
 42
0.00000001
 43
0.00000001
 40
0.0
 40
0.0
 40
0.0
 40
0.0
 40
1.0
 40
1.0
 40
1.0
 40
1.0
 10
124.0698093420423
 20
102.2581234444067
 30
0.0
 10
123.8961062658225
 20
102.5906348665422
 30
0.0
 10
123.7238040467598
 20
102.9239619664411
 30
0.0
 10
123.5535732650631
 20
103.2581234444067
 30
0.0
  0
SPLINE
  5
216
330
1F
100
AcDbEntity
  8
0
  6
Continuous
 62
     7
370
    25
100
AcDbSpline
210
0.0
220
0.0
230
1.0
 70
     8
 71
     3
 72
    10
 73
     6
 74
     0
 42
0.00000001
 43
0.00000001
 40
0.0
 40
0.0
 40
0.0
 40
0.0
 40
0.5
 40
0.5
 40
1.0
 40
1.0
 40
1.0
 40
1.0
 10
124.2312946703233
 20
102.2581234444067
 30
0.0
 10
124.2549700647477
 20
102.2581234444067
 30
0.0
 10
124.2680611746323
 20
102.2809158937365
 30
0.0
 10
124.2681474959206
 20
102.3688585978296
 30
0.0
 10
124.2549785619768
 20
102.4337163715034
 30
0.0
 10
124.2312946703233
 20
102.5081234444067
 30
0.0
  0
SPLINE
  5
217
330
1F
100
AcDbEntity
  8
0
  6
Continuous
 62
     7
370
    25
100
AcDbSpline
210
0.0
220
0.0
230
1.0
 70
    24
 71
     3
 72
     8
 73
     4
 74
     0
 42
0.00000001
 43
0.00000001
 40
0.0
 40
0.0
 40
0.0
 40
0.0
 40
1.0
 40
1.0
 40
1.0
 40
1.0
 10
124.0698093420423
 20
102.2581234444067
 30
0.0
 10
124.1207055752974
 20
102.2581234444067
 30
0.0
 10
124.174639530261
 20
102.2581234444067
 30
0.0
 10
124.2312946703233
 20
102.2581234444067
 30
0.0
  0
SPLINE
  5
218
330
1F
100
AcDbEntity
  8
0
  6
Continuous
 62
     7
370
    25
100
AcDbSpline
210
0.0
220
0.0
230
1.0
 70
     8
 71
     3
 72
    10
 73
     6
 74
     0
 42
0.00000001
 43
0.00000001
 40
0.0
 40
0.0
 40
0.0
 40
0.0
 40
0.5
 40
0.5
 40
1.0
 40
1.0
 40
1.0
 40
1.0
 10
106.7312946703233
 20
102.5081234444067
 30
0.0
 10
106.7549669102349
 20
102.4337529774811
 30
0.0
 10
106.7680609001701
 20
102.3694473811933
 30
0.0
 10
106.7681477676315
 20
102.2812245933874
 30
0.0
 10
106.7549779778722
 20
102.2581234444067
 30
0.0
 10
106.7312946703233
 20
102.2581234444067
 30
0.0
  0
SPLINE
  5
219
330
1F
100
AcDbEntity
  8
0
  6
Continuous
 62
     7
370
    25
100
AcDbSpline
210
0.0
220
0.0
230
1.0
 70
    24
 71
     3
 72
    12
 73
     8
 74
     0
 42
0.00000001
 43
0.00000001
 40
0.0
 40
0.0
 40
0.0
 40
0.0
 40
0.2500000000000001
 40
0.2500000000000001
 40
0.5000000000000001
 40
0.5000000000000001
 40
1.0
 40
1.0
 40
1.0
 40
1.0
 10
106.0535732650631
 20
102.2581234444067
 30
0.0
 10
106.0535732650631
 20
102.2581234444067
 30
0.0
 10
106.0695720700442
 20
102.2581234444067
 30
0.0
 10
106.1313422083586
 20
102.2581234444067
 30
0.0
 10
106.1770843326602
 20
102.2581234444067
 30
0.0
 10
106.353754480007
 20
102.2581234444067
 30
0.0
 10
106.5240095454873
 20
102.2581234444067
 30
0.0
 10
106.7312946703233
 20
102.2581234444067
 30
0.0
  0
LINE
  5
21A
330
1F
100
AcDbEntity
  8
0
  6
Continuous
 62
     7
370
    25
100
AcDbLine
 10
106.0535732651
 20
102.2581234444
 30
0.0
 11
106.0535732651
 21
106.3754771625
 31
0.0
  0
LINE
  5
21B
330
1F
100
AcDbEntity
  8
0
  6
Continuous
 62
     7
370
    25
100
AcDbLine
 10
124.2312946703
 20
119.2581234444
 30
0.0
 11
128.7315142925
 21
119.2581234444
 31
0.0
  0
LINE
  5
21C
330
1F
100
AcDbEntity
  8
0
  6
Continuous
 62
     7
370
    25
100
AcDbLine
 10
106.7312946703
 20
119.2581234444
 30
0.0
 11
110.8758518598
 21
119.2581234444
 31
0.0
  0
LINE
  5
21D
330
1F
100
AcDbEntity
  8
0
  6
Continuous
 62
     7
370
    25
100
AcDbLine
 10
128.7315142925
 20
102.2581234444
 30
0.0
 11
124.2312946703
 21
102.2581234444
 31
0.0
  0
LINE
  5
21E
330
1F
100
AcDbEntity
  8
0
  6
Continuous
 62
     7
370
    25
100
AcDbLine
 10
110.8758518598
 20
102.2581234444
 30
0.0
 11
106.7312946703
 21
102.2581234444
 31
0.0
  0
LINE
  5
21F
330
1F
100
AcDbEntity
  8
0
  6
Continuous
 62
     7
370
    25
100
AcDbLine
 10
124.069809342
 20
119.2581234444
 30
0.0
 11
111.0373371881
 21
119.2581234444
 31
0.0
  0
LINE
  5
220
330
1F
100
AcDbEntity
  8
0
  6
Continuous
 62
     7
370
    25
100
AcDbLine
 10
124.069809342
 20
102.2581234444
 30
0.0
 11
111.0373371881
 21
102.2581234444
 31
0.0
  0
LINE
  5
221
330
1F
100
AcDbEntity
  8
0
  6
Continuous
 62
     7
370
    25
100
AcDbLine
 10
103.2535732651
 20
106.7792633463
 30
0.0
 11
103.2535732651
 21
102.7581234444
 31
0.0
  0
LINE
  5
222
330
1F
100
AcDbEntity
  8
0
  6
Continuous
 62
     7
370
    25
100
AcDbLine
 10
103.2535732651
 20
118.7581234444
 30
0.0
 11
103.2535732651
 21
114.7369835425
 31
0.0
  0
LINE
  5
223
330
1F
100
AcDbEntity
  8
0
  6
Continuous
 62
     7
370
    25
100
AcDbLine
 10
103.0535732651
 20
114.7128860602
 30
0.0
 11
103.0535732651
 21
118.5581234444
 31
0.0
  0
LINE
  5
224
330
1F
100
AcDbEntity
  8
0
  6
Continuous
 62
     7
370
    25
100
AcDbLine
 10
103.0535732651
 20
102.9581234444
 30
0.0
 11
103.0535732651
 21
106.8033608286
 31
0.0
  0
LINE
  5
225
330
1F
100
AcDbEntity
  8
0
  6
Continuous
 62
     7
370
    25
100
AcDbLine
 10
96.0535732651
 20
107.2546140039
 30
0.0
 11
96.0535732651
 21
106.2581234444
 31
0.0
  0
LINE
  5
226
330
1F
100
AcDbEntity
  8
0
  6
Continuous
 62
     7
370
    25
100
AcDbLine
 10
96.0535732651
 20
115.2581234444
 30
0.0
 11
96.0535732651
 21
114.2616328849
 31
0.0
  0
LINE
  5
227
330
1F
100
AcDbEntity
  8
0
  6
Continuous
 62
     7
370
    25
100
AcDbLine
 10
100.5535732651
 20
107.0517562588
 30
0.0
 11
100.5535732651
 21
106.2581234444
 31
0.0
  0
LINE
  5
228
330
1F
100
AcDbEntity
  8
0
  6
Continuous
 62
     7
370
    25
100
AcDbLine
 10
100.5535732651
 20
115.2581234444
 30
0.0
 11
100.5535732651
 21
114.46449063
 31
0.0
  0
LINE
  5
229
330
1F
100
AcDbEntity
  8
0
  6
Continuous
 62
     7
370
    25
100
AcDbLine
 10
82.5535732651
 20
107.2581234444
 30
0.0
 11
82.5535732651
 21
106.2581234444
 31
0.0
  0
LINE
  5
22A
330
1F
100
AcDbEntity
  8
0
  6
Continuous
 62
     7
370
    25
100
AcDbLine
 10
82.5535732651
 20
115.2581234444
 30
0.0
 11
82.5535732651
 21
114.2581234444
 31
0.0
  0
LINE
  5
22B
330
1F
100
AcDbEntity
  8
0
  6
Continuous
 62
     7
370
    25
100
AcDbLine
 10
78.5335732651
 20
114.5881234444
 30
0.0
 11
78.5335732651
 21
114.2581234444
 31
0.0
  0
LINE
  5
22C
330
1F
100
AcDbEntity
  8
0
  6
Continuous
 62
     7
370
    25
100
AcDbLine
 10
78.5335732651
 20
107.2581234444
 30
0.0
 11
78.5335732651
 21
106.9281234444
 31
0.0
  0
LINE
  5
22D
330
1F
100
AcDbEntity
  8
0
  6
Continuous
 62
     7
370
    25
100
AcDbLine
 10
91.5535732651
 20
107.2581234444
 30
0.0
 11
91.5535732651
 21
106.2581234444
 31
0.0
  0
LINE
  5
22E
330
1F
100
AcDbEntity
  8
0
  6
Continuous
 62
     7
370
    25
100
AcDbLine
 10
91.5535732651
 20
115.2581234444
 30
0.0
 11
91.5535732651
 21
114.2581234444
 31
0.0
  0
LINE
  5
22F
330
1F
100
AcDbEntity
  8
0
  6
Continuous
 62
     7
370
    25
100
AcDbLine
 10
87.0535732651
 20
107.2581234444
 30
0.0
 11
87.0535732651
 21
106.2581234444
 31
0.0
  0
LINE
  5
230
330
1F
100
AcDbEntity
  8
0
  6
Continuous
 62
     7
370
    25
100
AcDbLine
 10
87.0535732651
 20
115.2581234444
 30
0.0
 11
87.0535732651
 21
114.2581234444
 31
0.0
  0
SPLINE
  5
231
330
1F
100
AcDbEntity
  8
0
  6
Continuous
 62
     7
370
    25
100
AcDbSpline
210
0.0
220
0.0
230
1.0
 70
     8
 71
     3
 72
    15
 73
    11
 74
     0
 42
0.00000001
 43
0.00000001
 40
0.0
 40
0.0
 40
0.0
 40
0.0
 40
0.0081667445812695
 40
0.3321939991490077
 40
0.4756279600585576
 40
0.68668309732849
 40
0.8457435502264807
 40
0.8967566214763126
 40
0.9909540928118029
 40
1.0
 40
1.0
 40
1.0
 40
1.0
 10
122.6525927786559
 20
112.0081234444067
 30
0.0
 10
122.6530803127988
 20
112.0095609073457
 30
0.0
 10
122.6729114603309
 20
112.0680317652974
 30
0.0
 10
122.7011922403401
 20
112.1524569430169
 30
0.0
 10
122.7390215388289
 20
112.2670360150394
 30
0.0
 10
122.7656054353964
 20
112.348406902236
 30
0.0
 10
122.7827752591514
 20
112.4014258942376
 30
0.0
 10
122.7905922553679
 20
112.4256278260818
 30
0.0
 10
122.7925879418038
 20
112.431817446748
 30
0.0
 10
122.7926529057545
 20
112.4320188421605
 30
0.0
 10
122.7926585977212
 20
112.432036487885
 30
0.0
  0
ARC
  5
232
330
1F
100
AcDbEntity
  8
0
  6
Continuous
 62
     7
370
    25
100
AcDbCircle
 10
117.5535732651
 20
110.7581234444
 30
0.0
 40
5.250000000000009
100
AcDbArc
 50
13.774146998
 51
166.225853002
  0
SPLINE
  5
233
330
1F
100
AcDbEntity
  8
0
  6
Continuous
 62
     7
370
    25
100
AcDbSpline
210
0.0
220
0.0
230
1.0
 70
     8
 71
     3
 72
    15
 73
    11
 74
     0
 42
0.00000001
 43
0.00000001
 40
0.0
 40
0.0
 40
0.0
 40
0.0
 40
0.0090459071881971
 40
0.1032433785236816
 40
0.1542564497735189
 40
0.3133169026715104
 40
0.5243720399414397
 40
0.6678060008509895
 40
0.9918332554187292
 40
1.0
 40
1.0
 40
1.0
 40
1.0
 10
112.314487932405
 20
112.432036487885
 30
0.0
 10
112.3144936243717
 20
112.4320188421605
 30
0.0
 10
112.3145585883224
 20
112.431817446748
 30
0.0
 10
112.3165542747583
 20
112.4256278260818
 30
0.0
 10
112.3243712709748
 20
112.4014258942376
 30
0.0
 10
112.3415410947298
 20
112.348406902236
 30
0.0
 10
112.3681249912973
 20
112.2670360150394
 30
0.0
 10
112.4059542897861
 20
112.1524569430169
 30
0.0
 10
112.4342350697953
 20
112.0680317652974
 30
0.0
 10
112.4540662173274
 20
112.0095609073457
 30
0.0
 10
112.4545537514703
 20
112.0081234444067
 30
0.0
  0
ARC
  5
234
330
1F
100
AcDbEntity
  8
0
  6
Continuous
 62
     7
370
    25
100
AcDbCircle
 10
117.5535732651
 20
110.7581234444
 30
0.0
 40
5.500000000000007
100
AcDbArc
 50
17.7189318734
 51
162.2810681266
  0
SPLINE
  5
235
330
1F
100
AcDbEntity
  8
0
  6
Continuous
 62
     7
370
    25
100
AcDbSpline
210
0.0
220
0.0
230
1.0
 70
     8
 71
     3
 72
    15
 73
    11
 74
     0
 42
0.00000001
 43
0.00000001
 40
0.0
 40
0.0
 40
0.0
 40
0.0
 40
0.0090459071881971
 40
0.1032433785236875
 40
0.1542564497735248
 40
0.313316902671511
 40
0.5243720399414434
 40
0.6678060008509189
 40
0.9918332554187028
 40
1.0
 40
1.0
 40
1.0
 40
1.0
 10
122.7926585977212
 20
109.0842104009285
 30
0.0
 10
122.7926529057545
 20
109.0842280466529
 30
0.0
 10
122.7925879418038
 20
109.0844294420655
 30
0.0
 10
122.7905922553679
 20
109.0906190627316
 30
0.0
 10
122.7827752591514
 20
109.1148209945758
 30
0.0
 10
122.7656054353964
 20
109.1678399865775
 30
0.0
 10
122.7390215388289
 20
109.249210873774
 30
0.0
 10
122.7011922403403
 20
109.3637899457965
 30
0.0
 10
122.67291146033
 20
109.4482151235157
 30
0.0
 10
122.6530803127987
 20
109.5066859814677
 30
0.0
 10
122.6525927786559
 20
109.5081234444067
 30
0.0
  0
ARC
  5
236
330
1F
100
AcDbEntity
  8
0
  6
Continuous
 62
     7
370
    25
100
AcDbCircle
 10
117.5535732651
 20
110.7581234444
 30
0.0
 40
5.500000000000011
100
AcDbArc
 50
197.7189318734
 51
342.2810681266
  0
SPLINE
  5
237
330
1F
100
AcDbEntity
  8
0
  6
Continuous
 62
     7
370
    25
100
AcDbSpline
210
0.0
220
0.0
230
1.0
 70
     8
 71
     3
 72
    15
 73
    11
 74
     0
 42
0.00000001
 43
0.00000001
 40
0.0
 40
0.0
 40
0.0
 40
0.0
 40
0.0081667445812973
 40
0.3321939991490813
 40
0.4756279600585592
 40
0.6866830973284899
 40
0.845743550226481
 40
0.8967566214763184
 40
0.9909540928118029
 40
1.0
 40
1.0
 40
1.0
 40
1.0
 10
112.4545537514703
 20
109.5081234444067
 30
0.0
 10
112.4540662173274
 20
109.5066859814677
 30
0.0
 10
112.4342350697961
 20
109.4482151235157
 30
0.0
 10
112.4059542897859
 20
109.3637899457965
 30
0.0
 10
112.3681249912973
 20
109.249210873774
 30
0.0
 10
112.3415410947297
 20
109.1678399865775
 30
0.0
 10
112.3243712709748
 20
109.1148209945758
 30
0.0
 10
112.3165542747583
 20
109.0906190627316
 30
0.0
 10
112.3145585883225
 20
109.0844294420655
 30
0.0
 10
112.3144936243717
 20
109.0842280466529
 30
0.0
 10
112.314487932405
 20
109.0842104009285
 30
0.0
  0
ARC
  5
238
330
1F
100
AcDbEntity
  8
0
  6
Continuous
 62
     7
370
    25
100
AcDbCircle
 10
117.5535732651
 20
110.7581234444
 30
0.0
 40
5.250000000000009
100
AcDbArc
 50
193.774146998
 51
346.225853002
  0
SPLINE
  5
239
330
1F
100
AcDbEntity
  8
0
  6
Continuous
 62
     7
370
    25
100
AcDbSpline
210
0.0
220
0.0
230
1.0
 70
     8
 71
     3
 72
    15
 73
    11
 74
     0
 42
0.00000001
 43
0.00000001
 40
0.0
 40
0.0
 40
0.0
 40
0.0
 40
0.0089557228015919
 40
0.0999003359608153
 40
0.1531632460581696
 40
0.3125636920784855
 40
0.5249666935695051
 40
0.6689893599351772
 40
0.991915253381045
 40
1.0
 40
1.0
 40
1.0
 40
1.0
 10
112.0763476900114
 20
109.2581234444067
 30
0.0
 10
112.07636344559
 20
109.2581342287699
 30
0.0
 10
112.0765391977466
 20
109.2582545274354
 30
0.0
 10
112.0819682137661
 20
109.2619729783535
 30
0.0
 10
112.1035036974734
 20
109.2766840194198
 30
0.0
 10
112.1512091257382
 20
109.3091328808783
 30
0.0
 10
112.2236000707302
 20
109.3577169212218
 30
0.0
 10
112.3255191827479
 20
109.4250873934901
 30
0.0
 10
112.4008742742029
 20
109.473900958224
 30
0.0
 10
112.4532739199262
 20
109.5073075084184
 30
0.0
 10
112.4545537514703
 20
109.5081234444067
 30
0.0
  0
ARC
  5
23A
330
1F
100
AcDbEntity
  8
0
  6
Continuous
 62
     7
370
    25
100
AcDbCircle
 10
112.07634769
 20
109.0081234444
 30
0.0
 40
0.25
100
AcDbArc
 50
17.7189318734
 51
90.0
  0
SPLINE
  5
23B
330
1F
100
AcDbEntity
  8
0
  6
Continuous
 62
     7
370
    25
100
AcDbSpline
210
0.0
220
0.0
230
1.0
 70
     8
 71
     3
 72
    15
 73
    11
 74
     0
 42
0.00000001
 43
0.00000001
 40
0.0
 40
0.0
 40
0.0
 40
0.0
 40
0.0080847466189581
 40
0.3310106400648237
 40
0.4750333064304937
 40
0.6874363079215094
 40
0.8468367539418249
 40
0.9000996640391792
 40
0.9910442771984082
 40
1.0
 40
1.0
 40
1.0
 40
1.0
 10
122.6525927786559
 20
109.5081234444067
 30
0.0
 10
122.6538726102
 20
109.5073075084184
 30
0.0
 10
122.7062722559233
 20
109.4739009582239
 30
0.0
 10
122.7816273473783
 20
109.4250873934901
 30
0.0
 10
122.883546459396
 20
109.3577169212217
 30
0.0
 10
122.9559374043879
 20
109.3091328808783
 30
0.0
 10
123.0036428326527
 20
109.2766840194198
 30
0.0
 10
123.0251783163601
 20
109.2619729783535
 30
0.0
 10
123.0306073323796
 20
109.2582545274354
 30
0.0
 10
123.0307830845362
 20
109.2581342287699
 30
0.0
 10
123.0307988401148
 20
109.2581234444067
 30
0.0
  0
ARC
  5
23C
330
1F
100
AcDbEntity
  8
0
  6
Continuous
 62
     7
370
    25
100
AcDbCircle
 10
123.0307988401
 20
109.0081234444
 30
0.0
 40
0.2500000000000034
100
AcDbArc
 50
90.0
 51
162.2810681266
  0
ARC
  5
23D
330
1F
100
AcDbEntity
  8
0
  6
Continuous
 62
     7
370
    25
100
AcDbCircle
 10
112.07634769
 20
112.5081234444
 30
0.0
 40
0.25
100
AcDbArc
 50
270.0
 51
342.2810681266
  0
SPLINE
  5
23E
330
1F
100
AcDbEntity
  8
0
  6
Continuous
 62
     7
370
    25
100
AcDbSpline
210
0.0
220
0.0
230
1.0
 70
     8
 71
     3
 72
    15
 73
    11
 74
     0
 42
0.00000001
 43
0.00000001
 40
0.0
 40
0.0
 40
0.0
 40
0.0
 40
0.0080847466189819
 40
0.3310106400647582
 40
0.4750333064304994
 40
0.6874363079215138
 40
0.8468367539418308
 40
0.9000996640391851
 40
0.9910442771984082
 40
1.0
 40
1.0
 40
1.0
 40
1.0
 10
112.4545537514703
 20
112.0081234444067
 30
0.0
 10
112.4532739199262
 20
112.008939380395
 30
0.0
 10
112.4008742742024
 20
112.0423459305886
 30
0.0
 10
112.3255191827479
 20
112.0911594953235
 30
0.0
 10
112.2236000707302
 20
112.1585299675916
 30
0.0
 10
112.1512091257383
 20
112.2071140079351
 30
0.0
 10
112.1035036974734
 20
112.2395628693937
 30
0.0
 10
112.0819682137661
 20
112.2542739104599
 30
0.0
 10
112.0765391977466
 20
112.2579923613781
 30
0.0
 10
112.07636344559
 20
112.2581126600436
 30
0.0
 10
112.0763476900114
 20
112.2581234444067
 30
0.0
  0
ARC
  5
23F
330
1F
100
AcDbEntity
  8
0
  6
Continuous
 62
     7
370
    25
100
AcDbCircle
 10
123.0307988401
 20
112.5081234444
 30
0.0
 40
0.2500000000000034
100
AcDbArc
 50
197.7189318734
 51
270.0
  0
SPLINE
  5
240
330
1F
100
AcDbEntity
  8
0
  6
Continuous
 62
     7
370
    25
100
AcDbSpline
210
0.0
220
0.0
230
1.0
 70
     8
 71
     3
 72
    15
 73
    11
 74
     0
 42
0.00000001
 43
0.00000001
 40
0.0
 40
0.0
 40
0.0
 40
0.0
 40
0.0089557228015919
 40
0.0999003359608147
 40
0.1531632460581688
 40
0.3125636920784845
 40
0.5249666935695023
 40
0.6689893599352456
 40
0.9919152533810159
 40
1.0
 40
1.0
 40
1.0
 40
1.0
 10
123.0307988401148
 20
112.2581234444067
 30
0.0
 10
123.0307830845362
 20
112.2581126600436
 30
0.0
 10
123.0306073323796
 20
112.2579923613781
 30
0.0
 10
123.0251783163601
 20
112.2542739104599
 30
0.0
 10
123.0036428326527
 20
112.2395628693937
 30
0.0
 10
122.9559374043879
 20
112.2071140079351
 30
0.0
 10
122.883546459396
 20
112.1585299675916
 30
0.0
 10
122.7816273473782
 20
112.0911594953235
 30
0.0
 10
122.7062722559238
 20
112.0423459305887
 30
0.0
 10
122.6538726102
 20
112.008939380395
 30
0.0
 10
122.6525927786559
 20
112.0081234444067
 30
0.0
  0
LINE
  5
241
330
1F
100
AcDbEntity
  8
0
  6
Continuous
 62
     7
370
    25
100
AcDbLine
 10
112.5535732651
 20
110.1581234444
 30
0.0
 11
122.5535732651
 21
110.1581234444
 31
0.0
  0
LINE
  5
242
330
1F
100
AcDbEntity
  8
0
  6
Continuous
 62
     7
370
    25
100
AcDbLine
 10
122.5535732651
 20
111.3581234444
 30
0.0
 11
112.5535732651
 21
111.3581234444
 31
0.0
  0
LINE
  5
243
330
1F
100
AcDbEntity
  8
0
  6
Continuous
 62
     7
370
    25
100
AcDbLine
 10
122.5535732651
 20
110.1581234444
 30
0.0
 11
122.5535732651
 21
111.3581234444
 31
0.0
  0
LINE
  5
244
330
1F
100
AcDbEntity
  8
0
  6
Continuous
 62
     7
370
    25
100
AcDbLine
 10
112.5535732651
 20
111.3581234444
 30
0.0
 11
112.5535732651
 21
110.1581234444
 31
0.0
  0
LINE
  5
245
330
1F
100
AcDbEntity
  8
0
  6
Continuous
 62
     7
370
    25
100
AcDbLine
 10
123.3035732651
 20
112.0081234444
 30
0.0
 11
122.6525927787
 21
112.0081234444
 31
0.0
  0
LINE
  5
246
330
1F
100
AcDbEntity
  8
0
  6
Continuous
 62
     7
370
    25
100
AcDbLine
 10
123.3035732651
 20
109.5081234444
 30
0.0
 11
123.3035732651
 21
112.0081234444
 31
0.0
  0
LINE
  5
247
330
1F
100
AcDbEntity
  8
0
  6
Continuous
 62
     7
370
    25
100
AcDbLine
 10
122.6525927787
 20
109.5081234444
 30
0.0
 11
123.3035732651
 21
109.5081234444
 31
0.0
  0
LINE
  5
248
330
1F
100
AcDbEntity
  8
0
  6
Continuous
 62
     7
370
    25
100
AcDbLine
 10
111.8035732651
 20
109.5081234444
 30
0.0
 11
112.4545537515
 21
109.5081234444
 31
0.0
  0
LINE
  5
249
330
1F
100
AcDbEntity
  8
0
  6
Continuous
 62
     7
370
    25
100
AcDbLine
 10
111.8035732651
 20
112.0081234444
 30
0.0
 11
111.8035732651
 21
109.5081234444
 31
0.0
  0
LINE
  5
24A
330
1F
100
AcDbEntity
  8
0
  6
Continuous
 62
     7
370
    25
100
AcDbLine
 10
112.4545537515
 20
112.0081234444
 30
0.0
 11
111.8035732651
 21
112.0081234444
 31
0.0
  0
ARC
  5
24B
330
1F
100
AcDbEntity
  8
0
  6
Continuous
 62
     7
370
    25
100
AcDbCircle
 10
123.3035732651
 20
112.0081234444
 30
0.0
 40
0.25
100
AcDbArc
 50
0.0
 51
90.0
  0
LINE
  5
24C
330
1F
100
AcDbEntity
  8
0
  6
Continuous
 62
     7
370
    25
100
AcDbLine
 10
123.5535732651
 20
112.0081234444
 30
0.0
 11
123.3035732651
 21
112.0081234444
 31
0.0
  0
LINE
  5
24D
330
1F
100
AcDbEntity
  8
0
  6
Continuous
 62
     7
370
    25
100
AcDbLine
 10
123.3035732651
 20
112.0081234444
 30
0.0
 11
123.3035732651
 21
112.2581234444
 31
0.0
  0
LINE
  5
24E
330
1F
100
AcDbEntity
  8
0
  6
Continuous
 62
     7
370
    25
100
AcDbLine
 10
123.0307988401
 20
112.2581234444
 30
0.0
 11
123.3035732651
 21
112.2581234444
 31
0.0
  0
LINE
  5
24F
330
1F
100
AcDbEntity
  8
0
  6
Continuous
 62
     7
370
    25
100
AcDbLine
 10
111.8035732651
 20
112.2581234444
 30
0.0
 11
111.8035732651
 21
112.0081234444
 31
0.0
  0
LINE
  5
250
330
1F
100
AcDbEntity
  8
0
  6
Continuous
 62
     7
370
    25
100
AcDbLine
 10
111.8035732651
 20
112.2581234444
 30
0.0
 11
112.07634769
 21
112.2581234444
 31
0.0
  0
LINE
  5
251
330
1F
100
AcDbEntity
  8
0
  6
Continuous
 62
     7
370
    25
100
AcDbLine
 10
111.8035732651
 20
112.0081234444
 30
0.0
 11
111.5535732651
 21
112.0081234444
 31
0.0
  0
ARC
  5
252
330
1F
100
AcDbEntity
  8
0
  6
Continuous
 62
     7
370
    25
100
AcDbCircle
 10
111.8035732651
 20
112.0081234444
 30
0.0
 40
0.25
100
AcDbArc
 50
90.0
 51
180.0
  0
LINE
  5
253
330
1F
100
AcDbEntity
  8
0
  6
Continuous
 62
     7
370
    25
100
AcDbLine
 10
123.5535732651
 20
112.0081234444
 30
0.0
 11
123.5535732651
 21
109.5081234444
 31
0.0
  0
LINE
  5
254
330
1F
100
AcDbEntity
  8
0
  6
Continuous
 62
     7
370
    25
100
AcDbLine
 10
123.3035732651
 20
109.5081234444
 30
0.0
 11
123.5535732651
 21
109.5081234444
 31
0.0
  0
LINE
  5
255
330
1F
100
AcDbEntity
  8
0
  6
Continuous
 62
     7
370
    25
100
AcDbLine
 10
111.5535732651
 20
109.5081234444
 30
0.0
 11
111.8035732651
 21
109.5081234444
 31
0.0
  0
LINE
  5
256
330
1F
100
AcDbEntity
  8
0
  6
Continuous
 62
     7
370
    25
100
AcDbLine
 10
111.5535732651
 20
109.5081234444
 30
0.0
 11
111.5535732651
 21
112.0081234444
 31
0.0
  0
LINE
  5
257
330
1F
100
AcDbEntity
  8
0
  6
Continuous
 62
     7
370
    25
100
AcDbLine
 10
112.07634769
 20
109.2581234444
 30
0.0
 11
111.8035732651
 21
109.2581234444
 31
0.0
  0
LINE
  5
258
330
1F
100
AcDbEntity
  8
0
  6
Continuous
 62
     7
370
    25
100
AcDbLine
 10
111.8035732651
 20
109.5081234444
 30
0.0
 11
111.8035732651
 21
109.2581234444
 31
0.0
  0
ARC
  5
259
330
1F
100
AcDbEntity
  8
0
  6
Continuous
 62
     7
370
    25
100
AcDbCircle
 10
123.3035732651
 20
109.5081234444
 30
0.0
 40
0.25
100
AcDbArc
 50
270.0
 51
0.0
  0
LINE
  5
25A
330
1F
100
AcDbEntity
  8
0
  6
Continuous
 62
     7
370
    25
100
AcDbLine
 10
123.3035732651
 20
109.2581234444
 30
0.0
 11
123.3035732651
 21
109.5081234444
 31
0.0
  0
LINE
  5
25B
330
1F
100
AcDbEntity
  8
0
  6
Continuous
 62
     7
370
    25
100
AcDbLine
 10
123.3035732651
 20
109.2581234444
 30
0.0
 11
123.0307988401
 21
109.2581234444
 31
0.0
  0
ARC
  5
25C
330
1F
100
AcDbEntity
  8
0
  6
Continuous
 62
     7
370
    25
100
AcDbCircle
 10
111.8035732651
 20
109.5081234444
 30
0.0
 40
0.25
100
AcDbArc
 50
180.0
 51
270.0
  0
LINE
  5
25D
330
1F
100
AcDbEntity
  8
0
  6
Continuous
 62
     7
370
    25
100
AcDbLine
 10
97.5535732651
 20
114.0298227085
 30
0.0
 11
95.3781364035
 21
114.2581234444
 31
0.0
  0
LINE
  5
25E
330
1F
100
AcDbEntity
  8
0
  6
Continuous
 62
     7
370
    25
100
AcDbLine
 10
97.5535732651
 20
107.4864241804
 30
0.0
 11
97.5535732651
 21
114.0298227085
 31
0.0
  0
LINE
  5
25F
330
1F
100
AcDbEntity
  8
0
  6
Continuous
 62
     7
370
    25
100
AcDbLine
 10
95.3781364035
 20
107.2581234444
 30
0.0
 11
97.5535732651
 21
107.4864241804
 31
0.0
  0
LINE
  5
260
330
1F
100
AcDbEntity
  8
0
  6
Continuous
 62
     7
370
    25
100
AcDbLine
 10
77.5535732651
 20
107.2581234444
 30
0.0
 11
95.3781364035
 21
107.2581234444
 31
0.0
  0
LINE
  5
261
330
1F
100
AcDbEntity
  8
0
  6
Continuous
 62
     7
370
    25
100
AcDbLine
 10
95.3781364035
 20
114.2581234444
 30
0.0
 11
77.5535732651
 21
114.2581234444
 31
0.0
  0
LINE
  5
262
330
1F
100
AcDbEntity
  8
0
  6
Continuous
 62
     7
370
    25
100
AcDbLine
 10
77.5535732651
 20
114.2581234444
 30
0.0
 11
77.5535732651
 21
107.2581234444
 31
0.0
  0
LINE
  5
263
330
1F
100
AcDbEntity
  8
0
  6
Continuous
 62
     7
370
    25
100
AcDbLine
 10
112.3297710907
 20
112.4791379252
 30
0.0
 11
112.201362052
 21
112.2949962918
 31
0.0
  0
LINE
  5
264
330
1F
100
AcDbEntity
  8
0
  6
Continuous
 62
     7
370
    25
100
AcDbLine
 10
112.2109293928
 20
109.212905777
 30
0.0
 11
112.3297710907
 21
109.0371089636
 31
0.0
  0
LINE
  5
265
330
1F
100
AcDbEntity
  8
0
  6
Continuous
 62
     7
370
    25
100
AcDbLine
 10
104.1370036115
 20
113.33892608
 30
0.0
 11
104.1370036115
 21
108.1773208088
 31
0.0
  0
LINE
  5
266
330
1F
100
AcDbEntity
  8
0
  6
Continuous
 62
     7
370
    25
100
AcDbLine
 10
112.3297710907
 20
109.0371089636
 30
0.0
 11
104.1370036115
 21
108.1773208088
 31
0.0
  0
LINE
  5
267
330
1F
100
AcDbEntity
  8
0
  6
Continuous
 62
     7
370
    25
100
AcDbLine
 10
104.1370036115
 20
113.33892608
 30
0.0
 11
112.3297710907
 21
112.4791379252
 31
0.0
  0
LINE
  5
268
330
1F
100
AcDbEntity
  8
0
  6
Continuous
 62
     7
370
    25
100
AcDbLine
 10
104.1370036115
 20
108.1773208088
 30
0.0
 11
97.5535732651
 21
107.4864241804
 31
0.0
  0
LINE
  5
269
330
1F
100
AcDbEntity
  8
0
  6
Continuous
 62
     7
370
    25
100
AcDbLine
 10
97.5535732651
 20
114.0298227085
 30
0.0
 11
104.1370036115
 21
113.33892608
 31
0.0
  0
ARC
  5
26A
330
1F
100
AcDbEntity
  8
0
  6
Continuous
 62
     7
370
    25
100
AcDbCircle
 10
117.5535732651
 20
110.7581234444
 30
0.0
 40
7.450000000000653
100
AcDbArc
 50
233.0863788866
 51
126.9136211134
  0
ARC
  5
26B
330
1F
100
AcDbEntity
  8
0
  6
Continuous
 62
     7
370
    25
100
AcDbCircle
 10
117.5535732651
 20
110.7581234444
 30
0.0
 40
7.207531252870791
100
AcDbArc
 50
195.3041237151
 51
238.9797515565
  0
ARC
  5
26C
330
1F
100
AcDbEntity
  8
0
  6
Continuous
 62
     7
370
    25
100
AcDbCircle
 10
117.5535732651
 20
110.7581234444
 30
0.0
 40
7.20753125287243
100
AcDbArc
 50
121.0202484435
 51
164.6958762849
  0
ARC
  5
26D
330
1F
100
AcDbEntity
  8
0
  6
Continuous
 62
     7
370
    25
100
AcDbCircle
 10
95.3781364035
 20
179.2581234444
 30
0.0
 40
64.99999999999999
100
AcDbArc
 50
270.0
 51
286.5000949923
  0
ARC
  5
26E
330
1F
100
AcDbEntity
  8
0
  6
Continuous
 62
     7
370
    25
100
AcDbCircle
 10
95.3781364035
 20
42.2581234444
 30
0.0
 40
65.0
100
AcDbArc
 50
73.4999050077
 51
90.0
  0
LINE
  5
26F
330
1F
100
AcDbEntity
  8
0
  6
Continuous
 62
     7
370
    25
100
AcDbLine
 10
128.7315142925
 20
110.5081234444
 30
0.0
 11
124.9993774527
 21
110.5081234444
 31
0.0
  0
LINE
  5
270
330
1F
100
AcDbEntity
  8
0
  6
Continuous
 62
     7
370
    25
100
AcDbLine
 10
124.9993774527
 20
111.0081234444
 30
0.0
 11
128.7315142925
 21
111.0081234444
 31
0.0
  0
INSERT
  5
27C
330
1F
100
AcDbEntity
  8
FORMAT
100
AcDbBlockReference
  2
SW_CENTERMARKSYMBOL_1
 10
117.5535732651
 20
110.7581234444
 30
0.0
  0
ENDSEC
  0
SECTION
  2
OBJECTS
  0
DICTIONARY
  5
C
330
0
100
AcDbDictionary
281
     1
  3
ACAD_GROUP
350
D
  3
ACAD_LAYOUT
350
1A
  3
ACAD_MLINESTYLE
350
17
  3
ACAD_PLOTSETTINGS
350
19
  3
ACAD_PLOTSTYLENAME
350
E
  3
ACAD_SCALELIST
350
47
  3
DWGPROPS
350
27D
  0
DICTIONARY
  5
D
102
{ACAD_REACTORS
330
C
102
}
330
C
100
AcDbDictionary
281
     1
  0
DICTIONARY
  5
1A
102
{ACAD_REACTORS
330
C
102
}
330
C
100
AcDbDictionary
281
     1
  3
Layout1
350
1E
  3
Layout2
350
26
  3
Model
350
22
  0
DICTIONARY
  5
17
102
{ACAD_REACTORS
330
C
102
}
330
C
100
AcDbDictionary
281
     1
  3
Standard
350
18
  0
DICTIONARY
  5
19
102
{ACAD_REACTORS
330
C
102
}
330
C
100
AcDbDictionary
281
     1
  0
ACDBDICTIONARYWDFLT
  5
E
102
{ACAD_REACTORS
330
C
102
}
330
C
100
AcDbDictionary
281
     1
  3
Normal
350
F
100
AcDbDictionaryWithDefault
340
F
  0
DICTIONARY
  5
47
102
{ACAD_REACTORS
330
C
102
}
330
C
100
AcDbDictionary
281
     1
  3
A0
350
48
  3
A1
350
49
  3
A2
350
4A
  3
A3
350
4B
  3
A4
350
4C
  3
A5
350
4D
  3
A6
350
4E
  3
A7
350
4F
  3
A8
350
50
  3
A9
350
51
  3
B0
350
52
  3
B1
350
53
  3
B2
350
54
  3
B3
350
55
  3
B4
350
56
  3
B5
350
57
  3
B6
350
58
  0
XRECORD
  5
27D
102
{ACAD_REACTORS
330
C
102
}
330
C
100
AcDbXrecord
280
     1
  1
DWGPROPS COOKIE
  2

  3

  4

  6

  7

  8
user28
  9

300
=
301
=
302
=
303
=
304
=
305
=
306
=
307
=
308
=
309
=
 40
0.0
 41
2460336.276752153
 42
2460336.276752928
  1

 90
        0
  0
LAYOUT
  5
1E
102
{ACAD_REACTORS
330
1A
102
}
330
1A
100
AcDbPlotSettings
  1

  2
none_device
  4

  6

 40
0.0
 41
0.0
 42
0.0
 43
0.0
 44
0.0
 45
0.0
 46
0.0
 47
0.0
 48
0.0
 49
0.0
140
0.0
141
0.0
142
1.0
143
1.0
 70
   688
 72
     1
 73
     0
 74
     5
  7

 75
    16
147
1.0
148
0.0
149
0.0
100
AcDbLayout
  1
Layout1
 70
     1
 71
     1
 10
0.0
 20
0.0
 11
420.0
 21
297.0
 12
0.0
 22
0.0
 32
0.0
 14
1.0000000000E+20
 24
1.0000000000E+20
 34
1.0000000000E+20
 15
-1.0000000000E+20
 25
-1.0000000000E+20
 35
-1.0000000000E+20
146
0.0
 13
0.0
 23
0.0
 33
0.0
 16
1.0
 26
0.0
 36
0.0
 17
0.0
 27
1.0
 37
0.0
 76
     0
330
1B
  0
LAYOUT
  5
26
102
{ACAD_REACTORS
330
1A
102
}
330
1A
100
AcDbPlotSettings
  1

  2
none_device
  4

  6

 40
0.0
 41
0.0
 42
0.0
 43
0.0
 44
0.0
 45
0.0
 46
0.0
 47
0.0
 48
0.0
 49
0.0
140
0.0
141
0.0
142
1.0
143
1.0
 70
   688
 72
     1
 73
     0
 74
     5
  7

 75
    16
147
1.0
148
0.0
149
0.0
100
AcDbLayout
  1
Layout2
 70
     1
 71
     2
 10
0.0
 20
0.0
 11
0.0
 21
0.0
 12
0.0
 22
0.0
 32
0.0
 14
0.0
 24
0.0
 34
0.0
 15
0.0
 25
0.0
 35
0.0
146
0.0
 13
0.0
 23
0.0
 33
0.0
 16
1.0
 26
0.0
 36
0.0
 17
0.0
 27
1.0
 37
0.0
 76
     0
330
23
  0
LAYOUT
  5
22
102
{ACAD_REACTORS
330
1A
102
}
330
1A
100
AcDbPlotSettings
  1

  2
none_device
  4
Letter_(8.50_x_11.00_Inches)
  6

 40
6.35
 41
6.35
 42
6.35000508
 43
6.35000508
 44
215.9
 45
279.4
 46
0.0
 47
0.0
 48
0.0
 49
0.0
140
0.0
141
0.0
142
1.0
143
1.0
 70
  1712
 72
     1
 73
     0
 74
     0
  7

 75
     0
147
1.0
148
0.0
149
0.0
100
AcDbLayout
  1
Model
 70
     1
 71
     0
 10
0.0
 20
0.0
 11
297.0
 21
210.0
 12
0.0
 22
0.0
 32
0.0
 14
0.0
 24
0.0
 34
0.0
 15
297.0
 25
210.0
 35
0.0
146
0.0
 13
0.0
 23
0.0
 33
0.0
 16
1.0
 26
0.0
 36
0.0
 17
0.0
 27
1.0
 37
0.0
 76
     0
330
1F
331
29
  0
MLINESTYLE
  5
18
102
{ACAD_REACTORS
330
17
102
}
330
17
100
AcDbMlineStyle
  2
Standard
 70
     0
  3

 62
   256
 51
90.0
 52
90.0
 71
     2
 49
0.5
 62
   256
  6
BYLAYER
 49
-0.5
 62
   256
  6
BYLAYER
  0
ACDBPLACEHOLDER
  5
F
102
{ACAD_REACTORS
330
E
102
}
330
E
  0
SCALE
  5
48
102
{ACAD_REACTORS
330
47
102
}
330
47
100
AcDbScale
 70
     0
300
1:1
140
1.0
141
1.0
290
     1
  0
SCALE
  5
49
102
{ACAD_REACTORS
330
47
102
}
330
47
100
AcDbScale
 70
     0
300
1:2
140
1.0
141
2.0
290
     0
  0
SCALE
  5
4A
102
{ACAD_REACTORS
330
47
102
}
330
47
100
AcDbScale
 70
     0
300
1:4
140
1.0
141
4.0
290
     0
  0
SCALE
  5
4B
102
{ACAD_REACTORS
330
47
102
}
330
47
100
AcDbScale
 70
     0
300
1:5
140
1.0
141
5.0
290
     0
  0
SCALE
  5
4C
102
{ACAD_REACTORS
330
47
102
}
330
47
100
AcDbScale
 70
     0
300
1:8
140
1.0
141
8.0
290
     0
  0
SCALE
  5
4D
102
{ACAD_REACTORS
330
47
102
}
330
47
100
AcDbScale
 70
     0
300
1:10
140
1.0
141
10.0
290
     0
  0
SCALE
  5
4E
102
{ACAD_REACTORS
330
47
102
}
330
47
100
AcDbScale
 70
     0
300
1:16
140
1.0
141
16.0
290
     0
  0
SCALE
  5
4F
102
{ACAD_REACTORS
330
47
102
}
330
47
100
AcDbScale
 70
     0
300
1:20
140
1.0
141
20.0
290
     0
  0
SCALE
  5
50
102
{ACAD_REACTORS
330
47
102
}
330
47
100
AcDbScale
 70
     0
300
1:30
140
1.0
141
30.0
290
     0
  0
SCALE
  5
51
102
{ACAD_REACTORS
330
47
102
}
330
47
100
AcDbScale
 70
     0
300
1:40
140
1.0
141
40.0
290
     0
  0
SCALE
  5
52
102
{ACAD_REACTORS
330
47
102
}
330
47
100
AcDbScale
 70
     0
300
1:50
140
1.0
141
50.0
290
     0
  0
SCALE
  5
53
102
{ACAD_REACTORS
330
47
102
}
330
47
100
AcDbScale
 70
     0
300
1:100
140
1.0
141
100.0
290
     0
  0
SCALE
  5
54
102
{ACAD_REACTORS
330
47
102
}
330
47
100
AcDbScale
 70
     0
300
2:1
140
2.0
141
1.0
290
     0
  0
SCALE
  5
55
102
{ACAD_REACTORS
330
47
102
}
330
47
100
AcDbScale
 70
     0
300
4:1
140
4.0
141
1.0
290
     0
  0
SCALE
  5
56
102
{ACAD_REACTORS
330
47
102
}
330
47
100
AcDbScale
 70
     0
300
8:1
140
8.0
141
1.0
290
     0
  0
SCALE
  5
57
102
{ACAD_REACTORS
330
47
102
}
330
47
100
AcDbScale
 70
     0
300
10:1
140
10.0
141
1.0
290
     0
  0
SCALE
  5
58
102
{ACAD_REACTORS
330
47
102
}
330
47
100
AcDbScale
 70
     0
300
100:1
140
100.0
141
1.0
290
     0
  0
ENDSEC
  0
EOF
