  0
SECTION
  2
HEADER
  9
$ACADVER
  1
AC1015
  9
$ACADMAINTVER
 70
     6
  9
$DWGCODEPAGE
  3
DOS932
  9
$INSBASE
 10
0.0
 20
0.0
 30
0.0
  9
$EXTMIN
 10
0.0
 20
0.0
 30
0.0
  9
$EXTMAX
 10
297.0
 20
210.0
 30
0.0
  9
$LIMMIN
 10
0.0
 20
0.0
  9
$LIMMAX
 10
297.0
 20
210.0
  9
$ORTHOMODE
 70
     0
  9
$REGENMODE
 70
     1
  9
$FILLMODE
 70
     1
  9
$QTEXTMODE
 70
     0
  9
$MIRRTEXT
 70
     1
  9
$LTSCALE
 40
1.0
  9
$ATTMODE
 70
     1
  9
$TEXTSIZE
 40
3.5277777778
  9
$TRACEWID
 40
1.0
  9
$TEXTSTYLE
  7
Standard
  9
$CLAYER
  8
0
  9
$CELTYPE
  6
ByLayer
  9
$CECOLOR
 62
   256
  9
$CELTSCALE
 40
1.0
  9
$DISPSILH
 70
     0
  9
$DIMSCALE
 40
1.0
  9
$DIMASZ
 40
2.728515625
  9
$DIMEXO
 40
1.0
  9
$DIMDLI
 40
3.75
  9
$DIMRND
 40
0.0
  9
$DIMDLE
 40
0.0
  9
$DIMEXE
 40
1.0
  9
$DIMTP
 40
0.0
  9
$DIMTM
 40
0.0
  9
$DIMTXT
 40
3.5277777778
  9
$DIMCEN
 40
2.5
  9
$DIMTSZ
 40
0.0
  9
$DIMTOL
 70
     0
  9
$DIMLIM
 70
     0
  9
$DIMTIH
 70
     1
  9
$DIMTOH
 70
     1
  9
$DIMSE1
 70
     0
  9
$DIMSE2
 70
     0
  9
$DIMTAD
 70
     1
  9
$DIMZIN
 70
     0
  9
$DIMBLK
  1

  9
$DIMASO
 70
     1
  9
$DIMSHO
 70
     1
  9
$DIMPOST
  1

  9
$DIMAPOST
  1

  9
$DIMALT
 70
     0
  9
$DIMALTD
 70
     3
  9
$DIMALTF
 40
0.0393700787
  9
$DIMLFAC
 40
1.0
  9
$DIMTOFL
 70
     1
  9
$DIMTVP
 40
0.0
  9
$DIMTIX
 70
     0
  9
$DIMSOXD
 70
     0
  9
$DIMSAH
 70
     0
  9
$DIMBLK1
  1

  9
$DIMBLK2
  1

  9
$DIMSTYLE
  2
ISO-25
  9
$DIMCLRD
 70
     0
  9
$DIMCLRE
 70
     0
  9
$DIMCLRT
 70
     0
  9
$DIMTFAC
 40
1.0
  9
$DIMGAP
 40
1.524
  9
$DIMJUST
 70
     0
  9
$DIMSD1
 70
     0
  9
$DIMSD2
 70
     0
  9
$DIMTOLJ
 70
     0
  9
$DIMTZIN
 70
     0
  9
$DIMALTZ
 70
     0
  9
$DIMALTTZ
 70
     0
  9
$DIMUPT
 70
     0
  9
$DIMDEC
 70
     2
  9
$DIMTDEC
 70
     2
  9
$DIMALTU
 70
     2
  9
$DIMALTTD
 70
     3
  9
$DIMTXSTY
  7
Standard
  9
$DIMAUNIT
 70
     0
  9
$DIMADEC
 70
     2
  9
$DIMALTRND
 40
0.0
  9
$DIMAZIN
 70
     0
  9
$DIMDSEP
 70
    44
  9
$DIMATFIT
 70
     3
  9
$DIMFRAC
 70
     0
  9
$DIMLDRBLK
  1

  9
$DIMLUNIT
 70
     2
  9
$DIMLWD
 70
    -2
  9
$DIMLWE
 70
    -2
  9
$DIMTMOVE
 70
     0
  9
$LUNITS
 70
     2
  9
$LUPREC
 70
     2
  9
$SKETCHINC
 40
1.0
  9
$FILLETRAD
 40
0.0
  9
$AUNITS
 70
     0
  9
$AUPREC
 70
     2
  9
$MENU
  1
.
  9
$ELEVATION
 40
0.0
  9
$PELEVATION
 40
0.0
  9
$THICKNESS
 40
0.0
  9
$LIMCHECK
 70
     0
  9
$CHAMFERA
 40
0.0
  9
$CHAMFERB
 40
0.0
  9
$CHAMFERC
 40
0.0
  9
$CHAMFERD
 40
0.0
  9
$SKPOLY
 70
     0
  9
$TDCREATE
 40
2460336.648562268
  9
$TDUCREATE
 40
2460336.273562268
  9
$TDUPDATE
 40
2460336.648563033
  9
$TDUUPDATE
 40
2460336.273563033
  9
$TDINDWG
 40
0.0000000116
  9
$TDUSRTIMER
 40
0.0000000116
  9
$USRTIMER
 70
     1
  9
$ANGBASE
 50
0.0
  9
$ANGDIR
 70
     0
  9
$PDMODE
 70
     0
  9
$PDSIZE
 40
-1.0
  9
$PLINEWID
 40
0.0
  9
$SPLFRAME
 70
     0
  9
$SPLINETYPE
 70
     6
  9
$SPLINESEGS
 70
     8
  9
$HANDSEED
  5
28D
  9
$SURFTAB1
 70
     6
  9
$SURFTAB2
 70
     6
  9
$SURFTYPE
 70
     6
  9
$SURFU
 70
     6
  9
$SURFV
 70
     6
  9
$UCSBASE
  2

  9
$UCSNAME
  2

  9
$UCSORG
 10
0.0
 20
0.0
 30
0.0
  9
$UCSXDIR
 10
1.0
 20
0.0
 30
0.0
  9
$UCSYDIR
 10
0.0
 20
1.0
 30
0.0
  9
$UCSORTHOREF
  2

  9
$UCSORTHOVIEW
 70
     0
  9
$UCSORGTOP
 10
0.0
 20
0.0
 30
0.0
  9
$UCSORGBOTTOM
 10
0.0
 20
0.0
 30
0.0
  9
$UCSORGLEFT
 10
0.0
 20
0.0
 30
0.0
  9
$UCSORGRIGHT
 10
0.0
 20
0.0
 30
0.0
  9
$UCSORGFRONT
 10
0.0
 20
0.0
 30
0.0
  9
$UCSORGBACK
 10
0.0
 20
0.0
 30
0.0
  9
$PUCSBASE
  2

  9
$PUCSNAME
  2

  9
$PUCSORG
 10
0.0
 20
0.0
 30
0.0
  9
$PUCSXDIR
 10
1.0
 20
0.0
 30
0.0
  9
$PUCSYDIR
 10
0.0
 20
1.0
 30
0.0
  9
$PUCSORTHOREF
  2

  9
$PUCSORTHOVIEW
 70
     0
  9
$PUCSORGTOP
 10
0.0
 20
0.0
 30
0.0
  9
$PUCSORGBOTTOM
 10
0.0
 20
0.0
 30
0.0
  9
$PUCSORGLEFT
 10
0.0
 20
0.0
 30
0.0
  9
$PUCSORGRIGHT
 10
0.0
 20
0.0
 30
0.0
  9
$PUCSORGFRONT
 10
0.0
 20
0.0
 30
0.0
  9
$PUCSORGBACK
 10
0.0
 20
0.0
 30
0.0
  9
$USERI1
 70
     0
  9
$USERI2
 70
     0
  9
$USERI3
 70
     0
  9
$USERI4
 70
     0
  9
$USERI5
 70
     0
  9
$USERR1
 40
0.0
  9
$USERR2
 40
0.0
  9
$USERR3
 40
0.0
  9
$USERR4
 40
0.0
  9
$USERR5
 40
0.0
  9
$WORLDVIEW
 70
     1
  9
$SHADEDGE
 70
     3
  9
$SHADEDIF
 70
    70
  9
$TILEMODE
 70
     1
  9
$MAXACTVP
 70
    64
  9
$PINSBASE
 10
0.0
 20
0.0
 30
0.0
  9
$PLIMCHECK
 70
     0
  9
$PEXTMIN
 10
1.0000000000E+20
 20
1.0000000000E+20
 30
1.0000000000E+20
  9
$PEXTMAX
 10
-1.0000000000E+20
 20
-1.0000000000E+20
 30
-1.0000000000E+20
  9
$PLIMMIN
 10
0.0
 20
0.0
  9
$PLIMMAX
 10
420.0
 20
297.0
  9
$UNITMODE
 70
     0
  9
$VISRETAIN
 70
     1
  9
$PLINEGEN
 70
     0
  9
$PSLTSCALE
 70
     1
  9
$TREEDEPTH
 70
  3020
  9
$CMLSTYLE
  2
Standard
  9
$CMLJUST
 70
     0
  9
$CMLSCALE
 40
20.0
  9
$PROXYGRAPHICS
 70
     1
  9
$MEASUREMENT
 70
     1
  9
$CELWEIGHT
370
    -1
  9
$ENDCAPS
280
     0
  9
$JOINSTYLE
280
     0
  9
$LWDISPLAY
290
     1
  9
$INSUNITS
 70
     4
  9
$HYPERLINKBASE
  1

  9
$STYLESHEET
  1

  9
$XEDIT
290
     1
  9
$CEPSNTYPE
380
     0
  9
$PSTYLEMODE
290
     1
  9
$FINGERPRINTGUID
  2
{65bef53f-6727-42fc-8493-e435d05ef7d1}
  9
$VERSIONGUID
  2
{FAEB1C32-E019-11D5-929B-00C0DF256EC4}
  9
$EXTNAMES
290
     1
  9
$PSVPSCALE
 40
0.0
  9
$OLESTARTUP
290
     0
  0
ENDSEC
  0
SECTION
  2
CLASSES
  0
CLASS
  1
ACDBDICTIONARYWDFLT
  2
AcDbDictionaryWithDefault
  3
ObjectDBX Classes
 90
        0
280
     0
281
     0
  0
CLASS
  1
VISUALSTYLE
  2
AcDbVisualStyle
  3
ObjectDBX Classes
 90
     4095
280
     0
281
     0
  0
CLASS
  1
MATERIAL
  2
AcDbMaterial
  3
ObjectDBX Classes
 90
     1153
280
     0
281
     0
  0
CLASS
  1
SCALE
  2
AcDbScale
  3
ObjectDBX Classes
 90
     1153
280
     0
281
     0
  0
CLASS
  1
TABLESTYLE
  2
AcDbTableStyle
  3
ObjectDBX Classes
 90
     4095
280
     0
281
     0
  0
CLASS
  1
MLEADERSTYLE
  2
AcDbMLeaderStyle
  3
ACDB_MLEADERSTYLE_CLASS
 90
     4095
280
     0
281
     0
  0
CLASS
  1
SUN
  2
AcDbSun
  3
SCENEOE
 90
     1153
280
     0
281
     0
  0
CLASS
  1
ACDBPLACEHOLDER
  2
AcDbPlaceHolder
  3
ObjectDBX Classes
 90
        0
280
     0
281
     0
  0
CLASS
  1
LAYOUT
  2
AcDbLayout
  3
ObjectDBX Classes
 90
        0
280
     0
281
     0
  0
ENDSEC
  0
SECTION
  2
TABLES
  0
TABLE
  2
VPORT
  5
8
330
0
100
AcDbSymbolTable
 70
     1
  0
VPORT
  5
29
330
8
100
AcDbSymbolTableRecord
100
AcDbViewportTableRecord
  2
*Active
 70
     0
 10
0.0
 20
0.0
 11
1.0
 21
1.0
 12
148.5
 22
105.0
 13
0.0
 23
0.0
 14
10.0
 24
10.0
 15
10.0
 25
10.0
 16
0.0
 26
0.0
 36
1.0
 17
0.0
 27
0.0
 37
0.0
 40
210.0
 41
1.4142857143
 42
50.0
 43
0.0
 44
0.0
 50
0.0
 51
0.0
 71
     0
 72
  2000
 73
     1
 74
     3
 75
     0
 76
     0
 77
     0
 78
     0
281
     0
 65
     1
110
0.0
120
0.0
130
0.0
111
1.0
121
0.0
131
0.0
112
0.0
122
1.0
132
0.0
 79
     0
146
0.0
  0
ENDTAB
  0
TABLE
  2
LTYPE
  5
5
330
0
100
AcDbSymbolTable
 70
     6
  0
LTYPE
  5
14
330
5
100
AcDbSymbolTableRecord
100
AcDbLinetypeTableRecord
  2
ByBlock
 70
     0
  3

 72
    65
 73
     0
 40
0.0
  0
LTYPE
  5
15
330
5
100
AcDbSymbolTableRecord
100
AcDbLinetypeTableRecord
  2
ByLayer
 70
     0
  3

 72
    65
 73
     0
 40
0.0
  0
LTYPE
  5
16
330
5
100
AcDbSymbolTableRecord
100
AcDbLinetypeTableRecord
  2
Continuous
 70
     0
  3
Solid line
 72
    65
 73
     0
 40
0.0
  0
LTYPE
  5
5E
330
5
100
AcDbSymbolTableRecord
100
AcDbLinetypeTableRecord
  2
HIDDEN
 70
     0
  3
Hidden __ __ __ __ __ __ __ __ __ __ __ __ __ __
 72
    65
 73
     2
 40
1.905
 49
1.27
 74
     0
 49
-0.635
 74
     0
  0
LTYPE
  5
5F
330
5
100
AcDbSymbolTableRecord
100
AcDbLinetypeTableRecord
  2
PHANTOM
 70
     0
  3
Phantom ______  __  __  ______  __  __  ______
 72
    65
 73
     6
 40
12.7
 49
6.35
 74
     0
 49
-1.27
 74
     0
 49
1.27
 74
     0
 49
-1.27
 74
     0
 49
1.27
 74
     0
 49
-1.27
 74
     0
  0
LTYPE
  5
60
330
5
100
AcDbSymbolTableRecord
100
AcDbLinetypeTableRecord
  2
CENTER
 70
     0
  3
Center ____ _ ____ _ ____ _ ____ _ ____ _ ____
 72
    65
 73
     4
 40
10.16
 49
6.35
 74
     0
 49
-1.27
 74
     0
 49
1.27
 74
     0
 49
-1.27
 74
     0
  0
LTYPE
  5
61
330
5
100
AcDbSymbolTableRecord
100
AcDbLinetypeTableRecord
  2
CENTERX2
 70
     0
  3
Center (2x) ________  __  ________  __  _____
 72
    65
 73
     4
 40
20.32
 49
12.7
 74
     0
 49
-2.54
 74
     0
 49
2.54
 74
     0
 49
-2.54
 74
     0
  0
LTYPE
  5
62
330
5
100
AcDbSymbolTableRecord
100
AcDbLinetypeTableRecord
  2
DOT2
 70
     0
  3
Dot (.5x) ........................................
 72
    65
 73
     2
 40
0.635
 49
0.0
 74
     0
 49
-0.635
 74
     0
  0
ENDTAB
  0
TABLE
  2
LAYER
  5
2
330
0
100
AcDbSymbolTable
 70
     2
  0
LAYER
  5
10
330
2
100
AcDbSymbolTableRecord
100
AcDbLayerTableRecord
  2
0
 70
     0
 62
     7
  6
Continuous
370
    -3
390
F
  0
LAYER
  5
63
330
2
100
AcDbSymbolTableRecord
100
AcDbLayerTableRecord
  2
FORMAT
 70
     0
 62
     7
  6
Continuous
370
    -3
390
F
  0
ENDTAB
  0
TABLE
  2
STYLE
  5
3
330
0
100
AcDbSymbolTable
 70
     2
  0
STYLE
  5
11
330
3
100
AcDbSymbolTableRecord
100
AcDbTextStyleTableRecord
  2
Standard
 70
     0
 40
0.0
 41
1.0
 50
0.0
 71
     0
 42
3.5277777778
  3
txt
  4
bigfont
  0
STYLE
  5
64
330
3
100
AcDbSymbolTableRecord
100
AcDbTextStyleTableRecord
  2
SLDTEXTSTYLE0
 70
     0
 40
0.0
 41
0.7
 50
0.0
 71
     0
 42
3.5277777778
  3
TXT
  4
bigfont
  0
ENDTAB
  0
TABLE
  2
VIEW
  5
6
330
0
100
AcDbSymbolTable
 70
     0
  0
ENDTAB
  0
TABLE
  2
UCS
  5
7
330
0
100
AcDbSymbolTable
 70
     0
  0
ENDTAB
  0
TABLE
  2
APPID
  5
9
330
0
100
AcDbSymbolTable
 70
     1
  0
APPID
  5
12
330
9
100
AcDbSymbolTableRecord
100
AcDbRegAppTableRecord
  2
ACAD
 70
     0
  0
ENDTAB
  0
TABLE
  2
DIMSTYLE
  5
A
330
0
100
AcDbSymbolTable
 70
     1
100
AcDbDimStyleTable
  0
DIMSTYLE
105
27
330
A
100
AcDbSymbolTableRecord
100
AcDbDimStyleTableRecord
  2
ISO-25
 70
     0
 41
2.5
 42
0.625
 43
3.75
 44
1.25
 73
     0
 74
     0
 77
     1
 78
     8
140
2.5
141
2.5
143
0.0393700787
147
0.625
171
     3
172
     1
178
     0
271
     2
272
     2
274
     3
278
    44
283
     0
284
     8
340
11
  0
ENDTAB
  0
TABLE
  2
BLOCK_RECORD
  5
1
330
0
100
AcDbSymbolTable
 70
     3
  0
BLOCK_RECORD
  5
1F
330
1
100
AcDbSymbolTableRecord
100
AcDbBlockTableRecord
  2
*Model_Space
340
22
  0
BLOCK_RECORD
  5
1B
330
1
100
AcDbSymbolTableRecord
100
AcDbBlockTableRecord
  2
*Paper_Space
340
1E
  0
BLOCK_RECORD
  5
23
330
1
100
AcDbSymbolTableRecord
100
AcDbBlockTableRecord
  2
*Paper_Space0
340
26
  0
BLOCK_RECORD
  5
1DE
330
1
100
AcDbSymbolTableRecord
100
AcDbBlockTableRecord
  2
SW_CENTERMARKSYMBOL_0
340
0
102
{BLKREFS
331
1E9
102
}
  0
BLOCK_RECORD
  5
280
330
1
100
AcDbSymbolTableRecord
100
AcDbBlockTableRecord
  2
SW_CENTERMARKSYMBOL_1
340
0
102
{BLKREFS
331
28B
102
}
  0
ENDTAB
  0
ENDSEC
  0
SECTION
  2
BLOCKS
  0
BLOCK
  5
20
330
1F
100
AcDbEntity
  8
0
100
AcDbBlockBegin
  2
*Model_Space
 70
     0
 10
0.0
 20
0.0
 30
0.0
  3
*Model_Space
  1

  0
ENDBLK
  5
21
330
1F
100
AcDbEntity
  8
0
100
AcDbBlockEnd
  0
BLOCK
  5
1C
330
1B
100
AcDbEntity
 67
     1
  8
0
100
AcDbBlockBegin
  2
*Paper_Space
 70
     0
 10
0.0
 20
0.0
 30
0.0
  3
*Paper_Space
  1

  0
ENDBLK
  5
1D
330
1B
100
AcDbEntity
 67
     1
  8
0
100
AcDbBlockEnd
  0
BLOCK
  5
24
330
23
100
AcDbEntity
  8
0
100
AcDbBlockBegin
  2
*Paper_Space0
 70
     0
 10
0.0
 20
0.0
 30
0.0
  3
*Paper_Space0
  1

  0
ENDBLK
  5
25
330
23
100
AcDbEntity
  8
0
100
AcDbBlockEnd
  0
BLOCK
  5
1DF
330
1DE
100
AcDbEntity
  8
0
100
AcDbBlockBegin
  2
SW_CENTERMARKSYMBOL_0
 70
     0
 10
0.0
 20
0.0
 30
0.0
  3
SW_CENTERMARKSYMBOL_0
  1

  0
LINE
  5
1E1
330
1DE
100
AcDbEntity
  8
FORMAT
 62
     0
100
AcDbLine
 10
0.0
 20
0.0
 30
0.0
 11
0.0
 21
2.5
 31
0.0
  0
LINE
  5
1E2
330
1DE
100
AcDbEntity
  8
FORMAT
 62
     0
100
AcDbLine
 10
0.0
 20
0.0
 30
0.0
 11
-2.5
 21
0.0
 31
0.0
  0
LINE
  5
1E3
330
1DE
100
AcDbEntity
  8
FORMAT
 62
     0
100
AcDbLine
 10
0.0
 20
0.0
 30
0.0
 11
0.0
 21
-2.5
 31
0.0
  0
LINE
  5
1E4
330
1DE
100
AcDbEntity
  8
FORMAT
 62
     0
100
AcDbLine
 10
0.0
 20
0.0
 30
0.0
 11
2.5
 21
0.0
 31
0.0
  0
LINE
  5
1E5
330
1DE
100
AcDbEntity
  8
FORMAT
 62
     0
100
AcDbLine
 10
0.0
 20
5.0
 30
0.0
 11
0.0
 21
30.120819209
 31
0.0
  0
LINE
  5
1E6
330
1DE
100
AcDbEntity
  8
FORMAT
 62
     0
100
AcDbLine
 10
-5.0
 20
0.0
 30
0.0
 11
-10.75
 21
0.0
 31
0.0
  0
LINE
  5
1E7
330
1DE
100
AcDbEntity
  8
FORMAT
 62
     0
100
AcDbLine
 10
0.0
 20
-5.0
 30
0.0
 11
0.0
 21
-25.2892388383
 31
0.0
  0
LINE
  5
1E8
330
1DE
100
AcDbEntity
  8
FORMAT
 62
     0
100
AcDbLine
 10
5.0
 20
0.0
 30
0.0
 11
10.75
 21
0.0
 31
0.0
  0
ENDBLK
  5
1E0
330
1DE
100
AcDbEntity
  8
0
100
AcDbBlockEnd
  0
BLOCK
  5
281
330
280
100
AcDbEntity
  8
0
100
AcDbBlockBegin
  2
SW_CENTERMARKSYMBOL_1
 70
     0
 10
0.0
 20
0.0
 30
0.0
  3
SW_CENTERMARKSYMBOL_1
  1

  0
LINE
  5
283
330
280
100
AcDbEntity
  8
FORMAT
 62
     0
100
AcDbLine
 10
0.0
 20
0.0
 30
0.0
 11
0.0
 21
2.5
 31
0.0
  0
LINE
  5
284
330
280
100
AcDbEntity
  8
FORMAT
 62
     0
100
AcDbLine
 10
0.0
 20
0.0
 30
0.0
 11
-2.5
 21
0.0
 31
0.0
  0
LINE
  5
285
330
280
100
AcDbEntity
  8
FORMAT
 62
     0
100
AcDbLine
 10
0.0
 20
0.0
 30
0.0
 11
0.0
 21
-2.5
 31
0.0
  0
LINE
  5
286
330
280
100
AcDbEntity
  8
FORMAT
 62
     0
100
AcDbLine
 10
0.0
 20
0.0
 30
0.0
 11
2.5
 21
0.0
 31
0.0
  0
LINE
  5
287
330
280
100
AcDbEntity
  8
FORMAT
 62
     0
100
AcDbLine
 10
0.0
 20
5.0
 30
0.0
 11
0.0
 21
9.95
 31
0.0
  0
LINE
  5
288
330
280
100
AcDbEntity
  8
FORMAT
 62
     0
100
AcDbLine
 10
-5.0
 20
0.0
 30
0.0
 11
-41.620819209
 21
0.0
 31
0.0
  0
LINE
  5
289
330
280
100
AcDbEntity
  8
FORMAT
 62
     0
100
AcDbLine
 10
0.0
 20
-5.0
 30
0.0
 11
0.0
 21
-9.95
 31
0.0
  0
LINE
  5
28A
330
280
100
AcDbEntity
  8
FORMAT
 62
     0
100
AcDbLine
 10
5.0
 20
0.0
 30
0.0
 11
13.4523995797
 21
0.0
 31
0.0
  0
ENDBLK
  5
282
330
280
100
AcDbEntity
  8
0
100
AcDbBlockEnd
  0
ENDSEC
  0
SECTION
  2
ENTITIES
  0
MTEXT
  5
65
330
1F
100
AcDbEntity
  8
FORMAT
100
AcDbMText
 10
119.0506399017
 20
91.3748994401
 30
0.0
 40
2.6458333333
 41
0.0
 71
     1
 72
     1
  1
エースボール　アングル型　BH-3208R
  7
SLDTEXTSTYLE0
 73
     1
 44
1.0
  0
LINE
  5
66
330
1F
100
AcDbEntity
  8
0
  6
Continuous
 62
     7
370
    25
100
AcDbLine
 10
103.2534044244
 20
58.9133965844
 30
0.0
 11
100.4534044244
 21
58.9133965844
 31
0.0
  0
LINE
  5
67
330
1F
100
AcDbEntity
  8
0
  6
Continuous
 62
     7
370
    25
100
AcDbLine
 10
100.4534044244
 20
42.9133965844
 30
0.0
 11
103.2534044244
 21
42.9133965844
 31
0.0
  0
LINE
  5
68
330
1F
100
AcDbEntity
  8
0
  6
Continuous
 62
     7
370
    25
100
AcDbLine
 10
100.4534044244
 20
58.9133965844
 30
0.0
 11
100.2534044244
 21
58.7133965844
 31
0.0
  0
LINE
  5
69
330
1F
100
AcDbEntity
  8
0
  6
Continuous
 62
     7
370
    25
100
AcDbLine
 10
100.2534044244
 20
43.1133965844
 30
0.0
 11
100.4534044244
 21
42.9133965844
 31
0.0
  0
LINE
  5
6A
330
1F
100
AcDbEntity
  8
0
  6
Continuous
 62
     7
370
    25
100
AcDbLine
 10
93.2534044244
 20
54.9133965844
 30
0.0
 11
88.7534044244
 21
54.1633965844
 31
0.0
  0
LINE
  5
6B
330
1F
100
AcDbEntity
  8
0
  6
Continuous
 62
     7
370
    25
100
AcDbLine
 10
88.7534044244
 20
47.6633965844
 30
0.0
 11
93.2534044244
 21
46.9133965844
 31
0.0
  0
LINE
  5
6C
330
1F
100
AcDbEntity
  8
0
  6
Continuous
 62
     7
370
    25
100
AcDbLine
 10
97.7534044244
 20
54.9133965844
 30
0.0
 11
93.2534044244
 21
54.1633965844
 31
0.0
  0
LINE
  5
6D
330
1F
100
AcDbEntity
  8
0
  6
Continuous
 62
     7
370
    25
100
AcDbLine
 10
93.2534044244
 20
47.6633965844
 30
0.0
 11
97.7534044244
 21
46.9133965844
 31
0.0
  0
LINE
  5
6E
330
1F
100
AcDbEntity
  8
0
  6
Continuous
 62
     7
370
    25
100
AcDbLine
 10
100.2534044244
 20
54.9133965844
 30
0.0
 11
97.7534044244
 21
54.9133965844
 31
0.0
  0
LINE
  5
6F
330
1F
100
AcDbEntity
  8
0
  6
Continuous
 62
     7
370
    25
100
AcDbLine
 10
97.7534044244
 20
46.9133965844
 30
0.0
 11
100.2534044244
 21
46.9133965844
 31
0.0
  0
LINE
  5
70
330
1F
100
AcDbEntity
  8
0
  6
Continuous
 62
     7
370
    25
100
AcDbLine
 10
84.2534044244
 20
54.9133965844
 30
0.0
 11
79.7534044244
 21
54.1633965844
 31
0.0
  0
LINE
  5
71
330
1F
100
AcDbEntity
  8
0
  6
Continuous
 62
     7
370
    25
100
AcDbLine
 10
79.7534044244
 20
47.6633965844
 30
0.0
 11
84.2534044244
 21
46.9133965844
 31
0.0
  0
LINE
  5
72
330
1F
100
AcDbEntity
  8
0
  6
Continuous
 62
     7
370
    25
100
AcDbLine
 10
88.7534044244
 20
54.9133965844
 30
0.0
 11
84.2534044244
 21
54.1633965844
 31
0.0
  0
LINE
  5
73
330
1F
100
AcDbEntity
  8
0
  6
Continuous
 62
     7
370
    25
100
AcDbLine
 10
84.2534044244
 20
47.6633965844
 30
0.0
 11
88.7534044244
 21
46.9133965844
 31
0.0
  0
LINE
  5
74
330
1F
100
AcDbEntity
  8
0
  6
Continuous
 62
     7
370
    25
100
AcDbLine
 10
79.7534044244
 20
54.9133965844
 30
0.0
 11
75.7334044244
 21
54.2433965844
 31
0.0
  0
LINE
  5
75
330
1F
100
AcDbEntity
  8
0
  6
Continuous
 62
     7
370
    25
100
AcDbLine
 10
75.7334044244
 20
47.5833965844
 30
0.0
 11
79.7534044244
 21
46.9133965844
 31
0.0
  0
LINE
  5
76
330
1F
100
AcDbEntity
  8
0
  6
Continuous
 62
     7
370
    25
100
AcDbLine
 10
75.7334044244
 20
54.2433965844
 30
0.0
 11
75.2534044244
 21
53.7633965844
 31
0.0
  0
LINE
  5
77
330
1F
100
AcDbEntity
  8
0
  6
Continuous
 62
     7
370
    25
100
AcDbLine
 10
75.2534044244
 20
48.0633965844
 30
0.0
 11
75.7334044244
 21
47.5833965844
 31
0.0
  0
LINE
  5
78
330
1F
100
AcDbEntity
  8
0
  6
Continuous
 62
     7
370
    25
100
AcDbLine
 10
125.8945356773
 20
41.1757922774
 30
0.0
 11
126.7534044244
 21
42.6633965844
 31
0.0
  0
LINE
  5
79
330
1F
100
AcDbEntity
  8
0
  6
Continuous
 62
     7
370
    25
100
AcDbLine
 10
126.7534044244
 20
59.1633965844
 30
0.0
 11
125.8945356773
 21
60.6510008915
 31
0.0
  0
LINE
  5
7A
330
1F
100
AcDbEntity
  8
0
  6
Continuous
 62
     7
370
    25
100
AcDbLine
 10
107.9952169244
 20
38.9133965844
 30
0.0
 11
108.2888523658
 21
29.5170624583
 31
0.0
  0
LINE
  5
7B
330
1F
100
AcDbEntity
  8
0
  6
Continuous
 62
     7
370
    25
100
AcDbLine
 10
121.2179564829
 20
29.5170624583
 30
0.0
 11
121.5115919244
 21
38.9133965844
 31
0.0
  0
SPLINE
  5
7C
330
1F
100
AcDbEntity
  8
0
  6
Continuous
 62
     7
370
    25
100
AcDbSpline
210
0.0
220
0.0
230
1.0
 70
     8
 71
     3
 72
    12
 73
     8
 74
     0
 42
0.00000001
 43
0.00000001
 40
0.0
 40
0.0
 40
0.0
 40
0.0
 40
0.030451534050219
 40
0.2814715464163021
 40
0.539974453155358
 40
0.8018387274422152
 40
0.9999999999999999
 40
0.9999999999999999
 40
0.9999999999999999
 40
0.9999999999999999
 10
108.8653256774001
 20
60.41380082768967
 30
0.0
 10
108.8660761743105
 20
60.40585743361091
 30
0.0
 10
108.8730132148421
 20
60.33243455082756
 30
0.0
 10
108.8507553236784
 20
60.19021098684117
 30
0.0
 10
108.7915965550079
 20
59.99719953440564
 30
0.0
 10
108.7013154513666
 20
59.82891611652161
 30
0.0
 10
108.6180052696698
 20
59.74140461512271
 30
0.0
 10
108.5821184548281
 20
59.70370803370544
 30
0.0
  0
SPLINE
  5
7D
330
1F
100
AcDbEntity
  8
0
  6
Continuous
 62
     7
370
    25
100
AcDbSpline
210
0.0
220
0.0
230
1.0
 70
     8
 71
     3
 72
    12
 73
     8
 74
     0
 42
0.00000001
 43
0.00000001
 40
0.0
 40
0.0
 40
0.0
 40
0.0
 40
0.0863972252226283
 40
0.3793182417470075
 40
0.6464715858806459
 40
0.8924855317281448
 40
1.0
 40
1.0
 40
1.0
 40
1.0
 10
120.9387536472256
 20
59.71905365197784
 30
0.0
 10
120.9224854136987
 20
59.73397049979206
 30
0.0
 10
120.8510613868062
 20
59.79946140497704
 30
0.0
 10
120.7629064406056
 20
59.9427342846499
 30
0.0
 10
120.6865626012215
 20
60.13355109778993
 30
0.0
 10
120.6536734206406
 20
60.29060097166466
 30
0.0
 10
120.6558615750832
 20
60.38088147050681
 30
0.0
 10
120.6565270329418
 20
60.40833742437266
 30
0.0
  0
LINE
  5
7E
330
1F
100
AcDbEntity
  8
0
  6
Continuous
 62
     7
370
    25
100
AcDbLine
 10
108.2888523658
 20
29.5170624583
 30
0.0
 11
109.5034044244
 21
27.4133965844
 31
0.0
  0
LINE
  5
7F
330
1F
100
AcDbEntity
  8
0
  6
Continuous
 62
     7
370
    25
100
AcDbLine
 10
120.0034044244
 20
27.4133965844
 30
0.0
 11
121.2179564829
 21
29.5170624583
 31
0.0
  0
LINE
  5
80
330
1F
100
AcDbEntity
  8
0
  6
Continuous
 62
     7
370
    25
100
AcDbLine
 10
120.6534044244
 20
60.4088657644
 30
0.0
 11
120.6534044244
 21
61.4133965844
 31
0.0
  0
LINE
  5
81
330
1F
100
AcDbEntity
  8
0
  6
Continuous
 62
     7
370
    25
100
AcDbLine
 10
108.8534044244
 20
61.4133965844
 30
0.0
 11
108.8534044244
 21
60.4133965844
 31
0.0
  0
LINE
  5
82
330
1F
100
AcDbEntity
  8
0
  6
Continuous
 62
     7
370
    25
100
AcDbLine
 10
108.583237517
 20
59.7081343137
 30
0.0
 11
108.0388732446
 21
60.6510008915
 31
0.0
  0
LINE
  5
83
330
1F
100
AcDbEntity
  8
0
  6
Continuous
 62
     7
370
    25
100
AcDbLine
 10
121.4679356042
 20
60.6510008915
 30
0.0
 11
120.9235713317
 21
59.7081343137
 31
0.0
  0
LINE
  5
84
330
1F
100
AcDbEntity
  8
0
  6
Continuous
 62
     7
370
    25
100
AcDbLine
 10
103.9679356042
 20
60.6510008915
 30
0.0
 11
103.2534044244
 21
59.4133965844
 31
0.0
  0
LINE
  5
85
330
1F
100
AcDbEntity
  8
0
  6
Continuous
 62
     7
370
    25
100
AcDbLine
 10
123.2534044244
 20
38.9133965844
 30
0.0
 11
124.4910087314
 21
39.6279277643
 31
0.0
  0
LINE
  5
86
330
1F
100
AcDbEntity
  8
0
  6
Continuous
 62
     7
370
    25
100
AcDbLine
 10
103.2534044244
 20
42.4133965844
 30
0.0
 11
103.9679356042
 21
41.1757922774
 31
0.0
  0
LINE
  5
87
330
1F
100
AcDbEntity
  8
0
  6
Continuous
 62
     7
370
    25
100
AcDbLine
 10
105.0158001173
 20
39.6279277643
 30
0.0
 11
106.2534044244
 21
38.9133965844
 31
0.0
  0
LINE
  5
88
330
1F
100
AcDbEntity
  8
0
  6
Continuous
 62
     7
370
    25
100
AcDbLine
 10
124.4910087314
 20
39.6253673829
 30
0.0
 11
124.4910087314
 21
41.1757922774
 31
0.0
  0
LINE
  5
89
330
1F
100
AcDbEntity
  8
0
  6
Continuous
 62
     7
370
    25
100
AcDbLine
 10
124.4910087314
 20
41.1757922774
 30
0.0
 11
125.8971037327
 21
41.1757922774
 31
0.0
  0
LINE
  5
8A
330
1F
100
AcDbEntity
  8
0
  6
Continuous
 62
     7
370
    25
100
AcDbLine
 10
108.0414413
 20
60.6510008915
 30
0.0
 11
103.9653752229
 21
60.6510008915
 31
0.0
  0
LINE
  5
8B
330
1F
100
AcDbEntity
  8
0
  6
Continuous
 62
     7
370
    25
100
AcDbLine
 10
125.8971037327
 20
60.6510008915
 30
0.0
 11
121.4653675487
 21
60.6510008915
 31
0.0
  0
LINE
  5
8C
330
1F
100
AcDbEntity
  8
0
  6
Continuous
 62
     7
370
    25
100
AcDbLine
 10
105.0158001173
 20
41.1757922774
 30
0.0
 11
105.0158001173
 21
39.6253673829
 31
0.0
  0
LINE
  5
8D
330
1F
100
AcDbEntity
  8
0
  6
Continuous
 62
     7
370
    25
100
AcDbLine
 10
103.9653752229
 20
41.1757922774
 30
0.0
 11
105.0158001173
 21
41.1757922774
 31
0.0
  0
LINE
  5
8E
330
1F
100
AcDbEntity
  8
0
  6
Continuous
 62
     7
370
    25
100
AcDbLine
 10
122.2034044244
 20
69.4133965844
 30
0.0
 11
120.2534044244
 21
77.4133965844
 31
0.0
  0
LINE
  5
8F
330
1F
100
AcDbEntity
  8
0
  6
Continuous
 62
     7
370
    25
100
AcDbLine
 10
121.7534044244
 20
61.4133965844
 30
0.0
 11
122.2034044244
 21
69.4133965844
 31
0.0
  0
LINE
  5
90
330
1F
100
AcDbEntity
  8
0
  6
Continuous
 62
     7
370
    25
100
AcDbLine
 10
107.6827477986
 20
62.6695143758
 30
0.0
 11
107.7534044244
 21
61.4133965844
 31
0.0
  0
LINE
  5
91
330
1F
100
AcDbEntity
  8
0
  6
Continuous
 62
     7
370
    25
100
AcDbLine
 10
109.2534044244
 20
77.4133965844
 30
0.0
 11
109.0001728898
 21
76.3744979813
 31
0.0
  0
LINE
  5
92
330
1F
100
AcDbEntity
  8
0
  6
Continuous
 62
     7
370
    25
100
AcDbLine
 10
100.4534044244
 20
55.1893899815
 30
0.0
 11
100.4534044244
 21
42.9133965844
 31
0.0
  0
LINE
  5
93
330
1F
100
AcDbEntity
  8
0
  6
Continuous
 62
     7
370
    25
100
AcDbLine
 10
100.4534044244
 20
58.9133965844
 30
0.0
 11
100.4534044244
 21
55.1893899815
 31
0.0
  0
LINE
  5
94
330
1F
100
AcDbEntity
  8
0
  6
Continuous
 62
     7
370
    25
100
AcDbLine
 10
100.2534044244
 20
55.0824901466
 30
0.0
 11
100.2534044244
 21
58.7133965844
 31
0.0
  0
LINE
  5
95
330
1F
100
AcDbEntity
  8
0
  6
Continuous
 62
     7
370
    25
100
AcDbLine
 10
100.2534044244
 20
43.1133965844
 30
0.0
 11
100.2534044244
 21
55.0824901466
 31
0.0
  0
LINE
  5
96
330
1F
100
AcDbEntity
  8
0
  6
Continuous
 62
     7
370
    25
100
AcDbLine
 10
93.2534044244
 20
53.051393283
 30
0.0
 11
93.2534044244
 21
46.9133965844
 31
0.0
  0
LINE
  5
97
330
1F
100
AcDbEntity
  8
0
  6
Continuous
 62
     7
370
    25
100
AcDbLine
 10
93.2534044244
 20
54.9133965844
 30
0.0
 11
93.2534044244
 21
53.051393283
 31
0.0
  0
LINE
  5
98
330
1F
100
AcDbEntity
  8
0
  6
Continuous
 62
     7
370
    25
100
AcDbLine
 10
97.7534044244
 20
53.051393283
 30
0.0
 11
97.7534044244
 21
46.9133965844
 31
0.0
  0
LINE
  5
99
330
1F
100
AcDbEntity
  8
0
  6
Continuous
 62
     7
370
    25
100
AcDbLine
 10
97.7534044244
 20
54.9133965844
 30
0.0
 11
97.7534044244
 21
53.051393283
 31
0.0
  0
LINE
  5
9A
330
1F
100
AcDbEntity
  8
0
  6
Continuous
 62
     7
370
    25
100
AcDbLine
 10
84.2534044244
 20
53.051393283
 30
0.0
 11
84.2534044244
 21
46.9133965844
 31
0.0
  0
LINE
  5
9B
330
1F
100
AcDbEntity
  8
0
  6
Continuous
 62
     7
370
    25
100
AcDbLine
 10
84.2534044244
 20
54.9133965844
 30
0.0
 11
84.2534044244
 21
53.051393283
 31
0.0
  0
LINE
  5
9C
330
1F
100
AcDbEntity
  8
0
  6
Continuous
 62
     7
370
    25
100
AcDbLine
 10
88.7534044244
 20
53.051393283
 30
0.0
 11
88.7534044244
 21
46.9133965844
 31
0.0
  0
LINE
  5
9D
330
1F
100
AcDbEntity
  8
0
  6
Continuous
 62
     7
370
    25
100
AcDbLine
 10
88.7534044244
 20
54.9133965844
 30
0.0
 11
88.7534044244
 21
53.051393283
 31
0.0
  0
LINE
  5
9E
330
1F
100
AcDbEntity
  8
0
  6
Continuous
 62
     7
370
    25
100
AcDbLine
 10
75.7334044244
 20
54.2433965844
 30
0.0
 11
75.7334044244
 21
47.5833965844
 31
0.0
  0
LINE
  5
9F
330
1F
100
AcDbEntity
  8
0
  6
Continuous
 62
     7
370
    25
100
AcDbLine
 10
79.7534044244
 20
53.051393283
 30
0.0
 11
79.7534044244
 21
46.9133965844
 31
0.0
  0
LINE
  5
A0
330
1F
100
AcDbEntity
  8
0
  6
Continuous
 62
     7
370
    25
100
AcDbLine
 10
79.7534044244
 20
54.9133965844
 30
0.0
 11
79.7534044244
 21
53.051393283
 31
0.0
  0
LINE
  5
A1
330
1F
100
AcDbEntity
  8
0
  6
Continuous
 62
     7
370
    25
100
AcDbLine
 10
75.2534044244
 20
52.4367192321
 30
0.0
 11
75.2534044244
 21
53.7633965844
 31
0.0
  0
LINE
  5
A2
330
1F
100
AcDbEntity
  8
0
  6
Continuous
 62
     7
370
    25
100
AcDbLine
 10
75.2534044244
 20
48.0633965844
 30
0.0
 11
75.2534044244
 21
52.4367192321
 31
0.0
  0
LINE
  5
A3
330
1F
100
AcDbEntity
  8
0
  6
Continuous
 62
     7
370
    25
100
AcDbLine
 10
108.7534044244
 20
58.2746125166
 30
0.0
 11
108.7534044244
 21
54.9133965844
 31
0.0
  0
SPLINE
  5
A4
330
1F
100
AcDbEntity
  8
0
  6
Continuous
 62
     7
370
    25
100
AcDbSpline
210
0.0
220
0.0
230
1.0
 70
     8
 71
     3
 72
     8
 73
     4
 74
     0
 42
0.00000001
 43
0.00000001
 40
0.0
 40
0.0
 40
0.0
 40
0.0
 40
1.0
 40
1.0
 40
1.0
 40
1.0
 10
108.2371683473982
 20
54.91339658444319
 30
0.0
 10
108.1862696304756
 20
55.12044162287219
 30
0.0
 10
108.1323354942249
 20
55.32668095254882
 30
0.0
 10
108.0756830191172
 20
55.5321987379602
 30
0.0
  0
SPLINE
  5
A5
330
1F
100
AcDbEntity
  8
0
  6
Continuous
 62
     7
370
    25
100
AcDbSpline
210
0.0
220
0.0
230
1.0
 70
     8
 71
     3
 72
    10
 73
     6
 74
     0
 42
0.00000001
 43
0.00000001
 40
0.0
 40
0.0
 40
0.0
 40
0.0
 40
0.5
 40
0.5
 40
1.0
 40
1.0
 40
1.0
 40
1.0
 10
108.0756830191172
 20
55.96521143985242
 30
0.0
 10
108.0520076246928
 20
55.92226790895119
 30
0.0
 10
108.0389165148081
 20
55.85882546432706
 30
0.0
 10
108.0388301935198
 20
55.70634662720809
 30
0.0
 10
108.0519991274637
 20
55.61811662510082
 30
0.0
 10
108.0756830191172
 20
55.5321987379602
 30
0.0
  0
SPLINE
  5
A6
330
1F
100
AcDbEntity
  8
0
  6
Continuous
 62
     7
370
    25
100
AcDbSpline
210
0.0
220
0.0
230
1.0
 70
     8
 71
     3
 72
    12
 73
     8
 74
     0
 42
0.00000001
 43
0.00000001
 40
0.0
 40
0.0
 40
0.0
 40
0.0
 40
0.2500000000000001
 40
0.2500000000000001
 40
0.5000000000000002
 40
0.5000000000000002
 40
1.0
 40
1.0
 40
1.0
 40
1.0
 10
108.7534044243773
 20
58.27461251661092
 30
0.0
 10
108.7534044243773
 20
58.07887025373141
 30
0.0
 10
108.7375614882884
 20
57.88220364454084
 30
0.0
 10
108.6760586280507
 20
57.49293541721256
 30
0.0
 10
108.630454987007
 20
57.29953138425964
 30
0.0
 10
108.4540039695178
 20
56.72260233300289
 30
0.0
 10
108.2836066022659
 20
56.34235289979988
 30
0.0
 10
108.0756830191172
 20
55.96521143985242
 30
0.0
  0
SPLINE
  5
A7
330
1F
100
AcDbEntity
  8
0
  6
Continuous
 62
     7
370
    25
100
AcDbSpline
210
0.0
220
0.0
230
1.0
 70
     8
 71
     3
 72
    10
 73
     6
 74
     0
 42
0.00000001
 43
0.00000001
 40
0.0
 40
0.0
 40
0.0
 40
0.0
 40
0.5000000000000001
 40
0.5000000000000001
 40
1.0
 40
1.0
 40
1.0
 40
1.0
 10
110.1346022708603
 20
39.59111798970335
 30
0.0
 10
110.8852809703561
 20
39.38418793617065
 30
0.0
 10
111.6495619145788
 20
39.21238232579695
 30
0.0
 10
113.2041366486663
 20
38.97543181926558
 30
0.0
 10
113.9797116161825
 20
38.91339658444318
 30
0.0
 10
114.7534044243773
 20
38.91339658444319
 30
0.0
  0
LINE
  5
A8
330
1F
100
AcDbEntity
  8
0
  6
Continuous
 62
     7
370
    25
100
AcDbLine
 10
110.1346022709
 20
42.9470000446
 30
0.0
 11
110.1346022709
 21
39.5911179897
 31
0.0
  0
SPLINE
  5
A9
330
1F
100
AcDbEntity
  8
0
  6
Continuous
 62
     7
370
    25
100
AcDbSpline
210
0.0
220
0.0
230
1.0
 70
     8
 71
     3
 72
     8
 73
     4
 74
     0
 42
0.00000001
 43
0.00000001
 40
0.0
 40
0.0
 40
0.0
 40
0.0
 40
1.0
 40
1.0
 40
1.0
 40
1.0
 10
110.1346022708603
 20
42.94700004458819
 30
0.0
 10
110.3397880934036
 20
43.00356101171241
 30
0.0
 10
110.5460112941109
 20
43.05750108312625
 30
0.0
 10
110.7534044243773
 20
43.10848537286921
 30
0.0
  0
SPLINE
  5
AA
330
1F
100
AcDbEntity
  8
0
  6
Continuous
 62
     7
370
    25
100
AcDbSpline
210
0.0
220
0.0
230
1.0
 70
     8
 71
     3
 72
     8
 73
     4
 74
     0
 42
0.00000001
 43
0.00000001
 40
0.0
 40
0.0
 40
0.0
 40
0.0
 40
1.0
 40
1.0
 40
1.0
 40
1.0
 10
108.0756830191172
 20
46.29459443092615
 30
0.0
 10
108.1322463885854
 20
46.49978896843592
 30
0.0
 10
108.1861863114066
 20
46.70601262195308
 30
0.0
 10
108.2371683473982
 20
46.91339658444318
 30
0.0
  0
LINE
  5
AB
330
1F
100
AcDbEntity
  8
0
  6
Continuous
 62
     7
370
    25
100
AcDbLine
 10
103.9311258296
 20
46.2945944309
 30
0.0
 11
108.0756830191
 21
46.2945944309
 31
0.0
  0
SPLINE
  5
AC
330
1F
100
AcDbEntity
  8
0
  6
Continuous
 62
     7
370
    25
100
AcDbSpline
210
0.0
220
0.0
230
1.0
 70
     8
 71
     3
 72
    10
 73
     6
 74
     0
 42
0.00000001
 43
0.00000001
 40
0.0
 40
0.0
 40
0.0
 40
0.0
 40
0.5
 40
0.5
 40
1.0
 40
1.0
 40
1.0
 40
1.0
 10
103.9311258296375
 20
46.29459443092617
 30
0.0
 10
103.7230571534063
 20
47.04940370397546
 30
0.0
 10
103.5526581473818
 20
47.81015009120736
 30
0.0
 10
103.3174981676829
 20
49.34829246883063
 30
0.0
 10
103.2534044243773
 20
50.12579362135544
 30
0.0
 10
103.2534044243773
 20
50.91339658444319
 30
0.0
  0
SPLINE
  5
AD
330
1F
100
AcDbEntity
  8
0
  6
Continuous
 62
     7
370
    25
100
AcDbSpline
210
0.0
220
0.0
230
1.0
 70
     8
 71
     3
 72
    12
 73
     8
 74
     0
 42
0.00000001
 43
0.00000001
 40
0.0
 40
0.0
 40
0.0
 40
0.0
 40
0.2500000000000001
 40
0.2500000000000001
 40
0.5000000000000001
 40
0.5000000000000001
 40
1.0
 40
1.0
 40
1.0
 40
1.0
 10
103.2534044243773
 20
50.91339658444319
 30
0.0
 10
103.2534044243773
 20
51.30771466511503
 30
0.0
 10
103.2694032293584
 20
51.70137370906546
 30
0.0
 10
103.3311733676728
 20
52.4809097086108
 30
0.0
 10
103.3769154919744
 20
52.86786289673623
 30
0.0
 10
103.5535856393212
 20
54.02124945959023
 30
0.0
 10
103.7238407048015
 20
54.78023194879526
 30
0.0
 10
103.9311258296375
 20
55.5321987379602
 30
0.0
  0
LINE
  5
AE
330
1F
100
AcDbEntity
  8
0
  6
Continuous
 62
     7
370
    25
100
AcDbLine
 10
108.0756830191
 20
55.532198738
 30
0.0
 11
103.9311258296
 21
55.532198738
 31
0.0
  0
SPLINE
  5
AF
330
1F
100
AcDbEntity
  8
0
  6
Continuous
 62
     7
370
    25
100
AcDbSpline
210
0.0
220
0.0
230
1.0
 70
     8
 71
     3
 72
     8
 73
     4
 74
     0
 42
0.00000001
 43
0.00000001
 40
0.0
 40
0.0
 40
0.0
 40
0.0
 40
1.0
 40
1.0
 40
1.0
 40
1.0
 10
121.2696405013565
 20
54.91339658444326
 30
0.0
 10
121.3205367346116
 20
55.12043151984702
 30
0.0
 10
121.3744706895752
 20
55.32667128491201
 30
0.0
 10
121.4311258296375
 20
55.53219873796021
 30
0.0
  0
LINE
  5
B0
330
1F
100
AcDbEntity
  8
0
  6
Continuous
 62
     7
370
    25
100
AcDbLine
 10
125.9313454518
 20
55.532198738
 30
0.0
 11
121.4311258296
 21
55.532198738
 31
0.0
  0
SPLINE
  5
B1
330
1F
100
AcDbEntity
  8
0
  6
Continuous
 62
     7
370
    25
100
AcDbSpline
210
0.0
220
0.0
230
1.0
 70
     8
 71
     3
 72
    14
 73
    10
 74
     0
 42
0.00000001
 43
0.00000001
 40
0.0
 40
0.0
 40
0.0
 40
0.0
 40
0.25
 40
0.25
 40
0.5
 40
0.5
 40
0.75
 40
0.75
 40
1.0
 40
1.0
 40
1.0
 40
1.0
 10
125.9313454518198
 20
46.29459443092614
 30
0.0
 10
126.1392958125255
 20
47.04897449157612
 30
0.0
 10
126.3115176212144
 20
47.81841565904162
 30
0.0
 10
126.5461527439653
 20
49.35892701998278
 30
0.0
 10
126.609096802593
 20
50.1337813999898
 30
0.0
 10
126.6090368898615
 20
51.69414235487535
 30
0.0
 10
126.5444222235694
 20
52.48459854766038
 30
0.0
 10
126.3078628841682
 20
54.02687821046885
 30
0.0
 10
126.1375177440887
 20
54.78426896367004
 30
0.0
 10
125.9313454518197
 20
55.5321987379602
 30
0.0
  0
LINE
  5
B2
330
1F
100
AcDbEntity
  8
0
  6
Continuous
 62
     7
370
    25
100
AcDbLine
 10
121.4311258296
 20
46.2945944309
 30
0.0
 11
125.9313454518
 21
46.2945944309
 31
0.0
  0
SPLINE
  5
B3
330
1F
100
AcDbEntity
  8
0
  6
Continuous
 62
     7
370
    25
100
AcDbSpline
210
0.0
220
0.0
230
1.0
 70
     8
 71
     3
 72
     8
 73
     4
 74
     0
 42
0.00000001
 43
0.00000001
 40
0.0
 40
0.0
 40
0.0
 40
0.0
 40
1.0
 40
1.0
 40
1.0
 40
1.0
 10
121.4311258296375
 20
46.29459443092616
 30
0.0
 10
121.3745639862006
 20
46.49978343246297
 30
0.0
 10
121.3206239689442
 20
46.70600679852767
 30
0.0
 10
121.2696405013565
 20
46.91339658444313
 30
0.0
  0
SPLINE
  5
B4
330
1F
100
AcDbEntity
  8
0
  6
Continuous
 62
     7
370
    25
100
AcDbSpline
210
0.0
220
0.0
230
1.0
 70
     8
 71
     3
 72
     8
 73
     4
 74
     0
 42
0.00000001
 43
0.00000001
 40
0.0
 40
0.0
 40
0.0
 40
0.0
 40
1.0
 40
1.0
 40
1.0
 40
1.0
 10
118.7534044243773
 20
43.1084853728692
 30
0.0
 10
118.9604334877127
 20
43.05759058316838
 30
0.0
 10
119.1666735049821
 20
43.00365673380694
 30
0.0
 10
119.3722065778943
 20
42.94700004458819
 30
0.0
  0
LINE
  5
B5
330
1F
100
AcDbEntity
  8
0
  6
Continuous
 62
     7
370
    25
100
AcDbLine
 10
119.3722065779
 20
39.5911179897
 30
0.0
 11
119.3722065779
 21
42.9470000446
 31
0.0
  0
SPLINE
  5
B6
330
1F
100
AcDbEntity
  8
0
  6
Continuous
 62
     7
370
    25
100
AcDbSpline
210
0.0
220
0.0
230
1.0
 70
     8
 71
     3
 72
    10
 73
     6
 74
     0
 42
0.00000001
 43
0.00000001
 40
0.0
 40
0.0
 40
0.0
 40
0.0
 40
0.5
 40
0.5
 40
1.0
 40
1.0
 40
1.0
 40
1.0
 10
114.7534044243773
 20
38.91339658444319
 30
0.0
 10
115.5289843609843
 20
38.91339658444319
 30
0.0
 10
116.3026745797107
 20
38.97568094642171
 30
0.0
 10
117.8467091220436
 20
39.21052906442873
 30
0.0
 10
118.6200177981984
 20
39.38377167155993
 30
0.0
 10
119.3722065778943
 20
39.59111798970338
 30
0.0
  0
ARC
  5
B7
330
1F
100
AcDbEntity
  8
0
  6
Continuous
 62
     7
370
    25
100
AcDbCircle
 10
116.3041357801
 20
50.3364775911
 30
0.0
 40
0.889000000000007
100
AcDbArc
 50
45.0
 51
315.0
  0
LINE
  5
B8
330
1F
100
AcDbEntity
  8
0
  6
Continuous
 62
     7
370
    25
100
AcDbLine
 10
116.9327537086
 20
50.9650955196
 30
0.0
 11
117.3993640942
 21
51.4317059052
 31
0.0
  0
ARC
  5
B9
330
1F
100
AcDbEntity
  8
0
  6
Continuous
 62
     7
370
    25
100
AcDbCircle
 10
116.3041357801
 20
50.3364775911
 30
0.0
 40
1.548886735692394
100
AcDbArc
 50
45.0
 51
315.0
  0
LINE
  5
BA
330
1F
100
AcDbEntity
  8
0
  6
Continuous
 62
     7
370
    25
100
AcDbLine
 10
117.3993640942
 20
49.241249277
 30
0.0
 11
116.9327537086
 21
49.7078596627
 31
0.0
  0
ARC
  5
BB
330
1F
100
AcDbEntity
  8
0
  6
Continuous
 62
     7
370
    25
100
AcDbCircle
 10
119.6462803765
 20
50.3364775911
 30
0.0
 40
0.8889999999999868
100
AcDbArc
 50
45.0
 51
159.0751675724
  0
LINE
  5
BC
330
1F
100
AcDbEntity
  8
0
  6
Continuous
 62
     7
370
    25
100
AcDbLine
 10
120.2748983049
 20
50.9650955196
 30
0.0
 11
120.7415086906
 21
51.4317059052
 31
0.0
  0
ARC
  5
BD
330
1F
100
AcDbEntity
  8
0
  6
Continuous
 62
     7
370
    25
100
AcDbCircle
 10
119.6462803765
 20
50.3364775911
 30
0.0
 40
1.548886735692379
100
AcDbArc
 50
45.0
 51
315.0
  0
LINE
  5
BE
330
1F
100
AcDbEntity
  8
0
  6
Continuous
 62
     7
370
    25
100
AcDbLine
 10
120.7415086906
 20
49.241249277
 30
0.0
 11
120.2748983049
 21
49.7078596627
 31
0.0
  0
ARC
  5
BF
330
1F
100
AcDbEntity
  8
0
  6
Continuous
 62
     7
370
    25
100
AcDbCircle
 10
119.6462803765
 20
50.3364775911
 30
0.0
 40
0.8890000000000032
100
AcDbArc
 50
200.9248324276
 51
315.0
  0
LINE
  5
C0
330
1F
100
AcDbEntity
  8
0
  6
Continuous
 62
     7
370
    25
100
AcDbLine
 10
118.8159101277
 20
50.0189775911
 30
0.0
 11
120.7415086906
 21
50.0189775911
 31
0.0
  0
LINE
  5
C1
330
1F
100
AcDbEntity
  8
0
  6
Continuous
 62
     7
370
    25
100
AcDbLine
 10
120.7415086906
 20
50.0189775911
 30
0.0
 11
120.7415086906
 21
50.6539775911
 31
0.0
  0
LINE
  5
C2
330
1F
100
AcDbEntity
  8
0
  6
Continuous
 62
     7
370
    25
100
AcDbLine
 10
120.7415086906
 20
50.6539775911
 30
0.0
 11
118.8159101277
 21
50.6539775911
 31
0.0
  0
LINE
  5
C3
330
1F
100
AcDbEntity
  8
0
  6
Continuous
 62
     7
370
    25
100
AcDbLine
 10
113.8516455104
 20
49.4910235668
 30
0.0
 11
113.8099951911
 21
49.467218637
 31
0.0
  0
ELLIPSE
  5
C4
330
1F
100
AcDbEntity
  8
0
  6
Continuous
 62
     7
370
    25
100
AcDbEllipse
 10
113.4611520116
 20
50.0219011082
 30
0.0
 11
0.678412947925267
 21
6.110667527536863E-13
 31
0.0
210
0.0
220
0.0
230
1.0
 40
0.9533039403
 41
3.470145824140278
 42
5.252469180536304
  0
LINE
  5
C5
330
1F
100
AcDbEntity
  8
0
  6
Continuous
 62
     7
370
    25
100
AcDbLine
 10
112.8190272446
 20
49.8132169933
 30
0.0
 11
111.5593730396
 21
53.3356613899
 31
0.0
  0
ELLIPSE
  5
C6
330
1F
100
AcDbEntity
  8
0
  6
Continuous
 62
     7
370
    25
100
AcDbEllipse
 10
110.9683904817
 20
53.0733221538
 30
0.0
 11
0.6519124952381503
 21
6.110667527536862E-13
 31
0.0
210
0.0
220
0.0
230
1.0
 40
0.9533023292
 41
0.4357905044354973
 42
2.705800116361513
  0
LINE
  5
C7
330
1F
100
AcDbEntity
  8
0
  6
Continuous
 62
     7
370
    25
100
AcDbLine
 10
110.3774084832
 20
53.3356625351
 30
0.0
 11
109.1180436815
 21
49.8140391334
 31
0.0
  0
ELLIPSE
  5
C8
330
1F
100
AcDbEntity
  8
0
  6
Continuous
 62
     7
370
    25
100
AcDbEllipse
 10
108.4759224975
 20
50.0227219671
 30
0.0
 11
-0.6784085062757725
 21
3.268496584496461E-13
 31
0.0
210
0.0
220
0.0
230
1.0
 40
0.9533122623
 41
1.047193771187957
 42
2.813042320199941
  0
LINE
  5
C9
330
1F
100
AcDbEntity
  8
0
  6
Continuous
 62
     7
370
    25
100
AcDbLine
 10
108.1367160236
 20
49.4626341218
 30
0.0
 11
108.085135453
 21
49.4910235668
 31
0.0
  0
LINE
  5
CA
330
1F
100
AcDbEntity
  8
0
  6
Continuous
 62
     7
370
    25
100
AcDbLine
 10
108.085135453
 20
49.4910235668
 30
0.0
 11
108.8814041126
 21
47.9728514654
 31
0.0
  0
ELLIPSE
  5
CB
330
1F
100
AcDbEntity
  8
0
  6
Continuous
 62
     7
370
    25
100
AcDbEllipse
 10
108.957252986
 20
48.0090049804
 30
0.0
 11
0.08480161849065837
 21
-2.131628207280301E-14
 31
0.0
210
0.0
220
0.0
230
1.0
 40
0.9533039403
 41
3.605240262590865
 42
5.462183310215296
  0
ELLIPSE
  5
CC
330
1F
100
AcDbEntity
  8
0
  6
Continuous
 62
     7
370
    25
100
AcDbEllipse
 10
110.9683904817
 20
45.9501563598
 30
0.0
 11
2.866293551216202
 21
-1.485034317738609E-12
 31
0.0
210
0.0
220
0.0
230
1.0
 40
0.9533046568
 41
0.8210016221243791
 42
2.32059103146644
  0
ELLIPSE
  5
CD
330
1F
100
AcDbEntity
  8
0
  6
Continuous
 62
     7
370
    25
100
AcDbEllipse
 10
112.9795279774
 20
48.0090049804
 30
0.0
 11
0.08480161849060153
 21
-7.105427357601002E-15
 31
0.0
210
0.0
220
0.0
230
1.0
 40
0.9533039403
 41
3.962594650556611
 42
5.819537698177331
  0
LINE
  5
CE
330
1F
100
AcDbEntity
  8
0
  6
Continuous
 62
     7
370
    25
100
AcDbLine
 10
113.0553768509
 20
47.9728514654
 30
0.0
 11
113.8516455104
 21
49.4910235668
 31
0.0
  0
LINE
  5
CF
330
1F
100
AcDbEntity
  8
0
  6
Continuous
 62
     7
370
    25
100
AcDbLine
 10
121.2696405014
 20
46.9133965844
 30
0.0
 11
118.7534044244
 21
46.9133965844
 31
0.0
  0
LINE
  5
D0
330
1F
100
AcDbEntity
  8
0
  6
Continuous
 62
     7
370
    25
100
AcDbLine
 10
118.7534044244
 20
43.1084853729
 30
0.0
 11
118.7534044244
 21
46.9133965844
 31
0.0
  0
LINE
  5
D1
330
1F
100
AcDbEntity
  8
0
  6
Continuous
 62
     7
370
    25
100
AcDbLine
 10
110.7534044244
 20
46.9133965844
 30
0.0
 11
108.2371683474
 21
46.9133965844
 31
0.0
  0
LINE
  5
D2
330
1F
100
AcDbEntity
  8
0
  6
Continuous
 62
     7
370
    25
100
AcDbLine
 10
121.2696405014
 20
54.9133965844
 30
0.0
 11
108.2371683474
 21
54.9133965844
 31
0.0
  0
LINE
  5
D3
330
1F
100
AcDbEntity
  8
0
  6
Continuous
 62
     7
370
    25
100
AcDbLine
 10
110.7534044244
 20
43.1084853729
 30
0.0
 11
110.7534044244
 21
46.9133965844
 31
0.0
  0
LINE
  5
D4
330
1F
100
AcDbEntity
  8
0
  6
Continuous
 62
     7
370
    25
100
AcDbLine
 10
120.7534044244
 20
58.2746125166
 30
0.0
 11
120.7534044244
 21
54.9133965844
 31
0.0
  0
SPLINE
  5
D5
330
1F
100
AcDbEntity
  8
0
  6
Continuous
 62
     7
370
    25
100
AcDbSpline
210
0.0
220
0.0
230
1.0
 70
     8
 71
     3
 72
    10
 73
     6
 74
     0
 42
0.00000001
 43
0.00000001
 40
0.0
 40
0.0
 40
0.0
 40
0.0
 40
0.5
 40
0.5
 40
1.0
 40
1.0
 40
1.0
 40
1.0
 10
121.4311258296375
 20
55.96521143985239
 30
0.0
 10
121.2227050768201
 20
56.34325468925455
 30
0.0
 10
121.0522412415427
 20
56.72402419405041
 30
0.0
 10
120.8172588066043
 20
57.49317271960795
 30
0.0
 10
120.7534044243773
 20
57.88159944778319
 30
0.0
 10
120.7534044243773
 20
58.27461251661092
 30
0.0
  0
SPLINE
  5
D6
330
1F
100
AcDbEntity
  8
0
  6
Continuous
 62
     7
370
    25
100
AcDbSpline
210
0.0
220
0.0
230
1.0
 70
     8
 71
     3
 72
    10
 73
     6
 74
     0
 42
0.00000001
 43
0.00000001
 40
0.0
 40
0.0
 40
0.0
 40
0.0
 40
0.5
 40
0.5
 40
1.0
 40
1.0
 40
1.0
 40
1.0
 10
121.4311258296375
 20
55.5321987379602
 30
0.0
 10
121.4548012240619
 20
55.61808579976265
 30
0.0
 10
121.4678923339466
 20
55.70549300874276
 30
0.0
 10
121.4679786552348
 20
55.85812945133649
 30
0.0
 10
121.454809721291
 20
55.92225249628207
 30
0.0
 10
121.4311258296375
 20
55.96521143985238
 30
0.0
  0
SPLINE
  5
D7
330
1F
100
AcDbEntity
  8
0
  6
Continuous
 62
     7
370
    25
100
AcDbSpline
210
0.0
220
0.0
230
1.0
 70
     8
 71
     3
 72
     8
 73
     4
 74
     0
 42
0.00000001
 43
0.00000001
 40
0.0
 40
0.0
 40
0.0
 40
0.0
 40
1.0
 40
1.0
 40
1.0
 40
1.0
 10
120.8747879158735
 20
44.50327505111795
 30
0.0
 10
120.8336726402322
 20
44.63930544560749
 30
0.0
 10
120.7931836573644
 20
44.77600951024493
 30
0.0
 10
120.7534044243773
 20
44.91339658444318
 30
0.0
  0
LINE
  5
D8
330
1F
100
AcDbEntity
  8
0
  6
Continuous
 62
     7
370
    25
100
AcDbLine
 10
120.7534044244
 20
46.9133965844
 30
0.0
 11
120.7534044244
 21
44.9133965844
 31
0.0
  0
SPLINE
  5
D9
330
1F
100
AcDbEntity
  8
0
  6
Continuous
 62
     7
370
    25
100
AcDbSpline
210
0.0
220
0.0
230
1.0
 70
     8
 71
     3
 72
    10
 73
     6
 74
     0
 42
0.00000001
 43
0.00000001
 40
0.0
 40
0.0
 40
0.0
 40
0.0
 40
0.5
 40
0.5
 40
1.0
 40
1.0
 40
1.0
 40
1.0
 10
121.4311258296343
 20
45.86158172903396
 30
0.0
 10
121.4548012240586
 20
45.90452525993512
 30
0.0
 10
121.4678923339465
 20
45.96796770455891
 30
0.0
 10
121.4679786552349
 20
46.120446541678
 30
0.0
 10
121.454809721291
 20
46.20867654378542
 30
0.0
 10
121.4311258296375
 20
46.29459443092617
 30
0.0
  0
SPLINE
  5
DA
330
1F
100
AcDbEntity
  8
0
  6
Continuous
 62
     7
370
    25
100
AcDbSpline
210
0.0
220
0.0
230
1.0
 70
     8
 71
     3
 72
     8
 73
     4
 74
     0
 42
0.00000001
 43
0.00000001
 40
0.0
 40
0.0
 40
0.0
 40
0.0
 40
1.0
 40
1.0
 40
1.0
 40
1.0
 10
120.8747879158735
 20
44.50327505111795
 30
0.0
 10
120.9904205259026
 20
44.96182598317571
 30
0.0
 10
121.184309930723
 20
45.41389557893395
 30
0.0
 10
121.4311258296374
 20
45.86158172903371
 30
0.0
  0
LINE
  5
DB
330
1F
100
AcDbEntity
  8
0
  6
Continuous
 62
     7
370
    25
100
AcDbLine
 10
125.9313454518
 20
45.861581729
 30
0.0
 11
121.4311258296
 21
45.861581729
 31
0.0
  0
SPLINE
  5
DC
330
1F
100
AcDbEntity
  8
0
  6
Continuous
 62
     7
370
    25
100
AcDbSpline
210
0.0
220
0.0
230
1.0
 70
     8
 71
     3
 72
    10
 73
     6
 74
     0
 42
0.00000001
 43
0.00000001
 40
0.0
 40
0.0
 40
0.0
 40
0.0
 40
0.5
 40
0.5
 40
1.0
 40
1.0
 40
1.0
 40
1.0
 10
125.9313454518196
 20
46.29459443092617
 30
0.0
 10
125.9076700573952
 20
46.20870736912372
 30
0.0
 10
125.8945789475107
 20
46.12130016014358
 30
0.0
 10
125.8944926262224
 20
45.96866371754985
 30
0.0
 10
125.9076615601663
 20
45.90454067260427
 30
0.0
 10
125.9313454518197
 20
45.86158172903396
 30
0.0
  0
SPLINE
  5
DD
330
1F
100
AcDbEntity
  8
0
  6
Continuous
 62
     7
370
    25
100
AcDbSpline
210
0.0
220
0.0
230
1.0
 70
     8
 71
     3
 72
    10
 73
     6
 74
     0
 42
0.00000001
 43
0.00000001
 40
0.0
 40
0.0
 40
0.0
 40
0.0
 40
0.5
 40
0.5
 40
1.0
 40
1.0
 40
1.0
 40
1.0
 10
125.9313454518197
 20
55.96521143985242
 30
0.0
 10
125.9076700573953
 20
55.92226790895119
 30
0.0
 10
125.8945789475107
 20
55.85882546432706
 30
0.0
 10
125.8944926262224
 20
55.70634662720809
 30
0.0
 10
125.9076615601662
 20
55.61811662510082
 30
0.0
 10
125.9313454518197
 20
55.5321987379602
 30
0.0
  0
SPLINE
  5
DE
330
1F
100
AcDbEntity
  8
0
  6
Continuous
 62
     7
370
    25
100
AcDbSpline
210
0.0
220
0.0
230
1.0
 70
     8
 71
     3
 72
    16
 73
    12
 74
     0
 42
0.00000001
 43
0.00000001
 40
0.0
 40
0.0
 40
0.0
 40
0.0
 40
0.2500000000000001
 40
0.2500000000000001
 40
0.5000000000000001
 40
0.5000000000000001
 40
0.6250000000000001
 40
0.6250000000000001
 40
0.7500000000000002
 40
0.7500000000000002
 40
1.0
 40
1.0
 40
1.0
 40
1.0
 10
125.9313454518197
 20
60.58401359336942
 30
0.0
 10
126.1393608999255
 20
60.20670550449292
 30
0.0
 10
126.3095672048985
 20
59.82668177411873
 30
0.0
 10
126.5445032364661
 20
59.05905845870803
 30
0.0
 10
126.6085753681297
 20
58.67141164191924
 30
0.0
 10
126.6093083170507
 20
58.08309109003139
 30
0.0
 10
126.5936488369677
 20
57.88601789747574
 30
0.0
 10
126.5323737103308
 20
57.49596091992164
 30
0.0
 10
126.4868174378316
 20
57.3021680193336
 30
0.0
 10
126.3103314050754
 20
56.72408703457018
 30
0.0
 10
126.1396749515897
 20
56.34308917023535
 30
0.0
 10
125.9313454518197
 20
55.96521143985242
 30
0.0
  0
SPLINE
  5
DF
330
1F
100
AcDbEntity
  8
0
  6
Continuous
 62
     7
370
    25
100
AcDbSpline
210
0.0
220
0.0
230
1.0
 70
     8
 71
     3
 72
    10
 73
     6
 74
     0
 42
0.00000001
 43
0.00000001
 40
0.0
 40
0.0
 40
0.0
 40
0.0
 40
0.1601790552921226
 40
0.7197651707803578
 40
1.0
 40
1.0
 40
1.0
 40
1.0
 10
125.8971160187028
 20
60.64629187211916
 30
0.0
 10
125.8963532286096
 20
60.64768410014554
 30
0.0
 10
125.8929256285358
 20
60.65394008187386
 30
0.0
 10
125.9074330933341
 20
60.62743281714596
 30
0.0
 10
125.925362646452
 20
60.59487696200079
 30
0.0
 10
125.9313454518197
 20
60.58401359336942
 30
0.0
  0
SPLINE
  5
E0
330
1F
100
AcDbEntity
  8
0
  6
Continuous
 62
     7
370
    25
100
AcDbSpline
210
0.0
220
0.0
230
1.0
 70
     8
 71
     3
 72
     9
 73
     5
 74
     0
 42
0.00000001
 43
0.00000001
 40
0.0
 40
0.0
 40
0.0
 40
0.0
 40
0.5797912171256352
 40
1.0
 40
1.0
 40
1.0
 40
1.0
 10
125.9313454518197
 20
41.24277957551696
 30
0.0
 10
125.9189868484733
 20
41.22030592727582
 30
0.0
 10
125.8976712386789
 20
41.181544304855
 30
0.0
 10
125.8972802961761
 20
41.1808099000968
 30
0.0
 10
125.8971160187028
 20
41.18050129676721
 30
0.0
  0
SPLINE
  5
E1
330
1F
100
AcDbEntity
  8
0
  6
Continuous
 62
     7
370
    25
100
AcDbSpline
210
0.0
220
0.0
230
1.0
 70
     8
 71
     3
 72
    16
 73
    12
 74
     0
 42
0.00000001
 43
0.00000001
 40
0.0
 40
0.0
 40
0.0
 40
0.0
 40
0.2500000000000001
 40
0.2500000000000001
 40
0.5000000000000002
 40
0.5000000000000002
 40
0.6250000000000001
 40
0.6250000000000001
 40
0.7500000000000001
 40
0.7500000000000001
 40
1.0
 40
1.0
 40
1.0
 40
1.0
 10
125.9313454518197
 20
45.86158172903396
 30
0.0
 10
126.1393608999255
 20
45.48427364015747
 30
0.0
 10
126.3095672048985
 20
45.10424990978326
 30
0.0
 10
126.5445032364661
 20
44.33662659437257
 30
0.0
 10
126.6085753681297
 20
43.94897977758377
 30
0.0
 10
126.6093083170507
 20
43.36065922569593
 30
0.0
 10
126.5936488369677
 20
43.16358603314027
 30
0.0
 10
126.5323737103308
 20
42.77352905558617
 30
0.0
 10
126.4868174378316
 20
42.57973615499814
 30
0.0
 10
126.3103314050754
 20
42.00165517023471
 30
0.0
 10
126.1396749515897
 20
41.62065730589989
 30
0.0
 10
125.9313454518197
 20
41.24277957551696
 30
0.0
  0
LINE
  5
E2
330
1F
100
AcDbEntity
  8
0
  6
Continuous
 62
     7
370
    25
100
AcDbLine
 10
126.7534044244
 20
59.1633965844
 30
0.0
 11
126.7534044244
 21
42.6633965844
 31
0.0
  0
LINE
  5
E3
330
1F
100
AcDbEntity
  8
0
  6
Continuous
 62
     7
370
    25
100
AcDbLine
 10
108.7534044244
 20
46.9133965844
 30
0.0
 11
108.7534044244
 21
44.9133965844
 31
0.0
  0
SPLINE
  5
E4
330
1F
100
AcDbEntity
  8
0
  6
Continuous
 62
     7
370
    25
100
AcDbSpline
210
0.0
220
0.0
230
1.0
 70
     8
 71
     3
 72
     8
 73
     4
 74
     0
 42
0.00000001
 43
0.00000001
 40
0.0
 40
0.0
 40
0.0
 40
0.0
 40
1.0
 40
1.0
 40
1.0
 40
1.0
 10
108.7534044243773
 20
44.91339658444318
 30
0.0
 10
108.7136257661871
 20
44.77601149544308
 30
0.0
 10
108.6731368033589
 20
44.63930741363131
 30
0.0
 10
108.6320209328812
 20
44.50327505111794
 30
0.0
  0
SPLINE
  5
E5
330
1F
100
AcDbEntity
  8
0
  6
Continuous
 62
     7
370
    25
100
AcDbSpline
210
0.0
220
0.0
230
1.0
 70
     8
 71
     3
 72
     8
 73
     4
 74
     0
 42
0.00000001
 43
0.00000001
 40
0.0
 40
0.0
 40
0.0
 40
0.0
 40
1.0
 40
1.0
 40
1.0
 40
1.0
 10
108.0756830191172
 20
45.86158172903396
 30
0.0
 10
108.3228568000011
 20
45.41324643598264
 30
0.0
 10
108.5165784683051
 20
44.96107194523905
 30
0.0
 10
108.6320209328812
 20
44.50327505111794
 30
0.0
  0
SPLINE
  5
E6
330
1F
100
AcDbEntity
  8
0
  6
Continuous
 62
     7
370
    25
100
AcDbSpline
210
0.0
220
0.0
230
1.0
 70
     8
 71
     3
 72
    10
 73
     6
 74
     0
 42
0.00000001
 43
0.00000001
 40
0.0
 40
0.0
 40
0.0
 40
0.0
 40
0.5
 40
0.5
 40
1.0
 40
1.0
 40
1.0
 40
1.0
 10
108.0756830191171
 20
46.29459443092617
 30
0.0
 10
108.0520076246927
 20
46.20870736912373
 30
0.0
 10
108.0389165148081
 20
46.1213001601436
 30
0.0
 10
108.0388301935198
 20
45.96866371754986
 30
0.0
 10
108.0519991274637
 20
45.90454067260427
 30
0.0
 10
108.0756830191172
 20
45.86158172903396
 30
0.0
  0
SPLINE
  5
E7
330
1F
100
AcDbEntity
  8
0
  6
Continuous
 62
     7
370
    25
100
AcDbSpline
210
0.0
220
0.0
230
1.0
 70
     8
 71
     3
 72
    10
 73
     6
 74
     0
 42
0.00000001
 43
0.00000001
 40
0.0
 40
0.0
 40
0.0
 40
0.0
 40
0.5
 40
0.5
 40
1.0
 40
1.0
 40
1.0
 40
1.0
 10
109.7015895689681
 20
42.94700004458819
 30
0.0
 10
109.7445330998693
 20
42.9233246501638
 30
0.0
 10
109.8079755444935
 20
42.91023354027916
 30
0.0
 10
109.9604543816124
 20
42.91014721899088
 30
0.0
 10
110.0486843837197
 20
42.92331615293472
 30
0.0
 10
110.1346022708603
 20
42.94700004458818
 30
0.0
  0
SPLINE
  5
E8
330
1F
100
AcDbEntity
  8
0
  6
Continuous
 62
     7
370
    25
100
AcDbSpline
210
0.0
220
0.0
230
1.0
 70
     8
 71
     3
 72
    10
 73
     6
 74
     0
 42
0.00000001
 43
0.00000001
 40
0.0
 40
0.0
 40
0.0
 40
0.0
 40
0.5
 40
0.5
 40
1.0
 40
1.0
 40
1.0
 40
1.0
 10
109.7015895689681
 20
39.59111798970338
 30
0.0
 10
109.7445273780673
 20
39.61479022961494
 30
0.0
 10
109.8079679679595
 20
39.6278842195502
 30
0.0
 10
109.9604571134684
 20
39.62797108701164
 30
0.0
 10
110.0486865026717
 20
39.61480129725228
 30
0.0
 10
110.1346022708603
 20
39.59111798970338
 30
0.0
  0
LINE
  5
E9
330
1F
100
AcDbEntity
  8
0
  6
Continuous
 62
     7
370
    25
100
AcDbLine
 10
109.701589569
 20
39.5911179897
 30
0.0
 11
109.701589569
 21
42.9470000446
 31
0.0
  0
SPLINE
  5
EA
330
1F
100
AcDbEntity
  8
0
  6
Continuous
 62
     7
370
    25
100
AcDbSpline
210
0.0
220
0.0
230
1.0
 70
     8
 71
     3
 72
     8
 73
     4
 74
     0
 42
0.00000001
 43
0.00000001
 40
0.0
 40
0.0
 40
0.0
 40
0.0
 40
1.0
 40
1.0
 40
1.0
 40
1.0
 10
107.4640282397607
 20
43.62402039981446
 30
0.0
 10
107.7730453824025
 20
43.72502550764458
 30
0.0
 10
108.0883631387204
 20
43.82168229671051
 30
0.0
 10
108.4108424655635
 20
43.91339658444319
 30
0.0
  0
SPLINE
  5
EB
330
1F
100
AcDbEntity
  8
0
  6
Continuous
 62
     7
370
    25
100
AcDbSpline
210
0.0
220
0.0
230
1.0
 70
     8
 71
     3
 72
    12
 73
     8
 74
     0
 42
0.00000001
 43
0.00000001
 40
0.0
 40
0.0
 40
0.0
 40
0.0
 40
0.2500000000000002
 40
0.2500000000000002
 40
0.5000000000000004
 40
0.5000000000000004
 40
1.0
 40
1.0
 40
1.0
 40
1.0
 10
107.4640282397555
 20
43.62402039980832
 30
0.0
 10
107.6540544150587
 20
43.62031191395189
 30
0.0
 10
107.8442694777445
 20
43.60172941111422
 30
0.0
 10
108.2212062368769
 20
43.53686237414807
 30
0.0
 10
108.4085290281364
 20
43.4905968208978
 30
0.0
 10
108.9674389844505
 20
43.31487229059084
 30
0.0
 10
109.3359746425608
 20
43.14856888181409
 30
0.0
 10
109.7015895689681
 20
42.94700004458819
 30
0.0
  0
SPLINE
  5
EC
330
1F
100
AcDbEntity
  8
0
  6
Continuous
 62
     7
370
    25
100
AcDbSpline
210
0.0
220
0.0
230
1.0
 70
     8
 71
     3
 72
     8
 73
     4
 74
     0
 42
0.00000001
 43
0.00000001
 40
0.0
 40
0.0
 40
0.0
 40
0.0
 40
1.0
 40
1.0
 40
1.0
 40
1.0
 10
121.0959663831912
 20
43.91339658444319
 30
0.0
 10
121.4184457100405
 20
43.82168229670873
 30
0.0
 10
121.7337634663644
 20
43.72502550764083
 30
0.0
 10
122.0427806090119
 20
43.62402039980857
 30
0.0
  0
SPLINE
  5
ED
330
1F
100
AcDbEntity
  8
0
  6
Continuous
 62
     7
370
    25
100
AcDbSpline
210
0.0
220
0.0
230
1.0
 70
     8
 71
     3
 72
    10
 73
     6
 74
     0
 42
0.00000001
 43
0.00000001
 40
0.0
 40
0.0
 40
0.0
 40
0.0
 40
0.5
 40
0.5
 40
1.0
 40
1.0
 40
1.0
 40
1.0
 10
119.8052192797868
 20
42.94700004458834
 30
0.0
 10
120.1717372266274
 20
43.14906673013926
 30
0.0
 10
120.5408174520932
 20
43.31545950240991
 30
0.0
 10
121.2860698003206
 20
43.54950647627996
 30
0.0
 10
121.6622825722684
 20
43.61659473023879
 30
0.0
 10
122.0427806090119
 20
43.62402039980857
 30
0.0
  0
SPLINE
  5
EE
330
1F
100
AcDbEntity
  8
0
  6
Continuous
 62
     7
370
    25
100
AcDbSpline
210
0.0
220
0.0
230
1.0
 70
     8
 71
     3
 72
    10
 73
     6
 74
     0
 42
0.00000001
 43
0.00000001
 40
0.0
 40
0.0
 40
0.0
 40
0.0
 40
0.5
 40
0.5
 40
1.0
 40
1.0
 40
1.0
 40
1.0
 10
119.3722065778943
 20
42.94700004458817
 30
0.0
 10
119.4580936396969
 20
42.92332465016376
 30
0.0
 10
119.5455008486771
 20
42.91023354027912
 30
0.0
 10
119.698137291271
 20
42.91014721899091
 30
0.0
 10
119.7622603362167
 20
42.92331615293485
 30
0.0
 10
119.805219279787
 20
42.9470000445884
 30
0.0
  0
LINE
  5
EF
330
1F
100
AcDbEntity
  8
0
  6
Continuous
 62
     7
370
    25
100
AcDbLine
 10
110.6996434179
 20
50.338964728
 30
0.0
 11
111.3069917767
 21
50.338964728
 31
0.0
  0
LINE
  5
F0
330
1F
100
AcDbEntity
  8
0
  6
Continuous
 62
     7
370
    25
100
AcDbLine
 10
110.9234563607
 20
51.2575790739
 30
0.0
 11
110.6197821796
 21
50.446996457
 31
0.0
  0
ELLIPSE
  5
F1
330
1F
100
AcDbEntity
  8
0
  6
Continuous
 62
     7
370
    25
100
AcDbEllipse
 10
111.003317599
 20
51.2303890621
 30
0.0
 11
0.08480161849065837
 21
0.0
 31
0.0
210
0.0
220
0.0
230
1.0
 40
0.9533039403
 41
0.3430239404206104
 42
2.798568713169156
  0
LINE
  5
F2
330
1F
100
AcDbEntity
  8
0
  6
Continuous
 62
     7
370
    25
100
AcDbLine
 10
111.386853015
 20
50.4469964567
 30
0.0
 11
111.0831788373
 21
51.2575790739
 31
0.0
  0
ELLIPSE
  5
F3
330
1F
100
AcDbEntity
  8
0
  6
Continuous
 62
     7
370
    25
100
AcDbEllipse
 10
111.3069917767
 20
50.419806445
 30
0.0
 11
-0.08480161849065837
 21
-4.973799150320702E-14
 31
0.0
210
0.0
220
0.0
230
1.0
 40
0.9533039403
 41
1.570796326794337
 42
3.48461659214914
  0
ELLIPSE
  5
F4
330
1F
100
AcDbEntity
  8
0
  6
Continuous
 62
     7
370
    25
100
AcDbEllipse
 10
110.6996434179
 20
50.419806445
 30
0.0
 11
0.08480161849065837
 21
-7.105427357601002E-15
 31
0.0
210
0.0
220
0.0
230
1.0
 40
0.9533039403
 41
2.798568711308354
 42
4.712388980384782
  0
SPLINE
  5
F5
330
1F
100
AcDbEntity
  8
0
  6
Continuous
 62
     7
370
    25
100
AcDbSpline
210
0.0
220
0.0
230
1.0
 70
     8
 71
     3
 72
    10
 73
     6
 74
     0
 42
0.00000001
 43
0.00000001
 40
0.0
 40
0.0
 40
0.0
 40
0.0
 40
0.5
 40
0.5
 40
1.0
 40
1.0
 40
1.0
 40
1.0
 10
103.9311258296375
 20
46.29459443092617
 30
0.0
 10
103.9547997301935
 20
46.20871278841972
 30
0.0
 10
103.9678922873726
 20
46.12130358245429
 30
0.0
 10
103.9679787013549
 20
45.96866109737935
 30
0.0
 10
103.9548083097563
 20
45.90453811229698
 30
0.0
 10
103.9311258296375
 20
45.86158172903396
 30
0.0
  0
SPLINE
  5
F6
330
1F
100
AcDbEntity
  8
0
  6
Continuous
 62
     7
370
    25
100
AcDbSpline
210
0.0
220
0.0
230
1.0
 70
     8
 71
     3
 72
    12
 73
     8
 74
     0
 42
0.00000001
 43
0.00000001
 40
0.0
 40
0.0
 40
0.0
 40
0.0
 40
0.2499999999999999
 40
0.2499999999999999
 40
0.4999999999999998
 40
0.4999999999999998
 40
1.0
 40
1.0
 40
1.0
 40
1.0
 10
103.2534044243773
 20
43.55218065227545
 30
0.0
 10
103.2534044243773
 20
43.74718413228125
 30
0.0
 10
103.2691507543993
 20
43.94371879130566
 30
0.0
 10
103.3305957789847
 20
44.33313847891121
 30
0.0
 10
103.3761845382384
 20
44.52662317197147
 30
0.0
 10
103.552635540495
 20
45.10380677072708
 30
0.0
 10
103.7230932424585
 20
45.48424255251003
 30
0.0
 10
103.9311258296374
 20
45.86158172903398
 30
0.0
  0
LINE
  5
F7
330
1F
100
AcDbEntity
  8
0
  6
Continuous
 62
     7
370
    25
100
AcDbLine
 10
103.2534044244
 20
50.9133965844
 30
0.0
 11
103.2534044244
 21
43.5521806523
 31
0.0
  0
SPLINE
  5
F8
330
1F
100
AcDbEntity
  8
0
  6
Continuous
 62
     7
370
    25
100
AcDbSpline
210
0.0
220
0.0
230
1.0
 70
     8
 71
     3
 72
    10
 73
     6
 74
     0
 42
0.00000001
 43
0.00000001
 40
0.0
 40
0.0
 40
0.0
 40
0.0
 40
0.5
 40
0.5
 40
1.0
 40
1.0
 40
1.0
 40
1.0
 10
103.9311258296375
 20
55.96521143985242
 30
0.0
 10
103.9547980695491
 20
55.92227363075318
 30
0.0
 10
103.9678920594843
 20
55.85883304086098
 30
0.0
 10
103.9679789269458
 20
55.70634389535214
 30
0.0
 10
103.9548091371864
 20
55.61811450614883
 30
0.0
 10
103.9311258296375
 20
55.5321987379602
 30
0.0
  0
LINE
  5
F9
330
1F
100
AcDbEntity
  8
0
  6
Continuous
 62
     7
370
    25
100
AcDbLine
 10
103.9311258296
 20
55.9652114399
 30
0.0
 11
108.0756830191
 21
55.9652114399
 31
0.0
  0
SPLINE
  5
FA
330
1F
100
AcDbEntity
  8
0
  6
Continuous
 62
     7
370
    25
100
AcDbSpline
210
0.0
220
0.0
230
1.0
 70
     8
 71
     3
 72
    10
 73
     6
 74
     0
 42
0.00000001
 43
0.00000001
 40
0.0
 40
0.0
 40
0.0
 40
0.0
 40
0.5
 40
0.5
 40
1.0
 40
1.0
 40
1.0
 40
1.0
 10
119.3722065778943
 20
39.59111798970338
 30
0.0
 10
119.4580882204008
 20
39.61479189025933
 30
0.0
 10
119.5454974263662
 20
39.62788444743847
 30
0.0
 10
119.6981399114412
 20
39.62797086142075
 30
0.0
 10
119.7622628965235
 20
39.61480046982213
 30
0.0
 10
119.8052192797866
 20
39.59111798970338
 30
0.0
  0
SPLINE
  5
FB
330
1F
100
AcDbEntity
  8
0
  6
Continuous
 62
     7
370
    25
100
AcDbSpline
210
0.0
220
0.0
230
1.0
 70
     8
 71
     3
 72
    12
 73
     8
 74
     0
 42
0.00000001
 43
0.00000001
 40
0.0
 40
0.0
 40
0.0
 40
0.0
 40
0.2499999999999998
 40
0.2499999999999998
 40
0.4999999999999996
 40
0.4999999999999996
 40
1.0
 40
1.0
 40
1.0
 40
1.0
 10
122.114620356545
 20
38.91339658444319
 30
0.0
 10
121.9196168765393
 20
38.91339658444318
 30
0.0
 10
121.7230822175148
 20
38.92914291446515
 30
0.0
 10
121.3336625299093
 20
38.99058793905057
 30
0.0
 10
121.140177836849
 20
39.0361766983043
 30
0.0
 10
120.5629942380934
 20
39.2126277005609
 30
0.0
 10
120.1825584563105
 20
39.38308540252439
 30
0.0
 10
119.8052192797865
 20
39.59111798970323
 30
0.0
  0
LINE
  5
FC
330
1F
100
AcDbEntity
  8
0
  6
Continuous
 62
     7
370
    25
100
AcDbLine
 10
114.7534044244
 20
38.9133965844
 30
0.0
 11
122.1146203565
 21
38.9133965844
 31
0.0
  0
LINE
  5
FD
330
1F
100
AcDbEntity
  8
0
  6
Continuous
 62
     7
370
    25
100
AcDbLine
 10
119.8052192798
 20
42.9470000446
 30
0.0
 11
119.8052192798
 21
39.5911179897
 31
0.0
  0
LINE
  5
FE
330
1F
100
AcDbEntity
  8
0
  6
Continuous
 62
     7
370
    25
100
AcDbLine
 10
121.4311258296
 20
55.9652114399
 30
0.0
 11
125.9313454518
 21
55.9652114399
 31
0.0
  0
LINE
  5
FF
330
1F
100
AcDbEntity
  8
0
  6
Continuous
 62
     7
370
    25
100
AcDbLine
 10
108.0756830191
 20
45.861581729
 30
0.0
 11
103.9311258296
 21
45.861581729
 31
0.0
  0
LINE
  5
100
330
1F
100
AcDbEntity
  8
0
  6
Continuous
 62
     7
370
    25
100
AcDbLine
 10
107.3921884922
 20
38.9133965844
 30
0.0
 11
114.7534044244
 21
38.9133965844
 31
0.0
  0
SPLINE
  5
101
330
1F
100
AcDbEntity
  8
0
  6
Continuous
 62
     7
370
    25
100
AcDbSpline
210
0.0
220
0.0
230
1.0
 70
     8
 71
     3
 72
    10
 73
     6
 74
     0
 42
0.00000001
 43
0.00000001
 40
0.0
 40
0.0
 40
0.0
 40
0.0
 40
0.5
 40
0.5
 40
1.0
 40
1.0
 40
1.0
 40
1.0
 10
109.7015895689681
 20
39.59111798970291
 30
0.0
 10
109.3228404215768
 20
39.38230806503665
 30
0.0
 10
108.9416351451655
 20
39.2117739252894
 30
0.0
 10
108.1724045239778
 20
38.97698812027048
 30
0.0
 10
107.7843368191794
 20
38.91339658444318
 30
0.0
 10
107.3921884922096
 20
38.91339658444319
 30
0.0
  0
SPLINE
  5
102
330
1F
100
AcDbEntity
  8
0
  6
Continuous
 62
     7
370
    25
100
AcDbSpline
210
0.0
220
0.0
230
1.0
 70
     8
 71
     3
 72
    10
 73
     6
 74
     0
 42
0.00000001
 43
0.00000001
 40
0.0
 40
0.0
 40
0.0
 40
0.0
 40
0.5
 40
0.5
 40
1.0
 40
1.0
 40
1.0
 40
1.0
 10
103.9311258296371
 20
55.96521143985238
 30
0.0
 10
103.7223159049708
 20
56.34396058724368
 30
0.0
 10
103.5517817652236
 20
56.72516586365497
 30
0.0
 10
103.3169959602046
 20
57.49439648484276
 30
0.0
 10
103.2534044243773
 20
57.88246418964108
 30
0.0
 10
103.2534044243773
 20
58.27461251661092
 30
0.0
  0
LINE
  5
103
330
1F
100
AcDbEntity
  8
0
  6
Continuous
 62
     7
370
    25
100
AcDbLine
 10
103.2534044244
 20
50.9133965844
 30
0.0
 11
103.2534044244
 21
58.2746125166
 31
0.0
  0
SPLINE
  5
104
330
1F
100
AcDbEntity
  8
0
  6
Continuous
 62
     7
370
    25
100
AcDbSpline
210
0.0
220
0.0
230
1.0
 70
     8
 71
     3
 72
    12
 73
     8
 74
     0
 42
0.00000001
 43
0.00000001
 40
0.0
 40
0.0
 40
0.0
 40
0.0
 40
0.2499999999999999
 40
0.2499999999999999
 40
0.4999999999999998
 40
0.4999999999999998
 40
1.0
 40
1.0
 40
1.0
 40
1.0
 10
120.7534044243773
 20
58.27461251661092
 30
0.0
 10
120.7534044243773
 20
58.47035477949044
 30
0.0
 10
120.7692473604663
 20
58.66702138868099
 30
0.0
 10
120.830750220704
 20
59.05628961600927
 30
0.0
 10
120.8763538617476
 20
59.24969364896219
 30
0.0
 10
121.0528048792369
 20
59.82662270021896
 30
0.0
 10
121.2232022464887
 20
60.20687213342196
 30
0.0
 10
121.4311258296375
 20
60.58401359336942
 30
0.0
  0
LINE
  5
105
330
1F
100
AcDbEntity
  8
0
  6
Continuous
 62
     7
370
    25
100
AcDbLine
 10
125.9313454518
 20
60.5840135934
 30
0.0
 11
121.4311258296
 21
60.5840135934
 31
0.0
  0
ELLIPSE
  5
106
330
1F
100
AcDbEntity
  8
0
  6
Continuous
 62
     7
370
    25
100
AcDbEllipse
 10
114.7534044244
 20
41.0984420082
 30
0.0
 11
8.500000000000014
 21
0.0
 31
0.0
210
0.0
220
0.0
230
1.0
 40
0.5773502692
 41
2.374833212873084
 42
2.530692279913057
  0
LINE
  5
107
330
1F
100
AcDbEntity
  8
0
  6
Continuous
 62
     7
370
    25
100
AcDbLine
 10
107.4640282398
 20
43.6240203998
 30
0.0
 11
105.0827874155
 21
41.2427795755
 31
0.0
  0
LINE
  5
108
330
1F
100
AcDbEntity
  8
0
  6
Continuous
 62
     7
370
    25
100
AcDbLine
 10
103.9311258296
 20
41.2427795755
 30
0.0
 11
105.0827874155
 21
41.2427795755
 31
0.0
  0
SPLINE
  5
109
330
1F
100
AcDbEntity
  8
0
  6
Continuous
 62
     7
370
    25
100
AcDbSpline
210
0.0
220
0.0
230
1.0
 70
     8
 71
     3
 72
    10
 73
     6
 74
     0
 42
0.00000001
 43
0.00000001
 40
0.0
 40
0.0
 40
0.0
 40
0.0
 40
0.5
 40
0.5
 40
1.0
 40
1.0
 40
1.0
 40
1.0
 10
103.9311258296371
 20
41.24277957551692
 30
0.0
 10
103.7223159049708
 20
41.62152872290821
 30
0.0
 10
103.5517817652236
 20
42.00273399931952
 30
0.0
 10
103.3169959602046
 20
42.77196462050729
 30
0.0
 10
103.2534044243773
 20
43.16003232530561
 30
0.0
 10
103.2534044243773
 20
43.55218065227545
 30
0.0
  0
ELLIPSE
  5
10A
330
1F
100
AcDbEntity
  8
0
  6
Continuous
 62
     7
370
    25
100
AcDbEllipse
 10
114.7534044244
 20
41.0984420082
 30
0.0
 11
8.500000000000014
 21
0.0
 31
0.0
210
0.0
220
0.0
230
1.0
 40
0.5773502692
 41
0.6109003736767337
 42
0.7667594407167073
  0
LINE
  5
10B
330
1F
100
AcDbEntity
  8
0
  6
Continuous
 62
     7
370
    25
100
AcDbLine
 10
124.4240214333
 20
41.2427795755
 30
0.0
 11
125.9313454518
 21
41.2427795755
 31
0.0
  0
LINE
  5
10C
330
1F
100
AcDbEntity
  8
0
  6
Continuous
 62
     7
370
    25
100
AcDbLine
 10
124.4240214333
 20
41.2427795755
 30
0.0
 11
122.042780609
 21
43.6240203998
 31
0.0
  0
SPLINE
  5
10D
330
1F
100
AcDbEntity
  8
0
  6
Continuous
 62
     7
370
    25
100
AcDbSpline
210
0.0
220
0.0
230
1.0
 70
     8
 71
     3
 72
    12
 73
     8
 74
     0
 42
0.00000001
 43
0.00000001
 40
0.0
 40
0.0
 40
0.0
 40
0.0
 40
0.2500000000000002
 40
0.2500000000000002
 40
0.5000000000000001
 40
0.5000000000000001
 40
1.0
 40
1.0
 40
1.0
 40
1.0
 10
107.3921884922096
 20
38.91339658444319
 30
0.0
 10
107.1971850122038
 20
38.91339658444319
 30
0.0
 10
107.0006503531794
 20
38.92914291446515
 30
0.0
 10
106.6112306655738
 20
38.99058793905057
 30
0.0
 10
106.4177459725136
 20
39.0361766983043
 30
0.0
 10
105.840562373758
 20
39.21262770056089
 30
0.0
 10
105.460126591975
 20
39.38308540252439
 30
0.0
 10
105.0827874154511
 20
39.59111798970323
 30
0.0
  0
LINE
  5
10E
330
1F
100
AcDbEntity
  8
0
  6
Continuous
 62
     7
370
    25
100
AcDbLine
 10
105.0827874155
 20
41.2427795755
 30
0.0
 11
105.0827874155
 21
39.5911179897
 31
0.0
  0
LINE
  5
10F
330
1F
100
AcDbEntity
  8
0
  6
Continuous
 62
     7
370
    25
100
AcDbLine
 10
124.4240214333
 20
39.5911179897
 30
0.0
 11
124.4240214333
 21
41.2427795755
 31
0.0
  0
SPLINE
  5
110
330
1F
100
AcDbEntity
  8
0
  6
Continuous
 62
     7
370
    25
100
AcDbSpline
210
0.0
220
0.0
230
1.0
 70
     8
 71
     3
 72
    10
 73
     6
 74
     0
 42
0.00000001
 43
0.00000001
 40
0.0
 40
0.0
 40
0.0
 40
0.0
 40
0.5
 40
0.5
 40
1.0
 40
1.0
 40
1.0
 40
1.0
 10
124.4240214333036
 20
39.59111798970291
 30
0.0
 10
124.0452722859123
 20
39.38230806503665
 30
0.0
 10
123.664067009501
 20
39.21177392528941
 30
0.0
 10
122.8948363883132
 20
38.97698812027048
 30
0.0
 10
122.5067686835149
 20
38.91339658444319
 30
0.0
 10
122.114620356545
 20
38.91339658444319
 30
0.0
  0
SPLINE
  5
111
330
1F
100
AcDbEntity
  8
0
  6
Continuous
 62
     7
370
    25
100
AcDbSpline
210
0.0
220
0.0
230
1.0
 70
     8
 71
     3
 72
    12
 73
     8
 74
     0
 42
0.00000001
 43
0.00000001
 40
0.0
 40
0.0
 40
0.0
 40
0.0
 40
0.2499999999999999
 40
0.2499999999999999
 40
0.5
 40
0.5
 40
1.0
 40
1.0
 40
1.0
 40
1.0
 10
103.2534044243773
 20
58.27461251661092
 30
0.0
 10
103.2534044243773
 20
58.46961599661672
 30
0.0
 10
103.2691507543993
 20
58.66615065564113
 30
0.0
 10
103.3305957789847
 20
59.05557034324668
 30
0.0
 10
103.3761845382384
 20
59.24905503630693
 30
0.0
 10
103.552635540495
 20
59.82623863506254
 30
0.0
 10
103.7230932424585
 20
60.20667441684549
 30
0.0
 10
103.9311258296374
 20
60.58401359336943
 30
0.0
  0
LINE
  5
112
330
1F
100
AcDbEntity
  8
0
  6
Continuous
 62
     7
370
    25
100
AcDbLine
 10
108.0756830191
 20
60.5840135934
 30
0.0
 11
103.9311258296
 21
60.5840135934
 31
0.0
  0
SPLINE
  5
113
330
1F
100
AcDbEntity
  8
0
  6
Continuous
 62
     7
370
    25
100
AcDbSpline
210
0.0
220
0.0
230
1.0
 70
     8
 71
     3
 72
    10
 73
     6
 74
     0
 42
0.00000001
 43
0.00000001
 40
0.0
 40
0.0
 40
0.0
 40
0.0
 40
0.5
 40
0.5
 40
1.0
 40
1.0
 40
1.0
 40
1.0
 10
108.0756830191171
 20
60.58401359336944
 30
0.0
 10
108.2841037719346
 20
60.20597034396728
 30
0.0
 10
108.454567607212
 20
59.82520083917144
 30
0.0
 10
108.6895500421504
 20
59.05605231361389
 30
0.0
 10
108.7534044243773
 20
58.66762558543865
 30
0.0
 10
108.7534044243773
 20
58.27461251661092
 30
0.0
  0
LINE
  5
114
330
1F
100
AcDbEntity
  8
0
  6
Continuous
 62
     7
370
    25
100
AcDbLine
 10
110.7534044244
 20
46.9133965844
 30
0.0
 11
108.7534044244
 21
44.9133965844
 31
0.0
  0
LINE
  5
115
330
1F
100
AcDbEntity
  8
0
  6
Continuous
 62
     7
370
    25
100
AcDbLine
 10
107.7907833517
 20
43.9133965844
 30
0.0
 11
110.7534044244
 21
43.9133965844
 31
0.0
  0
LINE
  5
116
330
1F
100
AcDbEntity
  8
0
  6
Continuous
 62
     7
370
    25
100
AcDbLine
 10
120.7534044244
 20
44.9133965844
 30
0.0
 11
118.7534044244
 21
46.9133965844
 31
0.0
  0
LINE
  5
117
330
1F
100
AcDbEntity
  8
0
  6
Continuous
 62
     7
370
    25
100
AcDbLine
 10
118.7534044244
 20
43.9133965844
 30
0.0
 11
121.716025497
 21
43.9133965844
 31
0.0
  0
LINE
  5
118
330
1F
100
AcDbEntity
  8
0
  6
Continuous
 62
     7
370
    25
100
AcDbLine
 10
108.7534044244
 20
58.8478510627
 30
0.0
 11
108.7534044244
 21
58.2746125166
 31
0.0
  0
SPLINE
  5
119
330
1F
100
AcDbEntity
  8
0
  6
Continuous
 62
     7
370
    25
100
AcDbSpline
210
0.0
220
0.0
230
1.0
 70
     8
 71
     3
 72
    32
 73
    28
 74
     0
 42
0.00000001
 43
0.00000001
 40
0.0
 40
0.0
 40
0.0
 40
0.0
 40
0.0625000000000001
 40
0.0625000000000001
 40
0.1250000000000001
 40
0.1250000000000001
 40
0.1875000000000002
 40
0.1875000000000002
 40
0.2500000000000003
 40
0.2500000000000003
 40
0.3750000000000003
 40
0.3750000000000003
 40
0.4375000000000003
 40
0.4375000000000003
 40
0.5000000000000002
 40
0.5000000000000002
 40
0.5625000000000002
 40
0.5625000000000002
 40
0.6250000000000001
 40
0.6250000000000001
 40
0.7500000000000001
 40
0.7500000000000001
 40
0.8750000000000002
 40
0.8750000000000002
 40
0.9375000000000001
 40
0.9375000000000001
 40
1.0
 40
1.0
 40
1.0
 40
1.0
 10
120.7534044243689
 20
58.84785106266384
 30
0.0
 10
120.596548088452
 20
58.75289408476814
 30
0.0
 10
120.4235496542963
 20
58.65014091014297
 30
0.0
 10
120.0468450676705
 20
58.43342970849469
 30
0.0
 10
119.8439922872139
 20
58.32001099800468
 30
0.0
 10
119.4180110244112
 20
58.09192086130651
 30
0.0
 10
119.1938330641232
 20
57.97661397885466
 30
0.0
 10
118.7224819705468
 20
57.74829087647989
 30
0.0
 10
118.4737964551817
 20
57.63464086034613
 30
0.0
 10
117.7032239704901
 20
57.31157682911208
 30
0.0
 10
117.1575865604079
 20
57.11867830494859
 30
0.0
 10
116.2748068119116
 20
56.90708437967488
 30
0.0
 10
115.9761677120387
 20
56.85144199355715
 30
0.0
 10
115.369666111323
 20
56.7757739241933
 30
0.0
 10
115.0595188726571
 20
56.75580067841698
 30
0.0
 10
114.4394333839733
 20
56.75613444467024
 30
0.0
 10
114.1328623465052
 20
56.77613340999302
 30
0.0
 10
113.5262075991971
 20
56.85217219618949
 30
0.0
 10
113.2238345345718
 20
56.90882529632104
 30
0.0
 10
112.3471982318188
 20
57.11960384636689
 30
0.0
 10
111.7991440998419
 20
57.31314967693864
 30
0.0
 10
110.7686468325986
 20
57.74576897021444
 30
0.0
 10
110.3010867973191
 20
57.97824561490486
 30
0.0
 10
109.6628731936912
 20
58.3199836158239
 30
0.0
 10
109.4596634555014
 20
58.43360113125229
 30
0.0
 10
109.0833265291069
 20
58.65010352360853
 30
0.0
 10
108.9103479206154
 20
58.75284132005292
 30
0.0
 10
108.7534044243773
 20
58.84785106266899
 30
0.0
  0
LINE
  5
11A
330
1F
100
AcDbEntity
  8
0
  6
Continuous
 62
     7
370
    25
100
AcDbLine
 10
120.7534044244
 20
58.8478510627
 30
0.0
 11
120.7534044244
 21
58.2746125166
 31
0.0
  0
LINE
  5
11B
330
1F
100
AcDbEntity
  8
0
  6
Continuous
 62
     7
370
    25
100
AcDbLine
 10
108.2888523658
 20
29.5170624583
 30
0.0
 11
121.2179564829
 21
29.5170624583
 31
0.0
  0
SPLINE
  5
11C
330
1F
100
AcDbEntity
  8
0
  6
Continuous
 62
     7
370
    25
100
AcDbSpline
210
0.0
220
0.0
230
1.0
 70
     8
 71
     3
 72
    12
 73
     8
 74
     0
 42
0.00000001
 43
0.00000001
 40
0.0
 40
0.0
 40
0.0
 40
0.0
 40
0.0821707626352006
 40
0.3096913954295887
 40
0.54250378031651
 40
0.771067631086339
 40
1.0
 40
1.0
 40
1.0
 40
1.0
 10
120.9268436087921
 20
59.70660603455827
 30
0.0
 10
120.9279756348411
 20
59.71037582952054
 30
0.0
 10
120.9322421003763
 20
59.72458371837187
 30
0.0
 10
120.8997867492947
 20
59.61722728128564
 30
0.0
 10
120.8438221527223
 20
59.41128904083567
 30
0.0
 10
120.7756127570685
 20
59.12799369075307
 30
0.0
 10
120.7608111762188
 20
58.94128207143393
 30
0.0
 10
120.7534044243773
 20
58.84785106266186
 30
0.0
  0
SPLINE
  5
11D
330
1F
100
AcDbEntity
  8
0
  6
Continuous
 62
     7
370
    25
100
AcDbSpline
210
0.0
220
0.0
230
1.0
 70
     8
 71
     3
 72
    11
 73
     7
 74
     0
 42
0.00000001
 43
0.00000001
 40
0.0
 40
0.0
 40
0.0
 40
0.0
 40
0.3176361899174938
 40
0.6359595130532291
 40
0.8656889195929853
 40
1.0
 40
1.0
 40
1.0
 40
1.0
 10
108.7534044243773
 20
58.84785106266889
 30
0.0
 10
108.7397656683565
 20
58.97911569046777
 30
0.0
 10
108.7124586519869
 20
59.24192890705297
 30
0.0
 10
108.6244539872796
 20
59.5535734713335
 30
0.0
 10
108.57989363532
 20
59.70731989246726
 30
0.0
 10
108.5802423715224
 20
59.70580646129542
 30
0.0
 10
108.5803710361567
 20
59.70524808775429
 30
0.0
  0
LINE
  5
11E
330
1F
100
AcDbEntity
  8
0
  6
Continuous
 62
     7
370
    25
100
AcDbLine
 10
108.8534044244
 20
60.4133965844
 30
0.0
 11
108.8540562929
 21
60.4128429627
 31
0.0
  0
LINE
  5
11F
330
1F
100
AcDbEntity
  8
0
  6
Continuous
 62
     7
370
    25
100
AcDbLine
 10
120.0034044244
 20
27.4133965844
 30
0.0
 11
109.5034044244
 21
27.4133965844
 31
0.0
  0
SPLINE
  5
120
330
1F
100
AcDbEntity
  8
0
  6
Continuous
 62
     7
370
    25
100
AcDbSpline
210
0.0
220
0.0
230
1.0
 70
     8
 71
     3
 72
    10
 73
     6
 74
     0
 42
0.00000001
 43
0.00000001
 40
0.0
 40
0.0
 40
0.0
 40
0.0
 40
0.1601790552921523
 40
0.7197651707804853
 40
1.0
 40
1.0
 40
1.0
 40
1.0
 10
108.0414535860002
 20
60.64629187211916
 30
0.0
 10
108.040690795907
 20
60.64768410014554
 30
0.0
 10
108.0372631958332
 20
60.65394008187386
 30
0.0
 10
108.0517706606315
 20
60.62743281714596
 30
0.0
 10
108.0697002137494
 20
60.5948769620008
 30
0.0
 10
108.0756830191171
 20
60.58401359336944
 30
0.0
  0
SPLINE
  5
121
330
1F
100
AcDbEntity
  8
0
  6
Continuous
 62
     7
370
    25
100
AcDbSpline
210
0.0
220
0.0
230
1.0
 70
     8
 71
     3
 72
     9
 73
     5
 74
     0
 42
0.00000001
 43
0.00000001
 40
0.0
 40
0.0
 40
0.0
 40
0.0
 40
0.5797912171256431
 40
1.0
 40
1.0
 40
1.0
 40
1.0
 10
121.4311258296375
 20
60.58401359336942
 30
0.0
 10
121.443484432984
 20
60.60648724161056
 30
0.0
 10
121.4648000427784
 20
60.64524886403138
 30
0.0
 10
121.4651909852812
 20
60.64598326878959
 30
0.0
 10
121.4653552627544
 20
60.64629187211916
 30
0.0
  0
SPLINE
  5
122
330
1F
100
AcDbEntity
  8
0
  6
Continuous
 62
     7
370
    25
100
AcDbSpline
210
0.0
220
0.0
230
1.0
 70
     8
 71
     3
 72
    10
 73
     6
 74
     0
 42
0.00000001
 43
0.00000001
 40
0.0
 40
0.0
 40
0.0
 40
0.0
 40
0.1593935212994522
 40
0.7189934545690309
 40
1.0
 40
1.0
 40
1.0
 40
1.0
 10
103.965362819215
 20
60.64630567283588
 30
0.0
 10
103.9661243462124
 20
60.6476955916625
 30
0.0
 10
103.9695594477283
 20
60.65396524760943
 30
0.0
 10
103.9550648252619
 20
60.62748130578564
 30
0.0
 10
103.9371234547692
 20
60.59490390173877
 30
0.0
 10
103.9311258296375
 20
60.58401359336942
 30
0.0
  0
LINE
  5
123
330
1F
100
AcDbEntity
  8
0
  6
Continuous
 62
     7
370
    25
100
AcDbLine
 10
103.2534044244
 20
59.4133965844
 30
0.0
 11
103.2534044244
 21
58.2746125166
 31
0.0
  0
SPLINE
  5
124
330
1F
100
AcDbEntity
  8
0
  6
Continuous
 62
     7
370
    25
100
AcDbSpline
210
0.0
220
0.0
230
1.0
 70
     8
 71
     3
 72
     9
 73
     5
 74
     0
 42
0.00000001
 43
0.00000001
 40
0.0
 40
0.0
 40
0.0
 40
0.0
 40
0.5789479223911498
 40
1.0
 40
1.0
 40
1.0
 40
1.0
 10
124.4240214333036
 20
39.59111798970338
 30
0.0
 10
124.4464628004962
 20
39.60345888001779
 30
0.0
 10
124.4852251249208
 20
39.6247749428917
 30
0.0
 10
124.4859910277798
 20
39.62518311680608
 30
0.0
 10
124.4863135127699
 20
39.62535497928076
 30
0.0
  0
LINE
  5
125
330
1F
100
AcDbEntity
  8
0
  6
Continuous
 62
     7
370
    25
100
AcDbLine
 10
122.1146203565
 20
38.9133965844
 30
0.0
 11
123.2534044244
 21
38.9133965844
 31
0.0
  0
SPLINE
  5
126
330
1F
100
AcDbEntity
  8
0
  6
Continuous
 62
     7
370
    25
100
AcDbSpline
210
0.0
220
0.0
230
1.0
 70
     8
 71
     3
 72
     9
 73
     5
 74
     0
 42
0.00000001
 43
0.00000001
 40
0.0
 40
0.0
 40
0.0
 40
0.0
 40
0.5789479223839474
 40
0.9999999999999999
 40
0.9999999999999999
 40
0.9999999999999999
 40
0.9999999999999999
 10
103.9311258296375
 20
41.24277957551695
 30
0.0
 10
103.9434667199518
 20
41.22033820832458
 30
0.0
 10
103.9647827828257
 20
41.18157588390003
 30
0.0
 10
103.9651909567402
 20
41.18080998104067
 30
0.0
 10
103.965362819215
 20
41.18048749605049
 30
0.0
  0
LINE
  5
127
330
1F
100
AcDbEntity
  8
0
  6
Continuous
 62
     7
370
    25
100
AcDbLine
 10
103.2534044244
 20
43.5521806523
 30
0.0
 11
103.2534044244
 21
42.4133965844
 31
0.0
  0
SPLINE
  5
128
330
1F
100
AcDbEntity
  8
0
  6
Continuous
 62
     7
370
    25
100
AcDbSpline
210
0.0
220
0.0
230
1.0
 70
     8
 71
     3
 72
    10
 73
     6
 74
     0
 42
0.00000001
 43
0.00000001
 40
0.0
 40
0.0
 40
0.0
 40
0.0
 40
0.1593935213061655
 40
0.7189934545756295
 40
1.0
 40
1.0
 40
1.0
 40
1.0
 10
105.0204953359848
 20
39.62535497928076
 30
0.0
 10
105.0191054171581
 20
39.62611650627822
 30
0.0
 10
105.0128357612113
 20
39.62955160779408
 30
0.0
 10
105.0393197030353
 20
39.61505698532748
 30
0.0
 10
105.071897107082
 20
39.59711561483486
 30
0.0
 10
105.0827874154511
 20
39.59111798970338
 30
0.0
  0
LINE
  5
129
330
1F
100
AcDbEntity
  8
0
  6
Continuous
 62
     7
370
    25
100
AcDbLine
 10
106.2534044244
 20
38.9133965844
 30
0.0
 11
107.3921884922
 21
38.9133965844
 31
0.0
  0
LINE
  5
12A
330
1F
100
AcDbEntity
  8
0
  6
Continuous
 62
     7
370
    25
100
AcDbLine
 10
124.4910087314
 20
41.1757922774
 30
0.0
 11
124.4240214333
 21
41.2427795755
 31
0.0
  0
LINE
  5
12B
330
1F
100
AcDbEntity
  8
0
  6
Continuous
 62
     7
370
    25
100
AcDbLine
 10
105.0827874155
 20
41.2427795755
 30
0.0
 11
105.0158001173
 21
41.1757922774
 31
0.0
  0
LINE
  5
12C
330
1F
100
AcDbEntity
  8
0
  6
Continuous
 62
     7
370
    25
100
AcDbLine
 10
119.992489757
 20
77.4133965844
 30
0.0
 11
119.992489757
 21
78.0133965844
 31
0.0
  0
LINE
  5
12D
330
1F
100
AcDbEntity
  8
0
  6
Continuous
 62
     7
370
    25
100
AcDbLine
 10
109.5143190917
 20
78.0133965844
 30
0.0
 11
109.5143190917
 21
77.4133965844
 31
0.0
  0
LINE
  5
12E
330
1F
100
AcDbEntity
  8
0
  6
Continuous
 62
     7
370
    25
100
AcDbLine
 10
119.992489757
 20
78.0133965844
 30
0.0
 11
109.5143190917
 21
78.0133965844
 31
0.0
  0
LINE
  5
12F
330
1F
100
AcDbEntity
  8
0
  6
Continuous
 62
     7
370
    25
100
AcDbLine
 10
109.5143190917
 20
77.4133965844
 30
0.0
 11
119.992489757
 21
77.4133965844
 31
0.0
  0
SPLINE
  5
130
330
1F
100
AcDbEntity
  8
0
  6
Continuous
 62
     7
370
    25
100
AcDbSpline
210
0.0
220
0.0
230
1.0
 70
     8
 71
     3
 72
    15
 73
    11
 74
     0
 42
0.00000001
 43
0.00000001
 40
0.0
 40
0.0
 40
0.0
 40
0.0
 40
0.0090459071881971
 40
0.1032433785236875
 40
0.1542564497735248
 40
0.313316902671511
 40
0.5243720399414434
 40
0.6678060008509189
 40
0.9918332554187028
 40
1.0
 40
1.0
 40
1.0
 40
1.0
 10
119.9924897570354
 20
78.01339658444319
 30
0.0
 10
119.9924840650688
 20
78.01507768302761
 30
0.0
 10
119.992419101118
 20
78.03426451458313
 30
0.0
 10
119.9904234146821
 20
78.06295879410312
 30
0.0
 10
119.9826064184656
 20
78.11363483407503
 30
0.0
 10
119.9654365947107
 20
78.17151113365195
 30
0.0
 10
119.9388526981431
 20
78.21637664838663
 30
0.0
 10
119.9010233996545
 20
78.25373903164115
 30
0.0
 10
119.8727426196443
 20
78.26328504391073
 30
0.0
 10
119.852911472113
 20
78.26339390809741
 30
0.0
 10
119.8524239379701
 20
78.26339658444319
 30
0.0
  0
SPLINE
  5
131
330
1F
100
AcDbEntity
  8
0
  6
Continuous
 62
     7
370
    25
100
AcDbSpline
210
0.0
220
0.0
230
1.0
 70
     8
 71
     3
 72
    15
 73
    11
 74
     0
 42
0.00000001
 43
0.00000001
 40
0.0
 40
0.0
 40
0.0
 40
0.0
 40
0.0081667445812973
 40
0.3321939991490813
 40
0.4756279600585592
 40
0.6866830973284899
 40
0.845743550226481
 40
0.8967566214763184
 40
0.9909540928118029
 40
1.0
 40
1.0
 40
1.0
 40
1.0
 10
109.6543849107846
 20
78.26339658444319
 30
0.0
 10
109.6538973766417
 20
78.26339390809741
 30
0.0
 10
109.6340662291104
 20
78.26328504391073
 30
0.0
 10
109.6057854491002
 20
78.25373903164115
 30
0.0
 10
109.5679561506115
 20
78.21637664838663
 30
0.0
 10
109.541372254044
 20
78.17151113365195
 30
0.0
 10
109.524202430289
 20
78.11363483407503
 30
0.0
 10
109.5163854340726
 20
78.06295879410312
 30
0.0
 10
109.5143897476367
 20
78.03426451458311
 30
0.0
 10
109.5143247836859
 20
78.01507768302761
 30
0.0
 10
109.5143190917192
 20
78.01339658444319
 30
0.0
  0
LINE
  5
132
330
1F
100
AcDbEntity
  8
0
  6
Continuous
 62
     7
370
    25
100
AcDbLine
 10
109.6543849108
 20
78.2633965844
 30
0.0
 11
119.852423938
 21
78.2633965844
 31
0.0
  0
SPLINE
  5
133
330
1F
100
AcDbEntity
  8
0
  6
Continuous
 62
     7
370
    25
100
AcDbSpline
210
0.0
220
0.0
230
1.0
 70
     8
 71
     3
 72
    15
 73
    11
 74
     0
 42
0.00000001
 43
0.00000001
 40
0.0
 40
0.0
 40
0.0
 40
0.0
 40
0.0089557228015919
 40
0.0999003359608153
 40
0.1531632460581696
 40
0.3125636920784855
 40
0.5249666935695051
 40
0.6689893599351772
 40
0.991915253381045
 40
1.0
 40
1.0
 40
1.0
 40
1.0
 10
109.2761788493257
 20
78.01339658444319
 30
0.0
 10
109.2761946049043
 20
78.01507771001609
 30
0.0
 10
109.2763703570608
 20
78.03383052464054
 30
0.0
 10
109.2817993730804
 20
78.06259275374802
 30
0.0
 10
109.3033348567877
 20
78.11347982721634
 30
0.0
 10
109.3510402850525
 20
78.171615477349
 30
0.0
 10
109.4234312300444
 20
78.2163233505324
 30
0.0
 10
109.5253503420621
 20
78.25360517399416
 30
0.0
 10
109.6007054335171
 20
78.26328432883176
 30
0.0
 10
109.6531050792404
 20
78.2633939080335
 30
0.0
 10
109.6543849107846
 20
78.26339658444319
 30
0.0
  0
LINE
  5
134
330
1F
100
AcDbEntity
  8
0
  6
Continuous
 62
     7
370
    25
100
AcDbLine
 10
109.2761788493
 20
78.0133965844
 30
0.0
 11
109.5143190917
 21
78.0133965844
 31
0.0
  0
SPLINE
  5
135
330
1F
100
AcDbEntity
  8
0
  6
Continuous
 62
     7
370
    25
100
AcDbSpline
210
0.0
220
0.0
230
1.0
 70
     8
 71
     3
 72
    15
 73
    11
 74
     0
 42
0.00000001
 43
0.00000001
 40
0.0
 40
0.0
 40
0.0
 40
0.0
 40
0.0080847466189581
 40
0.3310106400648237
 40
0.4750333064304937
 40
0.6874363079215094
 40
0.8468367539418249
 40
0.9000996640391792
 40
0.9910442771984082
 40
1.0
 40
1.0
 40
1.0
 40
1.0
 10
119.8524239379701
 20
78.26339658444319
 30
0.0
 10
119.8537037695142
 20
78.2633939080335
 30
0.0
 10
119.9061034152375
 20
78.2632843288318
 30
0.0
 10
119.9814585066926
 20
78.25360517399416
 30
0.0
 10
120.0833776187102
 20
78.2163233505324
 30
0.0
 10
120.1557685637022
 20
78.17161547734901
 30
0.0
 10
120.203473991967
 20
78.11347982721634
 30
0.0
 10
120.2250094756743
 20
78.06259275374802
 30
0.0
 10
120.2304384916938
 20
78.03383052464052
 30
0.0
 10
120.2306142438504
 20
78.0150777100161
 30
0.0
 10
120.230629999429
 20
78.01339658444319
 30
0.0
  0
LINE
  5
136
330
1F
100
AcDbEntity
  8
0
  6
Continuous
 62
     7
370
    25
100
AcDbLine
 10
119.992489757
 20
78.0133965844
 30
0.0
 11
120.2306299994
 21
78.0133965844
 31
0.0
  0
LINE
  5
137
330
1F
100
AcDbEntity
  8
0
  6
Continuous
 62
     7
370
    25
100
AcDbLine
 10
120.2306299994
 20
78.0133965844
 30
0.0
 11
120.2306299994
 21
77.4133965844
 31
0.0
  0
LINE
  5
138
330
1F
100
AcDbEntity
  8
0
  6
Continuous
 62
     7
370
    25
100
AcDbLine
 10
120.2306299994
 20
77.4133965844
 30
0.0
 11
119.992489757
 21
77.4133965844
 31
0.0
  0
LINE
  5
139
330
1F
100
AcDbEntity
  8
0
  6
Continuous
 62
     7
370
    25
100
AcDbLine
 10
109.2761788493
 20
77.4133965844
 30
0.0
 11
109.2761788493
 21
78.0133965844
 31
0.0
  0
LINE
  5
13A
330
1F
100
AcDbEntity
  8
0
  6
Continuous
 62
     7
370
    25
100
AcDbLine
 10
109.5143190917
 20
77.4133965844
 30
0.0
 11
109.2761788493
 21
77.4133965844
 31
0.0
  0
LINE
  5
13B
330
1F
100
AcDbEntity
  8
0
  6
Continuous
 62
     7
370
    25
100
AcDbLine
 10
109.0034044244
 20
78.0133965844
 30
0.0
 11
109.0034044244
 21
77.4133965844
 31
0.0
  0
LINE
  5
13C
330
1F
100
AcDbEntity
  8
0
  6
Continuous
 62
     7
370
    25
100
AcDbLine
 10
109.2761788493
 20
78.0133965844
 30
0.0
 11
109.0034044244
 21
78.0133965844
 31
0.0
  0
LINE
  5
13D
330
1F
100
AcDbEntity
  8
0
  6
Continuous
 62
     7
370
    25
100
AcDbLine
 10
109.0034044244
 20
77.4133965844
 30
0.0
 11
109.2761788493
 21
77.4133965844
 31
0.0
  0
LINE
  5
13E
330
1F
100
AcDbEntity
  8
0
  6
Continuous
 62
     7
370
    25
100
AcDbLine
 10
108.7534044244
 20
77.4133965844
 30
0.0
 11
108.7534044244
 21
78.0133965844
 31
0.0
  0
LINE
  5
13F
330
1F
100
AcDbEntity
  8
0
  6
Continuous
 62
     7
370
    25
100
AcDbLine
 10
108.7534044244
 20
78.0133965844
 30
0.0
 11
109.0034044244
 21
78.0133965844
 31
0.0
  0
LINE
  5
140
330
1F
100
AcDbEntity
  8
0
  6
Continuous
 62
     7
370
    25
100
AcDbLine
 10
109.0034044244
 20
77.4133965844
 30
0.0
 11
108.7534044244
 21
77.4133965844
 31
0.0
  0
LINE
  5
141
330
1F
100
AcDbEntity
  8
0
  6
Continuous
 62
     7
370
    25
100
AcDbLine
 10
120.5034044244
 20
78.0133965844
 30
0.0
 11
120.7534044244
 21
78.0133965844
 31
0.0
  0
LINE
  5
142
330
1F
100
AcDbEntity
  8
0
  6
Continuous
 62
     7
370
    25
100
AcDbLine
 10
120.5034044244
 20
78.0133965844
 30
0.0
 11
120.5034044244
 21
78.2633965844
 31
0.0
  0
ARC
  5
143
330
1F
100
AcDbEntity
  8
0
  6
Continuous
 62
     7
370
    25
100
AcDbCircle
 10
120.5034044244
 20
78.0133965844
 30
0.0
 40
0.25
100
AcDbArc
 50
0.0
 51
90.0
  0
LINE
  5
144
330
1F
100
AcDbEntity
  8
0
  6
Continuous
 62
     7
370
    25
100
AcDbLine
 10
120.5034044244
 20
77.4133965844
 30
0.0
 11
120.5034044244
 21
78.0133965844
 31
0.0
  0
LINE
  5
145
330
1F
100
AcDbEntity
  8
0
  6
Continuous
 62
     7
370
    25
100
AcDbLine
 10
120.5034044244
 20
78.0133965844
 30
0.0
 11
120.2306299994
 21
78.0133965844
 31
0.0
  0
LINE
  5
146
330
1F
100
AcDbEntity
  8
0
  6
Continuous
 62
     7
370
    25
100
AcDbLine
 10
120.2306299994
 20
77.4133965844
 30
0.0
 11
120.5034044244
 21
77.4133965844
 31
0.0
  0
ARC
  5
147
330
1F
100
AcDbEntity
  8
0
  6
Continuous
 62
     7
370
    25
100
AcDbCircle
 10
109.0034044244
 20
78.0133965844
 30
0.0
 40
0.25
100
AcDbArc
 50
90.0
 51
180.0
  0
LINE
  5
148
330
1F
100
AcDbEntity
  8
0
  6
Continuous
 62
     7
370
    25
100
AcDbLine
 10
109.0034044244
 20
78.2633965844
 30
0.0
 11
109.0034044244
 21
78.0133965844
 31
0.0
  0
LINE
  5
149
330
1F
100
AcDbEntity
  8
0
  6
Continuous
 62
     7
370
    25
100
AcDbLine
 10
120.7534044244
 20
78.0133965844
 30
0.0
 11
120.7534044244
 21
77.4133965844
 31
0.0
  0
LINE
  5
14A
330
1F
100
AcDbEntity
  8
0
  6
Continuous
 62
     7
370
    25
100
AcDbLine
 10
120.7534044244
 20
77.4133965844
 30
0.0
 11
120.5034044244
 21
77.4133965844
 31
0.0
  0
LINE
  5
14B
330
1F
100
AcDbEntity
  8
0
  6
Continuous
 62
     7
370
    25
100
AcDbLine
 10
119.852423938
 20
78.2633965844
 30
0.0
 11
120.5034044244
 21
78.2633965844
 31
0.0
  0
LINE
  5
14C
330
1F
100
AcDbEntity
  8
0
  6
Continuous
 62
     7
370
    25
100
AcDbLine
 10
109.0034044244
 20
78.2633965844
 30
0.0
 11
109.6543849108
 21
78.2633965844
 31
0.0
  0
LINE
  5
14D
330
1F
100
AcDbEntity
  8
0
  6
Continuous
 62
     7
370
    25
100
AcDbLine
 10
109.7534044244
 20
78.2633965844
 30
0.0
 11
109.7534044244
 21
78.2733965844
 31
0.0
  0
LINE
  5
14E
330
1F
100
AcDbEntity
  8
0
  6
Continuous
 62
     7
370
    25
100
AcDbLine
 10
109.7534044244
 20
78.2733965844
 30
0.0
 11
119.7534044244
 21
78.2733965844
 31
0.0
  0
LINE
  5
14F
330
1F
100
AcDbEntity
  8
0
  6
Continuous
 62
     7
370
    25
100
AcDbLine
 10
119.7534044244
 20
78.2633965844
 30
0.0
 11
119.7534044244
 21
78.2733965844
 31
0.0
  0
LINE
  5
150
330
1F
100
AcDbEntity
  8
0
  6
Continuous
 62
     7
370
    25
100
AcDbLine
 10
110.2788575403
 20
69.4133965844
 30
0.0
 11
122.2034044244
 21
69.4133965844
 31
0.0
  0
SPLINE
  5
151
330
1F
100
AcDbEntity
  8
0
  6
Continuous
 62
     7
370
    25
100
AcDbSpline
210
0.0
220
0.0
230
1.0
 70
     8
 71
     3
 72
     9
 73
     5
 74
     0
 42
0.00000001
 43
0.00000001
 40
0.0
 40
0.0
 40
0.0
 40
0.0
 40
0.4978401817595073
 40
1.0
 40
1.0
 40
1.0
 40
1.0
 10
111.039068296057
 20
70.40814016241012
 30
0.0
 10
110.9027463876863
 20
70.25162897971751
 30
0.0
 10
110.6289197393654
 20
69.93724860539851
 30
0.0
 10
110.3958804882688
 20
69.58851605737223
 30
0.0
 10
110.2788575402952
 20
69.41339658444082
 30
0.0
  0
LINE
  5
152
330
1F
100
AcDbEntity
  8
0
  6
Continuous
 62
     7
370
    25
100
AcDbLine
 10
109.52960225
 20
77.4133965844
 30
0.0
 11
107.8014635861
 21
70.4081401624
 31
0.0
  0
LINE
  5
153
330
1F
100
AcDbEntity
  8
0
  6
Continuous
 62
     7
370
    25
100
AcDbLine
 10
119.992489757
 20
77.4133965844
 30
0.0
 11
109.52960225
 21
77.4133965844
 31
0.0
  0
LINE
  5
154
330
1F
100
AcDbEntity
  8
0
  6
Continuous
 62
     7
370
    25
100
AcDbLine
 10
112.7534044244
 20
61.4133965844
 30
0.0
 11
121.7534044244
 21
61.4133965844
 31
0.0
  0
LINE
  5
155
330
1F
100
AcDbEntity
  8
0
  6
Continuous
 62
     7
370
    25
100
AcDbLine
 10
112.7534044244
 20
61.4512135082
 30
0.0
 11
112.7534044244
 21
61.4133965844
 31
0.0
  0
SPLINE
  5
156
330
1F
100
AcDbEntity
  8
0
  6
Continuous
 62
     7
370
    25
100
AcDbSpline
210
0.0
220
0.0
230
1.0
 70
     8
 71
     3
 72
     9
 73
     5
 74
     0
 42
0.00000001
 43
0.00000001
 40
0.0
 40
0.0
 40
0.0
 40
0.0
 40
0.4875141023677128
 40
0.9999999999999999
 40
0.9999999999999999
 40
0.9999999999999999
 40
0.9999999999999999
 10
112.5974591739501
 20
61.41339658444326
 30
0.0
 10
112.6237657478727
 20
61.41512393041496
 30
0.0
 10
112.677726389821
 20
61.41866710170643
 30
0.0
 10
112.7277619205157
 20
61.44018558765575
 30
0.0
 10
112.7534044243773
 20
61.45121350824316
 30
0.0
  0
SPLINE
  5
157
330
1F
100
AcDbEntity
  8
0
  6
Continuous
 62
     7
370
    25
100
AcDbSpline
210
0.0
220
0.0
230
1.0
 70
     8
 71
     3
 72
    17
 73
    13
 74
     0
 42
0.00000001
 43
0.00000001
 40
0.0
 40
0.0
 40
0.0
 40
0.0
 40
0.3241697628029873
 40
0.5422758463620719
 40
0.689509052693928
 40
0.7894036290694505
 40
0.8577090008137825
 40
0.9049823971474138
 40
0.9551712229700868
 40
0.9753097783197817
 40
0.9919572060138848
 40
1.0
 40
1.0
 40
1.0
 40
1.0
 10
110.2788575402952
 20
69.41339658444082
 30
0.0
 10
110.4215729003123
 20
68.50078308183515
 30
0.0
 10
110.6603092092543
 20
66.9741500755738
 30
0.0
 10
111.039896403706
 20
65.04737717329283
 30
0.0
 10
111.349030612053
 20
63.75974170236007
 30
0.0
 10
111.6051441402532
 20
62.90058973563832
 30
0.0
 10
111.8194551431482
 20
62.32712184726091
 30
0.0
 10
112.0226893641761
 20
61.90558969323096
 30
0.0
 10
112.2072346287187
 20
61.62509715043552
 30
0.0
 10
112.3933057150868
 20
61.46954848185486
 30
0.0
 10
112.5085163143427
 20
61.41893788265736
 30
0.0
 10
112.5756051198156
 20
61.41475813085273
 30
0.0
 10
112.5974591739501
 20
61.41339658444326
 30
0.0
  0
SPLINE
  5
158
330
1F
100
AcDbEntity
  8
0
  6
Continuous
 62
     7
370
    25
100
AcDbSpline
210
0.0
220
0.0
230
1.0
 70
     8
 71
     3
 72
    14
 73
    10
 74
     0
 42
0.00000001
 43
0.00000001
 40
0.0
 40
0.0
 40
0.0
 40
0.0
 40
0.1576095309202822
 40
0.3152382602707094
 40
0.4726926441579498
 40
0.6301650083177254
 40
0.7907313191165901
 40
0.9513050385928076
 40
1.0
 40
1.0
 40
1.0
 40
1.0
 10
108.2534044243773
 20
61.41339658444319
 30
0.0
 10
108.1868334095953
 20
61.62689837292059
 30
0.0
 10
108.0536832710104
 20
62.0539279565461
 30
0.0
 10
107.7251163092597
 20
62.63917503540241
 30
0.0
 10
107.3117266685276
 20
63.16132957622484
 30
0.0
 10
106.816051749583
 20
63.6103077036447
 30
0.0
 10
106.2497620442985
 20
63.96958943545108
 30
0.0
 10
105.7735113879055
 20
64.17415561455226
 30
0.0
 10
105.4933168197127
 20
64.25495016290357
 30
0.0
 10
105.4281180349397
 20
64.27375033595034
 30
0.0
  0
LINE
  5
159
330
1F
100
AcDbEntity
  8
0
  6
Continuous
 62
     7
370
    25
100
AcDbLine
 10
105.4281180349
 20
64.273750336
 30
0.0
 11
99.6483611851
 21
65.8423717764
 31
0.0
  0
SPLINE
  5
15A
330
1F
100
AcDbEntity
  8
0
  6
Continuous
 62
     7
370
    25
100
AcDbSpline
210
0.0
220
0.0
230
1.0
 70
     8
 71
     3
 72
    11
 73
     7
 74
     0
 42
0.00000001
 43
0.00000001
 40
0.0
 40
0.0
 40
0.0
 40
0.0
 40
0.2488466353289361
 40
0.4976946020535204
 40
0.7488461225871278
 40
1.0
 40
1.0
 40
1.0
 40
1.0
 10
92.57796756284067
 20
67.16557227741873
 30
0.0
 10
93.17240361197695
 20
67.0960479009251
 30
0.0
 10
94.36127889064034
 20
66.95699877596392
 30
0.0
 10
96.13600356134938
 20
66.65667003783865
 30
0.0
 10
97.90258420309175
 20
66.29476041958348
 30
0.0
 10
99.06643370411142
 20
65.99316846251894
 30
0.0
 10
99.64836118508441
 20
65.84237177643323
 30
0.0
  0
LINE
  5
15B
330
1F
100
AcDbEntity
  8
0
  6
Continuous
 62
     7
370
    25
100
AcDbLine
 10
92.5779675628
 20
67.1655722774
 30
0.0
 11
92.5779675628
 21
70.4081401624
 31
0.0
  0
LINE
  5
15C
330
1F
100
AcDbEntity
  8
0
  6
Continuous
 62
     7
370
    25
100
AcDbLine
 10
92.5779675628
 20
70.4081401624
 30
0.0
 11
111.0390682961
 21
70.4081401624
 31
0.0
  0
LINE
  5
15D
330
1F
100
AcDbEntity
  8
0
  6
Continuous
 62
     7
370
    25
100
AcDbLine
 10
112.597459174
 20
61.4133965844
 30
0.0
 11
108.2534044244
 21
61.4133965844
 31
0.0
  0
LINE
  5
15E
330
1F
100
AcDbEntity
  8
0
  6
Continuous
 62
     7
370
    25
100
AcDbLine
 10
112.7534044244
 20
61.4512135082
 30
0.0
 11
112.7466050665
 21
61.4133965844
 31
0.0
  0
LINE
  5
15F
330
1F
100
AcDbEntity
  8
0
  6
Continuous
 62
     7
370
    25
100
AcDbLine
 10
112.7466050665
 20
61.4133965844
 30
0.0
 11
112.597459174
 21
61.4133965844
 31
0.0
  0
LINE
  5
160
330
1F
100
AcDbEntity
  8
0
  6
Continuous
 62
     7
370
    25
100
AcDbLine
 10
112.7534044244
 20
61.4133965844
 30
0.0
 11
112.7466050665
 21
61.4133965844
 31
0.0
  0
LINE
  5
161
330
1F
100
AcDbEntity
  8
0
  6
Continuous
 62
     7
370
    25
100
AcDbLine
 10
74.7534044244
 20
79.4133965844
 30
0.0
 11
92.5779675628
 21
79.4133965844
 31
0.0
  0
LINE
  5
162
330
1F
100
AcDbEntity
  8
0
  6
Continuous
 62
     7
370
    25
100
AcDbLine
 10
92.5779675628
 20
79.4133965844
 30
0.0
 11
92.5779675628
 21
70.4081401624
 31
0.0
  0
LINE
  5
163
330
1F
100
AcDbEntity
  8
0
  6
Continuous
 62
     7
370
    25
100
AcDbLine
 10
87.8617365666
 20
67.4133965844
 30
0.0
 11
79.7534044244
 21
67.4133965844
 31
0.0
  0
ARC
  5
164
330
1F
100
AcDbEntity
  8
0
  6
Continuous
 62
     7
370
    25
100
AcDbCircle
 10
79.7534044244
 20
72.4133965844
 30
0.0
 40
5.0
100
AcDbArc
 50
180.0
 51
270.0
  0
LINE
  5
165
330
1F
100
AcDbEntity
  8
0
  6
Continuous
 62
     7
370
    25
100
AcDbLine
 10
74.7534044244
 20
72.4133965844
 30
0.0
 11
74.7534044244
 21
79.4133965844
 31
0.0
  0
ARC
  5
166
330
1F
100
AcDbEntity
  8
0
  6
Continuous
 62
     7
370
    25
100
AcDbCircle
 10
87.8617365666
 20
22.4132673303
 30
0.0
 40
45.00012925418375
100
AcDbArc
 50
83.9840777705
 51
90.0
  0
LINE
  5
167
330
1F
100
AcDbEntity
  8
0
  6
Continuous
 62
     7
370
    25
100
AcDbLine
 10
92.5779675628
 20
79.4133965844
 30
0.0
 11
94.7534044244
 21
79.4133965844
 31
0.0
  0
LINE
  5
168
330
1F
100
AcDbEntity
  8
0
  6
Continuous
 62
     7
370
    25
100
AcDbLine
 10
94.7534044244
 20
79.4133965844
 30
0.0
 11
94.7534044244
 21
77.4323521078
 31
0.0
  0
ARC
  5
169
330
1F
100
AcDbEntity
  8
0
  6
Continuous
 62
     7
370
    25
100
AcDbCircle
 10
100.7534044244
 20
77.4323521078
 30
0.0
 40
6.000000000000014
100
AcDbArc
 50
180.0
 51
275.5801667845
  0
ARC
  5
16A
330
1F
100
AcDbEntity
  8
0
  6
Continuous
 62
     7
370
    25
100
AcDbCircle
 10
100.3644508601
 20
81.4133965844
 30
0.0
 40
10.00000000000848
100
AcDbArc
 50
275.5801667845
 51
336.4218215217
  0
LINE
  5
16B
330
1F
100
AcDbEntity
  8
0
  6
Continuous
 62
     7
370
    25
100
AcDbLine
 10
108.2534044244
 20
61.4133965844
 30
0.0
 11
107.7534044244
 21
61.4133965844
 31
0.0
  0
LINE
  5
16C
330
1F
100
AcDbEntity
  8
0
  6
Continuous
 62
     7
370
    25
100
AcDbLine
 10
109.5143190917
 20
77.4133965844
 30
0.0
 11
109.52960225
 21
77.4133965844
 31
0.0
  0
SPLINE
  5
16D
330
1F
100
AcDbEntity
  8
0
  6
Continuous
 62
     7
370
    25
100
AcDbSpline
210
0.0
220
0.0
230
1.0
 70
     8
 71
     3
 72
    31
 73
    27
 74
     0
 42
0.00000001
 43
0.00000001
 40
0.0
 40
0.0
 40
0.0
 40
0.0
 40
0.0092730730242407
 40
0.051713792431719
 40
0.0941817753121557
 40
0.1321037291281039
 40
0.1702158324409543
 40
0.2082070480690404
 40
0.2154698096993045
 40
0.2764852941998904
 40
0.3375000013823381
 40
0.3848201822250445
 40
0.4320451709719106
 40
0.46921413784423
 40
0.5063441868568374
 40
0.5434319637222692
 40
0.5805690436718457
 40
0.6303320168385326
 40
0.6801871637788929
 40
0.7334667664298701
 40
0.7867376457339739
 40
0.8315819143142784
 40
0.8763912226982138
 40
0.9190669973295228
 40
0.9617076024417474
 40
1.0
 40
1.0
 40
1.0
 40
1.0
 10
108.854056292941
 20
60.41284296271143
 30
0.0
 10
108.8548010706895
 20
60.41221191604345
 30
0.0
 10
108.8589545246521
 20
60.40869271412221
 30
0.0
 10
108.929235847055
 20
60.34876721970524
 30
0.0
 10
109.1205550504998
 20
60.18837703863804
 30
0.0
 10
109.395476491736
 20
59.96208227357538
 30
0.0
 10
109.7278935845228
 20
59.69671251872004
 30
0.0
 10
110.0149567389567
 20
59.47663374013101
 30
0.0
 10
110.4109041452849
 20
59.18283477049773
 30
0.0
 10
110.9465233926549
 20
58.80241239148432
 30
0.0
 10
111.7622768793039
 20
58.30438791155382
 30
0.0
 10
112.603836037018
 20
57.8922702322272
 30
0.0
 10
113.3872431069914
 20
57.61527107095409
 30
0.0
 10
114.1602279516585
 20
57.46385392758211
 30
0.0
 10
114.8908182656442
 20
57.42570445629576
 30
0.0
 10
115.6155407189847
 20
57.50503634741572
 30
0.0
 10
116.3889103385294
 20
57.69753955522172
 30
0.0
 10
117.179305160807
 20
58.01469902445974
 30
0.0
 10
117.976109707296
 20
58.43997756202766
 30
0.0
 10
118.7034768152389
 20
58.90243827351396
 30
0.0
 10
119.3176826455453
 20
59.34285164414466
 30
0.0
 10
119.8111408931794
 20
59.72131084342068
 30
0.0
 10
120.1862091293051
 20
60.02308167948927
 30
0.0
 10
120.4563983897226
 20
60.24667147955566
 30
0.0
 10
120.6248587086341
 20
60.38916368302286
 30
0.0
 10
120.6402730823337
 20
60.40218248787211
 30
0.0
 10
120.6475661927625
 20
60.40834216605742
 30
0.0
  0
LINE
  5
16E
330
1F
100
AcDbEntity
  8
FORMAT
100
AcDbLine
 10
109.0038661205
 20
28.278622307
 30
0.0
 11
108.6871544244
 21
38.4133965844
 31
0.0
  0
LINE
  5
16F
330
1F
100
AcDbEntity
  8
FORMAT
100
AcDbLine
 10
120.5029427282
 20
28.278622307
 30
0.0
 11
120.8196544244
 21
38.4133965844
 31
0.0
  0
LINE
  5
170
330
1F
100
AcDbEntity
  8
FORMAT
100
AcDbLine
 10
121.4959669244
 20
38.4133965844
 30
0.0
 11
108.0108419244
 21
38.4133965844
 31
0.0
  0
LINE
  5
171
330
1F
100
AcDbEntity
  8
FORMAT
  6
CENTERX2
370
    18
100
AcDbLine
 10
128.5426432627
 20
50.9133965844
 30
0.0
 11
73.2534044244
 21
50.9133965844
 31
0.0
  0
LINE
  5
172
330
1F
100
AcDbEntity
  8
FORMAT
  6
CENTERX2
370
    18
100
AcDbLine
 10
114.7534044244
 20
25.5644010776
 30
0.0
 11
114.7534044244
 21
80.1921176468
 31
0.0
  0
LINE
  5
173
330
1F
100
AcDbEntity
  8
0
  6
Continuous
 62
     7
370
    25
100
AcDbLine
 10
155.1315423687
 20
38.9133965844
 30
0.0
 11
155.4251778101
 21
29.5170624583
 31
0.0
  0
LINE
  5
174
330
1F
100
AcDbEntity
  8
0
  6
Continuous
 62
     7
370
    25
100
AcDbLine
 10
168.3542819273
 20
29.5170624583
 30
0.0
 11
168.6479173687
 21
38.9133965844
 31
0.0
  0
LINE
  5
175
330
1F
100
AcDbEntity
  8
0
  6
Continuous
 62
     7
370
    25
100
AcDbLine
 10
155.4251778101
 20
29.5170624583
 30
0.0
 11
156.6397298687
 21
27.4133965844
 31
0.0
  0
LINE
  5
176
330
1F
100
AcDbEntity
  8
0
  6
Continuous
 62
     7
370
    25
100
AcDbLine
 10
167.1397298687
 20
27.4133965844
 30
0.0
 11
168.3542819273
 21
29.5170624583
 31
0.0
  0
SPLINE
  5
177
330
1F
100
AcDbEntity
  8
0
  6
Continuous
 62
     7
370
    25
100
AcDbSpline
210
0.0
220
0.0
230
1.0
 70
     8
 71
     3
 72
     9
 73
     5
 74
     0
 42
0.00000001
 43
0.00000001
 40
0.0
 40
0.0
 40
0.0
 40
0.0
 40
0.7062394365377348
 40
1.0
 40
1.0
 40
1.0
 40
1.0
 10
167.8024393609626
 20
57.31464674367251
 30
0.0
 10
167.7961656457352
 20
57.34534931542949
 30
0.0
 10
167.7872823762618
 20
57.38882263363939
 30
0.0
 10
167.7906813337698
 20
57.43284238125928
 30
0.0
 10
167.7916798134425
 20
57.44577364712357
 30
0.0
  0
SPLINE
  5
178
330
1F
100
AcDbEntity
  8
0
  6
Continuous
 62
     7
370
    25
100
AcDbSpline
210
0.0
220
0.0
230
1.0
 70
     8
 71
     3
 72
     9
 73
     5
 74
     0
 42
0.00000001
 43
0.00000001
 40
0.0
 40
0.0
 40
0.0
 40
0.0
 40
0.5171320771082754
 40
1.0
 40
1.0
 40
1.0
 40
1.0
 10
155.9876395354599
 20
57.45262267535433
 30
0.0
 10
155.9889922007631
 20
57.42893426984365
 30
0.0
 10
155.9916079064272
 20
57.38312700597569
 30
0.0
 10
155.9835671333127
 20
57.33798331669388
 30
0.0
 10
155.9796845019005
 20
57.31618487721871
 30
0.0
  0
LINE
  5
179
330
1F
100
AcDbEntity
  8
0
  6
Continuous
 62
     7
370
    25
100
AcDbLine
 10
167.7897298687
 20
57.4466228376
 30
0.0
 11
167.7897298687
 21
61.4133965844
 31
0.0
  0
LINE
  5
17A
330
1F
100
AcDbEntity
  8
0
  6
Continuous
 62
     7
370
    25
100
AcDbLine
 10
155.9897298687
 20
61.4133965844
 30
0.0
 11
155.9897298687
 21
57.4519252484
 31
0.0
  0
ARC
  5
17B
330
1F
100
AcDbEntity
  8
0
  6
Continuous
 62
     7
370
    25
100
AcDbCircle
 10
156.6397298687
 20
78.0133965844
 30
0.0
 40
0.25
100
AcDbArc
 50
90.0
 51
180.0
  0
ARC
  5
17C
330
1F
100
AcDbEntity
  8
0
  6
Continuous
 62
     7
370
    25
100
AcDbCircle
 10
167.1397298687
 20
78.0133965844
 30
0.0
 40
0.25
100
AcDbArc
 50
0.0
 51
90.0
  0
LINE
  5
17D
330
1F
100
AcDbEntity
  8
0
  6
Continuous
 62
     7
370
    25
100
AcDbLine
 10
167.3897298687
 20
77.4133965844
 30
0.0
 11
167.3897298687
 21
78.0133965844
 31
0.0
  0
LINE
  5
17E
330
1F
100
AcDbEntity
  8
0
  6
Continuous
 62
     7
370
    25
100
AcDbLine
 10
156.3897298687
 20
78.0133965844
 30
0.0
 11
156.3897298687
 21
77.4133965844
 31
0.0
  0
LINE
  5
17F
330
1F
100
AcDbEntity
  8
0
  6
Continuous
 62
     7
370
    25
100
AcDbLine
 10
169.3397298687
 20
69.4133965844
 30
0.0
 11
167.3897298687
 21
77.4133965844
 31
0.0
  0
LINE
  5
180
330
1F
100
AcDbEntity
  8
0
  6
Continuous
 62
     7
370
    25
100
AcDbLine
 10
156.3897298687
 20
77.4133965844
 30
0.0
 11
154.4397298687
 21
69.4133965844
 31
0.0
  0
LINE
  5
181
330
1F
100
AcDbEntity
  8
0
  6
Continuous
 62
     7
370
    25
100
AcDbLine
 10
154.4397298687
 20
69.4133965844
 30
0.0
 11
154.8897298687
 21
61.4133965844
 31
0.0
  0
LINE
  5
182
330
1F
100
AcDbEntity
  8
0
  6
Continuous
 62
     7
370
    25
100
AcDbLine
 10
168.8897298687
 20
61.4133965844
 30
0.0
 11
169.3397298687
 21
69.4133965844
 31
0.0
  0
SPLINE
  5
183
330
1F
100
AcDbEntity
  8
0
  6
Continuous
 62
     7
370
    25
100
AcDbSpline
210
0.0
220
0.0
230
1.0
 70
     8
 71
     3
 72
    10
 73
     6
 74
     0
 42
0.00000001
 43
0.00000001
 40
0.0
 40
0.0
 40
0.0
 40
0.0
 40
0.5
 40
0.5
 40
1.0
 40
1.0
 40
1.0
 40
1.0
 10
153.3897298687062
 20
46.29459443092617
 30
0.0
 10
153.3897298687062
 20
46.20870736912372
 30
0.0
 10
153.4125223180361
 20
46.12130016014358
 30
0.0
 10
153.5004650221291
 20
45.96866371754985
 30
0.0
 10
153.565322795803
 20
45.90454067260427
 30
0.0
 10
153.6397298687062
 20
45.86158172903396
 30
0.0
  0
SPLINE
  5
184
330
1F
100
AcDbEntity
  8
0
  6
Continuous
 62
     7
370
    25
100
AcDbSpline
210
0.0
220
0.0
230
1.0
 70
    24
 71
     3
 72
    14
 73
    10
 74
     0
 42
0.00000001
 43
0.00000001
 40
0.0
 40
0.0
 40
0.0
 40
0.0
 40
0.25
 40
0.25
 40
0.5
 40
0.5
 40
0.75
 40
0.75
 40
1.0
 40
1.0
 40
1.0
 40
1.0
 10
153.3897298687062
 20
46.29459443092614
 30
0.0
 10
153.3897298687062
 20
47.04897449157612
 30
0.0
 10
153.3897298687062
 20
47.81841565904162
 30
0.0
 10
153.3897298687062
 20
49.35892701998278
 30
0.0
 10
153.3897298687062
 20
50.1337813999898
 30
0.0
 10
153.3897298687062
 20
51.69414235487535
 30
0.0
 10
153.3897298687062
 20
52.48459854766038
 30
0.0
 10
153.3897298687062
 20
54.02687821046885
 30
0.0
 10
153.3897298687062
 20
54.78426896367004
 30
0.0
 10
153.3897298687062
 20
55.5321987379602
 30
0.0
  0
SPLINE
  5
185
330
1F
100
AcDbEntity
  8
0
  6
Continuous
 62
     7
370
    25
100
AcDbSpline
210
0.0
220
0.0
230
1.0
 70
     8
 71
     3
 72
    10
 73
     6
 74
     0
 42
0.00000001
 43
0.00000001
 40
0.0
 40
0.0
 40
0.0
 40
0.0
 40
0.5
 40
0.5
 40
1.0
 40
1.0
 40
1.0
 40
1.0
 10
153.6397298687062
 20
55.96521143985242
 30
0.0
 10
153.5653494913289
 20
55.92226790895119
 30
0.0
 10
153.5010488525431
 20
55.85882546432706
 30
0.0
 10
153.4128331677602
 20
55.70634662720809
 30
0.0
 10
153.3897298687062
 20
55.61811662510082
 30
0.0
 10
153.3897298687062
 20
55.5321987379602
 30
0.0
  0
SPLINE
  5
186
330
1F
100
AcDbEntity
  8
0
  6
Continuous
 62
     7
370
    25
100
AcDbSpline
210
0.0
220
0.0
230
1.0
 70
    24
 71
     3
 72
    16
 73
    12
 74
     0
 42
0.00000001
 43
0.00000001
 40
0.0
 40
0.0
 40
0.0
 40
0.0
 40
0.2500000000000001
 40
0.2500000000000001
 40
0.5000000000000001
 40
0.5000000000000001
 40
0.6250000000000001
 40
0.6250000000000001
 40
0.7500000000000002
 40
0.7500000000000002
 40
1.0
 40
1.0
 40
1.0
 40
1.0
 10
161.6397298687063
 20
60.58401359336942
 30
0.0
 10
160.9862130886655
 20
60.20670550449292
 30
0.0
 10
160.3279926795755
 20
59.82668177411873
 30
0.0
 10
158.9984300962097
 20
59.05905845870803
 30
0.0
 10
158.3270061141391
 20
58.67141164191924
 30
0.0
 10
157.3080050271324
 20
58.08309109003139
 30
0.0
 10
156.9666642448162
 20
57.88601789747574
 30
0.0
 10
156.2910657418458
 20
57.49596091992164
 30
0.0
 10
155.9554065918811
 20
57.3021680193336
 30
0.0
 10
154.9541409553815
 20
56.72408703457018
 30
0.0
 10
154.2942332967783
 20
56.34308917023535
 30
0.0
 10
153.6397298687062
 20
55.96521143985242
 30
0.0
  0
SPLINE
  5
187
330
1F
100
AcDbEntity
  8
0
  6
Continuous
 62
     7
370
    25
100
AcDbSpline
210
0.0
220
0.0
230
1.0
 70
     8
 71
     3
 72
    10
 73
     6
 74
     0
 42
0.00000001
 43
0.00000001
 40
0.0
 40
0.0
 40
0.0
 40
0.0
 40
0.5
 40
0.5
 40
1.0
 40
1.0
 40
1.0
 40
1.0
 10
162.1397298687063
 20
60.58401359336942
 30
0.0
 10
162.0653494913289
 20
60.62695712427065
 30
0.0
 10
161.9782564032134
 20
60.65092188862663
 30
0.0
 10
161.8020980143373
 20
60.65107949410142
 30
0.0
 10
161.7141369416095
 20
60.62697253693974
 30
0.0
 10
161.6397298687063
 20
60.58401359336943
 30
0.0
  0
SPLINE
  5
188
330
1F
100
AcDbEntity
  8
0
  6
Continuous
 62
     7
370
    25
100
AcDbSpline
210
0.0
220
0.0
230
1.0
 70
    24
 71
     3
 72
    16
 73
    12
 74
     0
 42
0.00000001
 43
0.00000001
 40
0.0
 40
0.0
 40
0.0
 40
0.0
 40
0.2499999999999997
 40
0.2499999999999997
 40
0.4999999999999993
 40
0.4999999999999993
 40
0.6249999999999993
 40
0.6249999999999993
 40
0.7499999999999996
 40
0.7499999999999996
 40
1.0
 40
1.0
 40
1.0
 40
1.0
 10
170.1397298687063
 20
55.96521143985242
 30
0.0
 10
169.4862130886654
 20
56.34251952872891
 30
0.0
 10
168.8279926795755
 20
56.72254325910311
 30
0.0
 10
167.4984300962097
 20
57.49016657451381
 30
0.0
 10
166.8270061141392
 20
57.87781339130262
 30
0.0
 10
165.8080050271324
 20
58.46613394319046
 30
0.0
 10
165.4666642448162
 20
58.66320713574611
 30
0.0
 10
164.7910657418458
 20
59.0532641133002
 30
0.0
 10
164.4554065918811
 20
59.24705701388825
 30
0.0
 10
163.4541409553815
 20
59.82513799865168
 30
0.0
 10
162.7942332967783
 20
60.20613586298649
 30
0.0
 10
162.1397298687063
 20
60.58401359336942
 30
0.0
  0
SPLINE
  5
189
330
1F
100
AcDbEntity
  8
0
  6
Continuous
 62
     7
370
    25
100
AcDbSpline
210
0.0
220
0.0
230
1.0
 70
     8
 71
     3
 72
    10
 73
     6
 74
     0
 42
0.00000001
 43
0.00000001
 40
0.0
 40
0.0
 40
0.0
 40
0.0
 40
0.5
 40
0.5
 40
1.0
 40
1.0
 40
1.0
 40
1.0
 10
170.3897298687063
 20
55.5321987379602
 30
0.0
 10
170.3897298687063
 20
55.61808579976265
 30
0.0
 10
170.3669374193765
 20
55.70549300874276
 30
0.0
 10
170.2789947152834
 20
55.85812945133652
 30
0.0
 10
170.2141369416095
 20
55.92225249628211
 30
0.0
 10
170.1397298687063
 20
55.96521143985242
 30
0.0
  0
SPLINE
  5
18A
330
1F
100
AcDbEntity
  8
0
  6
Continuous
 62
     7
370
    25
100
AcDbSpline
210
0.0
220
0.0
230
1.0
 70
    24
 71
     3
 72
    14
 73
    10
 74
     0
 42
0.00000001
 43
0.00000001
 40
0.0
 40
0.0
 40
0.0
 40
0.0
 40
0.25
 40
0.25
 40
0.5
 40
0.5
 40
0.75
 40
0.75
 40
1.0
 40
1.0
 40
1.0
 40
1.0
 10
170.3897298687063
 20
46.29459443092613
 30
0.0
 10
170.3897298687063
 20
47.0489744915761
 30
0.0
 10
170.3897298687063
 20
47.81841565904161
 30
0.0
 10
170.3897298687063
 20
49.35892701998277
 30
0.0
 10
170.3897298687063
 20
50.13378139998979
 30
0.0
 10
170.3897298687063
 20
51.69414235487535
 30
0.0
 10
170.3897298687063
 20
52.48459854766038
 30
0.0
 10
170.3897298687063
 20
54.02687821046885
 30
0.0
 10
170.3897298687063
 20
54.78426896367004
 30
0.0
 10
170.3897298687063
 20
55.5321987379602
 30
0.0
  0
SPLINE
  5
18B
330
1F
100
AcDbEntity
  8
0
  6
Continuous
 62
     7
370
    25
100
AcDbSpline
210
0.0
220
0.0
230
1.0
 70
     8
 71
     3
 72
    10
 73
     6
 74
     0
 42
0.00000001
 43
0.00000001
 40
0.0
 40
0.0
 40
0.0
 40
0.0
 40
0.5
 40
0.5
 40
1.0
 40
1.0
 40
1.0
 40
1.0
 10
170.1397298687063
 20
45.86158172903396
 30
0.0
 10
170.2141102460834
 20
45.90452525993509
 30
0.0
 10
170.2784108848689
 20
45.96796770455877
 30
0.0
 10
170.3666265696522
 20
46.12044654167789
 30
0.0
 10
170.3897298687063
 20
46.20867654378537
 30
0.0
 10
170.3897298687063
 20
46.29459443092616
 30
0.0
  0
SPLINE
  5
18C
330
1F
100
AcDbEntity
  8
0
  6
Continuous
 62
     7
370
    25
100
AcDbSpline
210
0.0
220
0.0
230
1.0
 70
    24
 71
     3
 72
    16
 73
    12
 74
     0
 42
0.00000001
 43
0.00000001
 40
0.0
 40
0.0
 40
0.0
 40
0.0
 40
0.2500000000000002
 40
0.2500000000000002
 40
0.5000000000000004
 40
0.5000000000000004
 40
0.6250000000000003
 40
0.6250000000000003
 40
0.7500000000000002
 40
0.7500000000000002
 40
1.0
 40
1.0
 40
1.0
 40
1.0
 10
162.1397298687063
 20
41.24277957551696
 30
0.0
 10
162.793246648747
 20
41.62008766439342
 30
0.0
 10
163.4514670578369
 20
42.0001113947676
 30
0.0
 10
164.7810296412026
 20
42.76773471017824
 30
0.0
 10
165.4524536232731
 20
43.15538152696701
 30
0.0
 10
166.4714547102797
 20
43.7437020788548
 30
0.0
 10
166.8127954925959
 20
43.94077527141043
 30
0.0
 10
167.4883939955663
 20
44.33083224896451
 30
0.0
 10
167.8240531455309
 20
44.52462514955253
 30
0.0
 10
168.8253187820306
 20
45.10270613431591
 30
0.0
 10
169.4852264406337
 20
45.4837039986507
 30
0.0
 10
170.1397298687056
 20
45.86158172903361
 30
0.0
  0
SPLINE
  5
18D
330
1F
100
AcDbEntity
  8
0
  6
Continuous
 62
     7
370
    25
100
AcDbSpline
210
0.0
220
0.0
230
1.0
 70
     8
 71
     3
 72
    10
 73
     6
 74
     0
 42
0.00000001
 43
0.00000001
 40
0.0
 40
0.0
 40
0.0
 40
0.0
 40
0.5
 40
0.5
 40
1.0
 40
1.0
 40
1.0
 40
1.0
 10
161.6397298687063
 20
41.24277957551696
 30
0.0
 10
161.7141102460836
 20
41.19983604461572
 30
0.0
 10
161.8012033341992
 20
41.17587128025974
 30
0.0
 10
161.9773617230751
 20
41.17571367478496
 30
0.0
 10
162.065322795803
 20
41.19982063194664
 30
0.0
 10
162.1397298687063
 20
41.24277957551696
 30
0.0
  0
SPLINE
  5
18E
330
1F
100
AcDbEntity
  8
0
  6
Continuous
 62
     7
370
    25
100
AcDbSpline
210
0.0
220
0.0
230
1.0
 70
    24
 71
     3
 72
    16
 73
    12
 74
     0
 42
0.00000001
 43
0.00000001
 40
0.0
 40
0.0
 40
0.0
 40
0.0
 40
0.2500000000000001
 40
0.2500000000000001
 40
0.5000000000000002
 40
0.5000000000000002
 40
0.6250000000000001
 40
0.6250000000000001
 40
0.7500000000000001
 40
0.7500000000000001
 40
1.0
 40
1.0
 40
1.0
 40
1.0
 10
153.6397298687062
 20
45.86158172903396
 30
0.0
 10
154.293246648747
 20
45.48427364015747
 30
0.0
 10
154.951467057837
 20
45.10424990978326
 30
0.0
 10
156.2810296412028
 20
44.33662659437257
 30
0.0
 10
156.9524536232734
 20
43.94897977758377
 30
0.0
 10
157.9714547102801
 20
43.36065922569593
 30
0.0
 10
158.3127954925963
 20
43.16358603314027
 30
0.0
 10
158.9883939955667
 20
42.77352905558617
 30
0.0
 10
159.3240531455314
 20
42.57973615499814
 30
0.0
 10
160.325318782031
 20
42.00165517023471
 30
0.0
 10
160.9852264406342
 20
41.62065730589989
 30
0.0
 10
161.6397298687063
 20
41.24277957551696
 30
0.0
  0
CIRCLE
  5
18F
330
1F
100
AcDbEntity
  8
0
  6
Continuous
 62
     7
370
    25
100
AcDbCircle
 10
161.8897298687
 20
50.9133965844
 30
0.0
 40
8.25
  0
SPLINE
  5
190
330
1F
100
AcDbEntity
  8
0
  6
Continuous
 62
     7
370
    25
100
AcDbSpline
210
0.0
220
0.0
230
1.0
 70
     8
 71
     3
 72
    10
 73
     6
 74
     0
 42
0.00000001
 43
0.00000001
 40
0.0
 40
0.0
 40
0.0
 40
0.0
 40
0.5
 40
0.5
 40
1.0
 40
1.0
 40
1.0
 40
1.0
 10
161.6397298687063
 20
39.59111798970338
 30
0.0
 10
161.7141046226963
 20
39.6147915941945
 30
0.0
 10
161.8011983542622
 20
39.62788436998773
 30
0.0
 10
161.9773641828067
 20
39.62797093808868
 30
0.0
 10
162.065325206697
 20
39.6148011139654
 30
0.0
 10
162.1397298687063
 20
39.59111798970338
 30
0.0
  0
SPLINE
  5
191
330
1F
100
AcDbEntity
  8
0
  6
Continuous
 62
     7
370
    25
100
AcDbSpline
210
0.0
220
0.0
230
1.0
 70
     8
 71
     3
 72
    12
 73
     8
 74
     0
 42
0.00000001
 43
0.00000001
 40
0.0
 40
0.0
 40
0.0
 40
0.0
 40
0.2500000000000003
 40
0.2500000000000003
 40
0.5000000000000002
 40
0.5000000000000002
 40
1.0
 40
1.0
 40
1.0
 40
1.0
 10
166.1397298687063
 20
38.91339658444319
 30
0.0
 10
165.8019739336835
 20
38.91339658444319
 30
0.0
 10
165.461565918805
 20
38.92914291446515
 30
0.0
 10
164.7870712344046
 20
38.99058793905057
 30
0.0
 10
164.4519459155373
 20
39.0361766983043
 30
0.0
 10
163.4522345971972
 20
39.2126277005609
 30
0.0
 10
162.7933004941319
 20
39.38308540252439
 30
0.0
 10
162.1397298687062
 20
39.59111798970323
 30
0.0
  0
LINE
  5
192
330
1F
100
AcDbEntity
  8
0
  6
Continuous
 62
     7
370
    25
100
AcDbLine
 10
157.6397298687
 20
38.9133965844
 30
0.0
 11
166.1397298687
 21
38.9133965844
 31
0.0
  0
SPLINE
  5
193
330
1F
100
AcDbEntity
  8
0
  6
Continuous
 62
     7
370
    25
100
AcDbSpline
210
0.0
220
0.0
230
1.0
 70
     8
 71
     3
 72
    10
 73
     6
 74
     0
 42
0.00000001
 43
0.00000001
 40
0.0
 40
0.0
 40
0.0
 40
0.0
 40
0.5
 40
0.5
 40
1.0
 40
1.0
 40
1.0
 40
1.0
 10
161.6397298687063
 20
39.59111798970291
 30
0.0
 10
160.9837171021012
 20
39.38230806503665
 30
0.0
 10
160.3234501952435
 20
39.21177392528941
 30
0.0
 10
158.9911036766085
 20
38.97698812027048
 30
0.0
 10
158.3189506951211
 20
38.91339658444319
 30
0.0
 10
157.6397298687062
 20
38.91339658444319
 30
0.0
  0
LINE
  5
194
330
1F
100
AcDbEntity
  8
0
  6
Continuous
 62
     7
370
    25
100
AcDbLine
 10
162.1397298687
 20
41.2427795755
 30
0.0
 11
162.1397298687
 21
39.5911179897
 31
0.0
  0
LINE
  5
195
330
1F
100
AcDbEntity
  8
0
  6
Continuous
 62
     7
370
    25
100
AcDbLine
 10
161.6397298687
 20
39.5911179897
 30
0.0
 11
161.6397298687
 21
41.2427795755
 31
0.0
  0
SPLINE
  5
196
330
1F
100
AcDbEntity
  8
0
  6
Continuous
 62
     7
370
    25
100
AcDbSpline
210
0.0
220
0.0
230
1.0
 70
     8
 71
     3
 72
    12
 73
     8
 74
     0
 42
0.00000001
 43
0.00000001
 40
0.0
 40
0.0
 40
0.0
 40
0.0
 40
0.2499999999999999
 40
0.2499999999999999
 40
0.4999999999999998
 40
0.4999999999999998
 40
1.0
 40
1.0
 40
1.0
 40
1.0
 10
166.2641599614586
 20
43.62402039980832
 30
0.0
 10
166.5932949518518
 20
43.62031191395189
 30
0.0
 10
166.9227571047885
 20
43.60172941111422
 30
0.0
 10
167.5756307228462
 20
43.53686237414807
 30
0.0
 10
167.9000833147232
 20
43.4905968208978
 30
0.0
 10
168.8681437559154
 20
43.31487229059084
 30
0.0
 10
169.5064662401633
 20
43.14856888181409
 30
0.0
 10
170.1397298687063
 20
42.94700004458819
 30
0.0
  0
LINE
  5
197
330
1F
100
AcDbEntity
  8
0
  6
Continuous
 62
     7
370
    25
100
AcDbLine
 10
170.1397298687
 20
39.5911179897
 30
0.0
 11
170.1397298687
 21
42.9470000446
 31
0.0
  0
SPLINE
  5
198
330
1F
100
AcDbEntity
  8
0
  6
Continuous
 62
     7
370
    25
100
AcDbSpline
210
0.0
220
0.0
230
1.0
 70
     8
 71
     3
 72
    10
 73
     6
 74
     0
 42
0.00000001
 43
0.00000001
 40
0.0
 40
0.0
 40
0.0
 40
0.0
 40
0.5
 40
0.5
 40
1.0
 40
1.0
 40
1.0
 40
1.0
 10
170.1397298687063
 20
39.59111798970291
 30
0.0
 10
169.4837171021012
 20
39.38230806503665
 30
0.0
 10
168.8234501952435
 20
39.21177392528941
 30
0.0
 10
167.4911036766085
 20
38.97698812027048
 30
0.0
 10
166.8189506951211
 20
38.91339658444319
 30
0.0
 10
166.1397298687063
 20
38.91339658444319
 30
0.0
  0
SPLINE
  5
199
330
1F
100
AcDbEntity
  8
0
  6
Continuous
 62
     7
370
    25
100
AcDbSpline
210
0.0
220
0.0
230
1.0
 70
     8
 71
     3
 72
    12
 73
     8
 74
     0
 42
0.00000001
 43
0.00000001
 40
0.0
 40
0.0
 40
0.0
 40
0.0
 40
0.2499999999999998
 40
0.2499999999999998
 40
0.4999999999999996
 40
0.4999999999999996
 40
1.0
 40
1.0
 40
1.0
 40
1.0
 10
157.6397298687062
 20
38.91339658444319
 30
0.0
 10
157.3019739336835
 20
38.91339658444318
 30
0.0
 10
156.961565918805
 20
38.92914291446515
 30
0.0
 10
156.2870712344046
 20
38.99058793905057
 30
0.0
 10
155.9519459155373
 20
39.0361766983043
 30
0.0
 10
154.9522345971972
 20
39.2126277005609
 30
0.0
 10
154.2933004941319
 20
39.38308540252439
 30
0.0
 10
153.6397298687062
 20
39.59111798970323
 30
0.0
  0
LINE
  5
19A
330
1F
100
AcDbEntity
  8
0
  6
Continuous
 62
     7
370
    25
100
AcDbLine
 10
153.6397298687
 20
42.9470000446
 30
0.0
 11
153.6397298687
 21
39.5911179897
 31
0.0
  0
SPLINE
  5
19B
330
1F
100
AcDbEntity
  8
0
  6
Continuous
 62
     7
370
    25
100
AcDbSpline
210
0.0
220
0.0
230
1.0
 70
     8
 71
     3
 72
    10
 73
     6
 74
     0
 42
0.00000001
 43
0.00000001
 40
0.0
 40
0.0
 40
0.0
 40
0.0
 40
0.5
 40
0.5
 40
1.0
 40
1.0
 40
1.0
 40
1.0
 10
153.6397298687067
 20
42.94700004458834
 30
0.0
 10
154.2745575745204
 20
43.14906673013926
 30
0.0
 10
154.9138232770962
 20
43.31545950240991
 30
0.0
 10
156.204638208686
 20
43.54950647627996
 30
0.0
 10
156.8562578441559
 20
43.61659473023879
 30
0.0
 10
157.515299775976
 20
43.62402039980857
 30
0.0
  0
SPLINE
  5
19C
330
1F
100
AcDbEntity
  8
0
  6
Continuous
 62
     7
370
    25
100
AcDbSpline
210
0.0
220
0.0
230
1.0
 70
     8
 71
     3
 72
    10
 73
     6
 74
     0
 42
0.00000001
 43
0.00000001
 40
0.0
 40
0.0
 40
0.0
 40
0.0
 40
0.5
 40
0.5
 40
1.0
 40
1.0
 40
1.0
 40
1.0
 10
170.1397298687063
 20
39.59111798970338
 30
0.0
 10
170.2141003356318
 20
39.61479022961494
 30
0.0
 10
170.2784059319197
 20
39.6278842195502
 30
0.0
 10
170.3666287197255
 20
39.62797108701164
 30
0.0
 10
170.3897298687063
 20
39.61480129725228
 30
0.0
 10
170.3897298687063
 20
39.59111798970338
 30
0.0
  0
LINE
  5
19D
330
1F
100
AcDbEntity
  8
0
  6
Continuous
 62
     7
370
    25
100
AcDbLine
 10
166.1397298687
 20
38.9133965844
 30
0.0
 11
170.3897298687
 21
38.9133965844
 31
0.0
  0
SPLINE
  5
19E
330
1F
100
AcDbEntity
  8
0
  6
Continuous
 62
     7
370
    25
100
AcDbSpline
210
0.0
220
0.0
230
1.0
 70
    24
 71
     3
 72
    10
 73
     6
 74
     0
 42
0.00000001
 43
0.00000001
 40
0.0
 40
0.0
 40
0.0
 40
0.0
 40
0.4999999999999999
 40
0.4999999999999999
 40
1.0
 40
1.0
 40
1.0
 40
1.0
 10
170.3897298687063
 20
38.91339658444319
 30
0.0
 10
170.3897298687063
 20
38.91339658444319
 30
0.0
 10
170.3897298687063
 20
38.97568094642171
 30
0.0
 10
170.3897298687063
 20
39.21052906442873
 30
0.0
 10
170.3897298687063
 20
39.38377167155993
 30
0.0
 10
170.3897298687063
 20
39.59111798970338
 30
0.0
  0
SPLINE
  5
19F
330
1F
100
AcDbEntity
  8
0
  6
Continuous
 62
     7
370
    25
100
AcDbSpline
210
0.0
220
0.0
230
1.0
 70
     8
 71
     3
 72
    10
 73
     6
 74
     0
 42
0.00000001
 43
0.00000001
 40
0.0
 40
0.0
 40
0.0
 40
0.0
 40
0.5
 40
0.5
 40
1.0
 40
1.0
 40
1.0
 40
1.0
 10
153.3897298687062
 20
39.59111798970338
 30
0.0
 10
153.3897298687062
 20
39.61479189025933
 30
0.0
 10
153.4125204403537
 20
39.62788444743847
 30
0.0
 10
153.5004664376525
 20
39.62797086142075
 30
0.0
 10
153.5653272303853
 20
39.61480046982213
 30
0.0
 10
153.6397298687062
 20
39.59111798970338
 30
0.0
  0
LINE
  5
1A0
330
1F
100
AcDbEntity
  8
0
  6
Continuous
 62
     7
370
    25
100
AcDbLine
 10
153.3897298687
 20
38.9133965844
 30
0.0
 11
157.6397298687
 21
38.9133965844
 31
0.0
  0
SPLINE
  5
1A1
330
1F
100
AcDbEntity
  8
0
  6
Continuous
 62
     7
370
    25
100
AcDbSpline
210
0.0
220
0.0
230
1.0
 70
    24
 71
     3
 72
    10
 73
     6
 74
     0
 42
0.00000001
 43
0.00000001
 40
0.0
 40
0.0
 40
0.0
 40
0.0
 40
0.5
 40
0.5
 40
1.0
 40
1.0
 40
1.0
 40
1.0
 10
153.3897298687062
 20
38.91339658444319
 30
0.0
 10
153.3897298687062
 20
38.91339658444319
 30
0.0
 10
153.3897298687062
 20
38.97568094642171
 30
0.0
 10
153.3897298687062
 20
39.21052906442873
 30
0.0
 10
153.3897298687062
 20
39.38377167155993
 30
0.0
 10
153.3897298687062
 20
39.59111798970338
 30
0.0
  0
SPLINE
  5
1A2
330
1F
100
AcDbEntity
  8
0
  6
Continuous
 62
     7
370
    25
100
AcDbSpline
210
0.0
220
0.0
230
1.0
 70
     8
 71
     3
 72
     8
 73
     4
 74
     0
 42
0.00000001
 43
0.00000001
 40
0.0
 40
0.0
 40
0.0
 40
0.0
 40
1.0
 40
1.0
 40
1.0
 40
1.0
 10
153.3897298687062
 20
43.1084853728692
 30
0.0
 10
153.9115360200081
 20
43.38107550853856
 30
0.0
 10
154.4351894888643
 20
43.65022800965995
 30
0.0
 10
154.9615266384307
 20
43.91339658444319
 30
0.0
  0
SPLINE
  5
1A3
330
1F
100
AcDbEntity
  8
0
  6
Continuous
 62
     7
370
    25
100
AcDbSpline
210
0.0
220
0.0
230
1.0
 70
     8
 71
     3
 72
    10
 73
     6
 74
     0
 42
0.00000001
 43
0.00000001
 40
0.0
 40
0.0
 40
0.0
 40
0.0
 40
0.5
 40
0.5
 40
1.0
 40
1.0
 40
1.0
 40
1.0
 10
153.3897298687062
 20
42.94700004458817
 30
0.0
 10
153.3897298687062
 20
42.92332465016376
 30
0.0
 10
153.4125223180361
 20
42.91023354027912
 30
0.0
 10
153.5004650221294
 20
42.91014721899091
 30
0.0
 10
153.5653227958035
 20
42.92331615293485
 30
0.0
 10
153.6397298687069
 20
42.9470000445884
 30
0.0
  0
SPLINE
  5
1A4
330
1F
100
AcDbEntity
  8
0
  6
Continuous
 62
     7
370
    25
100
AcDbSpline
210
0.0
220
0.0
230
1.0
 70
    24
 71
     3
 72
     8
 73
     4
 74
     0
 42
0.00000001
 43
0.00000001
 40
0.0
 40
0.0
 40
0.0
 40
0.0
 40
1.0
 40
1.0
 40
1.0
 40
1.0
 10
153.3897298687062
 20
43.1084853728692
 30
0.0
 10
153.3897298687062
 20
43.05759058316838
 30
0.0
 10
153.3897298687062
 20
43.00365673380694
 30
0.0
 10
153.3897298687062
 20
42.94700004458819
 30
0.0
  0
SPLINE
  5
1A5
330
1F
100
AcDbEntity
  8
0
  6
Continuous
 62
     7
370
    25
100
AcDbSpline
210
0.0
220
0.0
230
1.0
 70
     8
 71
     3
 72
     8
 73
     4
 74
     0
 42
0.00000001
 43
0.00000001
 40
0.0
 40
0.0
 40
0.0
 40
0.0
 40
1.0
 40
1.0
 40
1.0
 40
1.0
 10
168.8179330989818
 20
43.91339658444318
 30
0.0
 10
169.344353960191
 20
43.65018615383858
 30
0.0
 10
169.8678984169047
 20
43.38108872545187
 30
0.0
 10
170.3897298687063
 20
43.10848537286923
 30
0.0
  0
SPLINE
  5
1A6
330
1F
100
AcDbEntity
  8
0
  6
Continuous
 62
     7
370
    25
100
AcDbSpline
210
0.0
220
0.0
230
1.0
 70
     8
 71
     3
 72
    10
 73
     6
 74
     0
 42
0.00000001
 43
0.00000001
 40
0.0
 40
0.0
 40
0.0
 40
0.0
 40
0.5
 40
0.5
 40
1.0
 40
1.0
 40
1.0
 40
1.0
 10
170.1397298687063
 20
42.94700004458819
 30
0.0
 10
170.2141102460836
 20
42.9233246501638
 30
0.0
 10
170.2784108848694
 20
42.91023354027916
 30
0.0
 10
170.3666265696523
 20
42.91014721899088
 30
0.0
 10
170.3897298687063
 20
42.92331615293472
 30
0.0
 10
170.3897298687063
 20
42.94700004458818
 30
0.0
  0
SPLINE
  5
1A7
330
1F
100
AcDbEntity
  8
0
  6
Continuous
 62
     7
370
    25
100
AcDbSpline
210
0.0
220
0.0
230
1.0
 70
    24
 71
     3
 72
     8
 73
     4
 74
     0
 42
0.00000001
 43
0.00000001
 40
0.0
 40
0.0
 40
0.0
 40
0.0
 40
1.0
 40
1.0
 40
1.0
 40
1.0
 10
170.3897298687063
 20
43.1084853728692
 30
0.0
 10
170.3897298687063
 20
43.05759058316838
 30
0.0
 10
170.3897298687063
 20
43.00365673380694
 30
0.0
 10
170.3897298687063
 20
42.94700004458819
 30
0.0
  0
LINE
  5
1A8
330
1F
100
AcDbEntity
  8
0
  6
Continuous
 62
     7
370
    25
100
AcDbLine
 10
169.3897298687
 20
45.4285690271
 30
0.0
 11
169.3897298687
 21
43.9133965844
 31
0.0
  0
LINE
  5
1A9
330
1F
100
AcDbEntity
  8
0
  6
Continuous
 62
     7
370
    25
100
AcDbLine
 10
166.7653742157
 20
43.9133965844
 30
0.0
 11
169.3897298687
 21
43.9133965844
 31
0.0
  0
LINE
  5
1AA
330
1F
100
AcDbEntity
  8
0
  6
Continuous
 62
     7
370
    25
100
AcDbLine
 10
154.3897298687
 20
43.9133965844
 30
0.0
 11
154.3897298687
 21
45.4285690271
 31
0.0
  0
LINE
  5
1AB
330
1F
100
AcDbEntity
  8
0
  6
Continuous
 62
     7
370
    25
100
AcDbLine
 10
154.3897298687
 20
43.9133965844
 30
0.0
 11
157.0140855217
 21
43.9133965844
 31
0.0
  0
LINE
  5
1AC
330
1F
100
AcDbEntity
  8
0
  6
Continuous
 62
     7
370
    25
100
AcDbLine
 10
161.8897298687
 20
29.5170624583
 30
0.0
 11
168.3542819273
 21
29.5170624583
 31
0.0
  0
LINE
  5
1AD
330
1F
100
AcDbEntity
  8
0
  6
Continuous
 62
     7
370
    25
100
AcDbLine
 10
155.4251778101
 20
29.5170624583
 30
0.0
 11
161.8897298687
 21
29.5170624583
 31
0.0
  0
LINE
  5
1AE
330
1F
100
AcDbEntity
  8
0
  6
Continuous
 62
     7
370
    25
100
AcDbLine
 10
167.1397298687
 20
27.4133965844
 30
0.0
 11
156.6397298687
 21
27.4133965844
 31
0.0
  0
LINE
  5
1AF
330
1F
100
AcDbEntity
  8
0
  6
Continuous
 62
     7
370
    25
100
AcDbLine
 10
153.3897298687
 20
39.5911179897
 30
0.0
 11
153.3897298687
 21
42.9470000446
 31
0.0
  0
LINE
  5
1B0
330
1F
100
AcDbEntity
  8
0
  6
Continuous
 62
     7
370
    25
100
AcDbLine
 10
170.3897298687
 20
42.9470000446
 30
0.0
 11
170.3897298687
 21
39.5911179897
 31
0.0
  0
LINE
  5
1B1
330
1F
100
AcDbEntity
  8
0
  6
Continuous
 62
     7
370
    25
100
AcDbLine
 10
153.3897298687
 20
43.1084853729
 30
0.0
 11
153.3897298687
 21
46.2683829813
 31
0.0
  0
LINE
  5
1B2
330
1F
100
AcDbEntity
  8
0
  6
Continuous
 62
     7
370
    25
100
AcDbLine
 10
170.3897298687
 20
43.1084853729
 30
0.0
 11
170.3897298687
 21
46.2683829813
 31
0.0
  0
LINE
  5
1B3
330
1F
100
AcDbEntity
  8
0
  6
Continuous
 62
     7
370
    25
100
AcDbLine
 10
163.1397298687
 20
77.4133965844
 30
0.0
 11
163.1397298687
 21
78.0133965844
 31
0.0
  0
LINE
  5
1B4
330
1F
100
AcDbEntity
  8
0
  6
Continuous
 62
     7
370
    25
100
AcDbLine
 10
163.1397298687
 20
78.0133965844
 30
0.0
 11
163.3897298687
 21
78.0133965844
 31
0.0
  0
LINE
  5
1B5
330
1F
100
AcDbEntity
  8
0
  6
Continuous
 62
     7
370
    25
100
AcDbLine
 10
163.3897298687
 20
78.0133965844
 30
0.0
 11
163.3897298687
 21
77.4133965844
 31
0.0
  0
LINE
  5
1B6
330
1F
100
AcDbEntity
  8
0
  6
Continuous
 62
     7
370
    25
100
AcDbLine
 10
163.3897298687
 20
77.4133965844
 30
0.0
 11
163.1397298687
 21
77.4133965844
 31
0.0
  0
LINE
  5
1B7
330
1F
100
AcDbEntity
  8
0
  6
Continuous
 62
     7
370
    25
100
AcDbLine
 10
160.3897298687
 20
77.4133965844
 30
0.0
 11
160.3897298687
 21
78.0133965844
 31
0.0
  0
LINE
  5
1B8
330
1F
100
AcDbEntity
  8
0
  6
Continuous
 62
     7
370
    25
100
AcDbLine
 10
160.3897298687
 20
78.0133965844
 30
0.0
 11
160.6397298687
 21
78.0133965844
 31
0.0
  0
LINE
  5
1B9
330
1F
100
AcDbEntity
  8
0
  6
Continuous
 62
     7
370
    25
100
AcDbLine
 10
160.6397298687
 20
78.0133965844
 30
0.0
 11
160.6397298687
 21
77.4133965844
 31
0.0
  0
LINE
  5
1BA
330
1F
100
AcDbEntity
  8
0
  6
Continuous
 62
     7
370
    25
100
AcDbLine
 10
160.6397298687
 20
77.4133965844
 30
0.0
 11
160.3897298687
 21
77.4133965844
 31
0.0
  0
ARC
  5
1BB
330
1F
100
AcDbEntity
  8
0
  6
Continuous
 62
     7
370
    25
100
AcDbCircle
 10
160.6397298687
 20
78.0133965844
 30
0.0
 40
0.2500000000000284
100
AcDbArc
 50
90.0
 51
180.0
  0
LINE
  5
1BC
330
1F
100
AcDbEntity
  8
0
  6
Continuous
 62
     7
370
    25
100
AcDbLine
 10
160.6397298687
 20
78.2633965844
 30
0.0
 11
160.6397298687
 21
78.0133965844
 31
0.0
  0
LINE
  5
1BD
330
1F
100
AcDbEntity
  8
0
  6
Continuous
 62
     7
370
    25
100
AcDbLine
 10
163.1397298687
 20
78.0133965844
 30
0.0
 11
163.1397298687
 21
78.2633965844
 31
0.0
  0
ARC
  5
1BE
330
1F
100
AcDbEntity
  8
0
  6
Continuous
 62
     7
370
    25
100
AcDbCircle
 10
163.1397298687
 20
78.0133965844
 30
0.0
 40
0.25
100
AcDbArc
 50
0.0
 51
90.0
  0
LINE
  5
1BF
330
1F
100
AcDbEntity
  8
0
  6
Continuous
 62
     7
370
    25
100
AcDbLine
 10
163.1397298687
 20
78.0133965844
 30
0.0
 11
160.6397298687
 21
78.0133965844
 31
0.0
  0
LINE
  5
1C0
330
1F
100
AcDbEntity
  8
0
  6
Continuous
 62
     7
370
    25
100
AcDbLine
 10
160.6397298687
 20
77.4133965844
 30
0.0
 11
163.1397298687
 21
77.4133965844
 31
0.0
  0
LINE
  5
1C1
330
1F
100
AcDbEntity
  8
0
  6
Continuous
 62
     7
370
    25
100
AcDbLine
 10
160.6397298687
 20
78.2633965844
 30
0.0
 11
163.1397298687
 21
78.2633965844
 31
0.0
  0
SPLINE
  5
1C2
330
1F
100
AcDbEntity
  8
0
  6
Continuous
 62
     7
370
    25
100
AcDbSpline
210
0.0
220
0.0
230
1.0
 70
     8
 71
     3
 72
    15
 73
    11
 74
     0
 42
0.00000001
 43
0.00000001
 40
0.0
 40
0.0
 40
0.0
 40
0.0
 40
0.0090459071881971
 40
0.1032433785236875
 40
0.1542564497735248
 40
0.313316902671511
 40
0.5243720399414434
 40
0.6678060008509189
 40
0.9918332554187028
 40
1.0
 40
1.0
 40
1.0
 40
1.0
 10
160.215816825228
 20
78.01339658444319
 30
0.0
 10
160.2158344709524
 20
78.01507768302761
 30
0.0
 10
160.216035866365
 20
78.03426451458313
 30
0.0
 10
160.2222254870312
 20
78.06295879410312
 30
0.0
 10
160.2464274188754
 20
78.11363483407503
 30
0.0
 10
160.299446410877
 20
78.17151113365195
 30
0.0
 10
160.3808172980736
 20
78.21637664838663
 30
0.0
 10
160.4953963700961
 20
78.25373903164115
 30
0.0
 10
160.5798215478152
 20
78.26328504391073
 30
0.0
 10
160.6382924057672
 20
78.26339390809741
 30
0.0
 10
160.6397298687063
 20
78.26339658444319
 30
0.0
  0
LINE
  5
1C3
330
1F
100
AcDbEntity
  8
0
  6
Continuous
 62
     7
370
    25
100
AcDbLine
 10
160.2158168252
 20
78.0133965844
 30
0.0
 11
160.3897298687
 21
78.0133965844
 31
0.0
  0
LINE
  5
1C4
330
1F
100
AcDbEntity
  8
0
  6
Continuous
 62
     7
370
    25
100
AcDbLine
 10
163.3897298687
 20
78.0133965844
 30
0.0
 11
163.5636429122
 21
78.0133965844
 31
0.0
  0
SPLINE
  5
1C5
330
1F
100
AcDbEntity
  8
0
  6
Continuous
 62
     7
370
    25
100
AcDbSpline
210
0.0
220
0.0
230
1.0
 70
     8
 71
     3
 72
    15
 73
    11
 74
     0
 42
0.00000001
 43
0.00000001
 40
0.0
 40
0.0
 40
0.0
 40
0.0
 40
0.0081667445812695
 40
0.3321939991490077
 40
0.4756279600585576
 40
0.68668309732849
 40
0.8457435502264807
 40
0.8967566214763126
 40
0.9909540928118029
 40
1.0
 40
1.0
 40
1.0
 40
1.0
 10
163.1397298687063
 20
78.26339658444319
 30
0.0
 10
163.1411673316453
 20
78.26339390809741
 30
0.0
 10
163.199638189597
 20
78.26328504391067
 30
0.0
 10
163.2840633673165
 20
78.25373903164115
 30
0.0
 10
163.3986424393389
 20
78.21637664838663
 30
0.0
 10
163.4800133265355
 20
78.17151113365195
 30
0.0
 10
163.5330323185372
 20
78.11363483407504
 30
0.0
 10
163.5572342503813
 20
78.06295879410311
 30
0.0
 10
163.5634238710475
 20
78.0342645145831
 30
0.0
 10
163.56362526646
 20
78.0150776830276
 30
0.0
 10
163.5636429121845
 20
78.01339658444319
 30
0.0
  0
LINE
  5
1C6
330
1F
100
AcDbEntity
  8
0
  6
Continuous
 62
     7
370
    25
100
AcDbLine
 10
163.5636429122
 20
78.0133965844
 30
0.0
 11
163.5636429122
 21
77.4133965844
 31
0.0
  0
LINE
  5
1C7
330
1F
100
AcDbEntity
  8
0
  6
Continuous
 62
     7
370
    25
100
AcDbLine
 10
163.5636429122
 20
77.4133965844
 30
0.0
 11
163.3897298687
 21
77.4133965844
 31
0.0
  0
LINE
  5
1C8
330
1F
100
AcDbEntity
  8
0
  6
Continuous
 62
     7
370
    25
100
AcDbLine
 10
160.2158168252
 20
77.4133965844
 30
0.0
 11
160.2158168252
 21
78.0133965844
 31
0.0
  0
LINE
  5
1C9
330
1F
100
AcDbEntity
  8
0
  6
Continuous
 62
     7
370
    25
100
AcDbLine
 10
160.3897298687
 20
77.4133965844
 30
0.0
 11
160.2158168252
 21
77.4133965844
 31
0.0
  0
LINE
  5
1CA
330
1F
100
AcDbEntity
  8
0
  6
Continuous
 62
     7
370
    25
100
AcDbLine
 10
156.6397298687
 20
78.2633965844
 30
0.0
 11
160.6397298687
 21
78.2633965844
 31
0.0
  0
LINE
  5
1CB
330
1F
100
AcDbEntity
  8
0
  6
Continuous
 62
     7
370
    25
100
AcDbLine
 10
163.1397298687
 20
78.2633965844
 30
0.0
 11
167.1397298687
 21
78.2633965844
 31
0.0
  0
LINE
  5
1CC
330
1F
100
AcDbEntity
  8
0
  6
Continuous
 62
     7
370
    25
100
AcDbLine
 10
163.5636429122
 20
77.4133965844
 30
0.0
 11
167.3897298687
 21
77.4133965844
 31
0.0
  0
LINE
  5
1CD
330
1F
100
AcDbEntity
  8
0
  6
Continuous
 62
     7
370
    25
100
AcDbLine
 10
156.3897298687
 20
77.4133965844
 30
0.0
 11
160.2158168252
 21
77.4133965844
 31
0.0
  0
LINE
  5
1CE
330
1F
100
AcDbEntity
  8
0
  6
Continuous
 62
     7
370
    25
100
AcDbLine
 10
161.2897298687
 20
78.2733965844
 30
0.0
 11
162.4897298687
 21
78.2733965844
 31
0.0
  0
LINE
  5
1CF
330
1F
100
AcDbEntity
  8
0
  6
Continuous
 62
     7
370
    25
100
AcDbLine
 10
162.4897298687
 20
78.2633965844
 30
0.0
 11
162.4897298687
 21
78.2733965844
 31
0.0
  0
LINE
  5
1D0
330
1F
100
AcDbEntity
  8
0
  6
Continuous
 62
     7
370
    25
100
AcDbLine
 10
161.2897298687
 20
78.2633965844
 30
0.0
 11
161.2897298687
 21
78.2733965844
 31
0.0
  0
LINE
  5
1D1
330
1F
100
AcDbEntity
  8
0
  6
Continuous
 62
     7
370
    25
100
AcDbLine
 10
154.4397298687
 20
69.4133965844
 30
0.0
 11
169.3397298687
 21
69.4133965844
 31
0.0
  0
LINE
  5
1D2
330
1F
100
AcDbEntity
  8
0
  6
Continuous
 62
     7
370
    25
100
AcDbLine
 10
154.8897298687
 20
61.4133965844
 30
0.0
 11
168.8897298687
 21
61.4133965844
 31
0.0
  0
LINE
  5
1D3
330
1F
100
AcDbEntity
  8
0
  6
Continuous
 62
     7
370
    25
100
AcDbLine
 10
158.3897298687
 20
79.4133965844
 30
0.0
 11
158.3897298687
 21
78.2633965844
 31
0.0
  0
LINE
  5
1D4
330
1F
100
AcDbEntity
  8
0
  6
Continuous
 62
     7
370
    25
100
AcDbLine
 10
158.3897298687
 20
79.4133965844
 30
0.0
 11
158.6180306047
 21
79.4133965844
 31
0.0
  0
LINE
  5
1D5
330
1F
100
AcDbEntity
  8
0
  6
Continuous
 62
     7
370
    25
100
AcDbLine
 10
158.6180306047
 20
79.4133965844
 30
0.0
 11
158.6180306047
 21
78.2633965844
 31
0.0
  0
LINE
  5
1D6
330
1F
100
AcDbEntity
  8
0
  6
Continuous
 62
     7
370
    25
100
AcDbLine
 10
165.1614291328
 20
79.4133965844
 30
0.0
 11
165.1614291328
 21
78.2633965844
 31
0.0
  0
LINE
  5
1D7
330
1F
100
AcDbEntity
  8
0
  6
Continuous
 62
     7
370
    25
100
AcDbLine
 10
165.1614291328
 20
79.4133965844
 30
0.0
 11
165.3897298687
 21
79.4133965844
 31
0.0
  0
LINE
  5
1D8
330
1F
100
AcDbEntity
  8
0
  6
Continuous
 62
     7
370
    25
100
AcDbLine
 10
165.3897298687
 20
78.2633965844
 30
0.0
 11
165.3897298687
 21
79.4133965844
 31
0.0
  0
LINE
  5
1D9
330
1F
100
AcDbEntity
  8
0
  6
Continuous
 62
     7
370
    25
100
AcDbLine
 10
158.6180306047
 20
79.4133965844
 30
0.0
 11
165.1614291328
 21
79.4133965844
 31
0.0
  0
SPLINE
  5
1DA
330
1F
100
AcDbEntity
  8
0
  6
Continuous
 62
     7
370
    25
100
AcDbSpline
210
0.0
220
0.0
230
1.0
 70
     8
 71
     3
 72
    19
 73
    15
 74
     0
 42
0.00000001
 43
0.00000001
 40
0.0
 40
0.0
 40
0.0
 40
0.0
 40
0.0167572475641317
 40
0.0954753817501213
 40
0.1742981608385963
 40
0.2799191694377983
 40
0.3857358152009848
 40
0.4988208061421637
 40
0.6118872819377134
 40
0.7070684292031675
 40
0.8021753740854767
 40
0.8927539322478444
 40
0.9832578437433984
 40
1.0
 40
1.0
 40
1.0
 40
1.0
 10
155.9973698309816
 20
57.45279584733685
 30
0.0
 10
155.9948470333414
 20
57.44966457667614
 30
0.0
 10
155.980473248694
 20
57.43182398199913
 30
0.0
 10
156.0439186340635
 20
57.51088703014174
 30
0.0
 10
156.1990218540984
 20
57.69536856202594
 30
0.0
 10
156.4873203404067
 20
58.01534869116938
 30
0.0
 10
156.9197539763323
 20
58.43979660644738
 30
0.0
 10
157.4741868125949
 20
58.90246128625839
 30
0.0
 10
158.1170823456583
 20
59.3429412545136
 30
0.0
 10
158.816519275538
 20
59.72100219418844
 30
0.0
 10
159.5385195943533
 20
60.02422572263174
 30
0.0
 10
160.316238983926
 20
60.24262484118488
 30
0.0
 10
160.9042874566186
 20
60.36402460088131
 30
0.0
 10
161.2338776351344
 20
60.37732442823256
 30
0.0
 10
161.2853298737574
 20
60.37940066088489
 30
0.0
  0
SPLINE
  5
1DB
330
1F
100
AcDbEntity
  8
0
  6
Continuous
 62
     7
370
    25
100
AcDbSpline
210
0.0
220
0.0
230
1.0
 70
     8
 71
     3
 72
    20
 73
    16
 74
     0
 42
0.00000001
 43
0.00000001
 40
0.0
 40
0.0
 40
0.0
 40
0.0
 40
0.0313498205235868
 40
0.0973832995430502
 40
0.1973829863225653
 40
0.2974949229118594
 40
0.4180658183461151
 40
0.5387331431521164
 40
0.6171139811019901
 40
0.6956762431180902
 40
0.7739420132835765
 40
0.8504659858526102
 40
0.9268892628861631
 40
0.9967464858891912
 40
1.0
 40
1.0
 40
1.0
 40
1.0
 10
162.5019270786473
 20
60.37489893671022
 30
0.0
 10
162.5977989898789
 20
60.36967890487723
 30
0.0
 10
162.8956100424879
 20
60.35346369486563
 30
0.0
 10
163.4784959886958
 20
60.23909082671151
 30
0.0
 10
164.2277369270454
 20
60.02982084058517
 30
0.0
 10
165.0482161473131
 20
59.68548820816996
 30
0.0
 10
165.8152980549263
 20
59.24993716569698
 30
0.0
 10
166.4223234633137
 20
58.80853697279947
 30
0.0
 10
166.8675552505014
 20
58.42615793683085
 30
0.0
 10
167.1893467200656
 20
58.1174220190977
 30
0.0
 10
167.4490447421646
 20
57.84343034531661
 30
0.0
 10
167.6441384444954
 20
57.62037624714203
 30
0.0
 10
167.7552137472561
 20
57.48594396845952
 30
0.0
 10
167.7991968556199
 20
57.43204033852091
 30
0.0
 10
167.7882737023191
 20
57.44537149872173
 30
0.0
 10
167.7877876091021
 20
57.44596475108847
 30
0.0
  0
LINE
  5
1DC
330
1F
100
AcDbEntity
  8
0
  6
Continuous
 62
     7
370
    25
100
AcDbLine
 10
160.2158168252
 20
78.0133965844
 30
0.0
 11
156.3897298687
 21
78.0133965844
 31
0.0
  0
LINE
  5
1DD
330
1F
100
AcDbEntity
  8
0
  6
Continuous
 62
     7
370
    25
100
AcDbLine
 10
167.3897298687
 20
78.0133965844
 30
0.0
 11
163.5636429122
 21
78.0133965844
 31
0.0
  0
INSERT
  5
1E9
330
1F
100
AcDbEntity
  8
FORMAT
100
AcDbBlockReference
  2
SW_CENTERMARKSYMBOL_0
 10
161.8897298687
 20
50.9133965844
 30
0.0
  0
ARC
  5
1EA
330
1F
100
AcDbEntity
  8
FORMAT
100
AcDbCircle
 10
161.8897298687
 20
50.9133965844
 30
0.0
 40
6.999999999999998
100
AcDbArc
 50
75.0
 51
345.0
  0
LINE
  5
1EB
330
1F
100
AcDbEntity
  8
FORMAT
100
AcDbLine
 10
156.1401915649
 20
28.278622307
 30
0.0
 11
155.8234798687
 21
38.4133965844
 31
0.0
  0
LINE
  5
1EC
330
1F
100
AcDbEntity
  8
FORMAT
100
AcDbLine
 10
167.6392681725
 20
28.278622307
 30
0.0
 11
167.9559798687
 21
38.4133965844
 31
0.0
  0
LINE
  5
1ED
330
1F
100
AcDbEntity
  8
FORMAT
100
AcDbLine
 10
168.6322923687
 20
38.4133965844
 30
0.0
 11
155.1471673687
 21
38.4133965844
 31
0.0
  0
LINE
  5
1EE
330
1F
100
AcDbEntity
  8
0
  6
Continuous
 62
     7
370
    25
100
AcDbLine
 10
103.2534044244
 20
113.791901304
 30
0.0
 11
100.4534044244
 21
113.791901304
 31
0.0
  0
LINE
  5
1EF
330
1F
100
AcDbEntity
  8
0
  6
Continuous
 62
     7
370
    25
100
AcDbLine
 10
100.4534044244
 20
97.791901304
 30
0.0
 11
103.2534044244
 21
97.791901304
 31
0.0
  0
LINE
  5
1F0
330
1F
100
AcDbEntity
  8
0
  6
Continuous
 62
     7
370
    25
100
AcDbLine
 10
100.4534044244
 20
113.791901304
 30
0.0
 11
100.2534044244
 21
113.591901304
 31
0.0
  0
LINE
  5
1F1
330
1F
100
AcDbEntity
  8
0
  6
Continuous
 62
     7
370
    25
100
AcDbLine
 10
100.2534044244
 20
97.991901304
 30
0.0
 11
100.4534044244
 21
97.791901304
 31
0.0
  0
LINE
  5
1F2
330
1F
100
AcDbEntity
  8
0
  6
Continuous
 62
     7
370
    25
100
AcDbLine
 10
93.2534044244
 20
109.791901304
 30
0.0
 11
90.2534044244
 21
109.291901304
 31
0.0
  0
LINE
  5
1F3
330
1F
100
AcDbEntity
  8
0
  6
Continuous
 62
     7
370
    25
100
AcDbLine
 10
90.2534044244
 20
102.291901304
 30
0.0
 11
93.2534044244
 21
101.791901304
 31
0.0
  0
LINE
  5
1F4
330
1F
100
AcDbEntity
  8
0
  6
Continuous
 62
     7
370
    25
100
AcDbLine
 10
84.2534044244
 20
109.791901304
 30
0.0
 11
81.2534044244
 21
109.291901304
 31
0.0
  0
LINE
  5
1F5
330
1F
100
AcDbEntity
  8
0
  6
Continuous
 62
     7
370
    25
100
AcDbLine
 10
81.2534044244
 20
102.291901304
 30
0.0
 11
84.2534044244
 21
101.791901304
 31
0.0
  0
LINE
  5
1F6
330
1F
100
AcDbEntity
  8
0
  6
Continuous
 62
     7
370
    25
100
AcDbLine
 10
97.7534044244
 20
109.791901304
 30
0.0
 11
95.0312948883
 21
109.3382163813
 31
0.0
  0
LINE
  5
1F7
330
1F
100
AcDbEntity
  8
0
  6
Continuous
 62
     7
370
    25
100
AcDbLine
 10
95.0312948883
 20
102.2455862266
 30
0.0
 11
97.7534044244
 21
101.791901304
 31
0.0
  0
LINE
  5
1F8
330
1F
100
AcDbEntity
  8
0
  6
Continuous
 62
     7
370
    25
100
AcDbLine
 10
100.2534044244
 20
109.791901304
 30
0.0
 11
97.7534044244
 21
109.791901304
 31
0.0
  0
LINE
  5
1F9
330
1F
100
AcDbEntity
  8
0
  6
Continuous
 62
     7
370
    25
100
AcDbLine
 10
97.7534044244
 20
101.791901304
 30
0.0
 11
100.2534044244
 21
101.791901304
 31
0.0
  0
LINE
  5
1FA
330
1F
100
AcDbEntity
  8
0
  6
Continuous
 62
     7
370
    25
100
AcDbLine
 10
79.7534044244
 20
109.791901304
 30
0.0
 11
76.7534044244
 21
109.291901304
 31
0.0
  0
LINE
  5
1FB
330
1F
100
AcDbEntity
  8
0
  6
Continuous
 62
     7
370
    25
100
AcDbLine
 10
76.7534044244
 20
102.291901304
 30
0.0
 11
79.7534044244
 21
101.791901304
 31
0.0
  0
LINE
  5
1FC
330
1F
100
AcDbEntity
  8
0
  6
Continuous
 62
     7
370
    25
100
AcDbLine
 10
88.7534044244
 20
109.791901304
 30
0.0
 11
85.7534044244
 21
109.291901304
 31
0.0
  0
LINE
  5
1FD
330
1F
100
AcDbEntity
  8
0
  6
Continuous
 62
     7
370
    25
100
AcDbLine
 10
85.7534044244
 20
102.291901304
 30
0.0
 11
88.7534044244
 21
101.791901304
 31
0.0
  0
LINE
  5
1FE
330
1F
100
AcDbEntity
  8
0
  6
Continuous
 62
     7
370
    25
100
AcDbLine
 10
126.6090668571
 20
97.291901304
 30
0.0
 11
126.7534044244
 21
97.541901304
 31
0.0
  0
LINE
  5
1FF
330
1F
100
AcDbEntity
  8
0
  6
Continuous
 62
     7
370
    25
100
AcDbLine
 10
126.7534044244
 20
114.041901304
 30
0.0
 11
126.6090668571
 21
114.291901304
 31
0.0
  0
LINE
  5
200
330
1F
100
AcDbEntity
  8
0
  6
Continuous
 62
     7
370
    25
100
AcDbLine
 10
100.4534044244
 20
99.0305493335
 30
0.0
 11
100.4534044244
 21
97.791901304
 31
0.0
  0
LINE
  5
201
330
1F
100
AcDbEntity
  8
0
  6
Continuous
 62
     7
370
    25
100
AcDbLine
 10
100.4534044244
 20
113.791901304
 30
0.0
 11
100.4534044244
 21
109.7707614021
 31
0.0
  0
LINE
  5
202
330
1F
100
AcDbEntity
  8
0
  6
Continuous
 62
     7
370
    25
100
AcDbLine
 10
100.4534044244
 20
101.8130412059
 30
0.0
 11
100.4534044244
 21
99.0305493335
 31
0.0
  0
LINE
  5
203
330
1F
100
AcDbEntity
  8
0
  6
Continuous
 62
     7
370
    25
100
AcDbLine
 10
100.2534044244
 20
99.1995831328
 30
0.0
 11
100.2534044244
 21
101.8371386882
 31
0.0
  0
LINE
  5
204
330
1F
100
AcDbEntity
  8
0
  6
Continuous
 62
     7
370
    25
100
AcDbLine
 10
100.2534044244
 20
109.7466639198
 30
0.0
 11
100.2534044244
 21
113.591901304
 31
0.0
  0
LINE
  5
205
330
1F
100
AcDbEntity
  8
0
  6
Continuous
 62
     7
370
    25
100
AcDbLine
 10
100.2534044244
 20
97.991901304
 30
0.0
 11
100.2534044244
 21
99.1995831328
 31
0.0
  0
LINE
  5
206
330
1F
100
AcDbEntity
  8
0
  6
Continuous
 62
     7
370
    25
100
AcDbLine
 10
93.2534044244
 20
102.2883918634
 30
0.0
 11
93.2534044244
 21
101.791901304
 31
0.0
  0
LINE
  5
207
330
1F
100
AcDbEntity
  8
0
  6
Continuous
 62
     7
370
    25
100
AcDbLine
 10
93.2534044244
 20
109.791901304
 30
0.0
 11
93.2534044244
 21
109.2954107445
 31
0.0
  0
LINE
  5
208
330
1F
100
AcDbEntity
  8
0
  6
Continuous
 62
     7
370
    25
100
AcDbLine
 10
84.2534044244
 20
102.291901304
 30
0.0
 11
84.2534044244
 21
101.791901304
 31
0.0
  0
LINE
  5
209
330
1F
100
AcDbEntity
  8
0
  6
Continuous
 62
     7
370
    25
100
AcDbLine
 10
84.2534044244
 20
109.791901304
 30
0.0
 11
84.2534044244
 21
109.291901304
 31
0.0
  0
LINE
  5
20A
330
1F
100
AcDbEntity
  8
0
  6
Continuous
 62
     7
370
    25
100
AcDbLine
 10
97.7534044244
 20
102.0855341184
 30
0.0
 11
97.7534044244
 21
101.791901304
 31
0.0
  0
LINE
  5
20B
330
1F
100
AcDbEntity
  8
0
  6
Continuous
 62
     7
370
    25
100
AcDbLine
 10
97.7534044244
 20
109.791901304
 30
0.0
 11
97.7534044244
 21
109.4982684895
 31
0.0
  0
LINE
  5
20C
330
1F
100
AcDbEntity
  8
0
  6
Continuous
 62
     7
370
    25
100
AcDbLine
 10
79.7534044244
 20
102.291901304
 30
0.0
 11
79.7534044244
 21
101.791901304
 31
0.0
  0
LINE
  5
20D
330
1F
100
AcDbEntity
  8
0
  6
Continuous
 62
     7
370
    25
100
AcDbLine
 10
79.7534044244
 20
109.791901304
 30
0.0
 11
79.7534044244
 21
109.291901304
 31
0.0
  0
LINE
  5
20E
330
1F
100
AcDbEntity
  8
0
  6
Continuous
 62
     7
370
    25
100
AcDbLine
 10
88.7534044244
 20
102.291901304
 30
0.0
 11
88.7534044244
 21
101.791901304
 31
0.0
  0
LINE
  5
20F
330
1F
100
AcDbEntity
  8
0
  6
Continuous
 62
     7
370
    25
100
AcDbLine
 10
88.7534044244
 20
109.791901304
 30
0.0
 11
88.7534044244
 21
109.291901304
 31
0.0
  0
SPLINE
  5
210
330
1F
100
AcDbEntity
  8
0
  6
Continuous
 62
     7
370
    25
100
AcDbSpline
210
0.0
220
0.0
230
1.0
 70
    24
 71
     3
 72
    10
 73
     6
 74
     0
 42
0.00000001
 43
0.00000001
 40
0.0
 40
0.0
 40
0.0
 40
0.0
 40
0.3696337928586558
 40
0.7423132675580827
 40
1.0
 40
1.0
 40
1.0
 40
1.0
 10
125.9313454518197
 20
97.29190130396469
 30
0.0
 10
126.0725480068212
 20
97.29190130396469
 30
0.0
 10
126.3561165874427
 20
97.29190130396469
 30
0.0
 10
126.5752500408276
 20
97.29190130396469
 30
0.0
 10
126.5976409606066
 20
97.29190130396469
 30
0.0
 10
126.6067941209265
 20
97.29190130396469
 30
0.0
  0
SPLINE
  5
211
330
1F
100
AcDbEntity
  8
0
  6
Continuous
 62
     7
370
    25
100
AcDbSpline
210
0.0
220
0.0
230
1.0
 70
     8
 71
     3
 72
    10
 73
     6
 74
     0
 42
0.00000001
 43
0.00000001
 40
0.0
 40
0.0
 40
0.0
 40
0.0
 40
0.5
 40
0.5
 40
1.0
 40
1.0
 40
1.0
 40
1.0
 10
125.9313454518197
 20
97.54190130396469
 30
0.0
 10
125.9076700573953
 20
97.46752092658735
 30
0.0
 10
125.8945789475107
 20
97.40322028780159
 30
0.0
 10
125.8944926262224
 20
97.31500460301865
 30
0.0
 10
125.9076615601662
 20
97.29190130396469
 30
0.0
 10
125.9313454518197
 20
97.29190130396469
 30
0.0
  0
SPLINE
  5
212
330
1F
100
AcDbEntity
  8
0
  6
Continuous
 62
     7
370
    25
100
AcDbSpline
210
0.0
220
0.0
230
1.0
 70
     8
 71
     3
 72
    16
 73
    12
 74
     0
 42
0.00000001
 43
0.00000001
 40
0.0
 40
0.0
 40
0.0
 40
0.0
 40
0.2500000000000001
 40
0.2500000000000001
 40
0.5000000000000001
 40
0.5000000000000001
 40
0.6250000000000001
 40
0.6250000000000001
 40
0.7500000000000002
 40
0.7500000000000002
 40
1.0
 40
1.0
 40
1.0
 40
1.0
 10
125.9313454518197
 20
105.5419013039647
 30
0.0
 10
126.1393608999255
 20
104.8883845239239
 30
0.0
 10
126.3095672048985
 20
104.2301641148339
 30
0.0
 10
126.5445032364661
 20
102.9006015314681
 30
0.0
 10
126.6085753681297
 20
102.2291775493976
 30
0.0
 10
126.6093083170507
 20
101.2101764623909
 30
0.0
 10
126.5936488369677
 20
100.8688356800747
 30
0.0
 10
126.5323737103308
 20
100.1932371771042
 30
0.0
 10
126.4868174378316
 20
99.8575780271396
 30
0.0
 10
126.3103314050754
 20
98.85631239063989
 30
0.0
 10
126.1396749515897
 20
98.19640473203674
 30
0.0
 10
125.9313454518197
 20
97.54190130396469
 30
0.0
  0
SPLINE
  5
213
330
1F
100
AcDbEntity
  8
0
  6
Continuous
 62
     7
370
    25
100
AcDbSpline
210
0.0
220
0.0
230
1.0
 70
     8
 71
     3
 72
    10
 73
     6
 74
     0
 42
0.00000001
 43
0.00000001
 40
0.0
 40
0.0
 40
0.0
 40
0.0
 40
0.5
 40
0.5
 40
1.0
 40
1.0
 40
1.0
 40
1.0
 10
125.9313454518197
 20
106.0419013039647
 30
0.0
 10
125.9076700573953
 20
105.9675209265874
 30
0.0
 10
125.8945789475107
 20
105.8804278384718
 30
0.0
 10
125.8944926262224
 20
105.7042694495958
 30
0.0
 10
125.9076615601662
 20
105.616308376868
 30
0.0
 10
125.9313454518197
 20
105.5419013039647
 30
0.0
  0
SPLINE
  5
214
330
1F
100
AcDbEntity
  8
0
  6
Continuous
 62
     7
370
    25
100
AcDbSpline
210
0.0
220
0.0
230
1.0
 70
     8
 71
     3
 72
    16
 73
    12
 74
     0
 42
0.00000001
 43
0.00000001
 40
0.0
 40
0.0
 40
0.0
 40
0.0
 40
0.2499999999999997
 40
0.2499999999999997
 40
0.4999999999999993
 40
0.4999999999999993
 40
0.6249999999999993
 40
0.6249999999999993
 40
0.7499999999999996
 40
0.7499999999999996
 40
1.0
 40
1.0
 40
1.0
 40
1.0
 10
125.9313454518197
 20
114.0419013039647
 30
0.0
 10
126.1393608999255
 20
113.3883845239239
 30
0.0
 10
126.3095672048985
 20
112.7301641148339
 30
0.0
 10
126.5445032364661
 20
111.4006015314681
 30
0.0
 10
126.6085753681297
 20
110.7291775493976
 30
0.0
 10
126.6093083170507
 20
109.7101764623908
 30
0.0
 10
126.5936488369677
 20
109.3688356800747
 30
0.0
 10
126.5323737103308
 20
108.6932371771042
 30
0.0
 10
126.4868174378316
 20
108.3575780271396
 30
0.0
 10
126.3103314050754
 20
107.3563123906399
 30
0.0
 10
126.1396749515897
 20
106.6964047320367
 30
0.0
 10
125.9313454518197
 20
106.0419013039647
 30
0.0
  0
SPLINE
  5
215
330
1F
100
AcDbEntity
  8
0
  6
Continuous
 62
     7
370
    25
100
AcDbSpline
210
0.0
220
0.0
230
1.0
 70
     8
 71
     3
 72
    10
 73
     6
 74
     0
 42
0.00000001
 43
0.00000001
 40
0.0
 40
0.0
 40
0.0
 40
0.0
 40
0.5
 40
0.5
 40
1.0
 40
1.0
 40
1.0
 40
1.0
 10
125.9313454518197
 20
114.2919013039647
 30
0.0
 10
125.9076700573953
 20
114.2919013039647
 30
0.0
 10
125.8945789475107
 20
114.2691088546349
 30
0.0
 10
125.8944926262224
 20
114.1811661505418
 30
0.0
 10
125.9076615601662
 20
114.1163083768679
 30
0.0
 10
125.9313454518197
 20
114.0419013039647
 30
0.0
  0
SPLINE
  5
216
330
1F
100
AcDbEntity
  8
0
  6
Continuous
 62
     7
370
    25
100
AcDbSpline
210
0.0
220
0.0
230
1.0
 70
    24
 71
     3
 72
    10
 73
     6
 74
     0
 42
0.00000001
 43
0.00000001
 40
0.0
 40
0.0
 40
0.0
 40
0.0
 40
0.2576836424498565
 40
0.6270640141013828
 40
1.0
 40
1.0
 40
1.0
 40
1.0
 10
126.6054527255556
 20
114.2919013039647
 30
0.0
 10
126.5968498903053
 20
114.2919013039647
 30
0.0
 10
126.5759151955247
 20
114.2919013039647
 30
0.0
 10
126.3569509073758
 20
114.2919013039647
 30
0.0
 10
126.0736662378768
 20
114.2919013039647
 30
0.0
 10
125.9313454518197
 20
114.2919013039647
 30
0.0
  0
LINE
  5
217
330
1F
100
AcDbEntity
  8
0
  6
Continuous
 62
     7
370
    25
100
AcDbLine
 10
126.7534044244
 20
114.041901304
 30
0.0
 11
126.7534044244
 21
97.541901304
 31
0.0
  0
SPLINE
  5
218
330
1F
100
AcDbEntity
  8
0
  6
Continuous
 62
     7
370
    25
100
AcDbSpline
210
0.0
220
0.0
230
1.0
 70
     8
 71
     3
 72
    12
 73
     8
 74
     0
 42
0.00000001
 43
0.00000001
 40
0.0
 40
0.0
 40
0.0
 40
0.0
 40
0.0366782802078248
 40
0.2755333876974245
 40
0.5144181608501738
 40
0.7571892057836105
 40
1.0
 40
1.0
 40
1.0
 40
1.0
 10
120.7555842682489
 20
110.2012539386009
 30
0.0
 10
120.7560985653384
 20
110.248877388638
 30
0.0
 10
120.7599620512644
 20
110.6066327263529
 30
0.0
 10
120.8105212486078
 20
111.2739977879379
 30
0.0
 10
120.9490650562505
 20
112.2022331656264
 30
0.0
 10
121.1546976557119
 20
113.1267349441646
 30
0.0
 10
121.3389780766537
 20
113.7368292034463
 30
0.0
 10
121.4311258296375
 20
114.0419013039647
 30
0.0
  0
LINE
  5
219
330
1F
100
AcDbEntity
  8
0
  6
Continuous
 62
     7
370
    25
100
AcDbLine
 10
125.9313454518
 20
114.041901304
 30
0.0
 11
121.4311258296
 21
114.041901304
 31
0.0
  0
SPLINE
  5
21A
330
1F
100
AcDbEntity
  8
0
  6
Continuous
 62
     7
370
    25
100
AcDbSpline
210
0.0
220
0.0
230
1.0
 70
     8
 71
     3
 72
    12
 73
     8
 74
     0
 42
0.00000001
 43
0.00000001
 40
0.0
 40
0.0
 40
0.0
 40
0.0
 40
0.0896115172112166
 40
0.3155712495766436
 40
0.5415569735095607
 40
0.7707626642844123
 40
1.0
 40
1.0
 40
1.0
 40
1.0
 10
103.2567322522112
 20
110.1896906774755
 30
0.0
 10
103.2585248627587
 20
110.3063932337013
 30
0.0
 10
103.2648376266542
 20
110.7173668746247
 30
0.0
 10
103.3289665434269
 20
111.4212948880709
 30
0.0
 10
103.4691519167189
 20
112.3003499095657
 30
0.0
 10
103.668673558204
 20
113.1754862734706
 30
0.0
 10
103.8436377134102
 20
113.7530830038793
 30
0.0
 10
103.9311258296375
 20
114.0419013039647
 30
0.0
  0
LINE
  5
21B
330
1F
100
AcDbEntity
  8
0
  6
Continuous
 62
     7
370
    25
100
AcDbLine
 10
108.0756830191
 20
114.041901304
 30
0.0
 11
103.9311258296
 21
114.041901304
 31
0.0
  0
SPLINE
  5
21C
330
1F
100
AcDbEntity
  8
0
  6
Continuous
 62
     7
370
    25
100
AcDbSpline
210
0.0
220
0.0
230
1.0
 70
     8
 71
     3
 72
    10
 73
     6
 74
     0
 42
0.00000001
 43
0.00000001
 40
0.0
 40
0.0
 40
0.0
 40
0.0
 40
0.3648707921099024
 40
0.7296694010448281
 40
0.9999999999999999
 40
0.9999999999999999
 40
0.9999999999999999
 40
0.9999999999999999
 10
108.0756830191171
 20
114.0419013039647
 30
0.0
 10
108.1727531636413
 20
113.7175941948655
 30
0.0
 10
108.3668742490939
 20
113.0690441350411
 30
0.0
 10
108.5692332382523
 20
112.1663106350332
 30
0.0
 10
108.6391019634834
 20
111.5861158378742
 30
0.0
 10
108.6688402499696
 20
111.3391670200932
 30
0.0
  0
SPLINE
  5
21D
330
1F
100
AcDbEntity
  8
0
  6
Continuous
 62
     7
370
    25
100
AcDbSpline
210
0.0
220
0.0
230
1.0
 70
     8
 71
     3
 72
    10
 73
     6
 74
     0
 42
0.00000001
 43
0.00000001
 40
0.0
 40
0.0
 40
0.0
 40
0.0
 40
0.3125976834039663
 40
0.6562707066411325
 40
1.0
 40
1.0
 40
1.0
 40
1.0
 10
108.6746725619997
 20
100.2411270417053
 30
0.0
 10
108.6364297241596
 20
99.95624504612444
 30
0.0
 10
108.556142327465
 20
99.35816093202186
 30
0.0
 10
108.3511949518174
 20
98.45715991190855
 30
0.0
 10
108.1675253416924
 20
97.8470041555424
 30
0.0
 10
108.0756830191172
 20
97.54190130396469
 30
0.0
  0
LINE
  5
21E
330
1F
100
AcDbEntity
  8
0
  6
Continuous
 62
     7
370
    25
100
AcDbLine
 10
103.9311258296
 20
97.541901304
 30
0.0
 11
108.0756830191
 21
97.541901304
 31
0.0
  0
SPLINE
  5
21F
330
1F
100
AcDbEntity
  8
0
  6
Continuous
 62
     7
370
    25
100
AcDbSpline
210
0.0
220
0.0
230
1.0
 70
     8
 71
     3
 72
    11
 73
     7
 74
     0
 42
0.00000001
 43
0.00000001
 40
0.0
 40
0.0
 40
0.0
 40
0.0
 40
0.2569342550896102
 40
0.5138176803219291
 40
0.7751786892876665
 40
1.0
 40
1.0
 40
1.0
 40
1.0
 10
103.9311258296375
 20
97.54190130396469
 30
0.0
 10
103.8333645356725
 20
97.8661552300258
 30
0.0
 10
103.63786128807
 20
98.51459893429518
 30
0.0
 10
103.4255239900118
 20
99.50915416280438
 30
0.0
 10
103.2865200247221
 20
100.4719580916793
 30
0.0
 10
103.2683960206117
 20
101.1060220124488
 30
0.0
 10
103.260015085735
 20
101.3992270015508
 30
0.0
  0
LINE
  5
220
330
1F
100
AcDbEntity
  8
0
  6
Continuous
 62
     7
370
    25
100
AcDbLine
 10
121.4311258296
 20
97.541901304
 30
0.0
 11
125.9313454518
 21
97.541901304
 31
0.0
  0
SPLINE
  5
221
330
1F
100
AcDbEntity
  8
0
  6
Continuous
 62
     7
370
    25
100
AcDbSpline
210
0.0
220
0.0
230
1.0
 70
     8
 71
     3
 72
    11
 73
     7
 74
     0
 42
0.00000001
 43
0.00000001
 40
0.0
 40
0.0
 40
0.0
 40
0.0
 40
0.2551182489519353
 40
0.5101860273109866
 40
0.7696997419318532
 40
1.0
 40
1.0
 40
1.0
 40
1.0
 10
121.4311258296375
 20
97.54190130396465
 30
0.0
 10
121.3333716135456
 20
97.86615562933626
 30
0.0
 10
121.137882520289
 20
98.51460013214765
 30
0.0
 10
120.9254384640815
 20
99.50914933771053
 30
0.0
 10
120.7854998250258
 20
100.4811989615775
 30
0.0
 10
120.7672885276918
 20
101.1245563837834
 30
0.0
 10
120.7587259575945
 20
101.4270495518543
 30
0.0
  0
LINE
  5
222
330
1F
100
AcDbEntity
  8
0
  6
Continuous
 62
     7
370
    25
100
AcDbLine
 10
120.7534044244
 20
101.3757378106
 30
0.0
 11
120.7534044244
 21
98.291901304
 31
0.0
  0
LINE
  5
223
330
1F
100
AcDbEntity
  8
0
  6
Continuous
 62
     7
370
    25
100
AcDbLine
 10
120.7534044244
 20
98.291901304
 30
0.0
 11
108.7534044244
 21
98.291901304
 31
0.0
  0
LINE
  5
224
330
1F
100
AcDbEntity
  8
0
  6
Continuous
 62
     7
370
    25
100
AcDbLine
 10
108.7534044244
 20
100.2470857
 30
0.0
 11
108.7534044244
 21
98.291901304
 31
0.0
  0
LINE
  5
225
330
1F
100
AcDbEntity
  8
0
  6
Continuous
 62
     7
370
    25
100
AcDbLine
 10
108.7534044244
 20
113.291901304
 30
0.0
 11
108.7534044244
 21
111.3367169079
 31
0.0
  0
LINE
  5
226
330
1F
100
AcDbEntity
  8
0
  6
Continuous
 62
     7
370
    25
100
AcDbLine
 10
108.7534044244
 20
113.291901304
 30
0.0
 11
120.7534044244
 21
113.291901304
 31
0.0
  0
LINE
  5
227
330
1F
100
AcDbEntity
  8
0
  6
Continuous
 62
     7
370
    25
100
AcDbLine
 10
120.7534044244
 20
113.291901304
 30
0.0
 11
120.7534044244
 21
110.2080647973
 31
0.0
  0
SPLINE
  5
228
330
1F
100
AcDbEntity
  8
0
  6
Continuous
 62
     7
370
    25
100
AcDbSpline
210
0.0
220
0.0
230
1.0
 70
     8
 71
     3
 72
     8
 73
     4
 74
     0
 42
0.00000001
 43
0.00000001
 40
0.0
 40
0.0
 40
0.0
 40
0.0
 40
1.0
 40
1.0
 40
1.0
 40
1.0
 10
108.2371683473982
 20
114.2919013039647
 30
0.0
 10
108.4108714236179
 20
113.9593898818292
 30
0.0
 10
108.5831736426806
 20
113.6260627819303
 30
0.0
 10
108.7534044243773
 20
113.2919013039647
 30
0.0
  0
SPLINE
  5
229
330
1F
100
AcDbEntity
  8
0
  6
Continuous
 62
     7
370
    25
100
AcDbSpline
210
0.0
220
0.0
230
1.0
 70
     8
 71
     3
 72
    10
 73
     6
 74
     0
 42
0.00000001
 43
0.00000001
 40
0.0
 40
0.0
 40
0.0
 40
0.0
 40
0.5
 40
0.5
 40
1.0
 40
1.0
 40
1.0
 40
1.0
 10
108.0756830191228
 20
114.2919013039647
 30
0.0
 10
108.0520076246985
 20
114.2919013039647
 30
0.0
 10
108.0389165148082
 20
114.2691088546352
 30
0.0
 10
108.0388301935198
 20
114.1811661505422
 30
0.0
 10
108.0519991274636
 20
114.1163083768682
 30
0.0
 10
108.0756830191171
 20
114.0419013039647
 30
0.0
  0
SPLINE
  5
22A
330
1F
100
AcDbEntity
  8
0
  6
Continuous
 62
     7
370
    25
100
AcDbSpline
210
0.0
220
0.0
230
1.0
 70
    24
 71
     3
 72
     8
 73
     4
 74
     0
 42
0.00000001
 43
0.00000001
 40
0.0
 40
0.0
 40
0.0
 40
0.0
 40
1.0
 40
1.0
 40
1.0
 40
1.0
 10
108.2371683473982
 20
114.2919013039647
 30
0.0
 10
108.1862696304757
 20
114.2919013039647
 30
0.0
 10
108.1323354942251
 20
114.2919013039647
 30
0.0
 10
108.0756830191175
 20
114.2919013039647
 30
0.0
  0
SPLINE
  5
22B
330
1F
100
AcDbEntity
  8
0
  6
Continuous
 62
     7
370
    25
100
AcDbSpline
210
0.0
220
0.0
230
1.0
 70
     8
 71
     3
 72
     8
 73
     4
 74
     0
 42
0.00000001
 43
0.00000001
 40
0.0
 40
0.0
 40
0.0
 40
0.0
 40
1.0
 40
1.0
 40
1.0
 40
1.0
 10
120.7534044243773
 20
113.2919013039647
 30
0.0
 10
120.923682031721
 20
113.62615470025
 30
0.0
 10
121.0959537803467
 20
113.959421189819
 30
0.0
 10
121.2696405013564
 20
114.2919013039645
 30
0.0
  0
SPLINE
  5
22C
330
1F
100
AcDbEntity
  8
0
  6
Continuous
 62
     7
370
    25
100
AcDbSpline
210
0.0
220
0.0
230
1.0
 70
    24
 71
     3
 72
     8
 73
     4
 74
     0
 42
0.00000001
 43
0.00000001
 40
0.0
 40
0.0
 40
0.0
 40
0.0
 40
1.0
 40
1.0
 40
1.0
 40
1.0
 10
121.269640501356
 20
114.2919013039647
 30
0.0
 10
121.3205367346112
 20
114.2919013039647
 30
0.0
 10
121.374470689575
 20
114.2919013039647
 30
0.0
 10
121.4311258296375
 20
114.2919013039647
 30
0.0
  0
SPLINE
  5
22D
330
1F
100
AcDbEntity
  8
0
  6
Continuous
 62
     7
370
    25
100
AcDbSpline
210
0.0
220
0.0
230
1.0
 70
     8
 71
     3
 72
    10
 73
     6
 74
     0
 42
0.00000001
 43
0.00000001
 40
0.0
 40
0.0
 40
0.0
 40
0.0
 40
0.5
 40
0.5
 40
1.0
 40
1.0
 40
1.0
 40
1.0
 10
121.4311258296375
 20
114.0419013039647
 30
0.0
 10
121.4548012240619
 20
114.116281681342
 30
0.0
 10
121.4678923339466
 20
114.1805823201278
 30
0.0
 10
121.4679786552348
 20
114.2687980049107
 30
0.0
 10
121.454809721291
 20
114.2919013039647
 30
0.0
 10
121.4311258296375
 20
114.2919013039647
 30
0.0
  0
SPLINE
  5
22E
330
1F
100
AcDbEntity
  8
0
  6
Continuous
 62
     7
370
    25
100
AcDbSpline
210
0.0
220
0.0
230
1.0
 70
     8
 71
     3
 72
    10
 73
     6
 74
     0
 42
0.00000001
 43
0.00000001
 40
0.0
 40
0.0
 40
0.0
 40
0.0
 40
0.5
 40
0.5
 40
1.0
 40
1.0
 40
1.0
 40
1.0
 10
103.9311258296375
 20
114.2919013039647
 30
0.0
 10
103.9547997301935
 20
114.2919013039647
 30
0.0
 10
103.9678922873726
 20
114.2691107323173
 30
0.0
 10
103.9679787013549
 20
114.1811647350184
 30
0.0
 10
103.9548083097563
 20
114.1163039422857
 30
0.0
 10
103.9311258296375
 20
114.0419013039647
 30
0.0
  0
SPLINE
  5
22F
330
1F
100
AcDbEntity
  8
0
  6
Continuous
 62
     7
370
    25
100
AcDbSpline
210
0.0
220
0.0
230
1.0
 70
    24
 71
     3
 72
    12
 73
     8
 74
     0
 42
0.00000001
 43
0.00000001
 40
0.0
 40
0.0
 40
0.0
 40
0.0
 40
0.2499999999999999
 40
0.2499999999999999
 40
0.4999999999999998
 40
0.4999999999999998
 40
1.0
 40
1.0
 40
1.0
 40
1.0
 10
103.2534044243773
 20
114.2919013039647
 30
0.0
 10
103.2534044243773
 20
114.2919013039647
 30
0.0
 10
103.2694032293584
 20
114.2919013039647
 30
0.0
 10
103.3311733676728
 20
114.2919013039647
 30
0.0
 10
103.3769154919744
 20
114.2919013039647
 30
0.0
 10
103.5535856393212
 20
114.2919013039647
 30
0.0
 10
103.7238407048015
 20
114.2919013039647
 30
0.0
 10
103.9311258296375
 20
114.2919013039647
 30
0.0
  0
LINE
  5
230
330
1F
100
AcDbEntity
  8
0
  6
Continuous
 62
     7
370
    25
100
AcDbLine
 10
103.2534044244
 20
114.291901304
 30
0.0
 11
103.2534044244
 21
110.1745475858
 31
0.0
  0
SPLINE
  5
231
330
1F
100
AcDbEntity
  8
0
  6
Continuous
 62
     7
370
    25
100
AcDbSpline
210
0.0
220
0.0
230
1.0
 70
     8
 71
     3
 72
     8
 73
     4
 74
     0
 42
0.00000001
 43
0.00000001
 40
0.0
 40
0.0
 40
0.0
 40
0.0
 40
1.0
 40
1.0
 40
1.0
 40
1.0
 10
108.7534044243773
 20
98.29190130396469
 30
0.0
 10
108.5831268170336
 20
97.95764790767927
 30
0.0
 10
108.4108550684079
 20
97.62438141811026
 30
0.0
 10
108.2371683473982
 20
97.29190130396469
 30
0.0
  0
SPLINE
  5
232
330
1F
100
AcDbEntity
  8
0
  6
Continuous
 62
     7
370
    25
100
AcDbSpline
210
0.0
220
0.0
230
1.0
 70
    24
 71
     3
 72
     8
 73
     4
 74
     0
 42
0.00000001
 43
0.00000001
 40
0.0
 40
0.0
 40
0.0
 40
0.0
 40
1.0
 40
1.0
 40
1.0
 40
1.0
 10
108.2371683473982
 20
97.29190130396469
 30
0.0
 10
108.1862696304756
 20
97.29190130396469
 30
0.0
 10
108.1323354942249
 20
97.29190130396469
 30
0.0
 10
108.0756830191172
 20
97.29190130396469
 30
0.0
  0
SPLINE
  5
233
330
1F
100
AcDbEntity
  8
0
  6
Continuous
 62
     7
370
    25
100
AcDbSpline
210
0.0
220
0.0
230
1.0
 70
     8
 71
     3
 72
    10
 73
     6
 74
     0
 42
0.00000001
 43
0.00000001
 40
0.0
 40
0.0
 40
0.0
 40
0.0
 40
0.5
 40
0.5
 40
1.0
 40
1.0
 40
1.0
 40
1.0
 10
108.0756830191172
 20
97.54190130396469
 30
0.0
 10
108.0520076246928
 20
97.46752092658735
 30
0.0
 10
108.0389165148081
 20
97.40322028780159
 30
0.0
 10
108.0388301935198
 20
97.31500460301865
 30
0.0
 10
108.0519991274637
 20
97.29190130396469
 30
0.0
 10
108.0756830191172
 20
97.29190130396469
 30
0.0
  0
SPLINE
  5
234
330
1F
100
AcDbEntity
  8
0
  6
Continuous
 62
     7
370
    25
100
AcDbSpline
210
0.0
220
0.0
230
1.0
 70
     8
 71
     3
 72
     8
 73
     4
 74
     0
 42
0.00000001
 43
0.00000001
 40
0.0
 40
0.0
 40
0.0
 40
0.0
 40
1.0
 40
1.0
 40
1.0
 40
1.0
 10
121.2696405013565
 20
97.29190130396468
 30
0.0
 10
121.0959374251367
 20
97.62441272610018
 30
0.0
 10
120.923635206074
 20
97.95773982599906
 30
0.0
 10
120.7534044243773
 20
98.29190130396469
 30
0.0
  0
SPLINE
  5
235
330
1F
100
AcDbEntity
  8
0
  6
Continuous
 62
     7
370
    25
100
AcDbSpline
210
0.0
220
0.0
230
1.0
 70
     8
 71
     3
 72
    10
 73
     6
 74
     0
 42
0.00000001
 43
0.00000001
 40
0.0
 40
0.0
 40
0.0
 40
0.0
 40
0.5
 40
0.5
 40
1.0
 40
1.0
 40
1.0
 40
1.0
 10
121.4311258296375
 20
97.29190130396469
 30
0.0
 10
121.4548012240619
 20
97.29190130396469
 30
0.0
 10
121.4678923339466
 20
97.31469375329448
 30
0.0
 10
121.4679786552348
 20
97.40263645738753
 30
0.0
 10
121.454809721291
 20
97.46749423106138
 30
0.0
 10
121.4311258296375
 20
97.54190130396464
 30
0.0
  0
SPLINE
  5
236
330
1F
100
AcDbEntity
  8
0
  6
Continuous
 62
     7
370
    25
100
AcDbSpline
210
0.0
220
0.0
230
1.0
 70
    24
 71
     3
 72
     8
 73
     4
 74
     0
 42
0.00000001
 43
0.00000001
 40
0.0
 40
0.0
 40
0.0
 40
0.0
 40
1.0
 40
1.0
 40
1.0
 40
1.0
 10
121.2696405013565
 20
97.29190130396469
 30
0.0
 10
121.3205367346116
 20
97.29190130396469
 30
0.0
 10
121.3744706895752
 20
97.29190130396469
 30
0.0
 10
121.4311258296375
 20
97.29190130396469
 30
0.0
  0
SPLINE
  5
237
330
1F
100
AcDbEntity
  8
0
  6
Continuous
 62
     7
370
    25
100
AcDbSpline
210
0.0
220
0.0
230
1.0
 70
     8
 71
     3
 72
    10
 73
     6
 74
     0
 42
0.00000001
 43
0.00000001
 40
0.0
 40
0.0
 40
0.0
 40
0.0
 40
0.5
 40
0.5
 40
1.0
 40
1.0
 40
1.0
 40
1.0
 10
103.9311258296375
 20
97.54190130396469
 30
0.0
 10
103.9547980695491
 20
97.46753083703913
 30
0.0
 10
103.9678920594843
 20
97.40322524075127
 30
0.0
 10
103.9679789269458
 20
97.31500245294542
 30
0.0
 10
103.9548091371864
 20
97.29190130396469
 30
0.0
 10
103.9311258296375
 20
97.29190130396469
 30
0.0
  0
SPLINE
  5
238
330
1F
100
AcDbEntity
  8
0
  6
Continuous
 62
     7
370
    25
100
AcDbSpline
210
0.0
220
0.0
230
1.0
 70
    24
 71
     3
 72
    12
 73
     8
 74
     0
 42
0.00000001
 43
0.00000001
 40
0.0
 40
0.0
 40
0.0
 40
0.0
 40
0.2500000000000001
 40
0.2500000000000001
 40
0.5000000000000001
 40
0.5000000000000001
 40
1.0
 40
1.0
 40
1.0
 40
1.0
 10
103.2534044243773
 20
97.29190130396469
 30
0.0
 10
103.2534044243773
 20
97.29190130396469
 30
0.0
 10
103.2694032293584
 20
97.29190130396469
 30
0.0
 10
103.3311733676728
 20
97.29190130396469
 30
0.0
 10
103.3769154919744
 20
97.29190130396469
 30
0.0
 10
103.5535856393212
 20
97.29190130396469
 30
0.0
 10
103.7238407048015
 20
97.29190130396469
 30
0.0
 10
103.9311258296375
 20
97.29190130396469
 30
0.0
  0
LINE
  5
239
330
1F
100
AcDbEntity
  8
0
  6
Continuous
 62
     7
370
    25
100
AcDbLine
 10
103.2534044244
 20
97.291901304
 30
0.0
 11
103.2534044244
 21
101.4092550221
 31
0.0
  0
LINE
  5
23A
330
1F
100
AcDbEntity
  8
0
  6
Continuous
 62
     7
370
    25
100
AcDbLine
 10
121.4311258296
 20
114.291901304
 30
0.0
 11
125.9313454518
 21
114.291901304
 31
0.0
  0
LINE
  5
23B
330
1F
100
AcDbEntity
  8
0
  6
Continuous
 62
     7
370
    25
100
AcDbLine
 10
103.9311258296
 20
114.291901304
 30
0.0
 11
108.0756830191
 21
114.291901304
 31
0.0
  0
LINE
  5
23C
330
1F
100
AcDbEntity
  8
0
  6
Continuous
 62
     7
370
    25
100
AcDbLine
 10
125.9313454518
 20
97.291901304
 30
0.0
 11
121.4311258296
 21
97.291901304
 31
0.0
  0
LINE
  5
23D
330
1F
100
AcDbEntity
  8
0
  6
Continuous
 62
     7
370
    25
100
AcDbLine
 10
108.0756830191
 20
97.291901304
 30
0.0
 11
103.9311258296
 21
97.291901304
 31
0.0
  0
LINE
  5
23E
330
1F
100
AcDbEntity
  8
0
  6
Continuous
 62
     7
370
    25
100
AcDbLine
 10
121.2696405014
 20
114.291901304
 30
0.0
 11
108.2371683474
 21
114.291901304
 31
0.0
  0
LINE
  5
23F
330
1F
100
AcDbEntity
  8
0
  6
Continuous
 62
     7
370
    25
100
AcDbLine
 10
121.2696405014
 20
97.291901304
 30
0.0
 11
108.2371683474
 21
97.291901304
 31
0.0
  0
SPLINE
  5
240
330
1F
100
AcDbEntity
  8
0
  6
Continuous
 62
     7
370
    25
100
AcDbSpline
210
0.0
220
0.0
230
1.0
 70
     8
 71
     3
 72
    15
 73
    11
 74
     0
 42
0.00000001
 43
0.00000001
 40
0.0
 40
0.0
 40
0.0
 40
0.0
 40
0.0081667445812695
 40
0.3321939991490077
 40
0.4756279600585576
 40
0.68668309732849
 40
0.8457435502264807
 40
0.8967566214763126
 40
0.9909540928118029
 40
1.0
 40
1.0
 40
1.0
 40
1.0
 10
119.8524239379701
 20
107.0419013039647
 30
0.0
 10
119.852911472113
 20
107.0433387669037
 30
0.0
 10
119.8727426196451
 20
107.1018096248554
 30
0.0
 10
119.9010233996543
 20
107.1862348025749
 30
0.0
 10
119.9388526981432
 20
107.3008138745973
 30
0.0
 10
119.9654365947107
 20
107.3821847617939
 30
0.0
 10
119.9826064184656
 20
107.4352037537956
 30
0.0
 10
119.9904234146821
 20
107.4594056856398
 30
0.0
 10
119.992419101118
 20
107.4655953063059
 30
0.0
 10
119.9924840650688
 20
107.4657967017185
 30
0.0
 10
119.9924897570354
 20
107.4658143474429
 30
0.0
  0
ARC
  5
241
330
1F
100
AcDbEntity
  8
0
  6
Continuous
 62
     7
370
    25
100
AcDbCircle
 10
114.7534044244
 20
105.791901304
 30
0.0
 40
5.250000000000005
100
AcDbArc
 50
13.774146998
 51
166.225853002
  0
SPLINE
  5
242
330
1F
100
AcDbEntity
  8
0
  6
Continuous
 62
     7
370
    25
100
AcDbSpline
210
0.0
220
0.0
230
1.0
 70
     8
 71
     3
 72
    15
 73
    11
 74
     0
 42
0.00000001
 43
0.00000001
 40
0.0
 40
0.0
 40
0.0
 40
0.0
 40
0.0090459071881971
 40
0.1032433785236816
 40
0.1542564497735189
 40
0.3133169026715104
 40
0.5243720399414397
 40
0.6678060008509895
 40
0.9918332554187292
 40
1.0
 40
1.0
 40
1.0
 40
1.0
 10
109.5143190917192
 20
107.4658143474429
 30
0.0
 10
109.5143247836859
 20
107.4657967017185
 30
0.0
 10
109.5143897476367
 20
107.4655953063059
 30
0.0
 10
109.5163854340726
 20
107.4594056856398
 30
0.0
 10
109.524202430289
 20
107.4352037537956
 30
0.0
 10
109.541372254044
 20
107.3821847617939
 30
0.0
 10
109.5679561506115
 20
107.3008138745973
 30
0.0
 10
109.6057854491003
 20
107.1862348025749
 30
0.0
 10
109.6340662291096
 20
107.1018096248554
 30
0.0
 10
109.6538973766417
 20
107.0433387669037
 30
0.0
 10
109.6543849107846
 20
107.0419013039647
 30
0.0
  0
ARC
  5
243
330
1F
100
AcDbEntity
  8
0
  6
Continuous
 62
     7
370
    25
100
AcDbCircle
 10
114.7534044244
 20
105.791901304
 30
0.0
 40
5.500000000000007
100
AcDbArc
 50
17.7189318734
 51
162.2810681266
  0
SPLINE
  5
244
330
1F
100
AcDbEntity
  8
0
  6
Continuous
 62
     7
370
    25
100
AcDbSpline
210
0.0
220
0.0
230
1.0
 70
     8
 71
     3
 72
    15
 73
    11
 74
     0
 42
0.00000001
 43
0.00000001
 40
0.0
 40
0.0
 40
0.0
 40
0.0
 40
0.0090459071881971
 40
0.1032433785236875
 40
0.1542564497735248
 40
0.313316902671511
 40
0.5243720399414434
 40
0.6678060008509189
 40
0.9918332554187028
 40
1.0
 40
1.0
 40
1.0
 40
1.0
 10
119.9924897570354
 20
104.1179882604864
 30
0.0
 10
119.9924840650688
 20
104.1180059062109
 30
0.0
 10
119.992419101118
 20
104.1182073016234
 30
0.0
 10
119.9904234146821
 20
104.1243969222896
 30
0.0
 10
119.9826064184656
 20
104.1485988541338
 30
0.0
 10
119.9654365947107
 20
104.2016178461354
 30
0.0
 10
119.9388526981431
 20
104.282988733332
 30
0.0
 10
119.9010233996545
 20
104.3975678053545
 30
0.0
 10
119.8727426196443
 20
104.4819929830737
 30
0.0
 10
119.852911472113
 20
104.5404638410257
 30
0.0
 10
119.8524239379701
 20
104.5419013039647
 30
0.0
  0
ARC
  5
245
330
1F
100
AcDbEntity
  8
0
  6
Continuous
 62
     7
370
    25
100
AcDbCircle
 10
114.7534044244
 20
105.791901304
 30
0.0
 40
5.500000000000011
100
AcDbArc
 50
197.7189318734
 51
342.2810681266
  0
SPLINE
  5
246
330
1F
100
AcDbEntity
  8
0
  6
Continuous
 62
     7
370
    25
100
AcDbSpline
210
0.0
220
0.0
230
1.0
 70
     8
 71
     3
 72
    15
 73
    11
 74
     0
 42
0.00000001
 43
0.00000001
 40
0.0
 40
0.0
 40
0.0
 40
0.0
 40
0.0081667445812973
 40
0.3321939991490813
 40
0.4756279600585592
 40
0.6866830973284899
 40
0.845743550226481
 40
0.8967566214763184
 40
0.9909540928118029
 40
1.0
 40
1.0
 40
1.0
 40
1.0
 10
109.6543849107846
 20
104.5419013039647
 30
0.0
 10
109.6538973766417
 20
104.5404638410257
 30
0.0
 10
109.6340662291104
 20
104.4819929830737
 30
0.0
 10
109.6057854491002
 20
104.3975678053545
 30
0.0
 10
109.5679561506115
 20
104.282988733332
 30
0.0
 10
109.541372254044
 20
104.2016178461354
 30
0.0
 10
109.524202430289
 20
104.1485988541338
 30
0.0
 10
109.5163854340726
 20
104.1243969222896
 30
0.0
 10
109.5143897476367
 20
104.1182073016234
 30
0.0
 10
109.5143247836859
 20
104.1180059062109
 30
0.0
 10
109.5143190917192
 20
104.1179882604864
 30
0.0
  0
ARC
  5
247
330
1F
100
AcDbEntity
  8
0
  6
Continuous
 62
     7
370
    25
100
AcDbCircle
 10
114.7534044244
 20
105.791901304
 30
0.0
 40
5.250000000000009
100
AcDbArc
 50
193.774146998
 51
346.225853002
  0
SPLINE
  5
248
330
1F
100
AcDbEntity
  8
0
  6
Continuous
 62
     7
370
    25
100
AcDbSpline
210
0.0
220
0.0
230
1.0
 70
     8
 71
     3
 72
    15
 73
    11
 74
     0
 42
0.00000001
 43
0.00000001
 40
0.0
 40
0.0
 40
0.0
 40
0.0
 40
0.0089557228015919
 40
0.0999003359608153
 40
0.1531632460581696
 40
0.3125636920784855
 40
0.5249666935695051
 40
0.6689893599351772
 40
0.991915253381045
 40
1.0
 40
1.0
 40
1.0
 40
1.0
 10
109.2761788493257
 20
104.2919013039647
 30
0.0
 10
109.2761946049043
 20
104.2919120883278
 30
0.0
 10
109.2763703570608
 20
104.2920323869933
 30
0.0
 10
109.2817993730804
 20
104.2957508379115
 30
0.0
 10
109.3033348567877
 20
104.3104618789777
 30
0.0
 10
109.3510402850525
 20
104.3429107404363
 30
0.0
 10
109.4234312300444
 20
104.3914947807797
 30
0.0
 10
109.5253503420621
 20
104.458865253048
 30
0.0
 10
109.6007054335171
 20
104.507678817782
 30
0.0
 10
109.6531050792404
 20
104.5410853679764
 30
0.0
 10
109.6543849107846
 20
104.5419013039647
 30
0.0
  0
ARC
  5
249
330
1F
100
AcDbEntity
  8
0
  6
Continuous
 62
     7
370
    25
100
AcDbCircle
 10
109.2761788493
 20
104.041901304
 30
0.0
 40
0.2500000000000034
100
AcDbArc
 50
17.7189318734
 51
90.0
  0
SPLINE
  5
24A
330
1F
100
AcDbEntity
  8
0
  6
Continuous
 62
     7
370
    25
100
AcDbSpline
210
0.0
220
0.0
230
1.0
 70
     8
 71
     3
 72
    15
 73
    11
 74
     0
 42
0.00000001
 43
0.00000001
 40
0.0
 40
0.0
 40
0.0
 40
0.0
 40
0.0080847466189581
 40
0.3310106400648237
 40
0.4750333064304937
 40
0.6874363079215094
 40
0.8468367539418249
 40
0.9000996640391792
 40
0.9910442771984082
 40
1.0
 40
1.0
 40
1.0
 40
1.0
 10
119.8524239379701
 20
104.5419013039647
 30
0.0
 10
119.8537037695142
 20
104.5410853679764
 30
0.0
 10
119.9061034152375
 20
104.5076788177819
 30
0.0
 10
119.9814585066926
 20
104.4588652530481
 30
0.0
 10
120.0833776187102
 20
104.3914947807797
 30
0.0
 10
120.1557685637022
 20
104.3429107404363
 30
0.0
 10
120.203473991967
 20
104.3104618789777
 30
0.0
 10
120.2250094756743
 20
104.2957508379115
 30
0.0
 10
120.2304384916938
 20
104.2920323869933
 30
0.0
 10
120.2306142438504
 20
104.2919120883278
 30
0.0
 10
120.230629999429
 20
104.2919013039647
 30
0.0
  0
ARC
  5
24B
330
1F
100
AcDbEntity
  8
0
  6
Continuous
 62
     7
370
    25
100
AcDbCircle
 10
120.2306299994
 20
104.041901304
 30
0.0
 40
0.25
100
AcDbArc
 50
90.0
 51
162.2810681266
  0
ARC
  5
24C
330
1F
100
AcDbEntity
  8
0
  6
Continuous
 62
     7
370
    25
100
AcDbCircle
 10
109.2761788493
 20
107.541901304
 30
0.0
 40
0.2500000000000034
100
AcDbArc
 50
270.0
 51
342.2810681266
  0
SPLINE
  5
24D
330
1F
100
AcDbEntity
  8
0
  6
Continuous
 62
     7
370
    25
100
AcDbSpline
210
0.0
220
0.0
230
1.0
 70
     8
 71
     3
 72
    15
 73
    11
 74
     0
 42
0.00000001
 43
0.00000001
 40
0.0
 40
0.0
 40
0.0
 40
0.0
 40
0.0080847466189819
 40
0.3310106400647582
 40
0.4750333064304994
 40
0.6874363079215138
 40
0.8468367539418308
 40
0.9000996640391851
 40
0.9910442771984082
 40
1.0
 40
1.0
 40
1.0
 40
1.0
 10
109.6543849107846
 20
107.0419013039647
 30
0.0
 10
109.6531050792404
 20
107.0427172399529
 30
0.0
 10
109.6007054335166
 20
107.0761237901466
 30
0.0
 10
109.5253503420622
 20
107.1249373548815
 30
0.0
 10
109.4234312300444
 20
107.1923078271496
 30
0.0
 10
109.3510402850525
 20
107.2408918674931
 30
0.0
 10
109.3033348567877
 20
107.2733407289516
 30
0.0
 10
109.2817993730804
 20
107.2880517700179
 30
0.0
 10
109.2763703570608
 20
107.291770220936
 30
0.0
 10
109.2761946049043
 20
107.2918905196015
 30
0.0
 10
109.2761788493257
 20
107.2919013039647
 30
0.0
  0
ARC
  5
24E
330
1F
100
AcDbEntity
  8
0
  6
Continuous
 62
     7
370
    25
100
AcDbCircle
 10
120.2306299994
 20
107.541901304
 30
0.0
 40
0.25
100
AcDbArc
 50
197.7189318734
 51
270.0
  0
SPLINE
  5
24F
330
1F
100
AcDbEntity
  8
0
  6
Continuous
 62
     7
370
    25
100
AcDbSpline
210
0.0
220
0.0
230
1.0
 70
     8
 71
     3
 72
    15
 73
    11
 74
     0
 42
0.00000001
 43
0.00000001
 40
0.0
 40
0.0
 40
0.0
 40
0.0
 40
0.0089557228015919
 40
0.0999003359608147
 40
0.1531632460581688
 40
0.3125636920784845
 40
0.5249666935695023
 40
0.6689893599352456
 40
0.9919152533810159
 40
1.0
 40
1.0
 40
1.0
 40
1.0
 10
120.230629999429
 20
107.2919013039647
 30
0.0
 10
120.2306142438504
 20
107.2918905196015
 30
0.0
 10
120.2304384916938
 20
107.291770220936
 30
0.0
 10
120.2250094756743
 20
107.2880517700179
 30
0.0
 10
120.203473991967
 20
107.2733407289516
 30
0.0
 10
120.1557685637022
 20
107.2408918674931
 30
0.0
 10
120.0833776187103
 20
107.1923078271496
 30
0.0
 10
119.9814585066925
 20
107.1249373548815
 30
0.0
 10
119.906103415238
 20
107.0761237901467
 30
0.0
 10
119.8537037695143
 20
107.0427172399529
 30
0.0
 10
119.8524239379701
 20
107.0419013039647
 30
0.0
  0
LINE
  5
250
330
1F
100
AcDbEntity
  8
0
  6
Continuous
 62
     7
370
    25
100
AcDbLine
 10
109.7534044244
 20
105.191901304
 30
0.0
 11
119.7534044244
 21
105.191901304
 31
0.0
  0
LINE
  5
251
330
1F
100
AcDbEntity
  8
0
  6
Continuous
 62
     7
370
    25
100
AcDbLine
 10
119.7534044244
 20
105.191901304
 30
0.0
 11
119.7534044244
 21
106.391901304
 31
0.0
  0
LINE
  5
252
330
1F
100
AcDbEntity
  8
0
  6
Continuous
 62
     7
370
    25
100
AcDbLine
 10
119.7534044244
 20
106.391901304
 30
0.0
 11
109.7534044244
 21
106.391901304
 31
0.0
  0
LINE
  5
253
330
1F
100
AcDbEntity
  8
0
  6
Continuous
 62
     7
370
    25
100
AcDbLine
 10
109.7534044244
 20
106.391901304
 30
0.0
 11
109.7534044244
 21
105.191901304
 31
0.0
  0
LINE
  5
254
330
1F
100
AcDbEntity
  8
0
  6
Continuous
 62
     7
370
    25
100
AcDbLine
 10
120.5034044244
 20
107.041901304
 30
0.0
 11
119.852423938
 21
107.041901304
 31
0.0
  0
LINE
  5
255
330
1F
100
AcDbEntity
  8
0
  6
Continuous
 62
     7
370
    25
100
AcDbLine
 10
120.5034044244
 20
104.541901304
 30
0.0
 11
120.5034044244
 21
107.041901304
 31
0.0
  0
LINE
  5
256
330
1F
100
AcDbEntity
  8
0
  6
Continuous
 62
     7
370
    25
100
AcDbLine
 10
119.852423938
 20
104.541901304
 30
0.0
 11
120.5034044244
 21
104.541901304
 31
0.0
  0
LINE
  5
257
330
1F
100
AcDbEntity
  8
0
  6
Continuous
 62
     7
370
    25
100
AcDbLine
 10
109.0034044244
 20
104.541901304
 30
0.0
 11
109.6543849108
 21
104.541901304
 31
0.0
  0
LINE
  5
258
330
1F
100
AcDbEntity
  8
0
  6
Continuous
 62
     7
370
    25
100
AcDbLine
 10
109.0034044244
 20
107.041901304
 30
0.0
 11
109.0034044244
 21
104.541901304
 31
0.0
  0
LINE
  5
259
330
1F
100
AcDbEntity
  8
0
  6
Continuous
 62
     7
370
    25
100
AcDbLine
 10
109.6543849108
 20
107.041901304
 30
0.0
 11
109.0034044244
 21
107.041901304
 31
0.0
  0
LINE
  5
25A
330
1F
100
AcDbEntity
  8
0
  6
Continuous
 62
     7
370
    25
100
AcDbLine
 10
109.0034044244
 20
107.291901304
 30
0.0
 11
109.0034044244
 21
107.041901304
 31
0.0
  0
LINE
  5
25B
330
1F
100
AcDbEntity
  8
0
  6
Continuous
 62
     7
370
    25
100
AcDbLine
 10
109.0034044244
 20
107.291901304
 30
0.0
 11
109.2761788493
 21
107.291901304
 31
0.0
  0
LINE
  5
25C
330
1F
100
AcDbEntity
  8
0
  6
Continuous
 62
     7
370
    25
100
AcDbLine
 10
109.0034044244
 20
107.041901304
 30
0.0
 11
108.7534044244
 21
107.041901304
 31
0.0
  0
ARC
  5
25D
330
1F
100
AcDbEntity
  8
0
  6
Continuous
 62
     7
370
    25
100
AcDbCircle
 10
109.0034044244
 20
107.041901304
 30
0.0
 40
0.25
100
AcDbArc
 50
90.0
 51
180.0
  0
ARC
  5
25E
330
1F
100
AcDbEntity
  8
0
  6
Continuous
 62
     7
370
    25
100
AcDbCircle
 10
120.5034044244
 20
107.041901304
 30
0.0
 40
0.25
100
AcDbArc
 50
0.0
 51
90.0
  0
LINE
  5
25F
330
1F
100
AcDbEntity
  8
0
  6
Continuous
 62
     7
370
    25
100
AcDbLine
 10
120.7534044244
 20
107.041901304
 30
0.0
 11
120.5034044244
 21
107.041901304
 31
0.0
  0
LINE
  5
260
330
1F
100
AcDbEntity
  8
0
  6
Continuous
 62
     7
370
    25
100
AcDbLine
 10
120.5034044244
 20
107.041901304
 30
0.0
 11
120.5034044244
 21
107.291901304
 31
0.0
  0
LINE
  5
261
330
1F
100
AcDbEntity
  8
0
  6
Continuous
 62
     7
370
    25
100
AcDbLine
 10
120.2306299994
 20
107.291901304
 30
0.0
 11
120.5034044244
 21
107.291901304
 31
0.0
  0
LINE
  5
262
330
1F
100
AcDbEntity
  8
0
  6
Continuous
 62
     7
370
    25
100
AcDbLine
 10
120.7534044244
 20
107.041901304
 30
0.0
 11
120.7534044244
 21
104.541901304
 31
0.0
  0
LINE
  5
263
330
1F
100
AcDbEntity
  8
0
  6
Continuous
 62
     7
370
    25
100
AcDbLine
 10
120.5034044244
 20
104.541901304
 30
0.0
 11
120.7534044244
 21
104.541901304
 31
0.0
  0
LINE
  5
264
330
1F
100
AcDbEntity
  8
0
  6
Continuous
 62
     7
370
    25
100
AcDbLine
 10
108.7534044244
 20
104.541901304
 30
0.0
 11
109.0034044244
 21
104.541901304
 31
0.0
  0
LINE
  5
265
330
1F
100
AcDbEntity
  8
0
  6
Continuous
 62
     7
370
    25
100
AcDbLine
 10
108.7534044244
 20
104.541901304
 30
0.0
 11
108.7534044244
 21
107.041901304
 31
0.0
  0
LINE
  5
266
330
1F
100
AcDbEntity
  8
0
  6
Continuous
 62
     7
370
    25
100
AcDbLine
 10
120.5034044244
 20
104.291901304
 30
0.0
 11
120.5034044244
 21
104.541901304
 31
0.0
  0
LINE
  5
267
330
1F
100
AcDbEntity
  8
0
  6
Continuous
 62
     7
370
    25
100
AcDbLine
 10
120.5034044244
 20
104.291901304
 30
0.0
 11
120.2306299994
 21
104.291901304
 31
0.0
  0
LINE
  5
268
330
1F
100
AcDbEntity
  8
0
  6
Continuous
 62
     7
370
    25
100
AcDbLine
 10
109.2761788493
 20
104.291901304
 30
0.0
 11
109.0034044244
 21
104.291901304
 31
0.0
  0
LINE
  5
269
330
1F
100
AcDbEntity
  8
0
  6
Continuous
 62
     7
370
    25
100
AcDbLine
 10
109.0034044244
 20
104.541901304
 30
0.0
 11
109.0034044244
 21
104.291901304
 31
0.0
  0
ARC
  5
26A
330
1F
100
AcDbEntity
  8
0
  6
Continuous
 62
     7
370
    25
100
AcDbCircle
 10
120.5034044244
 20
104.541901304
 30
0.0
 40
0.25
100
AcDbArc
 50
270.0
 51
0.0
  0
ARC
  5
26B
330
1F
100
AcDbEntity
  8
0
  6
Continuous
 62
     7
370
    25
100
AcDbCircle
 10
109.0034044244
 20
104.541901304
 30
0.0
 40
0.25
100
AcDbArc
 50
180.0
 51
270.0
  0
LINE
  5
26C
330
1F
100
AcDbEntity
  8
0
  6
Continuous
 62
     7
370
    25
100
AcDbLine
 10
94.7534044244
 20
109.063600568
 30
0.0
 11
92.5779675628
 21
109.291901304
 31
0.0
  0
LINE
  5
26D
330
1F
100
AcDbEntity
  8
0
  6
Continuous
 62
     7
370
    25
100
AcDbLine
 10
94.7534044244
 20
102.5202020399
 30
0.0
 11
94.7534044244
 21
109.063600568
 31
0.0
  0
LINE
  5
26E
330
1F
100
AcDbEntity
  8
0
  6
Continuous
 62
     7
370
    25
100
AcDbLine
 10
92.5779675628
 20
102.291901304
 30
0.0
 11
94.7534044244
 21
102.5202020399
 31
0.0
  0
LINE
  5
26F
330
1F
100
AcDbEntity
  8
0
  6
Continuous
 62
     7
370
    25
100
AcDbLine
 10
74.7534044244
 20
102.291901304
 30
0.0
 11
92.5779675628
 21
102.291901304
 31
0.0
  0
LINE
  5
270
330
1F
100
AcDbEntity
  8
0
  6
Continuous
 62
     7
370
    25
100
AcDbLine
 10
92.5779675628
 20
109.291901304
 30
0.0
 11
74.7534044244
 21
109.291901304
 31
0.0
  0
LINE
  5
271
330
1F
100
AcDbEntity
  8
0
  6
Continuous
 62
     7
370
    25
100
AcDbLine
 10
74.7534044244
 20
109.291901304
 30
0.0
 11
74.7534044244
 21
102.291901304
 31
0.0
  0
LINE
  5
272
330
1F
100
AcDbEntity
  8
0
  6
Continuous
 62
     7
370
    25
100
AcDbLine
 10
109.52960225
 20
107.5129157848
 30
0.0
 11
109.4011932114
 21
107.3287741513
 31
0.0
  0
LINE
  5
273
330
1F
100
AcDbEntity
  8
0
  6
Continuous
 62
     7
370
    25
100
AcDbLine
 10
109.4107605521
 20
104.2466836366
 30
0.0
 11
109.52960225
 21
104.0708868232
 31
0.0
  0
LINE
  5
274
330
1F
100
AcDbEntity
  8
0
  6
Continuous
 62
     7
370
    25
100
AcDbLine
 10
101.3368347708
 20
108.3727039395
 30
0.0
 11
101.3368347708
 21
103.2110986684
 31
0.0
  0
LINE
  5
275
330
1F
100
AcDbEntity
  8
0
  6
Continuous
 62
     7
370
    25
100
AcDbLine
 10
109.52960225
 20
104.0708868231
 30
0.0
 11
101.3368347708
 21
103.2110986684
 31
0.0
  0
LINE
  5
276
330
1F
100
AcDbEntity
  8
0
  6
Continuous
 62
     7
370
    25
100
AcDbLine
 10
101.3368347708
 20
108.3727039395
 30
0.0
 11
109.52960225
 21
107.5129157848
 31
0.0
  0
LINE
  5
277
330
1F
100
AcDbEntity
  8
0
  6
Continuous
 62
     7
370
    25
100
AcDbLine
 10
101.3368347708
 20
103.2110986684
 30
0.0
 11
94.7534044244
 21
102.5202020399
 31
0.0
  0
LINE
  5
278
330
1F
100
AcDbEntity
  8
0
  6
Continuous
 62
     7
370
    25
100
AcDbLine
 10
94.7534044244
 20
109.063600568
 30
0.0
 11
101.3368347708
 21
108.3727039395
 31
0.0
  0
ARC
  5
279
330
1F
100
AcDbEntity
  8
0
  6
Continuous
 62
     7
370
    25
100
AcDbCircle
 10
114.7534044244
 20
105.791901304
 30
0.0
 40
7.45000000000065
100
AcDbArc
 50
233.0863788866
 51
126.9136211134
  0
ARC
  5
27A
330
1F
100
AcDbEntity
  8
0
  6
Continuous
 62
     7
370
    25
100
AcDbCircle
 10
114.7534044244
 20
105.791901304
 30
0.0
 40
7.207531252870783
100
AcDbArc
 50
195.3041237151
 51
238.9797515565
  0
ARC
  5
27B
330
1F
100
AcDbEntity
  8
0
  6
Continuous
 62
     7
370
    25
100
AcDbCircle
 10
114.7534044244
 20
105.791901304
 30
0.0
 40
7.207531252872426
100
AcDbArc
 50
121.0202484435
 51
164.6958762849
  0
ARC
  5
27C
330
1F
100
AcDbEntity
  8
0
  6
Continuous
 62
     7
370
    25
100
AcDbCircle
 10
92.5779675628
 20
174.291901304
 30
0.0
 40
65.00000000000001
100
AcDbArc
 50
270.0
 51
286.5000949923
  0
ARC
  5
27D
330
1F
100
AcDbEntity
  8
0
  6
Continuous
 62
     7
370
    25
100
AcDbCircle
 10
92.5779675628
 20
37.291901304
 30
0.0
 40
65.00000000000001
100
AcDbArc
 50
73.4999050077
 51
90.0
  0
LINE
  5
27E
330
1F
100
AcDbEntity
  8
0
  6
Continuous
 62
     7
370
    25
100
AcDbLine
 10
125.9313454518
 20
105.541901304
 30
0.0
 11
122.199208612
 21
105.541901304
 31
0.0
  0
LINE
  5
27F
330
1F
100
AcDbEntity
  8
0
  6
Continuous
 62
     7
370
    25
100
AcDbLine
 10
122.199208612
 20
106.041901304
 30
0.0
 11
125.9313454518
 21
106.041901304
 31
0.0
  0
INSERT
  5
28B
330
1F
100
AcDbEntity
  8
FORMAT
100
AcDbBlockReference
  2
SW_CENTERMARKSYMBOL_1
 10
114.7534044244
 20
105.791901304
 30
0.0
  0
ENDSEC
  0
SECTION
  2
OBJECTS
  0
DICTIONARY
  5
C
330
0
100
AcDbDictionary
281
     1
  3
ACAD_GROUP
350
D
  3
ACAD_LAYOUT
350
1A
  3
ACAD_MLINESTYLE
350
17
  3
ACAD_PLOTSETTINGS
350
19
  3
ACAD_PLOTSTYLENAME
350
E
  3
ACAD_SCALELIST
350
47
  3
DWGPROPS
350
28C
  0
DICTIONARY
  5
D
102
{ACAD_REACTORS
330
C
102
}
330
C
100
AcDbDictionary
281
     1
  0
DICTIONARY
  5
1A
102
{ACAD_REACTORS
330
C
102
}
330
C
100
AcDbDictionary
281
     1
  3
Layout1
350
1E
  3
Layout2
350
26
  3
Model
350
22
  0
DICTIONARY
  5
17
102
{ACAD_REACTORS
330
C
102
}
330
C
100
AcDbDictionary
281
     1
  3
Standard
350
18
  0
DICTIONARY
  5
19
102
{ACAD_REACTORS
330
C
102
}
330
C
100
AcDbDictionary
281
     1
  0
ACDBDICTIONARYWDFLT
  5
E
102
{ACAD_REACTORS
330
C
102
}
330
C
100
AcDbDictionary
281
     1
  3
Normal
350
F
100
AcDbDictionaryWithDefault
340
F
  0
DICTIONARY
  5
47
102
{ACAD_REACTORS
330
C
102
}
330
C
100
AcDbDictionary
281
     1
  3
A0
350
48
  3
A1
350
49
  3
A2
350
4A
  3
A3
350
4B
  3
A4
350
4C
  3
A5
350
4D
  3
A6
350
4E
  3
A7
350
4F
  3
A8
350
50
  3
A9
350
51
  3
B0
350
52
  3
B1
350
53
  3
B2
350
54
  3
B3
350
55
  3
B4
350
56
  3
B5
350
57
  3
B6
350
58
  0
XRECORD
  5
28C
102
{ACAD_REACTORS
330
C
102
}
330
C
100
AcDbXrecord
280
     1
  1
DWGPROPS COOKIE
  2

  3

  4

  6

  7

  8
user28
  9

300
=
301
=
302
=
303
=
304
=
305
=
306
=
307
=
308
=
309
=
 40
0.0
 41
2460336.273562268
 42
2460336.273563033
  1

 90
        0
  0
LAYOUT
  5
1E
102
{ACAD_REACTORS
330
1A
102
}
330
1A
100
AcDbPlotSettings
  1

  2
none_device
  4

  6

 40
0.0
 41
0.0
 42
0.0
 43
0.0
 44
0.0
 45
0.0
 46
0.0
 47
0.0
 48
0.0
 49
0.0
140
0.0
141
0.0
142
1.0
143
1.0
 70
   688
 72
     1
 73
     0
 74
     5
  7

 75
    16
147
1.0
148
0.0
149
0.0
100
AcDbLayout
  1
Layout1
 70
     1
 71
     1
 10
0.0
 20
0.0
 11
420.0
 21
297.0
 12
0.0
 22
0.0
 32
0.0
 14
1.0000000000E+20
 24
1.0000000000E+20
 34
1.0000000000E+20
 15
-1.0000000000E+20
 25
-1.0000000000E+20
 35
-1.0000000000E+20
146
0.0
 13
0.0
 23
0.0
 33
0.0
 16
1.0
 26
0.0
 36
0.0
 17
0.0
 27
1.0
 37
0.0
 76
     0
330
1B
  0
LAYOUT
  5
26
102
{ACAD_REACTORS
330
1A
102
}
330
1A
100
AcDbPlotSettings
  1

  2
none_device
  4

  6

 40
0.0
 41
0.0
 42
0.0
 43
0.0
 44
0.0
 45
0.0
 46
0.0
 47
0.0
 48
0.0
 49
0.0
140
0.0
141
0.0
142
1.0
143
1.0
 70
   688
 72
     1
 73
     0
 74
     5
  7

 75
    16
147
1.0
148
0.0
149
0.0
100
AcDbLayout
  1
Layout2
 70
     1
 71
     2
 10
0.0
 20
0.0
 11
0.0
 21
0.0
 12
0.0
 22
0.0
 32
0.0
 14
0.0
 24
0.0
 34
0.0
 15
0.0
 25
0.0
 35
0.0
146
0.0
 13
0.0
 23
0.0
 33
0.0
 16
1.0
 26
0.0
 36
0.0
 17
0.0
 27
1.0
 37
0.0
 76
     0
330
23
  0
LAYOUT
  5
22
102
{ACAD_REACTORS
330
1A
102
}
330
1A
100
AcDbPlotSettings
  1

  2
none_device
  4
Letter_(8.50_x_11.00_Inches)
  6

 40
6.35
 41
6.35
 42
6.35000508
 43
6.35000508
 44
215.9
 45
279.4
 46
0.0
 47
0.0
 48
0.0
 49
0.0
140
0.0
141
0.0
142
1.0
143
1.0
 70
  1712
 72
     1
 73
     0
 74
     0
  7

 75
     0
147
1.0
148
0.0
149
0.0
100
AcDbLayout
  1
Model
 70
     1
 71
     0
 10
0.0
 20
0.0
 11
297.0
 21
210.0
 12
0.0
 22
0.0
 32
0.0
 14
0.0
 24
0.0
 34
0.0
 15
297.0
 25
210.0
 35
0.0
146
0.0
 13
0.0
 23
0.0
 33
0.0
 16
1.0
 26
0.0
 36
0.0
 17
0.0
 27
1.0
 37
0.0
 76
     0
330
1F
331
29
  0
MLINESTYLE
  5
18
102
{ACAD_REACTORS
330
17
102
}
330
17
100
AcDbMlineStyle
  2
Standard
 70
     0
  3

 62
   256
 51
90.0
 52
90.0
 71
     2
 49
0.5
 62
   256
  6
BYLAYER
 49
-0.5
 62
   256
  6
BYLAYER
  0
ACDBPLACEHOLDER
  5
F
102
{ACAD_REACTORS
330
E
102
}
330
E
  0
SCALE
  5
48
102
{ACAD_REACTORS
330
47
102
}
330
47
100
AcDbScale
 70
     0
300
1:1
140
1.0
141
1.0
290
     1
  0
SCALE
  5
49
102
{ACAD_REACTORS
330
47
102
}
330
47
100
AcDbScale
 70
     0
300
1:2
140
1.0
141
2.0
290
     0
  0
SCALE
  5
4A
102
{ACAD_REACTORS
330
47
102
}
330
47
100
AcDbScale
 70
     0
300
1:4
140
1.0
141
4.0
290
     0
  0
SCALE
  5
4B
102
{ACAD_REACTORS
330
47
102
}
330
47
100
AcDbScale
 70
     0
300
1:5
140
1.0
141
5.0
290
     0
  0
SCALE
  5
4C
102
{ACAD_REACTORS
330
47
102
}
330
47
100
AcDbScale
 70
     0
300
1:8
140
1.0
141
8.0
290
     0
  0
SCALE
  5
4D
102
{ACAD_REACTORS
330
47
102
}
330
47
100
AcDbScale
 70
     0
300
1:10
140
1.0
141
10.0
290
     0
  0
SCALE
  5
4E
102
{ACAD_REACTORS
330
47
102
}
330
47
100
AcDbScale
 70
     0
300
1:16
140
1.0
141
16.0
290
     0
  0
SCALE
  5
4F
102
{ACAD_REACTORS
330
47
102
}
330
47
100
AcDbScale
 70
     0
300
1:20
140
1.0
141
20.0
290
     0
  0
SCALE
  5
50
102
{ACAD_REACTORS
330
47
102
}
330
47
100
AcDbScale
 70
     0
300
1:30
140
1.0
141
30.0
290
     0
  0
SCALE
  5
51
102
{ACAD_REACTORS
330
47
102
}
330
47
100
AcDbScale
 70
     0
300
1:40
140
1.0
141
40.0
290
     0
  0
SCALE
  5
52
102
{ACAD_REACTORS
330
47
102
}
330
47
100
AcDbScale
 70
     0
300
1:50
140
1.0
141
50.0
290
     0
  0
SCALE
  5
53
102
{ACAD_REACTORS
330
47
102
}
330
47
100
AcDbScale
 70
     0
300
1:100
140
1.0
141
100.0
290
     0
  0
SCALE
  5
54
102
{ACAD_REACTORS
330
47
102
}
330
47
100
AcDbScale
 70
     0
300
2:1
140
2.0
141
1.0
290
     0
  0
SCALE
  5
55
102
{ACAD_REACTORS
330
47
102
}
330
47
100
AcDbScale
 70
     0
300
4:1
140
4.0
141
1.0
290
     0
  0
SCALE
  5
56
102
{ACAD_REACTORS
330
47
102
}
330
47
100
AcDbScale
 70
     0
300
8:1
140
8.0
141
1.0
290
     0
  0
SCALE
  5
57
102
{ACAD_REACTORS
330
47
102
}
330
47
100
AcDbScale
 70
     0
300
10:1
140
10.0
141
1.0
290
     0
  0
SCALE
  5
58
102
{ACAD_REACTORS
330
47
102
}
330
47
100
AcDbScale
 70
     0
300
100:1
140
100.0
141
1.0
290
     0
  0
ENDSEC
  0
EOF
