  0
SECTION
  2
HEADER
  9
$ACADVER
  1
AC1015
  9
$ACADMAINTVER
 70
     6
  9
$DWGCODEPAGE
  3
DOS932
  9
$INSBASE
 10
0.0
 20
0.0
 30
0.0
  9
$EXTMIN
 10
0.0
 20
0.0
 30
0.0
  9
$EXTMAX
 10
297.0
 20
210.0
 30
0.0
  9
$LIMMIN
 10
0.0
 20
0.0
  9
$LIMMAX
 10
297.0
 20
210.0
  9
$ORTHOMODE
 70
     0
  9
$REGENMODE
 70
     1
  9
$FILLMODE
 70
     1
  9
$QTEXTMODE
 70
     0
  9
$MIRRTEXT
 70
     1
  9
$LTSCALE
 40
1.0
  9
$ATTMODE
 70
     1
  9
$TEXTSIZE
 40
3.5277777778
  9
$TRACEWID
 40
1.0
  9
$TEXTSTYLE
  7
Standard
  9
$CLAYER
  8
0
  9
$CELTYPE
  6
ByLayer
  9
$CECOLOR
 62
   256
  9
$CELTSCALE
 40
1.0
  9
$DISPSILH
 70
     0
  9
$DIMSCALE
 40
1.0
  9
$DIMASZ
 40
2.728515625
  9
$DIMEXO
 40
1.0
  9
$DIMDLI
 40
3.75
  9
$DIMRND
 40
0.0
  9
$DIMDLE
 40
0.0
  9
$DIMEXE
 40
1.0
  9
$DIMTP
 40
0.0
  9
$DIMTM
 40
0.0
  9
$DIMTXT
 40
3.5277777778
  9
$DIMCEN
 40
2.5
  9
$DIMTSZ
 40
0.0
  9
$DIMTOL
 70
     0
  9
$DIMLIM
 70
     0
  9
$DIMTIH
 70
     1
  9
$DIMTOH
 70
     1
  9
$DIMSE1
 70
     0
  9
$DIMSE2
 70
     0
  9
$DIMTAD
 70
     1
  9
$DIMZIN
 70
     0
  9
$DIMBLK
  1

  9
$DIMASO
 70
     1
  9
$DIMSHO
 70
     1
  9
$DIMPOST
  1

  9
$DIMAPOST
  1

  9
$DIMALT
 70
     0
  9
$DIMALTD
 70
     3
  9
$DIMALTF
 40
0.0393700787
  9
$DIMLFAC
 40
1.0
  9
$DIMTOFL
 70
     1
  9
$DIMTVP
 40
0.0
  9
$DIMTIX
 70
     0
  9
$DIMSOXD
 70
     0
  9
$DIMSAH
 70
     0
  9
$DIMBLK1
  1

  9
$DIMBLK2
  1

  9
$DIMSTYLE
  2
ISO-25
  9
$DIMCLRD
 70
     0
  9
$DIMCLRE
 70
     0
  9
$DIMCLRT
 70
     0
  9
$DIMTFAC
 40
1.0
  9
$DIMGAP
 40
1.524
  9
$DIMJUST
 70
     0
  9
$DIMSD1
 70
     0
  9
$DIMSD2
 70
     0
  9
$DIMTOLJ
 70
     0
  9
$DIMTZIN
 70
     0
  9
$DIMALTZ
 70
     0
  9
$DIMALTTZ
 70
     0
  9
$DIMUPT
 70
     0
  9
$DIMDEC
 70
     2
  9
$DIMTDEC
 70
     2
  9
$DIMALTU
 70
     2
  9
$DIMALTTD
 70
     3
  9
$DIMTXSTY
  7
Standard
  9
$DIMAUNIT
 70
     0
  9
$DIMADEC
 70
     2
  9
$DIMALTRND
 40
0.0
  9
$DIMAZIN
 70
     0
  9
$DIMDSEP
 70
    44
  9
$DIMATFIT
 70
     3
  9
$DIMFRAC
 70
     0
  9
$DIMLDRBLK
  1

  9
$DIMLUNIT
 70
     2
  9
$DIMLWD
 70
    -2
  9
$DIMLWE
 70
    -2
  9
$DIMTMOVE
 70
     0
  9
$LUNITS
 70
     2
  9
$LUPREC
 70
     2
  9
$SKETCHINC
 40
1.0
  9
$FILLETRAD
 40
0.0
  9
$AUNITS
 70
     0
  9
$AUPREC
 70
     2
  9
$MENU
  1
.
  9
$ELEVATION
 40
0.0
  9
$PELEVATION
 40
0.0
  9
$THICKNESS
 40
0.0
  9
$LIMCHECK
 70
     0
  9
$CHAMFERA
 40
0.0
  9
$CHAMFERB
 40
0.0
  9
$CHAMFERC
 40
0.0
  9
$CHAMFERD
 40
0.0
  9
$SKPOLY
 70
     0
  9
$TDCREATE
 40
2460336.663984572
  9
$TDUCREATE
 40
2460336.288984572
  9
$TDUPDATE
 40
2460336.663985278
  9
$TDUUPDATE
 40
2460336.288985278
  9
$TDINDWG
 40
0.0000000116
  9
$TDUSRTIMER
 40
0.0000000116
  9
$USRTIMER
 70
     1
  9
$ANGBASE
 50
0.0
  9
$ANGDIR
 70
     0
  9
$PDMODE
 70
     0
  9
$PDSIZE
 40
-1.0
  9
$PLINEWID
 40
0.0
  9
$SPLFRAME
 70
     0
  9
$SPLINETYPE
 70
     6
  9
$SPLINESEGS
 70
     8
  9
$HANDSEED
  5
275
  9
$SURFTAB1
 70
     6
  9
$SURFTAB2
 70
     6
  9
$SURFTYPE
 70
     6
  9
$SURFU
 70
     6
  9
$SURFV
 70
     6
  9
$UCSBASE
  2

  9
$UCSNAME
  2

  9
$UCSORG
 10
0.0
 20
0.0
 30
0.0
  9
$UCSXDIR
 10
1.0
 20
0.0
 30
0.0
  9
$UCSYDIR
 10
0.0
 20
1.0
 30
0.0
  9
$UCSORTHOREF
  2

  9
$UCSORTHOVIEW
 70
     0
  9
$UCSORGTOP
 10
0.0
 20
0.0
 30
0.0
  9
$UCSORGBOTTOM
 10
0.0
 20
0.0
 30
0.0
  9
$UCSORGLEFT
 10
0.0
 20
0.0
 30
0.0
  9
$UCSORGRIGHT
 10
0.0
 20
0.0
 30
0.0
  9
$UCSORGFRONT
 10
0.0
 20
0.0
 30
0.0
  9
$UCSORGBACK
 10
0.0
 20
0.0
 30
0.0
  9
$PUCSBASE
  2

  9
$PUCSNAME
  2

  9
$PUCSORG
 10
0.0
 20
0.0
 30
0.0
  9
$PUCSXDIR
 10
1.0
 20
0.0
 30
0.0
  9
$PUCSYDIR
 10
0.0
 20
1.0
 30
0.0
  9
$PUCSORTHOREF
  2

  9
$PUCSORTHOVIEW
 70
     0
  9
$PUCSORGTOP
 10
0.0
 20
0.0
 30
0.0
  9
$PUCSORGBOTTOM
 10
0.0
 20
0.0
 30
0.0
  9
$PUCSORGLEFT
 10
0.0
 20
0.0
 30
0.0
  9
$PUCSORGRIGHT
 10
0.0
 20
0.0
 30
0.0
  9
$PUCSORGFRONT
 10
0.0
 20
0.0
 30
0.0
  9
$PUCSORGBACK
 10
0.0
 20
0.0
 30
0.0
  9
$USERI1
 70
     0
  9
$USERI2
 70
     0
  9
$USERI3
 70
     0
  9
$USERI4
 70
     0
  9
$USERI5
 70
     0
  9
$USERR1
 40
0.0
  9
$USERR2
 40
0.0
  9
$USERR3
 40
0.0
  9
$USERR4
 40
0.0
  9
$USERR5
 40
0.0
  9
$WORLDVIEW
 70
     1
  9
$SHADEDGE
 70
     3
  9
$SHADEDIF
 70
    70
  9
$TILEMODE
 70
     1
  9
$MAXACTVP
 70
    64
  9
$PINSBASE
 10
0.0
 20
0.0
 30
0.0
  9
$PLIMCHECK
 70
     0
  9
$PEXTMIN
 10
1.0000000000E+20
 20
1.0000000000E+20
 30
1.0000000000E+20
  9
$PEXTMAX
 10
-1.0000000000E+20
 20
-1.0000000000E+20
 30
-1.0000000000E+20
  9
$PLIMMIN
 10
0.0
 20
0.0
  9
$PLIMMAX
 10
420.0
 20
297.0
  9
$UNITMODE
 70
     0
  9
$VISRETAIN
 70
     1
  9
$PLINEGEN
 70
     0
  9
$PSLTSCALE
 70
     1
  9
$TREEDEPTH
 70
  3020
  9
$CMLSTYLE
  2
Standard
  9
$CMLJUST
 70
     0
  9
$CMLSCALE
 40
20.0
  9
$PROXYGRAPHICS
 70
     1
  9
$MEASUREMENT
 70
     1
  9
$CELWEIGHT
370
    -1
  9
$ENDCAPS
280
     0
  9
$JOINSTYLE
280
     0
  9
$LWDISPLAY
290
     1
  9
$INSUNITS
 70
     4
  9
$HYPERLINKBASE
  1

  9
$STYLESHEET
  1

  9
$XEDIT
290
     1
  9
$CEPSNTYPE
380
     0
  9
$PSTYLEMODE
290
     1
  9
$FINGERPRINTGUID
  2
{e548068a-bfa4-41a8-b6c7-c245377c5100}
  9
$VERSIONGUID
  2
{FAEB1C32-E019-11D5-929B-00C0DF256EC4}
  9
$EXTNAMES
290
     1
  9
$PSVPSCALE
 40
0.0
  9
$OLESTARTUP
290
     0
  0
ENDSEC
  0
SECTION
  2
CLASSES
  0
CLASS
  1
ACDBDICTIONARYWDFLT
  2
AcDbDictionaryWithDefault
  3
ObjectDBX Classes
 90
        0
280
     0
281
     0
  0
CLASS
  1
VISUALSTYLE
  2
AcDbVisualStyle
  3
ObjectDBX Classes
 90
     4095
280
     0
281
     0
  0
CLASS
  1
MATERIAL
  2
AcDbMaterial
  3
ObjectDBX Classes
 90
     1153
280
     0
281
     0
  0
CLASS
  1
SCALE
  2
AcDbScale
  3
ObjectDBX Classes
 90
     1153
280
     0
281
     0
  0
CLASS
  1
TABLESTYLE
  2
AcDbTableStyle
  3
ObjectDBX Classes
 90
     4095
280
     0
281
     0
  0
CLASS
  1
MLEADERSTYLE
  2
AcDbMLeaderStyle
  3
ACDB_MLEADERSTYLE_CLASS
 90
     4095
280
     0
281
     0
  0
CLASS
  1
SUN
  2
AcDbSun
  3
SCENEOE
 90
     1153
280
     0
281
     0
  0
CLASS
  1
ACDBPLACEHOLDER
  2
AcDbPlaceHolder
  3
ObjectDBX Classes
 90
        0
280
     0
281
     0
  0
CLASS
  1
LAYOUT
  2
AcDbLayout
  3
ObjectDBX Classes
 90
        0
280
     0
281
     0
  0
ENDSEC
  0
SECTION
  2
TABLES
  0
TABLE
  2
VPORT
  5
8
330
0
100
AcDbSymbolTable
 70
     1
  0
VPORT
  5
29
330
8
100
AcDbSymbolTableRecord
100
AcDbViewportTableRecord
  2
*Active
 70
     0
 10
0.0
 20
0.0
 11
1.0
 21
1.0
 12
148.5
 22
105.0
 13
0.0
 23
0.0
 14
10.0
 24
10.0
 15
10.0
 25
10.0
 16
0.0
 26
0.0
 36
1.0
 17
0.0
 27
0.0
 37
0.0
 40
210.0
 41
1.4142857143
 42
50.0
 43
0.0
 44
0.0
 50
0.0
 51
0.0
 71
     0
 72
  2000
 73
     1
 74
     3
 75
     0
 76
     0
 77
     0
 78
     0
281
     0
 65
     1
110
0.0
120
0.0
130
0.0
111
1.0
121
0.0
131
0.0
112
0.0
122
1.0
132
0.0
 79
     0
146
0.0
  0
ENDTAB
  0
TABLE
  2
LTYPE
  5
5
330
0
100
AcDbSymbolTable
 70
     6
  0
LTYPE
  5
14
330
5
100
AcDbSymbolTableRecord
100
AcDbLinetypeTableRecord
  2
ByBlock
 70
     0
  3

 72
    65
 73
     0
 40
0.0
  0
LTYPE
  5
15
330
5
100
AcDbSymbolTableRecord
100
AcDbLinetypeTableRecord
  2
ByLayer
 70
     0
  3

 72
    65
 73
     0
 40
0.0
  0
LTYPE
  5
16
330
5
100
AcDbSymbolTableRecord
100
AcDbLinetypeTableRecord
  2
Continuous
 70
     0
  3
Solid line
 72
    65
 73
     0
 40
0.0
  0
LTYPE
  5
5E
330
5
100
AcDbSymbolTableRecord
100
AcDbLinetypeTableRecord
  2
HIDDEN
 70
     0
  3
Hidden __ __ __ __ __ __ __ __ __ __ __ __ __ __
 72
    65
 73
     2
 40
1.905
 49
1.27
 74
     0
 49
-0.635
 74
     0
  0
LTYPE
  5
5F
330
5
100
AcDbSymbolTableRecord
100
AcDbLinetypeTableRecord
  2
PHANTOM
 70
     0
  3
Phantom ______  __  __  ______  __  __  ______
 72
    65
 73
     6
 40
12.7
 49
6.35
 74
     0
 49
-1.27
 74
     0
 49
1.27
 74
     0
 49
-1.27
 74
     0
 49
1.27
 74
     0
 49
-1.27
 74
     0
  0
LTYPE
  5
60
330
5
100
AcDbSymbolTableRecord
100
AcDbLinetypeTableRecord
  2
CENTER
 70
     0
  3
Center ____ _ ____ _ ____ _ ____ _ ____ _ ____
 72
    65
 73
     4
 40
10.16
 49
6.35
 74
     0
 49
-1.27
 74
     0
 49
1.27
 74
     0
 49
-1.27
 74
     0
  0
LTYPE
  5
61
330
5
100
AcDbSymbolTableRecord
100
AcDbLinetypeTableRecord
  2
CENTERX2
 70
     0
  3
Center (2x) ________  __  ________  __  _____
 72
    65
 73
     4
 40
20.32
 49
12.7
 74
     0
 49
-2.54
 74
     0
 49
2.54
 74
     0
 49
-2.54
 74
     0
  0
LTYPE
  5
62
330
5
100
AcDbSymbolTableRecord
100
AcDbLinetypeTableRecord
  2
DOT2
 70
     0
  3
Dot (.5x) ........................................
 72
    65
 73
     2
 40
0.635
 49
0.0
 74
     0
 49
-0.635
 74
     0
  0
ENDTAB
  0
TABLE
  2
LAYER
  5
2
330
0
100
AcDbSymbolTable
 70
     2
  0
LAYER
  5
10
330
2
100
AcDbSymbolTableRecord
100
AcDbLayerTableRecord
  2
0
 70
     0
 62
     7
  6
Continuous
370
    -3
390
F
  0
LAYER
  5
63
330
2
100
AcDbSymbolTableRecord
100
AcDbLayerTableRecord
  2
FORMAT
 70
     0
 62
     7
  6
Continuous
370
    -3
390
F
  0
ENDTAB
  0
TABLE
  2
STYLE
  5
3
330
0
100
AcDbSymbolTable
 70
     2
  0
STYLE
  5
11
330
3
100
AcDbSymbolTableRecord
100
AcDbTextStyleTableRecord
  2
Standard
 70
     0
 40
0.0
 41
1.0
 50
0.0
 71
     0
 42
3.5277777778
  3
txt
  4
bigfont
  0
STYLE
  5
64
330
3
100
AcDbSymbolTableRecord
100
AcDbTextStyleTableRecord
  2
SLDTEXTSTYLE0
 70
     0
 40
0.0
 41
0.7
 50
0.0
 71
     0
 42
3.5277777778
  3
TXT
  4
bigfont
  0
ENDTAB
  0
TABLE
  2
VIEW
  5
6
330
0
100
AcDbSymbolTable
 70
     0
  0
ENDTAB
  0
TABLE
  2
UCS
  5
7
330
0
100
AcDbSymbolTable
 70
     0
  0
ENDTAB
  0
TABLE
  2
APPID
  5
9
330
0
100
AcDbSymbolTable
 70
     1
  0
APPID
  5
12
330
9
100
AcDbSymbolTableRecord
100
AcDbRegAppTableRecord
  2
ACAD
 70
     0
  0
ENDTAB
  0
TABLE
  2
DIMSTYLE
  5
A
330
0
100
AcDbSymbolTable
 70
     1
100
AcDbDimStyleTable
  0
DIMSTYLE
105
27
330
A
100
AcDbSymbolTableRecord
100
AcDbDimStyleTableRecord
  2
ISO-25
 70
     0
 41
2.5
 42
0.625
 43
3.75
 44
1.25
 73
     0
 74
     0
 77
     1
 78
     8
140
2.5
141
2.5
143
0.0393700787
147
0.625
171
     3
172
     1
178
     0
271
     2
272
     2
274
     3
278
    44
283
     0
284
     8
340
11
  0
ENDTAB
  0
TABLE
  2
BLOCK_RECORD
  5
1
330
0
100
AcDbSymbolTable
 70
     3
  0
BLOCK_RECORD
  5
1F
330
1
100
AcDbSymbolTableRecord
100
AcDbBlockTableRecord
  2
*Model_Space
340
22
  0
BLOCK_RECORD
  5
1B
330
1
100
AcDbSymbolTableRecord
100
AcDbBlockTableRecord
  2
*Paper_Space
340
1E
  0
BLOCK_RECORD
  5
23
330
1
100
AcDbSymbolTableRecord
100
AcDbBlockTableRecord
  2
*Paper_Space0
340
26
  0
BLOCK_RECORD
  5
1ED
330
1
100
AcDbSymbolTableRecord
100
AcDbBlockTableRecord
  2
SW_CENTERMARKSYMBOL_0
340
0
102
{BLKREFS
331
1F8
102
}
  0
BLOCK_RECORD
  5
264
330
1
100
AcDbSymbolTableRecord
100
AcDbBlockTableRecord
  2
SW_CENTERMARKSYMBOL_1
340
0
102
{BLKREFS
331
26F
102
}
  0
ENDTAB
  0
ENDSEC
  0
SECTION
  2
BLOCKS
  0
BLOCK
  5
20
330
1F
100
AcDbEntity
  8
0
100
AcDbBlockBegin
  2
*Model_Space
 70
     0
 10
0.0
 20
0.0
 30
0.0
  3
*Model_Space
  1

  0
ENDBLK
  5
21
330
1F
100
AcDbEntity
  8
0
100
AcDbBlockEnd
  0
BLOCK
  5
1C
330
1B
100
AcDbEntity
 67
     1
  8
0
100
AcDbBlockBegin
  2
*Paper_Space
 70
     0
 10
0.0
 20
0.0
 30
0.0
  3
*Paper_Space
  1

  0
ENDBLK
  5
1D
330
1B
100
AcDbEntity
 67
     1
  8
0
100
AcDbBlockEnd
  0
BLOCK
  5
24
330
23
100
AcDbEntity
  8
0
100
AcDbBlockBegin
  2
*Paper_Space0
 70
     0
 10
0.0
 20
0.0
 30
0.0
  3
*Paper_Space0
  1

  0
ENDBLK
  5
25
330
23
100
AcDbEntity
  8
0
100
AcDbBlockEnd
  0
BLOCK
  5
1EE
330
1ED
100
AcDbEntity
  8
0
100
AcDbBlockBegin
  2
SW_CENTERMARKSYMBOL_0
 70
     0
 10
0.0
 20
0.0
 30
0.0
  3
SW_CENTERMARKSYMBOL_0
  1

  0
LINE
  5
1F0
330
1ED
100
AcDbEntity
  8
FORMAT
 62
     0
100
AcDbLine
 10
0.0
 20
0.0
 30
0.0
 11
0.0
 21
2.5
 31
0.0
  0
LINE
  5
1F1
330
1ED
100
AcDbEntity
  8
FORMAT
 62
     0
100
AcDbLine
 10
0.0
 20
0.0
 30
0.0
 11
-2.5
 21
0.0
 31
0.0
  0
LINE
  5
1F2
330
1ED
100
AcDbEntity
  8
FORMAT
 62
     0
100
AcDbLine
 10
0.0
 20
0.0
 30
0.0
 11
0.0
 21
-2.5
 31
0.0
  0
LINE
  5
1F3
330
1ED
100
AcDbEntity
  8
FORMAT
 62
     0
100
AcDbLine
 10
0.0
 20
0.0
 30
0.0
 11
2.5
 21
0.0
 31
0.0
  0
LINE
  5
1F4
330
1ED
100
AcDbEntity
  8
FORMAT
 62
     0
100
AcDbLine
 10
0.0
 20
5.0
 30
0.0
 11
0.0
 21
9.95
 31
0.0
  0
LINE
  5
1F5
330
1ED
100
AcDbEntity
  8
FORMAT
 62
     0
100
AcDbLine
 10
-5.0
 20
0.0
 30
0.0
 11
-41.3546502907
 21
0.0
 31
0.0
  0
LINE
  5
1F6
330
1ED
100
AcDbEntity
  8
FORMAT
 62
     0
100
AcDbLine
 10
0.0
 20
-5.0
 30
0.0
 11
0.0
 21
-9.95
 31
0.0
  0
LINE
  5
1F7
330
1ED
100
AcDbEntity
  8
FORMAT
 62
     0
100
AcDbLine
 10
5.0
 20
0.0
 30
0.0
 11
13.4294885411
 21
0.0
 31
0.0
  0
ENDBLK
  5
1EF
330
1ED
100
AcDbEntity
  8
0
100
AcDbBlockEnd
  0
BLOCK
  5
265
330
264
100
AcDbEntity
  8
0
100
AcDbBlockBegin
  2
SW_CENTERMARKSYMBOL_1
 70
     0
 10
0.0
 20
0.0
 30
0.0
  3
SW_CENTERMARKSYMBOL_1
  1

  0
LINE
  5
267
330
264
100
AcDbEntity
  8
FORMAT
 62
     0
100
AcDbLine
 10
0.0
 20
0.0
 30
0.0
 11
0.0
 21
2.5
 31
0.0
  0
LINE
  5
268
330
264
100
AcDbEntity
  8
FORMAT
 62
     0
100
AcDbLine
 10
0.0
 20
0.0
 30
0.0
 11
-2.5
 21
0.0
 31
0.0
  0
LINE
  5
269
330
264
100
AcDbEntity
  8
FORMAT
 62
     0
100
AcDbLine
 10
0.0
 20
0.0
 30
0.0
 11
0.0
 21
-2.5
 31
0.0
  0
LINE
  5
26A
330
264
100
AcDbEntity
  8
FORMAT
 62
     0
100
AcDbLine
 10
0.0
 20
0.0
 30
0.0
 11
2.5
 21
0.0
 31
0.0
  0
LINE
  5
26B
330
264
100
AcDbEntity
  8
FORMAT
 62
     0
100
AcDbLine
 10
0.0
 20
5.0
 30
0.0
 11
0.0
 21
29.839311499
 31
0.0
  0
LINE
  5
26C
330
264
100
AcDbEntity
  8
FORMAT
 62
     0
100
AcDbLine
 10
-5.0
 20
0.0
 30
0.0
 11
-10.75
 21
0.0
 31
0.0
  0
LINE
  5
26D
330
264
100
AcDbEntity
  8
FORMAT
 62
     0
100
AcDbLine
 10
0.0
 20
-5.0
 30
0.0
 11
0.0
 21
-25.4243383948
 31
0.0
  0
LINE
  5
26E
330
264
100
AcDbEntity
  8
FORMAT
 62
     0
100
AcDbLine
 10
5.0
 20
0.0
 30
0.0
 11
10.75
 21
0.0
 31
0.0
  0
ENDBLK
  5
266
330
264
100
AcDbEntity
  8
0
100
AcDbBlockEnd
  0
ENDSEC
  0
SECTION
  2
ENTITIES
  0
MTEXT
  5
65
330
1F
100
AcDbEntity
  8
FORMAT
100
AcDbMText
 10
119.0506399017
 20
91.3748994401
 30
0.0
 40
2.6458333333
 41
0.0
 71
     1
 72
     1
  1
エースボール　アングル型　BH-3107R
  7
SLDTEXTSTYLE0
 73
     1
 44
1.0
  0
LINE
  5
66
330
1F
100
AcDbEntity
  8
0
  6
Continuous
 62
     7
370
    25
100
AcDbLine
 10
106.5151200536
 20
59.6390626861
 30
0.0
 11
103.7151200536
 21
59.6390626861
 31
0.0
  0
LINE
  5
67
330
1F
100
AcDbEntity
  8
0
  6
Continuous
 62
     7
370
    25
100
AcDbLine
 10
103.7151200536
 20
43.6390626861
 30
0.0
 11
106.5151200536
 21
43.6390626861
 31
0.0
  0
LINE
  5
68
330
1F
100
AcDbEntity
  8
0
  6
Continuous
 62
     7
370
    25
100
AcDbLine
 10
103.7151200536
 20
59.6390626861
 30
0.0
 11
103.5151200536
 21
59.4390626861
 31
0.0
  0
LINE
  5
69
330
1F
100
AcDbEntity
  8
0
  6
Continuous
 62
     7
370
    25
100
AcDbLine
 10
103.5151200536
 20
43.8390626861
 30
0.0
 11
103.7151200536
 21
43.6390626861
 31
0.0
  0
LINE
  5
6A
330
1F
100
AcDbEntity
  8
0
  6
Continuous
 62
     7
370
    25
100
AcDbLine
 10
100.5151200536
 20
55.1390626861
 30
0.0
 11
96.5151200536
 21
54.3890626861
 31
0.0
  0
LINE
  5
6B
330
1F
100
AcDbEntity
  8
0
  6
Continuous
 62
     7
370
    25
100
AcDbLine
 10
96.5151200536
 20
48.8890626861
 30
0.0
 11
100.5151200536
 21
48.1390626861
 31
0.0
  0
LINE
  5
6C
330
1F
100
AcDbEntity
  8
0
  6
Continuous
 62
     7
370
    25
100
AcDbLine
 10
92.5151200536
 20
55.1390626861
 30
0.0
 11
88.5151200536
 21
54.3890626861
 31
0.0
  0
LINE
  5
6D
330
1F
100
AcDbEntity
  8
0
  6
Continuous
 62
     7
370
    25
100
AcDbLine
 10
88.5151200536
 20
48.8890626861
 30
0.0
 11
92.5151200536
 21
48.1390626861
 31
0.0
  0
LINE
  5
6E
330
1F
100
AcDbEntity
  8
0
  6
Continuous
 62
     7
370
    25
100
AcDbLine
 10
84.5151200536
 20
55.1390626861
 30
0.0
 11
80.922975786
 21
54.4655356359
 31
0.0
  0
LINE
  5
6F
330
1F
100
AcDbEntity
  8
0
  6
Continuous
 62
     7
370
    25
100
AcDbLine
 10
80.922975786
 20
48.8125897362
 30
0.0
 11
84.5151200536
 21
48.1390626861
 31
0.0
  0
LINE
  5
70
330
1F
100
AcDbEntity
  8
0
  6
Continuous
 62
     7
370
    25
100
AcDbLine
 10
103.5151200536
 20
55.1390626861
 30
0.0
 11
100.5151200536
 21
55.1390626861
 31
0.0
  0
LINE
  5
71
330
1F
100
AcDbEntity
  8
0
  6
Continuous
 62
     7
370
    25
100
AcDbLine
 10
100.5151200536
 20
48.1390626861
 30
0.0
 11
103.5151200536
 21
48.1390626861
 31
0.0
  0
LINE
  5
72
330
1F
100
AcDbEntity
  8
0
  6
Continuous
 62
     7
370
    25
100
AcDbLine
 10
88.5151200536
 20
55.1390626861
 30
0.0
 11
84.5151200536
 21
54.3890626861
 31
0.0
  0
LINE
  5
73
330
1F
100
AcDbEntity
  8
0
  6
Continuous
 62
     7
370
    25
100
AcDbLine
 10
84.5151200536
 20
48.8890626861
 30
0.0
 11
88.5151200536
 21
48.1390626861
 31
0.0
  0
LINE
  5
74
330
1F
100
AcDbEntity
  8
0
  6
Continuous
 62
     7
370
    25
100
AcDbLine
 10
96.5151200536
 20
55.1390626861
 30
0.0
 11
92.5151200536
 21
54.3890626861
 31
0.0
  0
LINE
  5
75
330
1F
100
AcDbEntity
  8
0
  6
Continuous
 62
     7
370
    25
100
AcDbLine
 10
92.5151200536
 20
48.8890626861
 30
0.0
 11
96.5151200536
 21
48.1390626861
 31
0.0
  0
ARC
  5
76
330
1F
100
AcDbEntity
  8
0
  6
Continuous
 62
     7
370
    25
100
AcDbCircle
 10
81.0151200536
 20
53.9740995425
 30
0.0
 40
0.5
100
AcDbArc
 50
100.6196552762
 51
180.0
  0
ARC
  5
77
330
1F
100
AcDbEntity
  8
0
  6
Continuous
 62
     7
370
    25
100
AcDbCircle
 10
81.0151200536
 20
49.3040258297
 30
0.0
 40
0.5
100
AcDbArc
 50
180.0
 51
259.3803447238
  0
LINE
  5
78
330
1F
100
AcDbEntity
  8
0
  6
Continuous
 62
     7
370
    25
100
AcDbLine
 10
129.1562513064
 20
41.901458379
 30
0.0
 11
130.0151200536
 21
43.3890626861
 31
0.0
  0
LINE
  5
79
330
1F
100
AcDbEntity
  8
0
  6
Continuous
 62
     7
370
    25
100
AcDbLine
 10
130.0151200536
 20
59.8890626861
 30
0.0
 11
129.1562513064
 21
61.3766669931
 31
0.0
  0
SPLINE
  5
7A
330
1F
100
AcDbEntity
  8
0
  6
Continuous
 62
     7
370
    25
100
AcDbSpline
210
0.0
220
0.0
230
1.0
 70
     8
 71
     3
 72
    12
 73
     8
 74
     0
 42
0.00000001
 43
0.00000001
 40
0.0
 40
0.0
 40
0.0
 40
0.0
 40
0.0370023628023338
 40
0.2883711579961521
 40
0.5470920830936643
 40
0.8090897488626814
 40
1.0
 40
1.0
 40
1.0
 40
1.0
 10
112.1266995965717
 20
61.13938411006268
 30
0.0
 10
112.1275803942066
 20
61.12972846509388
 30
0.0
 10
112.1344447297441
 20
61.05447895911698
 30
0.0
 10
112.1114507326413
 20
60.91050668639738
 30
0.0
 10
112.0509964532083
 20
60.71769215074938
 30
0.0
 10
111.9608203613055
 20
60.55142200203585
 30
0.0
 10
111.8784019057135
 20
60.46566133009615
 30
0.0
 10
111.8436607862318
 20
60.42951139584562
 30
0.0
  0
SPLINE
  5
7B
330
1F
100
AcDbEntity
  8
0
  6
Continuous
 62
     7
370
    25
100
AcDbSpline
210
0.0
220
0.0
230
1.0
 70
     8
 71
     3
 72
    12
 73
     8
 74
     0
 42
0.00000001
 43
0.00000001
 40
0.0
 40
0.0
 40
0.0
 40
0.0
 40
0.0899624017094516
 40
0.3826187422397868
 40
0.649552090096948
 40
0.8953908886718093
 40
1.0
 40
1.0
 40
1.0
 40
1.0
 10
124.2005698920431
 20
60.44475836696027
 30
0.0
 10
124.1836602224602
 20
60.46032586124307
 30
0.0
 10
124.1117417722572
 20
60.52653591087639
 30
0.0
 10
124.0234174758712
 20
60.67061482460559
 30
0.0
 10
123.9476657693341
 20
60.86149967609814
 30
0.0
 10
123.9152071864832
 20
61.01778053267991
 30
0.0
 10
123.9175306259369
 20
61.10727115443779
 30
0.0
 10
123.9182241753335
 20
61.13398420978713
 30
0.0
  0
LINE
  5
7C
330
1F
100
AcDbEntity
  8
0
  6
Continuous
 62
     7
370
    25
100
AcDbLine
 10
123.9151200536
 20
61.134531866
 30
0.0
 11
123.9151200536
 21
62.1390626861
 31
0.0
  0
LINE
  5
7D
330
1F
100
AcDbEntity
  8
0
  6
Continuous
 62
     7
370
    25
100
AcDbLine
 10
112.1151200536
 20
62.1390626861
 30
0.0
 11
112.1151200536
 21
61.1390626861
 31
0.0
  0
LINE
  5
7E
330
1F
100
AcDbEntity
  8
0
  6
Continuous
 62
     7
370
    25
100
AcDbLine
 10
112.9158075536
 20
39.6390626861
 30
0.0
 11
113.2328404267
 21
29.4940107455
 31
0.0
  0
LINE
  5
7F
330
1F
100
AcDbEntity
  8
0
  6
Continuous
 62
     7
370
    25
100
AcDbLine
 10
122.7973996804
 20
29.4940107455
 30
0.0
 11
123.1144325536
 21
39.6390626861
 31
0.0
  0
LINE
  5
80
330
1F
100
AcDbEntity
  8
0
  6
Continuous
 62
     7
370
    25
100
AcDbLine
 10
113.2328404267
 20
29.4940107455
 30
0.0
 11
114.0151200536
 21
28.1390626861
 31
0.0
  0
LINE
  5
81
330
1F
100
AcDbEntity
  8
0
  6
Continuous
 62
     7
370
    25
100
AcDbLine
 10
122.0151200536
 20
28.1390626861
 30
0.0
 11
122.7973996804
 21
29.4940107455
 31
0.0
  0
LINE
  5
82
330
1F
100
AcDbEntity
  8
0
  6
Continuous
 62
     7
370
    25
100
AcDbLine
 10
111.8449531462
 20
60.4338004154
 30
0.0
 11
111.3005888737
 21
61.3766669931
 31
0.0
  0
LINE
  5
83
330
1F
100
AcDbEntity
  8
0
  6
Continuous
 62
     7
370
    25
100
AcDbLine
 10
126.5151200536
 20
39.6390626861
 30
0.0
 11
127.7527243606
 21
40.3535938659
 31
0.0
  0
LINE
  5
84
330
1F
100
AcDbEntity
  8
0
  6
Continuous
 62
     7
370
    25
100
AcDbLine
 10
108.2775157465
 20
40.3535938659
 30
0.0
 11
109.5151200536
 21
39.6390626861
 31
0.0
  0
LINE
  5
85
330
1F
100
AcDbEntity
  8
0
  6
Continuous
 62
     7
370
    25
100
AcDbLine
 10
107.2296512334
 20
61.3766669931
 30
0.0
 11
106.5151200536
 21
60.1390626861
 31
0.0
  0
LINE
  5
86
330
1F
100
AcDbEntity
  8
0
  6
Continuous
 62
     7
370
    25
100
AcDbLine
 10
124.7296512334
 20
61.3766669931
 30
0.0
 11
124.1852869609
 21
60.4338004154
 31
0.0
  0
LINE
  5
87
330
1F
100
AcDbEntity
  8
0
  6
Continuous
 62
     7
370
    25
100
AcDbLine
 10
106.5151200536
 20
43.1390626861
 30
0.0
 11
107.2296512334
 21
41.901458379
 31
0.0
  0
LINE
  5
88
330
1F
100
AcDbEntity
  8
0
  6
Continuous
 62
     7
370
    25
100
AcDbLine
 10
127.7527243606
 20
40.3510334846
 30
0.0
 11
127.7527243606
 21
41.901458379
 31
0.0
  0
LINE
  5
89
330
1F
100
AcDbEntity
  8
0
  6
Continuous
 62
     7
370
    25
100
AcDbLine
 10
127.7527243606
 20
41.901458379
 30
0.0
 11
129.1588193619
 21
41.901458379
 31
0.0
  0
LINE
  5
8A
330
1F
100
AcDbEntity
  8
0
  6
Continuous
 62
     7
370
    25
100
AcDbLine
 10
111.3031569292
 20
61.3766669931
 30
0.0
 11
107.2270908521
 21
61.3766669931
 31
0.0
  0
LINE
  5
8B
330
1F
100
AcDbEntity
  8
0
  6
Continuous
 62
     7
370
    25
100
AcDbLine
 10
129.1588193619
 20
61.3766669931
 30
0.0
 11
124.7270831779
 21
61.3766669931
 31
0.0
  0
LINE
  5
8C
330
1F
100
AcDbEntity
  8
0
  6
Continuous
 62
     7
370
    25
100
AcDbLine
 10
108.2775157465
 20
41.901458379
 30
0.0
 11
108.2775157465
 21
40.3510334846
 31
0.0
  0
LINE
  5
8D
330
1F
100
AcDbEntity
  8
0
  6
Continuous
 62
     7
370
    25
100
AcDbLine
 10
107.2270908521
 20
41.901458379
 30
0.0
 11
108.2775157465
 21
41.901458379
 31
0.0
  0
LINE
  5
8E
330
1F
100
AcDbEntity
  8
0
  6
Continuous
 62
     7
370
    25
100
AcDbLine
 10
125.0151200536
 20
62.1390626861
 30
0.0
 11
125.4651200536
 21
70.1390626861
 31
0.0
  0
LINE
  5
8F
330
1F
100
AcDbEntity
  8
0
  6
Continuous
 62
     7
370
    25
100
AcDbLine
 10
125.4651200536
 20
70.1390626861
 30
0.0
 11
123.5151200536
 21
78.1390626861
 31
0.0
  0
LINE
  5
90
330
1F
100
AcDbEntity
  8
0
  6
Continuous
 62
     7
370
    25
100
AcDbLine
 10
110.9444634278
 20
63.3951804774
 30
0.0
 11
111.0151200536
 21
62.1390626861
 31
0.0
  0
LINE
  5
91
330
1F
100
AcDbEntity
  8
0
  6
Continuous
 62
     7
370
    25
100
AcDbLine
 10
112.5151200536
 20
78.1390626861
 30
0.0
 11
112.261888519
 21
77.1001640829
 31
0.0
  0
LINE
  5
92
330
1F
100
AcDbEntity
  8
0
  6
Continuous
 62
     7
370
    25
100
AcDbLine
 10
103.7151200536
 20
45.015118677
 30
0.0
 11
103.7151200536
 21
43.6390626861
 31
0.0
  0
LINE
  5
93
330
1F
100
AcDbEntity
  8
0
  6
Continuous
 62
     7
370
    25
100
AcDbLine
 10
103.7151200536
 20
59.6390626861
 30
0.0
 11
103.7151200536
 21
45.015118677
 31
0.0
  0
LINE
  5
94
330
1F
100
AcDbEntity
  8
0
  6
Continuous
 62
     7
370
    25
100
AcDbLine
 10
103.5151200536
 20
45.1807172772
 30
0.0
 11
103.5151200536
 21
59.4390626861
 31
0.0
  0
LINE
  5
95
330
1F
100
AcDbEntity
  8
0
  6
Continuous
 62
     7
370
    25
100
AcDbLine
 10
103.5151200536
 20
43.8390626861
 30
0.0
 11
103.5151200536
 21
45.1807172772
 31
0.0
  0
LINE
  5
96
330
1F
100
AcDbEntity
  8
0
  6
Continuous
 62
     7
370
    25
100
AcDbLine
 10
100.5151200536
 20
48.7410871821
 30
0.0
 11
100.5151200536
 21
48.1390626861
 31
0.0
  0
LINE
  5
97
330
1F
100
AcDbEntity
  8
0
  6
Continuous
 62
     7
370
    25
100
AcDbLine
 10
100.5151200536
 20
55.1390626861
 30
0.0
 11
100.5151200536
 21
48.7410871821
 31
0.0
  0
LINE
  5
98
330
1F
100
AcDbEntity
  8
0
  6
Continuous
 62
     7
370
    25
100
AcDbLine
 10
92.5151200536
 20
48.7410871821
 30
0.0
 11
92.5151200536
 21
48.1390626861
 31
0.0
  0
LINE
  5
99
330
1F
100
AcDbEntity
  8
0
  6
Continuous
 62
     7
370
    25
100
AcDbLine
 10
92.5151200536
 20
55.1390626861
 30
0.0
 11
92.5151200536
 21
48.7410871821
 31
0.0
  0
LINE
  5
9A
330
1F
100
AcDbEntity
  8
0
  6
Continuous
 62
     7
370
    25
100
AcDbLine
 10
84.5151200536
 20
48.7410871821
 30
0.0
 11
84.5151200536
 21
48.1390626861
 31
0.0
  0
LINE
  5
9B
330
1F
100
AcDbEntity
  8
0
  6
Continuous
 62
     7
370
    25
100
AcDbLine
 10
84.5151200536
 20
55.1390626861
 30
0.0
 11
84.5151200536
 21
48.7410871821
 31
0.0
  0
LINE
  5
9C
330
1F
100
AcDbEntity
  8
0
  6
Continuous
 62
     7
370
    25
100
AcDbLine
 10
88.5151200536
 20
48.7410871821
 30
0.0
 11
88.5151200536
 21
48.1390626861
 31
0.0
  0
LINE
  5
9D
330
1F
100
AcDbEntity
  8
0
  6
Continuous
 62
     7
370
    25
100
AcDbLine
 10
88.5151200536
 20
55.1390626861
 30
0.0
 11
88.5151200536
 21
48.7410871821
 31
0.0
  0
LINE
  5
9E
330
1F
100
AcDbEntity
  8
0
  6
Continuous
 62
     7
370
    25
100
AcDbLine
 10
96.5151200536
 20
48.7410871821
 30
0.0
 11
96.5151200536
 21
48.1390626861
 31
0.0
  0
LINE
  5
9F
330
1F
100
AcDbEntity
  8
0
  6
Continuous
 62
     7
370
    25
100
AcDbLine
 10
96.5151200536
 20
55.1390626861
 30
0.0
 11
96.5151200536
 21
48.7410871821
 31
0.0
  0
LINE
  5
A0
330
1F
100
AcDbEntity
  8
0
  6
Continuous
 62
     7
370
    25
100
AcDbLine
 10
80.5151200536
 20
49.7056685116
 30
0.0
 11
80.5151200536
 21
53.9740995425
 31
0.0
  0
LINE
  5
A1
330
1F
100
AcDbEntity
  8
0
  6
Continuous
 62
     7
370
    25
100
AcDbLine
 10
80.5151200536
 20
49.3040258297
 30
0.0
 11
80.5151200536
 21
49.7056685116
 31
0.0
  0
LINE
  5
A2
330
1F
100
AcDbEntity
  8
0
  6
Continuous
 62
     7
370
    25
100
AcDbLine
 10
110.6539041214
 20
39.6390626861
 30
0.0
 11
118.0151200536
 21
39.6390626861
 31
0.0
  0
SPLINE
  5
A3
330
1F
100
AcDbEntity
  8
0
  6
Continuous
 62
     7
370
    25
100
AcDbSpline
210
0.0
220
0.0
230
1.0
 70
     8
 71
     3
 72
    10
 73
     6
 74
     0
 42
0.00000001
 43
0.00000001
 40
0.0
 40
0.0
 40
0.0
 40
0.0
 40
0.5
 40
0.5
 40
1.0
 40
1.0
 40
1.0
 40
1.0
 10
112.9633051981487
 20
40.31678409134176
 30
0.0
 10
112.5845560507574
 20
40.1079741666755
 30
0.0
 10
112.2033507743461
 20
39.93744002692824
 30
0.0
 10
111.4341201531584
 20
39.70265422190933
 30
0.0
 10
111.04605244836
 20
39.63906268608203
 30
0.0
 10
110.6539041213902
 20
39.63906268608203
 30
0.0
  0
SPLINE
  5
A4
330
1F
100
AcDbEntity
  8
0
  6
Continuous
 62
     7
370
    25
100
AcDbSpline
210
0.0
220
0.0
230
1.0
 70
     8
 71
     3
 72
    10
 73
     6
 74
     0
 42
0.00000001
 43
0.00000001
 40
0.0
 40
0.0
 40
0.0
 40
0.0
 40
0.5
 40
0.5
 40
1.0
 40
1.0
 40
1.0
 40
1.0
 10
112.9633051981487
 20
40.31678409134223
 30
0.0
 10
113.0062430072479
 20
40.34045633125378
 30
0.0
 10
113.0696835971401
 20
40.35355032118905
 30
0.0
 10
113.222172742649
 20
40.3536371886505
 30
0.0
 10
113.3104021318523
 20
40.34046739889114
 30
0.0
 10
113.3963179000409
 20
40.31678409134223
 30
0.0
  0
SPLINE
  5
A5
330
1F
100
AcDbEntity
  8
0
  6
Continuous
 62
     7
370
    25
100
AcDbSpline
210
0.0
220
0.0
230
1.0
 70
     8
 71
     3
 72
    10
 73
     6
 74
     0
 42
0.00000001
 43
0.00000001
 40
0.0
 40
0.0
 40
0.0
 40
0.0
 40
0.5
 40
0.5
 40
1.0
 40
1.0
 40
1.0
 40
1.0
 10
113.3963179000409
 20
40.31678409134219
 30
0.0
 10
114.1469965995367
 20
40.1098540378095
 30
0.0
 10
114.9112775437594
 20
39.9380484274358
 30
0.0
 10
116.4658522778469
 20
39.70109792090442
 30
0.0
 10
117.2414272453631
 20
39.63906268608203
 30
0.0
 10
118.0151200535579
 20
39.63906268608203
 30
0.0
  0
LINE
  5
A6
330
1F
100
AcDbEntity
  8
0
  6
Continuous
 62
     7
370
    25
100
AcDbLine
 10
112.0151200536
 20
59.0002786182
 30
0.0
 11
112.0151200536
 21
55.6390626861
 31
0.0
  0
SPLINE
  5
A7
330
1F
100
AcDbEntity
  8
0
  6
Continuous
 62
     7
370
    25
100
AcDbSpline
210
0.0
220
0.0
230
1.0
 70
     8
 71
     3
 72
     8
 73
     4
 74
     0
 42
0.00000001
 43
0.00000001
 40
0.0
 40
0.0
 40
0.0
 40
0.0
 40
1.0
 40
1.0
 40
1.0
 40
1.0
 10
111.4988839765788
 20
55.63906268608204
 30
0.0
 10
111.4479852596562
 20
55.84610772451104
 30
0.0
 10
111.3940511234055
 20
56.05234705418767
 30
0.0
 10
111.3373986482977
 20
56.25786483959905
 30
0.0
  0
SPLINE
  5
A8
330
1F
100
AcDbEntity
  8
0
  6
Continuous
 62
     7
370
    25
100
AcDbSpline
210
0.0
220
0.0
230
1.0
 70
     8
 71
     3
 72
    10
 73
     6
 74
     0
 42
0.00000001
 43
0.00000001
 40
0.0
 40
0.0
 40
0.0
 40
0.0
 40
0.5
 40
0.5
 40
1.0
 40
1.0
 40
1.0
 40
1.0
 10
111.3373986482977
 20
56.69087754149127
 30
0.0
 10
111.3137232538734
 20
56.64793401059004
 30
0.0
 10
111.3006321439887
 20
56.58449156596591
 30
0.0
 10
111.3005458227004
 20
56.43201272884694
 30
0.0
 10
111.3137147566443
 20
56.34378272673968
 30
0.0
 10
111.3373986482977
 20
56.25786483959905
 30
0.0
  0
SPLINE
  5
A9
330
1F
100
AcDbEntity
  8
0
  6
Continuous
 62
     7
370
    25
100
AcDbSpline
210
0.0
220
0.0
230
1.0
 70
     8
 71
     3
 72
    12
 73
     8
 74
     0
 42
0.00000001
 43
0.00000001
 40
0.0
 40
0.0
 40
0.0
 40
0.0
 40
0.2500000000000001
 40
0.2500000000000001
 40
0.5000000000000002
 40
0.5000000000000002
 40
1.0
 40
1.0
 40
1.0
 40
1.0
 10
112.0151200535579
 20
59.00027861824977
 30
0.0
 10
112.0151200535579
 20
58.80453635537026
 30
0.0
 10
111.999277117469
 20
58.60786974617969
 30
0.0
 10
111.9377742572313
 20
58.21860151885141
 30
0.0
 10
111.8921706161876
 20
58.0251974858985
 30
0.0
 10
111.7157195986984
 20
57.44826843464173
 30
0.0
 10
111.5453222314465
 20
57.06801900143873
 30
0.0
 10
111.3373986482977
 20
56.69087754149127
 30
0.0
  0
LINE
  5
AA
330
1F
100
AcDbEntity
  8
0
  6
Continuous
 62
     7
370
    25
100
AcDbLine
 10
113.3963179
 20
43.6726661462
 30
0.0
 11
113.3963179
 21
40.3167840913
 31
0.0
  0
SPLINE
  5
AB
330
1F
100
AcDbEntity
  8
0
  6
Continuous
 62
     7
370
    25
100
AcDbSpline
210
0.0
220
0.0
230
1.0
 70
     8
 71
     3
 72
     8
 73
     4
 74
     0
 42
0.00000001
 43
0.00000001
 40
0.0
 40
0.0
 40
0.0
 40
0.0
 40
1.0
 40
1.0
 40
1.0
 40
1.0
 10
113.3963179000409
 20
43.67266614622704
 30
0.0
 10
113.6015037225842
 20
43.72922711335126
 30
0.0
 10
113.8077269232915
 20
43.7831671847651
 30
0.0
 10
114.0151200535579
 20
43.83415147450806
 30
0.0
  0
SPLINE
  5
AC
330
1F
100
AcDbEntity
  8
0
  6
Continuous
 62
     7
370
    25
100
AcDbSpline
210
0.0
220
0.0
230
1.0
 70
     8
 71
     3
 72
     8
 73
     4
 74
     0
 42
0.00000001
 43
0.00000001
 40
0.0
 40
0.0
 40
0.0
 40
0.0
 40
1.0
 40
1.0
 40
1.0
 40
1.0
 10
111.3373986482978
 20
47.020260532565
 30
0.0
 10
111.393962017766
 20
47.22545507007477
 30
0.0
 10
111.4479019405872
 20
47.43167872359193
 30
0.0
 10
111.4988839765788
 20
47.63906268608203
 30
0.0
  0
LINE
  5
AD
330
1F
100
AcDbEntity
  8
0
  6
Continuous
 62
     7
370
    25
100
AcDbLine
 10
107.1928414588
 20
47.0202605326
 30
0.0
 11
111.3373986483
 21
47.0202605326
 31
0.0
  0
SPLINE
  5
AE
330
1F
100
AcDbEntity
  8
0
  6
Continuous
 62
     7
370
    25
100
AcDbSpline
210
0.0
220
0.0
230
1.0
 70
     8
 71
     3
 72
    10
 73
     6
 74
     0
 42
0.00000001
 43
0.00000001
 40
0.0
 40
0.0
 40
0.0
 40
0.0
 40
0.5
 40
0.5
 40
1.0
 40
1.0
 40
1.0
 40
1.0
 10
107.1928414588181
 20
47.02026053256502
 30
0.0
 10
106.9847727825869
 20
47.77506980561432
 30
0.0
 10
106.8143737765624
 20
48.53581619284621
 30
0.0
 10
106.5792137968635
 20
50.07395857046948
 30
0.0
 10
106.5151200535579
 20
50.85145972299429
 30
0.0
 10
106.5151200535579
 20
51.63906268608203
 30
0.0
  0
SPLINE
  5
AF
330
1F
100
AcDbEntity
  8
0
  6
Continuous
 62
     7
370
    25
100
AcDbSpline
210
0.0
220
0.0
230
1.0
 70
     8
 71
     3
 72
    12
 73
     8
 74
     0
 42
0.00000001
 43
0.00000001
 40
0.0
 40
0.0
 40
0.0
 40
0.0
 40
0.2500000000000001
 40
0.2500000000000001
 40
0.5000000000000001
 40
0.5000000000000001
 40
1.0
 40
1.0
 40
1.0
 40
1.0
 10
106.5151200535579
 20
51.63906268608203
 30
0.0
 10
106.5151200535579
 20
52.03338076675388
 30
0.0
 10
106.531118858539
 20
52.42703981070431
 30
0.0
 10
106.5928889968534
 20
53.20657581024965
 30
0.0
 10
106.638631121155
 20
53.59352899837508
 30
0.0
 10
106.8153012685018
 20
54.74691556122908
 30
0.0
 10
106.9855563339821
 20
55.50589805043411
 30
0.0
 10
107.1928414588181
 20
56.25786483959905
 30
0.0
  0
LINE
  5
B0
330
1F
100
AcDbEntity
  8
0
  6
Continuous
 62
     7
370
    25
100
AcDbLine
 10
111.3373986483
 20
56.2578648396
 30
0.0
 11
107.1928414588
 21
56.2578648396
 31
0.0
  0
SPLINE
  5
B1
330
1F
100
AcDbEntity
  8
0
  6
Continuous
 62
     7
370
    25
100
AcDbSpline
210
0.0
220
0.0
230
1.0
 70
     8
 71
     3
 72
     8
 73
     4
 74
     0
 42
0.00000001
 43
0.00000001
 40
0.0
 40
0.0
 40
0.0
 40
0.0
 40
1.0
 40
1.0
 40
1.0
 40
1.0
 10
124.5313561305371
 20
55.63906268608211
 30
0.0
 10
124.5822523637922
 20
55.84609762148587
 30
0.0
 10
124.6361863187558
 20
56.05233738655086
 30
0.0
 10
124.6928414588181
 20
56.25786483959905
 30
0.0
  0
LINE
  5
B2
330
1F
100
AcDbEntity
  8
0
  6
Continuous
 62
     7
370
    25
100
AcDbLine
 10
129.193061081
 20
56.2578648396
 30
0.0
 11
124.6928414588
 21
56.2578648396
 31
0.0
  0
SPLINE
  5
B3
330
1F
100
AcDbEntity
  8
0
  6
Continuous
 62
     7
370
    25
100
AcDbSpline
210
0.0
220
0.0
230
1.0
 70
     8
 71
     3
 72
    14
 73
    10
 74
     0
 42
0.00000001
 43
0.00000001
 40
0.0
 40
0.0
 40
0.0
 40
0.0
 40
0.25
 40
0.25
 40
0.5
 40
0.5
 40
0.75
 40
0.75
 40
1.0
 40
1.0
 40
1.0
 40
1.0
 10
129.1930610810003
 20
47.02026053256499
 30
0.0
 10
129.4010114417061
 20
47.77464059321497
 30
0.0
 10
129.573233250395
 20
48.54408176068046
 30
0.0
 10
129.8078683731459
 20
50.08459312162162
 30
0.0
 10
129.8708124317736
 20
50.85944750162865
 30
0.0
 10
129.8707525190421
 20
52.4198084565142
 30
0.0
 10
129.80613785275
 20
53.21026464929923
 30
0.0
 10
129.5695785133488
 20
54.7525443121077
 30
0.0
 10
129.3992333732693
 20
55.50993506530889
 30
0.0
 10
129.1930610810003
 20
56.25786483959905
 30
0.0
  0
LINE
  5
B4
330
1F
100
AcDbEntity
  8
0
  6
Continuous
 62
     7
370
    25
100
AcDbLine
 10
124.6928414588
 20
47.0202605326
 30
0.0
 11
129.193061081
 21
47.0202605326
 31
0.0
  0
SPLINE
  5
B5
330
1F
100
AcDbEntity
  8
0
  6
Continuous
 62
     7
370
    25
100
AcDbSpline
210
0.0
220
0.0
230
1.0
 70
     8
 71
     3
 72
     8
 73
     4
 74
     0
 42
0.00000001
 43
0.00000001
 40
0.0
 40
0.0
 40
0.0
 40
0.0
 40
1.0
 40
1.0
 40
1.0
 40
1.0
 10
124.6928414588181
 20
47.020260532565
 30
0.0
 10
124.6362796153812
 20
47.22544953410182
 30
0.0
 10
124.5823395981248
 20
47.43167290016652
 30
0.0
 10
124.5313561305371
 20
47.63906268608198
 30
0.0
  0
LINE
  5
B6
330
1F
100
AcDbEntity
  8
0
  6
Continuous
 62
     7
370
    25
100
AcDbLine
 10
124.5313561305
 20
47.6390626861
 30
0.0
 11
122.0151200536
 21
47.6390626861
 31
0.0
  0
SPLINE
  5
B7
330
1F
100
AcDbEntity
  8
0
  6
Continuous
 62
     7
370
    25
100
AcDbSpline
210
0.0
220
0.0
230
1.0
 70
     8
 71
     3
 72
     8
 73
     4
 74
     0
 42
0.00000001
 43
0.00000001
 40
0.0
 40
0.0
 40
0.0
 40
0.0
 40
1.0
 40
1.0
 40
1.0
 40
1.0
 10
122.0151200535579
 20
43.83415147450805
 30
0.0
 10
122.2221491168933
 20
43.78325668480723
 30
0.0
 10
122.4283891341627
 20
43.72932283544579
 30
0.0
 10
122.6339222070749
 20
43.67266614622704
 30
0.0
  0
LINE
  5
B8
330
1F
100
AcDbEntity
  8
0
  6
Continuous
 62
     7
370
    25
100
AcDbLine
 10
122.6339222071
 20
40.3167840913
 30
0.0
 11
122.6339222071
 21
43.6726661462
 31
0.0
  0
SPLINE
  5
B9
330
1F
100
AcDbEntity
  8
0
  6
Continuous
 62
     7
370
    25
100
AcDbSpline
210
0.0
220
0.0
230
1.0
 70
     8
 71
     3
 72
    10
 73
     6
 74
     0
 42
0.00000001
 43
0.00000001
 40
0.0
 40
0.0
 40
0.0
 40
0.0
 40
0.5
 40
0.5
 40
1.0
 40
1.0
 40
1.0
 40
1.0
 10
118.0151200535579
 20
39.63906268608203
 30
0.0
 10
118.7906999901649
 20
39.63906268608204
 30
0.0
 10
119.5643902088913
 20
39.70134704806055
 30
0.0
 10
121.1084247512242
 20
39.93619516606758
 30
0.0
 10
121.881733427379
 20
40.10943777319878
 30
0.0
 10
122.6339222070749
 20
40.31678409134223
 30
0.0
  0
ARC
  5
BA
330
1F
100
AcDbEntity
  8
0
  6
Continuous
 62
     7
370
    25
100
AcDbCircle
 10
119.5658514093
 20
51.0621436928
 30
0.0
 40
0.889000000000007
100
AcDbArc
 50
45.0
 51
315.0
  0
LINE
  5
BB
330
1F
100
AcDbEntity
  8
0
  6
Continuous
 62
     7
370
    25
100
AcDbLine
 10
120.1944693378
 20
51.6907616212
 30
0.0
 11
120.6610797234
 21
52.1573720069
 31
0.0
  0
ARC
  5
BC
330
1F
100
AcDbEntity
  8
0
  6
Continuous
 62
     7
370
    25
100
AcDbCircle
 10
119.5658514093
 20
51.0621436928
 30
0.0
 40
1.548886735692404
100
AcDbArc
 50
45.0
 51
315.0
  0
LINE
  5
BD
330
1F
100
AcDbEntity
  8
0
  6
Continuous
 62
     7
370
    25
100
AcDbLine
 10
120.6610797234
 20
49.9669153787
 30
0.0
 11
120.1944693378
 21
50.4335257643
 31
0.0
  0
ARC
  5
BE
330
1F
100
AcDbEntity
  8
0
  6
Continuous
 62
     7
370
    25
100
AcDbCircle
 10
122.9079960056
 20
51.0621436928
 30
0.0
 40
0.8889999999999969
100
AcDbArc
 50
45.0
 51
159.0751675724
  0
LINE
  5
BF
330
1F
100
AcDbEntity
  8
0
  6
Continuous
 62
     7
370
    25
100
AcDbLine
 10
123.5366139341
 20
51.6907616212
 30
0.0
 11
124.0032243197
 21
52.1573720069
 31
0.0
  0
ARC
  5
C0
330
1F
100
AcDbEntity
  8
0
  6
Continuous
 62
     7
370
    25
100
AcDbCircle
 10
122.9079960056
 20
51.0621436928
 30
0.0
 40
1.548886735692389
100
AcDbArc
 50
45.0
 51
315.0
  0
LINE
  5
C1
330
1F
100
AcDbEntity
  8
0
  6
Continuous
 62
     7
370
    25
100
AcDbLine
 10
124.0032243197
 20
49.9669153787
 30
0.0
 11
123.5366139341
 21
50.4335257643
 31
0.0
  0
ARC
  5
C2
330
1F
100
AcDbEntity
  8
0
  6
Continuous
 62
     7
370
    25
100
AcDbCircle
 10
122.9079960056
 20
51.0621436928
 30
0.0
 40
0.889000000000007
100
AcDbArc
 50
200.9248324276
 51
315.0
  0
LINE
  5
C3
330
1F
100
AcDbEntity
  8
0
  6
Continuous
 62
     7
370
    25
100
AcDbLine
 10
122.0776257569
 20
50.7446436928
 30
0.0
 11
124.0032243197
 21
50.7446436928
 31
0.0
  0
LINE
  5
C4
330
1F
100
AcDbEntity
  8
0
  6
Continuous
 62
     7
370
    25
100
AcDbLine
 10
124.0032243197
 20
50.7446436928
 30
0.0
 11
124.0032243197
 21
51.3796436928
 31
0.0
  0
LINE
  5
C5
330
1F
100
AcDbEntity
  8
0
  6
Continuous
 62
     7
370
    25
100
AcDbLine
 10
124.0032243197
 20
51.3796436928
 30
0.0
 11
122.0776257569
 21
51.3796436928
 31
0.0
  0
LINE
  5
C6
330
1F
100
AcDbEntity
  8
0
  6
Continuous
 62
     7
370
    25
100
AcDbLine
 10
117.1133611396
 20
50.2166896685
 30
0.0
 11
117.0717108203
 21
50.1928847386
 31
0.0
  0
ELLIPSE
  5
C7
330
1F
100
AcDbEntity
  8
0
  6
Continuous
 62
     7
370
    25
100
AcDbEllipse
 10
116.7228676408
 20
50.7475672099
 30
0.0
 11
0.678412947925267
 21
6.110667527536863E-13
 31
0.0
210
0.0
220
0.0
230
1.0
 40
0.9533039403
 41
3.470145824140275
 42
5.252469180536285
  0
LINE
  5
C8
330
1F
100
AcDbEntity
  8
0
  6
Continuous
 62
     7
370
    25
100
AcDbLine
 10
116.0807428738
 20
50.5388830949
 30
0.0
 11
114.8210886688
 21
54.0613274915
 31
0.0
  0
ELLIPSE
  5
C9
330
1F
100
AcDbEntity
  8
0
  6
Continuous
 62
     7
370
    25
100
AcDbEllipse
 10
114.2301061109
 20
53.7989882555
 30
0.0
 11
0.6519124952381361
 21
6.110667527536862E-13
 31
0.0
210
0.0
220
0.0
230
1.0
 40
0.9533023292
 41
0.435790504435483
 42
2.705800116361526
  0
LINE
  5
CA
330
1F
100
AcDbEntity
  8
0
  6
Continuous
 62
     7
370
    25
100
AcDbLine
 10
113.6391241124
 20
54.0613286368
 30
0.0
 11
112.3797593107
 21
50.5397052351
 31
0.0
  0
ELLIPSE
  5
CB
330
1F
100
AcDbEntity
  8
0
  6
Continuous
 62
     7
370
    25
100
AcDbEllipse
 10
111.7376381267
 20
50.7483880687
 30
0.0
 11
-0.6784085062757725
 21
3.268496584496461E-13
 31
0.0
210
0.0
220
0.0
230
1.0
 40
0.9533122623
 41
1.047193771187939
 42
2.813042320199941
  0
LINE
  5
CC
330
1F
100
AcDbEntity
  8
0
  6
Continuous
 62
     7
370
    25
100
AcDbLine
 10
111.3984316528
 20
50.1883002235
 30
0.0
 11
111.3468510822
 21
50.2166896685
 31
0.0
  0
LINE
  5
CD
330
1F
100
AcDbEntity
  8
0
  6
Continuous
 62
     7
370
    25
100
AcDbLine
 10
111.3468510822
 20
50.2166896685
 30
0.0
 11
112.1431197418
 21
48.6985175671
 31
0.0
  0
ELLIPSE
  5
CE
330
1F
100
AcDbEntity
  8
0
  6
Continuous
 62
     7
370
    25
100
AcDbEllipse
 10
112.2189686152
 20
48.734671082
 30
0.0
 11
0.08480161849065837
 21
-2.131628207280301E-14
 31
0.0
210
0.0
220
0.0
230
1.0
 40
0.9533039403
 41
3.605240262590939
 42
5.462183310215417
  0
ELLIPSE
  5
CF
330
1F
100
AcDbEntity
  8
0
  6
Continuous
 62
     7
370
    25
100
AcDbEllipse
 10
114.2301061109
 20
46.6758224615
 30
0.0
 11
2.866293551216202
 21
-1.492139745096210E-12
 31
0.0
210
0.0
220
0.0
230
1.0
 40
0.9533046568
 41
0.8210016221243817
 42
2.320591031466442
  0
ELLIPSE
  5
D0
330
1F
100
AcDbEntity
  8
0
  6
Continuous
 62
     7
370
    25
100
AcDbEllipse
 10
116.2412436066
 20
48.734671082
 30
0.0
 11
0.08480161849060153
 21
-7.105427357601002E-15
 31
0.0
210
0.0
220
0.0
230
1.0
 40
0.9533039403
 41
3.962594650556611
 42
5.819537698177331
  0
LINE
  5
D1
330
1F
100
AcDbEntity
  8
0
  6
Continuous
 62
     7
370
    25
100
AcDbLine
 10
116.31709248
 20
48.6985175671
 30
0.0
 11
117.1133611396
 21
50.2166896685
 31
0.0
  0
LINE
  5
D2
330
1F
100
AcDbEntity
  8
0
  6
Continuous
 62
     7
370
    25
100
AcDbLine
 10
124.5313561305
 20
55.6390626861
 30
0.0
 11
111.4988839766
 21
55.6390626861
 31
0.0
  0
LINE
  5
D3
330
1F
100
AcDbEntity
  8
0
  6
Continuous
 62
     7
370
    25
100
AcDbLine
 10
114.0151200536
 20
47.6390626861
 30
0.0
 11
111.4988839766
 21
47.6390626861
 31
0.0
  0
LINE
  5
D4
330
1F
100
AcDbEntity
  8
0
  6
Continuous
 62
     7
370
    25
100
AcDbLine
 10
122.0151200536
 20
43.8341514745
 30
0.0
 11
122.0151200536
 21
47.6390626861
 31
0.0
  0
LINE
  5
D5
330
1F
100
AcDbEntity
  8
0
  6
Continuous
 62
     7
370
    25
100
AcDbLine
 10
114.0151200536
 20
43.8341514745
 30
0.0
 11
114.0151200536
 21
47.6390626861
 31
0.0
  0
SPLINE
  5
D6
330
1F
100
AcDbEntity
  8
0
  6
Continuous
 62
     7
370
    25
100
AcDbSpline
210
0.0
220
0.0
230
1.0
 70
     8
 71
     3
 72
    10
 73
     6
 74
     0
 42
0.00000001
 43
0.00000001
 40
0.0
 40
0.0
 40
0.0
 40
0.0
 40
0.5
 40
0.5
 40
1.0
 40
1.0
 40
1.0
 40
1.0
 10
122.6339222070749
 20
40.31678409134223
 30
0.0
 10
122.7198038495814
 20
40.34045799189818
 30
0.0
 10
122.8072130555468
 20
40.35355054907732
 30
0.0
 10
122.9598555406217
 20
40.35363696305959
 30
0.0
 10
123.0239785257041
 20
40.34046657146097
 30
0.0
 10
123.0669349089672
 20
40.31678409134223
 30
0.0
  0
SPLINE
  5
D7
330
1F
100
AcDbEntity
  8
0
  6
Continuous
 62
     7
370
    25
100
AcDbSpline
210
0.0
220
0.0
230
1.0
 70
     8
 71
     3
 72
    12
 73
     8
 74
     0
 42
0.00000001
 43
0.00000001
 40
0.0
 40
0.0
 40
0.0
 40
0.0
 40
0.2499999999999998
 40
0.2499999999999998
 40
0.4999999999999996
 40
0.4999999999999996
 40
1.0
 40
1.0
 40
1.0
 40
1.0
 10
125.3763359857256
 20
39.63906268608203
 30
0.0
 10
125.1813325057199
 20
39.63906268608203
 30
0.0
 10
124.9847978466954
 20
39.65480901610399
 30
0.0
 10
124.5953781590899
 20
39.71625404068941
 30
0.0
 10
124.4018934660296
 20
39.76184279994315
 30
0.0
 10
123.824709867274
 20
39.93829380219975
 30
0.0
 10
123.4442740854911
 20
40.10875150416324
 30
0.0
 10
123.0669349089671
 20
40.31678409134208
 30
0.0
  0
LINE
  5
D8
330
1F
100
AcDbEntity
  8
0
  6
Continuous
 62
     7
370
    25
100
AcDbLine
 10
118.0151200536
 20
39.6390626861
 30
0.0
 11
125.3763359857
 21
39.6390626861
 31
0.0
  0
SPLINE
  5
D9
330
1F
100
AcDbEntity
  8
0
  6
Continuous
 62
     7
370
    25
100
AcDbSpline
210
0.0
220
0.0
230
1.0
 70
     8
 71
     3
 72
    10
 73
     6
 74
     0
 42
0.00000001
 43
0.00000001
 40
0.0
 40
0.0
 40
0.0
 40
0.0
 40
0.5
 40
0.5
 40
1.0
 40
1.0
 40
1.0
 40
1.0
 10
129.1930610810002
 20
47.02026053256503
 30
0.0
 10
129.1693856865758
 20
46.93437347076257
 30
0.0
 10
129.1562945766913
 20
46.84696626178243
 30
0.0
 10
129.156208255403
 20
46.6943298191887
 30
0.0
 10
129.1693771893469
 20
46.63020677424312
 30
0.0
 10
129.1930610810003
 20
46.58724783067282
 30
0.0
  0
SPLINE
  5
DA
330
1F
100
AcDbEntity
  8
0
  6
Continuous
 62
     7
370
    25
100
AcDbSpline
210
0.0
220
0.0
230
1.0
 70
     8
 71
     3
 72
    10
 73
     6
 74
     0
 42
0.00000001
 43
0.00000001
 40
0.0
 40
0.0
 40
0.0
 40
0.0
 40
0.5
 40
0.5
 40
1.0
 40
1.0
 40
1.0
 40
1.0
 10
129.1930610810003
 20
56.69087754149127
 30
0.0
 10
129.1693856865759
 20
56.64793401059004
 30
0.0
 10
129.1562945766913
 20
56.58449156596591
 30
0.0
 10
129.156208255403
 20
56.43201272884694
 30
0.0
 10
129.1693771893468
 20
56.34378272673967
 30
0.0
 10
129.1930610810003
 20
56.25786483959905
 30
0.0
  0
SPLINE
  5
DB
330
1F
100
AcDbEntity
  8
0
  6
Continuous
 62
     7
370
    25
100
AcDbSpline
210
0.0
220
0.0
230
1.0
 70
     8
 71
     3
 72
    16
 73
    12
 74
     0
 42
0.00000001
 43
0.00000001
 40
0.0
 40
0.0
 40
0.0
 40
0.0
 40
0.2500000000000001
 40
0.2500000000000001
 40
0.5000000000000001
 40
0.5000000000000001
 40
0.6250000000000001
 40
0.6250000000000001
 40
0.7500000000000002
 40
0.7500000000000002
 40
1.0
 40
1.0
 40
1.0
 40
1.0
 10
129.1930610810003
 20
61.30967969500827
 30
0.0
 10
129.4010765291061
 20
60.93237160613177
 30
0.0
 10
129.5712828340791
 20
60.55234787575758
 30
0.0
 10
129.8062188656467
 20
59.78472456034688
 30
0.0
 10
129.8702909973103
 20
59.39707774355809
 30
0.0
 10
129.8710239462313
 20
58.80875719167024
 30
0.0
 10
129.8553644661483
 20
58.61168399911459
 30
0.0
 10
129.7940893395114
 20
58.22162702156049
 30
0.0
 10
129.7485330670122
 20
58.02783412097245
 30
0.0
 10
129.5720470342559
 20
57.44975313620903
 30
0.0
 10
129.4013905807703
 20
57.0687552718742
 30
0.0
 10
129.1930610810003
 20
56.69087754149127
 30
0.0
  0
SPLINE
  5
DC
330
1F
100
AcDbEntity
  8
0
  6
Continuous
 62
     7
370
    25
100
AcDbSpline
210
0.0
220
0.0
230
1.0
 70
     8
 71
     3
 72
    10
 73
     6
 74
     0
 42
0.00000001
 43
0.00000001
 40
0.0
 40
0.0
 40
0.0
 40
0.0
 40
0.1601790552921226
 40
0.7197651707803578
 40
1.0
 40
1.0
 40
1.0
 40
1.0
 10
129.1588316478834
 20
61.37195797375801
 30
0.0
 10
129.1580688577902
 20
61.37335020178439
 30
0.0
 10
129.1546412577164
 20
61.37960618351271
 30
0.0
 10
129.1691487225147
 20
61.35309891878481
 30
0.0
 10
129.1870782756326
 20
61.32054306363964
 30
0.0
 10
129.1930610810003
 20
61.30967969500827
 30
0.0
  0
SPLINE
  5
DD
330
1F
100
AcDbEntity
  8
0
  6
Continuous
 62
     7
370
    25
100
AcDbSpline
210
0.0
220
0.0
230
1.0
 70
     8
 71
     3
 72
     9
 73
     5
 74
     0
 42
0.00000001
 43
0.00000001
 40
0.0
 40
0.0
 40
0.0
 40
0.0
 40
0.5797912171256352
 40
1.0
 40
1.0
 40
1.0
 40
1.0
 10
129.1930610810003
 20
41.96844567715581
 30
0.0
 10
129.1807024776539
 20
41.94597202891467
 30
0.0
 10
129.1593868678595
 20
41.90721040649385
 30
0.0
 10
129.1589959253567
 20
41.90647600173565
 30
0.0
 10
129.1588316478834
 20
41.90616739840606
 30
0.0
  0
SPLINE
  5
DE
330
1F
100
AcDbEntity
  8
0
  6
Continuous
 62
     7
370
    25
100
AcDbSpline
210
0.0
220
0.0
230
1.0
 70
     8
 71
     3
 72
    16
 73
    12
 74
     0
 42
0.00000001
 43
0.00000001
 40
0.0
 40
0.0
 40
0.0
 40
0.0
 40
0.2500000000000001
 40
0.2500000000000001
 40
0.5000000000000002
 40
0.5000000000000002
 40
0.6250000000000001
 40
0.6250000000000001
 40
0.7500000000000001
 40
0.7500000000000001
 40
1.0
 40
1.0
 40
1.0
 40
1.0
 10
129.1930610810003
 20
46.58724783067282
 30
0.0
 10
129.4010765291061
 20
46.20993974179632
 30
0.0
 10
129.5712828340791
 20
45.82991601142211
 30
0.0
 10
129.8062188656467
 20
45.06229269601142
 30
0.0
 10
129.8702909973103
 20
44.67464587922262
 30
0.0
 10
129.8710239462313
 20
44.08632532733477
 30
0.0
 10
129.8553644661483
 20
43.88925213477912
 30
0.0
 10
129.7940893395114
 20
43.49919515722502
 30
0.0
 10
129.7485330670122
 20
43.30540225663699
 30
0.0
 10
129.5720470342559
 20
42.72732127187356
 30
0.0
 10
129.4013905807703
 20
42.34632340753874
 30
0.0
 10
129.1930610810003
 20
41.96844567715581
 30
0.0
  0
LINE
  5
DF
330
1F
100
AcDbEntity
  8
0
  6
Continuous
 62
     7
370
    25
100
AcDbLine
 10
130.0151200536
 20
59.8890626861
 30
0.0
 11
130.0151200536
 21
43.3890626861
 31
0.0
  0
LINE
  5
E0
330
1F
100
AcDbEntity
  8
0
  6
Continuous
 62
     7
370
    25
100
AcDbLine
 10
124.0151200536
 20
59.0002786182
 30
0.0
 11
124.0151200536
 21
55.6390626861
 31
0.0
  0
SPLINE
  5
E1
330
1F
100
AcDbEntity
  8
0
  6
Continuous
 62
     7
370
    25
100
AcDbSpline
210
0.0
220
0.0
230
1.0
 70
     8
 71
     3
 72
    10
 73
     6
 74
     0
 42
0.00000001
 43
0.00000001
 40
0.0
 40
0.0
 40
0.0
 40
0.0
 40
0.5
 40
0.5
 40
1.0
 40
1.0
 40
1.0
 40
1.0
 10
124.6928414588181
 20
56.69087754149124
 30
0.0
 10
124.4844207060007
 20
57.0689207908934
 30
0.0
 10
124.3139568707233
 20
57.44969029568926
 30
0.0
 10
124.0789744357849
 20
58.21883882124679
 30
0.0
 10
124.0151200535579
 20
58.60726554942204
 30
0.0
 10
124.0151200535579
 20
59.00027861824977
 30
0.0
  0
SPLINE
  5
E2
330
1F
100
AcDbEntity
  8
0
  6
Continuous
 62
     7
370
    25
100
AcDbSpline
210
0.0
220
0.0
230
1.0
 70
     8
 71
     3
 72
    10
 73
     6
 74
     0
 42
0.00000001
 43
0.00000001
 40
0.0
 40
0.0
 40
0.0
 40
0.0
 40
0.5
 40
0.5
 40
1.0
 40
1.0
 40
1.0
 40
1.0
 10
124.6928414588181
 20
56.25786483959905
 30
0.0
 10
124.7165168532425
 20
56.3437519014015
 30
0.0
 10
124.7296079631272
 20
56.43115911038161
 30
0.0
 10
124.7296942844154
 20
56.58379555297534
 30
0.0
 10
124.7165253504716
 20
56.64791859792092
 30
0.0
 10
124.6928414588181
 20
56.69087754149123
 30
0.0
  0
LINE
  5
E3
330
1F
100
AcDbEntity
  8
0
  6
Continuous
 62
     7
370
    25
100
AcDbLine
 10
129.193061081
 20
46.5872478307
 30
0.0
 11
124.6928414588
 21
46.5872478307
 31
0.0
  0
SPLINE
  5
E4
330
1F
100
AcDbEntity
  8
0
  6
Continuous
 62
     7
370
    25
100
AcDbSpline
210
0.0
220
0.0
230
1.0
 70
     8
 71
     3
 72
    10
 73
     6
 74
     0
 42
0.00000001
 43
0.00000001
 40
0.0
 40
0.0
 40
0.0
 40
0.0
 40
0.5
 40
0.5
 40
1.0
 40
1.0
 40
1.0
 40
1.0
 10
124.6928414588148
 20
46.58724783067282
 30
0.0
 10
124.7165168532392
 20
46.63019136157396
 30
0.0
 10
124.7296079631271
 20
46.69363380619776
 30
0.0
 10
124.7296942844155
 20
46.84611264331684
 30
0.0
 10
124.7165253504716
 20
46.93434264542427
 30
0.0
 10
124.6928414588181
 20
47.02026053256502
 30
0.0
  0
SPLINE
  5
E5
330
1F
100
AcDbEntity
  8
0
  6
Continuous
 62
     7
370
    25
100
AcDbSpline
210
0.0
220
0.0
230
1.0
 70
     8
 71
     3
 72
    10
 73
     6
 74
     0
 42
0.00000001
 43
0.00000001
 40
0.0
 40
0.0
 40
0.0
 40
0.0
 40
0.5
 40
0.5
 40
1.0
 40
1.0
 40
1.0
 40
1.0
 10
112.9633051981487
 20
43.67266614622704
 30
0.0
 10
113.0062487290499
 20
43.64899075180265
 30
0.0
 10
113.069691173674
 20
43.63589964191801
 30
0.0
 10
113.222170010793
 20
43.63581332062973
 30
0.0
 10
113.3104000129003
 20
43.64898225457357
 30
0.0
 10
113.3963179000409
 20
43.67266614622703
 30
0.0
  0
LINE
  5
E6
330
1F
100
AcDbEntity
  8
0
  6
Continuous
 62
     7
370
    25
100
AcDbLine
 10
112.9633051981
 20
40.3167840913
 30
0.0
 11
112.9633051981
 21
43.6726661462
 31
0.0
  0
SPLINE
  5
E7
330
1F
100
AcDbEntity
  8
0
  6
Continuous
 62
     7
370
    25
100
AcDbSpline
210
0.0
220
0.0
230
1.0
 70
     8
 71
     3
 72
    10
 73
     6
 74
     0
 42
0.00000001
 43
0.00000001
 40
0.0
 40
0.0
 40
0.0
 40
0.0
 40
0.5
 40
0.5
 40
1.0
 40
1.0
 40
1.0
 40
1.0
 10
122.6339222070749
 20
43.67266614622702
 30
0.0
 10
122.7198092688775
 20
43.64899075180261
 30
0.0
 10
122.8072164778577
 20
43.63589964191797
 30
0.0
 10
122.9598529204516
 20
43.63581332062975
 30
0.0
 10
123.0239759653973
 20
43.6489822545737
 30
0.0
 10
123.0669349089675
 20
43.67266614622725
 30
0.0
  0
LINE
  5
E8
330
1F
100
AcDbEntity
  8
0
  6
Continuous
 62
     7
370
    25
100
AcDbLine
 10
123.066934909
 20
43.6726661462
 30
0.0
 11
123.066934909
 21
40.3167840913
 31
0.0
  0
SPLINE
  5
E9
330
1F
100
AcDbEntity
  8
0
  6
Continuous
 62
     7
370
    25
100
AcDbSpline
210
0.0
220
0.0
230
1.0
 70
     8
 71
     3
 72
     8
 73
     4
 74
     0
 42
0.00000001
 43
0.00000001
 40
0.0
 40
0.0
 40
0.0
 40
0.0
 40
1.0
 40
1.0
 40
1.0
 40
1.0
 10
124.1365035450541
 20
45.2289411527568
 30
0.0
 10
124.0953882694128
 20
45.36497154724634
 30
0.0
 10
124.054899286545
 20
45.50167561188378
 30
0.0
 10
124.0151200535579
 20
45.63906268608203
 30
0.0
  0
LINE
  5
EA
330
1F
100
AcDbEntity
  8
0
  6
Continuous
 62
     7
370
    25
100
AcDbLine
 10
124.0151200536
 20
47.6390626861
 30
0.0
 11
124.0151200536
 21
45.6390626861
 31
0.0
  0
SPLINE
  5
EB
330
1F
100
AcDbEntity
  8
0
  6
Continuous
 62
     7
370
    25
100
AcDbSpline
210
0.0
220
0.0
230
1.0
 70
     8
 71
     3
 72
     8
 73
     4
 74
     0
 42
0.00000001
 43
0.00000001
 40
0.0
 40
0.0
 40
0.0
 40
0.0
 40
1.0
 40
1.0
 40
1.0
 40
1.0
 10
124.1365035450541
 20
45.2289411527568
 30
0.0
 10
124.2521361550832
 20
45.68749208481456
 30
0.0
 10
124.4460255599036
 20
46.1395616805728
 30
0.0
 10
124.692841458818
 20
46.58724783067256
 30
0.0
  0
SPLINE
  5
EC
330
1F
100
AcDbEntity
  8
0
  6
Continuous
 62
     7
370
    25
100
AcDbSpline
210
0.0
220
0.0
230
1.0
 70
     8
 71
     3
 72
     8
 73
     4
 74
     0
 42
0.00000001
 43
0.00000001
 40
0.0
 40
0.0
 40
0.0
 40
0.0
 40
1.0
 40
1.0
 40
1.0
 40
1.0
 10
110.7257438689413
 20
44.3496865014533
 30
0.0
 10
111.0347610115831
 20
44.45069160928343
 30
0.0
 10
111.350078767901
 20
44.54734839834936
 30
0.0
 10
111.6725580947441
 20
44.63906268608204
 30
0.0
  0
SPLINE
  5
ED
330
1F
100
AcDbEntity
  8
0
  6
Continuous
 62
     7
370
    25
100
AcDbSpline
210
0.0
220
0.0
230
1.0
 70
     8
 71
     3
 72
    12
 73
     8
 74
     0
 42
0.00000001
 43
0.00000001
 40
0.0
 40
0.0
 40
0.0
 40
0.0
 40
0.2500000000000002
 40
0.2500000000000002
 40
0.5000000000000004
 40
0.5000000000000004
 40
1.0
 40
1.0
 40
1.0
 40
1.0
 10
110.7257438689361
 20
44.34968650144717
 30
0.0
 10
110.9157700442393
 20
44.34597801559075
 30
0.0
 10
111.1059851069251
 20
44.32739551275307
 30
0.0
 10
111.4829218660575
 20
44.26252847578692
 30
0.0
 10
111.670244657317
 20
44.21626292253665
 30
0.0
 10
112.2291546136311
 20
44.04053839222969
 30
0.0
 10
112.5976902717414
 20
43.87423498345294
 30
0.0
 10
112.9633051981487
 20
43.67266614622704
 30
0.0
  0
LINE
  5
EE
330
1F
100
AcDbEntity
  8
0
  6
Continuous
 62
     7
370
    25
100
AcDbLine
 10
112.0151200536
 20
47.6390626861
 30
0.0
 11
112.0151200536
 21
45.6390626861
 31
0.0
  0
SPLINE
  5
EF
330
1F
100
AcDbEntity
  8
0
  6
Continuous
 62
     7
370
    25
100
AcDbSpline
210
0.0
220
0.0
230
1.0
 70
     8
 71
     3
 72
     8
 73
     4
 74
     0
 42
0.00000001
 43
0.00000001
 40
0.0
 40
0.0
 40
0.0
 40
0.0
 40
1.0
 40
1.0
 40
1.0
 40
1.0
 10
112.0151200535579
 20
45.63906268608203
 30
0.0
 10
111.9753413953677
 20
45.50167759708193
 30
0.0
 10
111.9348524325395
 20
45.36497351527017
 30
0.0
 10
111.8937365620618
 20
45.22894115275679
 30
0.0
  0
SPLINE
  5
F0
330
1F
100
AcDbEntity
  8
0
  6
Continuous
 62
     7
370
    25
100
AcDbSpline
210
0.0
220
0.0
230
1.0
 70
     8
 71
     3
 72
     8
 73
     4
 74
     0
 42
0.00000001
 43
0.00000001
 40
0.0
 40
0.0
 40
0.0
 40
0.0
 40
1.0
 40
1.0
 40
1.0
 40
1.0
 10
111.3373986482977
 20
46.58724783067282
 30
0.0
 10
111.5845724291817
 20
46.13891253762149
 30
0.0
 10
111.7782940974857
 20
45.68673804687789
 30
0.0
 10
111.8937365620618
 20
45.22894115275679
 30
0.0
  0
SPLINE
  5
F1
330
1F
100
AcDbEntity
  8
0
  6
Continuous
 62
     7
370
    25
100
AcDbSpline
210
0.0
220
0.0
230
1.0
 70
     8
 71
     3
 72
    10
 73
     6
 74
     0
 42
0.00000001
 43
0.00000001
 40
0.0
 40
0.0
 40
0.0
 40
0.0
 40
0.5
 40
0.5
 40
1.0
 40
1.0
 40
1.0
 40
1.0
 10
111.3373986482977
 20
47.02026053256503
 30
0.0
 10
111.3137232538733
 20
46.93437347076257
 30
0.0
 10
111.3006321439887
 20
46.84696626178245
 30
0.0
 10
111.3005458227004
 20
46.69432981918871
 30
0.0
 10
111.3137147566443
 20
46.63020677424312
 30
0.0
 10
111.3373986482977
 20
46.58724783067282
 30
0.0
  0
SPLINE
  5
F2
330
1F
100
AcDbEntity
  8
0
  6
Continuous
 62
     7
370
    25
100
AcDbSpline
210
0.0
220
0.0
230
1.0
 70
     8
 71
     3
 72
     8
 73
     4
 74
     0
 42
0.00000001
 43
0.00000001
 40
0.0
 40
0.0
 40
0.0
 40
0.0
 40
1.0
 40
1.0
 40
1.0
 40
1.0
 10
124.3576820123718
 20
44.63906268608204
 30
0.0
 10
124.6801613392211
 20
44.54734839834758
 30
0.0
 10
124.995479095545
 20
44.45069160927967
 30
0.0
 10
125.3044962381925
 20
44.34968650144742
 30
0.0
  0
SPLINE
  5
F3
330
1F
100
AcDbEntity
  8
0
  6
Continuous
 62
     7
370
    25
100
AcDbSpline
210
0.0
220
0.0
230
1.0
 70
     8
 71
     3
 72
    10
 73
     6
 74
     0
 42
0.00000001
 43
0.00000001
 40
0.0
 40
0.0
 40
0.0
 40
0.0
 40
0.5
 40
0.5
 40
1.0
 40
1.0
 40
1.0
 40
1.0
 10
123.0669349089674
 20
43.67266614622719
 30
0.0
 10
123.433452855808
 20
43.87473283177811
 30
0.0
 10
123.8025330812738
 20
44.04112560404876
 30
0.0
 10
124.5477854295012
 20
44.27517257791881
 30
0.0
 10
124.923998201449
 20
44.34226083187764
 30
0.0
 10
125.3044962381925
 20
44.34968650144742
 30
0.0
  0
SPLINE
  5
F4
330
1F
100
AcDbEntity
  8
0
  6
Continuous
 62
     7
370
    25
100
AcDbSpline
210
0.0
220
0.0
230
1.0
 70
     8
 71
     3
 72
    10
 73
     6
 74
     0
 42
0.00000001
 43
0.00000001
 40
0.0
 40
0.0
 40
0.0
 40
0.0
 40
0.5
 40
0.5
 40
1.0
 40
1.0
 40
1.0
 40
1.0
 10
107.1928414588181
 20
56.69087754149127
 30
0.0
 10
107.2165136987297
 20
56.64793973239203
 30
0.0
 10
107.2296076886649
 20
56.58449914249983
 30
0.0
 10
107.2296945561264
 20
56.43200999699098
 30
0.0
 10
107.216524766367
 20
56.34378060778768
 30
0.0
 10
107.1928414588181
 20
56.25786483959905
 30
0.0
  0
LINE
  5
F5
330
1F
100
AcDbEntity
  8
0
  6
Continuous
 62
     7
370
    25
100
AcDbLine
 10
107.1928414588
 20
56.6908775415
 30
0.0
 11
111.3373986483
 21
56.6908775415
 31
0.0
  0
SPLINE
  5
F6
330
1F
100
AcDbEntity
  8
0
  6
Continuous
 62
     7
370
    25
100
AcDbSpline
210
0.0
220
0.0
230
1.0
 70
     8
 71
     3
 72
    10
 73
     6
 74
     0
 42
0.00000001
 43
0.00000001
 40
0.0
 40
0.0
 40
0.0
 40
0.0
 40
0.5
 40
0.5
 40
1.0
 40
1.0
 40
1.0
 40
1.0
 10
107.1928414588181
 20
47.02026053256502
 30
0.0
 10
107.2165153593741
 20
46.93437889005857
 30
0.0
 10
107.2296079165532
 20
46.84696968409314
 30
0.0
 10
107.2296943305355
 20
46.6943271990182
 30
0.0
 10
107.2165239389369
 20
46.63020421393583
 30
0.0
 10
107.1928414588181
 20
46.58724783067282
 30
0.0
  0
SPLINE
  5
F7
330
1F
100
AcDbEntity
  8
0
  6
Continuous
 62
     7
370
    25
100
AcDbSpline
210
0.0
220
0.0
230
1.0
 70
     8
 71
     3
 72
    12
 73
     8
 74
     0
 42
0.00000001
 43
0.00000001
 40
0.0
 40
0.0
 40
0.0
 40
0.0
 40
0.2499999999999999
 40
0.2499999999999999
 40
0.4999999999999998
 40
0.4999999999999998
 40
1.0
 40
1.0
 40
1.0
 40
1.0
 10
106.5151200535579
 20
44.2778467539143
 30
0.0
 10
106.5151200535579
 20
44.4728502339201
 30
0.0
 10
106.5308663835799
 20
44.66938489294451
 30
0.0
 10
106.5923114081653
 20
45.05880458055006
 30
0.0
 10
106.637900167419
 20
45.25228927361032
 30
0.0
 10
106.8143511696756
 20
45.82947287236593
 30
0.0
 10
106.9848088716391
 20
46.20990865414888
 30
0.0
 10
107.192841458818
 20
46.58724783067283
 30
0.0
  0
LINE
  5
F8
330
1F
100
AcDbEntity
  8
0
  6
Continuous
 62
     7
370
    25
100
AcDbLine
 10
106.5151200536
 20
51.6390626861
 30
0.0
 11
106.5151200536
 21
44.2778467539
 31
0.0
  0
LINE
  5
F9
330
1F
100
AcDbEntity
  8
0
  6
Continuous
 62
     7
370
    25
100
AcDbLine
 10
111.3373986483
 20
46.5872478307
 30
0.0
 11
107.1928414588
 21
46.5872478307
 31
0.0
  0
LINE
  5
FA
330
1F
100
AcDbEntity
  8
0
  6
Continuous
 62
     7
370
    25
100
AcDbLine
 10
113.961359047
 20
51.0646308296
 30
0.0
 11
114.5687074058
 21
51.0646308296
 31
0.0
  0
LINE
  5
FB
330
1F
100
AcDbEntity
  8
0
  6
Continuous
 62
     7
370
    25
100
AcDbLine
 10
114.1851719899
 20
51.9832451755
 30
0.0
 11
113.8814978088
 21
51.1726625586
 31
0.0
  0
ELLIPSE
  5
FC
330
1F
100
AcDbEntity
  8
0
  6
Continuous
 62
     7
370
    25
100
AcDbEllipse
 10
114.2650332282
 20
51.9560551637
 30
0.0
 11
0.08480161849065837
 21
0.0
 31
0.0
210
0.0
220
0.0
230
1.0
 40
0.9533039403
 41
0.3430239404206104
 42
2.798568713169156
  0
LINE
  5
FD
330
1F
100
AcDbEntity
  8
0
  6
Continuous
 62
     7
370
    25
100
AcDbLine
 10
114.6485686442
 20
51.1726625584
 30
0.0
 11
114.3448944665
 21
51.9832451755
 31
0.0
  0
ELLIPSE
  5
FE
330
1F
100
AcDbEntity
  8
0
  6
Continuous
 62
     7
370
    25
100
AcDbEllipse
 10
114.5687074058
 20
51.1454725467
 30
0.0
 11
-0.08480161849067258
 21
-4.973799150320701E-14
 31
0.0
210
0.0
220
0.0
230
1.0
 40
0.9533039403
 41
1.570796326794337
 42
3.484616592149193
  0
ELLIPSE
  5
FF
330
1F
100
AcDbEntity
  8
0
  6
Continuous
 62
     7
370
    25
100
AcDbEllipse
 10
113.961359047
 20
51.1454725467
 30
0.0
 11
0.08480161849064416
 21
-7.105427357601002E-15
 31
0.0
210
0.0
220
0.0
230
1.0
 40
0.9533039403
 41
2.798568711308407
 42
4.712388980384782
  0
SPLINE
  5
100
330
1F
100
AcDbEntity
  8
0
  6
Continuous
 62
     7
370
    25
100
AcDbSpline
210
0.0
220
0.0
230
1.0
 70
     8
 71
     3
 72
    10
 73
     6
 74
     0
 42
0.00000001
 43
0.00000001
 40
0.0
 40
0.0
 40
0.0
 40
0.0
 40
0.5
 40
0.5
 40
1.0
 40
1.0
 40
1.0
 40
1.0
 10
107.1928414588177
 20
56.69087754149123
 30
0.0
 10
106.9840315341514
 20
57.06962668888253
 30
0.0
 10
106.8134973944041
 20
57.45083196529382
 30
0.0
 10
106.5787115893852
 20
58.22006258648161
 30
0.0
 10
106.5151200535579
 20
58.60813029127993
 30
0.0
 10
106.5151200535579
 20
59.00027861824977
 30
0.0
  0
LINE
  5
101
330
1F
100
AcDbEntity
  8
0
  6
Continuous
 62
     7
370
    25
100
AcDbLine
 10
106.5151200536
 20
51.6390626861
 30
0.0
 11
106.5151200536
 21
59.0002786182
 31
0.0
  0
LINE
  5
102
330
1F
100
AcDbEntity
  8
0
  6
Continuous
 62
     7
370
    25
100
AcDbLine
 10
124.6928414588
 20
56.6908775415
 30
0.0
 11
129.193061081
 21
56.6908775415
 31
0.0
  0
SPLINE
  5
103
330
1F
100
AcDbEntity
  8
0
  6
Continuous
 62
     7
370
    25
100
AcDbSpline
210
0.0
220
0.0
230
1.0
 70
     8
 71
     3
 72
    12
 73
     8
 74
     0
 42
0.00000001
 43
0.00000001
 40
0.0
 40
0.0
 40
0.0
 40
0.0
 40
0.2499999999999999
 40
0.2499999999999999
 40
0.4999999999999998
 40
0.4999999999999998
 40
1.0
 40
1.0
 40
1.0
 40
1.0
 10
124.0151200535579
 20
59.00027861824977
 30
0.0
 10
124.0151200535579
 20
59.19602088112929
 30
0.0
 10
124.0309629896469
 20
59.39268749031984
 30
0.0
 10
124.0924658498845
 20
59.78195571764812
 30
0.0
 10
124.1380694909282
 20
59.97535975060104
 30
0.0
 10
124.3145205084175
 20
60.55228880185781
 30
0.0
 10
124.4849178756693
 20
60.93253823506081
 30
0.0
 10
124.6928414588181
 20
61.30967969500827
 30
0.0
  0
LINE
  5
104
330
1F
100
AcDbEntity
  8
0
  6
Continuous
 62
     7
370
    25
100
AcDbLine
 10
129.193061081
 20
61.309679695
 30
0.0
 11
124.6928414588
 21
61.309679695
 31
0.0
  0
ELLIPSE
  5
105
330
1F
100
AcDbEntity
  8
0
  6
Continuous
 62
     7
370
    25
100
AcDbEllipse
 10
118.0151200536
 20
41.8241081099
 30
0.0
 11
8.5
 21
0.0
 31
0.0
210
0.0
220
0.0
230
1.0
 40
0.5773502692
 41
2.374833212873086
 42
2.530692279913058
  0
LINE
  5
106
330
1F
100
AcDbEntity
  8
0
  6
Continuous
 62
     7
370
    25
100
AcDbLine
 10
110.7257438689
 20
44.3496865014
 30
0.0
 11
108.3445030446
 21
41.9684456772
 31
0.0
  0
LINE
  5
107
330
1F
100
AcDbEntity
  8
0
  6
Continuous
 62
     7
370
    25
100
AcDbLine
 10
107.1928414588
 20
41.9684456772
 30
0.0
 11
108.3445030446
 21
41.9684456772
 31
0.0
  0
SPLINE
  5
108
330
1F
100
AcDbEntity
  8
0
  6
Continuous
 62
     7
370
    25
100
AcDbSpline
210
0.0
220
0.0
230
1.0
 70
     8
 71
     3
 72
    10
 73
     6
 74
     0
 42
0.00000001
 43
0.00000001
 40
0.0
 40
0.0
 40
0.0
 40
0.0
 40
0.5
 40
0.5
 40
1.0
 40
1.0
 40
1.0
 40
1.0
 10
107.1928414588177
 20
41.96844567715577
 30
0.0
 10
106.9840315341514
 20
42.34719482454706
 30
0.0
 10
106.8134973944041
 20
42.72840010095837
 30
0.0
 10
106.5787115893852
 20
43.49763072214614
 30
0.0
 10
106.5151200535579
 20
43.88569842694447
 30
0.0
 10
106.5151200535579
 20
44.2778467539143
 30
0.0
  0
ELLIPSE
  5
109
330
1F
100
AcDbEntity
  8
0
  6
Continuous
 62
     7
370
    25
100
AcDbEllipse
 10
118.0151200536
 20
41.8241081099
 30
0.0
 11
8.5
 21
0.0
 31
0.0
210
0.0
220
0.0
230
1.0
 40
0.5773502692
 41
0.6109003736767339
 42
0.7667594407167064
  0
LINE
  5
10A
330
1F
100
AcDbEntity
  8
0
  6
Continuous
 62
     7
370
    25
100
AcDbLine
 10
127.6857370625
 20
41.9684456772
 30
0.0
 11
129.193061081
 21
41.9684456772
 31
0.0
  0
LINE
  5
10B
330
1F
100
AcDbEntity
  8
0
  6
Continuous
 62
     7
370
    25
100
AcDbLine
 10
127.6857370625
 20
41.9684456772
 30
0.0
 11
125.3044962382
 21
44.3496865014
 31
0.0
  0
SPLINE
  5
10C
330
1F
100
AcDbEntity
  8
0
  6
Continuous
 62
     7
370
    25
100
AcDbSpline
210
0.0
220
0.0
230
1.0
 70
     8
 71
     3
 72
    12
 73
     8
 74
     0
 42
0.00000001
 43
0.00000001
 40
0.0
 40
0.0
 40
0.0
 40
0.0
 40
0.2499999999999999
 40
0.2499999999999999
 40
0.5
 40
0.5
 40
1.0
 40
1.0
 40
1.0
 40
1.0
 10
106.5151200535579
 20
59.00027861824977
 30
0.0
 10
106.5151200535579
 20
59.19528209825557
 30
0.0
 10
106.5308663835799
 20
59.39181675727998
 30
0.0
 10
106.5923114081653
 20
59.78123644488553
 30
0.0
 10
106.637900167419
 20
59.97472113794578
 30
0.0
 10
106.8143511696756
 20
60.55190473670138
 30
0.0
 10
106.9848088716391
 20
60.93234051848435
 30
0.0
 10
107.192841458818
 20
61.30967969500828
 30
0.0
  0
LINE
  5
10D
330
1F
100
AcDbEntity
  8
0
  6
Continuous
 62
     7
370
    25
100
AcDbLine
 10
111.3373986483
 20
61.309679695
 30
0.0
 11
107.1928414588
 21
61.309679695
 31
0.0
  0
SPLINE
  5
10E
330
1F
100
AcDbEntity
  8
0
  6
Continuous
 62
     7
370
    25
100
AcDbSpline
210
0.0
220
0.0
230
1.0
 70
     8
 71
     3
 72
    10
 73
     6
 74
     0
 42
0.00000001
 43
0.00000001
 40
0.0
 40
0.0
 40
0.0
 40
0.0
 40
0.5
 40
0.5
 40
1.0
 40
1.0
 40
1.0
 40
1.0
 10
111.3373986482977
 20
61.30967969500829
 30
0.0
 10
111.5458194011151
 20
60.93163644560613
 30
0.0
 10
111.7162832363926
 20
60.55086694081029
 30
0.0
 10
111.951265671331
 20
59.78171841525274
 30
0.0
 10
112.0151200535579
 20
59.3932916870775
 30
0.0
 10
112.0151200535579
 20
59.00027861824977
 30
0.0
  0
SPLINE
  5
10F
330
1F
100
AcDbEntity
  8
0
  6
Continuous
 62
     7
370
    25
100
AcDbSpline
210
0.0
220
0.0
230
1.0
 70
     8
 71
     3
 72
    12
 73
     8
 74
     0
 42
0.00000001
 43
0.00000001
 40
0.0
 40
0.0
 40
0.0
 40
0.0
 40
0.2499999999999996
 40
0.2499999999999996
 40
0.4999999999999993
 40
0.4999999999999993
 40
1.0
 40
1.0
 40
1.0
 40
1.0
 10
110.6539041213902
 20
39.63906268608203
 30
0.0
 10
110.4589006413844
 20
39.63906268608203
 30
0.0
 10
110.26236598236
 20
39.65480901610399
 30
0.0
 10
109.8729462947544
 20
39.71625404068942
 30
0.0
 10
109.6794616016942
 20
39.76184279994315
 30
0.0
 10
109.1022780029386
 20
39.93829380219974
 30
0.0
 10
108.7218422211556
 20
40.10875150416324
 30
0.0
 10
108.3445030446317
 20
40.31678409134208
 30
0.0
  0
LINE
  5
110
330
1F
100
AcDbEntity
  8
0
  6
Continuous
 62
     7
370
    25
100
AcDbLine
 10
108.3445030446
 20
41.9684456772
 30
0.0
 11
108.3445030446
 21
40.3167840913
 31
0.0
  0
LINE
  5
111
330
1F
100
AcDbEntity
  8
0
  6
Continuous
 62
     7
370
    25
100
AcDbLine
 10
127.6857370625
 20
40.3167840913
 30
0.0
 11
127.6857370625
 21
41.9684456772
 31
0.0
  0
SPLINE
  5
112
330
1F
100
AcDbEntity
  8
0
  6
Continuous
 62
     7
370
    25
100
AcDbSpline
210
0.0
220
0.0
230
1.0
 70
     8
 71
     3
 72
    10
 73
     6
 74
     0
 42
0.00000001
 43
0.00000001
 40
0.0
 40
0.0
 40
0.0
 40
0.0
 40
0.5
 40
0.5
 40
1.0
 40
1.0
 40
1.0
 40
1.0
 10
127.6857370624842
 20
40.31678409134176
 30
0.0
 10
127.3069879150929
 20
40.1079741666755
 30
0.0
 10
126.9257826386816
 20
39.93744002692824
 30
0.0
 10
126.1565520174938
 20
39.70265422190933
 30
0.0
 10
125.7684843126955
 20
39.63906268608203
 30
0.0
 10
125.3763359857256
 20
39.63906268608203
 30
0.0
  0
LINE
  5
113
330
1F
100
AcDbEntity
  8
0
  6
Continuous
 62
     7
370
    25
100
AcDbLine
 10
124.0151200536
 20
45.6390626861
 30
0.0
 11
122.0151200536
 21
47.6390626861
 31
0.0
  0
LINE
  5
114
330
1F
100
AcDbEntity
  8
0
  6
Continuous
 62
     7
370
    25
100
AcDbLine
 10
122.0151200536
 20
44.6390626861
 30
0.0
 11
124.9777411262
 21
44.6390626861
 31
0.0
  0
LINE
  5
115
330
1F
100
AcDbEntity
  8
0
  6
Continuous
 62
     7
370
    25
100
AcDbLine
 10
114.0151200536
 20
47.6390626861
 30
0.0
 11
112.0151200536
 21
45.6390626861
 31
0.0
  0
LINE
  5
116
330
1F
100
AcDbEntity
  8
0
  6
Continuous
 62
     7
370
    25
100
AcDbLine
 10
111.0524989809
 20
44.6390626861
 30
0.0
 11
114.0151200536
 21
44.6390626861
 31
0.0
  0
LINE
  5
117
330
1F
100
AcDbEntity
  8
0
  6
Continuous
 62
     7
370
    25
100
AcDbLine
 10
112.0151200536
 20
59.5735171643
 30
0.0
 11
112.0151200536
 21
59.0002786182
 31
0.0
  0
SPLINE
  5
118
330
1F
100
AcDbEntity
  8
0
  6
Continuous
 62
     7
370
    25
100
AcDbSpline
210
0.0
220
0.0
230
1.0
 70
     8
 71
     3
 72
    32
 73
    28
 74
     0
 42
0.00000001
 43
0.00000001
 40
0.0
 40
0.0
 40
0.0
 40
0.0
 40
0.0625000000000001
 40
0.0625000000000001
 40
0.1250000000000001
 40
0.1250000000000001
 40
0.1875000000000002
 40
0.1875000000000002
 40
0.2500000000000003
 40
0.2500000000000003
 40
0.3750000000000003
 40
0.3750000000000003
 40
0.4375000000000003
 40
0.4375000000000003
 40
0.5000000000000002
 40
0.5000000000000002
 40
0.5625000000000002
 40
0.5625000000000002
 40
0.6250000000000001
 40
0.6250000000000001
 40
0.7500000000000001
 40
0.7500000000000001
 40
0.8750000000000002
 40
0.8750000000000002
 40
0.9375000000000001
 40
0.9375000000000001
 40
1.0
 40
1.0
 40
1.0
 40
1.0
 10
124.0151200535495
 20
59.57351716430269
 30
0.0
 10
123.8582637176326
 20
59.47856018640699
 30
0.0
 10
123.6852652834769
 20
59.37580701178182
 30
0.0
 10
123.3085606968511
 20
59.15909581013354
 30
0.0
 10
123.1057079163944
 20
59.04567709964353
 30
0.0
 10
122.6797266535918
 20
58.81758696294536
 30
0.0
 10
122.4555486933038
 20
58.70228008049351
 30
0.0
 10
121.9841975997274
 20
58.47395697811874
 30
0.0
 10
121.7355120843623
 20
58.36030696198498
 30
0.0
 10
120.9649395996707
 20
58.03724293075093
 30
0.0
 10
120.4193021895885
 20
57.84434440658744
 30
0.0
 10
119.5365224410922
 20
57.63275048131374
 30
0.0
 10
119.2378833412193
 20
57.57710809519599
 30
0.0
 10
118.6313817405036
 20
57.50144002583215
 30
0.0
 10
118.3212345018377
 20
57.48146678005583
 30
0.0
 10
117.7011490131539
 20
57.48180054630909
 30
0.0
 10
117.3945779756858
 20
57.50179951163187
 30
0.0
 10
116.7879232283777
 20
57.57783829782834
 30
0.0
 10
116.4855501637523
 20
57.63449139795989
 30
0.0
 10
115.6089138609994
 20
57.84526994800574
 30
0.0
 10
115.0608597290225
 20
58.03881577857749
 30
0.0
 10
114.0303624617792
 20
58.47143507185329
 30
0.0
 10
113.5628024264997
 20
58.7039117165437
 30
0.0
 10
112.9245888228718
 20
59.04564971746274
 30
0.0
 10
112.721379084682
 20
59.15926723289114
 30
0.0
 10
112.3450421582875
 20
59.37576962524738
 30
0.0
 10
112.172063549796
 20
59.47850742169177
 30
0.0
 10
112.0151200535579
 20
59.57351716430784
 30
0.0
  0
LINE
  5
119
330
1F
100
AcDbEntity
  8
0
  6
Continuous
 62
     7
370
    25
100
AcDbLine
 10
124.0151200536
 20
59.5735171643
 30
0.0
 11
124.0151200536
 21
59.0002786182
 31
0.0
  0
SPLINE
  5
11A
330
1F
100
AcDbEntity
  8
0
  6
Continuous
 62
     7
370
    25
100
AcDbSpline
210
0.0
220
0.0
230
1.0
 70
     8
 71
     3
 72
    12
 73
     8
 74
     0
 42
0.00000001
 43
0.00000001
 40
0.0
 40
0.0
 40
0.0
 40
0.0
 40
0.0821702722852733
 40
0.3096910266324744
 40
0.5425035358993254
 40
0.7710675087793063
 40
1.0
 40
1.0
 40
1.0
 40
1.0
 10
124.1885592496197
 20
60.43227217517243
 30
0.0
 10
124.1896912658532
 20
60.43604193749235
 30
0.0
 10
124.1939577147741
 20
60.45024977118388
 30
0.0
 10
124.1615023720098
 20
60.34289336151074
 30
0.0
 10
124.1055377836082
 20
60.1369551481226
 30
0.0
 10
124.0373283858253
 20
59.85365979098811
 30
0.0
 10
124.022526805258
 20
59.66694817260459
 30
0.0
 10
124.0151200535579
 20
59.57351716430071
 30
0.0
  0
SPLINE
  5
11B
330
1F
100
AcDbEntity
  8
0
  6
Continuous
 62
     7
370
    25
100
AcDbSpline
210
0.0
220
0.0
230
1.0
 70
     8
 71
     3
 72
    11
 73
     7
 74
     0
 42
0.00000001
 43
0.00000001
 40
0.0
 40
0.0
 40
0.0
 40
0.0
 40
0.3176359095498447
 40
0.6359589517114197
 40
0.865688155476128
 40
1.0
 40
1.0
 40
1.0
 40
1.0
 10
112.0151200535579
 20
59.57351716430775
 30
0.0
 10
112.0014812984411
 20
59.70478178897592
 30
0.0
 10
111.9741742838814
 20
59.96759499929296
 30
0.0
 10
111.8861696068393
 20
60.27923960629103
 30
0.0
 10
111.8416092276822
 20
60.4329861208728
 30
0.0
 10
111.8419579764805
 20
60.431472645338
 30
0.0
 10
111.8420866462956
 20
60.43091425311362
 30
0.0
  0
LINE
  5
11C
330
1F
100
AcDbEntity
  8
0
  6
Continuous
 62
     7
370
    25
100
AcDbLine
 10
112.1151200536
 20
61.1390626861
 30
0.0
 11
112.1157716706
 21
61.1385092779
 31
0.0
  0
LINE
  5
11D
330
1F
100
AcDbEntity
  8
0
  6
Continuous
 62
     7
370
    25
100
AcDbLine
 10
113.2328404267
 20
29.4940107455
 30
0.0
 11
122.7973996804
 21
29.4940107455
 31
0.0
  0
LINE
  5
11E
330
1F
100
AcDbEntity
  8
0
  6
Continuous
 62
     7
370
    25
100
AcDbLine
 10
122.0151200536
 20
28.1390626861
 30
0.0
 11
114.0151200536
 21
28.1390626861
 31
0.0
  0
SPLINE
  5
11F
330
1F
100
AcDbEntity
  8
0
  6
Continuous
 62
     7
370
    25
100
AcDbSpline
210
0.0
220
0.0
230
1.0
 70
     8
 71
     3
 72
    10
 73
     6
 74
     0
 42
0.00000001
 43
0.00000001
 40
0.0
 40
0.0
 40
0.0
 40
0.0
 40
0.1601790552921523
 40
0.7197651707804853
 40
1.0
 40
1.0
 40
1.0
 40
1.0
 10
111.3031692151808
 20
61.37195797375801
 30
0.0
 10
111.3024064250876
 20
61.37335020178439
 30
0.0
 10
111.2989788250138
 20
61.37960618351271
 30
0.0
 10
111.3134862898121
 20
61.35309891878481
 30
0.0
 10
111.33141584293
 20
61.32054306363965
 30
0.0
 10
111.3373986482977
 20
61.30967969500829
 30
0.0
  0
SPLINE
  5
120
330
1F
100
AcDbEntity
  8
0
  6
Continuous
 62
     7
370
    25
100
AcDbSpline
210
0.0
220
0.0
230
1.0
 70
     8
 71
     3
 72
     9
 73
     5
 74
     0
 42
0.00000001
 43
0.00000001
 40
0.0
 40
0.0
 40
0.0
 40
0.0
 40
0.5789479223911438
 40
1.0
 40
1.0
 40
1.0
 40
1.0
 10
127.6857370624842
 20
40.31678409134223
 30
0.0
 10
127.7081784296768
 20
40.32912498165664
 30
0.0
 10
127.7469407541014
 20
40.35044104453055
 30
0.0
 10
127.7477066569604
 20
40.35084921844494
 30
0.0
 10
127.7480291419505
 20
40.35102108091962
 30
0.0
  0
LINE
  5
121
330
1F
100
AcDbEntity
  8
0
  6
Continuous
 62
     7
370
    25
100
AcDbLine
 10
125.3763359857
 20
39.6390626861
 30
0.0
 11
126.5151200536
 21
39.6390626861
 31
0.0
  0
SPLINE
  5
122
330
1F
100
AcDbEntity
  8
0
  6
Continuous
 62
     7
370
    25
100
AcDbSpline
210
0.0
220
0.0
230
1.0
 70
     8
 71
     3
 72
    10
 73
     6
 74
     0
 42
0.00000001
 43
0.00000001
 40
0.0
 40
0.0
 40
0.0
 40
0.0
 40
0.1593935213061672
 40
0.7189934545756304
 40
1.0
 40
1.0
 40
1.0
 40
1.0
 10
108.2822109651653
 20
40.35102108091962
 30
0.0
 10
108.2808210463387
 20
40.35178260791707
 30
0.0
 10
108.2745513903919
 20
40.35521770943294
 30
0.0
 10
108.3010353322159
 20
40.34072308696634
 30
0.0
 10
108.3336127362626
 20
40.32278171647371
 30
0.0
 10
108.3445030446317
 20
40.31678409134223
 30
0.0
  0
LINE
  5
123
330
1F
100
AcDbEntity
  8
0
  6
Continuous
 62
     7
370
    25
100
AcDbLine
 10
109.5151200536
 20
39.6390626861
 30
0.0
 11
110.6539041214
 21
39.6390626861
 31
0.0
  0
SPLINE
  5
124
330
1F
100
AcDbEntity
  8
0
  6
Continuous
 62
     7
370
    25
100
AcDbSpline
210
0.0
220
0.0
230
1.0
 70
     8
 71
     3
 72
    10
 73
     6
 74
     0
 42
0.00000001
 43
0.00000001
 40
0.0
 40
0.0
 40
0.0
 40
0.0
 40
0.1593935212994522
 40
0.7189934545690309
 40
1.0
 40
1.0
 40
1.0
 40
1.0
 10
107.2270784483956
 20
61.37197177447473
 30
0.0
 10
107.227839975393
 20
61.37336169330135
 30
0.0
 10
107.2312750769089
 20
61.37963134924829
 30
0.0
 10
107.2167804544425
 20
61.35314740742449
 30
0.0
 10
107.1988390839497
 20
61.32057000337763
 30
0.0
 10
107.1928414588181
 20
61.30967969500827
 30
0.0
  0
LINE
  5
125
330
1F
100
AcDbEntity
  8
0
  6
Continuous
 62
     7
370
    25
100
AcDbLine
 10
106.5151200536
 20
60.1390626861
 30
0.0
 11
106.5151200536
 21
59.0002786182
 31
0.0
  0
SPLINE
  5
126
330
1F
100
AcDbEntity
  8
0
  6
Continuous
 62
     7
370
    25
100
AcDbSpline
210
0.0
220
0.0
230
1.0
 70
     8
 71
     3
 72
     9
 73
     5
 74
     0
 42
0.00000001
 43
0.00000001
 40
0.0
 40
0.0
 40
0.0
 40
0.0
 40
0.5797912171256431
 40
1.0
 40
1.0
 40
1.0
 40
1.0
 10
124.6928414588181
 20
61.30967969500827
 30
0.0
 10
124.7052000621646
 20
61.33215334324941
 30
0.0
 10
124.726515671959
 20
61.37091496567023
 30
0.0
 10
124.7269066144618
 20
61.37164937042844
 30
0.0
 10
124.727070891935
 20
61.37195797375801
 30
0.0
  0
SPLINE
  5
127
330
1F
100
AcDbEntity
  8
0
  6
Continuous
 62
     7
370
    25
100
AcDbSpline
210
0.0
220
0.0
230
1.0
 70
     8
 71
     3
 72
     9
 73
     5
 74
     0
 42
0.00000001
 43
0.00000001
 40
0.0
 40
0.0
 40
0.0
 40
0.0
 40
0.5789479223839474
 40
0.9999999999999999
 40
0.9999999999999999
 40
0.9999999999999999
 40
0.9999999999999999
 10
107.1928414588181
 20
41.9684456771558
 30
0.0
 10
107.2051823491324
 20
41.94600430996343
 30
0.0
 10
107.2264984120063
 20
41.90724198553887
 30
0.0
 10
107.2269065859208
 20
41.90647608267951
 30
0.0
 10
107.2270784483956
 20
41.90615359768934
 30
0.0
  0
LINE
  5
128
330
1F
100
AcDbEntity
  8
0
  6
Continuous
 62
     7
370
    25
100
AcDbLine
 10
106.5151200536
 20
44.2778467539
 30
0.0
 11
106.5151200536
 21
43.1390626861
 31
0.0
  0
LINE
  5
129
330
1F
100
AcDbEntity
  8
0
  6
Continuous
 62
     7
370
    25
100
AcDbLine
 10
127.7527243606
 20
41.901458379
 30
0.0
 11
127.6857370625
 21
41.9684456772
 31
0.0
  0
LINE
  5
12A
330
1F
100
AcDbEntity
  8
0
  6
Continuous
 62
     7
370
    25
100
AcDbLine
 10
108.3445030446
 20
41.9684456772
 30
0.0
 11
108.2775157465
 21
41.901458379
 31
0.0
  0
SPLINE
  5
12B
330
1F
100
AcDbEntity
  8
0
  6
Continuous
 62
     7
370
    25
100
AcDbSpline
210
0.0
220
0.0
230
1.0
 70
     8
 71
     3
 72
    15
 73
    11
 74
     0
 42
0.00000001
 43
0.00000001
 40
0.0
 40
0.0
 40
0.0
 40
0.0
 40
0.0090459071881971
 40
0.1032433785236875
 40
0.1542564497735248
 40
0.313316902671511
 40
0.5243720399414434
 40
0.6678060008509189
 40
0.9918332554187028
 40
1.0
 40
1.0
 40
1.0
 40
1.0
 10
123.254205386216
 20
78.73906268608204
 30
0.0
 10
123.2541996942494
 20
78.74074378466646
 30
0.0
 10
123.2541347302986
 20
78.75993061622198
 30
0.0
 10
123.2521390438627
 20
78.78862489574198
 30
0.0
 10
123.2443220476462
 20
78.83930093571388
 30
0.0
 10
123.2271522238913
 20
78.8971772352908
 30
0.0
 10
123.2005683273237
 20
78.94204275002548
 30
0.0
 10
123.1627390288351
 20
78.97940513328
 30
0.0
 10
123.1344582488249
 20
78.98895114554958
 30
0.0
 10
123.1146271012936
 20
78.98906000973626
 30
0.0
 10
123.1141395671507
 20
78.98906268608204
 30
0.0
  0
LINE
  5
12C
330
1F
100
AcDbEntity
  8
0
  6
Continuous
 62
     7
370
    25
100
AcDbLine
 10
123.2542053862
 20
78.7390626861
 30
0.0
 11
112.7760347209
 21
78.7390626861
 31
0.0
  0
SPLINE
  5
12D
330
1F
100
AcDbEntity
  8
0
  6
Continuous
 62
     7
370
    25
100
AcDbSpline
210
0.0
220
0.0
230
1.0
 70
     8
 71
     3
 72
    15
 73
    11
 74
     0
 42
0.00000001
 43
0.00000001
 40
0.0
 40
0.0
 40
0.0
 40
0.0
 40
0.0081667445812973
 40
0.3321939991490813
 40
0.4756279600585592
 40
0.6866830973284899
 40
0.845743550226481
 40
0.8967566214763184
 40
0.9909540928118029
 40
1.0
 40
1.0
 40
1.0
 40
1.0
 10
112.9161005399651
 20
78.98906268608204
 30
0.0
 10
112.9156130058223
 20
78.98906000973626
 30
0.0
 10
112.895781858291
 20
78.98895114554958
 30
0.0
 10
112.8675010782808
 20
78.97940513328
 30
0.0
 10
112.8296717797921
 20
78.94204275002548
 30
0.0
 10
112.8030878832246
 20
78.8971772352908
 30
0.0
 10
112.7859180594696
 20
78.83930093571388
 30
0.0
 10
112.7781010632532
 20
78.78862489574198
 30
0.0
 10
112.7761053768173
 20
78.75993061622196
 30
0.0
 10
112.7760404128665
 20
78.74074378466646
 30
0.0
 10
112.7760347208998
 20
78.73906268608204
 30
0.0
  0
LINE
  5
12E
330
1F
100
AcDbEntity
  8
0
  6
Continuous
 62
     7
370
    25
100
AcDbLine
 10
112.91610054
 20
78.9890626861
 30
0.0
 11
123.1141395672
 21
78.9890626861
 31
0.0
  0
LINE
  5
12F
330
1F
100
AcDbEntity
  8
0
  6
Continuous
 62
     7
370
    25
100
AcDbLine
 10
123.2542053862
 20
78.1390626861
 30
0.0
 11
123.2542053862
 21
78.7390626861
 31
0.0
  0
LINE
  5
130
330
1F
100
AcDbEntity
  8
0
  6
Continuous
 62
     7
370
    25
100
AcDbLine
 10
112.7760347209
 20
78.7390626861
 30
0.0
 11
112.7760347209
 21
78.1390626861
 31
0.0
  0
LINE
  5
131
330
1F
100
AcDbEntity
  8
0
  6
Continuous
 62
     7
370
    25
100
AcDbLine
 10
112.7760347209
 20
78.1390626861
 30
0.0
 11
123.2542053862
 21
78.1390626861
 31
0.0
  0
SPLINE
  5
132
330
1F
100
AcDbEntity
  8
0
  6
Continuous
 62
     7
370
    25
100
AcDbSpline
210
0.0
220
0.0
230
1.0
 70
     8
 71
     3
 72
    15
 73
    11
 74
     0
 42
0.00000001
 43
0.00000001
 40
0.0
 40
0.0
 40
0.0
 40
0.0
 40
0.0089557228015919
 40
0.0999003359608153
 40
0.1531632460581696
 40
0.3125636920784855
 40
0.5249666935695051
 40
0.6689893599351772
 40
0.991915253381045
 40
1.0
 40
1.0
 40
1.0
 40
1.0
 10
112.5378944785063
 20
78.73906268608204
 30
0.0
 10
112.5379102340849
 20
78.74074381165494
 30
0.0
 10
112.5380859862414
 20
78.75949662627939
 30
0.0
 10
112.5435150022609
 20
78.78825885538687
 30
0.0
 10
112.5650504859683
 20
78.83914592885519
 30
0.0
 10
112.6127559142331
 20
78.89728157898784
 30
0.0
 10
112.685146859225
 20
78.94198945217124
 30
0.0
 10
112.7870659712427
 20
78.97927127563301
 30
0.0
 10
112.8624210626977
 20
78.98895043047061
 30
0.0
 10
112.914820708421
 20
78.98906000967236
 30
0.0
 10
112.9161005399651
 20
78.98906268608204
 30
0.0
  0
LINE
  5
133
330
1F
100
AcDbEntity
  8
0
  6
Continuous
 62
     7
370
    25
100
AcDbLine
 10
112.5378944785
 20
78.7390626861
 30
0.0
 11
112.7760347209
 21
78.7390626861
 31
0.0
  0
SPLINE
  5
134
330
1F
100
AcDbEntity
  8
0
  6
Continuous
 62
     7
370
    25
100
AcDbSpline
210
0.0
220
0.0
230
1.0
 70
     8
 71
     3
 72
    15
 73
    11
 74
     0
 42
0.00000001
 43
0.00000001
 40
0.0
 40
0.0
 40
0.0
 40
0.0
 40
0.0080847466189581
 40
0.3310106400648237
 40
0.4750333064304937
 40
0.6874363079215094
 40
0.8468367539418249
 40
0.9000996640391792
 40
0.9910442771984082
 40
1.0
 40
1.0
 40
1.0
 40
1.0
 10
123.1141395671507
 20
78.98906268608204
 30
0.0
 10
123.1154193986948
 20
78.98906000967236
 30
0.0
 10
123.1678190444181
 20
78.98895043047065
 30
0.0
 10
123.2431741358732
 20
78.97927127563301
 30
0.0
 10
123.3450932478908
 20
78.94198945217124
 30
0.0
 10
123.4174841928828
 20
78.89728157898786
 30
0.0
 10
123.4651896211476
 20
78.83914592885519
 30
0.0
 10
123.4867251048549
 20
78.78825885538687
 30
0.0
 10
123.4921541208744
 20
78.75949662627937
 30
0.0
 10
123.492329873031
 20
78.74074381165495
 30
0.0
 10
123.4923456286096
 20
78.73906268608204
 30
0.0
  0
LINE
  5
135
330
1F
100
AcDbEntity
  8
0
  6
Continuous
 62
     7
370
    25
100
AcDbLine
 10
123.2542053862
 20
78.7390626861
 30
0.0
 11
123.4923456286
 21
78.7390626861
 31
0.0
  0
LINE
  5
136
330
1F
100
AcDbEntity
  8
0
  6
Continuous
 62
     7
370
    25
100
AcDbLine
 10
123.4923456286
 20
78.7390626861
 30
0.0
 11
123.4923456286
 21
78.1390626861
 31
0.0
  0
LINE
  5
137
330
1F
100
AcDbEntity
  8
0
  6
Continuous
 62
     7
370
    25
100
AcDbLine
 10
123.4923456286
 20
78.1390626861
 30
0.0
 11
123.2542053862
 21
78.1390626861
 31
0.0
  0
LINE
  5
138
330
1F
100
AcDbEntity
  8
0
  6
Continuous
 62
     7
370
    25
100
AcDbLine
 10
112.5378944785
 20
78.1390626861
 30
0.0
 11
112.5378944785
 21
78.7390626861
 31
0.0
  0
LINE
  5
139
330
1F
100
AcDbEntity
  8
0
  6
Continuous
 62
     7
370
    25
100
AcDbLine
 10
112.7760347209
 20
78.1390626861
 30
0.0
 11
112.5378944785
 21
78.1390626861
 31
0.0
  0
LINE
  5
13A
330
1F
100
AcDbEntity
  8
0
  6
Continuous
 62
     7
370
    25
100
AcDbLine
 10
123.7651200536
 20
78.7390626861
 30
0.0
 11
124.0151200536
 21
78.7390626861
 31
0.0
  0
LINE
  5
13B
330
1F
100
AcDbEntity
  8
0
  6
Continuous
 62
     7
370
    25
100
AcDbLine
 10
123.7651200536
 20
78.7390626861
 30
0.0
 11
123.7651200536
 21
78.9890626861
 31
0.0
  0
ARC
  5
13C
330
1F
100
AcDbEntity
  8
0
  6
Continuous
 62
     7
370
    25
100
AcDbCircle
 10
123.7651200536
 20
78.7390626861
 30
0.0
 40
0.25
100
AcDbArc
 50
0.0
 51
90.0
  0
LINE
  5
13D
330
1F
100
AcDbEntity
  8
0
  6
Continuous
 62
     7
370
    25
100
AcDbLine
 10
112.2651200536
 20
78.7390626861
 30
0.0
 11
112.2651200536
 21
78.1390626861
 31
0.0
  0
LINE
  5
13E
330
1F
100
AcDbEntity
  8
0
  6
Continuous
 62
     7
370
    25
100
AcDbLine
 10
112.5378944785
 20
78.7390626861
 30
0.0
 11
112.2651200536
 21
78.7390626861
 31
0.0
  0
LINE
  5
13F
330
1F
100
AcDbEntity
  8
0
  6
Continuous
 62
     7
370
    25
100
AcDbLine
 10
112.2651200536
 20
78.1390626861
 30
0.0
 11
112.5378944785
 21
78.1390626861
 31
0.0
  0
ARC
  5
140
330
1F
100
AcDbEntity
  8
0
  6
Continuous
 62
     7
370
    25
100
AcDbCircle
 10
112.2651200536
 20
78.7390626861
 30
0.0
 40
0.25
100
AcDbArc
 50
90.0
 51
180.0
  0
LINE
  5
141
330
1F
100
AcDbEntity
  8
0
  6
Continuous
 62
     7
370
    25
100
AcDbLine
 10
112.2651200536
 20
78.9890626861
 30
0.0
 11
112.2651200536
 21
78.7390626861
 31
0.0
  0
LINE
  5
142
330
1F
100
AcDbEntity
  8
0
  6
Continuous
 62
     7
370
    25
100
AcDbLine
 10
112.0151200536
 20
78.7390626861
 30
0.0
 11
112.2651200536
 21
78.7390626861
 31
0.0
  0
LINE
  5
143
330
1F
100
AcDbEntity
  8
0
  6
Continuous
 62
     7
370
    25
100
AcDbLine
 10
123.7651200536
 20
78.1390626861
 30
0.0
 11
123.7651200536
 21
78.7390626861
 31
0.0
  0
LINE
  5
144
330
1F
100
AcDbEntity
  8
0
  6
Continuous
 62
     7
370
    25
100
AcDbLine
 10
124.0151200536
 20
78.7390626861
 30
0.0
 11
124.0151200536
 21
78.1390626861
 31
0.0
  0
LINE
  5
145
330
1F
100
AcDbEntity
  8
0
  6
Continuous
 62
     7
370
    25
100
AcDbLine
 10
124.0151200536
 20
78.1390626861
 30
0.0
 11
123.7651200536
 21
78.1390626861
 31
0.0
  0
LINE
  5
146
330
1F
100
AcDbEntity
  8
0
  6
Continuous
 62
     7
370
    25
100
AcDbLine
 10
112.2651200536
 20
78.9890626861
 30
0.0
 11
112.91610054
 21
78.9890626861
 31
0.0
  0
LINE
  5
147
330
1F
100
AcDbEntity
  8
0
  6
Continuous
 62
     7
370
    25
100
AcDbLine
 10
123.7651200536
 20
78.7390626861
 30
0.0
 11
123.4923456286
 21
78.7390626861
 31
0.0
  0
LINE
  5
148
330
1F
100
AcDbEntity
  8
0
  6
Continuous
 62
     7
370
    25
100
AcDbLine
 10
123.1141395672
 20
78.9890626861
 30
0.0
 11
123.7651200536
 21
78.9890626861
 31
0.0
  0
LINE
  5
149
330
1F
100
AcDbEntity
  8
0
  6
Continuous
 62
     7
370
    25
100
AcDbLine
 10
123.4923456286
 20
78.1390626861
 30
0.0
 11
123.7651200536
 21
78.1390626861
 31
0.0
  0
LINE
  5
14A
330
1F
100
AcDbEntity
  8
0
  6
Continuous
 62
     7
370
    25
100
AcDbLine
 10
112.0151200536
 20
78.1390626861
 30
0.0
 11
112.0151200536
 21
78.7390626861
 31
0.0
  0
LINE
  5
14B
330
1F
100
AcDbEntity
  8
0
  6
Continuous
 62
     7
370
    25
100
AcDbLine
 10
112.2651200536
 20
78.1390626861
 30
0.0
 11
112.0151200536
 21
78.1390626861
 31
0.0
  0
LINE
  5
14C
330
1F
100
AcDbEntity
  8
0
  6
Continuous
 62
     7
370
    25
100
AcDbLine
 10
113.0151200536
 20
78.9990626861
 30
0.0
 11
123.0151200536
 21
78.9990626861
 31
0.0
  0
LINE
  5
14D
330
1F
100
AcDbEntity
  8
0
  6
Continuous
 62
     7
370
    25
100
AcDbLine
 10
113.0151200536
 20
78.9890626861
 30
0.0
 11
113.0151200536
 21
78.9990626861
 31
0.0
  0
LINE
  5
14E
330
1F
100
AcDbEntity
  8
0
  6
Continuous
 62
     7
370
    25
100
AcDbLine
 10
123.0151200536
 20
78.9890626861
 30
0.0
 11
123.0151200536
 21
78.9990626861
 31
0.0
  0
LINE
  5
14F
330
1F
100
AcDbEntity
  8
0
  6
Continuous
 62
     7
370
    25
100
AcDbLine
 10
116.0151200536
 20
62.1390626861
 30
0.0
 11
125.0151200536
 21
62.1390626861
 31
0.0
  0
LINE
  5
150
330
1F
100
AcDbEntity
  8
0
  6
Continuous
 62
     7
370
    25
100
AcDbLine
 10
116.0151200536
 20
62.1768796099
 30
0.0
 11
116.0151200536
 21
62.1390626861
 31
0.0
  0
SPLINE
  5
151
330
1F
100
AcDbEntity
  8
0
  6
Continuous
 62
     7
370
    25
100
AcDbSpline
210
0.0
220
0.0
230
1.0
 70
     8
 71
     3
 72
     9
 73
     5
 74
     0
 42
0.00000001
 43
0.00000001
 40
0.0
 40
0.0
 40
0.0
 40
0.0
 40
0.4875141023677128
 40
0.9999999999999999
 40
0.9999999999999999
 40
0.9999999999999999
 40
0.9999999999999999
 10
115.8591748031307
 20
62.13906268608211
 30
0.0
 10
115.8854813770533
 20
62.14079003205381
 30
0.0
 10
115.9394420190016
 20
62.14433320334528
 30
0.0
 10
115.9894775496963
 20
62.1658516892946
 30
0.0
 10
116.0151200535579
 20
62.17687960988201
 30
0.0
  0
SPLINE
  5
152
330
1F
100
AcDbEntity
  8
0
  6
Continuous
 62
     7
370
    25
100
AcDbSpline
210
0.0
220
0.0
230
1.0
 70
     8
 71
     3
 72
    17
 73
    13
 74
     0
 42
0.00000001
 43
0.00000001
 40
0.0
 40
0.0
 40
0.0
 40
0.0
 40
0.3241697628029873
 40
0.5422758463620719
 40
0.689509052693928
 40
0.7894036290694505
 40
0.8577090008137825
 40
0.9049823971474138
 40
0.9551712229700868
 40
0.9753097783197817
 40
0.9919572060138848
 40
1.0
 40
1.0
 40
1.0
 40
1.0
 10
113.5405731694758
 20
70.13906268607967
 30
0.0
 10
113.6832885294929
 20
69.22644918347399
 30
0.0
 10
113.9220248384349
 20
67.69981617721265
 30
0.0
 10
114.3016120328866
 20
65.77304327493168
 30
0.0
 10
114.6107462412336
 20
64.48540780399892
 30
0.0
 10
114.8668597694338
 20
63.62625583727717
 30
0.0
 10
115.0811707723287
 20
63.05278794889976
 30
0.0
 10
115.2844049933567
 20
62.63125579486981
 30
0.0
 10
115.4689502578993
 20
62.35076325207437
 30
0.0
 10
115.6550213442674
 20
62.19521458349371
 30
0.0
 10
115.7702319435233
 20
62.14460398429621
 30
0.0
 10
115.8373207489962
 20
62.14042423249158
 30
0.0
 10
115.8591748031307
 20
62.13906268608211
 30
0.0
  0
LINE
  5
153
330
1F
100
AcDbEntity
  8
0
  6
Continuous
 62
     7
370
    25
100
AcDbLine
 10
113.5405731695
 20
70.1390626861
 30
0.0
 11
125.4651200536
 21
70.1390626861
 31
0.0
  0
SPLINE
  5
154
330
1F
100
AcDbEntity
  8
0
  6
Continuous
 62
     7
370
    25
100
AcDbSpline
210
0.0
220
0.0
230
1.0
 70
     8
 71
     3
 72
     9
 73
     5
 74
     0
 42
0.00000001
 43
0.00000001
 40
0.0
 40
0.0
 40
0.0
 40
0.0
 40
0.4978401817595073
 40
1.0
 40
1.0
 40
1.0
 40
1.0
 10
114.3007839252375
 20
71.13380626404897
 30
0.0
 10
114.1644620168669
 20
70.97729508135636
 30
0.0
 10
113.890635368546
 20
70.66291470703736
 30
0.0
 10
113.6575961174494
 20
70.31418215901108
 30
0.0
 10
113.5405731694758
 20
70.13906268607967
 30
0.0
  0
LINE
  5
155
330
1F
100
AcDbEntity
  8
0
  6
Continuous
 62
     7
370
    25
100
AcDbLine
 10
112.7913178792
 20
78.1390626861
 30
0.0
 11
111.0631792152
 21
71.133806264
 31
0.0
  0
LINE
  5
156
330
1F
100
AcDbEntity
  8
0
  6
Continuous
 62
     7
370
    25
100
AcDbLine
 10
123.2542053862
 20
78.139062686
 30
0.0
 11
112.7913178792
 21
78.1390626861
 31
0.0
  0
SPLINE
  5
157
330
1F
100
AcDbEntity
  8
0
  6
Continuous
 62
     7
370
    25
100
AcDbSpline
210
0.0
220
0.0
230
1.0
 70
     8
 71
     3
 72
    14
 73
    10
 74
     0
 42
0.00000001
 43
0.00000001
 40
0.0
 40
0.0
 40
0.0
 40
0.0
 40
0.1576095309202822
 40
0.3152382602707094
 40
0.4726926441579498
 40
0.6301650083177254
 40
0.7907313191165901
 40
0.9513050385928076
 40
1.0
 40
1.0
 40
1.0
 40
1.0
 10
111.5151200535579
 20
62.13906268608204
 30
0.0
 10
111.4485490387759
 20
62.35256447455944
 30
0.0
 10
111.315398900191
 20
62.77959405818495
 30
0.0
 10
110.9868319384403
 20
63.36484113704126
 30
0.0
 10
110.5734422977082
 20
63.88699567786368
 30
0.0
 10
110.0777673787636
 20
64.33597380528356
 30
0.0
 10
109.5114776734791
 20
64.69525553708993
 30
0.0
 10
109.0352270170861
 20
64.89982171619111
 30
0.0
 10
108.7550324488933
 20
64.98061626454242
 30
0.0
 10
108.6898336641203
 20
64.99941643758919
 30
0.0
  0
LINE
  5
158
330
1F
100
AcDbEntity
  8
0
  6
Continuous
 62
     7
370
    25
100
AcDbLine
 10
108.6898336641
 20
64.9994164376
 30
0.0
 11
102.9100768143
 21
66.5680378781
 31
0.0
  0
SPLINE
  5
159
330
1F
100
AcDbEntity
  8
0
  6
Continuous
 62
     7
370
    25
100
AcDbSpline
210
0.0
220
0.0
230
1.0
 70
     8
 71
     3
 72
    11
 73
     7
 74
     0
 42
0.00000001
 43
0.00000001
 40
0.0
 40
0.0
 40
0.0
 40
0.0
 40
0.2488466353289361
 40
0.4976946020535204
 40
0.7488461225871278
 40
1.0
 40
1.0
 40
1.0
 40
1.0
 10
95.83968319202127
 20
67.89123837905758
 30
0.0
 10
96.43411924115753
 20
67.82171400256395
 30
0.0
 10
97.62299451982092
 20
67.68266487760278
 30
0.0
 10
99.39771919052998
 20
67.3823361394775
 30
0.0
 10
101.1642998322723
 20
67.02042652122233
 30
0.0
 10
102.328149333292
 20
66.71883456415777
 30
0.0
 10
102.910076814265
 20
66.56803787807208
 30
0.0
  0
LINE
  5
15A
330
1F
100
AcDbEntity
  8
0
  6
Continuous
 62
     7
370
    25
100
AcDbLine
 10
95.839683192
 20
67.8912383791
 30
0.0
 11
95.839683192
 21
71.1338062641
 31
0.0
  0
LINE
  5
15B
330
1F
100
AcDbEntity
  8
0
  6
Continuous
 62
     7
370
    25
100
AcDbLine
 10
95.839683192
 20
71.1338062641
 30
0.0
 11
114.3007839252
 21
71.133806264
 31
0.0
  0
LINE
  5
15C
330
1F
100
AcDbEntity
  8
0
  6
Continuous
 62
     7
370
    25
100
AcDbLine
 10
115.8591748031
 20
62.1390626861
 30
0.0
 11
111.5151200536
 21
62.1390626861
 31
0.0
  0
LINE
  5
15D
330
1F
100
AcDbEntity
  8
0
  6
Continuous
 62
     7
370
    25
100
AcDbLine
 10
116.0151200536
 20
62.1768796099
 30
0.0
 11
116.0083206956
 21
62.1390626861
 31
0.0
  0
LINE
  5
15E
330
1F
100
AcDbEntity
  8
0
  6
Continuous
 62
     7
370
    25
100
AcDbLine
 10
116.0151200536
 20
62.1390626861
 30
0.0
 11
116.0083206956
 21
62.1390626861
 31
0.0
  0
LINE
  5
15F
330
1F
100
AcDbEntity
  8
0
  6
Continuous
 62
     7
370
    25
100
AcDbLine
 10
116.0083206956
 20
62.1390626861
 30
0.0
 11
115.8591748031
 21
62.1390626861
 31
0.0
  0
LINE
  5
160
330
1F
100
AcDbEntity
  8
0
  6
Continuous
 62
     7
370
    25
100
AcDbLine
 10
78.0151200536
 20
80.1390626861
 30
0.0
 11
95.839683192
 21
80.1390626861
 31
0.0
  0
LINE
  5
161
330
1F
100
AcDbEntity
  8
0
  6
Continuous
 62
     7
370
    25
100
AcDbLine
 10
95.839683192
 20
80.1390626861
 30
0.0
 11
95.839683192
 21
71.1338062641
 31
0.0
  0
LINE
  5
162
330
1F
100
AcDbEntity
  8
0
  6
Continuous
 62
     7
370
    25
100
AcDbLine
 10
91.1234521958
 20
68.1390626861
 30
0.0
 11
83.0151200536
 21
68.1390626861
 31
0.0
  0
ARC
  5
163
330
1F
100
AcDbEntity
  8
0
  6
Continuous
 62
     7
370
    25
100
AcDbCircle
 10
83.0151200536
 20
73.1390626861
 30
0.0
 40
5.0
100
AcDbArc
 50
180.0
 51
270.0
  0
LINE
  5
164
330
1F
100
AcDbEntity
  8
0
  6
Continuous
 62
     7
370
    25
100
AcDbLine
 10
78.0151200536
 20
73.1390626861
 30
0.0
 11
78.0151200536
 21
80.1390626861
 31
0.0
  0
ARC
  5
165
330
1F
100
AcDbEntity
  8
0
  6
Continuous
 62
     7
370
    25
100
AcDbCircle
 10
91.1234521958
 20
23.1389334319
 30
0.0
 40
45.00012925418375
100
AcDbArc
 50
83.9840777705
 51
90.0
  0
LINE
  5
166
330
1F
100
AcDbEntity
  8
0
  6
Continuous
 62
     7
370
    25
100
AcDbLine
 10
95.839683192
 20
80.1390626861
 30
0.0
 11
98.0151200536
 21
80.1390626861
 31
0.0
  0
LINE
  5
167
330
1F
100
AcDbEntity
  8
0
  6
Continuous
 62
     7
370
    25
100
AcDbLine
 10
98.0151200536
 20
80.1390626861
 30
0.0
 11
98.0151200536
 21
78.1580182095
 31
0.0
  0
ARC
  5
168
330
1F
100
AcDbEntity
  8
0
  6
Continuous
 62
     7
370
    25
100
AcDbCircle
 10
104.0151200536
 20
78.1580182095
 30
0.0
 40
6.000000000000004
100
AcDbArc
 50
180.0
 51
275.5801667845
  0
ARC
  5
169
330
1F
100
AcDbEntity
  8
0
  6
Continuous
 62
     7
370
    25
100
AcDbCircle
 10
103.6261664893
 20
82.1390626861
 30
0.0
 40
10.00000000000846
100
AcDbArc
 50
275.5801667845
 51
336.4218215217
  0
LINE
  5
16A
330
1F
100
AcDbEntity
  8
0
  6
Continuous
 62
     7
370
    25
100
AcDbLine
 10
111.5151200536
 20
62.1390626861
 30
0.0
 11
111.0151200536
 21
62.1390626861
 31
0.0
  0
LINE
  5
16B
330
1F
100
AcDbEntity
  8
0
  6
Continuous
 62
     7
370
    25
100
AcDbLine
 10
112.7760347209
 20
78.139062686
 30
0.0
 11
112.7913178792
 21
78.1390626861
 31
0.0
  0
LINE
  5
16C
330
1F
100
AcDbEntity
  8
0
  6
Continuous
 62
     7
370
    25
100
AcDbLine
 10
80.922975786
 20
54.4655356359
 30
0.0
 11
80.922975786
 21
48.8125897362
 31
0.0
  0
SPLINE
  5
16D
330
1F
100
AcDbEntity
  8
0
  6
Continuous
 62
     7
370
    25
100
AcDbSpline
210
0.0
220
0.0
230
1.0
 70
     8
 71
     3
 72
    31
 73
    27
 74
     0
 42
0.00000001
 43
0.00000001
 40
0.0
 40
0.0
 40
0.0
 40
0.0
 40
0.0092737653996951
 40
0.0517144596247427
 40
0.0941824173065717
 40
0.1321043486213233
 40
0.1702164293201508
 40
0.2082076224059433
 40
0.2154703797268085
 40
0.2764858280235262
 40
0.337500499002567
 40
0.3848206517675878
 40
0.432045612493251
 40
0.4692145573111627
 40
0.5063445842924543
 40
0.5434323391516529
 40
0.580569397065742
 40
0.6303323407052992
 40
0.680187458063838
 40
0.7334670291010744
 40
0.7867378767966134
 40
0.8315821187683284
 40
0.876391400564418
 40
0.919067149873825
 40
0.9617077296850156
 40
1.0
 40
1.0
 40
1.0
 40
1.0
 10
112.1157716706362
 20
61.13850927793285
 30
0.0
 10
112.1165164822554
 20
61.13787820269955
 30
0.0
 10
112.1206698685825
 20
61.134359058828
 30
0.0
 10
112.1909513815434
 20
61.07443340214467
 30
0.0
 10
112.3822707020557
 20
60.91404312118411
 30
0.0
 10
112.6571921151601
 20
60.68774838012619
 30
0.0
 10
112.98960921531
 20
60.42237861898794
 30
0.0
 10
113.2766723680756
 20
60.20229984182252
 30
0.0
 10
113.6726197745317
 20
59.9085008720801
 30
0.0
 10
114.208239021807
 20
59.5280784931475
 30
0.0
 10
115.0239925084903
 20
59.03005401318774
 30
0.0
 10
115.8655516661972
 20
58.61793633386723
 30
0.0
 10
116.6489587361722
 20
58.3409371725927
 30
0.0
 10
117.421943580839
 20
58.18952002922101
 30
0.0
 10
118.1525338948249
 20
58.15137055793463
 30
0.0
 10
118.8772563481651
 20
58.23070244905439
 30
0.0
 10
119.6506259677108
 20
58.42320565686132
 30
0.0
 10
120.441020789983
 20
58.74036512609469
 30
0.0
 10
121.2378253364941
 20
59.16564366368136
 30
0.0
 10
121.965192444349
 20
59.62810437509317
 30
0.0
 10
122.5793982749708
 20
60.06851774599069
 30
0.0
 10
123.0728565216058
 20
60.44697694442143
 30
0.0
 10
123.4479247612574
 20
60.74874778347309
 30
0.0
 10
123.7181140091053
 20
60.97233757290495
 30
0.0
 10
123.8865742303831
 20
61.1148296937979
 30
0.0
 10
123.9019886042318
 20
61.12784849880249
 30
0.0
 10
123.9092817042429
 20
61.13400816820295
 30
0.0
  0
LINE
  5
16E
330
1F
100
AcDbEntity
  8
FORMAT
100
AcDbLine
 10
113.7159256832
 20
28.6572825368
 30
0.0
 11
113.3883700536
 21
39.1390626861
 31
0.0
  0
LINE
  5
16F
330
1F
100
AcDbEntity
  8
FORMAT
100
AcDbLine
 10
122.3143144239
 20
28.6572825368
 30
0.0
 11
122.6418700536
 21
39.1390626861
 31
0.0
  0
LINE
  5
170
330
1F
100
AcDbEntity
  8
FORMAT
100
AcDbLine
 10
123.0988075536
 20
39.1390626861
 30
0.0
 11
112.9314325536
 21
39.1390626861
 31
0.0
  0
LINE
  5
171
330
1F
100
AcDbEntity
  8
FORMAT
  6
CENTERX2
370
    18
100
AcDbLine
 10
131.6808511637
 20
51.6390626861
 30
0.0
 11
78.5151200536
 21
51.6390626861
 31
0.0
  0
LINE
  5
172
330
1F
100
AcDbEntity
  8
FORMAT
  6
CENTERX2
370
    18
100
AcDbLine
 10
118.0151200536
 20
26.1947446637
 30
0.0
 11
118.0151200536
 21
80.861643872
 31
0.0
  0
LINE
  5
173
330
1F
100
AcDbEntity
  8
0
  6
Continuous
 62
     7
370
    25
100
AcDbLine
 10
106.5151200536
 20
119.5140164089
 30
0.0
 11
103.7151200536
 21
119.5140164089
 31
0.0
  0
LINE
  5
174
330
1F
100
AcDbEntity
  8
0
  6
Continuous
 62
     7
370
    25
100
AcDbLine
 10
103.7151200536
 20
103.5140164089
 30
0.0
 11
106.5151200536
 21
103.5140164089
 31
0.0
  0
LINE
  5
175
330
1F
100
AcDbEntity
  8
0
  6
Continuous
 62
     7
370
    25
100
AcDbLine
 10
103.7151200536
 20
119.5140164089
 30
0.0
 11
103.5151200536
 21
119.3140164089
 31
0.0
  0
LINE
  5
176
330
1F
100
AcDbEntity
  8
0
  6
Continuous
 62
     7
370
    25
100
AcDbLine
 10
103.5151200536
 20
103.7140164089
 30
0.0
 11
103.7151200536
 21
103.5140164089
 31
0.0
  0
LINE
  5
177
330
1F
100
AcDbEntity
  8
0
  6
Continuous
 62
     7
370
    25
100
AcDbLine
 10
129.8707824863
 20
103.0140164089
 30
0.0
 11
130.0151200536
 21
103.2640164089
 31
0.0
  0
LINE
  5
178
330
1F
100
AcDbEntity
  8
0
  6
Continuous
 62
     7
370
    25
100
AcDbLine
 10
130.0151200536
 20
119.7640164089
 30
0.0
 11
129.8707824863
 21
120.0140164089
 31
0.0
  0
LINE
  5
179
330
1F
100
AcDbEntity
  8
0
  6
Continuous
 62
     7
370
    25
100
AcDbLine
 10
103.7151200536
 20
119.5140164089
 30
0.0
 11
103.7151200536
 21
115.492876507
 31
0.0
  0
LINE
  5
17A
330
1F
100
AcDbEntity
  8
0
  6
Continuous
 62
     7
370
    25
100
AcDbLine
 10
103.7151200536
 20
107.5351563108
 30
0.0
 11
103.7151200536
 21
103.5140164089
 31
0.0
  0
LINE
  5
17B
330
1F
100
AcDbEntity
  8
0
  6
Continuous
 62
     7
370
    25
100
AcDbLine
 10
103.5151200536
 20
103.7140164089
 30
0.0
 11
103.5151200536
 21
107.5592537931
 31
0.0
  0
LINE
  5
17C
330
1F
100
AcDbEntity
  8
0
  6
Continuous
 62
     7
370
    25
100
AcDbLine
 10
103.5151200536
 20
115.4687790246
 30
0.0
 11
103.5151200536
 21
119.3140164089
 31
0.0
  0
SPLINE
  5
17D
330
1F
100
AcDbEntity
  8
0
  6
Continuous
 62
     7
370
    25
100
AcDbSpline
210
0.0
220
0.0
230
1.0
 70
    24
 71
     3
 72
    10
 73
     6
 74
     0
 42
0.00000001
 43
0.00000001
 40
0.0
 40
0.0
 40
0.0
 40
0.0
 40
0.3696337818966975
 40
0.7423132455438426
 40
1.0
 40
1.0
 40
1.0
 40
1.0
 10
129.1930610810003
 20
103.0140164088591
 30
0.0
 10
129.334263636171
 20
103.0140164088591
 30
0.0
 10
129.6178322171323
 20
103.0140164088591
 30
0.0
 10
129.8369656747156
 20
103.0140164088591
 30
0.0
 10
129.8593565945343
 20
103.0140164088591
 30
0.0
 10
129.8685097554933
 20
103.0140164088591
 30
0.0
  0
SPLINE
  5
17E
330
1F
100
AcDbEntity
  8
0
  6
Continuous
 62
     7
370
    25
100
AcDbSpline
210
0.0
220
0.0
230
1.0
 70
     8
 71
     3
 72
    10
 73
     6
 74
     0
 42
0.00000001
 43
0.00000001
 40
0.0
 40
0.0
 40
0.0
 40
0.0
 40
0.5
 40
0.5
 40
1.0
 40
1.0
 40
1.0
 40
1.0
 10
129.1930610810003
 20
103.2640164088591
 30
0.0
 10
129.1693856865759
 20
103.1896360314817
 30
0.0
 10
129.1562945766913
 20
103.125335392696
 30
0.0
 10
129.156208255403
 20
103.037119707913
 30
0.0
 10
129.1693771893468
 20
103.0140164088591
 30
0.0
 10
129.1930610810003
 20
103.0140164088591
 30
0.0
  0
SPLINE
  5
17F
330
1F
100
AcDbEntity
  8
0
  6
Continuous
 62
     7
370
    25
100
AcDbSpline
210
0.0
220
0.0
230
1.0
 70
     8
 71
     3
 72
    16
 73
    12
 74
     0
 42
0.00000001
 43
0.00000001
 40
0.0
 40
0.0
 40
0.0
 40
0.0
 40
0.2500000000000001
 40
0.2500000000000001
 40
0.5000000000000001
 40
0.5000000000000001
 40
0.6250000000000001
 40
0.6250000000000001
 40
0.7500000000000002
 40
0.7500000000000002
 40
1.0
 40
1.0
 40
1.0
 40
1.0
 10
129.1930610810003
 20
111.2640164088591
 30
0.0
 10
129.4010765291061
 20
110.6104996288182
 30
0.0
 10
129.5712828340791
 20
109.9522792197283
 30
0.0
 10
129.8062188656467
 20
108.6227166363625
 30
0.0
 10
129.8702909973103
 20
107.9512926542919
 30
0.0
 10
129.8710239462313
 20
106.9322915672852
 30
0.0
 10
129.8553644661483
 20
106.590950784969
 30
0.0
 10
129.7940893395114
 20
105.9153522819986
 30
0.0
 10
129.7485330670122
 20
105.579693132034
 30
0.0
 10
129.5720470342559
 20
104.5784274955343
 30
0.0
 10
129.4013905807703
 20
103.9185198369311
 30
0.0
 10
129.1930610810003
 20
103.2640164088591
 30
0.0
  0
SPLINE
  5
180
330
1F
100
AcDbEntity
  8
0
  6
Continuous
 62
     7
370
    25
100
AcDbSpline
210
0.0
220
0.0
230
1.0
 70
     8
 71
     3
 72
    10
 73
     6
 74
     0
 42
0.00000001
 43
0.00000001
 40
0.0
 40
0.0
 40
0.0
 40
0.0
 40
0.5
 40
0.5
 40
1.0
 40
1.0
 40
1.0
 40
1.0
 10
129.1930610810003
 20
111.7640164088591
 30
0.0
 10
129.1693856865759
 20
111.6896360314817
 30
0.0
 10
129.1562945766913
 20
111.6025429433662
 30
0.0
 10
129.156208255403
 20
111.4263845544902
 30
0.0
 10
129.1693771893468
 20
111.3384234817623
 30
0.0
 10
129.1930610810003
 20
111.2640164088591
 30
0.0
  0
SPLINE
  5
181
330
1F
100
AcDbEntity
  8
0
  6
Continuous
 62
     7
370
    25
100
AcDbSpline
210
0.0
220
0.0
230
1.0
 70
     8
 71
     3
 72
    16
 73
    12
 74
     0
 42
0.00000001
 43
0.00000001
 40
0.0
 40
0.0
 40
0.0
 40
0.0
 40
0.2499999999999997
 40
0.2499999999999997
 40
0.4999999999999993
 40
0.4999999999999993
 40
0.6249999999999993
 40
0.6249999999999993
 40
0.7499999999999996
 40
0.7499999999999996
 40
1.0
 40
1.0
 40
1.0
 40
1.0
 10
129.1930610810003
 20
119.7640164088591
 30
0.0
 10
129.4010765291061
 20
119.1104996288183
 30
0.0
 10
129.5712828340791
 20
118.4522792197283
 30
0.0
 10
129.8062188656467
 20
117.1227166363625
 30
0.0
 10
129.8702909973103
 20
116.4512926542919
 30
0.0
 10
129.8710239462313
 20
115.4322915672852
 30
0.0
 10
129.8553644661483
 20
115.090950784969
 30
0.0
 10
129.7940893395114
 20
114.4153522819986
 30
0.0
 10
129.7485330670122
 20
114.079693132034
 30
0.0
 10
129.5720470342559
 20
113.0784274955343
 30
0.0
 10
129.4013905807703
 20
112.4185198369311
 30
0.0
 10
129.1930610810003
 20
111.7640164088591
 30
0.0
  0
SPLINE
  5
182
330
1F
100
AcDbEntity
  8
0
  6
Continuous
 62
     7
370
    25
100
AcDbSpline
210
0.0
220
0.0
230
1.0
 70
     8
 71
     3
 72
    10
 73
     6
 74
     0
 42
0.00000001
 43
0.00000001
 40
0.0
 40
0.0
 40
0.0
 40
0.0
 40
0.5
 40
0.5
 40
1.0
 40
1.0
 40
1.0
 40
1.0
 10
129.1930610810003
 20
120.0140164088591
 30
0.0
 10
129.1693856865759
 20
120.0140164088591
 30
0.0
 10
129.1562945766913
 20
119.9912239595293
 30
0.0
 10
129.156208255403
 20
119.9032812554362
 30
0.0
 10
129.1693771893468
 20
119.8384234817623
 30
0.0
 10
129.1930610810003
 20
119.7640164088591
 30
0.0
  0
SPLINE
  5
183
330
1F
100
AcDbEntity
  8
0
  6
Continuous
 62
     7
370
    25
100
AcDbSpline
210
0.0
220
0.0
230
1.0
 70
    24
 71
     3
 72
    10
 73
     6
 74
     0
 42
0.00000001
 43
0.00000001
 40
0.0
 40
0.0
 40
0.0
 40
0.0
 40
0.2576836639270042
 40
0.6270640248913933
 40
1.0
 40
1.0
 40
1.0
 40
1.0
 10
129.8671683598403
 20
120.0140164088591
 30
0.0
 10
129.8585655240336
 20
120.0140164088591
 30
0.0
 10
129.8376308292831
 20
120.0140164088591
 30
0.0
 10
129.6186665370647
 20
120.0140164088591
 30
0.0
 10
129.3353818672274
 20
120.0140164088591
 30
0.0
 10
129.1930610810003
 20
120.0140164088591
 30
0.0
  0
LINE
  5
184
330
1F
100
AcDbEntity
  8
0
  6
Continuous
 62
     7
370
    25
100
AcDbLine
 10
130.0151200536
 20
119.7640164089
 30
0.0
 11
130.0151200536
 21
103.2640164089
 31
0.0
  0
SPLINE
  5
185
330
1F
100
AcDbEntity
  8
0
  6
Continuous
 62
     7
370
    25
100
AcDbSpline
210
0.0
220
0.0
230
1.0
 70
     8
 71
     3
 72
    12
 73
     8
 74
     0
 42
0.00000001
 43
0.00000001
 40
0.0
 40
0.0
 40
0.0
 40
0.0
 40
0.0368906795622221
 40
0.2756931227449937
 40
0.5145252250500391
 40
0.7572427422656316
 40
0.9999999999999999
 40
0.9999999999999999
 40
0.9999999999999999
 40
0.9999999999999999
 10
124.0172881468113
 20
115.9225100407047
 30
0.0
 10
124.0178048322415
 20
115.9704198447768
 30
0.0
 10
124.0216661495559
 20
116.328461595471
 30
0.0
 10
124.0722326517691
 20
116.9961129474958
 30
0.0
 10
124.2107818329142
 20
117.9243482556781
 30
0.0
 10
124.4164129960403
 20
118.8488500527952
 30
0.0
 10
124.6006936095449
 20
119.4589443095861
 30
0.0
 10
124.6928414588181
 20
119.7640164088591
 30
0.0
  0
LINE
  5
186
330
1F
100
AcDbEntity
  8
0
  6
Continuous
 62
     7
370
    25
100
AcDbLine
 10
129.193061081
 20
119.7640164089
 30
0.0
 11
124.6928414588
 21
119.7640164089
 31
0.0
  0
SPLINE
  5
187
330
1F
100
AcDbEntity
  8
0
  6
Continuous
 62
     7
370
    25
100
AcDbSpline
210
0.0
220
0.0
230
1.0
 70
     8
 71
     3
 72
    12
 73
     8
 74
     0
 42
0.00000001
 43
0.00000001
 40
0.0
 40
0.0
 40
0.0
 40
0.0
 40
0.0896194757604246
 40
0.3155772328024781
 40
0.5415609811848052
 40
0.7707646682603534
 40
1.0
 40
1.0
 40
1.0
 40
1.0
 10
106.5184471124603
 20
115.9117716339971
 30
0.0
 10
106.5202398420235
 20
116.028485576493
 30
0.0
 10
106.5265525840912
 20
116.4394706072557
 30
0.0
 10
106.5906820419835
 20
117.1434099962754
 30
0.0
 10
106.7308675812888
 20
118.0224650135632
 30
0.0
 10
106.9303891784837
 20
118.8976013785905
 30
0.0
 10
107.1053533396237
 20
119.4751981088489
 30
0.0
 10
107.1928414588181
 20
119.7640164088591
 30
0.0
  0
LINE
  5
188
330
1F
100
AcDbEntity
  8
0
  6
Continuous
 62
     7
370
    25
100
AcDbLine
 10
111.3373986483
 20
119.7640164089
 30
0.0
 11
107.1928414588
 21
119.7640164089
 31
0.0
  0
SPLINE
  5
189
330
1F
100
AcDbEntity
  8
0
  6
Continuous
 62
     7
370
    25
100
AcDbSpline
210
0.0
220
0.0
230
1.0
 70
     8
 71
     3
 72
    10
 73
     6
 74
     0
 42
0.00000001
 43
0.00000001
 40
0.0
 40
0.0
 40
0.0
 40
0.0
 40
0.3648733179385557
 40
0.7296744522024446
 40
0.9999999999999999
 40
0.9999999999999999
 40
0.9999999999999999
 40
0.9999999999999999
 10
111.3373986482977
 20
119.7640164088591
 30
0.0
 10
111.4344687738812
 20
119.4397092975503
 30
0.0
 10
111.6285898214561
 20
118.7911592333074
 30
0.0
 10
111.8309476693091
 20
117.8884320127293
 30
0.0
 10
111.900815748402
 20
117.3082435527632
 30
0.0
 10
111.9305533224763
 20
117.0613010644441
 30
0.0
  0
SPLINE
  5
18A
330
1F
100
AcDbEntity
  8
0
  6
Continuous
 62
     7
370
    25
100
AcDbSpline
210
0.0
220
0.0
230
1.0
 70
     8
 71
     3
 72
    10
 73
     6
 74
     0
 42
0.00000001
 43
0.00000001
 40
0.0
 40
0.0
 40
0.0
 40
0.0
 40
0.312600045624558
 40
0.656271887848113
 40
0.9999999999999999
 40
0.9999999999999999
 40
0.9999999999999999
 40
0.9999999999999999
 10
111.9363895876362
 20
105.9632515249975
 30
0.0
 10
111.898146351484
 20
105.6783663948789
 30
0.0
 10
111.8178585807742
 20
105.0802791431984
 30
0.0
 10
111.6129106018276
 20
104.1792750141966
 30
0.0
 10
111.4292409778165
 20
103.569119259568
 30
0.0
 10
111.3373986482977
 20
103.2640164088591
 30
0.0
  0
LINE
  5
18B
330
1F
100
AcDbEntity
  8
0
  6
Continuous
 62
     7
370
    25
100
AcDbLine
 10
107.1928414588
 20
103.2640164089
 30
0.0
 11
111.3373986483
 21
103.2640164089
 31
0.0
  0
SPLINE
  5
18C
330
1F
100
AcDbEntity
  8
0
  6
Continuous
 62
     7
370
    25
100
AcDbSpline
210
0.0
220
0.0
230
1.0
 70
     8
 71
     3
 72
    11
 73
     7
 74
     0
 42
0.00000001
 43
0.00000001
 40
0.0
 40
0.0
 40
0.0
 40
0.0
 40
0.2569390914849037
 40
0.5138273521557217
 40
0.7751932808436395
 40
1.0
 40
1.0
 40
1.0
 40
1.0
 10
107.1928414588181
 20
103.2640164088591
 30
0.0
 10
107.0950801458407
 20
103.5882703338476
 30
0.0
 10
106.8995768602172
 20
104.2367140359719
 30
0.0
 10
106.68723984893
 20
105.2312692806598
 30
0.0
 10
106.5482383487619
 20
106.194048760492
 30
0.0
 10
106.5301145749532
 20
106.8280881061374
 30
0.0
 10
106.5217341237971
 20
107.1212685344125
 30
0.0
  0
LINE
  5
18D
330
1F
100
AcDbEntity
  8
0
  6
Continuous
 62
     7
370
    25
100
AcDbLine
 10
124.6928414588
 20
103.2640164089
 30
0.0
 11
129.193061081
 21
103.2640164089
 31
0.0
  0
SPLINE
  5
18E
330
1F
100
AcDbEntity
  8
0
  6
Continuous
 62
     7
370
    25
100
AcDbSpline
210
0.0
220
0.0
230
1.0
 70
     8
 71
     3
 72
    11
 73
     7
 74
     0
 42
0.00000001
 43
0.00000001
 40
0.0
 40
0.0
 40
0.0
 40
0.0
 40
0.25511933153387
 40
0.5101881922606863
 40
0.7697030081154335
 40
1.0
 40
1.0
 40
1.0
 40
1.0
 10
124.6928414588181
 20
103.264016408859
 30
0.0
 10
124.5950872385428
 20
103.5882707339946
 30
0.0
 10
124.3995981369202
 20
104.236715236334
 30
0.0
 10
124.1871541438124
 20
105.2312644454568
 30
0.0
 10
124.0472160673511
 20
106.2033085185272
 30
0.0
 10
124.029004822544
 20
106.8466603611602
 30
0.0
 10
124.0204423607345
 20
107.149147952804
 30
0.0
  0
LINE
  5
18F
330
1F
100
AcDbEntity
  8
0
  6
Continuous
 62
     7
370
    25
100
AcDbLine
 10
124.0151200536
 20
107.0978529155
 30
0.0
 11
124.0151200536
 21
104.0140164089
 31
0.0
  0
LINE
  5
190
330
1F
100
AcDbEntity
  8
0
  6
Continuous
 62
     7
370
    25
100
AcDbLine
 10
124.0151200536
 20
104.0140164089
 30
0.0
 11
112.0151200536
 21
104.0140164089
 31
0.0
  0
LINE
  5
191
330
1F
100
AcDbEntity
  8
0
  6
Continuous
 62
     7
370
    25
100
AcDbLine
 10
112.0151200536
 20
105.9692008049
 30
0.0
 11
112.0151200536
 21
104.0140164089
 31
0.0
  0
LINE
  5
192
330
1F
100
AcDbEntity
  8
0
  6
Continuous
 62
     7
370
    25
100
AcDbLine
 10
112.0151200536
 20
119.0140164089
 30
0.0
 11
112.0151200536
 21
117.0588320128
 31
0.0
  0
LINE
  5
193
330
1F
100
AcDbEntity
  8
0
  6
Continuous
 62
     7
370
    25
100
AcDbLine
 10
112.0151200536
 20
119.0140164089
 30
0.0
 11
124.0151200536
 21
119.0140164089
 31
0.0
  0
LINE
  5
194
330
1F
100
AcDbEntity
  8
0
  6
Continuous
 62
     7
370
    25
100
AcDbLine
 10
124.0151200536
 20
119.0140164089
 30
0.0
 11
124.0151200536
 21
115.9301799022
 31
0.0
  0
SPLINE
  5
195
330
1F
100
AcDbEntity
  8
0
  6
Continuous
 62
     7
370
    25
100
AcDbSpline
210
0.0
220
0.0
230
1.0
 70
     8
 71
     3
 72
     8
 73
     4
 74
     0
 42
0.00000001
 43
0.00000001
 40
0.0
 40
0.0
 40
0.0
 40
0.0
 40
1.0
 40
1.0
 40
1.0
 40
1.0
 10
111.4988839765788
 20
120.0140164088591
 30
0.0
 10
111.6725870527985
 20
119.6815049867236
 30
0.0
 10
111.8448892718612
 20
119.3481778868247
 30
0.0
 10
112.0151200535579
 20
119.0140164088591
 30
0.0
  0
SPLINE
  5
196
330
1F
100
AcDbEntity
  8
0
  6
Continuous
 62
     7
370
    25
100
AcDbSpline
210
0.0
220
0.0
230
1.0
 70
     8
 71
     3
 72
    10
 73
     6
 74
     0
 42
0.00000001
 43
0.00000001
 40
0.0
 40
0.0
 40
0.0
 40
0.0
 40
0.5
 40
0.5
 40
1.0
 40
1.0
 40
1.0
 40
1.0
 10
111.3373986483034
 20
120.0140164088591
 30
0.0
 10
111.3137232538791
 20
120.0140164088591
 30
0.0
 10
111.3006321439888
 20
119.9912239595296
 30
0.0
 10
111.3005458227004
 20
119.9032812554365
 30
0.0
 10
111.3137147566442
 20
119.8384234817625
 30
0.0
 10
111.3373986482977
 20
119.7640164088591
 30
0.0
  0
SPLINE
  5
197
330
1F
100
AcDbEntity
  8
0
  6
Continuous
 62
     7
370
    25
100
AcDbSpline
210
0.0
220
0.0
230
1.0
 70
    24
 71
     3
 72
     8
 73
     4
 74
     0
 42
0.00000001
 43
0.00000001
 40
0.0
 40
0.0
 40
0.0
 40
0.0
 40
1.0
 40
1.0
 40
1.0
 40
1.0
 10
111.4988839765787
 20
120.0140164088591
 30
0.0
 10
111.4479852596563
 20
120.0140164088591
 30
0.0
 10
111.3940511234057
 20
120.0140164088591
 30
0.0
 10
111.3373986482981
 20
120.0140164088591
 30
0.0
  0
SPLINE
  5
198
330
1F
100
AcDbEntity
  8
0
  6
Continuous
 62
     7
370
    25
100
AcDbSpline
210
0.0
220
0.0
230
1.0
 70
     8
 71
     3
 72
     8
 73
     4
 74
     0
 42
0.00000001
 43
0.00000001
 40
0.0
 40
0.0
 40
0.0
 40
0.0
 40
1.0
 40
1.0
 40
1.0
 40
1.0
 10
124.0151200535579
 20
119.0140164088591
 30
0.0
 10
124.1853976609016
 20
119.3482698051444
 30
0.0
 10
124.3576694095273
 20
119.6815362947133
 30
0.0
 10
124.531356130537
 20
120.0140164088588
 30
0.0
  0
SPLINE
  5
199
330
1F
100
AcDbEntity
  8
0
  6
Continuous
 62
     7
370
    25
100
AcDbSpline
210
0.0
220
0.0
230
1.0
 70
    24
 71
     3
 72
     8
 73
     4
 74
     0
 42
0.00000001
 43
0.00000001
 40
0.0
 40
0.0
 40
0.0
 40
0.0
 40
1.0
 40
1.0
 40
1.0
 40
1.0
 10
124.5313561305366
 20
120.0140164088591
 30
0.0
 10
124.5822523637918
 20
120.0140164088591
 30
0.0
 10
124.6361863187556
 20
120.0140164088591
 30
0.0
 10
124.6928414588181
 20
120.0140164088591
 30
0.0
  0
SPLINE
  5
19A
330
1F
100
AcDbEntity
  8
0
  6
Continuous
 62
     7
370
    25
100
AcDbSpline
210
0.0
220
0.0
230
1.0
 70
     8
 71
     3
 72
    10
 73
     6
 74
     0
 42
0.00000001
 43
0.00000001
 40
0.0
 40
0.0
 40
0.0
 40
0.0
 40
0.5
 40
0.5
 40
1.0
 40
1.0
 40
1.0
 40
1.0
 10
124.6928414588181
 20
119.7640164088591
 30
0.0
 10
124.7165168532425
 20
119.8383967862364
 30
0.0
 10
124.7296079631272
 20
119.9026974250222
 30
0.0
 10
124.7296942844154
 20
119.9909131098051
 30
0.0
 10
124.7165253504716
 20
120.0140164088591
 30
0.0
 10
124.6928414588181
 20
120.0140164088591
 30
0.0
  0
SPLINE
  5
19B
330
1F
100
AcDbEntity
  8
0
  6
Continuous
 62
     7
370
    25
100
AcDbSpline
210
0.0
220
0.0
230
1.0
 70
     8
 71
     3
 72
    10
 73
     6
 74
     0
 42
0.00000001
 43
0.00000001
 40
0.0
 40
0.0
 40
0.0
 40
0.0
 40
0.5
 40
0.5
 40
1.0
 40
1.0
 40
1.0
 40
1.0
 10
107.1928414588181
 20
120.0140164088591
 30
0.0
 10
107.2165153593741
 20
120.0140164088591
 30
0.0
 10
107.2296079165532
 20
119.9912258372116
 30
0.0
 10
107.2296943305355
 20
119.9032798399128
 30
0.0
 10
107.2165239389369
 20
119.83841904718
 30
0.0
 10
107.1928414588181
 20
119.7640164088591
 30
0.0
  0
SPLINE
  5
19C
330
1F
100
AcDbEntity
  8
0
  6
Continuous
 62
     7
370
    25
100
AcDbSpline
210
0.0
220
0.0
230
1.0
 70
    24
 71
     3
 72
    12
 73
     8
 74
     0
 42
0.00000001
 43
0.00000001
 40
0.0
 40
0.0
 40
0.0
 40
0.0
 40
0.2499999999999999
 40
0.2499999999999999
 40
0.4999999999999998
 40
0.4999999999999998
 40
1.0
 40
1.0
 40
1.0
 40
1.0
 10
106.5151200535579
 20
120.0140164088591
 30
0.0
 10
106.5151200535579
 20
120.0140164088591
 30
0.0
 10
106.531118858539
 20
120.0140164088591
 30
0.0
 10
106.5928889968534
 20
120.0140164088591
 30
0.0
 10
106.638631121155
 20
120.0140164088591
 30
0.0
 10
106.8153012685018
 20
120.0140164088591
 30
0.0
 10
106.9855563339821
 20
120.0140164088591
 30
0.0
 10
107.1928414588181
 20
120.0140164088591
 30
0.0
  0
LINE
  5
19D
330
1F
100
AcDbEntity
  8
0
  6
Continuous
 62
     7
370
    25
100
AcDbLine
 10
106.5151200536
 20
120.0140164089
 30
0.0
 11
106.5151200536
 21
115.8966626907
 31
0.0
  0
SPLINE
  5
19E
330
1F
100
AcDbEntity
  8
0
  6
Continuous
 62
     7
370
    25
100
AcDbSpline
210
0.0
220
0.0
230
1.0
 70
     8
 71
     3
 72
     8
 73
     4
 74
     0
 42
0.00000001
 43
0.00000001
 40
0.0
 40
0.0
 40
0.0
 40
0.0
 40
1.0
 40
1.0
 40
1.0
 40
1.0
 10
124.5313561305371
 20
103.014016408859
 30
0.0
 10
124.3576530543173
 20
103.3465278309945
 30
0.0
 10
124.1853508352546
 20
103.6798549308934
 30
0.0
 10
124.0151200535579
 20
104.0140164088591
 30
0.0
  0
SPLINE
  5
19F
330
1F
100
AcDbEntity
  8
0
  6
Continuous
 62
     7
370
    25
100
AcDbSpline
210
0.0
220
0.0
230
1.0
 70
     8
 71
     3
 72
    10
 73
     6
 74
     0
 42
0.00000001
 43
0.00000001
 40
0.0
 40
0.0
 40
0.0
 40
0.0
 40
0.5
 40
0.5
 40
1.0
 40
1.0
 40
1.0
 40
1.0
 10
124.6928414588181
 20
103.0140164088591
 30
0.0
 10
124.7165168532425
 20
103.0140164088591
 30
0.0
 10
124.7296079631272
 20
103.0368088581888
 30
0.0
 10
124.7296942844154
 20
103.1247515622819
 30
0.0
 10
124.7165253504716
 20
103.1896093359558
 30
0.0
 10
124.6928414588181
 20
103.264016408859
 30
0.0
  0
SPLINE
  5
1A0
330
1F
100
AcDbEntity
  8
0
  6
Continuous
 62
     7
370
    25
100
AcDbSpline
210
0.0
220
0.0
230
1.0
 70
    24
 71
     3
 72
     8
 73
     4
 74
     0
 42
0.00000001
 43
0.00000001
 40
0.0
 40
0.0
 40
0.0
 40
0.0
 40
1.0
 40
1.0
 40
1.0
 40
1.0
 10
124.5313561305371
 20
103.0140164088591
 30
0.0
 10
124.5822523637922
 20
103.0140164088591
 30
0.0
 10
124.6361863187558
 20
103.0140164088591
 30
0.0
 10
124.6928414588181
 20
103.0140164088591
 30
0.0
  0
SPLINE
  5
1A1
330
1F
100
AcDbEntity
  8
0
  6
Continuous
 62
     7
370
    25
100
AcDbSpline
210
0.0
220
0.0
230
1.0
 70
     8
 71
     3
 72
     8
 73
     4
 74
     0
 42
0.00000001
 43
0.00000001
 40
0.0
 40
0.0
 40
0.0
 40
0.0
 40
1.0
 40
1.0
 40
1.0
 40
1.0
 10
112.0151200535579
 20
104.0140164088591
 30
0.0
 10
111.8448424462142
 20
103.6797630125736
 30
0.0
 10
111.6725706975885
 20
103.3464965230046
 30
0.0
 10
111.4988839765788
 20
103.0140164088591
 30
0.0
  0
SPLINE
  5
1A2
330
1F
100
AcDbEntity
  8
0
  6
Continuous
 62
     7
370
    25
100
AcDbSpline
210
0.0
220
0.0
230
1.0
 70
    24
 71
     3
 72
     8
 73
     4
 74
     0
 42
0.00000001
 43
0.00000001
 40
0.0
 40
0.0
 40
0.0
 40
0.0
 40
1.0
 40
1.0
 40
1.0
 40
1.0
 10
111.4988839765788
 20
103.0140164088591
 30
0.0
 10
111.4479852596562
 20
103.0140164088591
 30
0.0
 10
111.3940511234055
 20
103.0140164088591
 30
0.0
 10
111.3373986482977
 20
103.0140164088591
 30
0.0
  0
SPLINE
  5
1A3
330
1F
100
AcDbEntity
  8
0
  6
Continuous
 62
     7
370
    25
100
AcDbSpline
210
0.0
220
0.0
230
1.0
 70
     8
 71
     3
 72
    10
 73
     6
 74
     0
 42
0.00000001
 43
0.00000001
 40
0.0
 40
0.0
 40
0.0
 40
0.0
 40
0.5
 40
0.5
 40
1.0
 40
1.0
 40
1.0
 40
1.0
 10
111.3373986482977
 20
103.2640164088591
 30
0.0
 10
111.3137232538734
 20
103.1896360314817
 30
0.0
 10
111.3006321439887
 20
103.125335392696
 30
0.0
 10
111.3005458227004
 20
103.037119707913
 30
0.0
 10
111.3137147566443
 20
103.0140164088591
 30
0.0
 10
111.3373986482977
 20
103.0140164088591
 30
0.0
  0
SPLINE
  5
1A4
330
1F
100
AcDbEntity
  8
0
  6
Continuous
 62
     7
370
    25
100
AcDbSpline
210
0.0
220
0.0
230
1.0
 70
     8
 71
     3
 72
    10
 73
     6
 74
     0
 42
0.00000001
 43
0.00000001
 40
0.0
 40
0.0
 40
0.0
 40
0.0
 40
0.5
 40
0.5
 40
1.0
 40
1.0
 40
1.0
 40
1.0
 10
107.1928414588181
 20
103.2640164088591
 30
0.0
 10
107.2165136987297
 20
103.1896459419335
 30
0.0
 10
107.2296076886649
 20
103.1253403456456
 30
0.0
 10
107.2296945561264
 20
103.0371175578398
 30
0.0
 10
107.216524766367
 20
103.0140164088591
 30
0.0
 10
107.1928414588181
 20
103.0140164088591
 30
0.0
  0
SPLINE
  5
1A5
330
1F
100
AcDbEntity
  8
0
  6
Continuous
 62
     7
370
    25
100
AcDbSpline
210
0.0
220
0.0
230
1.0
 70
    24
 71
     3
 72
    12
 73
     8
 74
     0
 42
0.00000001
 43
0.00000001
 40
0.0
 40
0.0
 40
0.0
 40
0.0
 40
0.2500000000000001
 40
0.2500000000000001
 40
0.5000000000000001
 40
0.5000000000000001
 40
1.0
 40
1.0
 40
1.0
 40
1.0
 10
106.5151200535579
 20
103.0140164088591
 30
0.0
 10
106.5151200535579
 20
103.0140164088591
 30
0.0
 10
106.531118858539
 20
103.0140164088591
 30
0.0
 10
106.5928889968534
 20
103.0140164088591
 30
0.0
 10
106.638631121155
 20
103.0140164088591
 30
0.0
 10
106.8153012685018
 20
103.0140164088591
 30
0.0
 10
106.9855563339821
 20
103.0140164088591
 30
0.0
 10
107.1928414588181
 20
103.0140164088591
 30
0.0
  0
LINE
  5
1A6
330
1F
100
AcDbEntity
  8
0
  6
Continuous
 62
     7
370
    25
100
AcDbLine
 10
106.5151200536
 20
103.0140164089
 30
0.0
 11
106.5151200536
 21
107.131370127
 31
0.0
  0
LINE
  5
1A7
330
1F
100
AcDbEntity
  8
0
  6
Continuous
 62
     7
370
    25
100
AcDbLine
 10
124.6928414588
 20
120.0140164089
 30
0.0
 11
129.193061081
 21
120.0140164089
 31
0.0
  0
LINE
  5
1A8
330
1F
100
AcDbEntity
  8
0
  6
Continuous
 62
     7
370
    25
100
AcDbLine
 10
107.1928414588
 20
120.0140164089
 30
0.0
 11
111.3373986483
 21
120.0140164089
 31
0.0
  0
LINE
  5
1A9
330
1F
100
AcDbEntity
  8
0
  6
Continuous
 62
     7
370
    25
100
AcDbLine
 10
129.193061081
 20
103.0140164089
 30
0.0
 11
124.6928414588
 21
103.0140164089
 31
0.0
  0
LINE
  5
1AA
330
1F
100
AcDbEntity
  8
0
  6
Continuous
 62
     7
370
    25
100
AcDbLine
 10
111.3373986483
 20
103.0140164089
 30
0.0
 11
107.1928414588
 21
103.0140164089
 31
0.0
  0
LINE
  5
1AB
330
1F
100
AcDbEntity
  8
0
  6
Continuous
 62
     7
370
    25
100
AcDbLine
 10
124.5313561305
 20
120.0140164089
 30
0.0
 11
111.4988839766
 21
120.0140164089
 31
0.0
  0
LINE
  5
1AC
330
1F
100
AcDbEntity
  8
0
  6
Continuous
 62
     7
370
    25
100
AcDbLine
 10
124.5313561305
 20
103.0140164089
 30
0.0
 11
111.4988839766
 21
103.0140164089
 31
0.0
  0
SPLINE
  5
1AD
330
1F
100
AcDbEntity
  8
0
  6
Continuous
 62
     7
370
    25
100
AcDbSpline
210
0.0
220
0.0
230
1.0
 70
     8
 71
     3
 72
    15
 73
    11
 74
     0
 42
0.00000001
 43
0.00000001
 40
0.0
 40
0.0
 40
0.0
 40
0.0
 40
0.0081667445812695
 40
0.3321939991490077
 40
0.4756279600585576
 40
0.68668309732849
 40
0.8457435502264807
 40
0.8967566214763126
 40
0.9909540928118029
 40
1.0
 40
1.0
 40
1.0
 40
1.0
 10
123.1141395671507
 20
112.764016408859
 30
0.0
 10
123.1146271012936
 20
112.7654538717981
 30
0.0
 10
123.1344582488257
 20
112.8239247297498
 30
0.0
 10
123.1627390288349
 20
112.9083499074693
 30
0.0
 10
123.2005683273238
 20
113.0229289794917
 30
0.0
 10
123.2271522238913
 20
113.1042998666883
 30
0.0
 10
123.2443220476462
 20
113.15731885869
 30
0.0
 10
123.2521390438627
 20
113.1815207905341
 30
0.0
 10
123.2541347302986
 20
113.1877104112003
 30
0.0
 10
123.2541996942494
 20
113.1879118066129
 30
0.0
 10
123.254205386216
 20
113.1879294523373
 30
0.0
  0
ARC
  5
1AE
330
1F
100
AcDbEntity
  8
0
  6
Continuous
 62
     7
370
    25
100
AcDbCircle
 10
118.0151200536
 20
111.5140164089
 30
0.0
 40
5.250000000000005
100
AcDbArc
 50
13.774146998
 51
166.225853002
  0
SPLINE
  5
1AF
330
1F
100
AcDbEntity
  8
0
  6
Continuous
 62
     7
370
    25
100
AcDbSpline
210
0.0
220
0.0
230
1.0
 70
     8
 71
     3
 72
    15
 73
    11
 74
     0
 42
0.00000001
 43
0.00000001
 40
0.0
 40
0.0
 40
0.0
 40
0.0
 40
0.0090459071881971
 40
0.1032433785236816
 40
0.1542564497735189
 40
0.3133169026715104
 40
0.5243720399414397
 40
0.6678060008509895
 40
0.9918332554187292
 40
1.0
 40
1.0
 40
1.0
 40
1.0
 10
112.7760347208998
 20
113.1879294523373
 30
0.0
 10
112.7760404128665
 20
113.1879118066129
 30
0.0
 10
112.7761053768173
 20
113.1877104112003
 30
0.0
 10
112.7781010632532
 20
113.1815207905341
 30
0.0
 10
112.7859180594696
 20
113.15731885869
 30
0.0
 10
112.8030878832246
 20
113.1042998666883
 30
0.0
 10
112.8296717797921
 20
113.0229289794917
 30
0.0
 10
112.8675010782809
 20
112.9083499074693
 30
0.0
 10
112.8957818582902
 20
112.8239247297498
 30
0.0
 10
112.9156130058223
 20
112.7654538717981
 30
0.0
 10
112.9161005399651
 20
112.764016408859
 30
0.0
  0
ARC
  5
1B0
330
1F
100
AcDbEntity
  8
0
  6
Continuous
 62
     7
370
    25
100
AcDbCircle
 10
118.0151200536
 20
111.5140164089
 30
0.0
 40
5.500000000000007
100
AcDbArc
 50
17.7189318734
 51
162.2810681266
  0
SPLINE
  5
1B1
330
1F
100
AcDbEntity
  8
0
  6
Continuous
 62
     7
370
    25
100
AcDbSpline
210
0.0
220
0.0
230
1.0
 70
     8
 71
     3
 72
    15
 73
    11
 74
     0
 42
0.00000001
 43
0.00000001
 40
0.0
 40
0.0
 40
0.0
 40
0.0
 40
0.0090459071881971
 40
0.1032433785236875
 40
0.1542564497735248
 40
0.313316902671511
 40
0.5243720399414434
 40
0.6678060008509189
 40
0.9918332554187028
 40
1.0
 40
1.0
 40
1.0
 40
1.0
 10
123.254205386216
 20
109.8401033653808
 30
0.0
 10
123.2541996942494
 20
109.8401210111053
 30
0.0
 10
123.2541347302986
 20
109.8403224065178
 30
0.0
 10
123.2521390438627
 20
109.846512027184
 30
0.0
 10
123.2443220476462
 20
109.8707139590281
 30
0.0
 10
123.2271522238913
 20
109.9237329510298
 30
0.0
 10
123.2005683273237
 20
110.0051038382264
 30
0.0
 10
123.1627390288351
 20
110.1196829102489
 30
0.0
 10
123.1344582488249
 20
110.204108087968
 30
0.0
 10
123.1146271012936
 20
110.26257894592
 30
0.0
 10
123.1141395671507
 20
110.2640164088591
 30
0.0
  0
ARC
  5
1B2
330
1F
100
AcDbEntity
  8
0
  6
Continuous
 62
     7
370
    25
100
AcDbCircle
 10
118.0151200536
 20
111.5140164089
 30
0.0
 40
5.500000000000011
100
AcDbArc
 50
197.7189318734
 51
342.2810681266
  0
SPLINE
  5
1B3
330
1F
100
AcDbEntity
  8
0
  6
Continuous
 62
     7
370
    25
100
AcDbSpline
210
0.0
220
0.0
230
1.0
 70
     8
 71
     3
 72
    15
 73
    11
 74
     0
 42
0.00000001
 43
0.00000001
 40
0.0
 40
0.0
 40
0.0
 40
0.0
 40
0.0081667445812973
 40
0.3321939991490813
 40
0.4756279600585592
 40
0.6866830973284899
 40
0.845743550226481
 40
0.8967566214763184
 40
0.9909540928118029
 40
1.0
 40
1.0
 40
1.0
 40
1.0
 10
112.9161005399651
 20
110.2640164088591
 30
0.0
 10
112.9156130058223
 20
110.26257894592
 30
0.0
 10
112.895781858291
 20
110.204108087968
 30
0.0
 10
112.8675010782808
 20
110.1196829102489
 30
0.0
 10
112.8296717797921
 20
110.0051038382264
 30
0.0
 10
112.8030878832246
 20
109.9237329510298
 30
0.0
 10
112.7859180594696
 20
109.8707139590281
 30
0.0
 10
112.7781010632532
 20
109.846512027184
 30
0.0
 10
112.7761053768173
 20
109.8403224065178
 30
0.0
 10
112.7760404128665
 20
109.8401210111053
 30
0.0
 10
112.7760347208998
 20
109.8401033653808
 30
0.0
  0
ARC
  5
1B4
330
1F
100
AcDbEntity
  8
0
  6
Continuous
 62
     7
370
    25
100
AcDbCircle
 10
118.0151200536
 20
111.5140164089
 30
0.0
 40
5.250000000000009
100
AcDbArc
 50
193.774146998
 51
346.225853002
  0
SPLINE
  5
1B5
330
1F
100
AcDbEntity
  8
0
  6
Continuous
 62
     7
370
    25
100
AcDbSpline
210
0.0
220
0.0
230
1.0
 70
     8
 71
     3
 72
    15
 73
    11
 74
     0
 42
0.00000001
 43
0.00000001
 40
0.0
 40
0.0
 40
0.0
 40
0.0
 40
0.0080847466189581
 40
0.3310106400648237
 40
0.4750333064304937
 40
0.6874363079215094
 40
0.8468367539418249
 40
0.9000996640391792
 40
0.9910442771984082
 40
1.0
 40
1.0
 40
1.0
 40
1.0
 10
123.1141395671507
 20
110.2640164088591
 30
0.0
 10
123.1154193986948
 20
110.2632004728708
 30
0.0
 10
123.1678190444181
 20
110.2297939226762
 30
0.0
 10
123.2431741358732
 20
110.1809803579424
 30
0.0
 10
123.3450932478908
 20
110.1136098856741
 30
0.0
 10
123.4174841928828
 20
110.0650258453307
 30
0.0
 10
123.4651896211476
 20
110.0325769838721
 30
0.0
 10
123.4867251048549
 20
110.0178659428058
 30
0.0
 10
123.4921541208744
 20
110.0141474918877
 30
0.0
 10
123.492329873031
 20
110.0140271932222
 30
0.0
 10
123.4923456286096
 20
110.0140164088591
 30
0.0
  0
ARC
  5
1B6
330
1F
100
AcDbEntity
  8
0
  6
Continuous
 62
     7
370
    25
100
AcDbCircle
 10
123.4923456286
 20
109.7640164089
 30
0.0
 40
0.25
100
AcDbArc
 50
90.0
 51
162.2810681266
  0
ARC
  5
1B7
330
1F
100
AcDbEntity
  8
0
  6
Continuous
 62
     7
370
    25
100
AcDbCircle
 10
112.5378944785
 20
113.2640164089
 30
0.0
 40
0.2500000000000034
100
AcDbArc
 50
270.0
 51
342.2810681266
  0
SPLINE
  5
1B8
330
1F
100
AcDbEntity
  8
0
  6
Continuous
 62
     7
370
    25
100
AcDbSpline
210
0.0
220
0.0
230
1.0
 70
     8
 71
     3
 72
    15
 73
    11
 74
     0
 42
0.00000001
 43
0.00000001
 40
0.0
 40
0.0
 40
0.0
 40
0.0
 40
0.0080847466189819
 40
0.3310106400647582
 40
0.4750333064304994
 40
0.6874363079215138
 40
0.8468367539418308
 40
0.9000996640391851
 40
0.9910442771984082
 40
1.0
 40
1.0
 40
1.0
 40
1.0
 10
112.9161005399651
 20
112.764016408859
 30
0.0
 10
112.914820708421
 20
112.7648323448473
 30
0.0
 10
112.8624210626972
 20
112.798238895041
 30
0.0
 10
112.7870659712428
 20
112.8470524597759
 30
0.0
 10
112.685146859225
 20
112.914422932044
 30
0.0
 10
112.6127559142331
 20
112.9630069723875
 30
0.0
 10
112.5650504859683
 20
112.995455833846
 30
0.0
 10
112.5435150022609
 20
113.0101668749123
 30
0.0
 10
112.5380859862414
 20
113.0138853258304
 30
0.0
 10
112.5379102340849
 20
113.0140056244959
 30
0.0
 10
112.5378944785063
 20
113.014016408859
 30
0.0
  0
ARC
  5
1B9
330
1F
100
AcDbEntity
  8
0
  6
Continuous
 62
     7
370
    25
100
AcDbCircle
 10
123.4923456286
 20
113.2640164089
 30
0.0
 40
0.25
100
AcDbArc
 50
197.7189318734
 51
270.0
  0
SPLINE
  5
1BA
330
1F
100
AcDbEntity
  8
0
  6
Continuous
 62
     7
370
    25
100
AcDbSpline
210
0.0
220
0.0
230
1.0
 70
     8
 71
     3
 72
    15
 73
    11
 74
     0
 42
0.00000001
 43
0.00000001
 40
0.0
 40
0.0
 40
0.0
 40
0.0
 40
0.0089557228015919
 40
0.0999003359608146
 40
0.1531632460581687
 40
0.3125636920784842
 40
0.5249666935695019
 40
0.668989359935245
 40
0.9919152533810159
 40
1.0
 40
1.0
 40
1.0
 40
1.0
 10
123.4923456286096
 20
113.014016408859
 30
0.0
 10
123.492329873031
 20
113.0140056244959
 30
0.0
 10
123.4921541208744
 20
113.0138853258304
 30
0.0
 10
123.4867251048549
 20
113.0101668749123
 30
0.0
 10
123.4651896211476
 20
112.995455833846
 30
0.0
 10
123.4174841928828
 20
112.9630069723875
 30
0.0
 10
123.3450932478909
 20
112.914422932044
 30
0.0
 10
123.2431741358731
 20
112.8470524597758
 30
0.0
 10
123.1678190444186
 20
112.7982388950411
 30
0.0
 10
123.1154193986949
 20
112.7648323448473
 30
0.0
 10
123.1141395671507
 20
112.764016408859
 30
0.0
  0
SPLINE
  5
1BB
330
1F
100
AcDbEntity
  8
0
  6
Continuous
 62
     7
370
    25
100
AcDbSpline
210
0.0
220
0.0
230
1.0
 70
     8
 71
     3
 72
    15
 73
    11
 74
     0
 42
0.00000001
 43
0.00000001
 40
0.0
 40
0.0
 40
0.0
 40
0.0
 40
0.0089557228015919
 40
0.0999003359608153
 40
0.1531632460581696
 40
0.3125636920784855
 40
0.5249666935695051
 40
0.6689893599351772
 40
0.991915253381045
 40
1.0
 40
1.0
 40
1.0
 40
1.0
 10
112.5378944785063
 20
110.0140164088591
 30
0.0
 10
112.5379102340849
 20
110.0140271932222
 30
0.0
 10
112.5380859862414
 20
110.0141474918877
 30
0.0
 10
112.5435150022609
 20
110.0178659428058
 30
0.0
 10
112.5650504859683
 20
110.0325769838721
 30
0.0
 10
112.6127559142331
 20
110.0650258453307
 30
0.0
 10
112.685146859225
 20
110.1136098856741
 30
0.0
 10
112.7870659712427
 20
110.1809803579424
 30
0.0
 10
112.8624210626977
 20
110.2297939226763
 30
0.0
 10
112.914820708421
 20
110.2632004728708
 30
0.0
 10
112.9161005399651
 20
110.2640164088591
 30
0.0
  0
ARC
  5
1BC
330
1F
100
AcDbEntity
  8
0
  6
Continuous
 62
     7
370
    25
100
AcDbCircle
 10
112.5378944785
 20
109.7640164089
 30
0.0
 40
0.2500000000000034
100
AcDbArc
 50
17.7189318734
 51
90.0
  0
LINE
  5
1BD
330
1F
100
AcDbEntity
  8
0
  6
Continuous
 62
     7
370
    25
100
AcDbLine
 10
123.0151200536
 20
112.1140164089
 30
0.0
 11
113.0151200536
 21
112.1140164089
 31
0.0
  0
LINE
  5
1BE
330
1F
100
AcDbEntity
  8
0
  6
Continuous
 62
     7
370
    25
100
AcDbLine
 10
113.0151200536
 20
110.9140164089
 30
0.0
 11
123.0151200536
 21
110.9140164089
 31
0.0
  0
LINE
  5
1BF
330
1F
100
AcDbEntity
  8
0
  6
Continuous
 62
     7
370
    25
100
AcDbLine
 10
113.0151200536
 20
112.1140164089
 30
0.0
 11
113.0151200536
 21
110.9140164089
 31
0.0
  0
LINE
  5
1C0
330
1F
100
AcDbEntity
  8
0
  6
Continuous
 62
     7
370
    25
100
AcDbLine
 10
123.0151200536
 20
110.9140164089
 30
0.0
 11
123.0151200536
 21
112.1140164089
 31
0.0
  0
LINE
  5
1C1
330
1F
100
AcDbEntity
  8
0
  6
Continuous
 62
     7
370
    25
100
AcDbLine
 10
123.7651200536
 20
112.7640164089
 30
0.0
 11
123.1141395672
 21
112.7640164089
 31
0.0
  0
LINE
  5
1C2
330
1F
100
AcDbEntity
  8
0
  6
Continuous
 62
     7
370
    25
100
AcDbLine
 10
123.7651200536
 20
110.2640164089
 30
0.0
 11
123.7651200536
 21
112.7640164089
 31
0.0
  0
LINE
  5
1C3
330
1F
100
AcDbEntity
  8
0
  6
Continuous
 62
     7
370
    25
100
AcDbLine
 10
123.1141395672
 20
110.2640164089
 30
0.0
 11
123.7651200536
 21
110.2640164089
 31
0.0
  0
LINE
  5
1C4
330
1F
100
AcDbEntity
  8
0
  6
Continuous
 62
     7
370
    25
100
AcDbLine
 10
112.2651200536
 20
110.2640164089
 30
0.0
 11
112.91610054
 21
110.2640164089
 31
0.0
  0
LINE
  5
1C5
330
1F
100
AcDbEntity
  8
0
  6
Continuous
 62
     7
370
    25
100
AcDbLine
 10
112.2651200536
 20
112.7640164089
 30
0.0
 11
112.2651200536
 21
110.2640164089
 31
0.0
  0
LINE
  5
1C6
330
1F
100
AcDbEntity
  8
0
  6
Continuous
 62
     7
370
    25
100
AcDbLine
 10
112.91610054
 20
112.7640164089
 30
0.0
 11
112.2651200536
 21
112.7640164089
 31
0.0
  0
LINE
  5
1C7
330
1F
100
AcDbEntity
  8
0
  6
Continuous
 62
     7
370
    25
100
AcDbLine
 10
123.7651200536
 20
112.7640164089
 30
0.0
 11
123.7651200536
 21
113.0140164089
 31
0.0
  0
LINE
  5
1C8
330
1F
100
AcDbEntity
  8
0
  6
Continuous
 62
     7
370
    25
100
AcDbLine
 10
123.4923456286
 20
113.0140164089
 30
0.0
 11
123.7651200536
 21
113.0140164089
 31
0.0
  0
LINE
  5
1C9
330
1F
100
AcDbEntity
  8
0
  6
Continuous
 62
     7
370
    25
100
AcDbLine
 10
112.2651200536
 20
113.0140164089
 30
0.0
 11
112.2651200536
 21
112.7640164089
 31
0.0
  0
LINE
  5
1CA
330
1F
100
AcDbEntity
  8
0
  6
Continuous
 62
     7
370
    25
100
AcDbLine
 10
112.2651200536
 20
113.0140164089
 30
0.0
 11
112.5378944785
 21
113.0140164089
 31
0.0
  0
ARC
  5
1CB
330
1F
100
AcDbEntity
  8
0
  6
Continuous
 62
     7
370
    25
100
AcDbCircle
 10
123.7651200536
 20
112.7640164089
 30
0.0
 40
0.25
100
AcDbArc
 50
0.0
 51
90.0
  0
LINE
  5
1CC
330
1F
100
AcDbEntity
  8
0
  6
Continuous
 62
     7
370
    25
100
AcDbLine
 10
124.0151200536
 20
112.7640164089
 30
0.0
 11
123.7651200536
 21
112.7640164089
 31
0.0
  0
LINE
  5
1CD
330
1F
100
AcDbEntity
  8
0
  6
Continuous
 62
     7
370
    25
100
AcDbLine
 10
112.2651200536
 20
112.7640164089
 30
0.0
 11
112.0151200536
 21
112.7640164089
 31
0.0
  0
ARC
  5
1CE
330
1F
100
AcDbEntity
  8
0
  6
Continuous
 62
     7
370
    25
100
AcDbCircle
 10
112.2651200536
 20
112.7640164089
 30
0.0
 40
0.25
100
AcDbArc
 50
90.0
 51
180.0
  0
LINE
  5
1CF
330
1F
100
AcDbEntity
  8
0
  6
Continuous
 62
     7
370
    25
100
AcDbLine
 10
124.0151200536
 20
112.7640164089
 30
0.0
 11
124.0151200536
 21
110.2640164089
 31
0.0
  0
LINE
  5
1D0
330
1F
100
AcDbEntity
  8
0
  6
Continuous
 62
     7
370
    25
100
AcDbLine
 10
123.7651200536
 20
110.2640164089
 30
0.0
 11
124.0151200536
 21
110.2640164089
 31
0.0
  0
LINE
  5
1D1
330
1F
100
AcDbEntity
  8
0
  6
Continuous
 62
     7
370
    25
100
AcDbLine
 10
112.0151200536
 20
110.2640164089
 30
0.0
 11
112.2651200536
 21
110.2640164089
 31
0.0
  0
LINE
  5
1D2
330
1F
100
AcDbEntity
  8
0
  6
Continuous
 62
     7
370
    25
100
AcDbLine
 10
112.0151200536
 20
110.2640164089
 30
0.0
 11
112.0151200536
 21
112.7640164089
 31
0.0
  0
LINE
  5
1D3
330
1F
100
AcDbEntity
  8
0
  6
Continuous
 62
     7
370
    25
100
AcDbLine
 10
123.7651200536
 20
110.0140164089
 30
0.0
 11
123.7651200536
 21
110.2640164089
 31
0.0
  0
LINE
  5
1D4
330
1F
100
AcDbEntity
  8
0
  6
Continuous
 62
     7
370
    25
100
AcDbLine
 10
123.7651200536
 20
110.0140164089
 30
0.0
 11
123.4923456286
 21
110.0140164089
 31
0.0
  0
LINE
  5
1D5
330
1F
100
AcDbEntity
  8
0
  6
Continuous
 62
     7
370
    25
100
AcDbLine
 10
112.5378944785
 20
110.0140164089
 30
0.0
 11
112.2651200536
 21
110.0140164089
 31
0.0
  0
LINE
  5
1D6
330
1F
100
AcDbEntity
  8
0
  6
Continuous
 62
     7
370
    25
100
AcDbLine
 10
112.2651200536
 20
110.2640164089
 30
0.0
 11
112.2651200536
 21
110.0140164089
 31
0.0
  0
ARC
  5
1D7
330
1F
100
AcDbEntity
  8
0
  6
Continuous
 62
     7
370
    25
100
AcDbCircle
 10
123.7651200536
 20
110.2640164089
 30
0.0
 40
0.25
100
AcDbArc
 50
270.0
 51
0.0
  0
ARC
  5
1D8
330
1F
100
AcDbEntity
  8
0
  6
Continuous
 62
     7
370
    25
100
AcDbCircle
 10
112.2651200536
 20
110.2640164089
 30
0.0
 40
0.25
100
AcDbArc
 50
180.0
 51
270.0
  0
LINE
  5
1D9
330
1F
100
AcDbEntity
  8
0
  6
Continuous
 62
     7
370
    25
100
AcDbLine
 10
98.0151200536
 20
114.7857156729
 30
0.0
 11
95.839683192
 21
115.0140164089
 31
0.0
  0
LINE
  5
1DA
330
1F
100
AcDbEntity
  8
0
  6
Continuous
 62
     7
370
    25
100
AcDbLine
 10
98.0151200536
 20
108.2423171448
 30
0.0
 11
98.0151200536
 21
114.7857156729
 31
0.0
  0
LINE
  5
1DB
330
1F
100
AcDbEntity
  8
0
  6
Continuous
 62
     7
370
    25
100
AcDbLine
 10
95.839683192
 20
108.0140164089
 30
0.0
 11
98.0151200536
 21
108.2423171448
 31
0.0
  0
LINE
  5
1DC
330
1F
100
AcDbEntity
  8
0
  6
Continuous
 62
     7
370
    25
100
AcDbLine
 10
78.0151200536
 20
108.0140164089
 30
0.0
 11
95.839683192
 21
108.0140164089
 31
0.0
  0
LINE
  5
1DD
330
1F
100
AcDbEntity
  8
0
  6
Continuous
 62
     7
370
    25
100
AcDbLine
 10
78.0151200536
 20
115.0140164089
 30
0.0
 11
78.0151200536
 21
108.0140164089
 31
0.0
  0
LINE
  5
1DE
330
1F
100
AcDbEntity
  8
0
  6
Continuous
 62
     7
370
    25
100
AcDbLine
 10
95.839683192
 20
115.0140164089
 30
0.0
 11
78.0151200536
 21
115.0140164089
 31
0.0
  0
LINE
  5
1DF
330
1F
100
AcDbEntity
  8
0
  6
Continuous
 62
     7
370
    25
100
AcDbLine
 10
112.7913178792
 20
113.2350308897
 30
0.0
 11
112.6629088405
 21
113.0508892562
 31
0.0
  0
LINE
  5
1E0
330
1F
100
AcDbEntity
  8
0
  6
Continuous
 62
     7
370
    25
100
AcDbLine
 10
112.6724761813
 20
109.9687987415
 30
0.0
 11
112.7913178792
 21
109.793001928
 31
0.0
  0
LINE
  5
1E1
330
1F
100
AcDbEntity
  8
0
  6
Continuous
 62
     7
370
    25
100
AcDbLine
 10
104.5985504
 20
114.0948190444
 30
0.0
 11
104.5985504
 21
108.9332137733
 31
0.0
  0
LINE
  5
1E2
330
1F
100
AcDbEntity
  8
0
  6
Continuous
 62
     7
370
    25
100
AcDbLine
 10
112.7913178792
 20
109.793001928
 30
0.0
 11
104.5985504
 21
108.9332137733
 31
0.0
  0
LINE
  5
1E3
330
1F
100
AcDbEntity
  8
0
  6
Continuous
 62
     7
370
    25
100
AcDbLine
 10
104.5985504
 20
114.0948190444
 30
0.0
 11
112.7913178792
 21
113.2350308897
 31
0.0
  0
LINE
  5
1E4
330
1F
100
AcDbEntity
  8
0
  6
Continuous
 62
     7
370
    25
100
AcDbLine
 10
104.5985504
 20
108.9332137733
 30
0.0
 11
98.0151200536
 21
108.2423171448
 31
0.0
  0
LINE
  5
1E5
330
1F
100
AcDbEntity
  8
0
  6
Continuous
 62
     7
370
    25
100
AcDbLine
 10
98.0151200536
 20
114.7857156729
 30
0.0
 11
104.5985504
 21
114.0948190444
 31
0.0
  0
ARC
  5
1E6
330
1F
100
AcDbEntity
  8
0
  6
Continuous
 62
     7
370
    25
100
AcDbCircle
 10
118.0151200536
 20
111.5140164089
 30
0.0
 40
7.45000000000065
100
AcDbArc
 50
233.0863788866
 51
126.9136211134
  0
ARC
  5
1E7
330
1F
100
AcDbEntity
  8
0
  6
Continuous
 62
     7
370
    25
100
AcDbCircle
 10
118.0151200536
 20
111.5140164089
 30
0.0
 40
7.207531252870791
100
AcDbArc
 50
195.3041237151
 51
238.9797515565
  0
ARC
  5
1E8
330
1F
100
AcDbEntity
  8
0
  6
Continuous
 62
     7
370
    25
100
AcDbCircle
 10
118.0151200536
 20
111.5140164089
 30
0.0
 40
7.20753125287244
100
AcDbArc
 50
121.0202484435
 51
164.6958762849
  0
ARC
  5
1E9
330
1F
100
AcDbEntity
  8
0
  6
Continuous
 62
     7
370
    25
100
AcDbCircle
 10
95.839683192
 20
180.0140164089
 30
0.0
 40
65.00000000000003
100
AcDbArc
 50
270.0
 51
286.5000949923
  0
ARC
  5
1EA
330
1F
100
AcDbEntity
  8
0
  6
Continuous
 62
     7
370
    25
100
AcDbCircle
 10
95.839683192
 20
43.0140164089
 30
0.0
 40
65.00000000000001
100
AcDbArc
 50
73.4999050077
 51
90.0
  0
LINE
  5
1EB
330
1F
100
AcDbEntity
  8
0
  6
Continuous
 62
     7
370
    25
100
AcDbLine
 10
129.193061081
 20
111.2640164089
 30
0.0
 11
125.4609242412
 21
111.2640164089
 31
0.0
  0
LINE
  5
1EC
330
1F
100
AcDbEntity
  8
0
  6
Continuous
 62
     7
370
    25
100
AcDbLine
 10
125.4609242412
 20
111.7640164089
 30
0.0
 11
129.193061081
 21
111.7640164089
 31
0.0
  0
INSERT
  5
1F8
330
1F
100
AcDbEntity
  8
FORMAT
100
AcDbBlockReference
  2
SW_CENTERMARKSYMBOL_0
 10
118.0151200536
 20
111.5140164089
 30
0.0
  0
SPLINE
  5
1F9
330
1F
100
AcDbEntity
  8
0
  6
Continuous
 62
     7
370
    25
100
AcDbSpline
210
0.0
220
0.0
230
1.0
 70
     8
 71
     3
 72
     9
 73
     5
 74
     0
 42
0.00000001
 43
0.00000001
 40
0.0
 40
0.0
 40
0.0
 40
0.0
 40
0.770768195654469
 40
1.0
 40
1.0
 40
1.0
 40
1.0
 10
168.5603559182549
 20
58.04029008767445
 30
0.0
 10
168.5535699980833
 20
58.0738435547642
 30
0.0
 10
168.5447658982127
 20
58.11737605555875
 30
0.0
 10
168.5483056607315
 20
58.16134976159097
 30
0.0
 10
168.5491170868807
 20
58.1714299335685
 30
0.0
  0
SPLINE
  5
1FA
330
1F
100
AcDbEntity
  8
0
  6
Continuous
 62
     7
370
    25
100
AcDbSpline
210
0.0
220
0.0
230
1.0
 70
     8
 71
     3
 72
     9
 73
     5
 74
     0
 42
0.00000001
 43
0.00000001
 40
0.0
 40
0.0
 40
0.0
 40
0.0
 40
0.5441454781312028
 40
1.0
 40
1.0
 40
1.0
 40
1.0
 10
156.745495222707
 20
58.17832550534893
 30
0.0
 10
156.7468739010015
 20
58.15339158109027
 30
0.0
 10
156.7494075585434
 20
58.10756941539979
 30
0.0
 10
156.7413062148895
 20
58.06244905513486
 30
0.0
 10
156.7376131807516
 20
58.04188073487975
 30
0.0
  0
LINE
  5
1FB
330
1F
100
AcDbEntity
  8
0
  6
Continuous
 62
     7
370
    25
100
AcDbLine
 10
168.5476070086
 20
58.1722889393
 30
0.0
 11
168.5476070086
 21
62.1390626861
 31
0.0
  0
LINE
  5
1FC
330
1F
100
AcDbEntity
  8
0
  6
Continuous
 62
     7
370
    25
100
AcDbLine
 10
156.7476070086
 20
62.1390626861
 30
0.0
 11
156.7476070086
 21
58.17759135
 31
0.0
  0
LINE
  5
1FD
330
1F
100
AcDbEntity
  8
0
  6
Continuous
 62
     7
370
    25
100
AcDbLine
 10
157.5482945086
 20
39.6390626861
 30
0.0
 11
157.8653273818
 21
29.4940107455
 31
0.0
  0
LINE
  5
1FE
330
1F
100
AcDbEntity
  8
0
  6
Continuous
 62
     7
370
    25
100
AcDbLine
 10
167.4298866355
 20
29.4940107455
 30
0.0
 11
167.7469195086
 21
39.6390626861
 31
0.0
  0
LINE
  5
1FF
330
1F
100
AcDbEntity
  8
0
  6
Continuous
 62
     7
370
    25
100
AcDbLine
 10
157.8653273818
 20
29.4940107455
 30
0.0
 11
158.6476070086
 21
28.1390626861
 31
0.0
  0
LINE
  5
200
330
1F
100
AcDbEntity
  8
0
  6
Continuous
 62
     7
370
    25
100
AcDbLine
 10
166.6476070086
 20
28.1390626861
 30
0.0
 11
167.4298866355
 21
29.4940107455
 31
0.0
  0
ARC
  5
201
330
1F
100
AcDbEntity
  8
0
  6
Continuous
 62
     7
370
    25
100
AcDbCircle
 10
157.3976070086
 20
78.7390626861
 30
0.0
 40
0.25
100
AcDbArc
 50
90.0
 51
180.0
  0
ARC
  5
202
330
1F
100
AcDbEntity
  8
0
  6
Continuous
 62
     7
370
    25
100
AcDbCircle
 10
167.8976070086
 20
78.7390626861
 30
0.0
 40
0.25
100
AcDbArc
 50
0.0
 51
90.0
  0
LINE
  5
203
330
1F
100
AcDbEntity
  8
0
  6
Continuous
 62
     7
370
    25
100
AcDbLine
 10
168.1476070086
 20
78.1390626861
 30
0.0
 11
168.1476070086
 21
78.7390626861
 31
0.0
  0
LINE
  5
204
330
1F
100
AcDbEntity
  8
0
  6
Continuous
 62
     7
370
    25
100
AcDbLine
 10
157.1476070086
 20
78.7390626861
 30
0.0
 11
157.1476070086
 21
78.1390626861
 31
0.0
  0
LINE
  5
205
330
1F
100
AcDbEntity
  8
0
  6
Continuous
 62
     7
370
    25
100
AcDbLine
 10
155.1976070086
 20
70.1390626861
 30
0.0
 11
155.6476070086
 21
62.1390626861
 31
0.0
  0
LINE
  5
206
330
1F
100
AcDbEntity
  8
0
  6
Continuous
 62
     7
370
    25
100
AcDbLine
 10
169.6476070086
 20
62.1390626861
 30
0.0
 11
170.0976070086
 21
70.1390626861
 31
0.0
  0
LINE
  5
207
330
1F
100
AcDbEntity
  8
0
  6
Continuous
 62
     7
370
    25
100
AcDbLine
 10
170.0976070086
 20
70.1390626861
 30
0.0
 11
168.1476070086
 21
78.1390626861
 31
0.0
  0
LINE
  5
208
330
1F
100
AcDbEntity
  8
0
  6
Continuous
 62
     7
370
    25
100
AcDbLine
 10
157.1476070086
 20
78.1390626861
 30
0.0
 11
155.1976070086
 21
70.1390626861
 31
0.0
  0
CIRCLE
  5
209
330
1F
100
AcDbEntity
  8
0
  6
Continuous
 62
     7
370
    25
100
AcDbCircle
 10
162.6476070086
 20
51.6390626861
 30
0.0
 40
8.25
  0
SPLINE
  5
20A
330
1F
100
AcDbEntity
  8
0
  6
Continuous
 62
     7
370
    25
100
AcDbSpline
210
0.0
220
0.0
230
1.0
 70
     8
 71
     3
 72
    10
 73
     6
 74
     0
 42
0.00000001
 43
0.00000001
 40
0.0
 40
0.0
 40
0.0
 40
0.0
 40
0.5
 40
0.5
 40
1.0
 40
1.0
 40
1.0
 40
1.0
 10
154.147607008615
 20
47.02026053256503
 30
0.0
 10
154.147607008615
 20
46.93437347076257
 30
0.0
 10
154.1703994579448
 20
46.84696626178243
 30
0.0
 10
154.2583421620378
 20
46.6943298191887
 30
0.0
 10
154.3231999357117
 20
46.63020677424312
 30
0.0
 10
154.397607008615
 20
46.58724783067282
 30
0.0
  0
SPLINE
  5
20B
330
1F
100
AcDbEntity
  8
0
  6
Continuous
 62
     7
370
    25
100
AcDbSpline
210
0.0
220
0.0
230
1.0
 70
    24
 71
     3
 72
    14
 73
    10
 74
     0
 42
0.00000001
 43
0.00000001
 40
0.0
 40
0.0
 40
0.0
 40
0.0
 40
0.25
 40
0.25
 40
0.5
 40
0.5
 40
0.75
 40
0.75
 40
1.0
 40
1.0
 40
1.0
 40
1.0
 10
154.147607008615
 20
47.02026053256499
 30
0.0
 10
154.147607008615
 20
47.77464059321497
 30
0.0
 10
154.147607008615
 20
48.54408176068046
 30
0.0
 10
154.147607008615
 20
50.08459312162162
 30
0.0
 10
154.147607008615
 20
50.85944750162865
 30
0.0
 10
154.147607008615
 20
52.4198084565142
 30
0.0
 10
154.147607008615
 20
53.21026464929923
 30
0.0
 10
154.147607008615
 20
54.7525443121077
 30
0.0
 10
154.147607008615
 20
55.50993506530889
 30
0.0
 10
154.147607008615
 20
56.25786483959905
 30
0.0
  0
SPLINE
  5
20C
330
1F
100
AcDbEntity
  8
0
  6
Continuous
 62
     7
370
    25
100
AcDbSpline
210
0.0
220
0.0
230
1.0
 70
     8
 71
     3
 72
    10
 73
     6
 74
     0
 42
0.00000001
 43
0.00000001
 40
0.0
 40
0.0
 40
0.0
 40
0.0
 40
0.5
 40
0.5
 40
1.0
 40
1.0
 40
1.0
 40
1.0
 10
154.397607008615
 20
56.69087754149127
 30
0.0
 10
154.3232266312376
 20
56.64793401059004
 30
0.0
 10
154.2589259924519
 20
56.58449156596591
 30
0.0
 10
154.1707103076689
 20
56.43201272884694
 30
0.0
 10
154.147607008615
 20
56.34378272673967
 30
0.0
 10
154.147607008615
 20
56.25786483959905
 30
0.0
  0
SPLINE
  5
20D
330
1F
100
AcDbEntity
  8
0
  6
Continuous
 62
     7
370
    25
100
AcDbSpline
210
0.0
220
0.0
230
1.0
 70
    24
 71
     3
 72
    16
 73
    12
 74
     0
 42
0.00000001
 43
0.00000001
 40
0.0
 40
0.0
 40
0.0
 40
0.0
 40
0.2500000000000001
 40
0.2500000000000001
 40
0.5000000000000001
 40
0.5000000000000001
 40
0.6250000000000001
 40
0.6250000000000001
 40
0.7500000000000002
 40
0.7500000000000002
 40
1.0
 40
1.0
 40
1.0
 40
1.0
 10
162.397607008615
 20
61.30967969500827
 30
0.0
 10
161.7440902285742
 20
60.93237160613177
 30
0.0
 10
161.0858698194842
 20
60.55234787575758
 30
0.0
 10
159.7563072361184
 20
59.78472456034688
 30
0.0
 10
159.0848832540478
 20
59.39707774355809
 30
0.0
 10
158.0658821670411
 20
58.80875719167024
 30
0.0
 10
157.7245413847249
 20
58.61168399911459
 30
0.0
 10
157.0489428817545
 20
58.22162702156049
 30
0.0
 10
156.7132837317899
 20
58.02783412097245
 30
0.0
 10
155.7120180952902
 20
57.44975313620903
 30
0.0
 10
155.052110436687
 20
57.0687552718742
 30
0.0
 10
154.397607008615
 20
56.69087754149127
 30
0.0
  0
SPLINE
  5
20E
330
1F
100
AcDbEntity
  8
0
  6
Continuous
 62
     7
370
    25
100
AcDbSpline
210
0.0
220
0.0
230
1.0
 70
     8
 71
     3
 72
    10
 73
     6
 74
     0
 42
0.00000001
 43
0.00000001
 40
0.0
 40
0.0
 40
0.0
 40
0.0
 40
0.5
 40
0.5
 40
1.0
 40
1.0
 40
1.0
 40
1.0
 10
162.897607008615
 20
61.30967969500827
 30
0.0
 10
162.8232266312376
 20
61.3526232259095
 30
0.0
 10
162.7361335431221
 20
61.37658799026548
 30
0.0
 10
162.559975154246
 20
61.37674559574027
 30
0.0
 10
162.4720140815182
 20
61.35263863857859
 30
0.0
 10
162.397607008615
 20
61.30967969500828
 30
0.0
  0
SPLINE
  5
20F
330
1F
100
AcDbEntity
  8
0
  6
Continuous
 62
     7
370
    25
100
AcDbSpline
210
0.0
220
0.0
230
1.0
 70
    24
 71
     3
 72
    16
 73
    12
 74
     0
 42
0.00000001
 43
0.00000001
 40
0.0
 40
0.0
 40
0.0
 40
0.0
 40
0.2499999999999997
 40
0.2499999999999997
 40
0.4999999999999993
 40
0.4999999999999993
 40
0.6249999999999993
 40
0.6249999999999993
 40
0.7499999999999996
 40
0.7499999999999996
 40
1.0
 40
1.0
 40
1.0
 40
1.0
 10
170.897607008615
 20
56.69087754149127
 30
0.0
 10
170.2440902285742
 20
57.06818563036776
 30
0.0
 10
169.5858698194842
 20
57.44820936074196
 30
0.0
 10
168.2563072361184
 20
58.21583267615266
 30
0.0
 10
167.5848832540479
 20
58.60347949294147
 30
0.0
 10
166.5658821670411
 20
59.19180004482931
 30
0.0
 10
166.2245413847249
 20
59.38887323738496
 30
0.0
 10
165.5489428817545
 20
59.77893021493905
 30
0.0
 10
165.2132837317899
 20
59.9727231155271
 30
0.0
 10
164.2120180952902
 20
60.55080410029053
 30
0.0
 10
163.552110436687
 20
60.93180196462534
 30
0.0
 10
162.897607008615
 20
61.30967969500827
 30
0.0
  0
SPLINE
  5
210
330
1F
100
AcDbEntity
  8
0
  6
Continuous
 62
     7
370
    25
100
AcDbSpline
210
0.0
220
0.0
230
1.0
 70
     8
 71
     3
 72
    10
 73
     6
 74
     0
 42
0.00000001
 43
0.00000001
 40
0.0
 40
0.0
 40
0.0
 40
0.0
 40
0.5
 40
0.5
 40
1.0
 40
1.0
 40
1.0
 40
1.0
 10
171.147607008615
 20
56.25786483959905
 30
0.0
 10
171.147607008615
 20
56.3437519014015
 30
0.0
 10
171.1248145592852
 20
56.43115911038161
 30
0.0
 10
171.0368718551921
 20
56.58379555297537
 30
0.0
 10
170.9720140815182
 20
56.64791859792096
 30
0.0
 10
170.897607008615
 20
56.69087754149127
 30
0.0
  0
SPLINE
  5
211
330
1F
100
AcDbEntity
  8
0
  6
Continuous
 62
     7
370
    25
100
AcDbSpline
210
0.0
220
0.0
230
1.0
 70
    24
 71
     3
 72
    14
 73
    10
 74
     0
 42
0.00000001
 43
0.00000001
 40
0.0
 40
0.0
 40
0.0
 40
0.0
 40
0.25
 40
0.25
 40
0.5
 40
0.5
 40
0.75
 40
0.75
 40
1.0
 40
1.0
 40
1.0
 40
1.0
 10
171.147607008615
 20
47.02026053256498
 30
0.0
 10
171.147607008615
 20
47.77464059321495
 30
0.0
 10
171.147607008615
 20
48.54408176068046
 30
0.0
 10
171.147607008615
 20
50.08459312162162
 30
0.0
 10
171.147607008615
 20
50.85944750162864
 30
0.0
 10
171.147607008615
 20
52.4198084565142
 30
0.0
 10
171.147607008615
 20
53.21026464929923
 30
0.0
 10
171.147607008615
 20
54.7525443121077
 30
0.0
 10
171.147607008615
 20
55.50993506530889
 30
0.0
 10
171.147607008615
 20
56.25786483959905
 30
0.0
  0
SPLINE
  5
212
330
1F
100
AcDbEntity
  8
0
  6
Continuous
 62
     7
370
    25
100
AcDbSpline
210
0.0
220
0.0
230
1.0
 70
     8
 71
     3
 72
    10
 73
     6
 74
     0
 42
0.00000001
 43
0.00000001
 40
0.0
 40
0.0
 40
0.0
 40
0.0
 40
0.5
 40
0.5
 40
1.0
 40
1.0
 40
1.0
 40
1.0
 10
170.897607008615
 20
46.58724783067282
 30
0.0
 10
170.9719873859921
 20
46.63019136157394
 30
0.0
 10
171.0362880247776
 20
46.69363380619762
 30
0.0
 10
171.1245037095609
 20
46.84611264331674
 30
0.0
 10
171.147607008615
 20
46.93434264542422
 30
0.0
 10
171.147607008615
 20
47.020260532565
 30
0.0
  0
SPLINE
  5
213
330
1F
100
AcDbEntity
  8
0
  6
Continuous
 62
     7
370
    25
100
AcDbSpline
210
0.0
220
0.0
230
1.0
 70
    24
 71
     3
 72
    16
 73
    12
 74
     0
 42
0.00000001
 43
0.00000001
 40
0.0
 40
0.0
 40
0.0
 40
0.0
 40
0.2500000000000002
 40
0.2500000000000002
 40
0.5000000000000004
 40
0.5000000000000004
 40
0.6250000000000003
 40
0.6250000000000003
 40
0.7500000000000002
 40
0.7500000000000002
 40
1.0
 40
1.0
 40
1.0
 40
1.0
 10
162.897607008615
 20
41.96844567715581
 30
0.0
 10
163.5511237886557
 20
42.34575376603227
 30
0.0
 10
164.2093441977456
 20
42.72577749640645
 30
0.0
 10
165.5389067811113
 20
43.49340081181709
 30
0.0
 10
166.2103307631818
 20
43.88104762860586
 30
0.0
 10
167.2293318501885
 20
44.46936818049365
 30
0.0
 10
167.5706726325046
 20
44.66644137304928
 30
0.0
 10
168.246271135475
 20
45.05649835060336
 30
0.0
 10
168.5819302854396
 20
45.25029125119138
 30
0.0
 10
169.5831959219393
 20
45.82837223595476
 30
0.0
 10
170.2431035805424
 20
46.20937010028955
 30
0.0
 10
170.8976070086144
 20
46.58724783067246
 30
0.0
  0
SPLINE
  5
214
330
1F
100
AcDbEntity
  8
0
  6
Continuous
 62
     7
370
    25
100
AcDbSpline
210
0.0
220
0.0
230
1.0
 70
     8
 71
     3
 72
    10
 73
     6
 74
     0
 42
0.00000001
 43
0.00000001
 40
0.0
 40
0.0
 40
0.0
 40
0.0
 40
0.5
 40
0.5
 40
1.0
 40
1.0
 40
1.0
 40
1.0
 10
162.397607008615
 20
41.96844567715581
 30
0.0
 10
162.4719873859923
 20
41.92550214625457
 30
0.0
 10
162.5590804741079
 20
41.90153738189859
 30
0.0
 10
162.7352388629839
 20
41.90137977642381
 30
0.0
 10
162.8231999357117
 20
41.92548673358549
 30
0.0
 10
162.897607008615
 20
41.96844567715581
 30
0.0
  0
SPLINE
  5
215
330
1F
100
AcDbEntity
  8
0
  6
Continuous
 62
     7
370
    25
100
AcDbSpline
210
0.0
220
0.0
230
1.0
 70
    24
 71
     3
 72
    16
 73
    12
 74
     0
 42
0.00000001
 43
0.00000001
 40
0.0
 40
0.0
 40
0.0
 40
0.0
 40
0.2500000000000001
 40
0.2500000000000001
 40
0.5000000000000002
 40
0.5000000000000002
 40
0.6250000000000001
 40
0.6250000000000001
 40
0.7500000000000001
 40
0.7500000000000001
 40
1.0
 40
1.0
 40
1.0
 40
1.0
 10
154.397607008615
 20
46.58724783067282
 30
0.0
 10
155.0511237886558
 20
46.20993974179632
 30
0.0
 10
155.7093441977457
 20
45.82991601142211
 30
0.0
 10
157.0389067811115
 20
45.06229269601142
 30
0.0
 10
157.7103307631821
 20
44.67464587922262
 30
0.0
 10
158.7293318501888
 20
44.08632532733477
 30
0.0
 10
159.070672632505
 20
43.88925213477912
 30
0.0
 10
159.7462711354754
 20
43.49919515722502
 30
0.0
 10
160.0819302854401
 20
43.30540225663699
 30
0.0
 10
161.0831959219398
 20
42.72732127187356
 30
0.0
 10
161.7431035805429
 20
42.34632340753874
 30
0.0
 10
162.397607008615
 20
41.96844567715581
 30
0.0
  0
SPLINE
  5
216
330
1F
100
AcDbEntity
  8
0
  6
Continuous
 62
     7
370
    25
100
AcDbSpline
210
0.0
220
0.0
230
1.0
 70
     8
 71
     3
 72
    10
 73
     6
 74
     0
 42
0.00000001
 43
0.00000001
 40
0.0
 40
0.0
 40
0.0
 40
0.0
 40
0.5
 40
0.5
 40
1.0
 40
1.0
 40
1.0
 40
1.0
 10
162.397607008615
 20
40.31678409134223
 30
0.0
 10
162.471981762605
 20
40.34045769583334
 30
0.0
 10
162.5590754941709
 20
40.35355047162658
 30
0.0
 10
162.7352413227154
 20
40.35363703972752
 30
0.0
 10
162.8232023466057
 20
40.34046721560425
 30
0.0
 10
162.897607008615
 20
40.31678409134223
 30
0.0
  0
SPLINE
  5
217
330
1F
100
AcDbEntity
  8
0
  6
Continuous
 62
     7
370
    25
100
AcDbSpline
210
0.0
220
0.0
230
1.0
 70
     8
 71
     3
 72
    12
 73
     8
 74
     0
 42
0.00000001
 43
0.00000001
 40
0.0
 40
0.0
 40
0.0
 40
0.0
 40
0.2500000000000002
 40
0.2500000000000002
 40
0.5000000000000001
 40
0.5000000000000001
 40
1.0
 40
1.0
 40
1.0
 40
1.0
 10
166.897607008615
 20
39.63906268608203
 30
0.0
 10
166.5598510735922
 20
39.63906268608203
 30
0.0
 10
166.2194430587137
 20
39.65480901610399
 30
0.0
 10
165.5449483743133
 20
39.71625404068942
 30
0.0
 10
165.209823055446
 20
39.76184279994315
 30
0.0
 10
164.2101117371059
 20
39.93829380219975
 30
0.0
 10
163.5511776340406
 20
40.10875150416324
 30
0.0
 10
162.897607008615
 20
40.31678409134208
 30
0.0
  0
LINE
  5
218
330
1F
100
AcDbEntity
  8
0
  6
Continuous
 62
     7
370
    25
100
AcDbLine
 10
158.3976070086
 20
39.6390626861
 30
0.0
 11
166.8976070086
 21
39.6390626861
 31
0.0
  0
SPLINE
  5
219
330
1F
100
AcDbEntity
  8
0
  6
Continuous
 62
     7
370
    25
100
AcDbSpline
210
0.0
220
0.0
230
1.0
 70
     8
 71
     3
 72
    10
 73
     6
 74
     0
 42
0.00000001
 43
0.00000001
 40
0.0
 40
0.0
 40
0.0
 40
0.0
 40
0.5
 40
0.5
 40
1.0
 40
1.0
 40
1.0
 40
1.0
 10
162.397607008615
 20
40.31678409134176
 30
0.0
 10
161.7415942420099
 20
40.1079741666755
 30
0.0
 10
161.0813273351522
 20
39.93744002692824
 30
0.0
 10
159.7489808165172
 20
39.70265422190933
 30
0.0
 10
159.0768278350299
 20
39.63906268608203
 30
0.0
 10
158.397607008615
 20
39.63906268608203
 30
0.0
  0
LINE
  5
21A
330
1F
100
AcDbEntity
  8
0
  6
Continuous
 62
     7
370
    25
100
AcDbLine
 10
162.8976070086
 20
41.9684456772
 30
0.0
 11
162.8976070086
 21
40.3167840913
 31
0.0
  0
LINE
  5
21B
330
1F
100
AcDbEntity
  8
0
  6
Continuous
 62
     7
370
    25
100
AcDbLine
 10
162.3976070086
 20
40.3167840913
 30
0.0
 11
162.3976070086
 21
41.9684456772
 31
0.0
  0
SPLINE
  5
21C
330
1F
100
AcDbEntity
  8
0
  6
Continuous
 62
     7
370
    25
100
AcDbSpline
210
0.0
220
0.0
230
1.0
 70
     8
 71
     3
 72
    12
 73
     8
 74
     0
 42
0.00000001
 43
0.00000001
 40
0.0
 40
0.0
 40
0.0
 40
0.0
 40
0.2499999999999998
 40
0.2499999999999998
 40
0.4999999999999996
 40
0.4999999999999996
 40
1.0
 40
1.0
 40
1.0
 40
1.0
 10
158.397607008615
 20
39.63906268608203
 30
0.0
 10
158.0598510735922
 20
39.63906268608203
 30
0.0
 10
157.7194430587137
 20
39.65480901610399
 30
0.0
 10
157.0449483743133
 20
39.71625404068941
 30
0.0
 10
156.709823055446
 20
39.76184279994315
 30
0.0
 10
155.7101117371059
 20
39.93829380219975
 30
0.0
 10
155.0511776340406
 20
40.10875150416324
 30
0.0
 10
154.3976070086149
 20
40.31678409134208
 30
0.0
  0
LINE
  5
21D
330
1F
100
AcDbEntity
  8
0
  6
Continuous
 62
     7
370
    25
100
AcDbLine
 10
154.3976070086
 20
43.6726661462
 30
0.0
 11
154.3976070086
 21
40.3167840913
 31
0.0
  0
SPLINE
  5
21E
330
1F
100
AcDbEntity
  8
0
  6
Continuous
 62
     7
370
    25
100
AcDbSpline
210
0.0
220
0.0
230
1.0
 70
     8
 71
     3
 72
    10
 73
     6
 74
     0
 42
0.00000001
 43
0.00000001
 40
0.0
 40
0.0
 40
0.0
 40
0.0
 40
0.5
 40
0.5
 40
1.0
 40
1.0
 40
1.0
 40
1.0
 10
154.3976070086154
 20
43.67266614622719
 30
0.0
 10
155.0324347144291
 20
43.87473283177811
 30
0.0
 10
155.6717004170049
 20
44.04112560404876
 30
0.0
 10
156.9625153485948
 20
44.27517257791881
 30
0.0
 10
157.6141349840646
 20
44.34226083187764
 30
0.0
 10
158.2731769158847
 20
44.34968650144742
 30
0.0
  0
SPLINE
  5
21F
330
1F
100
AcDbEntity
  8
0
  6
Continuous
 62
     7
370
    25
100
AcDbSpline
210
0.0
220
0.0
230
1.0
 70
     8
 71
     3
 72
    12
 73
     8
 74
     0
 42
0.00000001
 43
0.00000001
 40
0.0
 40
0.0
 40
0.0
 40
0.0
 40
0.2499999999999999
 40
0.2499999999999999
 40
0.4999999999999998
 40
0.4999999999999998
 40
1.0
 40
1.0
 40
1.0
 40
1.0
 10
167.0220371013673
 20
44.34968650144717
 30
0.0
 10
167.3511720917605
 20
44.34597801559075
 30
0.0
 10
167.6806342446972
 20
44.32739551275307
 30
0.0
 10
168.3335078627549
 20
44.26252847578692
 30
0.0
 10
168.657960454632
 20
44.21626292253665
 30
0.0
 10
169.6260208958241
 20
44.04053839222969
 30
0.0
 10
170.264343380072
 20
43.87423498345294
 30
0.0
 10
170.897607008615
 20
43.67266614622704
 30
0.0
  0
LINE
  5
220
330
1F
100
AcDbEntity
  8
0
  6
Continuous
 62
     7
370
    25
100
AcDbLine
 10
170.8976070086
 20
40.3167840913
 30
0.0
 11
170.8976070086
 21
43.6726661462
 31
0.0
  0
SPLINE
  5
221
330
1F
100
AcDbEntity
  8
0
  6
Continuous
 62
     7
370
    25
100
AcDbSpline
210
0.0
220
0.0
230
1.0
 70
     8
 71
     3
 72
    10
 73
     6
 74
     0
 42
0.00000001
 43
0.00000001
 40
0.0
 40
0.0
 40
0.0
 40
0.0
 40
0.5
 40
0.5
 40
1.0
 40
1.0
 40
1.0
 40
1.0
 10
170.897607008615
 20
40.31678409134176
 30
0.0
 10
170.2415942420099
 20
40.1079741666755
 30
0.0
 10
169.5813273351522
 20
39.93744002692825
 30
0.0
 10
168.2489808165172
 20
39.70265422190933
 30
0.0
 10
167.5768278350299
 20
39.63906268608203
 30
0.0
 10
166.897607008615
 20
39.63906268608203
 30
0.0
  0
SPLINE
  5
222
330
1F
100
AcDbEntity
  8
0
  6
Continuous
 62
     7
370
    25
100
AcDbSpline
210
0.0
220
0.0
230
1.0
 70
     8
 71
     3
 72
    10
 73
     6
 74
     0
 42
0.00000001
 43
0.00000001
 40
0.0
 40
0.0
 40
0.0
 40
0.0
 40
0.5
 40
0.5
 40
1.0
 40
1.0
 40
1.0
 40
1.0
 10
170.897607008615
 20
40.31678409134223
 30
0.0
 10
170.9719774755405
 20
40.34045633125379
 30
0.0
 10
171.0362830718284
 20
40.35355032118905
 30
0.0
 10
171.1245058596342
 20
40.3536371886505
 30
0.0
 10
171.147607008615
 20
40.34046739889114
 30
0.0
 10
171.147607008615
 20
40.31678409134223
 30
0.0
  0
LINE
  5
223
330
1F
100
AcDbEntity
  8
0
  6
Continuous
 62
     7
370
    25
100
AcDbLine
 10
166.8976070086
 20
39.6390626861
 30
0.0
 11
171.1476070086
 21
39.6390626861
 31
0.0
  0
SPLINE
  5
224
330
1F
100
AcDbEntity
  8
0
  6
Continuous
 62
     7
370
    25
100
AcDbSpline
210
0.0
220
0.0
230
1.0
 70
    24
 71
     3
 72
    10
 73
     6
 74
     0
 42
0.00000001
 43
0.00000001
 40
0.0
 40
0.0
 40
0.0
 40
0.0
 40
0.5
 40
0.5
 40
1.0
 40
1.0
 40
1.0
 40
1.0
 10
171.147607008615
 20
39.63906268608203
 30
0.0
 10
171.147607008615
 20
39.63906268608204
 30
0.0
 10
171.147607008615
 20
39.70134704806055
 30
0.0
 10
171.147607008615
 20
39.93619516606758
 30
0.0
 10
171.147607008615
 20
40.10943777319878
 30
0.0
 10
171.147607008615
 20
40.31678409134223
 30
0.0
  0
SPLINE
  5
225
330
1F
100
AcDbEntity
  8
0
  6
Continuous
 62
     7
370
    25
100
AcDbSpline
210
0.0
220
0.0
230
1.0
 70
     8
 71
     3
 72
    10
 73
     6
 74
     0
 42
0.00000001
 43
0.00000001
 40
0.0
 40
0.0
 40
0.0
 40
0.0
 40
0.5
 40
0.5
 40
1.0
 40
1.0
 40
1.0
 40
1.0
 10
154.147607008615
 20
40.31678409134223
 30
0.0
 10
154.147607008615
 20
40.34045799189818
 30
0.0
 10
154.1703975802624
 20
40.35355054907732
 30
0.0
 10
154.2583435775612
 20
40.35363696305959
 30
0.0
 10
154.323204370294
 20
40.34046657146097
 30
0.0
 10
154.397607008615
 20
40.31678409134223
 30
0.0
  0
LINE
  5
226
330
1F
100
AcDbEntity
  8
0
  6
Continuous
 62
     7
370
    25
100
AcDbLine
 10
154.1476070086
 20
39.6390626861
 30
0.0
 11
158.3976070086
 21
39.6390626861
 31
0.0
  0
SPLINE
  5
227
330
1F
100
AcDbEntity
  8
0
  6
Continuous
 62
     7
370
    25
100
AcDbSpline
210
0.0
220
0.0
230
1.0
 70
    24
 71
     3
 72
    10
 73
     6
 74
     0
 42
0.00000001
 43
0.00000001
 40
0.0
 40
0.0
 40
0.0
 40
0.0
 40
0.5
 40
0.5
 40
1.0
 40
1.0
 40
1.0
 40
1.0
 10
154.147607008615
 20
39.63906268608203
 30
0.0
 10
154.147607008615
 20
39.63906268608204
 30
0.0
 10
154.147607008615
 20
39.70134704806055
 30
0.0
 10
154.147607008615
 20
39.93619516606758
 30
0.0
 10
154.147607008615
 20
40.10943777319878
 30
0.0
 10
154.147607008615
 20
40.31678409134223
 30
0.0
  0
SPLINE
  5
228
330
1F
100
AcDbEntity
  8
0
  6
Continuous
 62
     7
370
    25
100
AcDbSpline
210
0.0
220
0.0
230
1.0
 70
     8
 71
     3
 72
     8
 73
     4
 74
     0
 42
0.00000001
 43
0.00000001
 40
0.0
 40
0.0
 40
0.0
 40
0.0
 40
1.0
 40
1.0
 40
1.0
 40
1.0
 10
154.147607008615
 20
43.83415147450805
 30
0.0
 10
154.6694131599168
 20
44.10674161017741
 30
0.0
 10
155.193066628773
 20
44.37589411129881
 30
0.0
 10
155.7194037783395
 20
44.63906268608204
 30
0.0
  0
SPLINE
  5
229
330
1F
100
AcDbEntity
  8
0
  6
Continuous
 62
     7
370
    25
100
AcDbSpline
210
0.0
220
0.0
230
1.0
 70
     8
 71
     3
 72
    10
 73
     6
 74
     0
 42
0.00000001
 43
0.00000001
 40
0.0
 40
0.0
 40
0.0
 40
0.0
 40
0.5
 40
0.5
 40
1.0
 40
1.0
 40
1.0
 40
1.0
 10
154.147607008615
 20
43.67266614622702
 30
0.0
 10
154.147607008615
 20
43.64899075180261
 30
0.0
 10
154.1703994579448
 20
43.63589964191797
 30
0.0
 10
154.2583421620381
 20
43.63581332062975
 30
0.0
 10
154.3231999357122
 20
43.6489822545737
 30
0.0
 10
154.3976070086156
 20
43.67266614622725
 30
0.0
  0
SPLINE
  5
22A
330
1F
100
AcDbEntity
  8
0
  6
Continuous
 62
     7
370
    25
100
AcDbSpline
210
0.0
220
0.0
230
1.0
 70
    24
 71
     3
 72
     8
 73
     4
 74
     0
 42
0.00000001
 43
0.00000001
 40
0.0
 40
0.0
 40
0.0
 40
0.0
 40
1.0
 40
1.0
 40
1.0
 40
1.0
 10
154.147607008615
 20
43.83415147450805
 30
0.0
 10
154.147607008615
 20
43.78325668480723
 30
0.0
 10
154.147607008615
 20
43.72932283544579
 30
0.0
 10
154.147607008615
 20
43.67266614622704
 30
0.0
  0
SPLINE
  5
22B
330
1F
100
AcDbEntity
  8
0
  6
Continuous
 62
     7
370
    25
100
AcDbSpline
210
0.0
220
0.0
230
1.0
 70
     8
 71
     3
 72
     8
 73
     4
 74
     0
 42
0.00000001
 43
0.00000001
 40
0.0
 40
0.0
 40
0.0
 40
0.0
 40
1.0
 40
1.0
 40
1.0
 40
1.0
 10
169.5758102388905
 20
44.63906268608203
 30
0.0
 10
170.1022311000997
 20
44.37585225547743
 30
0.0
 10
170.6257755568134
 20
44.10675482709073
 30
0.0
 10
171.147607008615
 20
43.83415147450808
 30
0.0
  0
SPLINE
  5
22C
330
1F
100
AcDbEntity
  8
0
  6
Continuous
 62
     7
370
    25
100
AcDbSpline
210
0.0
220
0.0
230
1.0
 70
     8
 71
     3
 72
    10
 73
     6
 74
     0
 42
0.00000001
 43
0.00000001
 40
0.0
 40
0.0
 40
0.0
 40
0.0
 40
0.5
 40
0.5
 40
1.0
 40
1.0
 40
1.0
 40
1.0
 10
170.897607008615
 20
43.67266614622704
 30
0.0
 10
170.9719873859923
 20
43.64899075180265
 30
0.0
 10
171.0362880247781
 20
43.63589964191801
 30
0.0
 10
171.124503709561
 20
43.63581332062973
 30
0.0
 10
171.147607008615
 20
43.64898225457357
 30
0.0
 10
171.147607008615
 20
43.67266614622703
 30
0.0
  0
SPLINE
  5
22D
330
1F
100
AcDbEntity
  8
0
  6
Continuous
 62
     7
370
    25
100
AcDbSpline
210
0.0
220
0.0
230
1.0
 70
    24
 71
     3
 72
     8
 73
     4
 74
     0
 42
0.00000001
 43
0.00000001
 40
0.0
 40
0.0
 40
0.0
 40
0.0
 40
1.0
 40
1.0
 40
1.0
 40
1.0
 10
171.147607008615
 20
43.83415147450805
 30
0.0
 10
171.147607008615
 20
43.78325668480723
 30
0.0
 10
171.147607008615
 20
43.72932283544579
 30
0.0
 10
171.147607008615
 20
43.67266614622704
 30
0.0
  0
LINE
  5
22E
330
1F
100
AcDbEntity
  8
0
  6
Continuous
 62
     7
370
    25
100
AcDbLine
 10
170.1476070086
 20
46.1542351288
 30
0.0
 11
170.1476070086
 21
44.6390626861
 31
0.0
  0
LINE
  5
22F
330
1F
100
AcDbEntity
  8
0
  6
Continuous
 62
     7
370
    25
100
AcDbLine
 10
167.5232513556
 20
44.6390626861
 30
0.0
 11
170.1476070086
 21
44.6390626861
 31
0.0
  0
LINE
  5
230
330
1F
100
AcDbEntity
  8
0
  6
Continuous
 62
     7
370
    25
100
AcDbLine
 10
155.1476070086
 20
44.6390626861
 30
0.0
 11
155.1476070086
 21
46.1542351288
 31
0.0
  0
LINE
  5
231
330
1F
100
AcDbEntity
  8
0
  6
Continuous
 62
     7
370
    25
100
AcDbLine
 10
155.1476070086
 20
44.6390626861
 30
0.0
 11
157.7719626616
 21
44.6390626861
 31
0.0
  0
LINE
  5
232
330
1F
100
AcDbEntity
  8
0
  6
Continuous
 62
     7
370
    25
100
AcDbLine
 10
162.6476070086
 20
29.4940107455
 30
0.0
 11
167.4298866355
 21
29.4940107455
 31
0.0
  0
LINE
  5
233
330
1F
100
AcDbEntity
  8
0
  6
Continuous
 62
     7
370
    25
100
AcDbLine
 10
157.8653273818
 20
29.4940107455
 30
0.0
 11
162.6476070086
 21
29.4940107455
 31
0.0
  0
LINE
  5
234
330
1F
100
AcDbEntity
  8
0
  6
Continuous
 62
     7
370
    25
100
AcDbLine
 10
154.1476070086
 20
40.3167840913
 30
0.0
 11
154.1476070086
 21
43.6726661462
 31
0.0
  0
LINE
  5
235
330
1F
100
AcDbEntity
  8
0
  6
Continuous
 62
     7
370
    25
100
AcDbLine
 10
171.1476070086
 20
43.6726661462
 30
0.0
 11
171.1476070086
 21
40.3167840913
 31
0.0
  0
LINE
  5
236
330
1F
100
AcDbEntity
  8
0
  6
Continuous
 62
     7
370
    25
100
AcDbLine
 10
166.6476070086
 20
28.1390626861
 30
0.0
 11
158.6476070086
 21
28.1390626861
 31
0.0
  0
LINE
  5
237
330
1F
100
AcDbEntity
  8
0
  6
Continuous
 62
     7
370
    25
100
AcDbLine
 10
154.1476070086
 20
43.8341514745
 30
0.0
 11
154.1476070086
 21
46.9940348129
 31
0.0
  0
LINE
  5
238
330
1F
100
AcDbEntity
  8
0
  6
Continuous
 62
     7
370
    25
100
AcDbLine
 10
171.1476070086
 20
43.8341514745
 30
0.0
 11
171.1476070086
 21
46.9940348129
 31
0.0
  0
LINE
  5
239
330
1F
100
AcDbEntity
  8
0
  6
Continuous
 62
     7
370
    25
100
AcDbLine
 10
161.1476070086
 20
78.7390626861
 30
0.0
 11
161.3976070086
 21
78.7390626861
 31
0.0
  0
ARC
  5
23A
330
1F
100
AcDbEntity
  8
0
  6
Continuous
 62
     7
370
    25
100
AcDbCircle
 10
161.3976070086
 20
78.7390626861
 30
0.0
 40
0.25
100
AcDbArc
 50
90.0
 51
180.0
  0
LINE
  5
23B
330
1F
100
AcDbEntity
  8
0
  6
Continuous
 62
     7
370
    25
100
AcDbLine
 10
161.3976070086
 20
78.9890626861
 30
0.0
 11
161.3976070086
 21
78.7390626861
 31
0.0
  0
LINE
  5
23C
330
1F
100
AcDbEntity
  8
0
  6
Continuous
 62
     7
370
    25
100
AcDbLine
 10
161.1476070086
 20
78.1390626861
 30
0.0
 11
161.1476070086
 21
78.7390626861
 31
0.0
  0
LINE
  5
23D
330
1F
100
AcDbEntity
  8
0
  6
Continuous
 62
     7
370
    25
100
AcDbLine
 10
161.3976070086
 20
78.7390626861
 30
0.0
 11
161.3976070086
 21
78.1390626861
 31
0.0
  0
LINE
  5
23E
330
1F
100
AcDbEntity
  8
0
  6
Continuous
 62
     7
370
    25
100
AcDbLine
 10
161.3976070086
 20
78.1390626861
 30
0.0
 11
161.1476070086
 21
78.1390626861
 31
0.0
  0
LINE
  5
23F
330
1F
100
AcDbEntity
  8
0
  6
Continuous
 62
     7
370
    25
100
AcDbLine
 10
163.8976070086
 20
78.1390626861
 30
0.0
 11
163.8976070086
 21
78.7390626861
 31
0.0
  0
LINE
  5
240
330
1F
100
AcDbEntity
  8
0
  6
Continuous
 62
     7
370
    25
100
AcDbLine
 10
163.8976070086
 20
78.7390626861
 30
0.0
 11
161.3976070086
 21
78.7390626861
 31
0.0
  0
LINE
  5
241
330
1F
100
AcDbEntity
  8
0
  6
Continuous
 62
     7
370
    25
100
AcDbLine
 10
161.3976070086
 20
78.1390626861
 30
0.0
 11
163.8976070086
 21
78.1390626861
 31
0.0
  0
LINE
  5
242
330
1F
100
AcDbEntity
  8
0
  6
Continuous
 62
     7
370
    25
100
AcDbLine
 10
163.8976070086
 20
78.7390626861
 30
0.0
 11
164.1476070086
 21
78.7390626861
 31
0.0
  0
LINE
  5
243
330
1F
100
AcDbEntity
  8
0
  6
Continuous
 62
     7
370
    25
100
AcDbLine
 10
163.8976070086
 20
78.7390626861
 30
0.0
 11
163.8976070086
 21
78.9890626861
 31
0.0
  0
ARC
  5
244
330
1F
100
AcDbEntity
  8
0
  6
Continuous
 62
     7
370
    25
100
AcDbCircle
 10
163.8976070086
 20
78.7390626861
 30
0.0
 40
0.25
100
AcDbArc
 50
0.0
 51
90.0
  0
LINE
  5
245
330
1F
100
AcDbEntity
  8
0
  6
Continuous
 62
     7
370
    25
100
AcDbLine
 10
161.3976070086
 20
78.9890626861
 30
0.0
 11
163.8976070086
 21
78.9890626861
 31
0.0
  0
LINE
  5
246
330
1F
100
AcDbEntity
  8
0
  6
Continuous
 62
     7
370
    25
100
AcDbLine
 10
164.1476070086
 20
78.7390626861
 30
0.0
 11
164.1476070086
 21
78.1390626861
 31
0.0
  0
LINE
  5
247
330
1F
100
AcDbEntity
  8
0
  6
Continuous
 62
     7
370
    25
100
AcDbLine
 10
164.1476070086
 20
78.1390626861
 30
0.0
 11
163.8976070086
 21
78.1390626861
 31
0.0
  0
SPLINE
  5
248
330
1F
100
AcDbEntity
  8
0
  6
Continuous
 62
     7
370
    25
100
AcDbSpline
210
0.0
220
0.0
230
1.0
 70
     8
 71
     3
 72
    15
 73
    11
 74
     0
 42
0.00000001
 43
0.00000001
 40
0.0
 40
0.0
 40
0.0
 40
0.0
 40
0.0090459071881971
 40
0.1032433785236875
 40
0.1542564497735248
 40
0.313316902671511
 40
0.5243720399414434
 40
0.6678060008509189
 40
0.9918332554187028
 40
1.0
 40
1.0
 40
1.0
 40
1.0
 10
160.9736939651367
 20
78.73906268608204
 30
0.0
 10
160.9737116108612
 20
78.74074378466646
 30
0.0
 10
160.9739130062737
 20
78.75993061622198
 30
0.0
 10
160.9801026269399
 20
78.78862489574198
 30
0.0
 10
161.0043045587841
 20
78.83930093571388
 30
0.0
 10
161.0573235507857
 20
78.8971772352908
 30
0.0
 10
161.1386944379823
 20
78.94204275002548
 30
0.0
 10
161.2532735100048
 20
78.97940513328
 30
0.0
 10
161.3376986877239
 20
78.98895114554958
 30
0.0
 10
161.3961695456759
 20
78.98906000973626
 30
0.0
 10
161.397607008615
 20
78.98906268608204
 30
0.0
  0
LINE
  5
249
330
1F
100
AcDbEntity
  8
0
  6
Continuous
 62
     7
370
    25
100
AcDbLine
 10
160.9736939651
 20
78.7390626861
 30
0.0
 11
161.1476070086
 21
78.7390626861
 31
0.0
  0
LINE
  5
24A
330
1F
100
AcDbEntity
  8
0
  6
Continuous
 62
     7
370
    25
100
AcDbLine
 10
164.1476070086
 20
78.7390626861
 30
0.0
 11
164.3215200521
 21
78.7390626861
 31
0.0
  0
SPLINE
  5
24B
330
1F
100
AcDbEntity
  8
0
  6
Continuous
 62
     7
370
    25
100
AcDbSpline
210
0.0
220
0.0
230
1.0
 70
     8
 71
     3
 72
    15
 73
    11
 74
     0
 42
0.00000001
 43
0.00000001
 40
0.0
 40
0.0
 40
0.0
 40
0.0
 40
0.0081667445812695
 40
0.3321939991490077
 40
0.4756279600585576
 40
0.68668309732849
 40
0.8457435502264807
 40
0.8967566214763126
 40
0.9909540928118029
 40
1.0
 40
1.0
 40
1.0
 40
1.0
 10
163.897607008615
 20
78.98906268608204
 30
0.0
 10
163.899044471554
 20
78.98906000973626
 30
0.0
 10
163.9575153295057
 20
78.98895114554952
 30
0.0
 10
164.0419405072252
 20
78.97940513328
 30
0.0
 10
164.1565195792476
 20
78.94204275002548
 30
0.0
 10
164.2378904664442
 20
78.8971772352908
 30
0.0
 10
164.2909094584459
 20
78.8393009357139
 30
0.0
 10
164.31511139029
 20
78.78862489574196
 30
0.0
 10
164.3213010109562
 20
78.75993061622195
 30
0.0
 10
164.3215024063688
 20
78.74074378466645
 30
0.0
 10
164.3215200520932
 20
78.73906268608204
 30
0.0
  0
LINE
  5
24C
330
1F
100
AcDbEntity
  8
0
  6
Continuous
 62
     7
370
    25
100
AcDbLine
 10
160.9736939651
 20
78.1390626861
 30
0.0
 11
160.9736939651
 21
78.7390626861
 31
0.0
  0
LINE
  5
24D
330
1F
100
AcDbEntity
  8
0
  6
Continuous
 62
     7
370
    25
100
AcDbLine
 10
161.1476070086
 20
78.1390626861
 30
0.0
 11
160.9736939651
 21
78.1390626861
 31
0.0
  0
LINE
  5
24E
330
1F
100
AcDbEntity
  8
0
  6
Continuous
 62
     7
370
    25
100
AcDbLine
 10
164.3215200521
 20
78.7390626861
 30
0.0
 11
164.3215200521
 21
78.1390626861
 31
0.0
  0
LINE
  5
24F
330
1F
100
AcDbEntity
  8
0
  6
Continuous
 62
     7
370
    25
100
AcDbLine
 10
164.3215200521
 20
78.1390626861
 30
0.0
 11
164.1476070086
 21
78.1390626861
 31
0.0
  0
LINE
  5
250
330
1F
100
AcDbEntity
  8
0
  6
Continuous
 62
     7
370
    25
100
AcDbLine
 10
157.3976070086
 20
78.9890626861
 30
0.0
 11
161.3976070086
 21
78.9890626861
 31
0.0
  0
LINE
  5
251
330
1F
100
AcDbEntity
  8
0
  6
Continuous
 62
     7
370
    25
100
AcDbLine
 10
163.8976070086
 20
78.9890626861
 30
0.0
 11
167.8976070086
 21
78.9890626861
 31
0.0
  0
LINE
  5
252
330
1F
100
AcDbEntity
  8
0
  6
Continuous
 62
     7
370
    25
100
AcDbLine
 10
164.3215200521
 20
78.1390626861
 30
0.0
 11
168.1476070086
 21
78.1390626861
 31
0.0
  0
LINE
  5
253
330
1F
100
AcDbEntity
  8
0
  6
Continuous
 62
     7
370
    25
100
AcDbLine
 10
157.1476070086
 20
78.1390626861
 30
0.0
 11
160.9736939651
 21
78.1390626861
 31
0.0
  0
LINE
  5
254
330
1F
100
AcDbEntity
  8
0
  6
Continuous
 62
     7
370
    25
100
AcDbLine
 10
162.0476070086
 20
78.9990626861
 30
0.0
 11
163.2476070086
 21
78.9990626861
 31
0.0
  0
LINE
  5
255
330
1F
100
AcDbEntity
  8
0
  6
Continuous
 62
     7
370
    25
100
AcDbLine
 10
163.2476070086
 20
78.9890626861
 30
0.0
 11
163.2476070086
 21
78.9990626861
 31
0.0
  0
LINE
  5
256
330
1F
100
AcDbEntity
  8
0
  6
Continuous
 62
     7
370
    25
100
AcDbLine
 10
162.0476070086
 20
78.9890626861
 30
0.0
 11
162.0476070086
 21
78.9990626861
 31
0.0
  0
LINE
  5
257
330
1F
100
AcDbEntity
  8
0
  6
Continuous
 62
     7
370
    25
100
AcDbLine
 10
155.6476070086
 20
62.1390626861
 30
0.0
 11
169.6476070086
 21
62.1390626861
 31
0.0
  0
LINE
  5
258
330
1F
100
AcDbEntity
  8
0
  6
Continuous
 62
     7
370
    25
100
AcDbLine
 10
155.1976070086
 20
70.1390626861
 30
0.0
 11
170.0976070086
 21
70.1390626861
 31
0.0
  0
LINE
  5
259
330
1F
100
AcDbEntity
  8
0
  6
Continuous
 62
     7
370
    25
100
AcDbLine
 10
159.1476070086
 20
80.1390626861
 30
0.0
 11
159.1476070086
 21
78.9890626861
 31
0.0
  0
LINE
  5
25A
330
1F
100
AcDbEntity
  8
0
  6
Continuous
 62
     7
370
    25
100
AcDbLine
 10
159.1476070086
 20
80.1390626861
 30
0.0
 11
159.3759077446
 21
80.1390626861
 31
0.0
  0
LINE
  5
25B
330
1F
100
AcDbEntity
  8
0
  6
Continuous
 62
     7
370
    25
100
AcDbLine
 10
159.3759077446
 20
80.1390626861
 30
0.0
 11
159.3759077446
 21
78.9890626861
 31
0.0
  0
LINE
  5
25C
330
1F
100
AcDbEntity
  8
0
  6
Continuous
 62
     7
370
    25
100
AcDbLine
 10
165.9193062727
 20
80.1390626861
 30
0.0
 11
165.9193062727
 21
78.9890626861
 31
0.0
  0
LINE
  5
25D
330
1F
100
AcDbEntity
  8
0
  6
Continuous
 62
     7
370
    25
100
AcDbLine
 10
165.9193062727
 20
80.1390626861
 30
0.0
 11
166.1476070086
 21
80.1390626861
 31
0.0
  0
LINE
  5
25E
330
1F
100
AcDbEntity
  8
0
  6
Continuous
 62
     7
370
    25
100
AcDbLine
 10
166.1476070086
 20
78.9890626861
 30
0.0
 11
166.1476070086
 21
80.1390626861
 31
0.0
  0
LINE
  5
25F
330
1F
100
AcDbEntity
  8
0
  6
Continuous
 62
     7
370
    25
100
AcDbLine
 10
159.3759077446
 20
80.1390626861
 30
0.0
 11
165.9193062727
 21
80.1390626861
 31
0.0
  0
SPLINE
  5
260
330
1F
100
AcDbEntity
  8
0
  6
Continuous
 62
     7
370
    25
100
AcDbSpline
210
0.0
220
0.0
230
1.0
 70
     8
 71
     3
 72
    19
 73
    15
 74
     0
 42
0.00000001
 43
0.00000001
 40
0.0
 40
0.0
 40
0.0
 40
0.0
 40
0.0167571800685447
 40
0.0954753196582118
 40
0.1742981041575476
 40
0.2799191200071992
 40
0.3857357730342649
 40
0.4988207717382652
 40
0.6118872552953651
 40
0.7070684090946151
 40
0.8021753605056264
 40
0.8927539248858412
 40
0.9832578425941179
 40
1.0
 40
1.0
 40
1.0
 40
1.0
 10
156.7552469460859
 20
58.17846191821061
 30
0.0
 10
156.7527241604397
 20
58.17533066244243
 30
0.0
 10
156.7383503955807
 20
58.15749009235992
 30
0.0
 10
156.8017957811362
 20
58.23655314069764
 30
0.0
 10
156.9568989913484
 20
58.42103466035546
 30
0.0
 10
157.2451974811132
 20
58.74101479380128
 30
0.0
 10
157.6776311160106
 20
59.16546270779939
 30
0.0
 10
158.2320639525674
 20
59.6281273879767
 30
0.0
 10
158.8749594855529
 20
60.06860735613488
 30
0.0
 10
159.5743964154502
 20
60.44666829583165
 30
0.0
 10
160.2963967342612
 20
60.74989182426948
 30
0.0
 10
161.074116123835
 20
60.96829094282403
 30
0.0
 10
161.6621645965273
 20
61.08969070252015
 30
0.0
 10
161.9917547750431
 20
61.10299052987141
 30
0.0
 10
162.0432070136661
 20
61.10506676252374
 30
0.0
  0
SPLINE
  5
261
330
1F
100
AcDbEntity
  8
0
  6
Continuous
 62
     7
370
    25
100
AcDbSpline
210
0.0
220
0.0
230
1.0
 70
     8
 71
     3
 72
    20
 73
    16
 74
     0
 42
0.00000001
 43
0.00000001
 40
0.0
 40
0.0
 40
0.0
 40
0.0
 40
0.0313498105000569
 40
0.0973832684065269
 40
0.197382923212977
 40
0.2974948277933162
 40
0.4180656846772402
 40
0.5387329709020784
 40
0.6171137837911173
 40
0.6956760206883755
 40
0.7739417658298178
 40
0.8504657139317153
 40
0.9268889665303276
 40
0.9967461671977904
 40
1.0
 40
1.0
 40
1.0
 40
1.0
 10
163.259804218556
 20
61.10056503834907
 30
0.0
 10
163.3556761297876
 20
61.09534500651608
 30
0.0
 10
163.6534871823966
 20
61.07912979650445
 30
0.0
 10
164.2363731286042
 20
60.96475692835074
 30
0.0
 10
164.9856140669559
 20
60.75548694222183
 30
0.0
 10
165.8060932872147
 20
60.41115430981755
 30
0.0
 10
166.5731751948678
 20
59.97560326729578
 30
0.0
 10
167.1802006031189
 20
59.53420307456496
 30
0.0
 10
167.6254323906494
 20
59.15182403817683
 30
0.0
 10
167.9472238590675
 20
58.84308812184636
 30
0.0
 10
168.2069218854149
 20
58.56909644286597
 30
0.0
 10
168.4020155722463
 20
58.34604236365997
 30
0.0
 10
168.5130909308604
 20
58.21161001662227
 30
0.0
 10
168.5570740009405
 20
58.15770643337491
 30
0.0
 10
168.5461507549964
 20
58.17103770679404
 30
0.0
 10
168.5456646120126
 20
58.17163101990545
 30
0.0
  0
LINE
  5
262
330
1F
100
AcDbEntity
  8
0
  6
Continuous
 62
     7
370
    25
100
AcDbLine
 10
160.9736939651
 20
78.7390626861
 30
0.0
 11
157.1476070086
 21
78.7390626861
 31
0.0
  0
LINE
  5
263
330
1F
100
AcDbEntity
  8
0
  6
Continuous
 62
     7
370
    25
100
AcDbLine
 10
168.1476070086
 20
78.7390626861
 30
0.0
 11
164.3215200521
 21
78.7390626861
 31
0.0
  0
INSERT
  5
26F
330
1F
100
AcDbEntity
  8
FORMAT
100
AcDbBlockReference
  2
SW_CENTERMARKSYMBOL_1
 10
162.6476070086
 20
51.6390626861
 30
0.0
  0
ARC
  5
270
330
1F
100
AcDbEntity
  8
FORMAT
100
AcDbCircle
 10
162.6476070086
 20
51.6390626861
 30
0.0
 40
7.000000000000005
100
AcDbArc
 50
75.0
 51
345.0
  0
LINE
  5
271
330
1F
100
AcDbEntity
  8
FORMAT
100
AcDbLine
 10
158.3484126383
 20
28.6572825368
 30
0.0
 11
158.0208570086
 21
39.1390626861
 31
0.0
  0
LINE
  5
272
330
1F
100
AcDbEntity
  8
FORMAT
100
AcDbLine
 10
166.946801379
 20
28.6572825368
 30
0.0
 11
167.2743570086
 21
39.1390626861
 31
0.0
  0
LINE
  5
273
330
1F
100
AcDbEntity
  8
FORMAT
100
AcDbLine
 10
167.7312945086
 20
39.1390626861
 30
0.0
 11
157.5639195086
 21
39.1390626861
 31
0.0
  0
ENDSEC
  0
SECTION
  2
OBJECTS
  0
DICTIONARY
  5
C
330
0
100
AcDbDictionary
281
     1
  3
ACAD_GROUP
350
D
  3
ACAD_LAYOUT
350
1A
  3
ACAD_MLINESTYLE
350
17
  3
ACAD_PLOTSETTINGS
350
19
  3
ACAD_PLOTSTYLENAME
350
E
  3
ACAD_SCALELIST
350
47
  3
DWGPROPS
350
274
  0
DICTIONARY
  5
D
102
{ACAD_REACTORS
330
C
102
}
330
C
100
AcDbDictionary
281
     1
  0
DICTIONARY
  5
1A
102
{ACAD_REACTORS
330
C
102
}
330
C
100
AcDbDictionary
281
     1
  3
Layout1
350
1E
  3
Layout2
350
26
  3
Model
350
22
  0
DICTIONARY
  5
17
102
{ACAD_REACTORS
330
C
102
}
330
C
100
AcDbDictionary
281
     1
  3
Standard
350
18
  0
DICTIONARY
  5
19
102
{ACAD_REACTORS
330
C
102
}
330
C
100
AcDbDictionary
281
     1
  0
ACDBDICTIONARYWDFLT
  5
E
102
{ACAD_REACTORS
330
C
102
}
330
C
100
AcDbDictionary
281
     1
  3
Normal
350
F
100
AcDbDictionaryWithDefault
340
F
  0
DICTIONARY
  5
47
102
{ACAD_REACTORS
330
C
102
}
330
C
100
AcDbDictionary
281
     1
  3
A0
350
48
  3
A1
350
49
  3
A2
350
4A
  3
A3
350
4B
  3
A4
350
4C
  3
A5
350
4D
  3
A6
350
4E
  3
A7
350
4F
  3
A8
350
50
  3
A9
350
51
  3
B0
350
52
  3
B1
350
53
  3
B2
350
54
  3
B3
350
55
  3
B4
350
56
  3
B5
350
57
  3
B6
350
58
  0
XRECORD
  5
274
102
{ACAD_REACTORS
330
C
102
}
330
C
100
AcDbXrecord
280
     1
  1
DWGPROPS COOKIE
  2

  3

  4

  6

  7

  8
user28
  9

300
=
301
=
302
=
303
=
304
=
305
=
306
=
307
=
308
=
309
=
 40
0.0
 41
2460336.288984572
 42
2460336.288985278
  1

 90
        0
  0
LAYOUT
  5
1E
102
{ACAD_REACTORS
330
1A
102
}
330
1A
100
AcDbPlotSettings
  1

  2
none_device
  4

  6

 40
0.0
 41
0.0
 42
0.0
 43
0.0
 44
0.0
 45
0.0
 46
0.0
 47
0.0
 48
0.0
 49
0.0
140
0.0
141
0.0
142
1.0
143
1.0
 70
   688
 72
     1
 73
     0
 74
     5
  7

 75
    16
147
1.0
148
0.0
149
0.0
100
AcDbLayout
  1
Layout1
 70
     1
 71
     1
 10
0.0
 20
0.0
 11
420.0
 21
297.0
 12
0.0
 22
0.0
 32
0.0
 14
1.0000000000E+20
 24
1.0000000000E+20
 34
1.0000000000E+20
 15
-1.0000000000E+20
 25
-1.0000000000E+20
 35
-1.0000000000E+20
146
0.0
 13
0.0
 23
0.0
 33
0.0
 16
1.0
 26
0.0
 36
0.0
 17
0.0
 27
1.0
 37
0.0
 76
     0
330
1B
  0
LAYOUT
  5
26
102
{ACAD_REACTORS
330
1A
102
}
330
1A
100
AcDbPlotSettings
  1

  2
none_device
  4

  6

 40
0.0
 41
0.0
 42
0.0
 43
0.0
 44
0.0
 45
0.0
 46
0.0
 47
0.0
 48
0.0
 49
0.0
140
0.0
141
0.0
142
1.0
143
1.0
 70
   688
 72
     1
 73
     0
 74
     5
  7

 75
    16
147
1.0
148
0.0
149
0.0
100
AcDbLayout
  1
Layout2
 70
     1
 71
     2
 10
0.0
 20
0.0
 11
0.0
 21
0.0
 12
0.0
 22
0.0
 32
0.0
 14
0.0
 24
0.0
 34
0.0
 15
0.0
 25
0.0
 35
0.0
146
0.0
 13
0.0
 23
0.0
 33
0.0
 16
1.0
 26
0.0
 36
0.0
 17
0.0
 27
1.0
 37
0.0
 76
     0
330
23
  0
LAYOUT
  5
22
102
{ACAD_REACTORS
330
1A
102
}
330
1A
100
AcDbPlotSettings
  1

  2
none_device
  4
Letter_(8.50_x_11.00_Inches)
  6

 40
6.35
 41
6.35
 42
6.35000508
 43
6.35000508
 44
215.9
 45
279.4
 46
0.0
 47
0.0
 48
0.0
 49
0.0
140
0.0
141
0.0
142
1.0
143
1.0
 70
  1712
 72
     1
 73
     0
 74
     0
  7

 75
     0
147
1.0
148
0.0
149
0.0
100
AcDbLayout
  1
Model
 70
     1
 71
     0
 10
0.0
 20
0.0
 11
297.0
 21
210.0
 12
0.0
 22
0.0
 32
0.0
 14
0.0
 24
0.0
 34
0.0
 15
297.0
 25
210.0
 35
0.0
146
0.0
 13
0.0
 23
0.0
 33
0.0
 16
1.0
 26
0.0
 36
0.0
 17
0.0
 27
1.0
 37
0.0
 76
     0
330
1F
331
29
  0
MLINESTYLE
  5
18
102
{ACAD_REACTORS
330
17
102
}
330
17
100
AcDbMlineStyle
  2
Standard
 70
     0
  3

 62
   256
 51
90.0
 52
90.0
 71
     2
 49
0.5
 62
   256
  6
BYLAYER
 49
-0.5
 62
   256
  6
BYLAYER
  0
ACDBPLACEHOLDER
  5
F
102
{ACAD_REACTORS
330
E
102
}
330
E
  0
SCALE
  5
48
102
{ACAD_REACTORS
330
47
102
}
330
47
100
AcDbScale
 70
     0
300
1:1
140
1.0
141
1.0
290
     1
  0
SCALE
  5
49
102
{ACAD_REACTORS
330
47
102
}
330
47
100
AcDbScale
 70
     0
300
1:2
140
1.0
141
2.0
290
     0
  0
SCALE
  5
4A
102
{ACAD_REACTORS
330
47
102
}
330
47
100
AcDbScale
 70
     0
300
1:4
140
1.0
141
4.0
290
     0
  0
SCALE
  5
4B
102
{ACAD_REACTORS
330
47
102
}
330
47
100
AcDbScale
 70
     0
300
1:5
140
1.0
141
5.0
290
     0
  0
SCALE
  5
4C
102
{ACAD_REACTORS
330
47
102
}
330
47
100
AcDbScale
 70
     0
300
1:8
140
1.0
141
8.0
290
     0
  0
SCALE
  5
4D
102
{ACAD_REACTORS
330
47
102
}
330
47
100
AcDbScale
 70
     0
300
1:10
140
1.0
141
10.0
290
     0
  0
SCALE
  5
4E
102
{ACAD_REACTORS
330
47
102
}
330
47
100
AcDbScale
 70
     0
300
1:16
140
1.0
141
16.0
290
     0
  0
SCALE
  5
4F
102
{ACAD_REACTORS
330
47
102
}
330
47
100
AcDbScale
 70
     0
300
1:20
140
1.0
141
20.0
290
     0
  0
SCALE
  5
50
102
{ACAD_REACTORS
330
47
102
}
330
47
100
AcDbScale
 70
     0
300
1:30
140
1.0
141
30.0
290
     0
  0
SCALE
  5
51
102
{ACAD_REACTORS
330
47
102
}
330
47
100
AcDbScale
 70
     0
300
1:40
140
1.0
141
40.0
290
     0
  0
SCALE
  5
52
102
{ACAD_REACTORS
330
47
102
}
330
47
100
AcDbScale
 70
     0
300
1:50
140
1.0
141
50.0
290
     0
  0
SCALE
  5
53
102
{ACAD_REACTORS
330
47
102
}
330
47
100
AcDbScale
 70
     0
300
1:100
140
1.0
141
100.0
290
     0
  0
SCALE
  5
54
102
{ACAD_REACTORS
330
47
102
}
330
47
100
AcDbScale
 70
     0
300
2:1
140
2.0
141
1.0
290
     0
  0
SCALE
  5
55
102
{ACAD_REACTORS
330
47
102
}
330
47
100
AcDbScale
 70
     0
300
4:1
140
4.0
141
1.0
290
     0
  0
SCALE
  5
56
102
{ACAD_REACTORS
330
47
102
}
330
47
100
AcDbScale
 70
     0
300
8:1
140
8.0
141
1.0
290
     0
  0
SCALE
  5
57
102
{ACAD_REACTORS
330
47
102
}
330
47
100
AcDbScale
 70
     0
300
10:1
140
10.0
141
1.0
290
     0
  0
SCALE
  5
58
102
{ACAD_REACTORS
330
47
102
}
330
47
100
AcDbScale
 70
     0
300
100:1
140
100.0
141
1.0
290
     0
  0
ENDSEC
  0
EOF
