  0
SECTION
  2
HEADER
  9
$ACADVER
  1
AC1015
  9
$ACADMAINTVER
 70
     6
  9
$DWGCODEPAGE
  3
DOS932
  9
$INSBASE
 10
0.0
 20
0.0
 30
0.0
  9
$EXTMIN
 10
0.0
 20
0.0
 30
0.0
  9
$EXTMAX
 10
297.0
 20
210.0
 30
0.0
  9
$LIMMIN
 10
0.0
 20
0.0
  9
$LIMMAX
 10
297.0
 20
210.0
  9
$ORTHOMODE
 70
     0
  9
$REGENMODE
 70
     1
  9
$FILLMODE
 70
     1
  9
$QTEXTMODE
 70
     0
  9
$MIRRTEXT
 70
     1
  9
$LTSCALE
 40
1.0
  9
$ATTMODE
 70
     1
  9
$TEXTSIZE
 40
3.5277777778
  9
$TRACEWID
 40
1.0
  9
$TEXTSTYLE
  7
Standard
  9
$CLAYER
  8
0
  9
$CELTYPE
  6
ByLayer
  9
$CECOLOR
 62
   256
  9
$CELTSCALE
 40
1.0
  9
$DISPSILH
 70
     0
  9
$DIMSCALE
 40
1.0
  9
$DIMASZ
 40
2.728515625
  9
$DIMEXO
 40
1.0
  9
$DIMDLI
 40
3.75
  9
$DIMRND
 40
0.0
  9
$DIMDLE
 40
0.0
  9
$DIMEXE
 40
1.0
  9
$DIMTP
 40
0.0
  9
$DIMTM
 40
0.0
  9
$DIMTXT
 40
3.5277777778
  9
$DIMCEN
 40
2.5
  9
$DIMTSZ
 40
0.0
  9
$DIMTOL
 70
     0
  9
$DIMLIM
 70
     0
  9
$DIMTIH
 70
     1
  9
$DIMTOH
 70
     1
  9
$DIMSE1
 70
     0
  9
$DIMSE2
 70
     0
  9
$DIMTAD
 70
     1
  9
$DIMZIN
 70
     0
  9
$DIMBLK
  1

  9
$DIMASO
 70
     1
  9
$DIMSHO
 70
     1
  9
$DIMPOST
  1

  9
$DIMAPOST
  1

  9
$DIMALT
 70
     0
  9
$DIMALTD
 70
     3
  9
$DIMALTF
 40
0.0393700787
  9
$DIMLFAC
 40
1.0
  9
$DIMTOFL
 70
     1
  9
$DIMTVP
 40
0.0
  9
$DIMTIX
 70
     0
  9
$DIMSOXD
 70
     0
  9
$DIMSAH
 70
     0
  9
$DIMBLK1
  1

  9
$DIMBLK2
  1

  9
$DIMSTYLE
  2
ISO-25
  9
$DIMCLRD
 70
     0
  9
$DIMCLRE
 70
     0
  9
$DIMCLRT
 70
     0
  9
$DIMTFAC
 40
1.0
  9
$DIMGAP
 40
1.524
  9
$DIMJUST
 70
     0
  9
$DIMSD1
 70
     0
  9
$DIMSD2
 70
     0
  9
$DIMTOLJ
 70
     0
  9
$DIMTZIN
 70
     0
  9
$DIMALTZ
 70
     0
  9
$DIMALTTZ
 70
     0
  9
$DIMUPT
 70
     0
  9
$DIMDEC
 70
     2
  9
$DIMTDEC
 70
     2
  9
$DIMALTU
 70
     2
  9
$DIMALTTD
 70
     3
  9
$DIMTXSTY
  7
Standard
  9
$DIMAUNIT
 70
     0
  9
$DIMADEC
 70
     2
  9
$DIMALTRND
 40
0.0
  9
$DIMAZIN
 70
     0
  9
$DIMDSEP
 70
    44
  9
$DIMATFIT
 70
     3
  9
$DIMFRAC
 70
     0
  9
$DIMLDRBLK
  1

  9
$DIMLUNIT
 70
     2
  9
$DIMLWD
 70
    -2
  9
$DIMLWE
 70
    -2
  9
$DIMTMOVE
 70
     0
  9
$LUNITS
 70
     2
  9
$LUPREC
 70
     2
  9
$SKETCHINC
 40
1.0
  9
$FILLETRAD
 40
0.0
  9
$AUNITS
 70
     0
  9
$AUPREC
 70
     2
  9
$MENU
  1
.
  9
$ELEVATION
 40
0.0
  9
$PELEVATION
 40
0.0
  9
$THICKNESS
 40
0.0
  9
$LIMCHECK
 70
     0
  9
$CHAMFERA
 40
0.0
  9
$CHAMFERB
 40
0.0
  9
$CHAMFERC
 40
0.0
  9
$CHAMFERD
 40
0.0
  9
$SKPOLY
 70
     0
  9
$TDCREATE
 40
2460336.643083704
  9
$TDUCREATE
 40
2460336.268083704
  9
$TDUPDATE
 40
2460336.643084433
  9
$TDUUPDATE
 40
2460336.268084433
  9
$TDINDWG
 40
0.0000000116
  9
$TDUSRTIMER
 40
0.0000000116
  9
$USRTIMER
 70
     1
  9
$ANGBASE
 50
0.0
  9
$ANGDIR
 70
     0
  9
$PDMODE
 70
     0
  9
$PDSIZE
 40
-1.0
  9
$PLINEWID
 40
0.0
  9
$SPLFRAME
 70
     0
  9
$SPLINETYPE
 70
     6
  9
$SPLINESEGS
 70
     8
  9
$HANDSEED
  5
26E
  9
$SURFTAB1
 70
     6
  9
$SURFTAB2
 70
     6
  9
$SURFTYPE
 70
     6
  9
$SURFU
 70
     6
  9
$SURFV
 70
     6
  9
$UCSBASE
  2

  9
$UCSNAME
  2

  9
$UCSORG
 10
0.0
 20
0.0
 30
0.0
  9
$UCSXDIR
 10
1.0
 20
0.0
 30
0.0
  9
$UCSYDIR
 10
0.0
 20
1.0
 30
0.0
  9
$UCSORTHOREF
  2

  9
$UCSORTHOVIEW
 70
     0
  9
$UCSORGTOP
 10
0.0
 20
0.0
 30
0.0
  9
$UCSORGBOTTOM
 10
0.0
 20
0.0
 30
0.0
  9
$UCSORGLEFT
 10
0.0
 20
0.0
 30
0.0
  9
$UCSORGRIGHT
 10
0.0
 20
0.0
 30
0.0
  9
$UCSORGFRONT
 10
0.0
 20
0.0
 30
0.0
  9
$UCSORGBACK
 10
0.0
 20
0.0
 30
0.0
  9
$PUCSBASE
  2

  9
$PUCSNAME
  2

  9
$PUCSORG
 10
0.0
 20
0.0
 30
0.0
  9
$PUCSXDIR
 10
1.0
 20
0.0
 30
0.0
  9
$PUCSYDIR
 10
0.0
 20
1.0
 30
0.0
  9
$PUCSORTHOREF
  2

  9
$PUCSORTHOVIEW
 70
     0
  9
$PUCSORGTOP
 10
0.0
 20
0.0
 30
0.0
  9
$PUCSORGBOTTOM
 10
0.0
 20
0.0
 30
0.0
  9
$PUCSORGLEFT
 10
0.0
 20
0.0
 30
0.0
  9
$PUCSORGRIGHT
 10
0.0
 20
0.0
 30
0.0
  9
$PUCSORGFRONT
 10
0.0
 20
0.0
 30
0.0
  9
$PUCSORGBACK
 10
0.0
 20
0.0
 30
0.0
  9
$USERI1
 70
     0
  9
$USERI2
 70
     0
  9
$USERI3
 70
     0
  9
$USERI4
 70
     0
  9
$USERI5
 70
     0
  9
$USERR1
 40
0.0
  9
$USERR2
 40
0.0
  9
$USERR3
 40
0.0
  9
$USERR4
 40
0.0
  9
$USERR5
 40
0.0
  9
$WORLDVIEW
 70
     1
  9
$SHADEDGE
 70
     3
  9
$SHADEDIF
 70
    70
  9
$TILEMODE
 70
     1
  9
$MAXACTVP
 70
    64
  9
$PINSBASE
 10
0.0
 20
0.0
 30
0.0
  9
$PLIMCHECK
 70
     0
  9
$PEXTMIN
 10
1.0000000000E+20
 20
1.0000000000E+20
 30
1.0000000000E+20
  9
$PEXTMAX
 10
-1.0000000000E+20
 20
-1.0000000000E+20
 30
-1.0000000000E+20
  9
$PLIMMIN
 10
0.0
 20
0.0
  9
$PLIMMAX
 10
420.0
 20
297.0
  9
$UNITMODE
 70
     0
  9
$VISRETAIN
 70
     1
  9
$PLINEGEN
 70
     0
  9
$PSLTSCALE
 70
     1
  9
$TREEDEPTH
 70
  3020
  9
$CMLSTYLE
  2
Standard
  9
$CMLJUST
 70
     0
  9
$CMLSCALE
 40
20.0
  9
$PROXYGRAPHICS
 70
     1
  9
$MEASUREMENT
 70
     1
  9
$CELWEIGHT
370
    -1
  9
$ENDCAPS
280
     0
  9
$JOINSTYLE
280
     0
  9
$LWDISPLAY
290
     1
  9
$INSUNITS
 70
     4
  9
$HYPERLINKBASE
  1

  9
$STYLESHEET
  1

  9
$XEDIT
290
     1
  9
$CEPSNTYPE
380
     0
  9
$PSTYLEMODE
290
     1
  9
$FINGERPRINTGUID
  2
{174e0958-cba8-4bff-9fd7-f532be82b8dc}
  9
$VERSIONGUID
  2
{FAEB1C32-E019-11D5-929B-00C0DF256EC4}
  9
$EXTNAMES
290
     1
  9
$PSVPSCALE
 40
0.0
  9
$OLESTARTUP
290
     0
  0
ENDSEC
  0
SECTION
  2
CLASSES
  0
CLASS
  1
ACDBDICTIONARYWDFLT
  2
AcDbDictionaryWithDefault
  3
ObjectDBX Classes
 90
        0
280
     0
281
     0
  0
CLASS
  1
VISUALSTYLE
  2
AcDbVisualStyle
  3
ObjectDBX Classes
 90
     4095
280
     0
281
     0
  0
CLASS
  1
MATERIAL
  2
AcDbMaterial
  3
ObjectDBX Classes
 90
     1153
280
     0
281
     0
  0
CLASS
  1
SCALE
  2
AcDbScale
  3
ObjectDBX Classes
 90
     1153
280
     0
281
     0
  0
CLASS
  1
TABLESTYLE
  2
AcDbTableStyle
  3
ObjectDBX Classes
 90
     4095
280
     0
281
     0
  0
CLASS
  1
MLEADERSTYLE
  2
AcDbMLeaderStyle
  3
ACDB_MLEADERSTYLE_CLASS
 90
     4095
280
     0
281
     0
  0
CLASS
  1
SUN
  2
AcDbSun
  3
SCENEOE
 90
     1153
280
     0
281
     0
  0
CLASS
  1
ACDBPLACEHOLDER
  2
AcDbPlaceHolder
  3
ObjectDBX Classes
 90
        0
280
     0
281
     0
  0
CLASS
  1
LAYOUT
  2
AcDbLayout
  3
ObjectDBX Classes
 90
        0
280
     0
281
     0
  0
ENDSEC
  0
SECTION
  2
TABLES
  0
TABLE
  2
VPORT
  5
8
330
0
100
AcDbSymbolTable
 70
     1
  0
VPORT
  5
29
330
8
100
AcDbSymbolTableRecord
100
AcDbViewportTableRecord
  2
*Active
 70
     0
 10
0.0
 20
0.0
 11
1.0
 21
1.0
 12
148.5
 22
105.0
 13
0.0
 23
0.0
 14
10.0
 24
10.0
 15
10.0
 25
10.0
 16
0.0
 26
0.0
 36
1.0
 17
0.0
 27
0.0
 37
0.0
 40
210.0
 41
1.4142857143
 42
50.0
 43
0.0
 44
0.0
 50
0.0
 51
0.0
 71
     0
 72
  2000
 73
     1
 74
     3
 75
     0
 76
     0
 77
     0
 78
     0
281
     0
 65
     1
110
0.0
120
0.0
130
0.0
111
1.0
121
0.0
131
0.0
112
0.0
122
1.0
132
0.0
 79
     0
146
0.0
  0
ENDTAB
  0
TABLE
  2
LTYPE
  5
5
330
0
100
AcDbSymbolTable
 70
     6
  0
LTYPE
  5
14
330
5
100
AcDbSymbolTableRecord
100
AcDbLinetypeTableRecord
  2
ByBlock
 70
     0
  3

 72
    65
 73
     0
 40
0.0
  0
LTYPE
  5
15
330
5
100
AcDbSymbolTableRecord
100
AcDbLinetypeTableRecord
  2
ByLayer
 70
     0
  3

 72
    65
 73
     0
 40
0.0
  0
LTYPE
  5
16
330
5
100
AcDbSymbolTableRecord
100
AcDbLinetypeTableRecord
  2
Continuous
 70
     0
  3
Solid line
 72
    65
 73
     0
 40
0.0
  0
LTYPE
  5
5E
330
5
100
AcDbSymbolTableRecord
100
AcDbLinetypeTableRecord
  2
HIDDEN
 70
     0
  3
Hidden __ __ __ __ __ __ __ __ __ __ __ __ __ __
 72
    65
 73
     2
 40
1.905
 49
1.27
 74
     0
 49
-0.635
 74
     0
  0
LTYPE
  5
5F
330
5
100
AcDbSymbolTableRecord
100
AcDbLinetypeTableRecord
  2
PHANTOM
 70
     0
  3
Phantom ______  __  __  ______  __  __  ______
 72
    65
 73
     6
 40
12.7
 49
6.35
 74
     0
 49
-1.27
 74
     0
 49
1.27
 74
     0
 49
-1.27
 74
     0
 49
1.27
 74
     0
 49
-1.27
 74
     0
  0
LTYPE
  5
60
330
5
100
AcDbSymbolTableRecord
100
AcDbLinetypeTableRecord
  2
CENTER
 70
     0
  3
Center ____ _ ____ _ ____ _ ____ _ ____ _ ____
 72
    65
 73
     4
 40
10.16
 49
6.35
 74
     0
 49
-1.27
 74
     0
 49
1.27
 74
     0
 49
-1.27
 74
     0
  0
LTYPE
  5
61
330
5
100
AcDbSymbolTableRecord
100
AcDbLinetypeTableRecord
  2
CENTERX2
 70
     0
  3
Center (2x) ________  __  ________  __  _____
 72
    65
 73
     4
 40
20.32
 49
12.7
 74
     0
 49
-2.54
 74
     0
 49
2.54
 74
     0
 49
-2.54
 74
     0
  0
LTYPE
  5
62
330
5
100
AcDbSymbolTableRecord
100
AcDbLinetypeTableRecord
  2
DOT2
 70
     0
  3
Dot (.5x) ........................................
 72
    65
 73
     2
 40
0.635
 49
0.0
 74
     0
 49
-0.635
 74
     0
  0
ENDTAB
  0
TABLE
  2
LAYER
  5
2
330
0
100
AcDbSymbolTable
 70
     2
  0
LAYER
  5
10
330
2
100
AcDbSymbolTableRecord
100
AcDbLayerTableRecord
  2
0
 70
     0
 62
     7
  6
Continuous
370
    -3
390
F
  0
LAYER
  5
63
330
2
100
AcDbSymbolTableRecord
100
AcDbLayerTableRecord
  2
FORMAT
 70
     0
 62
     7
  6
Continuous
370
    -3
390
F
  0
ENDTAB
  0
TABLE
  2
STYLE
  5
3
330
0
100
AcDbSymbolTable
 70
     2
  0
STYLE
  5
11
330
3
100
AcDbSymbolTableRecord
100
AcDbTextStyleTableRecord
  2
Standard
 70
     0
 40
0.0
 41
1.0
 50
0.0
 71
     0
 42
3.5277777778
  3
txt
  4
bigfont
  0
STYLE
  5
64
330
3
100
AcDbSymbolTableRecord
100
AcDbTextStyleTableRecord
  2
SLDTEXTSTYLE0
 70
     0
 40
0.0
 41
0.7
 50
0.0
 71
     0
 42
3.5277777778
  3
TXT
  4
bigfont
  0
ENDTAB
  0
TABLE
  2
VIEW
  5
6
330
0
100
AcDbSymbolTable
 70
     0
  0
ENDTAB
  0
TABLE
  2
UCS
  5
7
330
0
100
AcDbSymbolTable
 70
     0
  0
ENDTAB
  0
TABLE
  2
APPID
  5
9
330
0
100
AcDbSymbolTable
 70
     1
  0
APPID
  5
12
330
9
100
AcDbSymbolTableRecord
100
AcDbRegAppTableRecord
  2
ACAD
 70
     0
  0
ENDTAB
  0
TABLE
  2
DIMSTYLE
  5
A
330
0
100
AcDbSymbolTable
 70
     1
100
AcDbDimStyleTable
  0
DIMSTYLE
105
27
330
A
100
AcDbSymbolTableRecord
100
AcDbDimStyleTableRecord
  2
ISO-25
 70
     0
 41
2.5
 42
0.625
 43
3.75
 44
1.25
 73
     0
 74
     0
 77
     1
 78
     8
140
2.5
141
2.5
143
0.0393700787
147
0.625
171
     3
172
     1
178
     0
271
     2
272
     2
274
     3
278
    44
283
     0
284
     8
340
11
  0
ENDTAB
  0
TABLE
  2
BLOCK_RECORD
  5
1
330
0
100
AcDbSymbolTable
 70
     3
  0
BLOCK_RECORD
  5
1F
330
1
100
AcDbSymbolTableRecord
100
AcDbBlockTableRecord
  2
*Model_Space
340
22
  0
BLOCK_RECORD
  5
1B
330
1
100
AcDbSymbolTableRecord
100
AcDbBlockTableRecord
  2
*Paper_Space
340
1E
  0
BLOCK_RECORD
  5
23
330
1
100
AcDbSymbolTableRecord
100
AcDbBlockTableRecord
  2
*Paper_Space0
340
26
  0
BLOCK_RECORD
  5
1D7
330
1
100
AcDbSymbolTableRecord
100
AcDbBlockTableRecord
  2
SW_CENTERMARKSYMBOL_0
340
0
102
{BLKREFS
331
1E2
102
}
  0
BLOCK_RECORD
  5
261
330
1
100
AcDbSymbolTableRecord
100
AcDbBlockTableRecord
  2
SW_CENTERMARKSYMBOL_1
340
0
102
{BLKREFS
331
26C
102
}
  0
ENDTAB
  0
ENDSEC
  0
SECTION
  2
BLOCKS
  0
BLOCK
  5
20
330
1F
100
AcDbEntity
  8
0
100
AcDbBlockBegin
  2
*Model_Space
 70
     0
 10
0.0
 20
0.0
 30
0.0
  3
*Model_Space
  1

  0
ENDBLK
  5
21
330
1F
100
AcDbEntity
  8
0
100
AcDbBlockEnd
  0
BLOCK
  5
1C
330
1B
100
AcDbEntity
 67
     1
  8
0
100
AcDbBlockBegin
  2
*Paper_Space
 70
     0
 10
0.0
 20
0.0
 30
0.0
  3
*Paper_Space
  1

  0
ENDBLK
  5
1D
330
1B
100
AcDbEntity
 67
     1
  8
0
100
AcDbBlockEnd
  0
BLOCK
  5
24
330
23
100
AcDbEntity
  8
0
100
AcDbBlockBegin
  2
*Paper_Space0
 70
     0
 10
0.0
 20
0.0
 30
0.0
  3
*Paper_Space0
  1

  0
ENDBLK
  5
25
330
23
100
AcDbEntity
  8
0
100
AcDbBlockEnd
  0
BLOCK
  5
1D8
330
1D7
100
AcDbEntity
  8
0
100
AcDbBlockBegin
  2
SW_CENTERMARKSYMBOL_0
 70
     0
 10
0.0
 20
0.0
 30
0.0
  3
SW_CENTERMARKSYMBOL_0
  1

  0
LINE
  5
1DA
330
1D7
100
AcDbEntity
  8
FORMAT
 62
     0
100
AcDbLine
 10
0.0
 20
0.0
 30
0.0
 11
0.0
 21
2.5
 31
0.0
  0
LINE
  5
1DB
330
1D7
100
AcDbEntity
  8
FORMAT
 62
     0
100
AcDbLine
 10
0.0
 20
0.0
 30
0.0
 11
-2.5
 21
0.0
 31
0.0
  0
LINE
  5
1DC
330
1D7
100
AcDbEntity
  8
FORMAT
 62
     0
100
AcDbLine
 10
0.0
 20
0.0
 30
0.0
 11
0.0
 21
-2.5
 31
0.0
  0
LINE
  5
1DD
330
1D7
100
AcDbEntity
  8
FORMAT
 62
     0
100
AcDbLine
 10
0.0
 20
0.0
 30
0.0
 11
2.5
 21
0.0
 31
0.0
  0
LINE
  5
1DE
330
1D7
100
AcDbEntity
  8
FORMAT
 62
     0
100
AcDbLine
 10
0.0
 20
5.0
 30
0.0
 11
0.0
 21
30.2535556474
 31
0.0
  0
LINE
  5
1DF
330
1D7
100
AcDbEntity
  8
FORMAT
 62
     0
100
AcDbLine
 10
-5.0
 20
0.0
 30
0.0
 11
-10.75
 21
0.0
 31
0.0
  0
LINE
  5
1E0
330
1D7
100
AcDbEntity
  8
FORMAT
 62
     0
100
AcDbLine
 10
0.0
 20
-5.0
 30
0.0
 11
0.0
 21
-26.0384997
 31
0.0
  0
LINE
  5
1E1
330
1D7
100
AcDbEntity
  8
FORMAT
 62
     0
100
AcDbLine
 10
5.0
 20
0.0
 30
0.0
 11
10.75
 21
0.0
 31
0.0
  0
ENDBLK
  5
1D9
330
1D7
100
AcDbEntity
  8
0
100
AcDbBlockEnd
  0
BLOCK
  5
262
330
261
100
AcDbEntity
  8
0
100
AcDbBlockBegin
  2
SW_CENTERMARKSYMBOL_1
 70
     0
 10
0.0
 20
0.0
 30
0.0
  3
SW_CENTERMARKSYMBOL_1
  1

  0
LINE
  5
264
330
261
100
AcDbEntity
  8
FORMAT
 62
     0
100
AcDbLine
 10
0.0
 20
0.0
 30
0.0
 11
0.0
 21
2.5
 31
0.0
  0
LINE
  5
265
330
261
100
AcDbEntity
  8
FORMAT
 62
     0
100
AcDbLine
 10
0.0
 20
0.0
 30
0.0
 11
-2.5
 21
0.0
 31
0.0
  0
LINE
  5
266
330
261
100
AcDbEntity
  8
FORMAT
 62
     0
100
AcDbLine
 10
0.0
 20
0.0
 30
0.0
 11
0.0
 21
-2.5
 31
0.0
  0
LINE
  5
267
330
261
100
AcDbEntity
  8
FORMAT
 62
     0
100
AcDbLine
 10
0.0
 20
0.0
 30
0.0
 11
2.5
 21
0.0
 31
0.0
  0
LINE
  5
268
330
261
100
AcDbEntity
  8
FORMAT
 62
     0
100
AcDbLine
 10
0.0
 20
5.0
 30
0.0
 11
0.0
 21
9.95
 31
0.0
  0
LINE
  5
269
330
261
100
AcDbEntity
  8
FORMAT
 62
     0
100
AcDbLine
 10
-5.0
 20
0.0
 30
0.0
 11
-42.102376851
 21
0.0
 31
0.0
  0
LINE
  5
26A
330
261
100
AcDbEntity
  8
FORMAT
 62
     0
100
AcDbLine
 10
0.0
 20
-5.0
 30
0.0
 11
0.0
 21
-9.95
 31
0.0
  0
LINE
  5
26B
330
261
100
AcDbEntity
  8
FORMAT
 62
     0
100
AcDbLine
 10
5.0
 20
0.0
 30
0.0
 11
13.8313731789
 21
0.0
 31
0.0
  0
ENDBLK
  5
263
330
261
100
AcDbEntity
  8
0
100
AcDbBlockEnd
  0
ENDSEC
  0
SECTION
  2
ENTITIES
  0
MTEXT
  5
65
330
1F
100
AcDbEntity
  8
FORMAT
100
AcDbMText
 10
119.0506399017
 20
91.3748994401
 30
0.0
 40
2.6458333333
 41
0.0
 71
     1
 72
     1
  1
エースボール　アングル型　BH-3106R
  7
SLDTEXTSTYLE0
 73
     1
 44
1.0
  0
LINE
  5
66
330
1F
100
AcDbEntity
  8
0
  6
Continuous
 62
     7
370
    25
100
AcDbLine
 10
114.7922632794
 20
71.5311778291
 30
0.0
 11
112.8422632794
 21
79.5311778291
 31
0.0
  0
LINE
  5
67
330
1F
100
AcDbEntity
  8
0
  6
Continuous
 62
     7
370
    25
100
AcDbLine
 10
114.3422632794
 20
63.5311778291
 30
0.0
 11
114.7922632794
 21
71.5311778291
 31
0.0
  0
LINE
  5
68
330
1F
100
AcDbEntity
  8
0
  6
Continuous
 62
     7
370
    25
100
AcDbLine
 10
100.2716066537
 20
64.7872956204
 30
0.0
 11
100.3422632794
 21
63.5311778291
 31
0.0
  0
LINE
  5
69
330
1F
100
AcDbEntity
  8
0
  6
Continuous
 62
     7
370
    25
100
AcDbLine
 10
101.8422632795
 20
79.5311778291
 30
0.0
 11
101.5890317449
 21
78.4922792259
 31
0.0
  0
LINE
  5
6A
330
1F
100
AcDbEntity
  8
0
  6
Continuous
 62
     7
370
    25
100
AcDbLine
 10
95.8422632794
 20
61.0311778291
 30
0.0
 11
93.0422632794
 21
61.0311778291
 31
0.0
  0
LINE
  5
6B
330
1F
100
AcDbEntity
  8
0
  6
Continuous
 62
     7
370
    25
100
AcDbLine
 10
93.0422632794
 20
45.0311778291
 30
0.0
 11
95.8422632794
 21
45.0311778291
 31
0.0
  0
LINE
  5
6C
330
1F
100
AcDbEntity
  8
0
  6
Continuous
 62
     7
370
    25
100
AcDbLine
 10
93.0422632794
 20
61.0311778291
 30
0.0
 11
92.8422632794
 21
60.8311778291
 31
0.0
  0
LINE
  5
6D
330
1F
100
AcDbEntity
  8
0
  6
Continuous
 62
     7
370
    25
100
AcDbLine
 10
92.8422632794
 20
45.2311778291
 30
0.0
 11
93.0422632794
 21
45.0311778291
 31
0.0
  0
LINE
  5
6E
330
1F
100
AcDbEntity
  8
0
  6
Continuous
 62
     7
370
    25
100
AcDbLine
 10
81.8422632794
 20
56.0311778291
 30
0.0
 11
77.8422632794
 21
55.2811778291
 31
0.0
  0
LINE
  5
6F
330
1F
100
AcDbEntity
  8
0
  6
Continuous
 62
     7
370
    25
100
AcDbLine
 10
77.8422632794
 20
50.7811778291
 30
0.0
 11
81.8422632794
 21
50.0311778291
 31
0.0
  0
LINE
  5
70
330
1F
100
AcDbEntity
  8
0
  6
Continuous
 62
     7
370
    25
100
AcDbLine
 10
92.8422632794
 20
56.0311778291
 30
0.0
 11
89.8422632794
 21
56.0311778291
 31
0.0
  0
LINE
  5
71
330
1F
100
AcDbEntity
  8
0
  6
Continuous
 62
     7
370
    25
100
AcDbLine
 10
89.8422632794
 20
50.0311778291
 30
0.0
 11
92.8422632794
 21
50.0311778291
 31
0.0
  0
LINE
  5
72
330
1F
100
AcDbEntity
  8
0
  6
Continuous
 62
     7
370
    25
100
AcDbLine
 10
85.8422632794
 20
56.0311778291
 30
0.0
 11
81.8422632794
 21
55.2811778291
 31
0.0
  0
LINE
  5
73
330
1F
100
AcDbEntity
  8
0
  6
Continuous
 62
     7
370
    25
100
AcDbLine
 10
81.8422632794
 20
50.7811778291
 30
0.0
 11
85.8422632794
 21
50.0311778291
 31
0.0
  0
LINE
  5
74
330
1F
100
AcDbEntity
  8
0
  6
Continuous
 62
     7
370
    25
100
AcDbLine
 10
89.8422632794
 20
56.0311778291
 30
0.0
 11
85.8422632794
 21
55.2811778291
 31
0.0
  0
LINE
  5
75
330
1F
100
AcDbEntity
  8
0
  6
Continuous
 62
     7
370
    25
100
AcDbLine
 10
85.8422632794
 20
50.7811778291
 30
0.0
 11
89.8422632794
 21
50.0311778291
 31
0.0
  0
LINE
  5
76
330
1F
100
AcDbEntity
  8
0
  6
Continuous
 62
     7
370
    25
100
AcDbLine
 10
77.8422632794
 20
56.0311778291
 30
0.0
 11
73.8422632794
 21
55.2811778291
 31
0.0
  0
LINE
  5
77
330
1F
100
AcDbEntity
  8
0
  6
Continuous
 62
     7
370
    25
100
AcDbLine
 10
73.8422632794
 20
50.7811778291
 30
0.0
 11
77.8422632794
 21
50.0311778291
 31
0.0
  0
LINE
  5
78
330
1F
100
AcDbEntity
  8
0
  6
Continuous
 62
     7
370
    25
100
AcDbLine
 10
73.8422632794
 20
56.0311778291
 30
0.0
 11
70.3345709718
 21
55.3734855214
 31
0.0
  0
LINE
  5
79
330
1F
100
AcDbEntity
  8
0
  6
Continuous
 62
     7
370
    25
100
AcDbLine
 10
70.3345709718
 20
50.6888701368
 30
0.0
 11
73.8422632794
 21
50.0311778291
 31
0.0
  0
LINE
  5
7A
330
1F
100
AcDbEntity
  8
0
  6
Continuous
 62
     7
370
    25
100
AcDbLine
 10
70.3345709718
 20
55.3734855214
 30
0.0
 11
69.8422632794
 21
54.8811778291
 31
0.0
  0
LINE
  5
7B
330
1F
100
AcDbEntity
  8
0
  6
Continuous
 62
     7
370
    25
100
AcDbLine
 10
69.8422632794
 20
51.1811778291
 30
0.0
 11
70.3345709718
 21
50.6888701368
 31
0.0
  0
LINE
  5
7C
330
1F
100
AcDbEntity
  8
0
  6
Continuous
 62
     7
370
    25
100
AcDbLine
 10
118.4833945323
 20
43.2935735221
 30
0.0
 11
119.3422632794
 21
44.7811778291
 31
0.0
  0
LINE
  5
7D
330
1F
100
AcDbEntity
  8
0
  6
Continuous
 62
     7
370
    25
100
AcDbLine
 10
119.3422632794
 20
61.2811778291
 30
0.0
 11
118.4833945323
 21
62.7687821361
 31
0.0
  0
SPLINE
  5
7E
330
1F
100
AcDbEntity
  8
0
  6
Continuous
 62
     7
370
    25
100
AcDbSpline
210
0.0
220
0.0
230
1.0
 70
     8
 71
     3
 72
    12
 73
     8
 74
     0
 42
0.00000001
 43
0.00000001
 40
0.0
 40
0.0
 40
0.0
 40
0.0
 40
0.0049908070114771
 40
0.2546217883495256
 40
0.5122617214169701
 40
0.7736040349790211
 40
1.0
 40
1.0
 40
1.0
 40
1.0
 10
101.4557321455772
 20
62.5319590403325
 30
0.0
 10
101.4558702827027
 20
62.53065900203151
 30
0.0
 10
101.4629177846114
 20
62.46433344058197
 30
0.0
 10
101.4432572848364
 20
62.32894649137426
 30
0.0
 10
101.3892030518442
 20
62.13527380745411
 30
0.0
 10
101.2987100316464
 20
61.95907395353548
 30
0.0
 10
101.2120914943707
 20
61.86462786035084
 30
0.0
 10
101.1718853260294
 20
61.82078833545007
 30
0.0
  0
SPLINE
  5
7F
330
1F
100
AcDbEntity
  8
0
  6
Continuous
 62
     7
370
    25
100
AcDbSpline
210
0.0
220
0.0
230
1.0
 70
     8
 71
     3
 72
    12
 73
     8
 74
     0
 42
0.00000001
 43
0.00000001
 40
0.0
 40
0.0
 40
0.0
 40
0.0
 40
0.0815965862485722
 40
0.3746812906782849
 40
0.6419857561539455
 40
0.8881230563188379
 40
1.0
 40
1.0
 40
1.0
 40
1.0
 10
113.5274676937419
 20
61.83677030368624
 30
0.0
 10
113.512068173444
 20
61.85081678172399
 30
0.0
 10
113.4413555075554
 20
61.91531644724473
 30
0.0
 10
113.3534692933989
 20
62.05742106908674
 30
0.0
 10
113.2763264996235
 20
62.24802221140588
 30
0.0
 10
113.242810692891
 20
62.40614481281465
 30
0.0
 10
113.244784442458
 20
62.4975764024115
 30
0.0
 10
113.2454012253736
 20
62.52614813377649
 30
0.0
  0
LINE
  5
80
330
1F
100
AcDbEntity
  8
0
  6
Continuous
 62
     7
370
    25
100
AcDbLine
 10
113.2422632794
 20
62.526647009
 30
0.0
 11
113.2422632794
 21
63.5311778291
 31
0.0
  0
LINE
  5
81
330
1F
100
AcDbEntity
  8
0
  6
Continuous
 62
     7
370
    25
100
AcDbLine
 10
101.4422632794
 20
63.5311778291
 30
0.0
 11
101.4422632794
 21
62.5311778291
 31
0.0
  0
LINE
  5
82
330
1F
100
AcDbEntity
  8
0
  6
Continuous
 62
     7
370
    25
100
AcDbLine
 10
102.2429507794
 20
41.0311778291
 30
0.0
 11
102.5599836526
 21
30.8861258885
 31
0.0
  0
LINE
  5
83
330
1F
100
AcDbEntity
  8
0
  6
Continuous
 62
     7
370
    25
100
AcDbLine
 10
112.1245429063
 20
30.8861258885
 30
0.0
 11
112.4415757794
 21
41.0311778291
 31
0.0
  0
LINE
  5
84
330
1F
100
AcDbEntity
  8
0
  6
Continuous
 62
     7
370
    25
100
AcDbLine
 10
102.5599836526
 20
30.8861258885
 30
0.0
 11
103.3422632794
 21
29.5311778291
 31
0.0
  0
LINE
  5
85
330
1F
100
AcDbEntity
  8
0
  6
Continuous
 62
     7
370
    25
100
AcDbLine
 10
111.3422632794
 20
29.5311778291
 30
0.0
 11
112.1245429063
 21
30.8861258885
 31
0.0
  0
LINE
  5
86
330
1F
100
AcDbEntity
  8
0
  6
Continuous
 62
     7
370
    25
100
AcDbLine
 10
101.1720963721
 20
61.8259155584
 30
0.0
 11
100.6277320996
 21
62.7687821361
 31
0.0
  0
LINE
  5
87
330
1F
100
AcDbEntity
  8
0
  6
Continuous
 62
     7
370
    25
100
AcDbLine
 10
115.8422632794
 20
41.0311778291
 30
0.0
 11
117.0798675865
 21
41.7457090089
 31
0.0
  0
LINE
  5
88
330
1F
100
AcDbEntity
  8
0
  6
Continuous
 62
     7
370
    25
100
AcDbLine
 10
97.6046589724
 20
41.7457090089
 30
0.0
 11
98.8422632794
 21
41.0311778291
 31
0.0
  0
LINE
  5
89
330
1F
100
AcDbEntity
  8
0
  6
Continuous
 62
     7
370
    25
100
AcDbLine
 10
114.0567944593
 20
62.7687821361
 30
0.0
 11
113.5124301868
 21
61.8259155584
 31
0.0
  0
LINE
  5
8A
330
1F
100
AcDbEntity
  8
0
  6
Continuous
 62
     7
370
    25
100
AcDbLine
 10
96.5567944593
 20
62.7687821361
 30
0.0
 11
95.8422632794
 21
61.5311778291
 31
0.0
  0
LINE
  5
8B
330
1F
100
AcDbEntity
  8
0
  6
Continuous
 62
     7
370
    25
100
AcDbLine
 10
95.8422632794
 20
44.5311778291
 30
0.0
 11
96.5567944593
 21
43.2935735221
 31
0.0
  0
LINE
  5
8C
330
1F
100
AcDbEntity
  8
0
  6
Continuous
 62
     7
370
    25
100
AcDbLine
 10
117.0798675865
 20
41.7431486276
 30
0.0
 11
117.0798675865
 21
43.2935735221
 31
0.0
  0
LINE
  5
8D
330
1F
100
AcDbEntity
  8
0
  6
Continuous
 62
     7
370
    25
100
AcDbLine
 10
117.0798675865
 20
43.2935735221
 30
0.0
 11
118.4859625878
 21
43.2935735221
 31
0.0
  0
LINE
  5
8E
330
1F
100
AcDbEntity
  8
0
  6
Continuous
 62
     7
370
    25
100
AcDbLine
 10
100.6303001551
 20
62.7687821361
 30
0.0
 11
96.5542340779
 21
62.7687821361
 31
0.0
  0
LINE
  5
8F
330
1F
100
AcDbEntity
  8
0
  6
Continuous
 62
     7
370
    25
100
AcDbLine
 10
118.4859625878
 20
62.7687821361
 30
0.0
 11
114.0542264038
 21
62.7687821361
 31
0.0
  0
LINE
  5
90
330
1F
100
AcDbEntity
  8
0
  6
Continuous
 62
     7
370
    25
100
AcDbLine
 10
97.6046589724
 20
43.2935735221
 30
0.0
 11
97.6046589724
 21
41.7431486276
 31
0.0
  0
LINE
  5
91
330
1F
100
AcDbEntity
  8
0
  6
Continuous
 62
     7
370
    25
100
AcDbLine
 10
96.5542340779
 20
43.2935735221
 30
0.0
 11
97.6046589724
 21
43.2935735221
 31
0.0
  0
LINE
  5
92
330
1F
100
AcDbEntity
  8
0
  6
Continuous
 62
     7
370
    25
100
AcDbLine
 10
112.5813486121
 20
79.5311778291
 30
0.0
 11
112.5813486121
 21
80.1311778291
 31
0.0
  0
LINE
  5
93
330
1F
100
AcDbEntity
  8
0
  6
Continuous
 62
     7
370
    25
100
AcDbLine
 10
102.1031779468
 20
80.1311778291
 30
0.0
 11
102.1031779468
 21
79.5311778291
 31
0.0
  0
LINE
  5
94
330
1F
100
AcDbEntity
  8
0
  6
Continuous
 62
     7
370
    25
100
AcDbLine
 10
112.5813486121
 20
80.1311778291
 30
0.0
 11
102.1031779468
 21
80.1311778291
 31
0.0
  0
LINE
  5
95
330
1F
100
AcDbEntity
  8
0
  6
Continuous
 62
     7
370
    25
100
AcDbLine
 10
102.1031779468
 20
79.5311778291
 30
0.0
 11
112.5813486121
 21
79.5311778291
 31
0.0
  0
SPLINE
  5
96
330
1F
100
AcDbEntity
  8
0
  6
Continuous
 62
     7
370
    25
100
AcDbSpline
210
0.0
220
0.0
230
1.0
 70
     8
 71
     3
 72
    15
 73
    11
 74
     0
 42
0.00000001
 43
0.00000001
 40
0.0
 40
0.0
 40
0.0
 40
0.0
 40
0.0090459071881971
 40
0.1032433785236875
 40
0.1542564497735248
 40
0.313316902671511
 40
0.5243720399414434
 40
0.6678060008509189
 40
0.9918332554187028
 40
1.0
 40
1.0
 40
1.0
 40
1.0
 10
112.5813486121038
 20
80.1311778290993
 30
0.0
 10
112.5813429201371
 20
80.13285892768373
 30
0.0
 10
112.5812779561863
 20
80.15204575923924
 30
0.0
 10
112.5792822697505
 20
80.18074003875923
 30
0.0
 10
112.571465273534
 20
80.23141607873114
 30
0.0
 10
112.554295449779
 20
80.28929237830806
 30
0.0
 10
112.5277115532115
 20
80.33415789304274
 30
0.0
 10
112.4898822547229
 20
80.37152027629726
 30
0.0
 10
112.4616014747126
 20
80.38106628856684
 30
0.0
 10
112.4417703271813
 20
80.38117515275353
 30
0.0
 10
112.4412827930385
 20
80.3811778290993
 30
0.0
  0
SPLINE
  5
97
330
1F
100
AcDbEntity
  8
0
  6
Continuous
 62
     7
370
    25
100
AcDbSpline
210
0.0
220
0.0
230
1.0
 70
     8
 71
     3
 72
    15
 73
    11
 74
     0
 42
0.00000001
 43
0.00000001
 40
0.0
 40
0.0
 40
0.0
 40
0.0
 40
0.0081667445812973
 40
0.3321939991490813
 40
0.4756279600585592
 40
0.6866830973284899
 40
0.845743550226481
 40
0.8967566214763184
 40
0.9909540928118029
 40
1.0
 40
1.0
 40
1.0
 40
1.0
 10
102.2432437658529
 20
80.3811778290993
 30
0.0
 10
102.24275623171
 20
80.38117515275353
 30
0.0
 10
102.2229250841787
 20
80.38106628856684
 30
0.0
 10
102.1946443041685
 20
80.37152027629726
 30
0.0
 10
102.1568150056799
 20
80.33415789304274
 30
0.0
 10
102.1302311091123
 20
80.28929237830806
 30
0.0
 10
102.1130612853574
 20
80.23141607873114
 30
0.0
 10
102.1052442891409
 20
80.18074003875923
 30
0.0
 10
102.103248602705
 20
80.15204575923923
 30
0.0
 10
102.1031836387542
 20
80.13285892768373
 30
0.0
 10
102.1031779467876
 20
80.1311778290993
 30
0.0
  0
LINE
  5
98
330
1F
100
AcDbEntity
  8
0
  6
Continuous
 62
     7
370
    25
100
AcDbLine
 10
102.2432437659
 20
80.3811778291
 30
0.0
 11
112.441282793
 21
80.3811778291
 31
0.0
  0
SPLINE
  5
99
330
1F
100
AcDbEntity
  8
0
  6
Continuous
 62
     7
370
    25
100
AcDbSpline
210
0.0
220
0.0
230
1.0
 70
     8
 71
     3
 72
    15
 73
    11
 74
     0
 42
0.00000001
 43
0.00000001
 40
0.0
 40
0.0
 40
0.0
 40
0.0
 40
0.0080847466189581
 40
0.3310106400648237
 40
0.4750333064304937
 40
0.6874363079215094
 40
0.8468367539418249
 40
0.9000996640391792
 40
0.9910442771984082
 40
1.0
 40
1.0
 40
1.0
 40
1.0
 10
112.4412827930385
 20
80.3811778290993
 30
0.0
 10
112.4425626245826
 20
80.38117515268962
 30
0.0
 10
112.4949622703058
 20
80.38106557348792
 30
0.0
 10
112.5703173617609
 20
80.37138641865027
 30
0.0
 10
112.6722364737786
 20
80.3341045951885
 30
0.0
 10
112.7446274187705
 20
80.28939672200512
 30
0.0
 10
112.7923328470353
 20
80.23126107187245
 30
0.0
 10
112.8138683307427
 20
80.18037399840414
 30
0.0
 10
112.8192973467622
 20
80.15161176929664
 30
0.0
 10
112.8194730989187
 20
80.13285895467222
 30
0.0
 10
112.8194888544973
 20
80.1311778290993
 30
0.0
  0
LINE
  5
9A
330
1F
100
AcDbEntity
  8
0
  6
Continuous
 62
     7
370
    25
100
AcDbLine
 10
112.5813486121
 20
80.1311778291
 30
0.0
 11
112.8194888545
 21
80.1311778291
 31
0.0
  0
SPLINE
  5
9B
330
1F
100
AcDbEntity
  8
0
  6
Continuous
 62
     7
370
    25
100
AcDbSpline
210
0.0
220
0.0
230
1.0
 70
     8
 71
     3
 72
    15
 73
    11
 74
     0
 42
0.00000001
 43
0.00000001
 40
0.0
 40
0.0
 40
0.0
 40
0.0
 40
0.0089557228015919
 40
0.0999003359608153
 40
0.1531632460581696
 40
0.3125636920784855
 40
0.5249666935695051
 40
0.6689893599351772
 40
0.991915253381045
 40
1.0
 40
1.0
 40
1.0
 40
1.0
 10
101.865037704394
 20
80.1311778290993
 30
0.0
 10
101.8650534599726
 20
80.1328589546722
 30
0.0
 10
101.8652292121292
 20
80.15161176929665
 30
0.0
 10
101.8706582281487
 20
80.18037399840414
 30
0.0
 10
101.892193711856
 20
80.23126107187245
 30
0.0
 10
101.9398991401209
 20
80.28939672200511
 30
0.0
 10
102.0122900851128
 20
80.3341045951885
 30
0.0
 10
102.1142091971304
 20
80.37138641865027
 30
0.0
 10
102.1895642885855
 20
80.38106557348787
 30
0.0
 10
102.2419639343088
 20
80.38117515268962
 30
0.0
 10
102.2432437658529
 20
80.3811778290993
 30
0.0
  0
LINE
  5
9C
330
1F
100
AcDbEntity
  8
0
  6
Continuous
 62
     7
370
    25
100
AcDbLine
 10
101.8650377044
 20
80.1311778291
 30
0.0
 11
102.1031779468
 21
80.1311778291
 31
0.0
  0
LINE
  5
9D
330
1F
100
AcDbEntity
  8
0
  6
Continuous
 62
     7
370
    25
100
AcDbLine
 10
101.8650377044
 20
79.5311778291
 30
0.0
 11
101.8650377044
 21
80.1311778291
 31
0.0
  0
LINE
  5
9E
330
1F
100
AcDbEntity
  8
0
  6
Continuous
 62
     7
370
    25
100
AcDbLine
 10
102.1031779468
 20
79.5311778291
 30
0.0
 11
101.8650377044
 21
79.5311778291
 31
0.0
  0
LINE
  5
9F
330
1F
100
AcDbEntity
  8
0
  6
Continuous
 62
     7
370
    25
100
AcDbLine
 10
112.8194888545
 20
80.1311778291
 30
0.0
 11
112.8194888545
 21
79.5311778291
 31
0.0
  0
LINE
  5
A0
330
1F
100
AcDbEntity
  8
0
  6
Continuous
 62
     7
370
    25
100
AcDbLine
 10
112.8194888545
 20
79.5311778291
 30
0.0
 11
112.5813486121
 21
79.5311778291
 31
0.0
  0
LINE
  5
A1
330
1F
100
AcDbEntity
  8
0
  6
Continuous
 62
     7
370
    25
100
AcDbLine
 10
113.0922632794
 20
80.1311778291
 30
0.0
 11
113.0922632794
 21
80.3811778291
 31
0.0
  0
LINE
  5
A2
330
1F
100
AcDbEntity
  8
0
  6
Continuous
 62
     7
370
    25
100
AcDbLine
 10
113.0922632794
 20
80.1311778291
 30
0.0
 11
112.8194888545
 21
80.1311778291
 31
0.0
  0
LINE
  5
A3
330
1F
100
AcDbEntity
  8
0
  6
Continuous
 62
     7
370
    25
100
AcDbLine
 10
112.441282793
 20
80.3811778291
 30
0.0
 11
113.0922632794
 21
80.3811778291
 31
0.0
  0
LINE
  5
A4
330
1F
100
AcDbEntity
  8
0
  6
Continuous
 62
     7
370
    25
100
AcDbLine
 10
113.0922632794
 20
80.1311778291
 30
0.0
 11
113.3422632794
 21
80.1311778291
 31
0.0
  0
ARC
  5
A5
330
1F
100
AcDbEntity
  8
0
  6
Continuous
 62
     7
370
    25
100
AcDbCircle
 10
113.0922632794
 20
80.1311778291
 30
0.0
 40
0.25
100
AcDbArc
 50
0.0
 51
90.0
  0
LINE
  5
A6
330
1F
100
AcDbEntity
  8
0
  6
Continuous
 62
     7
370
    25
100
AcDbLine
 10
101.8650377044
 20
80.1311778291
 30
0.0
 11
101.5922632794
 21
80.1311778291
 31
0.0
  0
LINE
  5
A7
330
1F
100
AcDbEntity
  8
0
  6
Continuous
 62
     7
370
    25
100
AcDbLine
 10
101.5922632794
 20
80.3811778291
 30
0.0
 11
101.5922632794
 21
80.1311778291
 31
0.0
  0
LINE
  5
A8
330
1F
100
AcDbEntity
  8
0
  6
Continuous
 62
     7
370
    25
100
AcDbLine
 10
101.5922632794
 20
80.3811778291
 30
0.0
 11
102.2432437659
 21
80.3811778291
 31
0.0
  0
LINE
  5
A9
330
1F
100
AcDbEntity
  8
0
  6
Continuous
 62
     7
370
    25
100
AcDbLine
 10
101.3422632794
 20
79.5311778291
 30
0.0
 11
101.3422632794
 21
80.1311778291
 31
0.0
  0
LINE
  5
AA
330
1F
100
AcDbEntity
  8
0
  6
Continuous
 62
     7
370
    25
100
AcDbLine
 10
101.3422632794
 20
80.1311778291
 30
0.0
 11
101.5922632794
 21
80.1311778291
 31
0.0
  0
LINE
  5
AB
330
1F
100
AcDbEntity
  8
0
  6
Continuous
 62
     7
370
    25
100
AcDbLine
 10
101.5922632794
 20
80.1311778291
 30
0.0
 11
101.5922632794
 21
79.5311778291
 31
0.0
  0
LINE
  5
AC
330
1F
100
AcDbEntity
  8
0
  6
Continuous
 62
     7
370
    25
100
AcDbLine
 10
101.5922632794
 20
79.5311778291
 30
0.0
 11
101.3422632794
 21
79.5311778291
 31
0.0
  0
LINE
  5
AD
330
1F
100
AcDbEntity
  8
0
  6
Continuous
 62
     7
370
    25
100
AcDbLine
 10
101.5922632794
 20
79.5311778291
 30
0.0
 11
101.8650377044
 21
79.5311778291
 31
0.0
  0
LINE
  5
AE
330
1F
100
AcDbEntity
  8
0
  6
Continuous
 62
     7
370
    25
100
AcDbLine
 10
113.0922632794
 20
79.5311778291
 30
0.0
 11
113.0922632794
 21
80.1311778291
 31
0.0
  0
LINE
  5
AF
330
1F
100
AcDbEntity
  8
0
  6
Continuous
 62
     7
370
    25
100
AcDbLine
 10
112.8194888545
 20
79.5311778291
 30
0.0
 11
113.0922632794
 21
79.5311778291
 31
0.0
  0
LINE
  5
B0
330
1F
100
AcDbEntity
  8
0
  6
Continuous
 62
     7
370
    25
100
AcDbLine
 10
113.3422632794
 20
80.1311778291
 30
0.0
 11
113.3422632794
 21
79.5311778291
 31
0.0
  0
LINE
  5
B1
330
1F
100
AcDbEntity
  8
0
  6
Continuous
 62
     7
370
    25
100
AcDbLine
 10
113.3422632794
 20
79.5311778291
 30
0.0
 11
113.0922632794
 21
79.5311778291
 31
0.0
  0
ARC
  5
B2
330
1F
100
AcDbEntity
  8
0
  6
Continuous
 62
     7
370
    25
100
AcDbCircle
 10
101.5922632794
 20
80.1311778291
 30
0.0
 40
0.25
100
AcDbArc
 50
90.0
 51
180.0
  0
LINE
  5
B3
330
1F
100
AcDbEntity
  8
0
  6
Continuous
 62
     7
370
    25
100
AcDbLine
 10
102.3422632794
 20
80.3911778291
 30
0.0
 11
112.3422632794
 21
80.3911778291
 31
0.0
  0
LINE
  5
B4
330
1F
100
AcDbEntity
  8
0
  6
Continuous
 62
     7
370
    25
100
AcDbLine
 10
112.3422632794
 20
80.3811778291
 30
0.0
 11
112.3422632794
 21
80.3911778291
 31
0.0
  0
LINE
  5
B5
330
1F
100
AcDbEntity
  8
0
  6
Continuous
 62
     7
370
    25
100
AcDbLine
 10
102.3422632794
 20
80.3811778291
 30
0.0
 11
102.3422632794
 21
80.3911778291
 31
0.0
  0
LINE
  5
B6
330
1F
100
AcDbEntity
  8
0
  6
Continuous
 62
     7
370
    25
100
AcDbLine
 10
102.8677163954
 20
71.5311778291
 30
0.0
 11
114.7922632794
 21
71.5311778291
 31
0.0
  0
SPLINE
  5
B7
330
1F
100
AcDbEntity
  8
0
  6
Continuous
 62
     7
370
    25
100
AcDbSpline
210
0.0
220
0.0
230
1.0
 70
     8
 71
     3
 72
     9
 73
     5
 74
     0
 42
0.00000001
 43
0.00000001
 40
0.0
 40
0.0
 40
0.0
 40
0.0
 40
0.4978401817595073
 40
1.0
 40
1.0
 40
1.0
 40
1.0
 10
103.6279271511253
 20
72.52592140706624
 30
0.0
 10
103.4916052427546
 20
72.36941022437362
 30
0.0
 10
103.2177785944338
 20
72.05502985005462
 30
0.0
 10
102.9847393433371
 20
71.70629730202835
 30
0.0
 10
102.8677163953635
 20
71.53117782909693
 30
0.0
  0
LINE
  5
B8
330
1F
100
AcDbEntity
  8
0
  6
Continuous
 62
     7
370
    25
100
AcDbLine
 10
102.1184611051
 20
79.5311778291
 30
0.0
 11
100.3903224411
 21
72.5259214071
 31
0.0
  0
LINE
  5
B9
330
1F
100
AcDbEntity
  8
0
  6
Continuous
 62
     7
370
    25
100
AcDbLine
 10
112.5813486121
 20
79.5311778291
 30
0.0
 11
102.1184611051
 21
79.5311778291
 31
0.0
  0
LINE
  5
BA
330
1F
100
AcDbEntity
  8
0
  6
Continuous
 62
     7
370
    25
100
AcDbLine
 10
105.3422632794
 20
63.5311778291
 30
0.0
 11
114.3422632794
 21
63.5311778291
 31
0.0
  0
LINE
  5
BB
330
1F
100
AcDbEntity
  8
0
  6
Continuous
 62
     7
370
    25
100
AcDbLine
 10
105.3422632794
 20
63.5689947529
 30
0.0
 11
105.3422632794
 21
63.5311778291
 31
0.0
  0
SPLINE
  5
BC
330
1F
100
AcDbEntity
  8
0
  6
Continuous
 62
     7
370
    25
100
AcDbSpline
210
0.0
220
0.0
230
1.0
 70
     8
 71
     3
 72
     9
 73
     5
 74
     0
 42
0.00000001
 43
0.00000001
 40
0.0
 40
0.0
 40
0.0
 40
0.0
 40
0.4875141023677128
 40
0.9999999999999999
 40
0.9999999999999999
 40
0.9999999999999999
 40
0.9999999999999999
 10
105.1863180290185
 20
63.53117782909937
 30
0.0
 10
105.2126246029411
 20
63.53290517507107
 30
0.0
 10
105.2665852448893
 20
63.53644834636255
 30
0.0
 10
105.3166207755841
 20
63.55796683231185
 30
0.0
 10
105.3422632794457
 20
63.56899475289929
 30
0.0
  0
SPLINE
  5
BD
330
1F
100
AcDbEntity
  8
0
  6
Continuous
 62
     7
370
    25
100
AcDbSpline
210
0.0
220
0.0
230
1.0
 70
     8
 71
     3
 72
    17
 73
    13
 74
     0
 42
0.00000001
 43
0.00000001
 40
0.0
 40
0.0
 40
0.0
 40
0.0
 40
0.3241697628029873
 40
0.5422758463620719
 40
0.689509052693928
 40
0.7894036290694505
 40
0.8577090008137825
 40
0.9049823971474137
 40
0.9551712229700868
 40
0.9753097783197817
 40
0.9919572060138848
 40
1.0
 40
1.0
 40
1.0
 40
1.0
 10
102.8677163953635
 20
71.53117782909693
 30
0.0
 10
103.0104317553807
 20
70.61856432649125
 30
0.0
 10
103.2491680643227
 20
69.09193132022992
 30
0.0
 10
103.6287552587743
 20
67.16515841794894
 30
0.0
 10
103.9378894671214
 20
65.87752294701617
 30
0.0
 10
104.1940029953215
 20
65.01837098029443
 30
0.0
 10
104.4083139982165
 20
64.44490309191703
 30
0.0
 10
104.6115482192444
 20
64.02337093788707
 30
0.0
 10
104.796093483787
 20
63.74287839509164
 30
0.0
 10
104.9821645701551
 20
63.58732972651097
 30
0.0
 10
105.0973751694111
 20
63.53671912731347
 30
0.0
 10
105.164463974884
 20
63.53253937550883
 30
0.0
 10
105.1863180290185
 20
63.53117782909937
 30
0.0
  0
SPLINE
  5
BE
330
1F
100
AcDbEntity
  8
0
  6
Continuous
 62
     7
370
    25
100
AcDbSpline
210
0.0
220
0.0
230
1.0
 70
     8
 71
     3
 72
    14
 73
    10
 74
     0
 42
0.00000001
 43
0.00000001
 40
0.0
 40
0.0
 40
0.0
 40
0.0
 40
0.1576095309202822
 40
0.3152382602707094
 40
0.4726926441579498
 40
0.6301650083177254
 40
0.7907313191165901
 40
0.9513050385928076
 40
1.0
 40
1.0
 40
1.0
 40
1.0
 10
100.8422632794457
 20
63.5311778290993
 30
0.0
 10
100.7756922646636
 20
63.74467961757669
 30
0.0
 10
100.6425421260787
 20
64.17170920120222
 30
0.0
 10
100.313975164328
 20
64.75695628005852
 30
0.0
 10
99.900585523596
 20
65.27911082088094
 30
0.0
 10
99.40491060465136
 20
65.72808894830082
 30
0.0
 10
98.83862089936686
 20
66.0873706801072
 30
0.0
 10
98.36237024297382
 20
66.29193685920838
 30
0.0
 10
98.08217567478106
 20
66.37273140755968
 30
0.0
 10
98.01697689000802
 20
66.39153158060645
 30
0.0
  0
LINE
  5
BF
330
1F
100
AcDbEntity
  8
0
  6
Continuous
 62
     7
370
    25
100
AcDbLine
 10
98.01697689
 20
66.3915315806
 30
0.0
 11
92.2372200402
 21
67.9601530211
 31
0.0
  0
SPLINE
  5
C0
330
1F
100
AcDbEntity
  8
0
  6
Continuous
 62
     7
370
    25
100
AcDbSpline
210
0.0
220
0.0
230
1.0
 70
     8
 71
     3
 72
    11
 73
     7
 74
     0
 42
0.00000001
 43
0.00000001
 40
0.0
 40
0.0
 40
0.0
 40
0.0
 40
0.2488466353289361
 40
0.4976946020535204
 40
0.7488461225871278
 40
1.0
 40
1.0
 40
1.0
 40
1.0
 10
85.16682641790902
 20
69.28335352207485
 30
0.0
 10
85.7612624670453
 20
69.21382914558122
 30
0.0
 10
86.95013774570869
 20
69.07478002062004
 30
0.0
 10
88.72486241641774
 20
68.77445128249477
 30
0.0
 10
90.4914430581601
 20
68.4125416642396
 30
0.0
 10
91.65529255917978
 20
68.11094970717504
 30
0.0
 10
92.23722004015276
 20
67.96015302108934
 30
0.0
  0
LINE
  5
C1
330
1F
100
AcDbEntity
  8
0
  6
Continuous
 62
     7
370
    25
100
AcDbLine
 10
85.1668264179
 20
69.2833535221
 30
0.0
 11
85.1668264179
 21
72.5259214071
 31
0.0
  0
LINE
  5
C2
330
1F
100
AcDbEntity
  8
0
  6
Continuous
 62
     7
370
    25
100
AcDbLine
 10
85.1668264179
 20
72.5259214071
 30
0.0
 11
103.6279271511
 21
72.5259214071
 31
0.0
  0
LINE
  5
C3
330
1F
100
AcDbEntity
  8
0
  6
Continuous
 62
     7
370
    25
100
AcDbLine
 10
105.186318029
 20
63.5311778291
 30
0.0
 11
100.8422632794
 21
63.5311778291
 31
0.0
  0
LINE
  5
C4
330
1F
100
AcDbEntity
  8
0
  6
Continuous
 62
     7
370
    25
100
AcDbLine
 10
105.3422632794
 20
63.5689947529
 30
0.0
 11
105.3354639215
 21
63.5311778291
 31
0.0
  0
LINE
  5
C5
330
1F
100
AcDbEntity
  8
0
  6
Continuous
 62
     7
370
    25
100
AcDbLine
 10
105.3354639215
 20
63.5311778291
 30
0.0
 11
105.186318029
 21
63.5311778291
 31
0.0
  0
LINE
  5
C6
330
1F
100
AcDbEntity
  8
0
  6
Continuous
 62
     7
370
    25
100
AcDbLine
 10
105.3422632794
 20
63.5311778291
 30
0.0
 11
105.3354639215
 21
63.5311778291
 31
0.0
  0
LINE
  5
C7
330
1F
100
AcDbEntity
  8
0
  6
Continuous
 62
     7
370
    25
100
AcDbLine
 10
67.3422632794
 20
81.5311778291
 30
0.0
 11
85.1668264179
 21
81.5311778291
 31
0.0
  0
LINE
  5
C8
330
1F
100
AcDbEntity
  8
0
  6
Continuous
 62
     7
370
    25
100
AcDbLine
 10
85.1668264179
 20
81.5311778291
 30
0.0
 11
85.1668264179
 21
72.5259214071
 31
0.0
  0
LINE
  5
C9
330
1F
100
AcDbEntity
  8
0
  6
Continuous
 62
     7
370
    25
100
AcDbLine
 10
80.4505954217
 20
69.5311778291
 30
0.0
 11
72.3422632794
 21
69.5311778291
 31
0.0
  0
ARC
  5
CA
330
1F
100
AcDbEntity
  8
0
  6
Continuous
 62
     7
370
    25
100
AcDbCircle
 10
72.3422632794
 20
74.5311778291
 30
0.0
 40
4.999999999999986
100
AcDbArc
 50
180.0
 51
270.0
  0
LINE
  5
CB
330
1F
100
AcDbEntity
  8
0
  6
Continuous
 62
     7
370
    25
100
AcDbLine
 10
67.3422632794
 20
74.5311778291
 30
0.0
 11
67.3422632794
 21
81.5311778291
 31
0.0
  0
ARC
  5
CC
330
1F
100
AcDbEntity
  8
0
  6
Continuous
 62
     7
370
    25
100
AcDbCircle
 10
80.4505954217
 20
24.5310485749
 30
0.0
 40
45.00012925418375
100
AcDbArc
 50
83.9840777705
 51
90.0
  0
LINE
  5
CD
330
1F
100
AcDbEntity
  8
0
  6
Continuous
 62
     7
370
    25
100
AcDbLine
 10
85.1668264179
 20
81.5311778291
 30
0.0
 11
87.3422632794
 21
81.5311778291
 31
0.0
  0
LINE
  5
CE
330
1F
100
AcDbEntity
  8
0
  6
Continuous
 62
     7
370
    25
100
AcDbLine
 10
87.3422632794
 20
81.5311778291
 30
0.0
 11
87.3422632794
 21
79.5501333525
 31
0.0
  0
ARC
  5
CF
330
1F
100
AcDbEntity
  8
0
  6
Continuous
 62
     7
370
    25
100
AcDbCircle
 10
93.3422632794
 20
79.5501333525
 30
0.0
 40
6.000000000000004
100
AcDbArc
 50
180.0
 51
275.5801667845
  0
ARC
  5
D0
330
1F
100
AcDbEntity
  8
0
  6
Continuous
 62
     7
370
    25
100
AcDbCircle
 10
92.9533097152
 20
83.5311778291
 30
0.0
 40
10.00000000000846
100
AcDbArc
 50
275.5801667845
 51
336.4218215217
  0
LINE
  5
D1
330
1F
100
AcDbEntity
  8
0
  6
Continuous
 62
     7
370
    25
100
AcDbLine
 10
100.8422632794
 20
63.5311778291
 30
0.0
 11
100.3422632794
 21
63.5311778291
 31
0.0
  0
LINE
  5
D2
330
1F
100
AcDbEntity
  8
0
  6
Continuous
 62
     7
370
    25
100
AcDbLine
 10
102.1031779468
 20
79.5311778291
 30
0.0
 11
102.1184611051
 21
79.5311778291
 31
0.0
  0
LINE
  5
D3
330
1F
100
AcDbEntity
  8
0
  6
Continuous
 62
     7
370
    25
100
AcDbLine
 10
93.0422632794
 20
61.0311778291
 30
0.0
 11
93.0422632794
 21
45.0311778291
 31
0.0
  0
LINE
  5
D4
330
1F
100
AcDbEntity
  8
0
  6
Continuous
 62
     7
370
    25
100
AcDbLine
 10
92.8422632794
 20
45.2311778291
 30
0.0
 11
92.8422632794
 21
60.8311778291
 31
0.0
  0
LINE
  5
D5
330
1F
100
AcDbEntity
  8
0
  6
Continuous
 62
     7
370
    25
100
AcDbLine
 10
81.8422632794
 20
56.0311778291
 30
0.0
 11
81.8422632794
 21
50.0311778291
 31
0.0
  0
LINE
  5
D6
330
1F
100
AcDbEntity
  8
0
  6
Continuous
 62
     7
370
    25
100
AcDbLine
 10
89.8422632794
 20
56.0311778291
 30
0.0
 11
89.8422632794
 21
50.0311778291
 31
0.0
  0
LINE
  5
D7
330
1F
100
AcDbEntity
  8
0
  6
Continuous
 62
     7
370
    25
100
AcDbLine
 10
85.8422632794
 20
56.0311778291
 30
0.0
 11
85.8422632794
 21
50.0311778291
 31
0.0
  0
LINE
  5
D8
330
1F
100
AcDbEntity
  8
0
  6
Continuous
 62
     7
370
    25
100
AcDbLine
 10
77.8422632794
 20
56.0311778291
 30
0.0
 11
77.8422632794
 21
50.0311778291
 31
0.0
  0
LINE
  5
D9
330
1F
100
AcDbEntity
  8
0
  6
Continuous
 62
     7
370
    25
100
AcDbLine
 10
70.3345709718
 20
54.0988166112
 30
0.0
 11
70.3345709718
 21
50.6888701368
 31
0.0
  0
LINE
  5
DA
330
1F
100
AcDbEntity
  8
0
  6
Continuous
 62
     7
370
    25
100
AcDbLine
 10
70.3345709718
 20
55.3734855214
 30
0.0
 11
70.3345709718
 21
54.0988166112
 31
0.0
  0
LINE
  5
DB
330
1F
100
AcDbEntity
  8
0
  6
Continuous
 62
     7
370
    25
100
AcDbLine
 10
73.8422632794
 20
56.0311778291
 30
0.0
 11
73.8422632794
 21
50.0311778291
 31
0.0
  0
LINE
  5
DC
330
1F
100
AcDbEntity
  8
0
  6
Continuous
 62
     7
370
    25
100
AcDbLine
 10
69.8422632794
 20
51.1811778291
 30
0.0
 11
69.8422632794
 21
54.8811778291
 31
0.0
  0
SPLINE
  5
DD
330
1F
100
AcDbEntity
  8
0
  6
Continuous
 62
     7
370
    25
100
AcDbSpline
210
0.0
220
0.0
230
1.0
 70
     8
 71
     3
 72
    10
 73
     6
 74
     0
 42
0.00000001
 43
0.00000001
 40
0.0
 40
0.0
 40
0.0
 40
0.0
 40
0.5
 40
0.5
 40
1.0
 40
1.0
 40
1.0
 40
1.0
 10
111.9610654329627
 20
41.70889923435949
 30
0.0
 10
112.0469470754691
 20
41.73257313491545
 30
0.0
 10
112.1343562814346
 20
41.74566569209458
 30
0.0
 10
112.2869987665095
 20
41.74575210607686
 30
0.0
 10
112.3511217515919
 20
41.73258171447824
 30
0.0
 10
112.3940781348549
 20
41.70889923435949
 30
0.0
  0
SPLINE
  5
DE
330
1F
100
AcDbEntity
  8
0
  6
Continuous
 62
     7
370
    25
100
AcDbSpline
210
0.0
220
0.0
230
1.0
 70
     8
 71
     3
 72
    12
 73
     8
 74
     0
 42
0.00000001
 43
0.00000001
 40
0.0
 40
0.0
 40
0.0
 40
0.0
 40
0.2499999999999998
 40
0.2499999999999998
 40
0.4999999999999996
 40
0.4999999999999996
 40
1.0
 40
1.0
 40
1.0
 40
1.0
 10
114.7034792116134
 20
41.0311778290993
 30
0.0
 10
114.5084757316076
 20
41.0311778290993
 30
0.0
 10
114.3119410725832
 20
41.04692415912125
 30
0.0
 10
113.9225213849777
 20
41.10836918370668
 30
0.0
 10
113.7290366919174
 20
41.15395794296041
 30
0.0
 10
113.1518530931618
 20
41.33040894521702
 30
0.0
 10
112.7714173113788
 20
41.50086664718051
 30
0.0
 10
112.3940781348549
 20
41.70889923435934
 30
0.0
  0
SPLINE
  5
DF
330
1F
100
AcDbEntity
  8
0
  6
Continuous
 62
     7
370
    25
100
AcDbSpline
210
0.0
220
0.0
230
1.0
 70
     8
 71
     3
 72
    10
 73
     6
 74
     0
 42
0.00000001
 43
0.00000001
 40
0.0
 40
0.0
 40
0.0
 40
0.0
 40
0.5
 40
0.5
 40
1.0
 40
1.0
 40
1.0
 40
1.0
 10
107.3422632794457
 20
41.0311778290993
 30
0.0
 10
108.1178432160526
 20
41.03117782909931
 30
0.0
 10
108.8915334347791
 20
41.09346219107782
 30
0.0
 10
110.4355679771119
 20
41.32831030908484
 30
0.0
 10
111.2088766532668
 20
41.50155291621604
 30
0.0
 10
111.9610654329627
 20
41.70889923435949
 30
0.0
  0
LINE
  5
E0
330
1F
100
AcDbEntity
  8
0
  6
Continuous
 62
     7
370
    25
100
AcDbLine
 10
107.3422632794
 20
41.0311778291
 30
0.0
 11
114.7034792116
 21
41.0311778291
 31
0.0
  0
SPLINE
  5
E1
330
1F
100
AcDbEntity
  8
0
  6
Continuous
 62
     7
370
    25
100
AcDbSpline
210
0.0
220
0.0
230
1.0
 70
     8
 71
     3
 72
    10
 73
     6
 74
     0
 42
0.00000001
 43
0.00000001
 40
0.0
 40
0.0
 40
0.0
 40
0.0
 40
0.5
 40
0.5
 40
1.0
 40
1.0
 40
1.0
 40
1.0
 10
102.2904484240365
 20
41.70889923435902
 30
0.0
 10
101.9116992766452
 20
41.50008930969276
 30
0.0
 10
101.5304940002339
 20
41.32955516994551
 30
0.0
 10
100.7612633790461
 20
41.09476936492659
 30
0.0
 10
100.3731956742478
 20
41.0311778290993
 30
0.0
 10
99.98104734727796
 20
41.0311778290993
 30
0.0
  0
SPLINE
  5
E2
330
1F
100
AcDbEntity
  8
0
  6
Continuous
 62
     7
370
    25
100
AcDbSpline
210
0.0
220
0.0
230
1.0
 70
     8
 71
     3
 72
    10
 73
     6
 74
     0
 42
0.00000001
 43
0.00000001
 40
0.0
 40
0.0
 40
0.0
 40
0.0
 40
0.5
 40
0.5
 40
1.0
 40
1.0
 40
1.0
 40
1.0
 10
102.2904484240365
 20
41.70889923435949
 30
0.0
 10
102.3333862331357
 20
41.73257147427105
 30
0.0
 10
102.3968268230279
 20
41.74566546420631
 30
0.0
 10
102.5493159685367
 20
41.74575233166776
 30
0.0
 10
102.6375453577401
 20
41.7325825419084
 30
0.0
 10
102.7234611259287
 20
41.70889923435949
 30
0.0
  0
SPLINE
  5
E3
330
1F
100
AcDbEntity
  8
0
  6
Continuous
 62
     7
370
    25
100
AcDbSpline
210
0.0
220
0.0
230
1.0
 70
     8
 71
     3
 72
    10
 73
     6
 74
     0
 42
0.00000001
 43
0.00000001
 40
0.0
 40
0.0
 40
0.0
 40
0.0
 40
0.5
 40
0.5
 40
1.0
 40
1.0
 40
1.0
 40
1.0
 10
102.7234611259287
 20
41.70889923435946
 30
0.0
 10
103.4741398254245
 20
41.50196918082676
 30
0.0
 10
104.2384207696471
 20
41.33016357045306
 30
0.0
 10
105.7929955037347
 20
41.09321306392169
 30
0.0
 10
106.5685704712508
 20
41.0311778290993
 30
0.0
 10
107.3422632794457
 20
41.0311778290993
 30
0.0
  0
LINE
  5
E4
330
1F
100
AcDbEntity
  8
0
  6
Continuous
 62
     7
370
    25
100
AcDbLine
 10
99.9810473473
 20
41.0311778291
 30
0.0
 11
107.3422632794
 21
41.0311778291
 31
0.0
  0
LINE
  5
E5
330
1F
100
AcDbEntity
  8
0
  6
Continuous
 62
     7
370
    25
100
AcDbLine
 10
102.7234611259
 20
45.0647812892
 30
0.0
 11
102.7234611259
 21
41.7088992344
 31
0.0
  0
SPLINE
  5
E6
330
1F
100
AcDbEntity
  8
0
  6
Continuous
 62
     7
370
    25
100
AcDbSpline
210
0.0
220
0.0
230
1.0
 70
     8
 71
     3
 72
     8
 73
     4
 74
     0
 42
0.00000001
 43
0.00000001
 40
0.0
 40
0.0
 40
0.0
 40
0.0
 40
1.0
 40
1.0
 40
1.0
 40
1.0
 10
102.7234611259287
 20
45.06478128924431
 30
0.0
 10
102.928646948472
 20
45.12134225636853
 30
0.0
 10
103.1348701491792
 20
45.17528232778236
 30
0.0
 10
103.3422632794457
 20
45.22626661752533
 30
0.0
  0
LINE
  5
E7
330
1F
100
AcDbEntity
  8
0
  6
Continuous
 62
     7
370
    25
100
AcDbLine
 10
103.3422632794
 20
45.2262666175
 30
0.0
 11
103.3422632794
 21
49.0311778291
 31
0.0
  0
LINE
  5
E8
330
1F
100
AcDbEntity
  8
0
  6
Continuous
 62
     7
370
    25
100
AcDbLine
 10
103.3422632794
 20
49.0311778291
 30
0.0
 11
100.8260272025
 21
49.0311778291
 31
0.0
  0
SPLINE
  5
E9
330
1F
100
AcDbEntity
  8
0
  6
Continuous
 62
     7
370
    25
100
AcDbSpline
210
0.0
220
0.0
230
1.0
 70
     8
 71
     3
 72
     8
 73
     4
 74
     0
 42
0.00000001
 43
0.00000001
 40
0.0
 40
0.0
 40
0.0
 40
0.0
 40
1.0
 40
1.0
 40
1.0
 40
1.0
 10
100.6645418741855
 20
48.41237567558226
 30
0.0
 10
100.7211052436537
 20
48.61757021309203
 30
0.0
 10
100.775045166475
 20
48.82379386660919
 30
0.0
 10
100.8260272024665
 20
49.0311778290993
 30
0.0
  0
LINE
  5
EA
330
1F
100
AcDbEntity
  8
0
  6
Continuous
 62
     7
370
    25
100
AcDbLine
 10
96.5199846847
 20
48.4123756756
 30
0.0
 11
100.6645418742
 21
48.4123756756
 31
0.0
  0
SPLINE
  5
EB
330
1F
100
AcDbEntity
  8
0
  6
Continuous
 62
     7
370
    25
100
AcDbSpline
210
0.0
220
0.0
230
1.0
 70
     8
 71
     3
 72
    10
 73
     6
 74
     0
 42
0.00000001
 43
0.00000001
 40
0.0
 40
0.0
 40
0.0
 40
0.0
 40
0.5
 40
0.5
 40
1.0
 40
1.0
 40
1.0
 40
1.0
 10
96.51998468470588
 20
48.41237567558228
 30
0.0
 10
96.31191600847467
 20
49.16718494863158
 30
0.0
 10
96.14151700245012
 20
49.92793133586348
 30
0.0
 10
95.90635702275128
 20
51.46607371348674
 30
0.0
 10
95.84226327944569
 20
52.24357486601156
 30
0.0
 10
95.84226327944569
 20
53.0311778290993
 30
0.0
  0
SPLINE
  5
EC
330
1F
100
AcDbEntity
  8
0
  6
Continuous
 62
     7
370
    25
100
AcDbSpline
210
0.0
220
0.0
230
1.0
 70
     8
 71
     3
 72
    12
 73
     8
 74
     0
 42
0.00000001
 43
0.00000001
 40
0.0
 40
0.0
 40
0.0
 40
0.0
 40
0.2500000000000001
 40
0.2500000000000001
 40
0.5000000000000001
 40
0.5000000000000001
 40
1.0
 40
1.0
 40
1.0
 40
1.0
 10
95.84226327944569
 20
53.0311778290993
 30
0.0
 10
95.84226327944569
 20
53.42549590977114
 30
0.0
 10
95.85826208442676
 20
53.81915495372157
 30
0.0
 10
95.92003222274114
 20
54.59869095326692
 30
0.0
 10
95.96577434704274
 20
54.98564414139234
 30
0.0
 10
96.1424444943896
 20
56.13903070424634
 30
0.0
 10
96.31269955986988
 20
56.89801319345138
 30
0.0
 10
96.51998468470588
 20
57.64997998261631
 30
0.0
  0
LINE
  5
ED
330
1F
100
AcDbEntity
  8
0
  6
Continuous
 62
     7
370
    25
100
AcDbLine
 10
100.6645418742
 20
57.6499799826
 30
0.0
 11
96.5199846847
 21
57.6499799826
 31
0.0
  0
SPLINE
  5
EE
330
1F
100
AcDbEntity
  8
0
  6
Continuous
 62
     7
370
    25
100
AcDbSpline
210
0.0
220
0.0
230
1.0
 70
     8
 71
     3
 72
     8
 73
     4
 74
     0
 42
0.00000001
 43
0.00000001
 40
0.0
 40
0.0
 40
0.0
 40
0.0
 40
1.0
 40
1.0
 40
1.0
 40
1.0
 10
100.8260272024665
 20
57.03117782909931
 30
0.0
 10
100.775128485544
 20
57.2382228675283
 30
0.0
 10
100.7211943492932
 20
57.44446219720493
 30
0.0
 10
100.6645418741855
 20
57.64997998261631
 30
0.0
  0
LINE
  5
EF
330
1F
100
AcDbEntity
  8
0
  6
Continuous
 62
     7
370
    25
100
AcDbLine
 10
113.8584993564
 20
57.0311778291
 30
0.0
 11
100.8260272025
 21
57.0311778291
 31
0.0
  0
SPLINE
  5
F0
330
1F
100
AcDbEntity
  8
0
  6
Continuous
 62
     7
370
    25
100
AcDbSpline
210
0.0
220
0.0
230
1.0
 70
     8
 71
     3
 72
     8
 73
     4
 74
     0
 42
0.00000001
 43
0.00000001
 40
0.0
 40
0.0
 40
0.0
 40
0.0
 40
1.0
 40
1.0
 40
1.0
 40
1.0
 10
113.8584993564249
 20
57.03117782909937
 30
0.0
 10
113.90939558968
 20
57.23821276450313
 30
0.0
 10
113.9633295446436
 20
57.44445252956812
 30
0.0
 10
114.0199846847059
 20
57.64997998261632
 30
0.0
  0
LINE
  5
F1
330
1F
100
AcDbEntity
  8
0
  6
Continuous
 62
     7
370
    25
100
AcDbLine
 10
118.5202043069
 20
57.6499799826
 30
0.0
 11
114.0199846847
 21
57.6499799826
 31
0.0
  0
SPLINE
  5
F2
330
1F
100
AcDbEntity
  8
0
  6
Continuous
 62
     7
370
    25
100
AcDbSpline
210
0.0
220
0.0
230
1.0
 70
     8
 71
     3
 72
    14
 73
    10
 74
     0
 42
0.00000001
 43
0.00000001
 40
0.0
 40
0.0
 40
0.0
 40
0.0
 40
0.25
 40
0.25
 40
0.5
 40
0.5
 40
0.75
 40
0.75
 40
1.0
 40
1.0
 40
1.0
 40
1.0
 10
118.5202043068881
 20
48.41237567558225
 30
0.0
 10
118.7281546675939
 20
49.16675573623223
 30
0.0
 10
118.9003764762827
 20
49.93619690369773
 30
0.0
 10
119.1350115990336
 20
51.47670826463889
 30
0.0
 10
119.1979556576613
 20
52.25156264464592
 30
0.0
 10
119.1978957449299
 20
53.81192359953147
 30
0.0
 10
119.1332810786377
 20
54.6023797923165
 30
0.0
 10
118.8967217392365
 20
56.14465945512497
 30
0.0
 10
118.7263765991571
 20
56.90205020832615
 30
0.0
 10
118.5202043068881
 20
57.64997998261631
 30
0.0
  0
LINE
  5
F3
330
1F
100
AcDbEntity
  8
0
  6
Continuous
 62
     7
370
    25
100
AcDbLine
 10
114.0199846847
 20
48.4123756756
 30
0.0
 11
118.5202043069
 21
48.4123756756
 31
0.0
  0
SPLINE
  5
F4
330
1F
100
AcDbEntity
  8
0
  6
Continuous
 62
     7
370
    25
100
AcDbSpline
210
0.0
220
0.0
230
1.0
 70
     8
 71
     3
 72
     8
 73
     4
 74
     0
 42
0.00000001
 43
0.00000001
 40
0.0
 40
0.0
 40
0.0
 40
0.0
 40
1.0
 40
1.0
 40
1.0
 40
1.0
 10
114.0199846847059
 20
48.41237567558227
 30
0.0
 10
113.9634228412689
 20
48.61756467711908
 30
0.0
 10
113.9094828240125
 20
48.82378804318378
 30
0.0
 10
113.8584993564249
 20
49.03117782909924
 30
0.0
  0
LINE
  5
F5
330
1F
100
AcDbEntity
  8
0
  6
Continuous
 62
     7
370
    25
100
AcDbLine
 10
113.8584993564
 20
49.0311778291
 30
0.0
 11
111.3422632794
 21
49.0311778291
 31
0.0
  0
SPLINE
  5
F6
330
1F
100
AcDbEntity
  8
0
  6
Continuous
 62
     7
370
    25
100
AcDbSpline
210
0.0
220
0.0
230
1.0
 70
     8
 71
     3
 72
     8
 73
     4
 74
     0
 42
0.00000001
 43
0.00000001
 40
0.0
 40
0.0
 40
0.0
 40
0.0
 40
1.0
 40
1.0
 40
1.0
 40
1.0
 10
111.3422632794457
 20
45.22626661752532
 30
0.0
 10
111.5492923427811
 20
45.17537182782449
 30
0.0
 10
111.7555323600504
 20
45.12143797846306
 30
0.0
 10
111.9610654329627
 20
45.0647812892443
 30
0.0
  0
LINE
  5
F7
330
1F
100
AcDbEntity
  8
0
  6
Continuous
 62
     7
370
    25
100
AcDbLine
 10
111.961065433
 20
41.7088992344
 30
0.0
 11
111.961065433
 21
45.0647812892
 31
0.0
  0
ARC
  5
F8
330
1F
100
AcDbEntity
  8
0
  6
Continuous
 62
     7
370
    25
100
AcDbCircle
 10
108.8929946352
 20
52.4542588358
 30
0.0
 40
0.8889999999999969
100
AcDbArc
 50
45.0
 51
315.0
  0
LINE
  5
F9
330
1F
100
AcDbEntity
  8
0
  6
Continuous
 62
     7
370
    25
100
AcDbLine
 10
109.5216125636
 20
53.0828767643
 30
0.0
 11
109.9882229493
 21
53.5494871499
 31
0.0
  0
ARC
  5
FA
330
1F
100
AcDbEntity
  8
0
  6
Continuous
 62
     7
370
    25
100
AcDbCircle
 10
108.8929946352
 20
52.4542588358
 30
0.0
 40
1.548886735692384
100
AcDbArc
 50
45.0
 51
315.0
  0
LINE
  5
FB
330
1F
100
AcDbEntity
  8
0
  6
Continuous
 62
     7
370
    25
100
AcDbLine
 10
109.9882229493
 20
51.3590305217
 30
0.0
 11
109.5216125636
 21
51.8256409073
 31
0.0
  0
ARC
  5
FC
330
1F
100
AcDbEntity
  8
0
  6
Continuous
 62
     7
370
    25
100
AcDbCircle
 10
112.2351392315
 20
52.4542588358
 30
0.0
 40
0.8889999999999768
100
AcDbArc
 50
45.0
 51
159.0751675724
  0
LINE
  5
FD
330
1F
100
AcDbEntity
  8
0
  6
Continuous
 62
     7
370
    25
100
AcDbLine
 10
112.86375716
 20
53.0828767643
 30
0.0
 11
113.3303675456
 21
53.5494871499
 31
0.0
  0
ARC
  5
FE
330
1F
100
AcDbEntity
  8
0
  6
Continuous
 62
     7
370
    25
100
AcDbCircle
 10
112.2351392315
 20
52.4542588358
 30
0.0
 40
1.548886735692369
100
AcDbArc
 50
45.0
 51
315.0
  0
LINE
  5
FF
330
1F
100
AcDbEntity
  8
0
  6
Continuous
 62
     7
370
    25
100
AcDbLine
 10
113.3303675456
 20
51.3590305217
 30
0.0
 11
112.86375716
 21
51.8256409073
 31
0.0
  0
ARC
  5
100
330
1F
100
AcDbEntity
  8
0
  6
Continuous
 62
     7
370
    25
100
AcDbCircle
 10
112.2351392315
 20
52.4542588358
 30
0.0
 40
0.8890000000000298
100
AcDbArc
 50
200.9248324276
 51
315.0
  0
LINE
  5
101
330
1F
100
AcDbEntity
  8
0
  6
Continuous
 62
     7
370
    25
100
AcDbLine
 10
111.4047689828
 20
52.1367588358
 30
0.0
 11
113.3303675456
 21
52.1367588358
 31
0.0
  0
LINE
  5
102
330
1F
100
AcDbEntity
  8
0
  6
Continuous
 62
     7
370
    25
100
AcDbLine
 10
113.3303675456
 20
52.1367588358
 30
0.0
 11
113.3303675456
 21
52.7717588358
 31
0.0
  0
LINE
  5
103
330
1F
100
AcDbEntity
  8
0
  6
Continuous
 62
     7
370
    25
100
AcDbLine
 10
113.3303675456
 20
52.7717588358
 30
0.0
 11
111.4047689828
 21
52.7717588358
 31
0.0
  0
LINE
  5
104
330
1F
100
AcDbEntity
  8
0
  6
Continuous
 62
     7
370
    25
100
AcDbLine
 10
106.4405043655
 20
51.6088048115
 30
0.0
 11
106.3988540462
 21
51.5849998817
 31
0.0
  0
ELLIPSE
  5
105
330
1F
100
AcDbEntity
  8
0
  6
Continuous
 62
     7
370
    25
100
AcDbEllipse
 10
106.0500108667
 20
52.1396823529
 30
0.0
 11
0.6784129479252528
 21
6.110667527536863E-13
 31
0.0
210
0.0
220
0.0
230
1.0
 40
0.9533039403
 41
3.470145824140269
 42
5.252469180536313
  0
LINE
  5
106
330
1F
100
AcDbEntity
  8
0
  6
Continuous
 62
     7
370
    25
100
AcDbLine
 10
105.4078860996
 20
51.9309982379
 30
0.0
 11
104.1482318947
 21
55.4534426346
 31
0.0
  0
ELLIPSE
  5
107
330
1F
100
AcDbEntity
  8
0
  6
Continuous
 62
     7
370
    25
100
AcDbEllipse
 10
103.5572493368
 20
55.1911033985
 30
0.0
 11
0.6519124952381503
 21
6.110667527536862E-13
 31
0.0
210
0.0
220
0.0
230
1.0
 40
0.9533023292
 41
0.4357905044354913
 42
2.705800116361509
  0
LINE
  5
108
330
1F
100
AcDbEntity
  8
0
  6
Continuous
 62
     7
370
    25
100
AcDbLine
 10
102.9662673383
 20
55.4534437798
 30
0.0
 11
101.7069025366
 21
51.9318203781
 31
0.0
  0
ELLIPSE
  5
109
330
1F
100
AcDbEntity
  8
0
  6
Continuous
 62
     7
370
    25
100
AcDbEllipse
 10
101.0647813526
 20
52.1405032117
 30
0.0
 11
-0.6784085062757725
 21
3.268496584496461E-13
 31
0.0
210
0.0
220
0.0
230
1.0
 40
0.9533122623
 41
1.047193771187957
 42
2.813042320199948
  0
LINE
  5
10A
330
1F
100
AcDbEntity
  8
0
  6
Continuous
 62
     7
370
    25
100
AcDbLine
 10
100.7255748786
 20
51.5804153665
 30
0.0
 11
100.6739943081
 21
51.6088048115
 31
0.0
  0
LINE
  5
10B
330
1F
100
AcDbEntity
  8
0
  6
Continuous
 62
     7
370
    25
100
AcDbLine
 10
100.6739943081
 20
51.6088048115
 30
0.0
 11
101.4702629676
 21
50.0906327101
 31
0.0
  0
ELLIPSE
  5
10C
330
1F
100
AcDbEntity
  8
0
  6
Continuous
 62
     7
370
    25
100
AcDbEllipse
 10
101.5461118411
 20
50.126786225
 30
0.0
 11
0.08480161849065837
 21
-2.131628207280301E-14
 31
0.0
210
0.0
220
0.0
230
1.0
 40
0.9533039403
 41
3.605240262590865
 42
5.462183310215417
  0
ELLIPSE
  5
10D
330
1F
100
AcDbEntity
  8
0
  6
Continuous
 62
     7
370
    25
100
AcDbEllipse
 10
103.5572493368
 20
48.0679376045
 30
0.0
 11
2.866293551216202
 21
-1.492139745096210E-12
 31
0.0
210
0.0
220
0.0
230
1.0
 40
0.9533046568
 41
0.8210016221243817
 42
2.320591031466439
  0
ELLIPSE
  5
10E
330
1F
100
AcDbEntity
  8
0
  6
Continuous
 62
     7
370
    25
100
AcDbEllipse
 10
105.5683868325
 20
50.126786225
 30
0.0
 11
0.08480161849061574
 21
-7.105427357601002E-15
 31
0.0
210
0.0
220
0.0
230
1.0
 40
0.9533039403
 41
3.962594650556695
 42
5.819537698177264
  0
LINE
  5
10F
330
1F
100
AcDbEntity
  8
0
  6
Continuous
 62
     7
370
    25
100
AcDbLine
 10
105.6442357059
 20
50.0906327101
 30
0.0
 11
106.4405043655
 21
51.6088048115
 31
0.0
  0
LINE
  5
110
330
1F
100
AcDbEntity
  8
0
  6
Continuous
 62
     7
370
    25
100
AcDbLine
 10
111.3422632794
 20
45.2262666175
 30
0.0
 11
111.3422632794
 21
49.0311778291
 31
0.0
  0
LINE
  5
111
330
1F
100
AcDbEntity
  8
0
  6
Continuous
 62
     7
370
    25
100
AcDbLine
 10
101.3422632794
 20
60.3923937613
 30
0.0
 11
101.3422632794
 21
57.0311778291
 31
0.0
  0
SPLINE
  5
112
330
1F
100
AcDbEntity
  8
0
  6
Continuous
 62
     7
370
    25
100
AcDbSpline
210
0.0
220
0.0
230
1.0
 70
     8
 71
     3
 72
    10
 73
     6
 74
     0
 42
0.00000001
 43
0.00000001
 40
0.0
 40
0.0
 40
0.0
 40
0.0
 40
0.5
 40
0.5
 40
1.0
 40
1.0
 40
1.0
 40
1.0
 10
100.6645418741855
 20
58.08299268450853
 30
0.0
 10
100.6408664797611
 20
58.04004915360731
 30
0.0
 10
100.6277753698765
 20
57.97660670898318
 30
0.0
 10
100.6276890485882
 20
57.82412787186421
 30
0.0
 10
100.640857982532
 20
57.73589786975694
 30
0.0
 10
100.6645418741855
 20
57.64997998261631
 30
0.0
  0
SPLINE
  5
113
330
1F
100
AcDbEntity
  8
0
  6
Continuous
 62
     7
370
    25
100
AcDbSpline
210
0.0
220
0.0
230
1.0
 70
     8
 71
     3
 72
    12
 73
     8
 74
     0
 42
0.00000001
 43
0.00000001
 40
0.0
 40
0.0
 40
0.0
 40
0.0
 40
0.2500000000000001
 40
0.2500000000000001
 40
0.5000000000000002
 40
0.5000000000000002
 40
1.0
 40
1.0
 40
1.0
 40
1.0
 10
101.3422632794457
 20
60.39239376126703
 30
0.0
 10
101.3422632794457
 20
60.19665149838752
 30
0.0
 10
101.3264203433567
 20
59.99998488919696
 30
0.0
 10
101.264917483119
 20
59.61071666186867
 30
0.0
 10
101.2193138420754
 20
59.41731262891576
 30
0.0
 10
101.0428628245862
 20
58.840383577659
 30
0.0
 10
100.8724654573343
 20
58.46013414445599
 30
0.0
 10
100.6645418741855
 20
58.08299268450853
 30
0.0
  0
SPLINE
  5
114
330
1F
100
AcDbEntity
  8
0
  6
Continuous
 62
     7
370
    25
100
AcDbSpline
210
0.0
220
0.0
230
1.0
 70
     8
 71
     3
 72
    10
 73
     6
 74
     0
 42
0.00000001
 43
0.00000001
 40
0.0
 40
0.0
 40
0.0
 40
0.0
 40
0.5
 40
0.5
 40
1.0
 40
1.0
 40
1.0
 40
1.0
 10
102.2904484240365
 20
45.0647812892443
 30
0.0
 10
102.3333919549377
 20
45.04110589481991
 30
0.0
 10
102.3968343995618
 20
45.02801478493527
 30
0.0
 10
102.5493132366808
 20
45.02792846364699
 30
0.0
 10
102.637543238788
 20
45.04109739759083
 30
0.0
 10
102.7234611259287
 20
45.06478128924429
 30
0.0
  0
LINE
  5
115
330
1F
100
AcDbEntity
  8
0
  6
Continuous
 62
     7
370
    25
100
AcDbLine
 10
102.290448424
 20
41.7088992344
 30
0.0
 11
102.290448424
 21
45.0647812892
 31
0.0
  0
SPLINE
  5
116
330
1F
100
AcDbEntity
  8
0
  6
Continuous
 62
     7
370
    25
100
AcDbSpline
210
0.0
220
0.0
230
1.0
 70
     8
 71
     3
 72
    10
 73
     6
 74
     0
 42
0.00000001
 43
0.00000001
 40
0.0
 40
0.0
 40
0.0
 40
0.0
 40
0.5
 40
0.5
 40
1.0
 40
1.0
 40
1.0
 40
1.0
 10
96.51998468470588
 20
58.08299268450853
 30
0.0
 10
96.54365692461744
 20
58.0400548754093
 30
0.0
 10
96.5567509145527
 20
57.97661428551709
 30
0.0
 10
96.55683778201414
 20
57.82412514000825
 30
0.0
 10
96.5436679922548
 20
57.73589575080494
 30
0.0
 10
96.51998468470588
 20
57.64997998261631
 30
0.0
  0
LINE
  5
117
330
1F
100
AcDbEntity
  8
0
  6
Continuous
 62
     7
370
    25
100
AcDbLine
 10
96.5199846847
 20
58.0829926845
 30
0.0
 11
100.6645418742
 21
58.0829926845
 31
0.0
  0
SPLINE
  5
118
330
1F
100
AcDbEntity
  8
0
  6
Continuous
 62
     7
370
    25
100
AcDbSpline
210
0.0
220
0.0
230
1.0
 70
     8
 71
     3
 72
     8
 73
     4
 74
     0
 42
0.00000001
 43
0.00000001
 40
0.0
 40
0.0
 40
0.0
 40
0.0
 40
1.0
 40
1.0
 40
1.0
 40
1.0
 10
100.0528870948291
 20
45.74180164447056
 30
0.0
 10
100.3619042374708
 20
45.8428067523007
 30
0.0
 10
100.6772219937888
 20
45.93946354136663
 30
0.0
 10
100.9997013206318
 20
46.03117782909931
 30
0.0
  0
SPLINE
  5
119
330
1F
100
AcDbEntity
  8
0
  6
Continuous
 62
     7
370
    25
100
AcDbSpline
210
0.0
220
0.0
230
1.0
 70
     8
 71
     3
 72
    12
 73
     8
 74
     0
 42
0.00000001
 43
0.00000001
 40
0.0
 40
0.0
 40
0.0
 40
0.0
 40
0.2500000000000002
 40
0.2500000000000002
 40
0.5000000000000004
 40
0.5000000000000004
 40
1.0
 40
1.0
 40
1.0
 40
1.0
 10
100.0528870948238
 20
45.74180164446444
 30
0.0
 10
100.242913270127
 20
45.73809315860801
 30
0.0
 10
100.4331283328129
 20
45.71951065577033
 30
0.0
 10
100.8100650919453
 20
45.65464361880419
 30
0.0
 10
100.9973878832048
 20
45.60837806555391
 30
0.0
 10
101.5562978395188
 20
45.43265353524696
 30
0.0
 10
101.9248334976292
 20
45.26635012647021
 30
0.0
 10
102.2904484240365
 20
45.0647812892443
 30
0.0
  0
SPLINE
  5
11A
330
1F
100
AcDbEntity
  8
0
  6
Continuous
 62
     7
370
    25
100
AcDbSpline
210
0.0
220
0.0
230
1.0
 70
     8
 71
     3
 72
    10
 73
     6
 74
     0
 42
0.00000001
 43
0.00000001
 40
0.0
 40
0.0
 40
0.0
 40
0.0
 40
0.5
 40
0.5
 40
1.0
 40
1.0
 40
1.0
 40
1.0
 10
114.0199846847059
 20
57.64997998261631
 30
0.0
 10
114.0436600791303
 20
57.73586704441876
 30
0.0
 10
114.0567511890149
 20
57.82327425339887
 30
0.0
 10
114.0568375103032
 20
57.9759106959926
 30
0.0
 10
114.0436685763594
 20
58.04003374093818
 30
0.0
 10
114.0199846847059
 20
58.0829926845085
 30
0.0
  0
LINE
  5
11B
330
1F
100
AcDbEntity
  8
0
  6
Continuous
 62
     7
370
    25
100
AcDbLine
 10
114.0199846847
 20
58.0829926845
 30
0.0
 11
118.5202043069
 21
58.0829926845
 31
0.0
  0
SPLINE
  5
11C
330
1F
100
AcDbEntity
  8
0
  6
Continuous
 62
     7
370
    25
100
AcDbSpline
210
0.0
220
0.0
230
1.0
 70
     8
 71
     3
 72
    10
 73
     6
 74
     0
 42
0.00000001
 43
0.00000001
 40
0.0
 40
0.0
 40
0.0
 40
0.0
 40
0.5
 40
0.5
 40
1.0
 40
1.0
 40
1.0
 40
1.0
 10
118.5202043068881
 20
58.08299268450853
 30
0.0
 10
118.4965289124637
 20
58.04004915360731
 30
0.0
 10
118.4834378025791
 20
57.97660670898318
 30
0.0
 10
118.4833514812908
 20
57.82412787186421
 30
0.0
 10
118.4965204152346
 20
57.73589786975693
 30
0.0
 10
118.5202043068881
 20
57.64997998261631
 30
0.0
  0
LINE
  5
11D
330
1F
100
AcDbEntity
  8
0
  6
Continuous
 62
     7
370
    25
100
AcDbLine
 10
101.3422632794
 20
49.0311778291
 30
0.0
 11
101.3422632794
 21
47.0311778291
 31
0.0
  0
SPLINE
  5
11E
330
1F
100
AcDbEntity
  8
0
  6
Continuous
 62
     7
370
    25
100
AcDbSpline
210
0.0
220
0.0
230
1.0
 70
     8
 71
     3
 72
     8
 73
     4
 74
     0
 42
0.00000001
 43
0.00000001
 40
0.0
 40
0.0
 40
0.0
 40
0.0
 40
1.0
 40
1.0
 40
1.0
 40
1.0
 10
101.3422632794457
 20
47.0311778290993
 30
0.0
 10
101.3024846212555
 20
46.89379274009919
 30
0.0
 10
101.2619956584273
 20
46.75708865828743
 30
0.0
 10
101.2208797879495
 20
46.62105629577405
 30
0.0
  0
SPLINE
  5
11F
330
1F
100
AcDbEntity
  8
0
  6
Continuous
 62
     7
370
    25
100
AcDbSpline
210
0.0
220
0.0
230
1.0
 70
     8
 71
     3
 72
     8
 73
     4
 74
     0
 42
0.00000001
 43
0.00000001
 40
0.0
 40
0.0
 40
0.0
 40
0.0
 40
1.0
 40
1.0
 40
1.0
 40
1.0
 10
100.6645418741855
 20
47.97936297369008
 30
0.0
 10
100.9117156550694
 20
47.53102768063875
 30
0.0
 10
101.1054373233734
 20
47.07885318989516
 30
0.0
 10
101.2208797879495
 20
46.62105629577405
 30
0.0
  0
SPLINE
  5
120
330
1F
100
AcDbEntity
  8
0
  6
Continuous
 62
     7
370
    25
100
AcDbSpline
210
0.0
220
0.0
230
1.0
 70
     8
 71
     3
 72
    10
 73
     6
 74
     0
 42
0.00000001
 43
0.00000001
 40
0.0
 40
0.0
 40
0.0
 40
0.0
 40
0.5
 40
0.5
 40
1.0
 40
1.0
 40
1.0
 40
1.0
 10
100.6645418741854
 20
48.41237567558229
 30
0.0
 10
100.640866479761
 20
48.32648861377984
 30
0.0
 10
100.6277753698765
 20
48.23908140479971
 30
0.0
 10
100.6276890485882
 20
48.08644496220597
 30
0.0
 10
100.640857982532
 20
48.02232191726038
 30
0.0
 10
100.6645418741855
 20
47.97936297369008
 30
0.0
  0
SPLINE
  5
121
330
1F
100
AcDbEntity
  8
0
  6
Continuous
 62
     7
370
    25
100
AcDbSpline
210
0.0
220
0.0
230
1.0
 70
     8
 71
     3
 72
    10
 73
     6
 74
     0
 42
0.00000001
 43
0.00000001
 40
0.0
 40
0.0
 40
0.0
 40
0.0
 40
0.5
 40
0.5
 40
1.0
 40
1.0
 40
1.0
 40
1.0
 10
96.5199846847054
 20
58.0829926845085
 30
0.0
 10
96.31117476003915
 20
58.46174183189979
 30
0.0
 10
96.1406406202919
 20
58.84294710831109
 30
0.0
 10
95.90585481527299
 20
59.61217772949887
 30
0.0
 10
95.84226327944569
 20
60.0002454342972
 30
0.0
 10
95.84226327944569
 20
60.39239376126703
 30
0.0
  0
LINE
  5
122
330
1F
100
AcDbEntity
  8
0
  6
Continuous
 62
     7
370
    25
100
AcDbLine
 10
95.8422632794
 20
53.0311778291
 30
0.0
 11
95.8422632794
 21
60.3923937613
 31
0.0
  0
SPLINE
  5
123
330
1F
100
AcDbEntity
  8
0
  6
Continuous
 62
     7
370
    25
100
AcDbSpline
210
0.0
220
0.0
230
1.0
 70
     8
 71
     3
 72
    10
 73
     6
 74
     0
 42
0.00000001
 43
0.00000001
 40
0.0
 40
0.0
 40
0.0
 40
0.0
 40
0.5
 40
0.5
 40
1.0
 40
1.0
 40
1.0
 40
1.0
 10
111.9610654329627
 20
45.06478128924428
 30
0.0
 10
112.0469524947652
 20
45.04110589481987
 30
0.0
 10
112.1343597037454
 20
45.02801478493524
 30
0.0
 10
112.2869961463393
 20
45.02792846364702
 30
0.0
 10
112.3511191912851
 20
45.04109739759096
 30
0.0
 10
112.3940781348553
 20
45.06478128924451
 30
0.0
  0
LINE
  5
124
330
1F
100
AcDbEntity
  8
0
  6
Continuous
 62
     7
370
    25
100
AcDbLine
 10
112.3940781349
 20
45.0647812892
 30
0.0
 11
112.3940781349
 21
41.7088992344
 31
0.0
  0
LINE
  5
125
330
1F
100
AcDbEntity
  8
0
  6
Continuous
 62
     7
370
    25
100
AcDbLine
 10
113.3422632794
 20
60.3923937613
 30
0.0
 11
113.3422632794
 21
57.0311778291
 31
0.0
  0
SPLINE
  5
126
330
1F
100
AcDbEntity
  8
0
  6
Continuous
 62
     7
370
    25
100
AcDbSpline
210
0.0
220
0.0
230
1.0
 70
     8
 71
     3
 72
    10
 73
     6
 74
     0
 42
0.00000001
 43
0.00000001
 40
0.0
 40
0.0
 40
0.0
 40
0.0
 40
0.5
 40
0.5
 40
1.0
 40
1.0
 40
1.0
 40
1.0
 10
114.0199846847059
 20
58.0829926845085
 30
0.0
 10
113.8115639318885
 20
58.46103593391067
 30
0.0
 10
113.641100096611
 20
58.84180543870652
 30
0.0
 10
113.4061176616727
 20
59.61095396426406
 30
0.0
 10
113.3422632794457
 20
59.9993806924393
 30
0.0
 10
113.3422632794457
 20
60.39239376126703
 30
0.0
  0
SPLINE
  5
127
330
1F
100
AcDbEntity
  8
0
  6
Continuous
 62
     7
370
    25
100
AcDbSpline
210
0.0
220
0.0
230
1.0
 70
     8
 71
     3
 72
     8
 73
     4
 74
     0
 42
0.00000001
 43
0.00000001
 40
0.0
 40
0.0
 40
0.0
 40
0.0
 40
1.0
 40
1.0
 40
1.0
 40
1.0
 10
113.6848252382595
 20
46.03117782909931
 30
0.0
 10
114.0073045651088
 20
45.93946354136484
 30
0.0
 10
114.3226223214328
 20
45.84280675229694
 30
0.0
 10
114.6316394640803
 20
45.74180164446469
 30
0.0
  0
SPLINE
  5
128
330
1F
100
AcDbEntity
  8
0
  6
Continuous
 62
     7
370
    25
100
AcDbSpline
210
0.0
220
0.0
230
1.0
 70
     8
 71
     3
 72
    10
 73
     6
 74
     0
 42
0.00000001
 43
0.00000001
 40
0.0
 40
0.0
 40
0.0
 40
0.0
 40
0.5
 40
0.5
 40
1.0
 40
1.0
 40
1.0
 40
1.0
 10
112.3940781348552
 20
45.06478128924445
 30
0.0
 10
112.7605960816957
 20
45.26684797479538
 30
0.0
 10
113.1296763071615
 20
45.43324074706602
 30
0.0
 10
113.874928655389
 20
45.66728772093607
 30
0.0
 10
114.2511414273367
 20
45.7343759748949
 30
0.0
 10
114.6316394640803
 20
45.74180164446469
 30
0.0
  0
SPLINE
  5
129
330
1F
100
AcDbEntity
  8
0
  6
Continuous
 62
     7
370
    25
100
AcDbSpline
210
0.0
220
0.0
230
1.0
 70
     8
 71
     3
 72
    10
 73
     6
 74
     0
 42
0.00000001
 43
0.00000001
 40
0.0
 40
0.0
 40
0.0
 40
0.0
 40
0.5
 40
0.5
 40
1.0
 40
1.0
 40
1.0
 40
1.0
 10
118.520204306888
 20
48.41237567558229
 30
0.0
 10
118.4965289124636
 20
48.32648861377983
 30
0.0
 10
118.4834378025791
 20
48.2390814047997
 30
0.0
 10
118.4833514812908
 20
48.08644496220597
 30
0.0
 10
118.4965204152346
 20
48.02232191726038
 30
0.0
 10
118.5202043068881
 20
47.97936297369008
 30
0.0
  0
SPLINE
  5
12A
330
1F
100
AcDbEntity
  8
0
  6
Continuous
 62
     7
370
    25
100
AcDbSpline
210
0.0
220
0.0
230
1.0
 70
     8
 71
     3
 72
    16
 73
    12
 74
     0
 42
0.00000001
 43
0.00000001
 40
0.0
 40
0.0
 40
0.0
 40
0.0
 40
0.2500000000000001
 40
0.2500000000000001
 40
0.5000000000000001
 40
0.5000000000000001
 40
0.6250000000000001
 40
0.6250000000000001
 40
0.7500000000000002
 40
0.7500000000000002
 40
1.0
 40
1.0
 40
1.0
 40
1.0
 10
118.5202043068881
 20
62.70179483802554
 30
0.0
 10
118.7282197549938
 20
62.32448674914904
 30
0.0
 10
118.8984260599668
 20
61.94446301877484
 30
0.0
 10
119.1333620915344
 20
61.17683970336414
 30
0.0
 10
119.1974342231981
 20
60.78919288657535
 30
0.0
 10
119.1981671721191
 20
60.2008723346875
 30
0.0
 10
119.1825076920361
 20
60.00379914213185
 30
0.0
 10
119.1212325653991
 20
59.61374216457775
 30
0.0
 10
119.0756762929
 20
59.41994926398971
 30
0.0
 10
118.8991902601437
 20
58.84186827922629
 30
0.0
 10
118.728533806658
 20
58.46087041489147
 30
0.0
 10
118.5202043068881
 20
58.08299268450853
 30
0.0
  0
SPLINE
  5
12B
330
1F
100
AcDbEntity
  8
0
  6
Continuous
 62
     7
370
    25
100
AcDbSpline
210
0.0
220
0.0
230
1.0
 70
     8
 71
     3
 72
    10
 73
     6
 74
     0
 42
0.00000001
 43
0.00000001
 40
0.0
 40
0.0
 40
0.0
 40
0.0
 40
0.1601790552921226
 40
0.7197651707803578
 40
1.0
 40
1.0
 40
1.0
 40
1.0
 10
118.4859748737712
 20
62.76407311677529
 30
0.0
 10
118.4852120836779
 20
62.76546534480165
 30
0.0
 10
118.4817844836042
 20
62.77172132652997
 30
0.0
 10
118.4962919484025
 20
62.74521406180207
 30
0.0
 10
118.5142215015203
 20
62.7126582066569
 30
0.0
 10
118.5202043068881
 20
62.70179483802554
 30
0.0
  0
SPLINE
  5
12C
330
1F
100
AcDbEntity
  8
0
  6
Continuous
 62
     7
370
    25
100
AcDbSpline
210
0.0
220
0.0
230
1.0
 70
     8
 71
     3
 72
     9
 73
     5
 74
     0
 42
0.00000001
 43
0.00000001
 40
0.0
 40
0.0
 40
0.0
 40
0.0
 40
0.5797912171256352
 40
1.0
 40
1.0
 40
1.0
 40
1.0
 10
118.5202043068881
 20
43.36056082017307
 30
0.0
 10
118.5078457035416
 20
43.33808717193194
 30
0.0
 10
118.4865300937472
 20
43.29932554951112
 30
0.0
 10
118.4861391512445
 20
43.29859114475291
 30
0.0
 10
118.4859748737712
 20
43.29828254142333
 30
0.0
  0
SPLINE
  5
12D
330
1F
100
AcDbEntity
  8
0
  6
Continuous
 62
     7
370
    25
100
AcDbSpline
210
0.0
220
0.0
230
1.0
 70
     8
 71
     3
 72
    16
 73
    12
 74
     0
 42
0.00000001
 43
0.00000001
 40
0.0
 40
0.0
 40
0.0
 40
0.0
 40
0.2500000000000001
 40
0.2500000000000001
 40
0.5000000000000002
 40
0.5000000000000002
 40
0.6250000000000001
 40
0.6250000000000001
 40
0.7500000000000001
 40
0.7500000000000001
 40
1.0
 40
1.0
 40
1.0
 40
1.0
 10
118.5202043068881
 20
47.97936297369008
 30
0.0
 10
118.7282197549938
 20
47.60205488481358
 30
0.0
 10
118.8984260599668
 20
47.22203115443938
 30
0.0
 10
119.1333620915344
 20
46.45440783902868
 30
0.0
 10
119.1974342231981
 20
46.06676102223989
 30
0.0
 10
119.1981671721191
 20
45.47844047035203
 30
0.0
 10
119.1825076920361
 20
45.28136727779638
 30
0.0
 10
119.1212325653991
 20
44.89131030024229
 30
0.0
 10
119.0756762929
 20
44.69751739965425
 30
0.0
 10
118.8991902601437
 20
44.11943641489083
 30
0.0
 10
118.728533806658
 20
43.738438550556
 30
0.0
 10
118.5202043068881
 20
43.36056082017307
 30
0.0
  0
LINE
  5
12E
330
1F
100
AcDbEntity
  8
0
  6
Continuous
 62
     7
370
    25
100
AcDbLine
 10
119.3422632794
 20
61.2811778291
 30
0.0
 11
119.3422632794
 21
44.7811778291
 31
0.0
  0
LINE
  5
12F
330
1F
100
AcDbEntity
  8
0
  6
Continuous
 62
     7
370
    25
100
AcDbLine
 10
100.6645418742
 20
47.9793629737
 30
0.0
 11
96.5199846847
 21
47.9793629737
 31
0.0
  0
SPLINE
  5
130
330
1F
100
AcDbEntity
  8
0
  6
Continuous
 62
     7
370
    25
100
AcDbSpline
210
0.0
220
0.0
230
1.0
 70
     8
 71
     3
 72
    10
 73
     6
 74
     0
 42
0.00000001
 43
0.00000001
 40
0.0
 40
0.0
 40
0.0
 40
0.0
 40
0.5
 40
0.5
 40
1.0
 40
1.0
 40
1.0
 40
1.0
 10
96.51998468470588
 20
48.41237567558228
 30
0.0
 10
96.54365858526182
 20
48.32649403307583
 30
0.0
 10
96.55675114244097
 20
48.2390848271104
 30
0.0
 10
96.55683755642325
 20
48.08644234203547
 30
0.0
 10
96.54366716482463
 20
48.0223193569531
 30
0.0
 10
96.51998468470588
 20
47.97936297369008
 30
0.0
  0
LINE
  5
131
330
1F
100
AcDbEntity
  8
0
  6
Continuous
 62
     7
370
    25
100
AcDbLine
 10
118.5202043069
 20
47.9793629737
 30
0.0
 11
114.0199846847
 21
47.9793629737
 31
0.0
  0
SPLINE
  5
132
330
1F
100
AcDbEntity
  8
0
  6
Continuous
 62
     7
370
    25
100
AcDbSpline
210
0.0
220
0.0
230
1.0
 70
     8
 71
     3
 72
    10
 73
     6
 74
     0
 42
0.00000001
 43
0.00000001
 40
0.0
 40
0.0
 40
0.0
 40
0.0
 40
0.5
 40
0.5
 40
1.0
 40
1.0
 40
1.0
 40
1.0
 10
114.0199846847026
 20
47.97936297369008
 30
0.0
 10
114.043660079127
 20
48.02230650459123
 30
0.0
 10
114.0567511890149
 20
48.08574894921502
 30
0.0
 10
114.0568375103032
 20
48.23822778633411
 30
0.0
 10
114.0436685763594
 20
48.32645778844154
 30
0.0
 10
114.0199846847059
 20
48.41237567558228
 30
0.0
  0
SPLINE
  5
133
330
1F
100
AcDbEntity
  8
0
  6
Continuous
 62
     7
370
    25
100
AcDbSpline
210
0.0
220
0.0
230
1.0
 70
     8
 71
     3
 72
     8
 73
     4
 74
     0
 42
0.00000001
 43
0.00000001
 40
0.0
 40
0.0
 40
0.0
 40
0.0
 40
1.0
 40
1.0
 40
1.0
 40
1.0
 10
113.4636467709418
 20
46.62105629577406
 30
0.0
 10
113.4225314953006
 20
46.75708669026361
 30
0.0
 10
113.3820425124327
 20
46.89379075490104
 30
0.0
 10
113.3422632794457
 20
47.0311778290993
 30
0.0
  0
LINE
  5
134
330
1F
100
AcDbEntity
  8
0
  6
Continuous
 62
     7
370
    25
100
AcDbLine
 10
113.3422632794
 20
49.0311778291
 30
0.0
 11
113.3422632794
 21
47.0311778291
 31
0.0
  0
SPLINE
  5
135
330
1F
100
AcDbEntity
  8
0
  6
Continuous
 62
     7
370
    25
100
AcDbSpline
210
0.0
220
0.0
230
1.0
 70
     8
 71
     3
 72
     8
 73
     4
 74
     0
 42
0.00000001
 43
0.00000001
 40
0.0
 40
0.0
 40
0.0
 40
0.0
 40
1.0
 40
1.0
 40
1.0
 40
1.0
 10
113.4636467709418
 20
46.62105629577406
 30
0.0
 10
113.5792793809709
 20
47.07960722783181
 30
0.0
 10
113.7731687857913
 20
47.53167682359007
 30
0.0
 10
114.0199846847057
 20
47.97936297368982
 30
0.0
  0
LINE
  5
136
330
1F
100
AcDbEntity
  8
0
  6
Continuous
 62
     7
370
    25
100
AcDbLine
 10
103.2885022729
 20
52.4567459726
 30
0.0
 11
103.8958506317
 21
52.4567459726
 31
0.0
  0
ELLIPSE
  5
137
330
1F
100
AcDbEntity
  8
0
  6
Continuous
 62
     7
370
    25
100
AcDbEllipse
 10
103.5921764541
 20
53.3481703067
 30
0.0
 11
0.08480161849065837
 21
0.0
 31
0.0
210
0.0
220
0.0
230
1.0
 40
0.9533039403
 41
0.3430239404205541
 42
2.798568713169156
  0
LINE
  5
138
330
1F
100
AcDbEntity
  8
0
  6
Continuous
 62
     7
370
    25
100
AcDbLine
 10
103.9757118701
 20
52.5647777014
 30
0.0
 11
103.6720376924
 21
53.3753603186
 31
0.0
  0
LINE
  5
139
330
1F
100
AcDbEntity
  8
0
  6
Continuous
 62
     7
370
    25
100
AcDbLine
 10
103.5123152158
 20
53.3753603186
 30
0.0
 11
103.2086410347
 21
52.5647777017
 31
0.0
  0
ELLIPSE
  5
13A
330
1F
100
AcDbEntity
  8
0
  6
Continuous
 62
     7
370
    25
100
AcDbEllipse
 10
103.8958506317
 20
52.5375876897
 30
0.0
 11
-0.08480161849067258
 21
-4.973799150320701E-14
 31
0.0
210
0.0
220
0.0
230
1.0
 40
0.9533039403
 41
1.570796326794337
 42
3.48461659214925
  0
ELLIPSE
  5
13B
330
1F
100
AcDbEntity
  8
0
  6
Continuous
 62
     7
370
    25
100
AcDbEllipse
 10
103.2885022729
 20
52.5375876897
 30
0.0
 11
0.08480161849065837
 21
-7.105427357601002E-15
 31
0.0
210
0.0
220
0.0
230
1.0
 40
0.9533039403
 41
2.798568711308354
 42
4.712388980384782
  0
SPLINE
  5
13C
330
1F
100
AcDbEntity
  8
0
  6
Continuous
 62
     7
370
    25
100
AcDbSpline
210
0.0
220
0.0
230
1.0
 70
     8
 71
     3
 72
    12
 73
     8
 74
     0
 42
0.00000001
 43
0.00000001
 40
0.0
 40
0.0
 40
0.0
 40
0.0
 40
0.2499999999999999
 40
0.2499999999999999
 40
0.4999999999999998
 40
0.4999999999999998
 40
1.0
 40
1.0
 40
1.0
 40
1.0
 10
95.84226327944569
 20
45.66996189693157
 30
0.0
 10
95.84226327944569
 20
45.86496537693736
 30
0.0
 10
95.85800960946766
 20
46.06150003596177
 30
0.0
 10
95.91945463405308
 20
46.45091972356732
 30
0.0
 10
95.9650433933068
 20
46.64440441662759
 30
0.0
 10
96.1414943955634
 20
47.22158801538319
 30
0.0
 10
96.31195209752688
 20
47.60202379716615
 30
0.0
 10
96.51998468470573
 20
47.97936297369009
 30
0.0
  0
LINE
  5
13D
330
1F
100
AcDbEntity
  8
0
  6
Continuous
 62
     7
370
    25
100
AcDbLine
 10
95.8422632794
 20
53.0311778291
 30
0.0
 11
95.8422632794
 21
45.6699618969
 31
0.0
  0
SPLINE
  5
13E
330
1F
100
AcDbEntity
  8
0
  6
Continuous
 62
     7
370
    25
100
AcDbSpline
210
0.0
220
0.0
230
1.0
 70
     8
 71
     3
 72
    12
 73
     8
 74
     0
 42
0.00000001
 43
0.00000001
 40
0.0
 40
0.0
 40
0.0
 40
0.0
 40
0.2499999999999999
 40
0.2499999999999999
 40
0.4999999999999998
 40
0.4999999999999998
 40
1.0
 40
1.0
 40
1.0
 40
1.0
 10
113.3422632794457
 20
60.39239376126703
 30
0.0
 10
113.3422632794457
 20
60.58813602414655
 30
0.0
 10
113.3581062155346
 20
60.7848026333371
 30
0.0
 10
113.4196090757723
 20
61.17407086066539
 30
0.0
 10
113.465212716816
 20
61.36747489361831
 30
0.0
 10
113.6416637343052
 20
61.94440394487507
 30
0.0
 10
113.8120611015571
 20
62.32465337807808
 30
0.0
 10
114.0199846847059
 20
62.70179483802554
 30
0.0
  0
LINE
  5
13F
330
1F
100
AcDbEntity
  8
0
  6
Continuous
 62
     7
370
    25
100
AcDbLine
 10
118.5202043069
 20
62.701794838
 30
0.0
 11
114.0199846847
 21
62.701794838
 31
0.0
  0
ELLIPSE
  5
140
330
1F
100
AcDbEntity
  8
0
  6
Continuous
 62
     7
370
    25
100
AcDbEllipse
 10
107.3422632794
 20
43.2162232529
 30
0.0
 11
8.5
 21
0.0
 31
0.0
210
0.0
220
0.0
230
1.0
 40
0.5773502692
 41
2.374833212873086
 42
2.53069227991306
  0
LINE
  5
141
330
1F
100
AcDbEntity
  8
0
  6
Continuous
 62
     7
370
    25
100
AcDbLine
 10
100.0528870948
 20
45.7418016445
 30
0.0
 11
97.6716462705
 21
43.3605608202
 31
0.0
  0
LINE
  5
142
330
1F
100
AcDbEntity
  8
0
  6
Continuous
 62
     7
370
    25
100
AcDbLine
 10
96.5199846847
 20
43.3605608202
 30
0.0
 11
97.6716462705
 21
43.3605608202
 31
0.0
  0
SPLINE
  5
143
330
1F
100
AcDbEntity
  8
0
  6
Continuous
 62
     7
370
    25
100
AcDbSpline
210
0.0
220
0.0
230
1.0
 70
     8
 71
     3
 72
    10
 73
     6
 74
     0
 42
0.00000001
 43
0.00000001
 40
0.0
 40
0.0
 40
0.0
 40
0.0
 40
0.5
 40
0.5
 40
1.0
 40
1.0
 40
1.0
 40
1.0
 10
96.5199846847054
 20
43.36056082017303
 30
0.0
 10
96.31117476003915
 20
43.73930996756432
 30
0.0
 10
96.1406406202919
 20
44.12051524397563
 30
0.0
 10
95.90585481527299
 20
44.88974586516341
 30
0.0
 10
95.84226327944569
 20
45.27781356996173
 30
0.0
 10
95.84226327944569
 20
45.66996189693157
 30
0.0
  0
ELLIPSE
  5
144
330
1F
100
AcDbEntity
  8
0
  6
Continuous
 62
     7
370
    25
100
AcDbEllipse
 10
107.3422632794
 20
43.2162232529
 30
0.0
 11
8.5
 21
0.0
 31
0.0
210
0.0
220
0.0
230
1.0
 40
0.5773502692
 41
0.6109003736767328
 42
0.7667594407167088
  0
LINE
  5
145
330
1F
100
AcDbEntity
  8
0
  6
Continuous
 62
     7
370
    25
100
AcDbLine
 10
117.0128802884
 20
43.3605608202
 30
0.0
 11
118.5202043069
 21
43.3605608202
 31
0.0
  0
LINE
  5
146
330
1F
100
AcDbEntity
  8
0
  6
Continuous
 62
     7
370
    25
100
AcDbLine
 10
117.0128802884
 20
43.3605608202
 30
0.0
 11
114.6316394641
 21
45.7418016445
 31
0.0
  0
SPLINE
  5
147
330
1F
100
AcDbEntity
  8
0
  6
Continuous
 62
     7
370
    25
100
AcDbSpline
210
0.0
220
0.0
230
1.0
 70
     8
 71
     3
 72
    12
 73
     8
 74
     0
 42
0.00000001
 43
0.00000001
 40
0.0
 40
0.0
 40
0.0
 40
0.0
 40
0.2499999999999999
 40
0.2499999999999999
 40
0.5
 40
0.5
 40
1.0
 40
1.0
 40
1.0
 40
1.0
 10
95.84226327944569
 20
60.39239376126703
 30
0.0
 10
95.84226327944569
 20
60.58739724127283
 30
0.0
 10
95.85800960946766
 20
60.78393190029724
 30
0.0
 10
95.91945463405308
 20
61.17335158790279
 30
0.0
 10
95.9650433933068
 20
61.36683628096304
 30
0.0
 10
96.1414943955634
 20
61.94401987971865
 30
0.0
 10
96.3119520975269
 20
62.32445566150161
 30
0.0
 10
96.51998468470573
 20
62.70179483802554
 30
0.0
  0
LINE
  5
148
330
1F
100
AcDbEntity
  8
0
  6
Continuous
 62
     7
370
    25
100
AcDbLine
 10
100.6645418742
 20
62.701794838
 30
0.0
 11
96.5199846847
 21
62.701794838
 31
0.0
  0
SPLINE
  5
149
330
1F
100
AcDbEntity
  8
0
  6
Continuous
 62
     7
370
    25
100
AcDbSpline
210
0.0
220
0.0
230
1.0
 70
     8
 71
     3
 72
    10
 73
     6
 74
     0
 42
0.00000001
 43
0.00000001
 40
0.0
 40
0.0
 40
0.0
 40
0.0
 40
0.5
 40
0.5
 40
1.0
 40
1.0
 40
1.0
 40
1.0
 10
100.6645418741855
 20
62.70179483802556
 30
0.0
 10
100.8729626270029
 20
62.3237515886234
 30
0.0
 10
101.0434264622804
 20
61.94298208382755
 30
0.0
 10
101.2784088972187
 20
61.17383355827
 30
0.0
 10
101.3422632794457
 20
60.78540683009476
 30
0.0
 10
101.3422632794457
 20
60.39239376126703
 30
0.0
  0
LINE
  5
14A
330
1F
100
AcDbEntity
  8
0
  6
Continuous
 62
     7
370
    25
100
AcDbLine
 10
117.0128802884
 20
41.7088992344
 30
0.0
 11
117.0128802884
 21
43.3605608202
 31
0.0
  0
SPLINE
  5
14B
330
1F
100
AcDbEntity
  8
0
  6
Continuous
 62
     7
370
    25
100
AcDbSpline
210
0.0
220
0.0
230
1.0
 70
     8
 71
     3
 72
    10
 73
     6
 74
     0
 42
0.00000001
 43
0.00000001
 40
0.0
 40
0.0
 40
0.0
 40
0.0
 40
0.5
 40
0.5
 40
1.0
 40
1.0
 40
1.0
 40
1.0
 10
117.0128802883719
 20
41.70889923435902
 30
0.0
 10
116.6341311409807
 20
41.50008930969277
 30
0.0
 10
116.2529258645693
 20
41.32955516994551
 30
0.0
 10
115.4836952433816
 20
41.09476936492659
 30
0.0
 10
115.0956275385833
 20
41.0311778290993
 30
0.0
 10
114.7034792116134
 20
41.0311778290993
 30
0.0
  0
SPLINE
  5
14C
330
1F
100
AcDbEntity
  8
0
  6
Continuous
 62
     7
370
    25
100
AcDbSpline
210
0.0
220
0.0
230
1.0
 70
     8
 71
     3
 72
    12
 73
     8
 74
     0
 42
0.00000001
 43
0.00000001
 40
0.0
 40
0.0
 40
0.0
 40
0.0
 40
0.2499999999999996
 40
0.2499999999999996
 40
0.4999999999999993
 40
0.4999999999999993
 40
1.0
 40
1.0
 40
1.0
 40
1.0
 10
99.98104734727796
 20
41.0311778290993
 30
0.0
 10
99.78604386727216
 20
41.0311778290993
 30
0.0
 10
99.58950920824775
 20
41.04692415912125
 30
0.0
 10
99.2000895206422
 20
41.10836918370669
 30
0.0
 10
99.00660482758195
 20
41.15395794296041
 30
0.0
 10
98.42942122882634
 20
41.33040894521701
 30
0.0
 10
98.04898544704338
 20
41.5008666471805
 30
0.0
 10
97.67164627051945
 20
41.70889923435934
 30
0.0
  0
LINE
  5
14D
330
1F
100
AcDbEntity
  8
0
  6
Continuous
 62
     7
370
    25
100
AcDbLine
 10
97.6716462705
 20
43.3605608202
 30
0.0
 11
97.6716462705
 21
41.7088992344
 31
0.0
  0
LINE
  5
14E
330
1F
100
AcDbEntity
  8
0
  6
Continuous
 62
     7
370
    25
100
AcDbLine
 10
113.3422632794
 20
47.0311778291
 30
0.0
 11
111.3422632794
 21
49.0311778291
 31
0.0
  0
LINE
  5
14F
330
1F
100
AcDbEntity
  8
0
  6
Continuous
 62
     7
370
    25
100
AcDbLine
 10
111.3422632794
 20
46.0311778291
 30
0.0
 11
114.3048843521
 21
46.0311778291
 31
0.0
  0
LINE
  5
150
330
1F
100
AcDbEntity
  8
0
  6
Continuous
 62
     7
370
    25
100
AcDbLine
 10
103.3422632794
 20
49.0311778291
 30
0.0
 11
101.3422632794
 21
47.0311778291
 31
0.0
  0
LINE
  5
151
330
1F
100
AcDbEntity
  8
0
  6
Continuous
 62
     7
370
    25
100
AcDbLine
 10
100.3796422068
 20
46.0311778291
 30
0.0
 11
103.3422632794
 21
46.0311778291
 31
0.0
  0
LINE
  5
152
330
1F
100
AcDbEntity
  8
0
  6
Continuous
 62
     7
370
    25
100
AcDbLine
 10
101.3422632794
 20
60.9656323073
 30
0.0
 11
101.3422632794
 21
60.3923937613
 31
0.0
  0
SPLINE
  5
153
330
1F
100
AcDbEntity
  8
0
  6
Continuous
 62
     7
370
    25
100
AcDbSpline
210
0.0
220
0.0
230
1.0
 70
     8
 71
     3
 72
    32
 73
    28
 74
     0
 42
0.00000001
 43
0.00000001
 40
0.0
 40
0.0
 40
0.0
 40
0.0
 40
0.0625000000000001
 40
0.0625000000000001
 40
0.1250000000000001
 40
0.1250000000000001
 40
0.1875000000000002
 40
0.1875000000000002
 40
0.2500000000000003
 40
0.2500000000000003
 40
0.3750000000000003
 40
0.3750000000000003
 40
0.4375000000000003
 40
0.4375000000000003
 40
0.5000000000000002
 40
0.5000000000000002
 40
0.5625000000000002
 40
0.5625000000000002
 40
0.6250000000000001
 40
0.6250000000000001
 40
0.7500000000000001
 40
0.7500000000000001
 40
0.8750000000000002
 40
0.8750000000000002
 40
0.9375000000000001
 40
0.9375000000000001
 40
1.0
 40
1.0
 40
1.0
 40
1.0
 10
113.3422632794372
 20
60.96563230731995
 30
0.0
 10
113.1854069435203
 20
60.87067532942426
 30
0.0
 10
113.0124085093647
 20
60.76792215479908
 30
0.0
 10
112.6357039227389
 20
60.55121095315081
 30
0.0
 10
112.4328511422822
 20
60.4377922426608
 30
0.0
 10
112.0068698794796
 20
60.20970210596263
 30
0.0
 10
111.7826919191916
 20
60.09439522351077
 30
0.0
 10
111.3113408256152
 20
59.866072121136
 30
0.0
 10
111.0626553102501
 20
59.75242210500224
 30
0.0
 10
110.2920828255585
 20
59.4293580737682
 30
0.0
 10
109.7464454154763
 20
59.2364595496047
 30
0.0
 10
108.8636656669799
 20
59.024865624331
 30
0.0
 10
108.5650265671071
 20
58.96922323821325
 30
0.0
 10
107.9585249663913
 20
58.89355516884942
 30
0.0
 10
107.6483777277254
 20
58.8735819230731
 30
0.0
 10
107.0282922390416
 20
58.87391568932635
 30
0.0
 10
106.7217212015736
 20
58.89391465464913
 30
0.0
 10
106.1150664542654
 20
58.9699534408456
 30
0.0
 10
105.8126933896401
 20
59.02660654097716
 30
0.0
 10
104.9360570868871
 20
59.237385091023
 30
0.0
 10
104.3880029549102
 20
59.43093092159475
 30
0.0
 10
103.357505687667
 20
59.86355021487055
 30
0.0
 10
102.8899456523875
 20
60.09602685956096
 30
0.0
 10
102.2517320487595
 20
60.43776486048001
 30
0.0
 10
102.0485223105697
 20
60.5513823759084
 30
0.0
 10
101.6721853841753
 20
60.76788476826464
 30
0.0
 10
101.4992067756838
 20
60.87062256470903
 30
0.0
 10
101.3422632794457
 20
60.96563230732511
 30
0.0
  0
LINE
  5
154
330
1F
100
AcDbEntity
  8
0
  6
Continuous
 62
     7
370
    25
100
AcDbLine
 10
113.3422632794
 20
60.9656323073
 30
0.0
 11
113.3422632794
 21
60.3923937613
 31
0.0
  0
SPLINE
  5
155
330
1F
100
AcDbEntity
  8
0
  6
Continuous
 62
     7
370
    25
100
AcDbSpline
210
0.0
220
0.0
230
1.0
 70
     8
 71
     3
 72
    12
 73
     8
 74
     0
 42
0.00000001
 43
0.00000001
 40
0.0
 40
0.0
 40
0.0
 40
0.0
 40
0.0821715283682517
 40
0.3096919713451211
 40
0.5425041619996835
 40
0.7710678220816507
 40
1.0
 40
1.0
 40
1.0
 40
1.0
 10
113.5157024456723
 20
61.82438721835025
 30
0.0
 10
113.5168344870494
 20
61.82815706428721
 30
0.0
 10
113.5211009785295
 20
61.84236503927649
 30
0.0
 10
113.4886456144596
 20
61.73500855938145
 30
0.0
 10
113.4326810051276
 20
61.52907027667173
 30
0.0
 10
113.3644716127988
 20
61.24577493760137
 30
0.0
 10
113.3496700315079
 20
61.05906331682117
 30
0.0
 10
113.3422632794457
 20
60.96563230731797
 30
0.0
  0
SPLINE
  5
156
330
1F
100
AcDbEntity
  8
0
  6
Continuous
 62
     7
370
    25
100
AcDbSpline
210
0.0
220
0.0
230
1.0
 70
     8
 71
     3
 72
    11
 73
     7
 74
     0
 42
0.00000001
 43
0.00000001
 40
0.0
 40
0.0
 40
0.0
 40
0.0
 40
0.3176377724701537
 40
0.6359626815820396
 40
0.8656932326981852
 40
1.0
 40
1.0
 40
1.0
 40
1.0
 10
101.3422632794457
 20
60.96563230732501
 30
0.0
 10
101.3286245183221
 20
61.0968969527955
 30
0.0
 10
101.3013174917359
 20
61.35971020476217
 30
0.0
 10
101.2133128966543
 20
61.67135452791808
 30
0.0
 10
101.1687526982105
 20
61.82510042158703
 30
0.0
 10
101.1691013633145
 20
61.8235872408235
 30
0.0
 10
101.1692299987061
 20
61.82302897273829
 30
0.0
  0
LINE
  5
157
330
1F
100
AcDbEntity
  8
0
  6
Continuous
 62
     7
370
    25
100
AcDbLine
 10
101.4422632794
 20
62.5311778291
 30
0.0
 11
101.4429163585
 21
62.5306231793
 31
0.0
  0
LINE
  5
158
330
1F
100
AcDbEntity
  8
0
  6
Continuous
 62
     7
370
    25
100
AcDbLine
 10
102.5599836526
 20
30.8861258885
 30
0.0
 11
112.1245429063
 21
30.8861258885
 31
0.0
  0
LINE
  5
159
330
1F
100
AcDbEntity
  8
0
  6
Continuous
 62
     7
370
    25
100
AcDbLine
 10
111.3422632794
 20
29.5311778291
 30
0.0
 11
103.3422632794
 21
29.5311778291
 31
0.0
  0
SPLINE
  5
15A
330
1F
100
AcDbEntity
  8
0
  6
Continuous
 62
     7
370
    25
100
AcDbSpline
210
0.0
220
0.0
230
1.0
 70
     8
 71
     3
 72
    10
 73
     6
 74
     0
 42
0.00000001
 43
0.00000001
 40
0.0
 40
0.0
 40
0.0
 40
0.0
 40
0.1601790552921523
 40
0.7197651707804853
 40
1.0
 40
1.0
 40
1.0
 40
1.0
 10
100.6303124410686
 20
62.76407311677529
 30
0.0
 10
100.6295496509753
 20
62.76546534480165
 30
0.0
 10
100.6261220509016
 20
62.77172132652997
 30
0.0
 10
100.6406295156999
 20
62.74521406180207
 30
0.0
 10
100.6585590688177
 20
62.71265820665692
 30
0.0
 10
100.6645418741855
 20
62.70179483802556
 30
0.0
  0
SPLINE
  5
15B
330
1F
100
AcDbEntity
  8
0
  6
Continuous
 62
     7
370
    25
100
AcDbSpline
210
0.0
220
0.0
230
1.0
 70
     8
 71
     3
 72
     9
 73
     5
 74
     0
 42
0.00000001
 43
0.00000001
 40
0.0
 40
0.0
 40
0.0
 40
0.0
 40
0.5789479223911438
 40
1.0
 40
1.0
 40
1.0
 40
1.0
 10
117.0128802883719
 20
41.70889923435949
 30
0.0
 10
117.0353216555646
 20
41.7212401246739
 30
0.0
 10
117.0740839799891
 20
41.74255618754781
 30
0.0
 10
117.0748498828482
 20
41.7429643614622
 30
0.0
 10
117.0751723678383
 20
41.74313622393688
 30
0.0
  0
LINE
  5
15C
330
1F
100
AcDbEntity
  8
0
  6
Continuous
 62
     7
370
    25
100
AcDbLine
 10
114.7034792116
 20
41.0311778291
 30
0.0
 11
115.8422632794
 21
41.0311778291
 31
0.0
  0
SPLINE
  5
15D
330
1F
100
AcDbEntity
  8
0
  6
Continuous
 62
     7
370
    25
100
AcDbSpline
210
0.0
220
0.0
230
1.0
 70
     8
 71
     3
 72
    10
 73
     6
 74
     0
 42
0.00000001
 43
0.00000001
 40
0.0
 40
0.0
 40
0.0
 40
0.0
 40
0.1593935213061672
 40
0.7189934545756304
 40
1.0
 40
1.0
 40
1.0
 40
1.0
 10
97.60935419105311
 20
41.74313622393688
 30
0.0
 10
97.60796427222647
 20
41.74389775093434
 30
0.0
 10
97.60169461627967
 20
41.7473328524502
 30
0.0
 10
97.62817855810366
 20
41.7328382299836
 30
0.0
 10
97.66075596215033
 20
41.71489685949098
 30
0.0
 10
97.67164627051946
 20
41.70889923435949
 30
0.0
  0
LINE
  5
15E
330
1F
100
AcDbEntity
  8
0
  6
Continuous
 62
     7
370
    25
100
AcDbLine
 10
98.8422632794
 20
41.0311778291
 30
0.0
 11
99.9810473473
 21
41.0311778291
 31
0.0
  0
SPLINE
  5
15F
330
1F
100
AcDbEntity
  8
0
  6
Continuous
 62
     7
370
    25
100
AcDbSpline
210
0.0
220
0.0
230
1.0
 70
     8
 71
     3
 72
     9
 73
     5
 74
     0
 42
0.00000001
 43
0.00000001
 40
0.0
 40
0.0
 40
0.0
 40
0.0
 40
0.5797912171256431
 40
1.0
 40
1.0
 40
1.0
 40
1.0
 10
114.0199846847059
 20
62.70179483802554
 30
0.0
 10
114.0323432880523
 20
62.72426848626667
 30
0.0
 10
114.0536588978467
 20
62.76303010868749
 30
0.0
 10
114.0540498403495
 20
62.7637645134457
 30
0.0
 10
114.0542141178228
 20
62.76407311677529
 30
0.0
  0
SPLINE
  5
160
330
1F
100
AcDbEntity
  8
0
  6
Continuous
 62
     7
370
    25
100
AcDbSpline
210
0.0
220
0.0
230
1.0
 70
     8
 71
     3
 72
    10
 73
     6
 74
     0
 42
0.00000001
 43
0.00000001
 40
0.0
 40
0.0
 40
0.0
 40
0.0
 40
0.1593935212994522
 40
0.7189934545690309
 40
1.0
 40
1.0
 40
1.0
 40
1.0
 10
96.55422167428333
 20
62.76408691749199
 30
0.0
 10
96.55498320128078
 20
62.76547683631861
 30
0.0
 10
96.5584183027967
 20
62.77174649226555
 30
0.0
 10
96.54392368033021
 20
62.74526255044176
 30
0.0
 10
96.5259823098375
 20
62.71268514639489
 30
0.0
 10
96.51998468470588
 20
62.70179483802554
 30
0.0
  0
LINE
  5
161
330
1F
100
AcDbEntity
  8
0
  6
Continuous
 62
     7
370
    25
100
AcDbLine
 10
95.8422632794
 20
61.5311778291
 30
0.0
 11
95.8422632794
 21
60.3923937613
 31
0.0
  0
SPLINE
  5
162
330
1F
100
AcDbEntity
  8
0
  6
Continuous
 62
     7
370
    25
100
AcDbSpline
210
0.0
220
0.0
230
1.0
 70
     8
 71
     3
 72
     9
 73
     5
 74
     0
 42
0.00000001
 43
0.00000001
 40
0.0
 40
0.0
 40
0.0
 40
0.0
 40
0.5789479223839474
 40
0.9999999999999999
 40
0.9999999999999999
 40
0.9999999999999999
 40
0.9999999999999999
 10
96.51998468470588
 20
43.36056082017306
 30
0.0
 10
96.53232557502012
 20
43.3381194529807
 30
0.0
 10
96.55364163789405
 20
43.29935712855614
 30
0.0
 10
96.55404981180858
 20
43.29859122569678
 30
0.0
 10
96.55422167428333
 20
43.2982687407066
 30
0.0
  0
LINE
  5
163
330
1F
100
AcDbEntity
  8
0
  6
Continuous
 62
     7
370
    25
100
AcDbLine
 10
95.8422632794
 20
45.6699618969
 30
0.0
 11
95.8422632794
 21
44.5311778291
 31
0.0
  0
LINE
  5
164
330
1F
100
AcDbEntity
  8
0
  6
Continuous
 62
     7
370
    25
100
AcDbLine
 10
117.0798675865
 20
43.2935735221
 30
0.0
 11
117.0128802884
 21
43.3605608202
 31
0.0
  0
LINE
  5
165
330
1F
100
AcDbEntity
  8
0
  6
Continuous
 62
     7
370
    25
100
AcDbLine
 10
97.6716462705
 20
43.3605608202
 30
0.0
 11
97.6046589724
 21
43.2935735221
 31
0.0
  0
SPLINE
  5
166
330
1F
100
AcDbEntity
  8
0
  6
Continuous
 62
     7
370
    25
100
AcDbSpline
210
0.0
220
0.0
230
1.0
 70
     8
 71
     3
 72
    31
 73
    27
 74
     0
 42
0.00000001
 43
0.00000001
 40
0.0
 40
0.0
 40
0.0
 40
0.0
 40
0.0092697439738738
 40
0.0517106009306499
 40
0.0941787214487446
 40
0.1321007981687857
 40
0.1702130250019986
 40
0.2082043637586533
 40
0.2154671489273441
 40
0.2764828311775714
 40
0.3374977361071414
 40
0.3848180703133567
 40
0.4320432121152163
 40
0.4692122994512169
 40
0.5063424688013737
 40
0.5434303658673519
 40
0.5805675661772649
 40
0.6303307006244888
 40
0.6801860091441189
 40
0.7334657844729402
 40
0.786736836426616
 40
0.8315812503460605
 40
0.8763907039558305
 40
0.9190666168982453
 40
0.9617073602075923
 40
1.0
 40
1.0
 40
1.0
 40
1.0
 10
101.4429163584826
 20
62.5306231793316
 30
0.0
 10
101.4436609731644
 20
62.52999227018874
 30
0.0
 10
101.4478147526824
 20
62.52647278885232
 30
0.0
 10
101.5180951579446
 20
62.46654807541002
 30
0.0
 10
101.7094137978598
 20
62.30615837520145
 30
0.0
 10
101.9843353745142
 20
62.07986349458672
 30
0.0
 10
102.3167524318573
 20
61.81449376997547
 30
0.0
 10
102.6038155943222
 20
61.59441498453362
 30
0.0
 10
102.9997630000346
 20
61.30061601542574
 30
0.0
 10
103.5353822478606
 20
60.92019363602325
 30
0.0
 10
104.3511357343445
 20
60.42216915623361
 30
0.0
 10
105.192694892093
 20
60.01005147687763
 30
0.0
 10
105.9761019620583
 20
59.73305231561136
 30
0.0
 10
106.7490868067272
 20
59.58163517223797
 30
0.0
 10
107.4796771207124
 20
59.54348570095189
 30
0.0
 10
108.2043995740533
 20
59.62281759207201
 30
0.0
 10
108.9777691935967
 20
59.81532079987699
 30
0.0
 10
109.7681640158805
 20
60.13248026912026
 30
0.0
 10
110.5649685623445
 20
60.55775880666698
 30
0.0
 10
111.2923356703869
 20
61.02021951823747
 30
0.0
 10
111.9065415003369
 20
61.46063288856661
 30
0.0
 10
112.3999997491002
 20
61.83909208879798
 30
0.0
 10
112.7750679812411
 20
62.14086292149516
 30
0.0
 10
113.0452572558643
 20
62.36445273358046
 30
0.0
 10
113.2137176851194
 20
62.50694503037146
 30
0.0
 10
113.2291320586505
 20
62.51996383504517
 30
0.0
 10
113.2364251808534
 20
62.52612352315892
 30
0.0
  0
LINE
  5
167
330
1F
100
AcDbEntity
  8
FORMAT
100
AcDbLine
 10
103.0430689091
 20
30.0493976799
 30
0.0
 11
102.7155132794
 21
40.5311778291
 31
0.0
  0
LINE
  5
168
330
1F
100
AcDbEntity
  8
FORMAT
100
AcDbLine
 10
111.6414576498
 20
30.0493976799
 30
0.0
 11
111.9690132794
 21
40.5311778291
 31
0.0
  0
LINE
  5
169
330
1F
100
AcDbEntity
  8
FORMAT
100
AcDbLine
 10
112.4259507794
 20
40.5311778291
 30
0.0
 11
102.2585757794
 21
40.5311778291
 31
0.0
  0
LINE
  5
16A
330
1F
100
AcDbEntity
  8
FORMAT
  6
CENTERX2
370
    18
100
AcDbLine
 10
121.144049521
 20
53.0311778291
 30
0.0
 11
67.8422632794
 21
53.0311778291
 31
0.0
  0
LINE
  5
16B
330
1F
100
AcDbEntity
  8
FORMAT
  6
CENTERX2
370
    18
100
AcDbLine
 10
107.3422632794
 20
27.6147284628
 30
0.0
 11
107.3422632794
 21
82.0851226911
 31
0.0
  0
ARC
  5
16C
330
1F
100
AcDbEntity
  8
0
  6
Continuous
 62
     7
370
    25
100
AcDbCircle
 10
149.4336027714
 20
80.1311778291
 30
0.0
 40
0.25
100
AcDbArc
 50
90.0
 51
180.0
  0
ARC
  5
16D
330
1F
100
AcDbEntity
  8
0
  6
Continuous
 62
     7
370
    25
100
AcDbCircle
 10
159.9336027714
 20
80.1311778291
 30
0.0
 40
0.25
100
AcDbArc
 50
0.0
 51
90.0
  0
LINE
  5
16E
330
1F
100
AcDbEntity
  8
0
  6
Continuous
 62
     7
370
    25
100
AcDbLine
 10
160.1836027714
 20
79.5311778291
 30
0.0
 11
160.1836027714
 21
80.1311778291
 31
0.0
  0
LINE
  5
16F
330
1F
100
AcDbEntity
  8
0
  6
Continuous
 62
     7
370
    25
100
AcDbLine
 10
149.1836027714
 20
80.1311778291
 30
0.0
 11
149.1836027714
 21
79.5311778291
 31
0.0
  0
LINE
  5
170
330
1F
100
AcDbEntity
  8
0
  6
Continuous
 62
     7
370
    25
100
AcDbLine
 10
147.2336027714
 20
71.5311778291
 30
0.0
 11
147.6836027714
 21
63.5311778291
 31
0.0
  0
LINE
  5
171
330
1F
100
AcDbEntity
  8
0
  6
Continuous
 62
     7
370
    25
100
AcDbLine
 10
161.6836027714
 20
63.5311778291
 30
0.0
 11
162.1336027714
 21
71.5311778291
 31
0.0
  0
LINE
  5
172
330
1F
100
AcDbEntity
  8
0
  6
Continuous
 62
     7
370
    25
100
AcDbLine
 10
162.1336027714
 20
71.5311778291
 30
0.0
 11
160.1836027714
 21
79.5311778291
 31
0.0
  0
LINE
  5
173
330
1F
100
AcDbEntity
  8
0
  6
Continuous
 62
     7
370
    25
100
AcDbLine
 10
149.1836027714
 20
79.5311778291
 30
0.0
 11
147.2336027714
 21
71.5311778291
 31
0.0
  0
SPLINE
  5
174
330
1F
100
AcDbEntity
  8
0
  6
Continuous
 62
     7
370
    25
100
AcDbSpline
210
0.0
220
0.0
230
1.0
 70
     8
 71
     3
 72
     9
 73
     5
 74
     0
 42
0.00000001
 43
0.00000001
 40
0.0
 40
0.0
 40
0.0
 40
0.0
 40
0.480439820912495
 40
1.0
 40
1.0
 40
1.0
 40
1.0
 10
160.5955858980933
 20
59.43284735566041
 30
0.0
 10
160.5911938166533
 20
59.45357757672203
 30
0.0
 10
160.582052023553
 20
59.49672600064376
 30
0.0
 10
160.5849472498474
 20
59.54077559644367
 30
0.0
 10
160.5864514941394
 20
59.56366201232619
 30
0.0
  0
SPLINE
  5
175
330
1F
100
AcDbEntity
  8
0
  6
Continuous
 62
     7
370
    25
100
AcDbSpline
210
0.0
220
0.0
230
1.0
 70
     8
 71
     3
 72
     9
 73
     5
 74
     0
 42
0.00000001
 43
0.00000001
 40
0.0
 40
0.0
 40
0.0
 40
0.0
 40
0.4193921035719274
 40
1.0
 40
1.0
 40
1.0
 40
1.0
 10
148.7817141334071
 20
59.57027638800562
 30
0.0
 10
148.7829340766851
 20
59.55109924098068
 30
0.0
 10
148.7858429137078
 20
59.50537318447742
 30
0.0
 10
148.7780256586586
 20
59.46017046888348
 30
0.0
 10
148.7734868986486
 20
59.43392541526965
 30
0.0
  0
LINE
  5
176
330
1F
100
AcDbEntity
  8
0
  6
Continuous
 62
     7
370
    25
100
AcDbLine
 10
160.5836027714
 20
59.5644040823
 30
0.0
 11
160.5836027714
 21
63.5311778291
 31
0.0
  0
LINE
  5
177
330
1F
100
AcDbEntity
  8
0
  6
Continuous
 62
     7
370
    25
100
AcDbLine
 10
148.7836027714
 20
63.5311778291
 30
0.0
 11
148.7836027714
 21
59.569706493
 31
0.0
  0
LINE
  5
178
330
1F
100
AcDbEntity
  8
0
  6
Continuous
 62
     7
370
    25
100
AcDbLine
 10
149.5842902714
 20
41.0311778291
 30
0.0
 11
149.9013231445
 21
30.8861258885
 31
0.0
  0
LINE
  5
179
330
1F
100
AcDbEntity
  8
0
  6
Continuous
 62
     7
370
    25
100
AcDbLine
 10
159.4658823982
 20
30.8861258885
 30
0.0
 11
159.7829152714
 21
41.0311778291
 31
0.0
  0
LINE
  5
17A
330
1F
100
AcDbEntity
  8
0
  6
Continuous
 62
     7
370
    25
100
AcDbLine
 10
149.9013231445
 20
30.8861258885
 30
0.0
 11
150.6836027714
 21
29.5311778291
 31
0.0
  0
LINE
  5
17B
330
1F
100
AcDbEntity
  8
0
  6
Continuous
 62
     7
370
    25
100
AcDbLine
 10
158.6836027714
 20
29.5311778291
 30
0.0
 11
159.4658823982
 21
30.8861258885
 31
0.0
  0
LINE
  5
17C
330
1F
100
AcDbEntity
  8
0
  6
Continuous
 62
     7
370
    25
100
AcDbLine
 10
153.1836027714
 20
79.5311778291
 30
0.0
 11
153.1836027714
 21
80.1311778291
 31
0.0
  0
LINE
  5
17D
330
1F
100
AcDbEntity
  8
0
  6
Continuous
 62
     7
370
    25
100
AcDbLine
 10
153.1836027714
 20
80.1311778291
 30
0.0
 11
153.4336027714
 21
80.1311778291
 31
0.0
  0
LINE
  5
17E
330
1F
100
AcDbEntity
  8
0
  6
Continuous
 62
     7
370
    25
100
AcDbLine
 10
153.4336027714
 20
80.1311778291
 30
0.0
 11
153.4336027714
 21
79.5311778291
 31
0.0
  0
LINE
  5
17F
330
1F
100
AcDbEntity
  8
0
  6
Continuous
 62
     7
370
    25
100
AcDbLine
 10
153.4336027714
 20
79.5311778291
 30
0.0
 11
153.1836027714
 21
79.5311778291
 31
0.0
  0
ARC
  5
180
330
1F
100
AcDbEntity
  8
0
  6
Continuous
 62
     7
370
    25
100
AcDbCircle
 10
153.4336027714
 20
80.1311778291
 30
0.0
 40
0.25
100
AcDbArc
 50
90.0
 51
180.0
  0
LINE
  5
181
330
1F
100
AcDbEntity
  8
0
  6
Continuous
 62
     7
370
    25
100
AcDbLine
 10
153.4336027714
 20
80.3811778291
 30
0.0
 11
153.4336027714
 21
80.1311778291
 31
0.0
  0
LINE
  5
182
330
1F
100
AcDbEntity
  8
0
  6
Continuous
 62
     7
370
    25
100
AcDbLine
 10
155.9336027714
 20
80.1311778291
 30
0.0
 11
156.1836027714
 21
80.1311778291
 31
0.0
  0
LINE
  5
183
330
1F
100
AcDbEntity
  8
0
  6
Continuous
 62
     7
370
    25
100
AcDbLine
 10
155.9336027714
 20
80.1311778291
 30
0.0
 11
155.9336027714
 21
80.3811778291
 31
0.0
  0
ARC
  5
184
330
1F
100
AcDbEntity
  8
0
  6
Continuous
 62
     7
370
    25
100
AcDbCircle
 10
155.9336027714
 20
80.1311778291
 30
0.0
 40
0.25
100
AcDbArc
 50
0.0
 51
90.0
  0
LINE
  5
185
330
1F
100
AcDbEntity
  8
0
  6
Continuous
 62
     7
370
    25
100
AcDbLine
 10
155.9336027714
 20
79.5311778291
 30
0.0
 11
155.9336027714
 21
80.1311778291
 31
0.0
  0
LINE
  5
186
330
1F
100
AcDbEntity
  8
0
  6
Continuous
 62
     7
370
    25
100
AcDbLine
 10
153.4336027714
 20
79.5311778291
 30
0.0
 11
155.9336027714
 21
79.5311778291
 31
0.0
  0
LINE
  5
187
330
1F
100
AcDbEntity
  8
0
  6
Continuous
 62
     7
370
    25
100
AcDbLine
 10
155.9336027714
 20
80.1311778291
 30
0.0
 11
153.4336027714
 21
80.1311778291
 31
0.0
  0
LINE
  5
188
330
1F
100
AcDbEntity
  8
0
  6
Continuous
 62
     7
370
    25
100
AcDbLine
 10
153.4336027714
 20
80.3811778291
 30
0.0
 11
155.9336027714
 21
80.3811778291
 31
0.0
  0
LINE
  5
189
330
1F
100
AcDbEntity
  8
0
  6
Continuous
 62
     7
370
    25
100
AcDbLine
 10
156.1836027714
 20
80.1311778291
 30
0.0
 11
156.1836027714
 21
79.5311778291
 31
0.0
  0
LINE
  5
18A
330
1F
100
AcDbEntity
  8
0
  6
Continuous
 62
     7
370
    25
100
AcDbLine
 10
156.1836027714
 20
79.5311778291
 30
0.0
 11
155.9336027714
 21
79.5311778291
 31
0.0
  0
SPLINE
  5
18B
330
1F
100
AcDbEntity
  8
0
  6
Continuous
 62
     7
370
    25
100
AcDbSpline
210
0.0
220
0.0
230
1.0
 70
     8
 71
     3
 72
    15
 73
    11
 74
     0
 42
0.00000001
 43
0.00000001
 40
0.0
 40
0.0
 40
0.0
 40
0.0
 40
0.0090459071881971
 40
0.1032433785236875
 40
0.1542564497735248
 40
0.313316902671511
 40
0.5243720399414434
 40
0.6678060008509189
 40
0.9918332554187028
 40
1.0
 40
1.0
 40
1.0
 40
1.0
 10
153.0096897278843
 20
80.1311778290993
 30
0.0
 10
153.0097073736088
 20
80.13285892768373
 30
0.0
 10
153.0099087690213
 20
80.15204575923924
 30
0.0
 10
153.0160983896875
 20
80.18074003875923
 30
0.0
 10
153.0403003215316
 20
80.23141607873114
 30
0.0
 10
153.0933193135333
 20
80.28929237830806
 30
0.0
 10
153.1746902007299
 20
80.33415789304274
 30
0.0
 10
153.2892692727524
 20
80.37152027629726
 30
0.0
 10
153.3736944504715
 20
80.38106628856684
 30
0.0
 10
153.4321653084235
 20
80.38117515275353
 30
0.0
 10
153.4336027713626
 20
80.3811778290993
 30
0.0
  0
LINE
  5
18C
330
1F
100
AcDbEntity
  8
0
  6
Continuous
 62
     7
370
    25
100
AcDbLine
 10
153.0096897279
 20
80.1311778291
 30
0.0
 11
153.1836027714
 21
80.1311778291
 31
0.0
  0
LINE
  5
18D
330
1F
100
AcDbEntity
  8
0
  6
Continuous
 62
     7
370
    25
100
AcDbLine
 10
156.1836027714
 20
80.1311778291
 30
0.0
 11
156.3575158148
 21
80.1311778291
 31
0.0
  0
SPLINE
  5
18E
330
1F
100
AcDbEntity
  8
0
  6
Continuous
 62
     7
370
    25
100
AcDbSpline
210
0.0
220
0.0
230
1.0
 70
     8
 71
     3
 72
    15
 73
    11
 74
     0
 42
0.00000001
 43
0.00000001
 40
0.0
 40
0.0
 40
0.0
 40
0.0
 40
0.0081667445812695
 40
0.3321939991490077
 40
0.4756279600585576
 40
0.68668309732849
 40
0.8457435502264807
 40
0.8967566214763126
 40
0.9909540928118029
 40
1.0
 40
1.0
 40
1.0
 40
1.0
 10
155.9336027713626
 20
80.3811778290993
 30
0.0
 10
155.9350402343016
 20
80.38117515275353
 30
0.0
 10
155.9935110922533
 20
80.38106628856679
 30
0.0
 10
156.0779362699728
 20
80.37152027629726
 30
0.0
 10
156.1925153419952
 20
80.33415789304274
 30
0.0
 10
156.2738862291918
 20
80.28929237830806
 30
0.0
 10
156.3269052211935
 20
80.23141607873116
 30
0.0
 10
156.3511071530376
 20
80.18074003875923
 30
0.0
 10
156.3572967737038
 20
80.15204575923921
 30
0.0
 10
156.3574981691164
 20
80.13285892768371
 30
0.0
 10
156.3575158148408
 20
80.1311778290993
 30
0.0
  0
LINE
  5
18F
330
1F
100
AcDbEntity
  8
0
  6
Continuous
 62
     7
370
    25
100
AcDbLine
 10
156.3575158148
 20
80.1311778291
 30
0.0
 11
156.3575158148
 21
79.5311778291
 31
0.0
  0
LINE
  5
190
330
1F
100
AcDbEntity
  8
0
  6
Continuous
 62
     7
370
    25
100
AcDbLine
 10
156.3575158148
 20
79.5311778291
 30
0.0
 11
156.1836027714
 21
79.5311778291
 31
0.0
  0
LINE
  5
191
330
1F
100
AcDbEntity
  8
0
  6
Continuous
 62
     7
370
    25
100
AcDbLine
 10
153.0096897279
 20
79.5311778291
 30
0.0
 11
153.0096897279
 21
80.1311778291
 31
0.0
  0
LINE
  5
192
330
1F
100
AcDbEntity
  8
0
  6
Continuous
 62
     7
370
    25
100
AcDbLine
 10
153.1836027714
 20
79.5311778291
 30
0.0
 11
153.0096897279
 21
79.5311778291
 31
0.0
  0
LINE
  5
193
330
1F
100
AcDbEntity
  8
0
  6
Continuous
 62
     7
370
    25
100
AcDbLine
 10
149.4336027714
 20
80.3811778291
 30
0.0
 11
153.4336027714
 21
80.3811778291
 31
0.0
  0
LINE
  5
194
330
1F
100
AcDbEntity
  8
0
  6
Continuous
 62
     7
370
    25
100
AcDbLine
 10
155.9336027714
 20
80.3811778291
 30
0.0
 11
159.9336027714
 21
80.3811778291
 31
0.0
  0
LINE
  5
195
330
1F
100
AcDbEntity
  8
0
  6
Continuous
 62
     7
370
    25
100
AcDbLine
 10
156.3575158148
 20
79.5311778291
 30
0.0
 11
160.1836027714
 21
79.5311778291
 31
0.0
  0
LINE
  5
196
330
1F
100
AcDbEntity
  8
0
  6
Continuous
 62
     7
370
    25
100
AcDbLine
 10
149.1836027714
 20
79.5311778291
 30
0.0
 11
153.0096897279
 21
79.5311778291
 31
0.0
  0
LINE
  5
197
330
1F
100
AcDbEntity
  8
0
  6
Continuous
 62
     7
370
    25
100
AcDbLine
 10
154.0836027714
 20
80.3911778291
 30
0.0
 11
155.2836027714
 21
80.3911778291
 31
0.0
  0
LINE
  5
198
330
1F
100
AcDbEntity
  8
0
  6
Continuous
 62
     7
370
    25
100
AcDbLine
 10
155.2836027714
 20
80.3811778291
 30
0.0
 11
155.2836027714
 21
80.3911778291
 31
0.0
  0
LINE
  5
199
330
1F
100
AcDbEntity
  8
0
  6
Continuous
 62
     7
370
    25
100
AcDbLine
 10
154.0836027714
 20
80.3811778291
 30
0.0
 11
154.0836027714
 21
80.3911778291
 31
0.0
  0
LINE
  5
19A
330
1F
100
AcDbEntity
  8
0
  6
Continuous
 62
     7
370
    25
100
AcDbLine
 10
147.6836027714
 20
63.5311778291
 30
0.0
 11
161.6836027714
 21
63.5311778291
 31
0.0
  0
LINE
  5
19B
330
1F
100
AcDbEntity
  8
0
  6
Continuous
 62
     7
370
    25
100
AcDbLine
 10
147.2336027714
 20
71.5311778291
 30
0.0
 11
162.1336027714
 21
71.5311778291
 31
0.0
  0
LINE
  5
19C
330
1F
100
AcDbEntity
  8
0
  6
Continuous
 62
     7
370
    25
100
AcDbLine
 10
151.1836027714
 20
81.5311778291
 30
0.0
 11
151.1836027714
 21
80.3811778291
 31
0.0
  0
LINE
  5
19D
330
1F
100
AcDbEntity
  8
0
  6
Continuous
 62
     7
370
    25
100
AcDbLine
 10
151.1836027714
 20
81.5311778291
 30
0.0
 11
151.4119035073
 21
81.5311778291
 31
0.0
  0
LINE
  5
19E
330
1F
100
AcDbEntity
  8
0
  6
Continuous
 62
     7
370
    25
100
AcDbLine
 10
151.4119035073
 20
81.5311778291
 30
0.0
 11
151.4119035073
 21
80.3811778291
 31
0.0
  0
LINE
  5
19F
330
1F
100
AcDbEntity
  8
0
  6
Continuous
 62
     7
370
    25
100
AcDbLine
 10
157.9553020354
 20
81.5311778291
 30
0.0
 11
157.9553020354
 21
80.3811778291
 31
0.0
  0
LINE
  5
1A0
330
1F
100
AcDbEntity
  8
0
  6
Continuous
 62
     7
370
    25
100
AcDbLine
 10
157.9553020354
 20
81.5311778291
 30
0.0
 11
158.1836027714
 21
81.5311778291
 31
0.0
  0
LINE
  5
1A1
330
1F
100
AcDbEntity
  8
0
  6
Continuous
 62
     7
370
    25
100
AcDbLine
 10
158.1836027714
 20
80.3811778291
 30
0.0
 11
158.1836027714
 21
81.5311778291
 31
0.0
  0
LINE
  5
1A2
330
1F
100
AcDbEntity
  8
0
  6
Continuous
 62
     7
370
    25
100
AcDbLine
 10
151.4119035073
 20
81.5311778291
 30
0.0
 11
157.9553020354
 21
81.5311778291
 31
0.0
  0
CIRCLE
  5
1A3
330
1F
100
AcDbEntity
  8
0
  6
Continuous
 62
     7
370
    25
100
AcDbCircle
 10
154.6836027714
 20
53.0311778291
 30
0.0
 40
8.25
  0
SPLINE
  5
1A4
330
1F
100
AcDbEntity
  8
0
  6
Continuous
 62
     7
370
    25
100
AcDbSpline
210
0.0
220
0.0
230
1.0
 70
     8
 71
     3
 72
    10
 73
     6
 74
     0
 42
0.00000001
 43
0.00000001
 40
0.0
 40
0.0
 40
0.0
 40
0.0
 40
0.5
 40
0.5
 40
1.0
 40
1.0
 40
1.0
 40
1.0
 10
146.1836027713626
 20
48.41237567558229
 30
0.0
 10
146.1836027713626
 20
48.32648861377983
 30
0.0
 10
146.2063952206924
 20
48.2390814047997
 30
0.0
 10
146.2943379247855
 20
48.08644496220597
 30
0.0
 10
146.3591956984593
 20
48.02232191726038
 30
0.0
 10
146.4336027713626
 20
47.97936297369008
 30
0.0
  0
SPLINE
  5
1A5
330
1F
100
AcDbEntity
  8
0
  6
Continuous
 62
     7
370
    25
100
AcDbSpline
210
0.0
220
0.0
230
1.0
 70
    24
 71
     3
 72
    14
 73
    10
 74
     0
 42
0.00000001
 43
0.00000001
 40
0.0
 40
0.0
 40
0.0
 40
0.0
 40
0.25
 40
0.25
 40
0.5
 40
0.5
 40
0.75
 40
0.75
 40
1.0
 40
1.0
 40
1.0
 40
1.0
 10
146.1836027713626
 20
48.41237567558225
 30
0.0
 10
146.1836027713626
 20
49.16675573623223
 30
0.0
 10
146.1836027713626
 20
49.93619690369773
 30
0.0
 10
146.1836027713626
 20
51.47670826463889
 30
0.0
 10
146.1836027713626
 20
52.25156264464592
 30
0.0
 10
146.1836027713626
 20
53.81192359953147
 30
0.0
 10
146.1836027713626
 20
54.6023797923165
 30
0.0
 10
146.1836027713626
 20
56.14465945512497
 30
0.0
 10
146.1836027713626
 20
56.90205020832615
 30
0.0
 10
146.1836027713626
 20
57.64997998261631
 30
0.0
  0
SPLINE
  5
1A6
330
1F
100
AcDbEntity
  8
0
  6
Continuous
 62
     7
370
    25
100
AcDbSpline
210
0.0
220
0.0
230
1.0
 70
     8
 71
     3
 72
    10
 73
     6
 74
     0
 42
0.00000001
 43
0.00000001
 40
0.0
 40
0.0
 40
0.0
 40
0.0
 40
0.5
 40
0.5
 40
1.0
 40
1.0
 40
1.0
 40
1.0
 10
146.4336027713626
 20
58.08299268450853
 30
0.0
 10
146.3592223939852
 20
58.04004915360731
 30
0.0
 10
146.2949217551995
 20
57.97660670898318
 30
0.0
 10
146.2067060704165
 20
57.82412787186421
 30
0.0
 10
146.1836027713626
 20
57.73589786975693
 30
0.0
 10
146.1836027713626
 20
57.64997998261631
 30
0.0
  0
SPLINE
  5
1A7
330
1F
100
AcDbEntity
  8
0
  6
Continuous
 62
     7
370
    25
100
AcDbSpline
210
0.0
220
0.0
230
1.0
 70
    24
 71
     3
 72
    16
 73
    12
 74
     0
 42
0.00000001
 43
0.00000001
 40
0.0
 40
0.0
 40
0.0
 40
0.0
 40
0.2500000000000001
 40
0.2500000000000001
 40
0.5000000000000001
 40
0.5000000000000001
 40
0.6250000000000001
 40
0.6250000000000001
 40
0.7500000000000002
 40
0.7500000000000002
 40
1.0
 40
1.0
 40
1.0
 40
1.0
 10
154.4336027713626
 20
62.70179483802554
 30
0.0
 10
153.7800859913218
 20
62.32448674914904
 30
0.0
 10
153.1218655822318
 20
61.94446301877484
 30
0.0
 10
151.792302998866
 20
61.17683970336414
 30
0.0
 10
151.1208790167954
 20
60.78919288657535
 30
0.0
 10
150.1018779297887
 20
60.2008723346875
 30
0.0
 10
149.7605371474725
 20
60.00379914213185
 30
0.0
 10
149.0849386445021
 20
59.61374216457775
 30
0.0
 10
148.7492794945375
 20
59.41994926398971
 30
0.0
 10
147.7480138580378
 20
58.84186827922629
 30
0.0
 10
147.0881061994346
 20
58.46087041489147
 30
0.0
 10
146.4336027713626
 20
58.08299268450853
 30
0.0
  0
SPLINE
  5
1A8
330
1F
100
AcDbEntity
  8
0
  6
Continuous
 62
     7
370
    25
100
AcDbSpline
210
0.0
220
0.0
230
1.0
 70
     8
 71
     3
 72
    10
 73
     6
 74
     0
 42
0.00000001
 43
0.00000001
 40
0.0
 40
0.0
 40
0.0
 40
0.0
 40
0.5
 40
0.5
 40
1.0
 40
1.0
 40
1.0
 40
1.0
 10
154.9336027713626
 20
62.70179483802554
 30
0.0
 10
154.8592223939852
 20
62.74473836892678
 30
0.0
 10
154.7721293058697
 20
62.76870313328276
 30
0.0
 10
154.5959709169937
 20
62.76886073875754
 30
0.0
 10
154.5080098442658
 20
62.74475378159586
 30
0.0
 10
154.4336027713626
 20
62.70179483802554
 30
0.0
  0
SPLINE
  5
1A9
330
1F
100
AcDbEntity
  8
0
  6
Continuous
 62
     7
370
    25
100
AcDbSpline
210
0.0
220
0.0
230
1.0
 70
    24
 71
     3
 72
    16
 73
    12
 74
     0
 42
0.00000001
 43
0.00000001
 40
0.0
 40
0.0
 40
0.0
 40
0.0
 40
0.2499999999999997
 40
0.2499999999999997
 40
0.4999999999999993
 40
0.4999999999999993
 40
0.6249999999999993
 40
0.6249999999999993
 40
0.7499999999999996
 40
0.7499999999999996
 40
1.0
 40
1.0
 40
1.0
 40
1.0
 10
162.9336027713626
 20
58.08299268450853
 30
0.0
 10
162.2800859913218
 20
58.46030077338503
 30
0.0
 10
161.6218655822318
 20
58.84032450375923
 30
0.0
 10
160.292302998866
 20
59.60794781916992
 30
0.0
 10
159.6208790167954
 20
59.99559463595873
 30
0.0
 10
158.6018779297887
 20
60.58391518784657
 30
0.0
 10
158.2605371474725
 20
60.78098838040222
 30
0.0
 10
157.5849386445021
 20
61.17104535795632
 30
0.0
 10
157.2492794945375
 20
61.36483825854436
 30
0.0
 10
156.2480138580378
 20
61.94291924330779
 30
0.0
 10
155.5881061994346
 20
62.32391710764261
 30
0.0
 10
154.9336027713626
 20
62.70179483802554
 30
0.0
  0
SPLINE
  5
1AA
330
1F
100
AcDbEntity
  8
0
  6
Continuous
 62
     7
370
    25
100
AcDbSpline
210
0.0
220
0.0
230
1.0
 70
     8
 71
     3
 72
    10
 73
     6
 74
     0
 42
0.00000001
 43
0.00000001
 40
0.0
 40
0.0
 40
0.0
 40
0.0
 40
0.5
 40
0.5
 40
1.0
 40
1.0
 40
1.0
 40
1.0
 10
163.1836027713626
 20
57.64997998261631
 30
0.0
 10
163.1836027713626
 20
57.73586704441877
 30
0.0
 10
163.1608103220328
 20
57.82327425339888
 30
0.0
 10
163.0728676179397
 20
57.97591069599263
 30
0.0
 10
163.0080098442658
 20
58.04003374093822
 30
0.0
 10
162.9336027713626
 20
58.08299268450853
 30
0.0
  0
SPLINE
  5
1AB
330
1F
100
AcDbEntity
  8
0
  6
Continuous
 62
     7
370
    25
100
AcDbSpline
210
0.0
220
0.0
230
1.0
 70
    24
 71
     3
 72
    14
 73
    10
 74
     0
 42
0.00000001
 43
0.00000001
 40
0.0
 40
0.0
 40
0.0
 40
0.0
 40
0.25
 40
0.25
 40
0.5
 40
0.5
 40
0.75
 40
0.75
 40
1.0
 40
1.0
 40
1.0
 40
1.0
 10
163.1836027713626
 20
48.41237567558225
 30
0.0
 10
163.1836027713626
 20
49.16675573623222
 30
0.0
 10
163.1836027713626
 20
49.93619690369772
 30
0.0
 10
163.1836027713626
 20
51.47670826463888
 30
0.0
 10
163.1836027713626
 20
52.25156264464591
 30
0.0
 10
163.1836027713626
 20
53.81192359953146
 30
0.0
 10
163.1836027713626
 20
54.6023797923165
 30
0.0
 10
163.1836027713626
 20
56.14465945512497
 30
0.0
 10
163.1836027713626
 20
56.90205020832615
 30
0.0
 10
163.1836027713626
 20
57.64997998261631
 30
0.0
  0
SPLINE
  5
1AC
330
1F
100
AcDbEntity
  8
0
  6
Continuous
 62
     7
370
    25
100
AcDbSpline
210
0.0
220
0.0
230
1.0
 70
     8
 71
     3
 72
    10
 73
     6
 74
     0
 42
0.00000001
 43
0.00000001
 40
0.0
 40
0.0
 40
0.0
 40
0.0
 40
0.5
 40
0.5
 40
1.0
 40
1.0
 40
1.0
 40
1.0
 10
162.9336027713626
 20
47.97936297369008
 30
0.0
 10
163.0079831487397
 20
48.0223065045912
 30
0.0
 10
163.0722837875253
 20
48.08574894921487
 30
0.0
 10
163.1604994723085
 20
48.238227786334
 30
0.0
 10
163.1836027713626
 20
48.32645778844148
 30
0.0
 10
163.1836027713626
 20
48.41237567558227
 30
0.0
  0
SPLINE
  5
1AD
330
1F
100
AcDbEntity
  8
0
  6
Continuous
 62
     7
370
    25
100
AcDbSpline
210
0.0
220
0.0
230
1.0
 70
    24
 71
     3
 72
    16
 73
    12
 74
     0
 42
0.00000001
 43
0.00000001
 40
0.0
 40
0.0
 40
0.0
 40
0.0
 40
0.2500000000000002
 40
0.2500000000000002
 40
0.5000000000000004
 40
0.5000000000000004
 40
0.6250000000000003
 40
0.6250000000000003
 40
0.7500000000000002
 40
0.7500000000000002
 40
1.0
 40
1.0
 40
1.0
 40
1.0
 10
154.9336027713626
 20
43.36056082017307
 30
0.0
 10
155.5871195514033
 20
43.73786890904954
 30
0.0
 10
156.2453399604932
 20
44.11789263942372
 30
0.0
 10
157.5749025438589
 20
44.88551595483435
 30
0.0
 10
158.2463265259294
 20
45.27316277162312
 30
0.0
 10
159.265327612936
 20
45.86148332351091
 30
0.0
 10
159.6066683952522
 20
46.05855651606655
 30
0.0
 10
160.2822668982226
 20
46.44861349362061
 30
0.0
 10
160.6179260481872
 20
46.64240639420864
 30
0.0
 10
161.6191916846869
 20
47.22048737897202
 30
0.0
 10
162.27909934329
 20
47.60148524330682
 30
0.0
 10
162.933602771362
 20
47.97936297368972
 30
0.0
  0
SPLINE
  5
1AE
330
1F
100
AcDbEntity
  8
0
  6
Continuous
 62
     7
370
    25
100
AcDbSpline
210
0.0
220
0.0
230
1.0
 70
     8
 71
     3
 72
    10
 73
     6
 74
     0
 42
0.00000001
 43
0.00000001
 40
0.0
 40
0.0
 40
0.0
 40
0.0
 40
0.5
 40
0.5
 40
1.0
 40
1.0
 40
1.0
 40
1.0
 10
154.4336027713626
 20
43.36056082017307
 30
0.0
 10
154.5079831487399
 20
43.31761728927184
 30
0.0
 10
154.5950762368554
 20
43.29365252491586
 30
0.0
 10
154.7712346257315
 20
43.29349491944107
 30
0.0
 10
154.8591956984593
 20
43.31760187660276
 30
0.0
 10
154.9336027713626
 20
43.36056082017307
 30
0.0
  0
SPLINE
  5
1AF
330
1F
100
AcDbEntity
  8
0
  6
Continuous
 62
     7
370
    25
100
AcDbSpline
210
0.0
220
0.0
230
1.0
 70
    24
 71
     3
 72
    16
 73
    12
 74
     0
 42
0.00000001
 43
0.00000001
 40
0.0
 40
0.0
 40
0.0
 40
0.0
 40
0.2500000000000001
 40
0.2500000000000001
 40
0.5000000000000002
 40
0.5000000000000002
 40
0.6250000000000001
 40
0.6250000000000001
 40
0.7500000000000001
 40
0.7500000000000001
 40
1.0
 40
1.0
 40
1.0
 40
1.0
 10
146.4336027713626
 20
47.97936297369008
 30
0.0
 10
147.0871195514034
 20
47.60205488481358
 30
0.0
 10
147.7453399604933
 20
47.22203115443938
 30
0.0
 10
149.0749025438591
 20
46.45440783902868
 30
0.0
 10
149.7463265259297
 20
46.06676102223989
 30
0.0
 10
150.7653276129364
 20
45.47844047035203
 30
0.0
 10
151.1066683952526
 20
45.28136727779638
 30
0.0
 10
151.782266898223
 20
44.89131030024229
 30
0.0
 10
152.1179260481877
 20
44.69751739965425
 30
0.0
 10
153.1191916846873
 20
44.11943641489083
 30
0.0
 10
153.7790993432905
 20
43.738438550556
 30
0.0
 10
154.4336027713626
 20
43.36056082017307
 30
0.0
  0
SPLINE
  5
1B0
330
1F
100
AcDbEntity
  8
0
  6
Continuous
 62
     7
370
    25
100
AcDbSpline
210
0.0
220
0.0
230
1.0
 70
     8
 71
     3
 72
    10
 73
     6
 74
     0
 42
0.00000001
 43
0.00000001
 40
0.0
 40
0.0
 40
0.0
 40
0.0
 40
0.5
 40
0.5
 40
1.0
 40
1.0
 40
1.0
 40
1.0
 10
154.4336027713626
 20
41.70889923435949
 30
0.0
 10
154.5079775253526
 20
41.73257283885061
 30
0.0
 10
154.5950712569185
 20
41.74566561464384
 30
0.0
 10
154.771237085463
 20
41.74575218274479
 30
0.0
 10
154.8591981093533
 20
41.73258235862151
 30
0.0
 10
154.9336027713626
 20
41.70889923435949
 30
0.0
  0
SPLINE
  5
1B1
330
1F
100
AcDbEntity
  8
0
  6
Continuous
 62
     7
370
    25
100
AcDbSpline
210
0.0
220
0.0
230
1.0
 70
     8
 71
     3
 72
    12
 73
     8
 74
     0
 42
0.00000001
 43
0.00000001
 40
0.0
 40
0.0
 40
0.0
 40
0.0
 40
0.2500000000000002
 40
0.2500000000000002
 40
0.5000000000000001
 40
0.5000000000000001
 40
1.0
 40
1.0
 40
1.0
 40
1.0
 10
158.9336027713626
 20
41.0311778290993
 30
0.0
 10
158.5958468363398
 20
41.03117782909929
 30
0.0
 10
158.2554388214613
 20
41.04692415912125
 30
0.0
 10
157.5809441370609
 20
41.10836918370669
 30
0.0
 10
157.2458188181936
 20
41.15395794296042
 30
0.0
 10
156.2461074998535
 20
41.33040894521702
 30
0.0
 10
155.5871733967882
 20
41.5008666471805
 30
0.0
 10
154.9336027713625
 20
41.70889923435934
 30
0.0
  0
LINE
  5
1B2
330
1F
100
AcDbEntity
  8
0
  6
Continuous
 62
     7
370
    25
100
AcDbLine
 10
150.4336027714
 20
41.0311778291
 30
0.0
 11
158.9336027714
 21
41.0311778291
 31
0.0
  0
SPLINE
  5
1B3
330
1F
100
AcDbEntity
  8
0
  6
Continuous
 62
     7
370
    25
100
AcDbSpline
210
0.0
220
0.0
230
1.0
 70
     8
 71
     3
 72
    10
 73
     6
 74
     0
 42
0.00000001
 43
0.00000001
 40
0.0
 40
0.0
 40
0.0
 40
0.0
 40
0.5
 40
0.5
 40
1.0
 40
1.0
 40
1.0
 40
1.0
 10
154.4336027713626
 20
41.70889923435902
 30
0.0
 10
153.7775900047575
 20
41.50008930969277
 30
0.0
 10
153.1173230978998
 20
41.32955516994551
 30
0.0
 10
151.7849765792648
 20
41.09476936492659
 30
0.0
 10
151.1128235977774
 20
41.0311778290993
 30
0.0
 10
150.4336027713626
 20
41.0311778290993
 30
0.0
  0
LINE
  5
1B4
330
1F
100
AcDbEntity
  8
0
  6
Continuous
 62
     7
370
    25
100
AcDbLine
 10
154.9336027714
 20
43.3605608202
 30
0.0
 11
154.9336027714
 21
41.7088992344
 31
0.0
  0
LINE
  5
1B5
330
1F
100
AcDbEntity
  8
0
  6
Continuous
 62
     7
370
    25
100
AcDbLine
 10
154.4336027714
 20
41.7088992344
 30
0.0
 11
154.4336027714
 21
43.3605608202
 31
0.0
  0
SPLINE
  5
1B6
330
1F
100
AcDbEntity
  8
0
  6
Continuous
 62
     7
370
    25
100
AcDbSpline
210
0.0
220
0.0
230
1.0
 70
     8
 71
     3
 72
    12
 73
     8
 74
     0
 42
0.00000001
 43
0.00000001
 40
0.0
 40
0.0
 40
0.0
 40
0.0
 40
0.2499999999999999
 40
0.2499999999999999
 40
0.4999999999999998
 40
0.4999999999999998
 40
1.0
 40
1.0
 40
1.0
 40
1.0
 10
159.0580328641149
 20
45.74180164446444
 30
0.0
 10
159.3871678545081
 20
45.73809315860801
 30
0.0
 10
159.7166300074448
 20
45.71951065577033
 30
0.0
 10
160.3695036255025
 20
45.65464361880419
 30
0.0
 10
160.6939562173796
 20
45.60837806555391
 30
0.0
 10
161.6620166585717
 20
45.43265353524696
 30
0.0
 10
162.3003391428196
 20
45.2663501264702
 30
0.0
 10
162.9336027713626
 20
45.0647812892443
 30
0.0
  0
LINE
  5
1B7
330
1F
100
AcDbEntity
  8
0
  6
Continuous
 62
     7
370
    25
100
AcDbLine
 10
162.9336027714
 20
41.7088992344
 30
0.0
 11
162.9336027714
 21
45.0647812892
 31
0.0
  0
SPLINE
  5
1B8
330
1F
100
AcDbEntity
  8
0
  6
Continuous
 62
     7
370
    25
100
AcDbSpline
210
0.0
220
0.0
230
1.0
 70
     8
 71
     3
 72
    10
 73
     6
 74
     0
 42
0.00000001
 43
0.00000001
 40
0.0
 40
0.0
 40
0.0
 40
0.0
 40
0.5
 40
0.5
 40
1.0
 40
1.0
 40
1.0
 40
1.0
 10
162.9336027713626
 20
41.70889923435902
 30
0.0
 10
162.2775900047575
 20
41.50008930969277
 30
0.0
 10
161.6173230978998
 20
41.32955516994551
 30
0.0
 10
160.2849765792648
 20
41.09476936492659
 30
0.0
 10
159.6128235977775
 20
41.0311778290993
 30
0.0
 10
158.9336027713626
 20
41.0311778290993
 30
0.0
  0
SPLINE
  5
1B9
330
1F
100
AcDbEntity
  8
0
  6
Continuous
 62
     7
370
    25
100
AcDbSpline
210
0.0
220
0.0
230
1.0
 70
     8
 71
     3
 72
    12
 73
     8
 74
     0
 42
0.00000001
 43
0.00000001
 40
0.0
 40
0.0
 40
0.0
 40
0.0
 40
0.2499999999999998
 40
0.2499999999999998
 40
0.4999999999999996
 40
0.4999999999999996
 40
1.0
 40
1.0
 40
1.0
 40
1.0
 10
150.4336027713626
 20
41.0311778290993
 30
0.0
 10
150.0958468363398
 20
41.0311778290993
 30
0.0
 10
149.7554388214613
 20
41.04692415912125
 30
0.0
 10
149.0809441370609
 20
41.10836918370668
 30
0.0
 10
148.7458188181936
 20
41.15395794296041
 30
0.0
 10
147.7461074998535
 20
41.33040894521702
 30
0.0
 10
147.0871733967882
 20
41.50086664718051
 30
0.0
 10
146.4336027713625
 20
41.70889923435934
 30
0.0
  0
LINE
  5
1BA
330
1F
100
AcDbEntity
  8
0
  6
Continuous
 62
     7
370
    25
100
AcDbLine
 10
146.4336027714
 20
45.0647812892
 30
0.0
 11
146.4336027714
 21
41.7088992344
 31
0.0
  0
SPLINE
  5
1BB
330
1F
100
AcDbEntity
  8
0
  6
Continuous
 62
     7
370
    25
100
AcDbSpline
210
0.0
220
0.0
230
1.0
 70
     8
 71
     3
 72
    10
 73
     6
 74
     0
 42
0.00000001
 43
0.00000001
 40
0.0
 40
0.0
 40
0.0
 40
0.0
 40
0.5
 40
0.5
 40
1.0
 40
1.0
 40
1.0
 40
1.0
 10
146.433602771363
 20
45.06478128924445
 30
0.0
 10
147.0684304771767
 20
45.26684797479538
 30
0.0
 10
147.7076961797525
 20
45.43324074706602
 30
0.0
 10
148.9985111113423
 20
45.66728772093607
 30
0.0
 10
149.6501307468122
 20
45.7343759748949
 30
0.0
 10
150.3091726786323
 20
45.74180164446469
 30
0.0
  0
SPLINE
  5
1BC
330
1F
100
AcDbEntity
  8
0
  6
Continuous
 62
     7
370
    25
100
AcDbSpline
210
0.0
220
0.0
230
1.0
 70
     8
 71
     3
 72
    10
 73
     6
 74
     0
 42
0.00000001
 43
0.00000001
 40
0.0
 40
0.0
 40
0.0
 40
0.0
 40
0.5
 40
0.5
 40
1.0
 40
1.0
 40
1.0
 40
1.0
 10
162.9336027713626
 20
41.70889923435949
 30
0.0
 10
163.0079732382881
 20
41.73257147427105
 30
0.0
 10
163.072278834576
 20
41.74566546420631
 30
0.0
 10
163.1605016223818
 20
41.74575233166776
 30
0.0
 10
163.1836027713626
 20
41.7325825419084
 30
0.0
 10
163.1836027713626
 20
41.70889923435949
 30
0.0
  0
LINE
  5
1BD
330
1F
100
AcDbEntity
  8
0
  6
Continuous
 62
     7
370
    25
100
AcDbLine
 10
158.9336027714
 20
41.0311778291
 30
0.0
 11
163.1836027714
 21
41.0311778291
 31
0.0
  0
SPLINE
  5
1BE
330
1F
100
AcDbEntity
  8
0
  6
Continuous
 62
     7
370
    25
100
AcDbSpline
210
0.0
220
0.0
230
1.0
 70
    24
 71
     3
 72
    10
 73
     6
 74
     0
 42
0.00000001
 43
0.00000001
 40
0.0
 40
0.0
 40
0.0
 40
0.0
 40
0.5
 40
0.5
 40
1.0
 40
1.0
 40
1.0
 40
1.0
 10
163.1836027713626
 20
41.0311778290993
 30
0.0
 10
163.1836027713626
 20
41.03117782909931
 30
0.0
 10
163.1836027713626
 20
41.09346219107782
 30
0.0
 10
163.1836027713626
 20
41.32831030908484
 30
0.0
 10
163.1836027713626
 20
41.50155291621604
 30
0.0
 10
163.1836027713626
 20
41.70889923435949
 30
0.0
  0
SPLINE
  5
1BF
330
1F
100
AcDbEntity
  8
0
  6
Continuous
 62
     7
370
    25
100
AcDbSpline
210
0.0
220
0.0
230
1.0
 70
     8
 71
     3
 72
    10
 73
     6
 74
     0
 42
0.00000001
 43
0.00000001
 40
0.0
 40
0.0
 40
0.0
 40
0.0
 40
0.5
 40
0.5
 40
1.0
 40
1.0
 40
1.0
 40
1.0
 10
146.1836027713626
 20
41.70889923435949
 30
0.0
 10
146.1836027713626
 20
41.73257313491545
 30
0.0
 10
146.20639334301
 20
41.74566569209458
 30
0.0
 10
146.2943393403088
 20
41.74575210607686
 30
0.0
 10
146.3592001330416
 20
41.73258171447824
 30
0.0
 10
146.4336027713626
 20
41.70889923435949
 30
0.0
  0
LINE
  5
1C0
330
1F
100
AcDbEntity
  8
0
  6
Continuous
 62
     7
370
    25
100
AcDbLine
 10
146.1836027714
 20
41.0311778291
 30
0.0
 11
150.4336027714
 21
41.0311778291
 31
0.0
  0
SPLINE
  5
1C1
330
1F
100
AcDbEntity
  8
0
  6
Continuous
 62
     7
370
    25
100
AcDbSpline
210
0.0
220
0.0
230
1.0
 70
    24
 71
     3
 72
    10
 73
     6
 74
     0
 42
0.00000001
 43
0.00000001
 40
0.0
 40
0.0
 40
0.0
 40
0.0
 40
0.5
 40
0.5
 40
1.0
 40
1.0
 40
1.0
 40
1.0
 10
146.1836027713626
 20
41.0311778290993
 30
0.0
 10
146.1836027713626
 20
41.03117782909931
 30
0.0
 10
146.1836027713626
 20
41.09346219107782
 30
0.0
 10
146.1836027713626
 20
41.32831030908484
 30
0.0
 10
146.1836027713626
 20
41.50155291621604
 30
0.0
 10
146.1836027713626
 20
41.70889923435949
 30
0.0
  0
SPLINE
  5
1C2
330
1F
100
AcDbEntity
  8
0
  6
Continuous
 62
     7
370
    25
100
AcDbSpline
210
0.0
220
0.0
230
1.0
 70
     8
 71
     3
 72
     8
 73
     4
 74
     0
 42
0.00000001
 43
0.00000001
 40
0.0
 40
0.0
 40
0.0
 40
0.0
 40
1.0
 40
1.0
 40
1.0
 40
1.0
 10
146.1836027713626
 20
45.22626661752532
 30
0.0
 10
146.7054089226644
 20
45.49885675319467
 30
0.0
 10
147.2290623915206
 20
45.76800925431607
 30
0.0
 10
147.7553995410871
 20
46.03117782909931
 30
0.0
  0
SPLINE
  5
1C3
330
1F
100
AcDbEntity
  8
0
  6
Continuous
 62
     7
370
    25
100
AcDbSpline
210
0.0
220
0.0
230
1.0
 70
     8
 71
     3
 72
    10
 73
     6
 74
     0
 42
0.00000001
 43
0.00000001
 40
0.0
 40
0.0
 40
0.0
 40
0.0
 40
0.5
 40
0.5
 40
1.0
 40
1.0
 40
1.0
 40
1.0
 10
146.1836027713626
 20
45.06478128924428
 30
0.0
 10
146.1836027713626
 20
45.04110589481987
 30
0.0
 10
146.2063952206924
 20
45.02801478493524
 30
0.0
 10
146.2943379247857
 20
45.02792846364702
 30
0.0
 10
146.3591956984598
 20
45.04109739759096
 30
0.0
 10
146.4336027713632
 20
45.06478128924451
 30
0.0
  0
SPLINE
  5
1C4
330
1F
100
AcDbEntity
  8
0
  6
Continuous
 62
     7
370
    25
100
AcDbSpline
210
0.0
220
0.0
230
1.0
 70
    24
 71
     3
 72
     8
 73
     4
 74
     0
 42
0.00000001
 43
0.00000001
 40
0.0
 40
0.0
 40
0.0
 40
0.0
 40
1.0
 40
1.0
 40
1.0
 40
1.0
 10
146.1836027713626
 20
45.22626661752532
 30
0.0
 10
146.1836027713626
 20
45.17537182782449
 30
0.0
 10
146.1836027713626
 20
45.12143797846306
 30
0.0
 10
146.1836027713626
 20
45.0647812892443
 30
0.0
  0
SPLINE
  5
1C5
330
1F
100
AcDbEntity
  8
0
  6
Continuous
 62
     7
370
    25
100
AcDbSpline
210
0.0
220
0.0
230
1.0
 70
     8
 71
     3
 72
     8
 73
     4
 74
     0
 42
0.00000001
 43
0.00000001
 40
0.0
 40
0.0
 40
0.0
 40
0.0
 40
1.0
 40
1.0
 40
1.0
 40
1.0
 10
161.6118060016381
 20
46.0311778290993
 30
0.0
 10
162.1382268628473
 20
45.7679673984947
 30
0.0
 10
162.661771319561
 20
45.49886997010799
 30
0.0
 10
163.1836027713626
 20
45.22626661752534
 30
0.0
  0
SPLINE
  5
1C6
330
1F
100
AcDbEntity
  8
0
  6
Continuous
 62
     7
370
    25
100
AcDbSpline
210
0.0
220
0.0
230
1.0
 70
     8
 71
     3
 72
    10
 73
     6
 74
     0
 42
0.00000001
 43
0.00000001
 40
0.0
 40
0.0
 40
0.0
 40
0.0
 40
0.5
 40
0.5
 40
1.0
 40
1.0
 40
1.0
 40
1.0
 10
162.9336027713626
 20
45.0647812892443
 30
0.0
 10
163.0079831487399
 20
45.04110589481991
 30
0.0
 10
163.0722837875257
 20
45.02801478493527
 30
0.0
 10
163.1604994723086
 20
45.02792846364699
 30
0.0
 10
163.1836027713626
 20
45.04109739759083
 30
0.0
 10
163.1836027713626
 20
45.06478128924429
 30
0.0
  0
SPLINE
  5
1C7
330
1F
100
AcDbEntity
  8
0
  6
Continuous
 62
     7
370
    25
100
AcDbSpline
210
0.0
220
0.0
230
1.0
 70
    24
 71
     3
 72
     8
 73
     4
 74
     0
 42
0.00000001
 43
0.00000001
 40
0.0
 40
0.0
 40
0.0
 40
0.0
 40
1.0
 40
1.0
 40
1.0
 40
1.0
 10
163.1836027713626
 20
45.22626661752532
 30
0.0
 10
163.1836027713626
 20
45.17537182782449
 30
0.0
 10
163.1836027713626
 20
45.12143797846306
 30
0.0
 10
163.1836027713626
 20
45.0647812892443
 30
0.0
  0
LINE
  5
1C8
330
1F
100
AcDbEntity
  8
0
  6
Continuous
 62
     7
370
    25
100
AcDbLine
 10
147.1836027714
 20
46.0311778291
 30
0.0
 11
147.1836027714
 21
47.5463502718
 31
0.0
  0
LINE
  5
1C9
330
1F
100
AcDbEntity
  8
0
  6
Continuous
 62
     7
370
    25
100
AcDbLine
 10
147.1836027714
 20
46.0311778291
 30
0.0
 11
149.8079584243
 21
46.0311778291
 31
0.0
  0
LINE
  5
1CA
330
1F
100
AcDbEntity
  8
0
  6
Continuous
 62
     7
370
    25
100
AcDbLine
 10
162.1836027714
 20
47.5463502718
 30
0.0
 11
162.1836027714
 21
46.0311778291
 31
0.0
  0
LINE
  5
1CB
330
1F
100
AcDbEntity
  8
0
  6
Continuous
 62
     7
370
    25
100
AcDbLine
 10
159.5592471184
 20
46.0311778291
 30
0.0
 11
162.1836027714
 21
46.0311778291
 31
0.0
  0
LINE
  5
1CC
330
1F
100
AcDbEntity
  8
0
  6
Continuous
 62
     7
370
    25
100
AcDbLine
 10
154.6836027714
 20
30.8861258885
 30
0.0
 11
159.4658823982
 21
30.8861258885
 31
0.0
  0
LINE
  5
1CD
330
1F
100
AcDbEntity
  8
0
  6
Continuous
 62
     7
370
    25
100
AcDbLine
 10
149.9013231445
 20
30.8861258885
 30
0.0
 11
154.6836027714
 21
30.8861258885
 31
0.0
  0
LINE
  5
1CE
330
1F
100
AcDbEntity
  8
0
  6
Continuous
 62
     7
370
    25
100
AcDbLine
 10
146.1836027714
 20
41.7088992344
 30
0.0
 11
146.1836027714
 21
45.0647812892
 31
0.0
  0
LINE
  5
1CF
330
1F
100
AcDbEntity
  8
0
  6
Continuous
 62
     7
370
    25
100
AcDbLine
 10
163.1836027714
 20
45.0647812892
 30
0.0
 11
163.1836027714
 21
41.7088992344
 31
0.0
  0
LINE
  5
1D0
330
1F
100
AcDbEntity
  8
0
  6
Continuous
 62
     7
370
    25
100
AcDbLine
 10
158.6836027714
 20
29.5311778291
 30
0.0
 11
150.6836027714
 21
29.5311778291
 31
0.0
  0
LINE
  5
1D1
330
1F
100
AcDbEntity
  8
0
  6
Continuous
 62
     7
370
    25
100
AcDbLine
 10
146.1836027714
 20
45.2262666175
 30
0.0
 11
146.1836027714
 21
48.3862166603
 31
0.0
  0
LINE
  5
1D2
330
1F
100
AcDbEntity
  8
0
  6
Continuous
 62
     7
370
    25
100
AcDbLine
 10
163.1836027714
 20
45.2262666175
 30
0.0
 11
163.1836027714
 21
48.3862166603
 31
0.0
  0
LINE
  5
1D3
330
1F
100
AcDbEntity
  8
0
  6
Continuous
 62
     7
370
    25
100
AcDbLine
 10
153.0096897279
 20
80.1311778291
 30
0.0
 11
149.1836027714
 21
80.1311778291
 31
0.0
  0
LINE
  5
1D4
330
1F
100
AcDbEntity
  8
0
  6
Continuous
 62
     7
370
    25
100
AcDbLine
 10
160.1836027714
 20
80.1311778291
 30
0.0
 11
156.3575158148
 21
80.1311778291
 31
0.0
  0
SPLINE
  5
1D5
330
1F
100
AcDbEntity
  8
0
  6
Continuous
 62
     7
370
    25
100
AcDbSpline
210
0.0
220
0.0
230
1.0
 70
     8
 71
     3
 72
    19
 73
    15
 74
     0
 42
0.00000001
 43
0.00000001
 40
0.0
 40
0.0
 40
0.0
 40
0.0
 40
0.0167585027319128
 40
0.0954765364295281
 40
0.1742992148960432
 40
0.2799200886637535
 40
0.3857365993457058
 40
0.4988214459271763
 40
0.611887777386653
 40
0.7070688031477186
 40
0.802175626620363
 40
0.8927540691538206
 40
0.9832578651157553
 40
1.0
 40
1.0
 40
1.0
 40
1.0
 10
148.7912431949073
 20
59.57057766411052
 30
0.0
 10
148.7887201742228
 20
59.567446116501
 30
0.0
 10
148.7743460215825
 20
59.54960506445696
 30
0.0
 10
148.8377914034982
 20
59.62866810897617
 30
0.0
 10
148.9928948061965
 20
59.81314986822247
 30
0.0
 10
149.2811932282268
 20
60.13312991735881
 30
0.0
 10
149.7136268832741
 20
60.55757785643763
 30
0.0
 10
150.2680597140643
 20
61.02024252943712
 30
0.0
 10
150.9109552485772
 20
61.46072249949655
 30
0.0
 10
151.610392178129
 20
61.83878343876334
 30
0.0
 10
152.3323924970262
 20
62.14200696730853
 30
0.0
 10
153.1101118865778
 20
62.36040608583534
 30
0.0
 10
153.698160359275
 20
62.48180584553763
 30
0.0
 10
154.0277505377908
 20
62.49510567288871
 30
0.0
 10
154.0792027764137
 20
62.49718190554101
 30
0.0
  0
SPLINE
  5
1D6
330
1F
100
AcDbEntity
  8
0
  6
Continuous
 62
     7
370
    25
100
AcDbSpline
210
0.0
220
0.0
230
1.0
 70
     8
 71
     3
 72
    20
 73
    16
 74
     0
 42
0.00000001
 43
0.00000001
 40
0.0
 40
0.0
 40
0.0
 40
0.0
 40
0.0313498025141075
 40
0.0973832435994281
 40
0.1973828729322896
 40
0.297494752010446
 40
0.41806557818054
 40
0.538732833666984
 40
0.6171136265895482
 40
0.6956758434741163
 40
0.7739415686783958
 40
0.8504654972868303
 40
0.9268887304176304
 40
0.9967459132898959
 40
1.0
 40
1.0
 40
1.0
 40
1.0
 10
155.2957999813036
 20
62.49268018136633
 30
0.0
 10
155.3916718925352
 20
62.48746014953333
 30
0.0
 10
155.6894829451442
 20
62.47124493952169
 30
0.0
 10
156.2723688913515
 20
62.35687207136831
 30
0.0
 10
157.0216098297049
 20
62.14760208523735
 30
0.0
 10
157.8420890499566
 20
61.80326945284177
 30
0.0
 10
158.6091709576414
 20
61.36771841028113
 30
0.0
 10
159.2161963657841
 20
60.92631821768313
 30
0.0
 10
159.6614281535877
 20
60.54393918096076
 30
0.0
 10
159.9832196210926
 20
60.23520326574781
 30
0.0
 10
160.2429176508247
 20
59.9612115826251
 30
0.0
 10
160.4380113253077
 20
59.73815751853161
 30
0.0
 10
160.5490867284208
 20
59.6037251170344
 30
0.0
 10
160.593069768
 20
59.54982157098627
 30
0.0
 10
160.5821464482452
 20
59.56315293460872
 30
0.0
 10
160.5816602656109
 20
59.56374629611701
 30
0.0
  0
INSERT
  5
1E2
330
1F
100
AcDbEntity
  8
FORMAT
100
AcDbBlockReference
  2
SW_CENTERMARKSYMBOL_0
 10
154.6836027714
 20
53.0311778291
 30
0.0
  0
ARC
  5
1E3
330
1F
100
AcDbEntity
  8
FORMAT
100
AcDbCircle
 10
154.6836027714
 20
53.0311778291
 30
0.0
 40
7.000000000000005
100
AcDbArc
 50
75.0
 51
345.0
  0
LINE
  5
1E4
330
1F
100
AcDbEntity
  8
FORMAT
100
AcDbLine
 10
150.384408401
 20
30.0493976799
 30
0.0
 11
150.0568527714
 21
40.5311778291
 31
0.0
  0
LINE
  5
1E5
330
1F
100
AcDbEntity
  8
FORMAT
100
AcDbLine
 10
158.9827971417
 20
30.0493976799
 30
0.0
 11
159.3103527714
 21
40.5311778291
 31
0.0
  0
LINE
  5
1E6
330
1F
100
AcDbEntity
  8
FORMAT
100
AcDbLine
 10
159.7672902714
 20
40.5311778291
 30
0.0
 11
149.5999152714
 21
40.5311778291
 31
0.0
  0
LINE
  5
1E7
330
1F
100
AcDbEntity
  8
0
  6
Continuous
 62
     7
370
    25
100
AcDbLine
 10
95.8422632794
 20
115.9294278768
 30
0.0
 11
93.0422632794
 21
115.9294278768
 31
0.0
  0
LINE
  5
1E8
330
1F
100
AcDbEntity
  8
0
  6
Continuous
 62
     7
370
    25
100
AcDbLine
 10
93.0422632794
 20
99.9294278768
 30
0.0
 11
95.8422632794
 21
99.9294278768
 31
0.0
  0
LINE
  5
1E9
330
1F
100
AcDbEntity
  8
0
  6
Continuous
 62
     7
370
    25
100
AcDbLine
 10
93.0422632794
 20
115.9294278768
 30
0.0
 11
92.8422632794
 21
115.7294278768
 31
0.0
  0
LINE
  5
1EA
330
1F
100
AcDbEntity
  8
0
  6
Continuous
 62
     7
370
    25
100
AcDbLine
 10
92.8422632794
 20
100.1294278768
 30
0.0
 11
93.0422632794
 21
99.9294278768
 31
0.0
  0
LINE
  5
1EB
330
1F
100
AcDbEntity
  8
0
  6
Continuous
 62
     7
370
    25
100
AcDbLine
 10
119.1979257121
 20
99.4294278768
 30
0.0
 11
119.3422632794
 21
99.6794278768
 31
0.0
  0
LINE
  5
1EC
330
1F
100
AcDbEntity
  8
0
  6
Continuous
 62
     7
370
    25
100
AcDbLine
 10
119.3422632794
 20
116.1794278768
 30
0.0
 11
119.1979257121
 21
116.4294278768
 31
0.0
  0
SPLINE
  5
1ED
330
1F
100
AcDbEntity
  8
0
  6
Continuous
 62
     7
370
    25
100
AcDbSpline
210
0.0
220
0.0
230
1.0
 70
     8
 71
     3
 72
    15
 73
    11
 74
     0
 42
0.00000001
 43
0.00000001
 40
0.0
 40
0.0
 40
0.0
 40
0.0
 40
0.0081667445812695
 40
0.3321939991490077
 40
0.4756279600585576
 40
0.68668309732849
 40
0.8457435502264807
 40
0.8967566214763126
 40
0.9909540928118029
 40
1.0
 40
1.0
 40
1.0
 40
1.0
 10
112.4412827930385
 20
109.1794278768389
 30
0.0
 10
112.4417703271814
 20
109.180865339778
 30
0.0
 10
112.4616014747135
 20
109.2393361977297
 30
0.0
 10
112.4898822547227
 20
109.3237613754492
 30
0.0
 10
112.5277115532115
 20
109.4383404474716
 30
0.0
 10
112.554295449779
 20
109.5197113346682
 30
0.0
 10
112.571465273534
 20
109.5727303266699
 30
0.0
 10
112.5792822697505
 20
109.596932258514
 30
0.0
 10
112.5812779561863
 20
109.6031218791802
 30
0.0
 10
112.5813429201371
 20
109.6033232745927
 30
0.0
 10
112.5813486121038
 20
109.6033409203172
 30
0.0
  0
ARC
  5
1EE
330
1F
100
AcDbEntity
  8
0
  6
Continuous
 62
     7
370
    25
100
AcDbCircle
 10
107.3422632794
 20
107.9294278768
 30
0.0
 40
5.249999999999995
100
AcDbArc
 50
13.774146998
 51
166.225853002
  0
SPLINE
  5
1EF
330
1F
100
AcDbEntity
  8
0
  6
Continuous
 62
     7
370
    25
100
AcDbSpline
210
0.0
220
0.0
230
1.0
 70
     8
 71
     3
 72
    15
 73
    11
 74
     0
 42
0.00000001
 43
0.00000001
 40
0.0
 40
0.0
 40
0.0
 40
0.0
 40
0.0090459071881971
 40
0.1032433785236816
 40
0.1542564497735189
 40
0.3133169026715104
 40
0.5243720399414397
 40
0.6678060008509895
 40
0.9918332554187292
 40
1.0
 40
1.0
 40
1.0
 40
1.0
 10
102.1031779467876
 20
109.6033409203172
 30
0.0
 10
102.1031836387542
 20
109.6033232745927
 30
0.0
 10
102.103248602705
 20
109.6031218791802
 30
0.0
 10
102.1052442891409
 20
109.596932258514
 30
0.0
 10
102.1130612853574
 20
109.5727303266699
 30
0.0
 10
102.1302311091123
 20
109.5197113346682
 30
0.0
 10
102.1568150056798
 20
109.4383404474716
 30
0.0
 10
102.1946443041687
 20
109.3237613754492
 30
0.0
 10
102.2229250841779
 20
109.2393361977297
 30
0.0
 10
102.24275623171
 20
109.180865339778
 30
0.0
 10
102.2432437658529
 20
109.1794278768389
 30
0.0
  0
ARC
  5
1F0
330
1F
100
AcDbEntity
  8
0
  6
Continuous
 62
     7
370
    25
100
AcDbCircle
 10
107.3422632794
 20
107.9294278768
 30
0.0
 40
5.499999999999997
100
AcDbArc
 50
17.7189318734
 51
162.2810681266
  0
SPLINE
  5
1F1
330
1F
100
AcDbEntity
  8
0
  6
Continuous
 62
     7
370
    25
100
AcDbSpline
210
0.0
220
0.0
230
1.0
 70
     8
 71
     3
 72
    15
 73
    11
 74
     0
 42
0.00000001
 43
0.00000001
 40
0.0
 40
0.0
 40
0.0
 40
0.0
 40
0.0090459071881971
 40
0.1032433785236875
 40
0.1542564497735248
 40
0.313316902671511
 40
0.5243720399414434
 40
0.6678060008509189
 40
0.9918332554187028
 40
1.0
 40
1.0
 40
1.0
 40
1.0
 10
112.5813486121038
 20
106.2555148333607
 30
0.0
 10
112.5813429201371
 20
106.2555324790851
 30
0.0
 10
112.5812779561863
 20
106.2557338744977
 30
0.0
 10
112.5792822697505
 20
106.2619234951639
 30
0.0
 10
112.571465273534
 20
106.286125427008
 30
0.0
 10
112.554295449779
 20
106.3391444190097
 30
0.0
 10
112.5277115532115
 20
106.4205153062063
 30
0.0
 10
112.4898822547229
 20
106.5350943782288
 30
0.0
 10
112.4616014747126
 20
106.6195195559479
 30
0.0
 10
112.4417703271813
 20
106.6779904138999
 30
0.0
 10
112.4412827930385
 20
106.6794278768389
 30
0.0
  0
ARC
  5
1F2
330
1F
100
AcDbEntity
  8
0
  6
Continuous
 62
     7
370
    25
100
AcDbCircle
 10
107.3422632794
 20
107.9294278768
 30
0.0
 40
5.499999999999997
100
AcDbArc
 50
197.7189318734
 51
342.2810681266
  0
SPLINE
  5
1F3
330
1F
100
AcDbEntity
  8
0
  6
Continuous
 62
     7
370
    25
100
AcDbSpline
210
0.0
220
0.0
230
1.0
 70
     8
 71
     3
 72
    15
 73
    11
 74
     0
 42
0.00000001
 43
0.00000001
 40
0.0
 40
0.0
 40
0.0
 40
0.0
 40
0.0081667445812973
 40
0.3321939991490813
 40
0.4756279600585592
 40
0.6866830973284899
 40
0.845743550226481
 40
0.8967566214763184
 40
0.9909540928118029
 40
1.0
 40
1.0
 40
1.0
 40
1.0
 10
102.2432437658529
 20
106.6794278768389
 30
0.0
 10
102.24275623171
 20
106.6779904138999
 30
0.0
 10
102.2229250841787
 20
106.6195195559479
 30
0.0
 10
102.1946443041685
 20
106.5350943782288
 30
0.0
 10
102.1568150056799
 20
106.4205153062063
 30
0.0
 10
102.1302311091123
 20
106.3391444190097
 30
0.0
 10
102.1130612853574
 20
106.286125427008
 30
0.0
 10
102.1052442891409
 20
106.2619234951639
 30
0.0
 10
102.103248602705
 20
106.2557338744977
 30
0.0
 10
102.1031836387542
 20
106.2555324790851
 30
0.0
 10
102.1031779467876
 20
106.2555148333607
 30
0.0
  0
ARC
  5
1F4
330
1F
100
AcDbEntity
  8
0
  6
Continuous
 62
     7
370
    25
100
AcDbCircle
 10
107.3422632794
 20
107.9294278768
 30
0.0
 40
5.249999999999995
100
AcDbArc
 50
193.774146998
 51
346.225853002
  0
SPLINE
  5
1F5
330
1F
100
AcDbEntity
  8
0
  6
Continuous
 62
     7
370
    25
100
AcDbSpline
210
0.0
220
0.0
230
1.0
 70
     8
 71
     3
 72
    15
 73
    11
 74
     0
 42
0.00000001
 43
0.00000001
 40
0.0
 40
0.0
 40
0.0
 40
0.0
 40
0.0080847466189581
 40
0.3310106400648237
 40
0.4750333064304937
 40
0.6874363079215094
 40
0.8468367539418249
 40
0.9000996640391792
 40
0.9910442771984082
 40
1.0
 40
1.0
 40
1.0
 40
1.0
 10
112.4412827930385
 20
106.6794278768389
 30
0.0
 10
112.4425626245826
 20
106.6786119408506
 30
0.0
 10
112.4949622703058
 20
106.6452053906561
 30
0.0
 10
112.5703173617609
 20
106.5963918259223
 30
0.0
 10
112.6722364737786
 20
106.529021353654
 30
0.0
 10
112.7446274187705
 20
106.4804373133105
 30
0.0
 10
112.7923328470353
 20
106.447988451852
 30
0.0
 10
112.8138683307427
 20
106.4332774107857
 30
0.0
 10
112.8192973467622
 20
106.4295589598676
 30
0.0
 10
112.8194730989187
 20
106.4294386612021
 30
0.0
 10
112.8194888544973
 20
106.4294278768389
 30
0.0
  0
ARC
  5
1F6
330
1F
100
AcDbEntity
  8
0
  6
Continuous
 62
     7
370
    25
100
AcDbCircle
 10
112.8194888545
 20
106.1794278768
 30
0.0
 40
0.25
100
AcDbArc
 50
90.0
 51
162.2810681266
  0
SPLINE
  5
1F7
330
1F
100
AcDbEntity
  8
0
  6
Continuous
 62
     7
370
    25
100
AcDbSpline
210
0.0
220
0.0
230
1.0
 70
     8
 71
     3
 72
    15
 73
    11
 74
     0
 42
0.00000001
 43
0.00000001
 40
0.0
 40
0.0
 40
0.0
 40
0.0
 40
0.0089557228015919
 40
0.0999003359608153
 40
0.1531632460581696
 40
0.3125636920784855
 40
0.5249666935695051
 40
0.6689893599351772
 40
0.991915253381045
 40
1.0
 40
1.0
 40
1.0
 40
1.0
 10
101.865037704394
 20
106.4294278768389
 30
0.0
 10
101.8650534599726
 20
106.4294386612021
 30
0.0
 10
101.8652292121292
 20
106.4295589598676
 30
0.0
 10
101.8706582281487
 20
106.4332774107857
 30
0.0
 10
101.892193711856
 20
106.447988451852
 30
0.0
 10
101.9398991401209
 20
106.4804373133105
 30
0.0
 10
102.0122900851128
 20
106.529021353654
 30
0.0
 10
102.1142091971304
 20
106.5963918259223
 30
0.0
 10
102.1895642885855
 20
106.6452053906562
 30
0.0
 10
102.2419639343088
 20
106.6786119408507
 30
0.0
 10
102.2432437658529
 20
106.6794278768389
 30
0.0
  0
ARC
  5
1F8
330
1F
100
AcDbEntity
  8
0
  6
Continuous
 62
     7
370
    25
100
AcDbCircle
 10
101.8650377044
 20
106.1794278768
 30
0.0
 40
0.2500000000000034
100
AcDbArc
 50
17.7189318734
 51
90.0
  0
ARC
  5
1F9
330
1F
100
AcDbEntity
  8
0
  6
Continuous
 62
     7
370
    25
100
AcDbCircle
 10
112.8194888545
 20
109.6794278768
 30
0.0
 40
0.25
100
AcDbArc
 50
197.7189318734
 51
270.0
  0
SPLINE
  5
1FA
330
1F
100
AcDbEntity
  8
0
  6
Continuous
 62
     7
370
    25
100
AcDbSpline
210
0.0
220
0.0
230
1.0
 70
     8
 71
     3
 72
    15
 73
    11
 74
     0
 42
0.00000001
 43
0.00000001
 40
0.0
 40
0.0
 40
0.0
 40
0.0
 40
0.0089557228015919
 40
0.0999003359608147
 40
0.1531632460581688
 40
0.3125636920784845
 40
0.5249666935695023
 40
0.6689893599352456
 40
0.9919152533810159
 40
1.0
 40
1.0
 40
1.0
 40
1.0
 10
112.8194888544973
 20
109.4294278768389
 30
0.0
 10
112.8194730989187
 20
109.4294170924758
 30
0.0
 10
112.8192973467622
 20
109.4292967938103
 30
0.0
 10
112.8138683307427
 20
109.4255783428922
 30
0.0
 10
112.7923328470354
 20
109.4108673018259
 30
0.0
 10
112.7446274187705
 20
109.3784184403673
 30
0.0
 10
112.6722364737786
 20
109.3298344000239
 30
0.0
 10
112.5703173617608
 20
109.2624639277557
 30
0.0
 10
112.4949622703064
 20
109.2136503630209
 30
0.0
 10
112.4425626245826
 20
109.1802438128272
 30
0.0
 10
112.4412827930385
 20
109.1794278768389
 30
0.0
  0
ARC
  5
1FB
330
1F
100
AcDbEntity
  8
0
  6
Continuous
 62
     7
370
    25
100
AcDbCircle
 10
101.8650377044
 20
109.6794278768
 30
0.0
 40
0.25
100
AcDbArc
 50
270.0
 51
342.2810681266
  0
SPLINE
  5
1FC
330
1F
100
AcDbEntity
  8
0
  6
Continuous
 62
     7
370
    25
100
AcDbSpline
210
0.0
220
0.0
230
1.0
 70
     8
 71
     3
 72
    15
 73
    11
 74
     0
 42
0.00000001
 43
0.00000001
 40
0.0
 40
0.0
 40
0.0
 40
0.0
 40
0.0080847466189819
 40
0.3310106400647582
 40
0.4750333064304994
 40
0.6874363079215138
 40
0.8468367539418308
 40
0.9000996640391851
 40
0.9910442771984082
 40
1.0
 40
1.0
 40
1.0
 40
1.0
 10
102.2432437658529
 20
109.1794278768389
 30
0.0
 10
102.2419639343088
 20
109.1802438128272
 30
0.0
 10
102.189564288585
 20
109.2136503630208
 30
0.0
 10
102.1142091971305
 20
109.2624639277557
 30
0.0
 10
102.0122900851128
 20
109.3298344000239
 30
0.0
 10
101.9398991401209
 20
109.3784184403673
 30
0.0
 10
101.892193711856
 20
109.4108673018259
 30
0.0
 10
101.8706582281487
 20
109.4255783428922
 30
0.0
 10
101.8652292121292
 20
109.4292967938103
 30
0.0
 10
101.8650534599726
 20
109.4294170924758
 30
0.0
 10
101.865037704394
 20
109.4294278768389
 30
0.0
  0
LINE
  5
1FD
330
1F
100
AcDbEntity
  8
0
  6
Continuous
 62
     7
370
    25
100
AcDbLine
 10
102.3422632794
 20
107.3294278768
 30
0.0
 11
112.3422632794
 21
107.3294278768
 31
0.0
  0
LINE
  5
1FE
330
1F
100
AcDbEntity
  8
0
  6
Continuous
 62
     7
370
    25
100
AcDbLine
 10
112.3422632794
 20
108.5294278768
 30
0.0
 11
102.3422632794
 21
108.5294278768
 31
0.0
  0
LINE
  5
1FF
330
1F
100
AcDbEntity
  8
0
  6
Continuous
 62
     7
370
    25
100
AcDbLine
 10
112.3422632794
 20
107.3294278768
 30
0.0
 11
112.3422632794
 21
108.5294278768
 31
0.0
  0
LINE
  5
200
330
1F
100
AcDbEntity
  8
0
  6
Continuous
 62
     7
370
    25
100
AcDbLine
 10
102.3422632794
 20
108.5294278768
 30
0.0
 11
102.3422632794
 21
107.3294278768
 31
0.0
  0
LINE
  5
201
330
1F
100
AcDbEntity
  8
0
  6
Continuous
 62
     7
370
    25
100
AcDbLine
 10
113.0922632794
 20
109.1794278768
 30
0.0
 11
112.441282793
 21
109.1794278768
 31
0.0
  0
LINE
  5
202
330
1F
100
AcDbEntity
  8
0
  6
Continuous
 62
     7
370
    25
100
AcDbLine
 10
113.0922632794
 20
106.6794278768
 30
0.0
 11
113.0922632794
 21
109.1794278768
 31
0.0
  0
LINE
  5
203
330
1F
100
AcDbEntity
  8
0
  6
Continuous
 62
     7
370
    25
100
AcDbLine
 10
112.441282793
 20
106.6794278768
 30
0.0
 11
113.0922632794
 21
106.6794278768
 31
0.0
  0
LINE
  5
204
330
1F
100
AcDbEntity
  8
0
  6
Continuous
 62
     7
370
    25
100
AcDbLine
 10
101.5922632794
 20
106.6794278768
 30
0.0
 11
102.2432437659
 21
106.6794278768
 31
0.0
  0
LINE
  5
205
330
1F
100
AcDbEntity
  8
0
  6
Continuous
 62
     7
370
    25
100
AcDbLine
 10
101.5922632794
 20
109.1794278768
 30
0.0
 11
101.5922632794
 21
106.6794278768
 31
0.0
  0
LINE
  5
206
330
1F
100
AcDbEntity
  8
0
  6
Continuous
 62
     7
370
    25
100
AcDbLine
 10
102.2432437659
 20
109.1794278768
 30
0.0
 11
101.5922632794
 21
109.1794278768
 31
0.0
  0
LINE
  5
207
330
1F
100
AcDbEntity
  8
0
  6
Continuous
 62
     7
370
    25
100
AcDbLine
 10
101.5922632794
 20
109.4294278768
 30
0.0
 11
101.5922632794
 21
109.1794278768
 31
0.0
  0
LINE
  5
208
330
1F
100
AcDbEntity
  8
0
  6
Continuous
 62
     7
370
    25
100
AcDbLine
 10
101.5922632794
 20
109.4294278768
 30
0.0
 11
101.8650377044
 21
109.4294278768
 31
0.0
  0
LINE
  5
209
330
1F
100
AcDbEntity
  8
0
  6
Continuous
 62
     7
370
    25
100
AcDbLine
 10
101.5922632794
 20
109.1794278768
 30
0.0
 11
101.3422632794
 21
109.1794278768
 31
0.0
  0
ARC
  5
20A
330
1F
100
AcDbEntity
  8
0
  6
Continuous
 62
     7
370
    25
100
AcDbCircle
 10
101.5922632794
 20
109.1794278768
 30
0.0
 40
0.25
100
AcDbArc
 50
90.0
 51
180.0
  0
ARC
  5
20B
330
1F
100
AcDbEntity
  8
0
  6
Continuous
 62
     7
370
    25
100
AcDbCircle
 10
113.0922632794
 20
109.1794278768
 30
0.0
 40
0.25
100
AcDbArc
 50
0.0
 51
90.0
  0
LINE
  5
20C
330
1F
100
AcDbEntity
  8
0
  6
Continuous
 62
     7
370
    25
100
AcDbLine
 10
113.3422632794
 20
109.1794278768
 30
0.0
 11
113.0922632794
 21
109.1794278768
 31
0.0
  0
LINE
  5
20D
330
1F
100
AcDbEntity
  8
0
  6
Continuous
 62
     7
370
    25
100
AcDbLine
 10
113.0922632794
 20
109.1794278768
 30
0.0
 11
113.0922632794
 21
109.4294278768
 31
0.0
  0
LINE
  5
20E
330
1F
100
AcDbEntity
  8
0
  6
Continuous
 62
     7
370
    25
100
AcDbLine
 10
112.8194888545
 20
109.4294278768
 30
0.0
 11
113.0922632794
 21
109.4294278768
 31
0.0
  0
LINE
  5
20F
330
1F
100
AcDbEntity
  8
0
  6
Continuous
 62
     7
370
    25
100
AcDbLine
 10
113.3422632794
 20
109.1794278768
 30
0.0
 11
113.3422632794
 21
106.6794278768
 31
0.0
  0
LINE
  5
210
330
1F
100
AcDbEntity
  8
0
  6
Continuous
 62
     7
370
    25
100
AcDbLine
 10
113.0922632794
 20
106.6794278768
 30
0.0
 11
113.3422632794
 21
106.6794278768
 31
0.0
  0
LINE
  5
211
330
1F
100
AcDbEntity
  8
0
  6
Continuous
 62
     7
370
    25
100
AcDbLine
 10
101.3422632794
 20
106.6794278768
 30
0.0
 11
101.5922632794
 21
106.6794278768
 31
0.0
  0
LINE
  5
212
330
1F
100
AcDbEntity
  8
0
  6
Continuous
 62
     7
370
    25
100
AcDbLine
 10
101.3422632794
 20
106.6794278768
 30
0.0
 11
101.3422632794
 21
109.1794278768
 31
0.0
  0
LINE
  5
213
330
1F
100
AcDbEntity
  8
0
  6
Continuous
 62
     7
370
    25
100
AcDbLine
 10
113.0922632794
 20
106.4294278768
 30
0.0
 11
113.0922632794
 21
106.6794278768
 31
0.0
  0
LINE
  5
214
330
1F
100
AcDbEntity
  8
0
  6
Continuous
 62
     7
370
    25
100
AcDbLine
 10
113.0922632794
 20
106.4294278768
 30
0.0
 11
112.8194888545
 21
106.4294278768
 31
0.0
  0
ARC
  5
215
330
1F
100
AcDbEntity
  8
0
  6
Continuous
 62
     7
370
    25
100
AcDbCircle
 10
113.0922632794
 20
106.6794278768
 30
0.0
 40
0.25
100
AcDbArc
 50
270.0
 51
0.0
  0
LINE
  5
216
330
1F
100
AcDbEntity
  8
0
  6
Continuous
 62
     7
370
    25
100
AcDbLine
 10
101.8650377044
 20
106.4294278768
 30
0.0
 11
101.5922632794
 21
106.4294278768
 31
0.0
  0
LINE
  5
217
330
1F
100
AcDbEntity
  8
0
  6
Continuous
 62
     7
370
    25
100
AcDbLine
 10
101.5922632794
 20
106.6794278768
 30
0.0
 11
101.5922632794
 21
106.4294278768
 31
0.0
  0
ARC
  5
218
330
1F
100
AcDbEntity
  8
0
  6
Continuous
 62
     7
370
    25
100
AcDbCircle
 10
101.5922632794
 20
106.6794278768
 30
0.0
 40
0.25
100
AcDbArc
 50
180.0
 51
270.0
  0
LINE
  5
219
330
1F
100
AcDbEntity
  8
0
  6
Continuous
 62
     7
370
    25
100
AcDbLine
 10
87.3422632794
 20
104.6577286128
 30
0.0
 11
87.3422632794
 21
111.2011271409
 31
0.0
  0
LINE
  5
21A
330
1F
100
AcDbEntity
  8
0
  6
Continuous
 62
     7
370
    25
100
AcDbLine
 10
85.1668264179
 20
104.4294278768
 30
0.0
 11
87.3422632794
 21
104.6577286128
 31
0.0
  0
LINE
  5
21B
330
1F
100
AcDbEntity
  8
0
  6
Continuous
 62
     7
370
    25
100
AcDbLine
 10
67.3422632794
 20
104.4294278768
 30
0.0
 11
85.1668264179
 21
104.4294278768
 31
0.0
  0
LINE
  5
21C
330
1F
100
AcDbEntity
  8
0
  6
Continuous
 62
     7
370
    25
100
AcDbLine
 10
85.1668264179
 20
111.4294278768
 30
0.0
 11
67.3422632794
 21
111.4294278768
 31
0.0
  0
LINE
  5
21D
330
1F
100
AcDbEntity
  8
0
  6
Continuous
 62
     7
370
    25
100
AcDbLine
 10
67.3422632794
 20
111.4294278768
 30
0.0
 11
67.3422632794
 21
104.4294278768
 31
0.0
  0
LINE
  5
21E
330
1F
100
AcDbEntity
  8
0
  6
Continuous
 62
     7
370
    25
100
AcDbLine
 10
87.3422632794
 20
111.2011271409
 30
0.0
 11
85.1668264179
 21
111.4294278768
 31
0.0
  0
LINE
  5
21F
330
1F
100
AcDbEntity
  8
0
  6
Continuous
 62
     7
370
    25
100
AcDbLine
 10
102.1184611051
 20
109.6504423576
 30
0.0
 11
101.9900520664
 21
109.4663007242
 31
0.0
  0
LINE
  5
220
330
1F
100
AcDbEntity
  8
0
  6
Continuous
 62
     7
370
    25
100
AcDbLine
 10
101.9996194072
 20
106.3842102095
 30
0.0
 11
102.1184611051
 21
106.208413396
 31
0.0
  0
LINE
  5
221
330
1F
100
AcDbEntity
  8
0
  6
Continuous
 62
     7
370
    25
100
AcDbLine
 10
93.9256936258
 20
110.5102305124
 30
0.0
 11
93.9256936258
 21
105.3486252413
 31
0.0
  0
LINE
  5
222
330
1F
100
AcDbEntity
  8
0
  6
Continuous
 62
     7
370
    25
100
AcDbLine
 10
102.1184611051
 20
106.208413396
 30
0.0
 11
93.9256936258
 21
105.3486252413
 31
0.0
  0
LINE
  5
223
330
1F
100
AcDbEntity
  8
0
  6
Continuous
 62
     7
370
    25
100
AcDbLine
 10
93.9256936258
 20
110.5102305124
 30
0.0
 11
102.1184611051
 21
109.6504423577
 31
0.0
  0
LINE
  5
224
330
1F
100
AcDbEntity
  8
0
  6
Continuous
 62
     7
370
    25
100
AcDbLine
 10
93.9256936258
 20
105.3486252413
 30
0.0
 11
87.3422632794
 21
104.6577286128
 31
0.0
  0
LINE
  5
225
330
1F
100
AcDbEntity
  8
0
  6
Continuous
 62
     7
370
    25
100
AcDbLine
 10
87.3422632794
 20
111.2011271409
 30
0.0
 11
93.9256936258
 21
110.5102305124
 31
0.0
  0
ARC
  5
226
330
1F
100
AcDbEntity
  8
0
  6
Continuous
 62
     7
370
    25
100
AcDbCircle
 10
107.3422632794
 20
107.9294278768
 30
0.0
 40
7.450000000000653
100
AcDbArc
 50
233.0863788866
 51
126.9136211134
  0
ARC
  5
227
330
1F
100
AcDbEntity
  8
0
  6
Continuous
 62
     7
370
    25
100
AcDbCircle
 10
107.3422632794
 20
107.9294278768
 30
0.0
 40
7.207531252870791
100
AcDbArc
 50
195.3041237151
 51
238.9797515565
  0
ARC
  5
228
330
1F
100
AcDbEntity
  8
0
  6
Continuous
 62
     7
370
    25
100
AcDbCircle
 10
107.3422632794
 20
107.9294278768
 30
0.0
 40
7.207531252872426
100
AcDbArc
 50
121.0202484435
 51
164.6958762849
  0
ARC
  5
229
330
1F
100
AcDbEntity
  8
0
  6
Continuous
 62
     7
370
    25
100
AcDbCircle
 10
85.1668264179
 20
176.4294278768
 30
0.0
 40
65.0
100
AcDbArc
 50
270.0
 51
286.5000949923
  0
ARC
  5
22A
330
1F
100
AcDbEntity
  8
0
  6
Continuous
 62
     7
370
    25
100
AcDbCircle
 10
85.1668264179
 20
39.4294278768
 30
0.0
 40
65.0
100
AcDbArc
 50
73.4999050077
 51
90.0
  0
LINE
  5
22B
330
1F
100
AcDbEntity
  8
0
  6
Continuous
 62
     7
370
    25
100
AcDbLine
 10
93.0422632794
 20
115.9294278768
 30
0.0
 11
93.0422632794
 21
111.9082879749
 31
0.0
  0
LINE
  5
22C
330
1F
100
AcDbEntity
  8
0
  6
Continuous
 62
     7
370
    25
100
AcDbLine
 10
93.0422632794
 20
103.9505677787
 30
0.0
 11
93.0422632794
 21
99.9294278768
 31
0.0
  0
LINE
  5
22D
330
1F
100
AcDbEntity
  8
0
  6
Continuous
 62
     7
370
    25
100
AcDbLine
 10
92.8422632794
 20
100.1294278768
 30
0.0
 11
92.8422632794
 21
103.9746652611
 31
0.0
  0
LINE
  5
22E
330
1F
100
AcDbEntity
  8
0
  6
Continuous
 62
     7
370
    25
100
AcDbLine
 10
92.8422632794
 20
111.8841904926
 30
0.0
 11
92.8422632794
 21
115.7294278768
 31
0.0
  0
SPLINE
  5
22F
330
1F
100
AcDbEntity
  8
0
  6
Continuous
 62
     7
370
    25
100
AcDbSpline
210
0.0
220
0.0
230
1.0
 70
    24
 71
     3
 72
    10
 73
     6
 74
     0
 42
0.00000001
 43
0.00000001
 40
0.0
 40
0.0
 40
0.0
 40
0.0
 40
0.3696338331379532
 40
0.7423133484485681
 40
1.0
 40
1.0
 40
1.0
 40
1.0
 10
118.5202043068881
 20
99.42942787683893
 30
0.0
 10
118.6614068612677
 20
99.42942787683893
 30
0.0
 10
118.9449754406405
 20
99.42942787683893
 30
0.0
 10
119.164108878599
 20
99.42942787683893
 30
0.0
 10
119.1864997982318
 20
99.42942787683893
 30
0.0
 10
119.1956529562035
 20
99.42942787683893
 30
0.0
  0
SPLINE
  5
230
330
1F
100
AcDbEntity
  8
0
  6
Continuous
 62
     7
370
    25
100
AcDbSpline
210
0.0
220
0.0
230
1.0
 70
     8
 71
     3
 72
    10
 73
     6
 74
     0
 42
0.00000001
 43
0.00000001
 40
0.0
 40
0.0
 40
0.0
 40
0.0
 40
0.5
 40
0.5
 40
1.0
 40
1.0
 40
1.0
 40
1.0
 10
118.5202043068881
 20
99.67942787683893
 30
0.0
 10
118.4965289124637
 20
99.6050474994616
 30
0.0
 10
118.4834378025791
 20
99.54074686067584
 30
0.0
 10
118.4833514812908
 20
99.4525311758929
 30
0.0
 10
118.4965204152346
 20
99.42942787683893
 30
0.0
 10
118.5202043068881
 20
99.42942787683893
 30
0.0
  0
SPLINE
  5
231
330
1F
100
AcDbEntity
  8
0
  6
Continuous
 62
     7
370
    25
100
AcDbSpline
210
0.0
220
0.0
230
1.0
 70
     8
 71
     3
 72
    16
 73
    12
 74
     0
 42
0.00000001
 43
0.00000001
 40
0.0
 40
0.0
 40
0.0
 40
0.0
 40
0.2500000000000001
 40
0.2500000000000001
 40
0.5000000000000001
 40
0.5000000000000001
 40
0.6250000000000001
 40
0.6250000000000001
 40
0.7500000000000002
 40
0.7500000000000002
 40
1.0
 40
1.0
 40
1.0
 40
1.0
 10
118.5202043068881
 20
107.6794278768389
 30
0.0
 10
118.7282197549938
 20
107.0259110967981
 30
0.0
 10
118.8984260599668
 20
106.3676906877082
 30
0.0
 10
119.1333620915344
 20
105.0381281043424
 30
0.0
 10
119.1974342231981
 20
104.3667041222718
 30
0.0
 10
119.1981671721191
 20
103.3477030352651
 30
0.0
 10
119.1825076920361
 20
103.0063622529489
 30
0.0
 10
119.1212325653991
 20
102.3307637499785
 30
0.0
 10
119.0756762929
 20
101.9951046000138
 30
0.0
 10
118.8991902601437
 20
100.9938389635142
 30
0.0
 10
118.728533806658
 20
100.333931304911
 30
0.0
 10
118.5202043068881
 20
99.67942787683893
 30
0.0
  0
SPLINE
  5
232
330
1F
100
AcDbEntity
  8
0
  6
Continuous
 62
     7
370
    25
100
AcDbSpline
210
0.0
220
0.0
230
1.0
 70
     8
 71
     3
 72
    10
 73
     6
 74
     0
 42
0.00000001
 43
0.00000001
 40
0.0
 40
0.0
 40
0.0
 40
0.0
 40
0.5
 40
0.5
 40
1.0
 40
1.0
 40
1.0
 40
1.0
 10
118.5202043068881
 20
108.1794278768389
 30
0.0
 10
118.4965289124637
 20
108.1050474994616
 30
0.0
 10
118.4834378025791
 20
108.017954411346
 30
0.0
 10
118.4833514812908
 20
107.84179602247
 30
0.0
 10
118.4965204152346
 20
107.7538349497422
 30
0.0
 10
118.5202043068881
 20
107.6794278768389
 30
0.0
  0
SPLINE
  5
233
330
1F
100
AcDbEntity
  8
0
  6
Continuous
 62
     7
370
    25
100
AcDbSpline
210
0.0
220
0.0
230
1.0
 70
     8
 71
     3
 72
    16
 73
    12
 74
     0
 42
0.00000001
 43
0.00000001
 40
0.0
 40
0.0
 40
0.0
 40
0.0
 40
0.2499999999999997
 40
0.2499999999999997
 40
0.4999999999999993
 40
0.4999999999999993
 40
0.6249999999999993
 40
0.6249999999999993
 40
0.7499999999999996
 40
0.7499999999999996
 40
1.0
 40
1.0
 40
1.0
 40
1.0
 10
118.5202043068881
 20
116.1794278768389
 30
0.0
 10
118.7282197549938
 20
115.5259110967981
 30
0.0
 10
118.8984260599668
 20
114.8676906877082
 30
0.0
 10
119.1333620915344
 20
113.5381281043424
 30
0.0
 10
119.1974342231981
 20
112.8667041222718
 30
0.0
 10
119.1981671721191
 20
111.8477030352651
 30
0.0
 10
119.1825076920361
 20
111.5063622529489
 30
0.0
 10
119.1212325653991
 20
110.8307637499785
 30
0.0
 10
119.0756762929
 20
110.4951046000138
 30
0.0
 10
118.8991902601437
 20
109.4938389635141
 30
0.0
 10
118.728533806658
 20
108.833931304911
 30
0.0
 10
118.5202043068881
 20
108.1794278768389
 30
0.0
  0
SPLINE
  5
234
330
1F
100
AcDbEntity
  8
0
  6
Continuous
 62
     7
370
    25
100
AcDbSpline
210
0.0
220
0.0
230
1.0
 70
     8
 71
     3
 72
    10
 73
     6
 74
     0
 42
0.00000001
 43
0.00000001
 40
0.0
 40
0.0
 40
0.0
 40
0.0
 40
0.5
 40
0.5
 40
1.0
 40
1.0
 40
1.0
 40
1.0
 10
118.5202043068881
 20
116.4294278768389
 30
0.0
 10
118.4965289124637
 20
116.4294278768389
 30
0.0
 10
118.4834378025791
 20
116.4066354275091
 30
0.0
 10
118.4833514812908
 20
116.3186927234161
 30
0.0
 10
118.4965204152346
 20
116.2538349497422
 30
0.0
 10
118.5202043068881
 20
116.1794278768389
 30
0.0
  0
SPLINE
  5
235
330
1F
100
AcDbEntity
  8
0
  6
Continuous
 62
     7
370
    25
100
AcDbSpline
210
0.0
220
0.0
230
1.0
 70
    24
 71
     3
 72
    10
 73
     6
 74
     0
 42
0.00000001
 43
0.00000001
 40
0.0
 40
0.0
 40
0.0
 40
0.0
 40
0.2576835635320084
 40
0.6270639744534549
 40
1.0
 40
1.0
 40
1.0
 40
1.0
 10
119.1943115618685
 20
116.4294278768389
 30
0.0
 10
119.1857087286634
 20
116.4294278768389
 30
0.0
 10
119.1647740337718
 20
116.4294278768389
 30
0.0
 10
118.9458097605766
 20
116.4294278768389
 30
0.0
 10
118.6625250923206
 20
116.4294278768389
 30
0.0
 10
118.5202043068881
 20
116.4294278768389
 30
0.0
  0
LINE
  5
236
330
1F
100
AcDbEntity
  8
0
  6
Continuous
 62
     7
370
    25
100
AcDbLine
 10
119.3422632794
 20
116.1794278768
 30
0.0
 11
119.3422632794
 21
99.6794278768
 31
0.0
  0
SPLINE
  5
237
330
1F
100
AcDbEntity
  8
0
  6
Continuous
 62
     7
370
    25
100
AcDbSpline
210
0.0
220
0.0
230
1.0
 70
     8
 71
     3
 72
    12
 73
     8
 74
     0
 42
0.00000001
 43
0.00000001
 40
0.0
 40
0.0
 40
0.0
 40
0.0
 40
0.0358753754825186
 40
0.2749295627712412
 40
0.5140134404487067
 40
0.7569868290178569
 40
1.0
 40
1.0
 40
1.0
 40
1.0
 10
113.3444874958223
 20
112.3420242646983
 30
0.0
 10
113.3449927094184
 20
112.3885663898365
 30
0.0
 10
113.3488643944172
 20
112.7452401791025
 30
0.0
 10
113.3993961311553
 20
113.4115241534966
 30
0.0
 10
113.5379195594072
 20
114.3397597947926
 30
0.0
 10
113.7435576062727
 20
115.2642615028686
 30
0.0
 10
113.9278372969061
 20
115.8743557715968
 30
0.0
 10
114.0199846847059
 20
116.1794278768389
 30
0.0
  0
LINE
  5
238
330
1F
100
AcDbEntity
  8
0
  6
Continuous
 62
     7
370
    25
100
AcDbLine
 10
118.5202043069
 20
116.1794278768
 30
0.0
 11
114.0199846847
 21
116.1794278768
 31
0.0
  0
SPLINE
  5
239
330
1F
100
AcDbEntity
  8
0
  6
Continuous
 62
     7
370
    25
100
AcDbSpline
210
0.0
220
0.0
230
1.0
 70
     8
 71
     3
 72
    12
 73
     8
 74
     0
 42
0.00000001
 43
0.00000001
 40
0.0
 40
0.0
 40
0.0
 40
0.0
 40
0.0895824427642397
 40
0.3155493914492729
 40
0.5415423325318708
 40
0.770755343290256
 40
1.0
 40
1.0
 40
1.0
 40
1.0
 10
95.84559391625241
 20
112.3273419972907
 30
0.0
 10
95.84738609196172
 20
112.4440029584947
 30
0.0
 10
95.85369893560598
 20
112.8549349913561
 30
0.0
 10
95.9178258757441
 20
113.5588214488512
 30
0.0
 10
96.05801064248872
 20
114.4378764857165
 30
0.0
 10
96.25753244579253
 20
115.3130128455207
 30
0.0
 10
96.4324965793191
 20
115.8906095764789
 30
0.0
 10
96.51998468470588
 20
116.1794278768389
 30
0.0
  0
LINE
  5
23A
330
1F
100
AcDbEntity
  8
0
  6
Continuous
 62
     7
370
    25
100
AcDbLine
 10
100.6645418742
 20
116.1794278768
 30
0.0
 11
96.5199846847
 21
116.1794278768
 31
0.0
  0
SPLINE
  5
23B
330
1F
100
AcDbEntity
  8
0
  6
Continuous
 62
     7
370
    25
100
AcDbSpline
210
0.0
220
0.0
230
1.0
 70
     8
 71
     3
 72
    10
 73
     6
 74
     0
 42
0.00000001
 43
0.00000001
 40
0.0
 40
0.0
 40
0.0
 40
0.0
 40
0.3648615054653944
 40
0.7296508295930091
 40
1.0
 40
1.0
 40
1.0
 40
1.0
 10
100.6645418741855
 20
116.179427876839
 30
0.0
 10
100.7616120883468
 20
115.8551207758632
 30
0.0
 10
100.9557333130599
 20
115.2065707322841
 30
0.0
 10
101.1580964985822
 20
114.3038141441252
 30
0.0
 10
101.2279675995303
 20
113.7235960464295
 30
0.0
 10
101.2577085053947
 20
113.4766239565358
 30
0.0
  0
SPLINE
  5
23C
330
1F
100
AcDbEntity
  8
0
  6
Continuous
 62
     7
370
    25
100
AcDbSpline
210
0.0
220
0.0
230
1.0
 70
     8
 71
     3
 72
    10
 73
     6
 74
     0
 42
0.00000001
 43
0.00000001
 40
0.0
 40
0.0
 40
0.0
 40
0.0
 40
0.3125896676666471
 40
0.6562666984443924
 40
1.0
 40
1.0
 40
1.0
 40
1.0
 10
101.2635266785375
 20
102.3786217912861
 30
0.0
 10
101.2252851922736
 20
102.0937504319903
 30
0.0
 10
101.1449990647077
 20
101.495676964489
 30
0.0
 10
100.9400537362039
 20
100.594686493627
 30
0.0
 10
100.7563841731988
 20
99.98453073136487
 30
0.0
 10
100.6645418741855
 20
99.67942787683893
 30
0.0
  0
LINE
  5
23D
330
1F
100
AcDbEntity
  8
0
  6
Continuous
 62
     7
370
    25
100
AcDbLine
 10
96.5199846847
 20
99.6794278768
 30
0.0
 11
100.6645418742
 21
99.6794278768
 31
0.0
  0
SPLINE
  5
23E
330
1F
100
AcDbEntity
  8
0
  6
Continuous
 62
     7
370
    25
100
AcDbSpline
210
0.0
220
0.0
230
1.0
 70
     8
 71
     3
 72
    11
 73
     7
 74
     0
 42
0.00000001
 43
0.00000001
 40
0.0
 40
0.0
 40
0.0
 40
0.0
 40
0.2569164213653858
 40
0.5137820164015644
 40
0.7751248843835109
 40
1.0
 40
1.0
 40
1.0
 40
1.0
 10
96.51998468470588
 20
99.67942787683893
 30
0.0
 10
96.4222234608397
 20
100.0036818068548
 30
0.0
 10
96.22672035342092
 20
100.6521255190329
 30
0.0
 10
96.01438199803677
 20
101.6466806878912
 30
0.0
 10
95.87536894175574
 20
102.6095747781058
 30
0.0
 10
95.85724408833178
 20
103.2437293251835
 30
0.0
 10
95.84886136978426
 20
103.5370248878803
 30
0.0
  0
LINE
  5
23F
330
1F
100
AcDbEntity
  8
0
  6
Continuous
 62
     7
370
    25
100
AcDbLine
 10
114.0199846847
 20
99.6794278768
 30
0.0
 11
118.5202043069
 21
99.6794278768
 31
0.0
  0
SPLINE
  5
240
330
1F
100
AcDbEntity
  8
0
  6
Continuous
 62
     7
370
    25
100
AcDbSpline
210
0.0
220
0.0
230
1.0
 70
     8
 71
     3
 72
    11
 73
     7
 74
     0
 42
0.00000001
 43
0.00000001
 40
0.0
 40
0.0
 40
0.0
 40
0.0
 40
0.2551155318100055
 40
0.5101805935646649
 40
0.7696915442296082
 40
1.0
 40
1.0
 40
1.0
 40
1.0
 10
114.0199846847059
 20
99.6794278768389
 30
0.0
 10
113.9222304791136
 20
100.0036822028029
 30
0.0
 10
113.7267414068541
 20
100.6521267067988
 30
0.0
 10
113.5142971922774
 20
101.6466759034271
 30
0.0
 10
113.3743571411531
 20
102.6187394592891
 30
0.0
 10
113.356145711981
 20
103.2621108857166
 30
0.0
 10
113.3475828700949
 20
103.5646180501134
 30
0.0
  0
LINE
  5
241
330
1F
100
AcDbEntity
  8
0
  6
Continuous
 62
     7
370
    25
100
AcDbLine
 10
113.3422632794
 20
103.5132643835
 30
0.0
 11
113.3422632794
 21
100.4294278768
 31
0.0
  0
LINE
  5
242
330
1F
100
AcDbEntity
  8
0
  6
Continuous
 62
     7
370
    25
100
AcDbLine
 10
113.3422632794
 20
100.4294278768
 30
0.0
 11
101.3422632794
 21
100.4294278768
 31
0.0
  0
LINE
  5
243
330
1F
100
AcDbEntity
  8
0
  6
Continuous
 62
     7
370
    25
100
AcDbLine
 10
101.3422632794
 20
102.3846122729
 30
0.0
 11
101.3422632794
 21
100.4294278768
 31
0.0
  0
LINE
  5
244
330
1F
100
AcDbEntity
  8
0
  6
Continuous
 62
     7
370
    25
100
AcDbLine
 10
101.3422632794
 20
115.4294278768
 30
0.0
 11
101.3422632794
 21
113.4742434808
 31
0.0
  0
LINE
  5
245
330
1F
100
AcDbEntity
  8
0
  6
Continuous
 62
     7
370
    25
100
AcDbLine
 10
101.3422632794
 20
115.4294278768
 30
0.0
 11
113.3422632794
 21
115.4294278768
 31
0.0
  0
LINE
  5
246
330
1F
100
AcDbEntity
  8
0
  6
Continuous
 62
     7
370
    25
100
AcDbLine
 10
113.3422632794
 20
115.4294278768
 30
0.0
 11
113.3422632794
 21
112.3455913702
 31
0.0
  0
SPLINE
  5
247
330
1F
100
AcDbEntity
  8
0
  6
Continuous
 62
     7
370
    25
100
AcDbSpline
210
0.0
220
0.0
230
1.0
 70
     8
 71
     3
 72
     8
 73
     4
 74
     0
 42
0.00000001
 43
0.00000001
 40
0.0
 40
0.0
 40
0.0
 40
0.0
 40
1.0
 40
1.0
 40
1.0
 40
1.0
 10
100.8260272024665
 20
116.429427876839
 30
0.0
 10
100.9997302786863
 20
116.0969164547034
 30
0.0
 10
101.172032497749
 20
115.7635893548046
 30
0.0
 10
101.3422632794457
 20
115.4294278768389
 30
0.0
  0
SPLINE
  5
248
330
1F
100
AcDbEntity
  8
0
  6
Continuous
 62
     7
370
    25
100
AcDbSpline
210
0.0
220
0.0
230
1.0
 70
     8
 71
     3
 72
    10
 73
     6
 74
     0
 42
0.00000001
 43
0.00000001
 40
0.0
 40
0.0
 40
0.0
 40
0.0
 40
0.5
 40
0.5
 40
1.0
 40
1.0
 40
1.0
 40
1.0
 10
100.6645418741911
 20
116.4294278768389
 30
0.0
 10
100.6408664797668
 20
116.4294278768389
 30
0.0
 10
100.6277753698765
 20
116.4066354275095
 30
0.0
 10
100.6276890485881
 20
116.3186927234164
 30
0.0
 10
100.640857982532
 20
116.2538349497424
 30
0.0
 10
100.6645418741855
 20
116.179427876839
 30
0.0
  0
SPLINE
  5
249
330
1F
100
AcDbEntity
  8
0
  6
Continuous
 62
     7
370
    25
100
AcDbSpline
210
0.0
220
0.0
230
1.0
 70
    24
 71
     3
 72
     8
 73
     4
 74
     0
 42
0.00000001
 43
0.00000001
 40
0.0
 40
0.0
 40
0.0
 40
0.0
 40
1.0
 40
1.0
 40
1.0
 40
1.0
 10
100.8260272024665
 20
116.4294278768389
 30
0.0
 10
100.7751284855441
 20
116.4294278768389
 30
0.0
 10
100.7211943492935
 20
116.4294278768389
 30
0.0
 10
100.6645418741859
 20
116.4294278768389
 30
0.0
  0
SPLINE
  5
24A
330
1F
100
AcDbEntity
  8
0
  6
Continuous
 62
     7
370
    25
100
AcDbSpline
210
0.0
220
0.0
230
1.0
 70
     8
 71
     3
 72
     8
 73
     4
 74
     0
 42
0.00000001
 43
0.00000001
 40
0.0
 40
0.0
 40
0.0
 40
0.0
 40
1.0
 40
1.0
 40
1.0
 40
1.0
 10
113.3422632794457
 20
115.4294278768389
 30
0.0
 10
113.5125408867894
 20
115.7636812731243
 30
0.0
 10
113.6848126354151
 20
116.0969477626932
 30
0.0
 10
113.8584993564247
 20
116.4294278768387
 30
0.0
  0
SPLINE
  5
24B
330
1F
100
AcDbEntity
  8
0
  6
Continuous
 62
     7
370
    25
100
AcDbSpline
210
0.0
220
0.0
230
1.0
 70
    24
 71
     3
 72
     8
 73
     4
 74
     0
 42
0.00000001
 43
0.00000001
 40
0.0
 40
0.0
 40
0.0
 40
0.0
 40
1.0
 40
1.0
 40
1.0
 40
1.0
 10
113.8584993564243
 20
116.4294278768389
 30
0.0
 10
113.9093955896796
 20
116.4294278768389
 30
0.0
 10
113.9633295446434
 20
116.4294278768389
 30
0.0
 10
114.0199846847059
 20
116.4294278768389
 30
0.0
  0
SPLINE
  5
24C
330
1F
100
AcDbEntity
  8
0
  6
Continuous
 62
     7
370
    25
100
AcDbSpline
210
0.0
220
0.0
230
1.0
 70
     8
 71
     3
 72
    10
 73
     6
 74
     0
 42
0.00000001
 43
0.00000001
 40
0.0
 40
0.0
 40
0.0
 40
0.0
 40
0.5
 40
0.5
 40
1.0
 40
1.0
 40
1.0
 40
1.0
 10
114.0199846847059
 20
116.1794278768389
 30
0.0
 10
114.0436600791303
 20
116.2538082542163
 30
0.0
 10
114.0567511890149
 20
116.318108893002
 30
0.0
 10
114.0568375103032
 20
116.406324577785
 30
0.0
 10
114.0436685763594
 20
116.4294278768389
 30
0.0
 10
114.0199846847059
 20
116.4294278768389
 30
0.0
  0
SPLINE
  5
24D
330
1F
100
AcDbEntity
  8
0
  6
Continuous
 62
     7
370
    25
100
AcDbSpline
210
0.0
220
0.0
230
1.0
 70
     8
 71
     3
 72
    10
 73
     6
 74
     0
 42
0.00000001
 43
0.00000001
 40
0.0
 40
0.0
 40
0.0
 40
0.0
 40
0.5
 40
0.5
 40
1.0
 40
1.0
 40
1.0
 40
1.0
 10
96.51998468470588
 20
116.4294278768389
 30
0.0
 10
96.54365858526181
 20
116.4294278768389
 30
0.0
 10
96.55675114244097
 20
116.4066373051915
 30
0.0
 10
96.55683755642325
 20
116.3186913078927
 30
0.0
 10
96.54366716482463
 20
116.2538305151599
 30
0.0
 10
96.51998468470588
 20
116.1794278768389
 30
0.0
  0
SPLINE
  5
24E
330
1F
100
AcDbEntity
  8
0
  6
Continuous
 62
     7
370
    25
100
AcDbSpline
210
0.0
220
0.0
230
1.0
 70
    24
 71
     3
 72
    12
 73
     8
 74
     0
 42
0.00000001
 43
0.00000001
 40
0.0
 40
0.0
 40
0.0
 40
0.0
 40
0.2499999999999999
 40
0.2499999999999999
 40
0.4999999999999998
 40
0.4999999999999998
 40
1.0
 40
1.0
 40
1.0
 40
1.0
 10
95.84226327944569
 20
116.4294278768389
 30
0.0
 10
95.84226327944569
 20
116.4294278768389
 30
0.0
 10
95.85826208442676
 20
116.4294278768389
 30
0.0
 10
95.92003222274114
 20
116.4294278768389
 30
0.0
 10
95.96577434704274
 20
116.4294278768389
 30
0.0
 10
96.1424444943896
 20
116.4294278768389
 30
0.0
 10
96.31269955986988
 20
116.4294278768389
 30
0.0
 10
96.51998468470588
 20
116.4294278768389
 30
0.0
  0
LINE
  5
24F
330
1F
100
AcDbEntity
  8
0
  6
Continuous
 62
     7
370
    25
100
AcDbLine
 10
95.8422632794
 20
116.4294278768
 30
0.0
 11
95.8422632794
 21
112.3120741587
 31
0.0
  0
SPLINE
  5
250
330
1F
100
AcDbEntity
  8
0
  6
Continuous
 62
     7
370
    25
100
AcDbSpline
210
0.0
220
0.0
230
1.0
 70
     8
 71
     3
 72
     8
 73
     4
 74
     0
 42
0.00000001
 43
0.00000001
 40
0.0
 40
0.0
 40
0.0
 40
0.0
 40
1.0
 40
1.0
 40
1.0
 40
1.0
 10
113.8584993564249
 20
99.42942787683891
 30
0.0
 10
113.6847962802051
 20
99.76193929897444
 30
0.0
 10
113.5124940611424
 20
100.0952663988733
 30
0.0
 10
113.3422632794457
 20
100.4294278768389
 30
0.0
  0
SPLINE
  5
251
330
1F
100
AcDbEntity
  8
0
  6
Continuous
 62
     7
370
    25
100
AcDbSpline
210
0.0
220
0.0
230
1.0
 70
     8
 71
     3
 72
    10
 73
     6
 74
     0
 42
0.00000001
 43
0.00000001
 40
0.0
 40
0.0
 40
0.0
 40
0.0
 40
0.5
 40
0.5
 40
1.0
 40
1.0
 40
1.0
 40
1.0
 10
114.0199846847059
 20
99.42942787683893
 30
0.0
 10
114.0436600791303
 20
99.42942787683893
 30
0.0
 10
114.0567511890149
 20
99.45222032616873
 30
0.0
 10
114.0568375103032
 20
99.54016303026178
 30
0.0
 10
114.0436685763594
 20
99.60502080393563
 30
0.0
 10
114.0199846847059
 20
99.67942787683889
 30
0.0
  0
SPLINE
  5
252
330
1F
100
AcDbEntity
  8
0
  6
Continuous
 62
     7
370
    25
100
AcDbSpline
210
0.0
220
0.0
230
1.0
 70
    24
 71
     3
 72
     8
 73
     4
 74
     0
 42
0.00000001
 43
0.00000001
 40
0.0
 40
0.0
 40
0.0
 40
0.0
 40
1.0
 40
1.0
 40
1.0
 40
1.0
 10
113.8584993564249
 20
99.42942787683893
 30
0.0
 10
113.90939558968
 20
99.42942787683893
 30
0.0
 10
113.9633295446436
 20
99.42942787683893
 30
0.0
 10
114.0199846847059
 20
99.42942787683893
 30
0.0
  0
SPLINE
  5
253
330
1F
100
AcDbEntity
  8
0
  6
Continuous
 62
     7
370
    25
100
AcDbSpline
210
0.0
220
0.0
230
1.0
 70
     8
 71
     3
 72
     8
 73
     4
 74
     0
 42
0.00000001
 43
0.00000001
 40
0.0
 40
0.0
 40
0.0
 40
0.0
 40
1.0
 40
1.0
 40
1.0
 40
1.0
 10
101.3422632794457
 20
100.4294278768389
 30
0.0
 10
101.1719856721019
 20
100.0951744805535
 30
0.0
 10
100.9997139234762
 20
99.76190799098451
 30
0.0
 10
100.8260272024665
 20
99.42942787683893
 30
0.0
  0
SPLINE
  5
254
330
1F
100
AcDbEntity
  8
0
  6
Continuous
 62
     7
370
    25
100
AcDbSpline
210
0.0
220
0.0
230
1.0
 70
    24
 71
     3
 72
     8
 73
     4
 74
     0
 42
0.00000001
 43
0.00000001
 40
0.0
 40
0.0
 40
0.0
 40
0.0
 40
1.0
 40
1.0
 40
1.0
 40
1.0
 10
100.8260272024665
 20
99.42942787683893
 30
0.0
 10
100.775128485544
 20
99.42942787683893
 30
0.0
 10
100.7211943492932
 20
99.42942787683893
 30
0.0
 10
100.6645418741855
 20
99.42942787683893
 30
0.0
  0
SPLINE
  5
255
330
1F
100
AcDbEntity
  8
0
  6
Continuous
 62
     7
370
    25
100
AcDbSpline
210
0.0
220
0.0
230
1.0
 70
     8
 71
     3
 72
    10
 73
     6
 74
     0
 42
0.00000001
 43
0.00000001
 40
0.0
 40
0.0
 40
0.0
 40
0.0
 40
0.5
 40
0.5
 40
1.0
 40
1.0
 40
1.0
 40
1.0
 10
100.6645418741855
 20
99.67942787683893
 30
0.0
 10
100.6408664797611
 20
99.6050474994616
 30
0.0
 10
100.6277753698765
 20
99.54074686067584
 30
0.0
 10
100.6276890485882
 20
99.4525311758929
 30
0.0
 10
100.640857982532
 20
99.42942787683893
 30
0.0
 10
100.6645418741855
 20
99.42942787683893
 30
0.0
  0
SPLINE
  5
256
330
1F
100
AcDbEntity
  8
0
  6
Continuous
 62
     7
370
    25
100
AcDbSpline
210
0.0
220
0.0
230
1.0
 70
     8
 71
     3
 72
    10
 73
     6
 74
     0
 42
0.00000001
 43
0.00000001
 40
0.0
 40
0.0
 40
0.0
 40
0.0
 40
0.5
 40
0.5
 40
1.0
 40
1.0
 40
1.0
 40
1.0
 10
96.51998468470588
 20
99.67942787683893
 30
0.0
 10
96.54365692461744
 20
99.60505740991337
 30
0.0
 10
96.5567509145527
 20
99.5407518136255
 30
0.0
 10
96.55683778201414
 20
99.45252902581966
 30
0.0
 10
96.5436679922548
 20
99.42942787683893
 30
0.0
 10
96.51998468470588
 20
99.42942787683893
 30
0.0
  0
SPLINE
  5
257
330
1F
100
AcDbEntity
  8
0
  6
Continuous
 62
     7
370
    25
100
AcDbSpline
210
0.0
220
0.0
230
1.0
 70
    24
 71
     3
 72
    12
 73
     8
 74
     0
 42
0.00000001
 43
0.00000001
 40
0.0
 40
0.0
 40
0.0
 40
0.0
 40
0.2500000000000001
 40
0.2500000000000001
 40
0.5000000000000001
 40
0.5000000000000001
 40
1.0
 40
1.0
 40
1.0
 40
1.0
 10
95.84226327944569
 20
99.42942787683893
 30
0.0
 10
95.84226327944569
 20
99.42942787683893
 30
0.0
 10
95.85826208442676
 20
99.42942787683893
 30
0.0
 10
95.92003222274114
 20
99.42942787683893
 30
0.0
 10
95.96577434704274
 20
99.42942787683893
 30
0.0
 10
96.1424444943896
 20
99.42942787683893
 30
0.0
 10
96.31269955986988
 20
99.42942787683893
 30
0.0
 10
96.51998468470588
 20
99.42942787683893
 30
0.0
  0
LINE
  5
258
330
1F
100
AcDbEntity
  8
0
  6
Continuous
 62
     7
370
    25
100
AcDbLine
 10
95.8422632794
 20
99.4294278768
 30
0.0
 11
95.8422632794
 21
103.546781595
 31
0.0
  0
LINE
  5
259
330
1F
100
AcDbEntity
  8
0
  6
Continuous
 62
     7
370
    25
100
AcDbLine
 10
114.0199846847
 20
116.4294278768
 30
0.0
 11
118.5202043069
 21
116.4294278768
 31
0.0
  0
LINE
  5
25A
330
1F
100
AcDbEntity
  8
0
  6
Continuous
 62
     7
370
    25
100
AcDbLine
 10
96.5199846847
 20
116.4294278768
 30
0.0
 11
100.6645418742
 21
116.4294278768
 31
0.0
  0
LINE
  5
25B
330
1F
100
AcDbEntity
  8
0
  6
Continuous
 62
     7
370
    25
100
AcDbLine
 10
118.5202043069
 20
99.4294278768
 30
0.0
 11
114.0199846847
 21
99.4294278768
 31
0.0
  0
LINE
  5
25C
330
1F
100
AcDbEntity
  8
0
  6
Continuous
 62
     7
370
    25
100
AcDbLine
 10
100.6645418742
 20
99.4294278768
 30
0.0
 11
96.5199846847
 21
99.4294278768
 31
0.0
  0
LINE
  5
25D
330
1F
100
AcDbEntity
  8
0
  6
Continuous
 62
     7
370
    25
100
AcDbLine
 10
113.8584993564
 20
116.4294278768
 30
0.0
 11
100.8260272025
 21
116.4294278768
 31
0.0
  0
LINE
  5
25E
330
1F
100
AcDbEntity
  8
0
  6
Continuous
 62
     7
370
    25
100
AcDbLine
 10
113.8584993564
 20
99.4294278768
 30
0.0
 11
100.8260272025
 21
99.4294278768
 31
0.0
  0
LINE
  5
25F
330
1F
100
AcDbEntity
  8
0
  6
Continuous
 62
     7
370
    25
100
AcDbLine
 10
118.5202043069
 20
107.6794278768
 30
0.0
 11
114.788067467
 21
107.6794278768
 31
0.0
  0
LINE
  5
260
330
1F
100
AcDbEntity
  8
0
  6
Continuous
 62
     7
370
    25
100
AcDbLine
 10
114.788067467
 20
108.1794278768
 30
0.0
 11
118.5202043069
 21
108.1794278768
 31
0.0
  0
INSERT
  5
26C
330
1F
100
AcDbEntity
  8
FORMAT
100
AcDbBlockReference
  2
SW_CENTERMARKSYMBOL_1
 10
107.3422632794
 20
107.9294278768
 30
0.0
  0
ENDSEC
  0
SECTION
  2
OBJECTS
  0
DICTIONARY
  5
C
330
0
100
AcDbDictionary
281
     1
  3
ACAD_GROUP
350
D
  3
ACAD_LAYOUT
350
1A
  3
ACAD_MLINESTYLE
350
17
  3
ACAD_PLOTSETTINGS
350
19
  3
ACAD_PLOTSTYLENAME
350
E
  3
ACAD_SCALELIST
350
47
  3
DWGPROPS
350
26D
  0
DICTIONARY
  5
D
102
{ACAD_REACTORS
330
C
102
}
330
C
100
AcDbDictionary
281
     1
  0
DICTIONARY
  5
1A
102
{ACAD_REACTORS
330
C
102
}
330
C
100
AcDbDictionary
281
     1
  3
Layout1
350
1E
  3
Layout2
350
26
  3
Model
350
22
  0
DICTIONARY
  5
17
102
{ACAD_REACTORS
330
C
102
}
330
C
100
AcDbDictionary
281
     1
  3
Standard
350
18
  0
DICTIONARY
  5
19
102
{ACAD_REACTORS
330
C
102
}
330
C
100
AcDbDictionary
281
     1
  0
ACDBDICTIONARYWDFLT
  5
E
102
{ACAD_REACTORS
330
C
102
}
330
C
100
AcDbDictionary
281
     1
  3
Normal
350
F
100
AcDbDictionaryWithDefault
340
F
  0
DICTIONARY
  5
47
102
{ACAD_REACTORS
330
C
102
}
330
C
100
AcDbDictionary
281
     1
  3
A0
350
48
  3
A1
350
49
  3
A2
350
4A
  3
A3
350
4B
  3
A4
350
4C
  3
A5
350
4D
  3
A6
350
4E
  3
A7
350
4F
  3
A8
350
50
  3
A9
350
51
  3
B0
350
52
  3
B1
350
53
  3
B2
350
54
  3
B3
350
55
  3
B4
350
56
  3
B5
350
57
  3
B6
350
58
  0
XRECORD
  5
26D
102
{ACAD_REACTORS
330
C
102
}
330
C
100
AcDbXrecord
280
     1
  1
DWGPROPS COOKIE
  2

  3

  4

  6

  7

  8
user28
  9

300
=
301
=
302
=
303
=
304
=
305
=
306
=
307
=
308
=
309
=
 40
0.0
 41
2460336.268083704
 42
2460336.268084433
  1

 90
        0
  0
LAYOUT
  5
1E
102
{ACAD_REACTORS
330
1A
102
}
330
1A
100
AcDbPlotSettings
  1

  2
none_device
  4

  6

 40
0.0
 41
0.0
 42
0.0
 43
0.0
 44
0.0
 45
0.0
 46
0.0
 47
0.0
 48
0.0
 49
0.0
140
0.0
141
0.0
142
1.0
143
1.0
 70
   688
 72
     1
 73
     0
 74
     5
  7

 75
    16
147
1.0
148
0.0
149
0.0
100
AcDbLayout
  1
Layout1
 70
     1
 71
     1
 10
0.0
 20
0.0
 11
420.0
 21
297.0
 12
0.0
 22
0.0
 32
0.0
 14
1.0000000000E+20
 24
1.0000000000E+20
 34
1.0000000000E+20
 15
-1.0000000000E+20
 25
-1.0000000000E+20
 35
-1.0000000000E+20
146
0.0
 13
0.0
 23
0.0
 33
0.0
 16
1.0
 26
0.0
 36
0.0
 17
0.0
 27
1.0
 37
0.0
 76
     0
330
1B
  0
LAYOUT
  5
26
102
{ACAD_REACTORS
330
1A
102
}
330
1A
100
AcDbPlotSettings
  1

  2
none_device
  4

  6

 40
0.0
 41
0.0
 42
0.0
 43
0.0
 44
0.0
 45
0.0
 46
0.0
 47
0.0
 48
0.0
 49
0.0
140
0.0
141
0.0
142
1.0
143
1.0
 70
   688
 72
     1
 73
     0
 74
     5
  7

 75
    16
147
1.0
148
0.0
149
0.0
100
AcDbLayout
  1
Layout2
 70
     1
 71
     2
 10
0.0
 20
0.0
 11
0.0
 21
0.0
 12
0.0
 22
0.0
 32
0.0
 14
0.0
 24
0.0
 34
0.0
 15
0.0
 25
0.0
 35
0.0
146
0.0
 13
0.0
 23
0.0
 33
0.0
 16
1.0
 26
0.0
 36
0.0
 17
0.0
 27
1.0
 37
0.0
 76
     0
330
23
  0
LAYOUT
  5
22
102
{ACAD_REACTORS
330
1A
102
}
330
1A
100
AcDbPlotSettings
  1

  2
none_device
  4
Letter_(8.50_x_11.00_Inches)
  6

 40
6.35
 41
6.35
 42
6.35000508
 43
6.35000508
 44
215.9
 45
279.4
 46
0.0
 47
0.0
 48
0.0
 49
0.0
140
0.0
141
0.0
142
1.0
143
1.0
 70
  1712
 72
     1
 73
     0
 74
     0
  7

 75
     0
147
1.0
148
0.0
149
0.0
100
AcDbLayout
  1
Model
 70
     1
 71
     0
 10
0.0
 20
0.0
 11
297.0
 21
210.0
 12
0.0
 22
0.0
 32
0.0
 14
0.0
 24
0.0
 34
0.0
 15
297.0
 25
210.0
 35
0.0
146
0.0
 13
0.0
 23
0.0
 33
0.0
 16
1.0
 26
0.0
 36
0.0
 17
0.0
 27
1.0
 37
0.0
 76
     0
330
1F
331
29
  0
MLINESTYLE
  5
18
102
{ACAD_REACTORS
330
17
102
}
330
17
100
AcDbMlineStyle
  2
Standard
 70
     0
  3

 62
   256
 51
90.0
 52
90.0
 71
     2
 49
0.5
 62
   256
  6
BYLAYER
 49
-0.5
 62
   256
  6
BYLAYER
  0
ACDBPLACEHOLDER
  5
F
102
{ACAD_REACTORS
330
E
102
}
330
E
  0
SCALE
  5
48
102
{ACAD_REACTORS
330
47
102
}
330
47
100
AcDbScale
 70
     0
300
1:1
140
1.0
141
1.0
290
     1
  0
SCALE
  5
49
102
{ACAD_REACTORS
330
47
102
}
330
47
100
AcDbScale
 70
     0
300
1:2
140
1.0
141
2.0
290
     0
  0
SCALE
  5
4A
102
{ACAD_REACTORS
330
47
102
}
330
47
100
AcDbScale
 70
     0
300
1:4
140
1.0
141
4.0
290
     0
  0
SCALE
  5
4B
102
{ACAD_REACTORS
330
47
102
}
330
47
100
AcDbScale
 70
     0
300
1:5
140
1.0
141
5.0
290
     0
  0
SCALE
  5
4C
102
{ACAD_REACTORS
330
47
102
}
330
47
100
AcDbScale
 70
     0
300
1:8
140
1.0
141
8.0
290
     0
  0
SCALE
  5
4D
102
{ACAD_REACTORS
330
47
102
}
330
47
100
AcDbScale
 70
     0
300
1:10
140
1.0
141
10.0
290
     0
  0
SCALE
  5
4E
102
{ACAD_REACTORS
330
47
102
}
330
47
100
AcDbScale
 70
     0
300
1:16
140
1.0
141
16.0
290
     0
  0
SCALE
  5
4F
102
{ACAD_REACTORS
330
47
102
}
330
47
100
AcDbScale
 70
     0
300
1:20
140
1.0
141
20.0
290
     0
  0
SCALE
  5
50
102
{ACAD_REACTORS
330
47
102
}
330
47
100
AcDbScale
 70
     0
300
1:30
140
1.0
141
30.0
290
     0
  0
SCALE
  5
51
102
{ACAD_REACTORS
330
47
102
}
330
47
100
AcDbScale
 70
     0
300
1:40
140
1.0
141
40.0
290
     0
  0
SCALE
  5
52
102
{ACAD_REACTORS
330
47
102
}
330
47
100
AcDbScale
 70
     0
300
1:50
140
1.0
141
50.0
290
     0
  0
SCALE
  5
53
102
{ACAD_REACTORS
330
47
102
}
330
47
100
AcDbScale
 70
     0
300
1:100
140
1.0
141
100.0
290
     0
  0
SCALE
  5
54
102
{ACAD_REACTORS
330
47
102
}
330
47
100
AcDbScale
 70
     0
300
2:1
140
2.0
141
1.0
290
     0
  0
SCALE
  5
55
102
{ACAD_REACTORS
330
47
102
}
330
47
100
AcDbScale
 70
     0
300
4:1
140
4.0
141
1.0
290
     0
  0
SCALE
  5
56
102
{ACAD_REACTORS
330
47
102
}
330
47
100
AcDbScale
 70
     0
300
8:1
140
8.0
141
1.0
290
     0
  0
SCALE
  5
57
102
{ACAD_REACTORS
330
47
102
}
330
47
100
AcDbScale
 70
     0
300
10:1
140
10.0
141
1.0
290
     0
  0
SCALE
  5
58
102
{ACAD_REACTORS
330
47
102
}
330
47
100
AcDbScale
 70
     0
300
100:1
140
100.0
141
1.0
290
     0
  0
ENDSEC
  0
EOF
