  0
SECTION
  2
HEADER
  9
$ACADVER
  1
AC1015
  9
$ACADMAINTVER
 70
     6
  9
$DWGCODEPAGE
  3
DOS932
  9
$INSBASE
 10
0.0
 20
0.0
 30
0.0
  9
$EXTMIN
 10
0.0
 20
0.0
 30
0.0
  9
$EXTMAX
 10
431.8
 20
279.4
 30
0.0
  9
$LIMMIN
 10
0.0
 20
0.0
  9
$LIMMAX
 10
431.8
 20
279.4
  9
$ORTHOMODE
 70
     0
  9
$REGENMODE
 70
     1
  9
$FILLMODE
 70
     1
  9
$QTEXTMODE
 70
     0
  9
$MIRRTEXT
 70
     1
  9
$LTSCALE
 40
1.0
  9
$ATTMODE
 70
     1
  9
$TEXTSIZE
 40
3.5
  9
$TRACEWID
 40
1.0
  9
$TEXTSTYLE
  7
Standard
  9
$CLAYER
  8
0
  9
$CELTYPE
  6
ByLayer
  9
$CECOLOR
 62
   256
  9
$CELTSCALE
 40
1.0
  9
$DISPSILH
 70
     0
  9
$DIMSCALE
 40
1.0
  9
$DIMASZ
 40
3.556
  9
$DIMEXO
 40
1.0
  9
$DIMDLI
 40
3.75
  9
$DIMRND
 40
0.0
  9
$DIMDLE
 40
0.0
  9
$DIMEXE
 40
1.0
  9
$DIMTP
 40
0.0
  9
$DIMTM
 40
0.0
  9
$DIMTXT
 40
3.5
  9
$DIMCEN
 40
2.5
  9
$DIMTSZ
 40
0.0
  9
$DIMTOL
 70
     0
  9
$DIMLIM
 70
     0
  9
$DIMTIH
 70
     1
  9
$DIMTOH
 70
     1
  9
$DIMSE1
 70
     0
  9
$DIMSE2
 70
     0
  9
$DIMTAD
 70
     1
  9
$DIMZIN
 70
     0
  9
$DIMBLK
  1

  9
$DIMASO
 70
     1
  9
$DIMSHO
 70
     1
  9
$DIMPOST
  1

  9
$DIMAPOST
  1

  9
$DIMALT
 70
     0
  9
$DIMALTD
 70
     3
  9
$DIMALTF
 40
0.0393700787
  9
$DIMLFAC
 40
1.0
  9
$DIMTOFL
 70
     1
  9
$DIMTVP
 40
0.0
  9
$DIMTIX
 70
     0
  9
$DIMSOXD
 70
     0
  9
$DIMSAH
 70
     0
  9
$DIMBLK1
  1

  9
$DIMBLK2
  1

  9
$DIMSTYLE
  2
ISO-25
  9
$DIMCLRD
 70
     0
  9
$DIMCLRE
 70
     0
  9
$DIMCLRT
 70
     0
  9
$DIMTFAC
 40
1.0
  9
$DIMGAP
 40
1.524
  9
$DIMJUST
 70
     0
  9
$DIMSD1
 70
     0
  9
$DIMSD2
 70
     0
  9
$DIMTOLJ
 70
     0
  9
$DIMTZIN
 70
     0
  9
$DIMALTZ
 70
     0
  9
$DIMALTTZ
 70
     0
  9
$DIMUPT
 70
     0
  9
$DIMDEC
 70
     3
  9
$DIMTDEC
 70
     3
  9
$DIMALTU
 70
     2
  9
$DIMALTTD
 70
     3
  9
$DIMTXSTY
  7
Standard
  9
$DIMAUNIT
 70
     0
  9
$DIMADEC
 70
     2
  9
$DIMALTRND
 40
0.0
  9
$DIMAZIN
 70
     0
  9
$DIMDSEP
 70
    44
  9
$DIMATFIT
 70
     3
  9
$DIMFRAC
 70
     0
  9
$DIMLDRBLK
  1

  9
$DIMLUNIT
 70
     2
  9
$DIMLWD
 70
    -2
  9
$DIMLWE
 70
    -2
  9
$DIMTMOVE
 70
     0
  9
$LUNITS
 70
     2
  9
$LUPREC
 70
     3
  9
$SKETCHINC
 40
1.0
  9
$FILLETRAD
 40
0.0
  9
$AUNITS
 70
     0
  9
$AUPREC
 70
     2
  9
$MENU
  1
.
  9
$ELEVATION
 40
0.0
  9
$PELEVATION
 40
0.0
  9
$THICKNESS
 40
0.0
  9
$LIMCHECK
 70
     0
  9
$CHAMFERA
 40
0.0
  9
$CHAMFERB
 40
0.0
  9
$CHAMFERC
 40
0.0
  9
$CHAMFERD
 40
0.0
  9
$SKPOLY
 70
     0
  9
$TDCREATE
 40
2460195.392462292
  9
$TDUCREATE
 40
2460195.017462292
  9
$TDUPDATE
 40
2460195.392463044
  9
$TDUUPDATE
 40
2460195.017463044
  9
$TDINDWG
 40
0.0000000116
  9
$TDUSRTIMER
 40
0.0000000116
  9
$USRTIMER
 70
     1
  9
$ANGBASE
 50
0.0
  9
$ANGDIR
 70
     0
  9
$PDMODE
 70
     0
  9
$PDSIZE
 40
-1.0
  9
$PLINEWID
 40
0.0
  9
$SPLFRAME
 70
     0
  9
$SPLINETYPE
 70
     6
  9
$SPLINESEGS
 70
     8
  9
$HANDSEED
  5
280
  9
$SURFTAB1
 70
     6
  9
$SURFTAB2
 70
     6
  9
$SURFTYPE
 70
     6
  9
$SURFU
 70
     6
  9
$SURFV
 70
     6
  9
$UCSBASE
  2

  9
$UCSNAME
  2

  9
$UCSORG
 10
0.0
 20
0.0
 30
0.0
  9
$UCSXDIR
 10
1.0
 20
0.0
 30
0.0
  9
$UCSYDIR
 10
0.0
 20
1.0
 30
0.0
  9
$UCSORTHOREF
  2

  9
$UCSORTHOVIEW
 70
     0
  9
$UCSORGTOP
 10
0.0
 20
0.0
 30
0.0
  9
$UCSORGBOTTOM
 10
0.0
 20
0.0
 30
0.0
  9
$UCSORGLEFT
 10
0.0
 20
0.0
 30
0.0
  9
$UCSORGRIGHT
 10
0.0
 20
0.0
 30
0.0
  9
$UCSORGFRONT
 10
0.0
 20
0.0
 30
0.0
  9
$UCSORGBACK
 10
0.0
 20
0.0
 30
0.0
  9
$PUCSBASE
  2

  9
$PUCSNAME
  2

  9
$PUCSORG
 10
0.0
 20
0.0
 30
0.0
  9
$PUCSXDIR
 10
1.0
 20
0.0
 30
0.0
  9
$PUCSYDIR
 10
0.0
 20
1.0
 30
0.0
  9
$PUCSORTHOREF
  2

  9
$PUCSORTHOVIEW
 70
     0
  9
$PUCSORGTOP
 10
0.0
 20
0.0
 30
0.0
  9
$PUCSORGBOTTOM
 10
0.0
 20
0.0
 30
0.0
  9
$PUCSORGLEFT
 10
0.0
 20
0.0
 30
0.0
  9
$PUCSORGRIGHT
 10
0.0
 20
0.0
 30
0.0
  9
$PUCSORGFRONT
 10
0.0
 20
0.0
 30
0.0
  9
$PUCSORGBACK
 10
0.0
 20
0.0
 30
0.0
  9
$USERI1
 70
     0
  9
$USERI2
 70
     0
  9
$USERI3
 70
     0
  9
$USERI4
 70
     0
  9
$USERI5
 70
     0
  9
$USERR1
 40
0.0
  9
$USERR2
 40
0.0
  9
$USERR3
 40
0.0
  9
$USERR4
 40
0.0
  9
$USERR5
 40
0.0
  9
$WORLDVIEW
 70
     1
  9
$SHADEDGE
 70
     3
  9
$SHADEDIF
 70
    70
  9
$TILEMODE
 70
     1
  9
$MAXACTVP
 70
    64
  9
$PINSBASE
 10
0.0
 20
0.0
 30
0.0
  9
$PLIMCHECK
 70
     0
  9
$PEXTMIN
 10
1.0000000000E+20
 20
1.0000000000E+20
 30
1.0000000000E+20
  9
$PEXTMAX
 10
-1.0000000000E+20
 20
-1.0000000000E+20
 30
-1.0000000000E+20
  9
$PLIMMIN
 10
0.0
 20
0.0
  9
$PLIMMAX
 10
420.0
 20
297.0
  9
$UNITMODE
 70
     0
  9
$VISRETAIN
 70
     1
  9
$PLINEGEN
 70
     0
  9
$PSLTSCALE
 70
     1
  9
$TREEDEPTH
 70
  3020
  9
$CMLSTYLE
  2
Standard
  9
$CMLJUST
 70
     0
  9
$CMLSCALE
 40
20.0
  9
$PROXYGRAPHICS
 70
     1
  9
$MEASUREMENT
 70
     1
  9
$CELWEIGHT
370
    -1
  9
$ENDCAPS
280
     0
  9
$JOINSTYLE
280
     0
  9
$LWDISPLAY
290
     1
  9
$INSUNITS
 70
     4
  9
$HYPERLINKBASE
  1

  9
$STYLESHEET
  1

  9
$XEDIT
290
     1
  9
$CEPSNTYPE
380
     0
  9
$PSTYLEMODE
290
     1
  9
$FINGERPRINTGUID
  2
{7491b894-919a-4e48-ad52-12b96c11c78b}
  9
$VERSIONGUID
  2
{FAEB1C32-E019-11D5-929B-00C0DF256EC4}
  9
$EXTNAMES
290
     1
  9
$PSVPSCALE
 40
0.0
  9
$OLESTARTUP
290
     0
  0
ENDSEC
  0
SECTION
  2
CLASSES
  0
CLASS
  1
ACDBDICTIONARYWDFLT
  2
AcDbDictionaryWithDefault
  3
ObjectDBX Classes
 90
        0
280
     0
281
     0
  0
CLASS
  1
VISUALSTYLE
  2
AcDbVisualStyle
  3
ObjectDBX Classes
 90
     4095
280
     0
281
     0
  0
CLASS
  1
MATERIAL
  2
AcDbMaterial
  3
ObjectDBX Classes
 90
     1153
280
     0
281
     0
  0
CLASS
  1
SCALE
  2
AcDbScale
  3
ObjectDBX Classes
 90
     1153
280
     0
281
     0
  0
CLASS
  1
TABLESTYLE
  2
AcDbTableStyle
  3
ObjectDBX Classes
 90
     4095
280
     0
281
     0
  0
CLASS
  1
MLEADERSTYLE
  2
AcDbMLeaderStyle
  3
ACDB_MLEADERSTYLE_CLASS
 90
     4095
280
     0
281
     0
  0
CLASS
  1
SUN
  2
AcDbSun
  3
SCENEOE
 90
     1153
280
     0
281
     0
  0
CLASS
  1
ACDBPLACEHOLDER
  2
AcDbPlaceHolder
  3
ObjectDBX Classes
 90
        0
280
     0
281
     0
  0
CLASS
  1
LAYOUT
  2
AcDbLayout
  3
ObjectDBX Classes
 90
        0
280
     0
281
     0
  0
ENDSEC
  0
SECTION
  2
TABLES
  0
TABLE
  2
VPORT
  5
8
330
0
100
AcDbSymbolTable
 70
     1
  0
VPORT
  5
29
330
8
100
AcDbSymbolTableRecord
100
AcDbViewportTableRecord
  2
*Active
 70
     0
 10
0.0
 20
0.0
 11
1.0
 21
1.0
 12
215.9
 22
139.7
 13
0.0
 23
0.0
 14
10.0
 24
10.0
 15
10.0
 25
10.0
 16
0.0
 26
0.0
 36
1.0
 17
0.0
 27
0.0
 37
0.0
 40
279.4
 41
1.5454545455
 42
50.0
 43
0.0
 44
0.0
 50
0.0
 51
0.0
 71
     0
 72
  2000
 73
     1
 74
     3
 75
     0
 76
     0
 77
     0
 78
     0
281
     0
 65
     1
110
0.0
120
0.0
130
0.0
111
1.0
121
0.0
131
0.0
112
0.0
122
1.0
132
0.0
 79
     0
146
0.0
  0
ENDTAB
  0
TABLE
  2
LTYPE
  5
5
330
0
100
AcDbSymbolTable
 70
     6
  0
LTYPE
  5
14
330
5
100
AcDbSymbolTableRecord
100
AcDbLinetypeTableRecord
  2
ByBlock
 70
     0
  3

 72
    65
 73
     0
 40
0.0
  0
LTYPE
  5
15
330
5
100
AcDbSymbolTableRecord
100
AcDbLinetypeTableRecord
  2
ByLayer
 70
     0
  3

 72
    65
 73
     0
 40
0.0
  0
LTYPE
  5
16
330
5
100
AcDbSymbolTableRecord
100
AcDbLinetypeTableRecord
  2
Continuous
 70
     0
  3
Solid line
 72
    65
 73
     0
 40
0.0
  0
LTYPE
  5
5E
330
5
100
AcDbSymbolTableRecord
100
AcDbLinetypeTableRecord
  2
HIDDEN
 70
     0
  3
Hidden __ __ __ __ __ __ __ __ __ __ __ __ __ __
 72
    65
 73
     2
 40
1.905
 49
1.27
 74
     0
 49
-0.635
 74
     0
  0
LTYPE
  5
5F
330
5
100
AcDbSymbolTableRecord
100
AcDbLinetypeTableRecord
  2
PHANTOM
 70
     0
  3
Phantom ______  __  __  ______  __  __  ______
 72
    65
 73
     6
 40
12.7
 49
6.35
 74
     0
 49
-1.27
 74
     0
 49
1.27
 74
     0
 49
-1.27
 74
     0
 49
1.27
 74
     0
 49
-1.27
 74
     0
  0
LTYPE
  5
60
330
5
100
AcDbSymbolTableRecord
100
AcDbLinetypeTableRecord
  2
CENTER
 70
     0
  3
Center ____ _ ____ _ ____ _ ____ _ ____ _ ____
 72
    65
 73
     4
 40
10.16
 49
6.35
 74
     0
 49
-1.27
 74
     0
 49
1.27
 74
     0
 49
-1.27
 74
     0
  0
LTYPE
  5
61
330
5
100
AcDbSymbolTableRecord
100
AcDbLinetypeTableRecord
  2
CENTERX2
 70
     0
  3
Center (2x) ________  __  ________  __  _____
 72
    65
 73
     4
 40
20.32
 49
12.7
 74
     0
 49
-2.54
 74
     0
 49
2.54
 74
     0
 49
-2.54
 74
     0
  0
LTYPE
  5
62
330
5
100
AcDbSymbolTableRecord
100
AcDbLinetypeTableRecord
  2
DOT2
 70
     0
  3
Dot (.5x) ........................................
 72
    65
 73
     2
 40
0.635
 49
0.0
 74
     0
 49
-0.635
 74
     0
  0
ENDTAB
  0
TABLE
  2
LAYER
  5
2
330
0
100
AcDbSymbolTable
 70
     1
  0
LAYER
  5
10
330
2
100
AcDbSymbolTableRecord
100
AcDbLayerTableRecord
  2
0
 70
     0
 62
     7
  6
Continuous
370
    -3
390
F
  0
ENDTAB
  0
TABLE
  2
STYLE
  5
3
330
0
100
AcDbSymbolTable
 70
     2
  0
STYLE
  5
11
330
3
100
AcDbSymbolTableRecord
100
AcDbTextStyleTableRecord
  2
Standard
 70
     0
 40
0.0
 41
1.0
 50
0.0
 71
     0
 42
3.5
  3
txt
  4
bigfont
  0
STYLE
  5
63
330
3
100
AcDbSymbolTableRecord
100
AcDbTextStyleTableRecord
  2
SLDTEXTSTYLE0
 70
     0
 40
0.0
 41
0.7
 50
0.0
 71
     0
 42
3.5
  3
TXT
  4
bigfont
  0
ENDTAB
  0
TABLE
  2
VIEW
  5
6
330
0
100
AcDbSymbolTable
 70
     0
  0
ENDTAB
  0
TABLE
  2
UCS
  5
7
330
0
100
AcDbSymbolTable
 70
     0
  0
ENDTAB
  0
TABLE
  2
APPID
  5
9
330
0
100
AcDbSymbolTable
 70
     1
  0
APPID
  5
12
330
9
100
AcDbSymbolTableRecord
100
AcDbRegAppTableRecord
  2
ACAD
 70
     0
  0
ENDTAB
  0
TABLE
  2
DIMSTYLE
  5
A
330
0
100
AcDbSymbolTable
 70
     1
100
AcDbDimStyleTable
  0
DIMSTYLE
105
27
330
A
100
AcDbSymbolTableRecord
100
AcDbDimStyleTableRecord
  2
ISO-25
 70
     0
 41
2.5
 42
0.625
 43
3.75
 44
1.25
 73
     0
 74
     0
 77
     1
 78
     8
140
2.5
141
2.5
143
0.0393700787
147
0.625
171
     3
172
     1
178
     0
271
     2
272
     2
274
     3
278
    44
283
     0
284
     8
340
11
  0
ENDTAB
  0
TABLE
  2
BLOCK_RECORD
  5
1
330
0
100
AcDbSymbolTable
 70
     3
  0
BLOCK_RECORD
  5
1F
330
1
100
AcDbSymbolTableRecord
100
AcDbBlockTableRecord
  2
*Model_Space
340
22
  0
BLOCK_RECORD
  5
1B
330
1
100
AcDbSymbolTableRecord
100
AcDbBlockTableRecord
  2
*Paper_Space
340
1E
  0
BLOCK_RECORD
  5
23
330
1
100
AcDbSymbolTableRecord
100
AcDbBlockTableRecord
  2
*Paper_Space0
340
26
  0
BLOCK_RECORD
  5
1CE
330
1
100
AcDbSymbolTableRecord
100
AcDbBlockTableRecord
  2
SW_CENTERMARKSYMBOL_0
340
0
102
{BLKREFS
331
1D9
102
}
  0
BLOCK_RECORD
  5
273
330
1
100
AcDbSymbolTableRecord
100
AcDbBlockTableRecord
  2
SW_CENTERMARKSYMBOL_1
340
0
102
{BLKREFS
331
27E
102
}
  0
ENDTAB
  0
ENDSEC
  0
SECTION
  2
BLOCKS
  0
BLOCK
  5
20
330
1F
100
AcDbEntity
  8
0
100
AcDbBlockBegin
  2
*Model_Space
 70
     0
 10
0.0
 20
0.0
 30
0.0
  3
*Model_Space
  1

  0
ENDBLK
  5
21
330
1F
100
AcDbEntity
  8
0
100
AcDbBlockEnd
  0
BLOCK
  5
1C
330
1B
100
AcDbEntity
 67
     1
  8
0
100
AcDbBlockBegin
  2
*Paper_Space
 70
     0
 10
0.0
 20
0.0
 30
0.0
  3
*Paper_Space
  1

  0
ENDBLK
  5
1D
330
1B
100
AcDbEntity
 67
     1
  8
0
100
AcDbBlockEnd
  0
BLOCK
  5
24
330
23
100
AcDbEntity
  8
0
100
AcDbBlockBegin
  2
*Paper_Space0
 70
     0
 10
0.0
 20
0.0
 30
0.0
  3
*Paper_Space0
  1

  0
ENDBLK
  5
25
330
23
100
AcDbEntity
  8
0
100
AcDbBlockEnd
  0
BLOCK
  5
1CF
330
1CE
100
AcDbEntity
  8
0
100
AcDbBlockBegin
  2
SW_CENTERMARKSYMBOL_0
 70
     0
 10
0.0
 20
0.0
 30
0.0
  3
SW_CENTERMARKSYMBOL_0
  1

  0
LINE
  5
1D1
330
1CE
100
AcDbEntity
  8
0
  6
Continuous
 62
     0
370
    18
100
AcDbLine
 10
0.0
 20
0.0
 30
0.0
 11
0.0
 21
2.5
 31
0.0
  0
LINE
  5
1D2
330
1CE
100
AcDbEntity
  8
0
  6
Continuous
 62
     0
370
    18
100
AcDbLine
 10
0.0
 20
0.0
 30
0.0
 11
-2.5
 21
0.0
 31
0.0
  0
LINE
  5
1D3
330
1CE
100
AcDbEntity
  8
0
  6
Continuous
 62
     0
370
    18
100
AcDbLine
 10
0.0
 20
0.0
 30
0.0
 11
0.0
 21
-2.5
 31
0.0
  0
LINE
  5
1D4
330
1CE
100
AcDbEntity
  8
0
  6
Continuous
 62
     0
370
    18
100
AcDbLine
 10
0.0
 20
0.0
 30
0.0
 11
2.5
 21
0.0
 31
0.0
  0
LINE
  5
1D5
330
1CE
100
AcDbEntity
  8
0
  6
Continuous
 62
     0
370
    18
100
AcDbLine
 10
0.0
 20
5.0
 30
0.0
 11
0.0
 21
29.9663524999
 31
0.0
  0
LINE
  5
1D6
330
1CE
100
AcDbEntity
  8
0
  6
Continuous
 62
     0
370
    18
100
AcDbLine
 10
-5.0
 20
0.0
 30
0.0
 11
-10.9232050808
 21
0.0
 31
0.0
  0
LINE
  5
1D7
330
1CE
100
AcDbEntity
  8
0
  6
Continuous
 62
     0
370
    18
100
AcDbLine
 10
0.0
 20
-5.0
 30
0.0
 11
0.0
 21
-24.8257478811
 31
0.0
  0
LINE
  5
1D8
330
1CE
100
AcDbEntity
  8
0
  6
Continuous
 62
     0
370
    18
100
AcDbLine
 10
5.0
 20
0.0
 30
0.0
 11
10.9232050808
 21
0.0
 31
0.0
  0
ENDBLK
  5
1D0
330
1CE
100
AcDbEntity
  8
0
100
AcDbBlockEnd
  0
BLOCK
  5
274
330
273
100
AcDbEntity
  8
0
100
AcDbBlockBegin
  2
SW_CENTERMARKSYMBOL_1
 70
     0
 10
0.0
 20
0.0
 30
0.0
  3
SW_CENTERMARKSYMBOL_1
  1

  0
LINE
  5
276
330
273
100
AcDbEntity
  8
0
  6
Continuous
 62
     0
370
    18
100
AcDbLine
 10
0.0
 20
0.0
 30
0.0
 11
0.0
 21
2.5
 31
0.0
  0
LINE
  5
277
330
273
100
AcDbEntity
  8
0
  6
Continuous
 62
     0
370
    18
100
AcDbLine
 10
0.0
 20
0.0
 30
0.0
 11
-2.5
 21
0.0
 31
0.0
  0
LINE
  5
278
330
273
100
AcDbEntity
  8
0
  6
Continuous
 62
     0
370
    18
100
AcDbLine
 10
0.0
 20
0.0
 30
0.0
 11
0.0
 21
-2.5
 31
0.0
  0
LINE
  5
279
330
273
100
AcDbEntity
  8
0
  6
Continuous
 62
     0
370
    18
100
AcDbLine
 10
0.0
 20
0.0
 30
0.0
 11
2.5
 21
0.0
 31
0.0
  0
LINE
  5
27A
330
273
100
AcDbEntity
  8
0
  6
Continuous
 62
     0
370
    18
100
AcDbLine
 10
0.0
 20
5.0
 30
0.0
 11
0.0
 21
9.95
 31
0.0
  0
LINE
  5
27B
330
273
100
AcDbEntity
  8
0
  6
Continuous
 62
     0
370
    18
100
AcDbLine
 10
-5.0
 20
0.0
 30
0.0
 11
-41.3666808472
 21
0.0
 31
0.0
  0
LINE
  5
27C
330
273
100
AcDbEntity
  8
0
  6
Continuous
 62
     0
370
    18
100
AcDbLine
 10
0.0
 20
-5.0
 30
0.0
 11
0.0
 21
-9.95
 31
0.0
  0
LINE
  5
27D
330
273
100
AcDbEntity
  8
0
  6
Continuous
 62
     0
370
    18
100
AcDbLine
 10
5.0
 20
0.0
 30
0.0
 11
12.7670364852
 21
0.0
 31
0.0
  0
ENDBLK
  5
275
330
273
100
AcDbEntity
  8
0
100
AcDbBlockEnd
  0
ENDSEC
  0
SECTION
  2
ENTITIES
  0
MTEXT
  5
64
330
1F
100
AcDbEntity
  8
0
  6
Continuous
 62
     7
370
     0
100
AcDbMText
 10
170.4916010111
 20
112.4859278911
 30
0.0
 40
3.5
 41
0.0
 71
     1
 72
     1
  1
エースボール　アングル型　BD-3300R
  7
SLDTEXTSTYLE0
 73
     1
 44
1.0
  0
LINE
  5
65
330
1F
100
AcDbEntity
  8
0
  6
Continuous
 62
     7
370
    25
100
AcDbLine
 10
170.6262830045
 20
59.525994863
 30
0.0
 11
171.4851517516
 21
61.01359917
 31
0.0
  0
LINE
  5
66
330
1F
100
AcDbEntity
  8
0
  6
Continuous
 62
     7
370
    25
100
AcDbLine
 10
171.4851517516
 20
77.51359917
 30
0.0
 11
170.6262830045
 21
79.0012034771
 31
0.0
  0
LINE
  5
67
330
1F
100
AcDbEntity
  8
0
  6
Continuous
 62
     7
370
    25
100
AcDbLine
 10
148.3440204987
 20
79.0012034771
 30
0.0
 11
147.5851517516
 21
77.6868042508
 31
0.0
  0
LINE
  5
68
330
1F
100
AcDbEntity
  8
0
  6
Continuous
 62
     7
370
    25
100
AcDbLine
 10
147.5851517516
 20
60.8403940893
 30
0.0
 11
148.3440204987
 21
59.525994863
 31
0.0
  0
LINE
  5
69
330
1F
100
AcDbEntity
  8
0
  6
Continuous
 62
     7
370
    25
100
AcDbLine
 10
149.7475474445
 20
57.9827852364
 30
0.0
 11
150.9932142516
 21
57.26359917
 31
0.0
  0
LINE
  5
6A
330
1F
100
AcDbEntity
  8
0
  6
Continuous
 62
     7
370
    25
100
AcDbLine
 10
167.9770892516
 20
57.26359917
 30
0.0
 11
169.2227560586
 21
57.9827852364
 31
0.0
  0
LINE
  5
6B
330
1F
100
AcDbEntity
  8
0
  6
Continuous
 62
     7
370
    25
100
AcDbLine
 10
150.9932142516
 20
57.26359917
 30
0.0
 11
151.2877795818
 21
47.8375086037
 31
0.0
  0
LINE
  5
6C
330
1F
100
AcDbEntity
  8
0
  6
Continuous
 62
     7
370
    25
100
AcDbLine
 10
167.6825239214
 20
47.8375086037
 30
0.0
 11
167.9770892516
 21
57.26359917
 31
0.0
  0
LINE
  5
6D
330
1F
100
AcDbEntity
  8
0
  6
Continuous
 62
     7
370
    25
100
AcDbLine
 10
151.2877795818
 20
47.8375086037
 30
0.0
 11
152.4851517516
 21
45.76359917
 31
0.0
  0
LINE
  5
6E
330
1F
100
AcDbEntity
  8
0
  6
Continuous
 62
     7
370
    25
100
AcDbLine
 10
166.4851517516
 20
45.76359917
 30
0.0
 11
167.6825239214
 21
47.8375086037
 31
0.0
  0
SPLINE
  5
6F
330
1F
100
AcDbEntity
  8
0
  6
Continuous
 62
     7
370
    25
100
AcDbSpline
210
0.0
220
0.0
230
1.0
 70
     8
 71
     3
 72
    11
 73
     7
 74
     0
 42
0.00000001
 43
0.00000001
 40
0.0
 40
0.0
 40
0.0
 40
0.0
 40
0.2350493969884527
 40
0.5843697938656436
 40
0.8881522698236235
 40
1.0
 40
1.0
 40
1.0
 40
1.0
 10
165.6542819053107
 20
78.05184766590764
 30
0.0
 10
165.6113336739325
 20
78.09657282002158
 30
0.0
 10
165.504557611373
 20
78.20776659216067
 30
0.0
 10
165.4104395694713
 20
78.42525880381315
 30
0.0
 10
165.3633850850456
 20
78.62330035958499
 30
0.0
 10
165.3703554015399
 20
78.73234390048978
 30
0.0
 10
165.3722311412407
 20
78.7616879480604
 30
0.0
  0
SPLINE
  5
70
330
1F
100
AcDbEntity
  8
0
  6
Continuous
 62
     7
370
    25
100
AcDbSpline
210
0.0
220
0.0
230
1.0
 70
     8
 71
     3
 72
    11
 73
     7
 74
     0
 42
0.00000001
 43
0.00000001
 40
0.0
 40
0.0
 40
0.0
 40
0.0
 40
0.1643924951260743
 40
0.4914722417575729
 40
0.8288811284267421
 40
1.0
 40
1.0
 40
1.0
 40
1.0
 10
153.5923037862157
 20
78.76307127135708
 30
0.0
 10
153.5940236488789
 20
78.71996098679149
 30
0.0
 10
153.59916539673
 20
78.591077316147
 30
0.0
 10
153.5376012528175
 20
78.3800512543825
 30
0.0
 10
153.4401579940288
 20
78.17976031836092
 30
0.0
 10
153.3430604330442
 20
78.08801477462977
 30
0.0
 10
153.3103872410721
 20
78.05714252889551
 30
0.0
  0
LINE
  5
71
330
1F
100
AcDbEntity
  8
0
  6
Continuous
 62
     7
370
    25
100
AcDbLine
 10
165.3851517516
 20
78.75906835
 30
0.0
 11
165.3851517516
 21
79.76359917
 31
0.0
  0
LINE
  5
72
330
1F
100
AcDbEntity
  8
0
  6
Continuous
 62
     7
370
    25
100
AcDbLine
 10
153.5851517516
 20
79.76359917
 30
0.0
 11
153.5851517516
 21
78.76359917
 31
0.0
  0
LINE
  5
73
330
1F
100
AcDbEntity
  8
0
  6
Continuous
 62
     7
370
    25
100
AcDbLine
 10
153.3149848442
 20
78.0583368993
 30
0.0
 11
152.7706205717
 21
79.0012034771
 31
0.0
  0
LINE
  5
74
330
1F
100
AcDbEntity
  8
0
  6
Continuous
 62
     7
370
    25
100
AcDbLine
 10
166.1996829314
 20
79.0012034771
 30
0.0
 11
165.6553186589
 21
78.0583368993
 31
0.0
  0
LINE
  5
75
330
1F
100
AcDbEntity
  8
0
  6
Continuous
 62
     7
370
    25
100
AcDbLine
 10
169.2227560586
 20
57.9802248551
 30
0.0
 11
169.2227560586
 21
59.525994863
 31
0.0
  0
LINE
  5
76
330
1F
100
AcDbEntity
  8
0
  6
Continuous
 62
     7
370
    25
100
AcDbLine
 10
169.2227560586
 20
59.525994863
 30
0.0
 11
170.6288510599
 21
59.525994863
 31
0.0
  0
LINE
  5
77
330
1F
100
AcDbEntity
  8
0
  6
Continuous
 62
     7
370
    25
100
AcDbLine
 10
152.7731886272
 20
79.0012034771
 30
0.0
 11
148.3414524432
 21
79.0012034771
 31
0.0
  0
LINE
  5
78
330
1F
100
AcDbEntity
  8
0
  6
Continuous
 62
     7
370
    25
100
AcDbLine
 10
170.6288510599
 20
79.0012034771
 30
0.0
 11
166.1971148759
 21
79.0012034771
 31
0.0
  0
LINE
  5
79
330
1F
100
AcDbEntity
  8
0
  6
Continuous
 62
     7
370
    25
100
AcDbLine
 10
149.7475474445
 20
59.525994863
 30
0.0
 11
149.7475474445
 21
57.9802248551
 31
0.0
  0
LINE
  5
7A
330
1F
100
AcDbEntity
  8
0
  6
Continuous
 62
     7
370
    25
100
AcDbLine
 10
148.3414524432
 20
59.525994863
 30
0.0
 11
149.7475474445
 21
59.525994863
 31
0.0
  0
LINE
  5
7B
330
1F
100
AcDbEntity
  8
0
  6
Continuous
 62
     7
370
    25
100
AcDbLine
 10
166.9351517516
 20
87.76359917
 30
0.0
 11
164.9851517516
 21
95.76359917
 31
0.0
  0
LINE
  5
7C
330
1F
100
AcDbEntity
  8
0
  6
Continuous
 62
     7
370
    25
100
AcDbLine
 10
166.4851517516
 20
79.76359917
 30
0.0
 11
166.9351517516
 21
87.76359917
 31
0.0
  0
LINE
  5
7D
330
1F
100
AcDbEntity
  8
0
  6
Continuous
 62
     7
370
    25
100
AcDbLine
 10
152.416406334
 20
80.9857399273
 30
0.0
 11
152.4851517516
 21
79.76359917
 31
0.0
  0
LINE
  5
7E
330
1F
100
AcDbEntity
  8
0
  6
Continuous
 62
     7
370
    25
100
AcDbLine
 10
153.9851517516
 20
95.76359917
 30
0.0
 11
153.731920217
 21
94.7247005669
 31
0.0
  0
LINE
  5
7F
330
1F
100
AcDbEntity
  8
0
  6
Continuous
 62
     7
370
    25
100
AcDbLine
 10
144.7851517516
 20
77.26359917
 30
0.0
 11
144.5851517516
 21
77.06359917
 31
0.0
  0
LINE
  5
80
330
1F
100
AcDbEntity
  8
0
  6
Continuous
 62
     7
370
    25
100
AcDbLine
 10
144.5851517516
 20
61.46359917
 30
0.0
 11
144.7851517516
 21
61.26359917
 31
0.0
  0
LINE
  5
81
330
1F
100
AcDbEntity
  8
0
  6
Continuous
 62
     7
370
    25
100
AcDbLine
 10
147.5851517516
 20
77.26359917
 30
0.0
 11
144.7851517516
 21
77.26359917
 31
0.0
  0
LINE
  5
82
330
1F
100
AcDbEntity
  8
0
  6
Continuous
 62
     7
370
    25
100
AcDbLine
 10
144.7851517516
 20
61.26359917
 30
0.0
 11
147.5851517516
 21
61.26359917
 31
0.0
  0
LINE
  5
83
330
1F
100
AcDbEntity
  8
0
  6
Continuous
 62
     7
370
    25
100
AcDbLine
 10
136.0951517516
 20
75.26359917
 30
0.0
 11
136.0751517516
 21
75.26359917
 31
0.0
  0
LINE
  5
84
330
1F
100
AcDbEntity
  8
0
  6
Continuous
 62
     7
370
    25
100
AcDbLine
 10
136.0751517516
 20
63.26359917
 30
0.0
 11
136.0951517516
 21
63.26359917
 31
0.0
  0
ARC
  5
85
330
1F
100
AcDbEntity
  8
0
  6
Continuous
 62
     7
370
    25
100
AcDbCircle
 10
136.0951517516
 20
74.27359917
 30
0.0
 40
0.9900000000000091
100
AcDbArc
 50
19.1995397339
 51
90.0
  0
ARC
  5
86
330
1F
100
AcDbEntity
  8
0
  6
Continuous
 62
     7
370
    25
100
AcDbCircle
 10
136.0951517516
 20
64.25359917
 30
0.0
 40
0.990000000000002
100
AcDbArc
 50
270.0
 51
340.8004602661
  0
ARC
  5
87
330
1F
100
AcDbEntity
  8
0
  6
Continuous
 62
     7
370
    25
100
AcDbCircle
 10
136.0751517516
 20
74.27359917
 30
0.0
 40
0.9900000000000091
100
AcDbArc
 50
90.0
 51
180.0
  0
ARC
  5
88
330
1F
100
AcDbEntity
  8
0
  6
Continuous
 62
     7
370
    25
100
AcDbCircle
 10
136.0751517516
 20
64.25359917
 30
0.0
 40
0.990000000000002
100
AcDbArc
 50
180.0
 51
270.0
  0
ARC
  5
89
330
1F
100
AcDbEntity
  8
0
  6
Continuous
 62
     7
370
    25
100
AcDbCircle
 10
137.5022764795
 20
74.76359917
 30
0.0
 40
0.5000000000000235
100
AcDbArc
 50
199.1995397339
 51
270.0
  0
ARC
  5
8A
330
1F
100
AcDbEntity
  8
0
  6
Continuous
 62
     7
370
    25
100
AcDbCircle
 10
137.5022764795
 20
63.76359917
 30
0.0
 40
0.5000000000000235
100
AcDbArc
 50
90.0
 51
160.8004602661
  0
LINE
  5
8B
330
1F
100
AcDbEntity
  8
0
  6
Continuous
 62
     7
370
    25
100
AcDbLine
 10
144.5851517516
 20
74.26359917
 30
0.0
 11
137.5022764795
 21
74.26359917
 31
0.0
  0
LINE
  5
8C
330
1F
100
AcDbEntity
  8
0
  6
Continuous
 62
     7
370
    25
100
AcDbLine
 10
137.5022764795
 20
64.26359917
 30
0.0
 11
144.5851517516
 21
64.26359917
 31
0.0
  0
SPLINE
  5
8D
330
1F
100
AcDbEntity
  8
0
  6
Continuous
 62
     7
370
    25
100
AcDbSpline
210
0.0
220
0.0
230
1.0
 70
     8
 71
     3
 72
     8
 73
     4
 74
     0
 42
0.00000001
 43
0.00000001
 40
0.0
 40
0.0
 40
0.0
 40
0.0
 40
1.0
 40
1.0
 40
1.0
 40
1.0
 10
154.8663495980487
 20
61.29720263018794
 30
0.0
 10
155.071535420592
 20
61.35376359731216
 30
0.0
 10
155.2777586212993
 20
61.40770366872599
 30
0.0
 10
155.4851517515657
 20
61.45868795846896
 30
0.0
  0
LINE
  5
8E
330
1F
100
AcDbEntity
  8
0
  6
Continuous
 62
     7
370
    25
100
AcDbLine
 10
155.4851517516
 20
65.26359917
 30
0.0
 11
152.9689156746
 21
65.26359917
 31
0.0
  0
SPLINE
  5
8F
330
1F
100
AcDbEntity
  8
0
  6
Continuous
 62
     7
370
    25
100
AcDbSpline
210
0.0
220
0.0
230
1.0
 70
     8
 71
     3
 72
     8
 73
     4
 74
     0
 42
0.00000001
 43
0.00000001
 40
0.0
 40
0.0
 40
0.0
 40
0.0
 40
1.0
 40
1.0
 40
1.0
 40
1.0
 10
152.8074303463055
 20
64.6447970165259
 30
0.0
 10
152.8639937157737
 20
64.84999155403565
 30
0.0
 10
152.917933638595
 20
65.05621520755282
 30
0.0
 10
152.9689156745865
 20
65.26359917004292
 30
0.0
  0
LINE
  5
90
330
1F
100
AcDbEntity
  8
0
  6
Continuous
 62
     7
370
    25
100
AcDbLine
 10
148.3072107241
 20
64.6447970165
 30
0.0
 11
152.8074303463
 21
64.6447970165
 31
0.0
  0
SPLINE
  5
91
330
1F
100
AcDbEntity
  8
0
  6
Continuous
 62
     7
370
    25
100
AcDbSpline
210
0.0
220
0.0
230
1.0
 70
     8
 71
     3
 72
    14
 73
    10
 74
     0
 42
0.00000001
 43
0.00000001
 40
0.0
 40
0.0
 40
0.0
 40
0.0
 40
0.25
 40
0.25
 40
0.5
 40
0.5
 40
0.75
 40
0.75
 40
1.0
 40
1.0
 40
1.0
 40
1.0
 10
148.3072107241233
 20
64.64479701652589
 30
0.0
 10
148.0992008681179
 20
65.3993929078558
 30
0.0
 10
147.9270492738821
 20
66.1685865522526
 30
0.0
 10
147.6924309419888
 20
67.70891030833822
 30
0.0
 10
147.6294564605495
 20
68.48381492407437
 30
0.0
 10
147.6295222032969
 20
70.04462366165787
 30
0.0
 10
147.6941789779215
 20
70.83515092323239
 30
0.0
 10
147.9307046717493
 20
72.37709873588847
 30
0.0
 10
148.1010305992636
 20
73.1344431350356
 30
0.0
 10
148.3072107241233
 20
73.88240132355995
 30
0.0
  0
LINE
  5
92
330
1F
100
AcDbEntity
  8
0
  6
Continuous
 62
     7
370
    25
100
AcDbLine
 10
152.8074303463
 20
73.8824013236
 30
0.0
 11
148.3072107241
 21
73.8824013236
 31
0.0
  0
SPLINE
  5
93
330
1F
100
AcDbEntity
  8
0
  6
Continuous
 62
     7
370
    25
100
AcDbSpline
210
0.0
220
0.0
230
1.0
 70
     8
 71
     3
 72
     8
 73
     4
 74
     0
 42
0.00000001
 43
0.00000001
 40
0.0
 40
0.0
 40
0.0
 40
0.0
 40
1.0
 40
1.0
 40
1.0
 40
1.0
 10
152.9689156745865
 20
73.26359917004294
 30
0.0
 10
152.918016957664
 20
73.47064420847192
 30
0.0
 10
152.8640828214133
 20
73.67688353814857
 30
0.0
 10
152.8074303463055
 20
73.88240132355995
 30
0.0
  0
LINE
  5
94
330
1F
100
AcDbEntity
  8
0
  6
Continuous
 62
     7
370
    25
100
AcDbLine
 10
166.0013878285
 20
73.26359917
 30
0.0
 11
152.9689156746
 21
73.26359917
 31
0.0
  0
SPLINE
  5
95
330
1F
100
AcDbEntity
  8
0
  6
Continuous
 62
     7
370
    25
100
AcDbSpline
210
0.0
220
0.0
230
1.0
 70
     8
 71
     3
 72
     8
 73
     4
 74
     0
 42
0.00000001
 43
0.00000001
 40
0.0
 40
0.0
 40
0.0
 40
0.0
 40
1.0
 40
1.0
 40
1.0
 40
1.0
 10
166.0013878285449
 20
73.26359917004301
 30
0.0
 10
166.0522840618
 20
73.47063410544675
 30
0.0
 10
166.1062180167636
 20
73.67687387051176
 30
0.0
 10
166.1628731568259
 20
73.88240132355995
 30
0.0
  0
LINE
  5
96
330
1F
100
AcDbEntity
  8
0
  6
Continuous
 62
     7
370
    25
100
AcDbLine
 10
170.663092779
 20
73.8824013236
 30
0.0
 11
166.1628731568
 21
73.8824013236
 31
0.0
  0
SPLINE
  5
97
330
1F
100
AcDbEntity
  8
0
  6
Continuous
 62
     7
370
    25
100
AcDbSpline
210
0.0
220
0.0
230
1.0
 70
     8
 71
     3
 72
    14
 73
    10
 74
     0
 42
0.00000001
 43
0.00000001
 40
0.0
 40
0.0
 40
0.0
 40
0.0
 40
0.25
 40
0.25
 40
0.5
 40
0.5
 40
0.75
 40
0.75
 40
1.0
 40
1.0
 40
1.0
 40
1.0
 10
170.6630927790081
 20
64.64479701652589
 30
0.0
 10
170.8710431397139
 20
65.39917707717586
 30
0.0
 10
171.0432649484028
 20
66.16861824464137
 30
0.0
 10
171.2779000711537
 20
67.70912960558252
 30
0.0
 10
171.3408441297813
 20
68.48398398558953
 30
0.0
 10
171.3407842170499
 20
70.0443449404751
 30
0.0
 10
171.2761695507577
 20
70.83480113326013
 30
0.0
 10
171.0396102113565
 20
72.3770807960686
 30
0.0
 10
170.8692650712771
 20
73.13447154926979
 30
0.0
 10
170.6630927790081
 20
73.88240132355995
 30
0.0
  0
LINE
  5
98
330
1F
100
AcDbEntity
  8
0
  6
Continuous
 62
     7
370
    25
100
AcDbLine
 10
166.1628731568
 20
64.6447970165
 30
0.0
 11
170.663092779
 21
64.6447970165
 31
0.0
  0
SPLINE
  5
99
330
1F
100
AcDbEntity
  8
0
  6
Continuous
 62
     7
370
    25
100
AcDbSpline
210
0.0
220
0.0
230
1.0
 70
     8
 71
     3
 72
     8
 73
     4
 74
     0
 42
0.00000001
 43
0.00000001
 40
0.0
 40
0.0
 40
0.0
 40
0.0
 40
1.0
 40
1.0
 40
1.0
 40
1.0
 10
166.1628731568259
 20
64.6447970165259
 30
0.0
 10
166.1063113133889
 20
64.84998601806272
 30
0.0
 10
166.0523712961326
 20
65.05620938412741
 30
0.0
 10
166.0013878285449
 20
65.26359917004288
 30
0.0
  0
LINE
  5
9A
330
1F
100
AcDbEntity
  8
0
  6
Continuous
 62
     7
370
    25
100
AcDbLine
 10
166.0013878285
 20
65.26359917
 30
0.0
 11
163.4851517516
 21
65.26359917
 31
0.0
  0
LINE
  5
9B
330
1F
100
AcDbEntity
  8
0
  6
Continuous
 62
     7
370
    25
100
AcDbLine
 10
163.4851517516
 20
61.4586879585
 30
0.0
 11
163.4851517516
 21
65.26359917
 31
0.0
  0
SPLINE
  5
9C
330
1F
100
AcDbEntity
  8
0
  6
Continuous
 62
     7
370
    25
100
AcDbSpline
210
0.0
220
0.0
230
1.0
 70
     8
 71
     3
 72
     8
 73
     4
 74
     0
 42
0.00000001
 43
0.00000001
 40
0.0
 40
0.0
 40
0.0
 40
0.0
 40
1.0
 40
1.0
 40
1.0
 40
1.0
 10
163.4851517515657
 20
61.45868795846895
 30
0.0
 10
163.6921808149011
 20
61.40779316876813
 30
0.0
 10
163.8984208321704
 20
61.35385931940669
 30
0.0
 10
164.1039539050827
 20
61.29720263018793
 30
0.0
  0
LINE
  5
9D
330
1F
100
AcDbEntity
  8
0
  6
Continuous
 62
     7
370
    25
100
AcDbLine
 10
164.1039539051
 20
57.9459754618
 30
0.0
 11
164.1039539051
 21
61.2972026302
 31
0.0
  0
SPLINE
  5
9E
330
1F
100
AcDbEntity
  8
0
  6
Continuous
 62
     7
370
    25
100
AcDbSpline
210
0.0
220
0.0
230
1.0
 70
     8
 71
     3
 72
    14
 73
    10
 74
     0
 42
0.00000001
 43
0.00000001
 40
0.0
 40
0.0
 40
0.0
 40
0.0
 40
0.5
 40
0.5
 40
0.625
 40
0.625
 40
0.75
 40
0.75
 40
1.0
 40
1.0
 40
1.0
 40
1.0
 10
154.8663495980487
 20
57.94597546184847
 30
0.0
 10
156.3633101386909
 20
57.53332738082596
 30
0.0
 10
157.8906385035966
 20
57.26974077747727
 30
0.0
 10
159.8665465806397
 20
57.26789044548778
 30
0.0
 10
160.2635635549252
 20
57.28369442970913
 30
0.0
 10
161.0469494262159
 20
57.34537444327306
 30
0.0
 10
161.4354029651722
 20
57.39119192206048
 30
0.0
 10
162.5922147398432
 20
57.56817025073873
 30
0.0
 10
163.3520560675477
 20
57.7387093440317
 30
0.0
 10
164.1039539050827
 20
57.94597546184847
 30
0.0
  0
LINE
  5
9F
330
1F
100
AcDbEntity
  8
0
  6
Continuous
 62
     7
370
    25
100
AcDbLine
 10
154.866349598
 20
61.2972026302
 30
0.0
 11
154.866349598
 21
57.9459754618
 31
0.0
  0
LINE
  5
A0
330
1F
100
AcDbEntity
  8
0
  6
Continuous
 62
     7
370
    25
100
AcDbLine
 10
158.5833928376
 20
67.8412261524
 30
0.0
 11
158.5417425183
 21
67.8174212226
 31
0.0
  0
ELLIPSE
  5
A1
330
1F
100
AcDbEntity
  8
0
  6
Continuous
 62
     7
370
    25
100
AcDbEllipse
 10
158.1928993388
 20
68.3721036938
 30
0.0
 11
0.678412947925267
 21
6.110667527536863E-13
 31
0.0
210
0.0
220
0.0
230
1.0
 40
0.9533039403
 41
3.470145824140271
 42
5.252469180536311
  0
LINE
  5
A2
330
1F
100
AcDbEntity
  8
0
  6
Continuous
 62
     7
370
    25
100
AcDbLine
 10
157.5507745718
 20
68.1634195789
 30
0.0
 11
156.2911203668
 21
71.6858639755
 31
0.0
  0
ELLIPSE
  5
A3
330
1F
100
AcDbEntity
  8
0
  6
Continuous
 62
     7
370
    25
100
AcDbEllipse
 10
155.7001378089
 20
71.4235247394
 30
0.0
 11
0.6519124952381503
 21
5.968558980384842E-13
 31
0.0
210
0.0
220
0.0
230
1.0
 40
0.9533023292
 41
0.4357905044354878
 42
2.705800116361531
  0
LINE
  5
A4
330
1F
100
AcDbEntity
  8
0
  6
Continuous
 62
     7
370
    25
100
AcDbLine
 10
155.1091558104
 20
71.6858651207
 30
0.0
 11
153.8497910087
 21
68.164241719
 31
0.0
  0
ELLIPSE
  5
A5
330
1F
100
AcDbEntity
  8
0
  6
Continuous
 62
     7
370
    25
100
AcDbEllipse
 10
153.2076698247
 20
68.3729245527
 30
0.0
 11
-0.6784085062757867
 21
3.268496584496461E-13
 31
0.0
210
0.0
220
0.0
230
1.0
 40
0.9533122623
 41
1.04719377118795
 42
2.813042320199904
  0
LINE
  5
A6
330
1F
100
AcDbEntity
  8
0
  6
Continuous
 62
     7
370
    25
100
AcDbLine
 10
152.8684633508
 20
67.8128367074
 30
0.0
 11
152.8168827802
 21
67.8412261524
 31
0.0
  0
LINE
  5
A7
330
1F
100
AcDbEntity
  8
0
  6
Continuous
 62
     7
370
    25
100
AcDbLine
 10
152.8168827802
 20
67.8412261524
 30
0.0
 11
153.6131514398
 21
66.323054051
 31
0.0
  0
ELLIPSE
  5
A8
330
1F
100
AcDbEntity
  8
0
  6
Continuous
 62
     7
370
    25
100
AcDbEllipse
 10
153.6890003132
 20
66.359207566
 30
0.0
 11
0.08480161849061574
 21
-2.842170943040401E-14
 31
0.0
210
0.0
220
0.0
230
1.0
 40
0.9533039403
 41
3.605240262590706
 42
5.462183310215526
  0
ELLIPSE
  5
A9
330
1F
100
AcDbEntity
  8
0
  6
Continuous
 62
     7
370
    25
100
AcDbEllipse
 10
155.7001378089
 20
64.3003589454
 30
0.0
 11
2.866293551216245
 21
-1.492139745096211E-12
 31
0.0
210
0.0
220
0.0
230
1.0
 40
0.9533046568
 41
0.8210016221243817
 42
2.320591031466429
  0
ELLIPSE
  5
AA
330
1F
100
AcDbEntity
  8
0
  6
Continuous
 62
     7
370
    25
100
AcDbEllipse
 10
157.7112753046
 20
66.359207566
 30
0.0
 11
0.08480161849058732
 21
0.0
 31
0.0
210
0.0
220
0.0
230
1.0
 40
0.9533039403
 41
3.962594650556324
 42
5.819537698177162
  0
LINE
  5
AB
330
1F
100
AcDbEntity
  8
0
  6
Continuous
 62
     7
370
    25
100
AcDbLine
 10
157.7871241781
 20
66.323054051
 30
0.0
 11
158.5833928376
 21
67.8412261524
 31
0.0
  0
ARC
  5
AC
330
1F
100
AcDbEntity
  8
0
  6
Continuous
 62
     7
370
    25
100
AcDbCircle
 10
164.3780277036
 20
68.6866801767
 30
0.0
 40
0.8889999999999969
100
AcDbArc
 50
45.0
 51
159.0751675724
  0
LINE
  5
AD
330
1F
100
AcDbEntity
  8
0
  6
Continuous
 62
     7
370
    25
100
AcDbLine
 10
165.0066456321
 20
69.3152981052
 30
0.0
 11
165.4732560177
 21
69.7819084908
 31
0.0
  0
ARC
  5
AE
330
1F
100
AcDbEntity
  8
0
  6
Continuous
 62
     7
370
    25
100
AcDbCircle
 10
164.3780277036
 20
68.6866801767
 30
0.0
 40
1.548886735692404
100
AcDbArc
 50
45.0
 51
315.0
  0
LINE
  5
AF
330
1F
100
AcDbEntity
  8
0
  6
Continuous
 62
     7
370
    25
100
AcDbLine
 10
165.4732560177
 20
67.5914518626
 30
0.0
 11
165.0066456321
 21
68.0580622483
 31
0.0
  0
ARC
  5
B0
330
1F
100
AcDbEntity
  8
0
  6
Continuous
 62
     7
370
    25
100
AcDbCircle
 10
164.3780277036
 20
68.6866801767
 30
0.0
 40
0.889000000000017
100
AcDbArc
 50
200.9248324276
 51
315.0
  0
LINE
  5
B1
330
1F
100
AcDbEntity
  8
0
  6
Continuous
 62
     7
370
    25
100
AcDbLine
 10
163.5476574549
 20
68.3691801767
 30
0.0
 11
165.4732560177
 21
68.3691801767
 31
0.0
  0
LINE
  5
B2
330
1F
100
AcDbEntity
  8
0
  6
Continuous
 62
     7
370
    25
100
AcDbLine
 10
165.4732560177
 20
68.3691801767
 30
0.0
 11
165.4732560177
 21
69.0041801767
 31
0.0
  0
LINE
  5
B3
330
1F
100
AcDbEntity
  8
0
  6
Continuous
 62
     7
370
    25
100
AcDbLine
 10
165.4732560177
 20
69.0041801767
 30
0.0
 11
163.5476574549
 21
69.0041801767
 31
0.0
  0
ARC
  5
B4
330
1F
100
AcDbEntity
  8
0
  6
Continuous
 62
     7
370
    25
100
AcDbCircle
 10
161.0358831073
 20
68.6866801767
 30
0.0
 40
0.8889999999999868
100
AcDbArc
 50
45.0
 51
315.0
  0
LINE
  5
B5
330
1F
100
AcDbEntity
  8
0
  6
Continuous
 62
     7
370
    25
100
AcDbLine
 10
161.6645010358
 20
69.3152981052
 30
0.0
 11
162.1311114214
 21
69.7819084908
 31
0.0
  0
ARC
  5
B6
330
1F
100
AcDbEntity
  8
0
  6
Continuous
 62
     7
370
    25
100
AcDbCircle
 10
161.0358831073
 20
68.6866801767
 30
0.0
 40
1.548886735692394
100
AcDbArc
 50
45.0
 51
315.0
  0
LINE
  5
B7
330
1F
100
AcDbEntity
  8
0
  6
Continuous
 62
     7
370
    25
100
AcDbLine
 10
162.1311114214
 20
67.5914518626
 30
0.0
 11
161.6645010358
 21
68.0580622483
 31
0.0
  0
LINE
  5
B8
330
1F
100
AcDbEntity
  8
0
  6
Continuous
 62
     7
370
    25
100
AcDbLine
 10
155.4851517516
 20
61.4586879585
 30
0.0
 11
155.4851517516
 21
65.26359917
 31
0.0
  0
LINE
  5
B9
330
1F
100
AcDbEntity
  8
0
  6
Continuous
 62
     7
370
    25
100
AcDbLine
 10
153.4851517516
 20
76.6248151022
 30
0.0
 11
153.4851517516
 21
73.26359917
 31
0.0
  0
SPLINE
  5
BA
330
1F
100
AcDbEntity
  8
0
  6
Continuous
 62
     7
370
    25
100
AcDbSpline
210
0.0
220
0.0
230
1.0
 70
     8
 71
     3
 72
    10
 73
     6
 74
     0
 42
0.00000001
 43
0.00000001
 40
0.0
 40
0.0
 40
0.0
 40
0.0
 40
0.5
 40
0.5
 40
1.0
 40
1.0
 40
1.0
 40
1.0
 10
152.8074303463055
 20
74.31541402545217
 30
0.0
 10
152.7837549518811
 20
74.27247049455093
 30
0.0
 10
152.7706638419965
 20
74.20902804992681
 30
0.0
 10
152.7705775207082
 20
74.05654921280784
 30
0.0
 10
152.783746454652
 20
73.96831921070057
 30
0.0
 10
152.8074303463055
 20
73.88240132355995
 30
0.0
  0
SPLINE
  5
BB
330
1F
100
AcDbEntity
  8
0
  6
Continuous
 62
     7
370
    25
100
AcDbSpline
210
0.0
220
0.0
230
1.0
 70
     8
 71
     3
 72
    12
 73
     8
 74
     0
 42
0.00000001
 43
0.00000001
 40
0.0
 40
0.0
 40
0.0
 40
0.0
 40
0.2500000000000001
 40
0.2500000000000001
 40
0.5000000000000002
 40
0.5000000000000002
 40
1.0
 40
1.0
 40
1.0
 40
1.0
 10
153.4851517515657
 20
76.62481510221068
 30
0.0
 10
153.4851517515657
 20
76.42907283933114
 30
0.0
 10
153.4693088154768
 20
76.23240623014058
 30
0.0
 10
153.4078059552391
 20
75.84313800281231
 30
0.0
 10
153.3622023141954
 20
75.64973396985938
 30
0.0
 10
153.1857512967062
 20
75.07280491860263
 30
0.0
 10
153.0153539294543
 20
74.69255548539962
 30
0.0
 10
152.8074303463055
 20
74.31541402545217
 30
0.0
  0
LINE
  5
BC
330
1F
100
AcDbEntity
  8
0
  6
Continuous
 62
     7
370
    25
100
AcDbLine
 10
154.4333368962
 20
57.9459754618
 30
0.0
 11
154.4333368962
 21
61.2972026302
 31
0.0
  0
SPLINE
  5
BD
330
1F
100
AcDbEntity
  8
0
  6
Continuous
 62
     7
370
    25
100
AcDbSpline
210
0.0
220
0.0
230
1.0
 70
     8
 71
     3
 72
    10
 73
     6
 74
     0
 42
0.00000001
 43
0.00000001
 40
0.0
 40
0.0
 40
0.0
 40
0.0
 40
0.5
 40
0.5
 40
1.0
 40
1.0
 40
1.0
 40
1.0
 10
154.4333368961565
 20
61.29720263018793
 30
0.0
 10
154.4762804270577
 20
61.27352723576355
 30
0.0
 10
154.5397228716818
 20
61.2604361258789
 30
0.0
 10
154.6922017088008
 20
61.26034980459062
 30
0.0
 10
154.7804317109081
 20
61.27351873853446
 30
0.0
 10
154.8663495980487
 20
61.29720263018793
 30
0.0
  0
SPLINE
  5
BE
330
1F
100
AcDbEntity
  8
0
  6
Continuous
 62
     7
370
    25
100
AcDbSpline
210
0.0
220
0.0
230
1.0
 70
     8
 71
     3
 72
    10
 73
     6
 74
     0
 42
0.00000001
 43
0.00000001
 40
0.0
 40
0.0
 40
0.0
 40
0.0
 40
0.5
 40
0.5
 40
1.0
 40
1.0
 40
1.0
 40
1.0
 10
154.8663495980487
 20
57.94597546184847
 30
0.0
 10
154.7804679555422
 20
57.96964936240443
 30
0.0
 10
154.6930587495768
 20
57.98274191958356
 30
0.0
 10
154.5404162645019
 20
57.98282833356583
 30
0.0
 10
154.4762932794195
 20
57.96965794196721
 30
0.0
 10
154.4333368961565
 20
57.94597546184847
 30
0.0
  0
SPLINE
  5
BF
330
1F
100
AcDbEntity
  8
0
  6
Continuous
 62
     7
370
    25
100
AcDbSpline
210
0.0
220
0.0
230
1.0
 70
     8
 71
     3
 72
    10
 73
     6
 74
     0
 42
0.00000001
 43
0.00000001
 40
0.0
 40
0.0
 40
0.0
 40
0.0
 40
0.5
 40
0.5
 40
1.0
 40
1.0
 40
1.0
 40
1.0
 10
164.1039539050827
 20
61.29720263018791
 30
0.0
 10
164.1898409668853
 20
61.2735272357635
 30
0.0
 10
164.2772481758655
 20
61.26043612587887
 30
0.0
 10
164.4298846184593
 20
61.26034980459065
 30
0.0
 10
164.4940076634051
 20
61.27351873853459
 30
0.0
 10
164.5369666069753
 20
61.29720263018815
 30
0.0
  0
LINE
  5
C0
330
1F
100
AcDbEntity
  8
0
  6
Continuous
 62
     7
370
    25
100
AcDbLine
 10
164.536966607
 20
61.2972026302
 30
0.0
 11
164.536966607
 21
57.9459754618
 31
0.0
  0
SPLINE
  5
C1
330
1F
100
AcDbEntity
  8
0
  6
Continuous
 62
     7
370
    25
100
AcDbSpline
210
0.0
220
0.0
230
1.0
 70
     8
 71
     3
 72
    10
 73
     6
 74
     0
 42
0.00000001
 43
0.00000001
 40
0.0
 40
0.0
 40
0.0
 40
0.0
 40
0.5
 40
0.5
 40
1.0
 40
1.0
 40
1.0
 40
1.0
 10
164.5369666069749
 20
57.94597546184847
 30
0.0
 10
164.4940287978757
 20
57.96964770176002
 30
0.0
 10
164.4305882079835
 20
57.98274169169528
 30
0.0
 10
164.2780990624746
 20
57.98282855915673
 30
0.0
 10
164.1898696732713
 20
57.96965876939737
 30
0.0
 10
164.1039539050827
 20
57.94597546184847
 30
0.0
  0
SPLINE
  5
C2
330
1F
100
AcDbEntity
  8
0
  6
Continuous
 62
     7
370
    25
100
AcDbSpline
210
0.0
220
0.0
230
1.0
 70
     8
 71
     3
 72
     8
 73
     4
 74
     0
 42
0.00000001
 43
0.00000001
 40
0.0
 40
0.0
 40
0.0
 40
0.0
 40
1.0
 40
1.0
 40
1.0
 40
1.0
 10
165.8277137103796
 20
62.26359917004294
 30
0.0
 10
166.1501930372289
 20
62.17188488230848
 30
0.0
 10
166.4655107935528
 20
62.07522809324057
 30
0.0
 10
166.7745279362003
 20
61.97422298540832
 30
0.0
  0
SPLINE
  5
C3
330
1F
100
AcDbEntity
  8
0
  6
Continuous
 62
     7
370
    25
100
AcDbSpline
210
0.0
220
0.0
230
1.0
 70
     8
 71
     3
 72
    10
 73
     6
 74
     0
 42
0.00000001
 43
0.00000001
 40
0.0
 40
0.0
 40
0.0
 40
0.0
 40
0.5
 40
0.5
 40
1.0
 40
1.0
 40
1.0
 40
1.0
 10
164.5369666069752
 20
61.29720263018808
 30
0.0
 10
164.9034845538158
 20
61.49926931573901
 30
0.0
 10
165.2725647792816
 20
61.66566208800965
 30
0.0
 10
166.017817127509
 20
61.8997090618797
 30
0.0
 10
166.3940298994567
 20
61.96679731583853
 30
0.0
 10
166.7745279362003
 20
61.97422298540832
 30
0.0
  0
LINE
  5
C4
330
1F
100
AcDbEntity
  8
0
  6
Continuous
 62
     7
370
    25
100
AcDbLine
 10
170.663092779
 20
64.2117843146
 30
0.0
 11
166.1628731568
 21
64.2117843146
 31
0.0
  0
SPLINE
  5
C5
330
1F
100
AcDbEntity
  8
0
  6
Continuous
 62
     7
370
    25
100
AcDbSpline
210
0.0
220
0.0
230
1.0
 70
     8
 71
     3
 72
    10
 73
     6
 74
     0
 42
0.00000001
 43
0.00000001
 40
0.0
 40
0.0
 40
0.0
 40
0.0
 40
0.5
 40
0.5
 40
1.0
 40
1.0
 40
1.0
 40
1.0
 10
166.1628731568226
 20
64.2117843146337
 30
0.0
 10
166.186548551247
 20
64.25472784553486
 30
0.0
 10
166.1996396611349
 20
64.31817029015866
 30
0.0
 10
166.1997259824232
 20
64.47064912727774
 30
0.0
 10
166.1865570484794
 20
64.55887912938518
 30
0.0
 10
166.1628731568259
 20
64.64479701652591
 30
0.0
  0
SPLINE
  5
C6
330
1F
100
AcDbEntity
  8
0
  6
Continuous
 62
     7
370
    25
100
AcDbSpline
210
0.0
220
0.0
230
1.0
 70
     8
 71
     3
 72
    10
 73
     6
 74
     0
 42
0.00000001
 43
0.00000001
 40
0.0
 40
0.0
 40
0.0
 40
0.0
 40
0.5
 40
0.5
 40
1.0
 40
1.0
 40
1.0
 40
1.0
 10
170.663092779008
 20
64.64479701652593
 30
0.0
 10
170.6394173845836
 20
64.55890995472346
 30
0.0
 10
170.6263262746991
 20
64.47150274574332
 30
0.0
 10
170.6262399534108
 20
64.3188663031496
 30
0.0
 10
170.6394088873546
 20
64.25474325820402
 30
0.0
 10
170.6630927790081
 20
64.2117843146337
 30
0.0
  0
SPLINE
  5
C7
330
1F
100
AcDbEntity
  8
0
  6
Continuous
 62
     7
370
    25
100
AcDbSpline
210
0.0
220
0.0
230
1.0
 70
     8
 71
     3
 72
    10
 73
     6
 74
     0
 42
0.00000001
 43
0.00000001
 40
0.0
 40
0.0
 40
0.0
 40
0.0
 40
0.5
 40
0.5
 40
1.0
 40
1.0
 40
1.0
 40
1.0
 10
166.1628731568259
 20
73.88240132355995
 30
0.0
 10
166.1865485512503
 20
73.96828838536238
 30
0.0
 10
166.1996396611349
 20
74.0556955943425
 30
0.0
 10
166.1997259824232
 20
74.20833203693623
 30
0.0
 10
166.1865570484794
 20
74.2724550818818
 30
0.0
 10
166.1628731568259
 20
74.31541402545214
 30
0.0
  0
LINE
  5
C8
330
1F
100
AcDbEntity
  8
0
  6
Continuous
 62
     7
370
    25
100
AcDbLine
 10
166.1628731568
 20
74.3154140255
 30
0.0
 11
170.663092779
 21
74.3154140255
 31
0.0
  0
SPLINE
  5
C9
330
1F
100
AcDbEntity
  8
0
  6
Continuous
 62
     7
370
    25
100
AcDbSpline
210
0.0
220
0.0
230
1.0
 70
     8
 71
     3
 72
    10
 73
     6
 74
     0
 42
0.00000001
 43
0.00000001
 40
0.0
 40
0.0
 40
0.0
 40
0.0
 40
0.5
 40
0.5
 40
1.0
 40
1.0
 40
1.0
 40
1.0
 10
170.6630927790081
 20
74.31541402545217
 30
0.0
 10
170.6394173845837
 20
74.27247049455093
 30
0.0
 10
170.6263262746991
 20
74.20902804992681
 30
0.0
 10
170.6262399534108
 20
74.05654921280784
 30
0.0
 10
170.6394088873546
 20
73.96831921070057
 30
0.0
 10
170.6630927790081
 20
73.88240132355995
 30
0.0
  0
SPLINE
  5
CA
330
1F
100
AcDbEntity
  8
0
  6
Continuous
 62
     7
370
    25
100
AcDbSpline
210
0.0
220
0.0
230
1.0
 70
     8
 71
     3
 72
     8
 73
     4
 74
     0
 42
0.00000001
 43
0.00000001
 40
0.0
 40
0.0
 40
0.0
 40
0.0
 40
1.0
 40
1.0
 40
1.0
 40
1.0
 10
165.6065352430619
 20
62.8534776367177
 30
0.0
 10
165.5654199674206
 20
62.98950803120723
 30
0.0
 10
165.5249309845528
 20
63.12621209584468
 30
0.0
 10
165.4851517515657
 20
63.26359917004293
 30
0.0
  0
LINE
  5
CB
330
1F
100
AcDbEntity
  8
0
  6
Continuous
 62
     7
370
    25
100
AcDbLine
 10
165.4851517516
 20
65.26359917
 30
0.0
 11
165.4851517516
 21
63.26359917
 31
0.0
  0
SPLINE
  5
CC
330
1F
100
AcDbEntity
  8
0
  6
Continuous
 62
     7
370
    25
100
AcDbSpline
210
0.0
220
0.0
230
1.0
 70
     8
 71
     3
 72
     8
 73
     4
 74
     0
 42
0.00000001
 43
0.00000001
 40
0.0
 40
0.0
 40
0.0
 40
0.0
 40
1.0
 40
1.0
 40
1.0
 40
1.0
 10
165.6065352430619
 20
62.8534776367177
 30
0.0
 10
165.7221678530909
 20
63.31202856877545
 30
0.0
 10
165.9160572579114
 20
63.7640981645337
 30
0.0
 10
166.1628731568258
 20
64.21178431463345
 30
0.0
  0
SPLINE
  5
CD
330
1F
100
AcDbEntity
  8
0
  6
Continuous
 62
     7
370
    25
100
AcDbSpline
210
0.0
220
0.0
230
1.0
 70
     8
 71
     3
 72
    10
 73
     6
 74
     0
 42
0.00000001
 43
0.00000001
 40
0.0
 40
0.0
 40
0.0
 40
0.0
 40
0.5
 40
0.5
 40
1.0
 40
1.0
 40
1.0
 40
1.0
 10
152.8074303463054
 20
64.64479701652593
 30
0.0
 10
152.7837549518811
 20
64.55890995472346
 30
0.0
 10
152.7706638419965
 20
64.47150274574334
 30
0.0
 10
152.7705775207082
 20
64.3188663031496
 30
0.0
 10
152.783746454652
 20
64.25474325820402
 30
0.0
 10
152.8074303463055
 20
64.2117843146337
 30
0.0
  0
LINE
  5
CE
330
1F
100
AcDbEntity
  8
0
  6
Continuous
 62
     7
370
    25
100
AcDbLine
 10
152.8074303463
 20
64.2117843146
 30
0.0
 11
148.3072107241
 21
64.2117843146
 31
0.0
  0
SPLINE
  5
CF
330
1F
100
AcDbEntity
  8
0
  6
Continuous
 62
     7
370
    25
100
AcDbSpline
210
0.0
220
0.0
230
1.0
 70
     8
 71
     3
 72
    10
 73
     6
 74
     0
 42
0.00000001
 43
0.00000001
 40
0.0
 40
0.0
 40
0.0
 40
0.0
 40
0.5
 40
0.5
 40
1.0
 40
1.0
 40
1.0
 40
1.0
 10
148.3072107241189
 20
64.2117843146337
 30
0.0
 10
148.3308861185432
 20
64.25472784553483
 30
0.0
 10
148.3439772284323
 20
64.31817029015852
 30
0.0
 10
148.3440635497207
 20
64.47064912727764
 30
0.0
 10
148.3308946157768
 20
64.55887912938512
 30
0.0
 10
148.3072107241233
 20
64.6447970165259
 30
0.0
  0
LINE
  5
D0
330
1F
100
AcDbEntity
  8
0
  6
Continuous
 62
     7
370
    25
100
AcDbLine
 10
153.4851517516
 20
65.26359917
 30
0.0
 11
153.4851517516
 21
63.26359917
 31
0.0
  0
SPLINE
  5
D1
330
1F
100
AcDbEntity
  8
0
  6
Continuous
 62
     7
370
    25
100
AcDbSpline
210
0.0
220
0.0
230
1.0
 70
     8
 71
     3
 72
     8
 73
     4
 74
     0
 42
0.00000001
 43
0.00000001
 40
0.0
 40
0.0
 40
0.0
 40
0.0
 40
1.0
 40
1.0
 40
1.0
 40
1.0
 10
153.4851517515657
 20
63.26359917004293
 30
0.0
 10
153.4453730933755
 20
63.12621408104282
 30
0.0
 10
153.4048841305473
 20
62.98950999923106
 30
0.0
 10
153.3637682600695
 20
62.85347763671768
 30
0.0
  0
SPLINE
  5
D2
330
1F
100
AcDbEntity
  8
0
  6
Continuous
 62
     7
370
    25
100
AcDbSpline
210
0.0
220
0.0
230
1.0
 70
     8
 71
     3
 72
     8
 73
     4
 74
     0
 42
0.00000001
 43
0.00000001
 40
0.0
 40
0.0
 40
0.0
 40
0.0
 40
1.0
 40
1.0
 40
1.0
 40
1.0
 10
152.8074303463055
 20
64.2117843146337
 30
0.0
 10
153.0546041271894
 20
63.76344902158237
 30
0.0
 10
153.2483257954934
 20
63.31127453083879
 30
0.0
 10
153.3637682600695
 20
62.85347763671768
 30
0.0
  0
SPLINE
  5
D3
330
1F
100
AcDbEntity
  8
0
  6
Continuous
 62
     7
370
    25
100
AcDbSpline
210
0.0
220
0.0
230
1.0
 70
     8
 71
     3
 72
     8
 73
     4
 74
     0
 42
0.00000001
 43
0.00000001
 40
0.0
 40
0.0
 40
0.0
 40
0.0
 40
1.0
 40
1.0
 40
1.0
 40
1.0
 10
152.1957755669491
 20
61.97422298541419
 30
0.0
 10
152.5047927095908
 20
62.07522809324433
 30
0.0
 10
152.8201104659088
 20
62.17188488231026
 30
0.0
 10
153.1425897927518
 20
62.26359917004294
 30
0.0
  0
SPLINE
  5
D4
330
1F
100
AcDbEntity
  8
0
  6
Continuous
 62
     7
370
    25
100
AcDbSpline
210
0.0
220
0.0
230
1.0
 70
     8
 71
     3
 72
    12
 73
     8
 74
     0
 42
0.00000001
 43
0.00000001
 40
0.0
 40
0.0
 40
0.0
 40
0.0
 40
0.2500000000000002
 40
0.2500000000000002
 40
0.5000000000000004
 40
0.5000000000000004
 40
1.0
 40
1.0
 40
1.0
 40
1.0
 10
152.1957755669438
 20
61.97422298540807
 30
0.0
 10
152.3858017422471
 20
61.97051449955164
 30
0.0
 10
152.5760168049329
 20
61.95193199671397
 30
0.0
 10
152.9529535640653
 20
61.88706495974782
 30
0.0
 10
153.1402763553248
 20
61.84079940649755
 30
0.0
 10
153.6991863116389
 20
61.66507487619059
 30
0.0
 10
154.0677219697492
 20
61.49877146741384
 30
0.0
 10
154.4333368961565
 20
61.29720263018793
 30
0.0
  0
LINE
  5
D5
330
1F
100
AcDbEntity
  8
0
  6
Continuous
 62
     7
370
    25
100
AcDbLine
 10
155.4313907451
 20
68.6891673136
 30
0.0
 11
156.0387391038
 21
68.6891673136
 31
0.0
  0
ELLIPSE
  5
D6
330
1F
100
AcDbEntity
  8
0
  6
Continuous
 62
     7
370
    25
100
AcDbEllipse
 10
155.7350649262
 20
69.5805916477
 30
0.0
 11
0.08480161849067258
 21
1.421085471520200E-14
 31
0.0
210
0.0
220
0.0
230
1.0
 40
0.9533039403
 41
0.3430239404205145
 42
2.798568713168818
  0
LINE
  5
D7
330
1F
100
AcDbEntity
  8
0
  6
Continuous
 62
     7
370
    25
100
AcDbLine
 10
156.1186003422
 20
68.7971990423
 30
0.0
 11
155.8149261645
 21
69.6077816595
 31
0.0
  0
ELLIPSE
  5
D8
330
1F
100
AcDbEntity
  8
0
  6
Continuous
 62
     7
370
    25
100
AcDbEllipse
 10
156.0387391038
 20
68.7700090306
 30
0.0
 11
-0.08480161849064416
 21
-4.263256414560601E-14
 31
0.0
210
0.0
220
0.0
230
1.0
 40
0.9533039403
 41
1.570796326794417
 42
3.48461659214898
  0
ELLIPSE
  5
D9
330
1F
100
AcDbEntity
  8
0
  6
Continuous
 62
     7
370
    25
100
AcDbEllipse
 10
155.4313907451
 20
68.7700090306
 30
0.0
 11
0.08480161849064416
 21
-1.421085471520200E-14
 31
0.0
210
0.0
220
0.0
230
1.0
 40
0.9533039403
 41
2.798568711308549
 42
4.712388980384862
  0
LINE
  5
DA
330
1F
100
AcDbEntity
  8
0
  6
Continuous
 62
     7
370
    25
100
AcDbLine
 10
155.6552036879
 20
69.6077816595
 30
0.0
 11
155.3515295068
 21
68.7971990426
 31
0.0
  0
LINE
  5
DB
330
1F
100
AcDbEntity
  8
0
  6
Continuous
 62
     7
370
    25
100
AcDbLine
 10
148.3072107241
 20
74.3154140255
 30
0.0
 11
152.8074303463
 21
74.3154140255
 31
0.0
  0
SPLINE
  5
DC
330
1F
100
AcDbEntity
  8
0
  6
Continuous
 62
     7
370
    25
100
AcDbSpline
210
0.0
220
0.0
230
1.0
 70
     8
 71
     3
 72
    10
 73
     6
 74
     0
 42
0.00000001
 43
0.00000001
 40
0.0
 40
0.0
 40
0.0
 40
0.0
 40
0.5
 40
0.5
 40
1.0
 40
1.0
 40
1.0
 40
1.0
 10
148.3072107241233
 20
73.88240132355995
 30
0.0
 10
148.3308861185477
 20
73.9682883853624
 30
0.0
 10
148.3439772284324
 20
74.05569559434251
 30
0.0
 10
148.3440635497206
 20
74.20833203693626
 30
0.0
 10
148.3308946157768
 20
74.27245508188184
 30
0.0
 10
148.3072107241233
 20
74.31541402545217
 30
0.0
  0
LINE
  5
DD
330
1F
100
AcDbEntity
  8
0
  6
Continuous
 62
     7
370
    25
100
AcDbLine
 10
165.4851517516
 20
76.6248151022
 30
0.0
 11
165.4851517516
 21
73.26359917
 31
0.0
  0
SPLINE
  5
DE
330
1F
100
AcDbEntity
  8
0
  6
Continuous
 62
     7
370
    25
100
AcDbSpline
210
0.0
220
0.0
230
1.0
 70
     8
 71
     3
 72
    10
 73
     6
 74
     0
 42
0.00000001
 43
0.00000001
 40
0.0
 40
0.0
 40
0.0
 40
0.0
 40
0.5
 40
0.5
 40
1.0
 40
1.0
 40
1.0
 40
1.0
 10
166.1628731568259
 20
74.31541402545214
 30
0.0
 10
165.9544524040085
 20
74.6934572748543
 30
0.0
 10
165.783988568731
 20
75.07422677965015
 30
0.0
 10
165.5490061337927
 20
75.8433753052077
 30
0.0
 10
165.4851517515657
 20
76.23180203338293
 30
0.0
 10
165.4851517515657
 20
76.62481510221068
 30
0.0
  0
SPLINE
  5
DF
330
1F
100
AcDbEntity
  8
0
  6
Continuous
 62
     7
370
    25
100
AcDbSpline
210
0.0
220
0.0
230
1.0
 70
     8
 71
     3
 72
    16
 73
    12
 74
     0
 42
0.00000001
 43
0.00000001
 40
0.0
 40
0.0
 40
0.0
 40
0.0
 40
0.2500000000000001
 40
0.2500000000000001
 40
0.5000000000000001
 40
0.5000000000000001
 40
0.6250000000000001
 40
0.6250000000000001
 40
0.7500000000000002
 40
0.7500000000000002
 40
1.0
 40
1.0
 40
1.0
 40
1.0
 10
170.6630927790081
 20
78.93421617896918
 30
0.0
 10
170.8711082271139
 20
78.55690809009268
 30
0.0
 10
171.0413145320869
 20
78.17688435971847
 30
0.0
 10
171.2762505636545
 20
77.40926104430777
 30
0.0
 10
171.3403226953181
 20
77.02161422751898
 30
0.0
 10
171.3410556442391
 20
76.43329367563113
 30
0.0
 10
171.3253961641561
 20
76.23622048307548
 30
0.0
 10
171.2641210375191
 20
75.84616350552139
 30
0.0
 10
171.21856476502
 20
75.65237060493335
 30
0.0
 10
171.0420787322637
 20
75.07428962016992
 30
0.0
 10
170.8714222787781
 20
74.69329175583509
 30
0.0
 10
170.6630927790081
 20
74.31541402545217
 30
0.0
  0
SPLINE
  5
E0
330
1F
100
AcDbEntity
  8
0
  6
Continuous
 62
     7
370
    25
100
AcDbSpline
210
0.0
220
0.0
230
1.0
 70
     8
 71
     3
 72
    10
 73
     6
 74
     0
 42
0.00000001
 43
0.00000001
 40
0.0
 40
0.0
 40
0.0
 40
0.0
 40
0.1601790552921226
 40
0.7197651707803578
 40
1.0
 40
1.0
 40
1.0
 40
1.0
 10
170.6288633458912
 20
78.99649445771892
 30
0.0
 10
170.628100555798
 20
78.99788668574529
 30
0.0
 10
170.6246729557242
 20
79.0041426674736
 30
0.0
 10
170.6391804205225
 20
78.9776354027457
 30
0.0
 10
170.6571099736403
 20
78.94507954760054
 30
0.0
 10
170.6630927790081
 20
78.93421617896918
 30
0.0
  0
SPLINE
  5
E1
330
1F
100
AcDbEntity
  8
0
  6
Continuous
 62
     7
370
    25
100
AcDbSpline
210
0.0
220
0.0
230
1.0
 70
     8
 71
     3
 72
     9
 73
     5
 74
     0
 42
0.00000001
 43
0.00000001
 40
0.0
 40
0.0
 40
0.0
 40
0.0
 40
0.5797912171256352
 40
1.0
 40
1.0
 40
1.0
 40
1.0
 10
170.6630927790081
 20
59.5929821611167
 30
0.0
 10
170.6507341756617
 20
59.57050851287557
 30
0.0
 10
170.6294185658672
 20
59.53174689045475
 30
0.0
 10
170.6290276233645
 20
59.53101248569654
 30
0.0
 10
170.6288633458912
 20
59.53070388236696
 30
0.0
  0
SPLINE
  5
E2
330
1F
100
AcDbEntity
  8
0
  6
Continuous
 62
     7
370
    25
100
AcDbSpline
210
0.0
220
0.0
230
1.0
 70
     8
 71
     3
 72
    16
 73
    12
 74
     0
 42
0.00000001
 43
0.00000001
 40
0.0
 40
0.0
 40
0.0
 40
0.0
 40
0.2500000000000001
 40
0.2500000000000001
 40
0.5000000000000002
 40
0.5000000000000002
 40
0.6250000000000001
 40
0.6250000000000001
 40
0.7500000000000001
 40
0.7500000000000001
 40
1.0
 40
1.0
 40
1.0
 40
1.0
 10
170.6630927790081
 20
64.2117843146337
 30
0.0
 10
170.8711082271139
 20
63.83447622575721
 30
0.0
 10
171.0413145320869
 20
63.45445249538301
 30
0.0
 10
171.2762505636545
 20
62.68682917997231
 30
0.0
 10
171.3403226953181
 20
62.29918236318352
 30
0.0
 10
171.3410556442391
 20
61.71086181129566
 30
0.0
 10
171.3253961641561
 20
61.51378861874002
 30
0.0
 10
171.2641210375191
 20
61.12373164118592
 30
0.0
 10
171.21856476502
 20
60.92993874059788
 30
0.0
 10
171.0420787322637
 20
60.35185775583446
 30
0.0
 10
170.8714222787781
 20
59.97085989149964
 30
0.0
 10
170.6630927790081
 20
59.5929821611167
 30
0.0
  0
LINE
  5
E3
330
1F
100
AcDbEntity
  8
0
  6
Continuous
 62
     7
370
    25
100
AcDbLine
 10
171.4851517516
 20
77.51359917
 30
0.0
 11
171.4851517516
 21
61.01359917
 31
0.0
  0
SPLINE
  5
E4
330
1F
100
AcDbEntity
  8
0
  6
Continuous
 62
     7
370
    25
100
AcDbSpline
210
0.0
220
0.0
230
1.0
 70
     8
 71
     3
 72
     9
 73
     5
 74
     0
 42
0.00000001
 43
0.00000001
 40
0.0
 40
0.0
 40
0.0
 40
0.0
 40
0.5797912171256419
 40
1.0
 40
1.0
 40
1.0
 40
1.0
 10
148.3072107241233
 20
78.93421617896918
 30
0.0
 10
148.3195693274698
 20
78.9566898272103
 30
0.0
 10
148.3408849372641
 20
78.99545144963113
 30
0.0
 10
148.341275879767
 20
78.99618585438934
 30
0.0
 10
148.3414401572402
 20
78.99649445771892
 30
0.0
  0
SPLINE
  5
E5
330
1F
100
AcDbEntity
  8
0
  6
Continuous
 62
     7
370
    25
100
AcDbSpline
210
0.0
220
0.0
230
1.0
 70
     8
 71
     3
 72
    16
 73
    12
 74
     0
 42
0.00000001
 43
0.00000001
 40
0.0
 40
0.0
 40
0.0
 40
0.0
 40
0.2499999999999998
 40
0.2499999999999998
 40
0.4999999999999996
 40
0.4999999999999996
 40
0.6249999999999994
 40
0.6249999999999994
 40
0.7499999999999996
 40
0.7499999999999996
 40
1.0
 40
1.0
 40
1.0
 40
1.0
 10
148.3072107241233
 20
74.31541402545217
 30
0.0
 10
148.0991952760176
 20
74.69272211432866
 30
0.0
 10
147.9289889710446
 20
75.07274584470287
 30
0.0
 10
147.694052939477
 20
75.84036916011355
 30
0.0
 10
147.6299808078133
 20
76.22801597690234
 30
0.0
 10
147.6292478588923
 20
76.8163365287902
 30
0.0
 10
147.6449073389753
 20
77.01340972134585
 30
0.0
 10
147.7061824656123
 20
77.40346669889996
 30
0.0
 10
147.7517387381114
 20
77.59725959948798
 30
0.0
 10
147.9282247708677
 20
78.1753405842514
 30
0.0
 10
148.0988812243534
 20
78.55633844858625
 30
0.0
 10
148.3072107241233
 20
78.93421617896917
 30
0.0
  0
SPLINE
  5
E6
330
1F
100
AcDbEntity
  8
0
  6
Continuous
 62
     7
370
    25
100
AcDbSpline
210
0.0
220
0.0
230
1.0
 70
     8
 71
     3
 72
    16
 73
    12
 74
     0
 42
0.00000001
 43
0.00000001
 40
0.0
 40
0.0
 40
0.0
 40
0.0
 40
0.2499999999999999
 40
0.2499999999999999
 40
0.4999999999999998
 40
0.4999999999999998
 40
0.6249999999999998
 40
0.6249999999999998
 40
0.7499999999999999
 40
0.7499999999999999
 40
1.0
 40
1.0
 40
1.0
 40
1.0
 10
148.3072107241233
 20
59.5929821611167
 30
0.0
 10
148.0991952760176
 20
59.97029024999317
 30
0.0
 10
147.9289889710446
 20
60.35031398036733
 30
0.0
 10
147.694052939477
 20
61.11793729577798
 30
0.0
 10
147.6299808078133
 20
61.50558411256674
 30
0.0
 10
147.6292478588923
 20
62.09390466445454
 30
0.0
 10
147.6449073389753
 20
62.29097785701018
 30
0.0
 10
147.7061824656122
 20
62.68103483456425
 30
0.0
 10
147.7517387381114
 20
62.87482773515227
 30
0.0
 10
147.9282247708676
 20
63.45290871991565
 30
0.0
 10
148.0988812243532
 20
63.83390658425045
 30
0.0
 10
148.3072107241231
 20
64.21178431463335
 30
0.0
  0
SPLINE
  5
E7
330
1F
100
AcDbEntity
  8
0
  6
Continuous
 62
     7
370
    25
100
AcDbSpline
210
0.0
220
0.0
230
1.0
 70
     8
 71
     3
 72
    10
 73
     6
 74
     0
 42
0.00000001
 43
0.00000001
 40
0.0
 40
0.0
 40
0.0
 40
0.0
 40
0.1601790552921157
 40
0.7197651707803561
 40
1.0
 40
1.0
 40
1.0
 40
1.0
 10
148.3414401572402
 20
59.53070388236696
 30
0.0
 10
148.3422029473335
 20
59.52931165434057
 30
0.0
 10
148.3456305474072
 20
59.52305567261225
 30
0.0
 10
148.3311230826089
 20
59.54956293734016
 30
0.0
 10
148.3131935294911
 20
59.58211879248533
 30
0.0
 10
148.3072107241233
 20
59.59298216111669
 30
0.0
  0
LINE
  5
E8
330
1F
100
AcDbEntity
  8
0
  6
Continuous
 62
     7
370
    25
100
AcDbLine
 10
147.5851517516
 20
60.8403940893
 30
0.0
 11
147.5851517516
 21
77.6868042508
 31
0.0
  0
LINE
  5
E9
330
1F
100
AcDbEntity
  8
0
  6
Continuous
 62
     7
370
    25
100
AcDbLine
 10
150.9932142516
 20
57.26359917
 30
0.0
 11
167.9770892516
 21
57.26359917
 31
0.0
  0
SPLINE
  5
EA
330
1F
100
AcDbEntity
  8
0
  6
Continuous
 62
     7
370
    25
100
AcDbSpline
210
0.0
220
0.0
230
1.0
 70
     8
 71
     3
 72
    16
 73
    12
 74
     0
 42
0.00000001
 43
0.00000001
 40
0.0
 40
0.0
 40
0.0
 40
0.0
 40
0.2499999999999999
 40
0.2499999999999999
 40
0.4999999999999998
 40
0.4999999999999998
 40
0.6249999999999998
 40
0.6249999999999998
 40
0.7499999999999997
 40
0.7499999999999997
 40
1.0
 40
1.0
 40
1.0
 40
1.0
 10
164.5369666069749
 20
57.945975461848
 30
0.0
 10
164.9146816546979
 20
57.73773565139935
 30
0.0
 10
165.2948394033238
 20
57.56756236498991
 30
0.0
 10
166.0619327352152
 20
57.33284010537407
 30
0.0
 10
166.4489100925529
 20
57.26894213029959
 30
0.0
 10
167.0354608675776
 20
57.26791842821309
 30
0.0
 10
167.2325400275006
 20
57.28340497535779
 30
0.0
 10
167.6230691670089
 20
57.34452869681578
 30
0.0
 10
167.817100870682
 20
57.3900504241108
 30
0.0
 10
168.395904943103
 20
57.56654978785597
 30
0.0
 10
168.7773936772695
 20
57.7373717642098
 30
0.0
 10
169.155768760492
 20
57.94597546184832
 30
0.0
  0
SPLINE
  5
EB
330
1F
100
AcDbEntity
  8
0
  6
Continuous
 62
     7
370
    25
100
AcDbSpline
210
0.0
220
0.0
230
1.0
 70
     8
 71
     3
 72
    10
 73
     6
 74
     0
 42
0.00000001
 43
0.00000001
 40
0.0
 40
0.0
 40
0.0
 40
0.0
 40
0.1593935213061874
 40
0.7189934545756529
 40
1.0
 40
1.0
 40
1.0
 40
1.0
 10
169.2180608399583
 20
57.98021245142585
 30
0.0
 10
169.2194507587849
 20
57.98097397842331
 30
0.0
 10
169.2257204147317
 20
57.98440907993917
 30
0.0
 10
169.1992364729078
 20
57.96991445747257
 30
0.0
 10
169.1666590688611
 20
57.95197308697995
 30
0.0
 10
169.1557687604919
 20
57.94597546184847
 30
0.0
  0
SPLINE
  5
EC
330
1F
100
AcDbEntity
  8
0
  6
Continuous
 62
     7
370
    25
100
AcDbSpline
210
0.0
220
0.0
230
1.0
 70
     8
 71
     3
 72
     9
 73
     5
 74
     0
 42
0.00000001
 43
0.00000001
 40
0.0
 40
0.0
 40
0.0
 40
0.0
 40
0.5789479223911657
 40
1.0
 40
1.0
 40
1.0
 40
1.0
 10
149.8145347426395
 20
57.94597546184847
 30
0.0
 10
149.7920933754468
 20
57.95831635216287
 30
0.0
 10
149.7533310510223
 20
57.97963241503679
 30
0.0
 10
149.7525651481632
 20
57.98004058895118
 30
0.0
 10
149.7522426631731
 20
57.98021245142585
 30
0.0
  0
SPLINE
  5
ED
330
1F
100
AcDbEntity
  8
0
  6
Continuous
 62
     7
370
    25
100
AcDbSpline
210
0.0
220
0.0
230
1.0
 70
     8
 71
     3
 72
    16
 73
    12
 74
     0
 42
0.00000001
 43
0.00000001
 40
0.0
 40
0.0
 40
0.0
 40
0.0
 40
0.2499999999999999
 40
0.2499999999999999
 40
0.4999999999999998
 40
0.4999999999999998
 40
0.6249999999999998
 40
0.6249999999999998
 40
0.7499999999999999
 40
0.7499999999999999
 40
1.0
 40
1.0
 40
1.0
 40
1.0
 10
149.8145347426394
 20
57.945975461848
 30
0.0
 10
150.1922497903624
 20
57.73773565139935
 30
0.0
 10
150.5724075389884
 20
57.56756236498991
 30
0.0
 10
151.3395008708798
 20
57.33284010537407
 30
0.0
 10
151.7264782282175
 20
57.26894213029959
 30
0.0
 10
152.3130290032421
 20
57.26791842821309
 30
0.0
 10
152.5101081631652
 20
57.28340497535779
 30
0.0
 10
152.9006373026735
 20
57.34452869681579
 30
0.0
 10
153.0946690063465
 20
57.3900504241108
 30
0.0
 10
153.6734730787676
 20
57.56654978785597
 30
0.0
 10
154.0549618129341
 20
57.73737176420979
 30
0.0
 10
154.4333368961565
 20
57.94597546184832
 30
0.0
  0
LINE
  5
EE
330
1F
100
AcDbEntity
  8
0
  6
Continuous
 62
     7
370
    25
100
AcDbLine
 10
167.6825239214
 20
47.8375086037
 30
0.0
 11
151.2877795818
 21
47.8375086037
 31
0.0
  0
SPLINE
  5
EF
330
1F
100
AcDbEntity
  8
0
  6
Continuous
 62
     7
370
    25
100
AcDbSpline
210
0.0
220
0.0
230
1.0
 70
     8
 71
     3
 72
    12
 73
     8
 74
     0
 42
0.00000001
 43
0.00000001
 40
0.0
 40
0.0
 40
0.0
 40
0.0
 40
0.2499999999999999
 40
0.2499999999999999
 40
0.4999999999999998
 40
0.4999999999999998
 40
1.0
 40
1.0
 40
1.0
 40
1.0
 10
165.4851517515657
 20
76.62481510221068
 30
0.0
 10
165.4851517515657
 20
76.82055736509018
 30
0.0
 10
165.5009946876547
 20
77.01722397428074
 30
0.0
 10
165.5624975478923
 20
77.40649220160901
 30
0.0
 10
165.608101188936
 20
77.59989623456194
 30
0.0
 10
165.7845522064252
 20
78.17682528581871
 30
0.0
 10
165.9549495736771
 20
78.55707471902171
 30
0.0
 10
166.1628731568259
 20
78.93421617896918
 30
0.0
  0
LINE
  5
F0
330
1F
100
AcDbEntity
  8
0
  6
Continuous
 62
     7
370
    25
100
AcDbLine
 10
170.663092779
 20
78.934216179
 30
0.0
 11
166.1628731568
 21
78.934216179
 31
0.0
  0
ELLIPSE
  5
F1
330
1F
100
AcDbEntity
  8
0
  6
Continuous
 62
     7
370
    25
100
AcDbEllipse
 10
159.4851517516
 20
59.4486445938
 30
0.0
 11
8.499999999999972
 21
0.0
 31
0.0
210
0.0
220
0.0
230
1.0
 40
0.5773502692
 41
2.374833212873091
 42
2.530692279913061
  0
LINE
  5
F2
330
1F
100
AcDbEntity
  8
0
  6
Continuous
 62
     7
370
    25
100
AcDbLine
 10
152.1957755669
 20
61.9742229854
 30
0.0
 11
149.8145347426
 21
59.5929821611
 31
0.0
  0
LINE
  5
F3
330
1F
100
AcDbEntity
  8
0
  6
Continuous
 62
     7
370
    25
100
AcDbLine
 10
148.3072107241
 20
59.5929821611
 30
0.0
 11
149.8145347426
 21
59.5929821611
 31
0.0
  0
LINE
  5
F4
330
1F
100
AcDbEntity
  8
0
  6
Continuous
 62
     7
370
    25
100
AcDbLine
 10
152.8074303463
 20
78.934216179
 30
0.0
 11
148.3072107241
 21
78.934216179
 31
0.0
  0
SPLINE
  5
F5
330
1F
100
AcDbEntity
  8
0
  6
Continuous
 62
     7
370
    25
100
AcDbSpline
210
0.0
220
0.0
230
1.0
 70
     8
 71
     3
 72
    10
 73
     6
 74
     0
 42
0.00000001
 43
0.00000001
 40
0.0
 40
0.0
 40
0.0
 40
0.0
 40
0.5
 40
0.5
 40
1.0
 40
1.0
 40
1.0
 40
1.0
 10
152.8074303463055
 20
78.9342161789692
 30
0.0
 10
153.0158510991229
 20
78.55617292956703
 30
0.0
 10
153.1863149344003
 20
78.17540342477118
 30
0.0
 10
153.4212973693387
 20
77.40625489921364
 30
0.0
 10
153.4851517515657
 20
77.0178281710384
 30
0.0
 10
153.4851517515657
 20
76.62481510221068
 30
0.0
  0
ELLIPSE
  5
F6
330
1F
100
AcDbEntity
  8
0
  6
Continuous
 62
     7
370
    25
100
AcDbEllipse
 10
159.4851517516
 20
59.4486445938
 30
0.0
 11
8.499999999999972
 21
0.0
 31
0.0
210
0.0
220
0.0
230
1.0
 40
0.5773502692
 41
0.6109003736767333
 42
0.7667594407167081
  0
LINE
  5
F7
330
1F
100
AcDbEntity
  8
0
  6
Continuous
 62
     7
370
    25
100
AcDbLine
 10
169.1557687605
 20
59.5929821611
 30
0.0
 11
170.663092779
 21
59.5929821611
 31
0.0
  0
LINE
  5
F8
330
1F
100
AcDbEntity
  8
0
  6
Continuous
 62
     7
370
    25
100
AcDbLine
 10
169.1557687605
 20
59.5929821611
 30
0.0
 11
166.7745279362
 21
61.9742229854
 31
0.0
  0
LINE
  5
F9
330
1F
100
AcDbEntity
  8
0
  6
Continuous
 62
     7
370
    25
100
AcDbLine
 10
149.8145347426
 20
59.5929821611
 30
0.0
 11
149.8145347426
 21
57.9459754618
 31
0.0
  0
LINE
  5
FA
330
1F
100
AcDbEntity
  8
0
  6
Continuous
 62
     7
370
    25
100
AcDbLine
 10
169.1557687605
 20
57.9459754618
 30
0.0
 11
169.1557687605
 21
59.5929821611
 31
0.0
  0
LINE
  5
FB
330
1F
100
AcDbEntity
  8
0
  6
Continuous
 62
     7
370
    25
100
AcDbLine
 10
166.4851517516
 20
45.76359917
 30
0.0
 11
152.4851517516
 21
45.76359917
 31
0.0
  0
LINE
  5
FC
330
1F
100
AcDbEntity
  8
0
  6
Continuous
 62
     7
370
    25
100
AcDbLine
 10
165.4851517516
 20
63.26359917
 30
0.0
 11
163.4851517516
 21
65.26359917
 31
0.0
  0
LINE
  5
FD
330
1F
100
AcDbEntity
  8
0
  6
Continuous
 62
     7
370
    25
100
AcDbLine
 10
163.4851517516
 20
62.26359917
 30
0.0
 11
166.4477728242
 21
62.26359917
 31
0.0
  0
LINE
  5
FE
330
1F
100
AcDbEntity
  8
0
  6
Continuous
 62
     7
370
    25
100
AcDbLine
 10
155.4851517516
 20
65.26359917
 30
0.0
 11
153.4851517516
 21
63.26359917
 31
0.0
  0
LINE
  5
FF
330
1F
100
AcDbEntity
  8
0
  6
Continuous
 62
     7
370
    25
100
AcDbLine
 10
152.5225306789
 20
62.26359917
 30
0.0
 11
155.4851517516
 21
62.26359917
 31
0.0
  0
LINE
  5
100
330
1F
100
AcDbEntity
  8
0
  6
Continuous
 62
     7
370
    25
100
AcDbLine
 10
153.4851517516
 20
77.1980536483
 30
0.0
 11
153.4851517516
 21
76.6248151022
 31
0.0
  0
SPLINE
  5
101
330
1F
100
AcDbEntity
  8
0
  6
Continuous
 62
     7
370
    25
100
AcDbSpline
210
0.0
220
0.0
230
1.0
 70
     8
 71
     3
 72
    32
 73
    28
 74
     0
 42
0.00000001
 43
0.00000001
 40
0.0
 40
0.0
 40
0.0
 40
0.0
 40
0.0625000000000001
 40
0.0625000000000001
 40
0.1250000000000001
 40
0.1250000000000001
 40
0.1875000000000002
 40
0.1875000000000002
 40
0.2500000000000003
 40
0.2500000000000003
 40
0.3750000000000003
 40
0.3750000000000003
 40
0.4375000000000003
 40
0.4375000000000003
 40
0.5000000000000002
 40
0.5000000000000002
 40
0.5625000000000002
 40
0.5625000000000002
 40
0.6250000000000001
 40
0.6250000000000001
 40
0.7500000000000001
 40
0.7500000000000001
 40
0.8750000000000002
 40
0.8750000000000002
 40
0.9375000000000001
 40
0.9375000000000001
 40
1.0
 40
1.0
 40
1.0
 40
1.0
 10
165.4851517515572
 20
77.19805364826358
 30
0.0
 10
165.3282954156404
 20
77.10309667036788
 30
0.0
 10
165.1552969814847
 20
77.00034349574271
 30
0.0
 10
164.7785923948589
 20
76.78363229409443
 30
0.0
 10
164.5757396144022
 20
76.67021358360444
 30
0.0
 10
164.1497583515996
 20
76.44212344690627
 30
0.0
 10
163.9255803913116
 20
76.3268165644544
 30
0.0
 10
163.4542292977352
 20
76.09849346207963
 30
0.0
 10
163.2055437823701
 20
75.98484344594587
 30
0.0
 10
162.4349712976785
 20
75.66177941471183
 30
0.0
 10
161.8893338875963
 20
75.46888089054833
 30
0.0
 10
161.0065541391
 20
75.25728696527463
 30
0.0
 10
160.7079150392271
 20
75.20164457915689
 30
0.0
 10
160.1014134385114
 20
75.12597650979305
 30
0.0
 10
159.7912661998454
 20
75.10600326401673
 30
0.0
 10
159.1711807111616
 20
75.10633703026997
 30
0.0
 10
158.8646096736936
 20
75.12633599559277
 30
0.0
 10
158.2579549263855
 20
75.20237478178923
 30
0.0
 10
157.9555818617601
 20
75.25902788192077
 30
0.0
 10
157.0789455590072
 20
75.46980643196663
 30
0.0
 10
156.5308914270302
 20
75.66335226253838
 30
0.0
 10
155.500394159787
 20
76.09597155581417
 30
0.0
 10
155.0328341245075
 20
76.32844820050461
 30
0.0
 10
154.3946205208796
 20
76.67018620142365
 30
0.0
 10
154.1914107826898
 20
76.78380371685203
 30
0.0
 10
153.8150738562953
 20
77.00030610920827
 30
0.0
 10
153.6420952478038
 20
77.10304390565265
 30
0.0
 10
153.4851517515657
 20
77.19805364826874
 30
0.0
  0
LINE
  5
102
330
1F
100
AcDbEntity
  8
0
  6
Continuous
 62
     7
370
    25
100
AcDbLine
 10
165.4851517516
 20
77.1980536483
 30
0.0
 11
165.4851517516
 21
76.6248151022
 31
0.0
  0
SPLINE
  5
103
330
1F
100
AcDbEntity
  8
0
  6
Continuous
 62
     7
370
    25
100
AcDbSpline
210
0.0
220
0.0
230
1.0
 70
     8
 71
     3
 72
    12
 73
     8
 74
     0
 42
0.00000001
 43
0.00000001
 40
0.0
 40
0.0
 40
0.0
 40
0.0
 40
0.0860276384484858
 40
0.3125921905364371
 40
0.5444262578673806
 40
0.772029644149985
 40
1.0
 40
1.0
 40
1.0
 40
1.0
 10
165.6584989390327
 20
78.05650076374405
 30
0.0
 10
165.6597091881246
 20
78.06053068738586
 30
0.0
 10
165.6641067796608
 20
78.07517391927747
 30
0.0
 10
165.6315843863695
 20
77.96759649300424
 30
0.0
 10
165.5755562101851
 20
77.76144767716352
 30
0.0
 10
165.5073633823894
 20
77.47820719975286
 30
0.0
 10
165.4925596033749
 20
77.29148830012183
 30
0.0
 10
165.4851517515657
 20
77.1980536482616
 30
0.0
  0
SPLINE
  5
104
330
1F
100
AcDbEntity
  8
0
  6
Continuous
 62
     7
370
    25
100
AcDbSpline
210
0.0
220
0.0
230
1.0
 70
     8
 71
     3
 72
    11
 73
     7
 74
     0
 42
0.00000001
 43
0.00000001
 40
0.0
 40
0.0
 40
0.0
 40
0.0
 40
0.3176290063312592
 40
0.6359451303407148
 40
0.8656693413736148
 40
1.0
 40
1.0
 40
1.0
 40
1.0
 10
153.4851517515657
 20
77.19805364826865
 30
0.0
 10
153.4715130187062
 20
77.32931819585613
 30
0.0
 10
153.4442060487094
 20
77.59213125184505
 30
0.0
 10
153.3562010679715
 20
77.90377691058892
 30
0.0
 10
153.3116400191161
 20
78.05752572618937
 30
0.0
 10
153.3119890780578
 20
78.05601115832886
 30
0.0
 10
153.3121178754492
 20
78.0554523060371
 30
0.0
  0
LINE
  5
105
330
1F
100
AcDbEntity
  8
0
  6
Continuous
 62
     7
370
    25
100
AcDbLine
 10
165.3799329349
 20
78.75906835
 30
0.0
 11
165.3825642296
 21
78.7612926125
 31
0.0
  0
SPLINE
  5
106
330
1F
100
AcDbEntity
  8
0
  6
Continuous
 62
     7
370
    25
100
AcDbSpline
210
0.0
220
0.0
230
1.0
 70
     8
 71
     3
 72
    10
 73
     6
 74
     0
 42
0.00000001
 43
0.00000001
 40
0.0
 40
0.0
 40
0.0
 40
0.0
 40
0.1601790552921523
 40
0.7197651707804853
 40
1.0
 40
1.0
 40
1.0
 40
1.0
 10
152.7732009131886
 20
78.99649445771892
 30
0.0
 10
152.7724381230954
 20
78.99788668574529
 30
0.0
 10
152.7690105230216
 20
79.0041426674736
 30
0.0
 10
152.7835179878199
 20
78.9776354027457
 30
0.0
 10
152.8014475409377
 20
78.94507954760056
 30
0.0
 10
152.8074303463055
 20
78.9342161789692
 30
0.0
  0
SPLINE
  5
107
330
1F
100
AcDbEntity
  8
0
  6
Continuous
 62
     7
370
    25
100
AcDbSpline
210
0.0
220
0.0
230
1.0
 70
     8
 71
     3
 72
     9
 73
     5
 74
     0
 42
0.00000001
 43
0.00000001
 40
0.0
 40
0.0
 40
0.0
 40
0.0
 40
0.5797912171256431
 40
1.0
 40
1.0
 40
1.0
 40
1.0
 10
166.1628731568259
 20
78.93421617896918
 30
0.0
 10
166.1752317601724
 20
78.9566898272103
 30
0.0
 10
166.1965473699668
 20
78.99545144963112
 30
0.0
 10
166.1969383124695
 20
78.99618585438934
 30
0.0
 10
166.1971025899428
 20
78.99649445771892
 30
0.0
  0
LINE
  5
108
330
1F
100
AcDbEntity
  8
0
  6
Continuous
 62
     7
370
    25
100
AcDbLine
 10
169.2227560586
 20
59.525994863
 30
0.0
 11
169.1557687605
 21
59.5929821611
 31
0.0
  0
LINE
  5
109
330
1F
100
AcDbEntity
  8
0
  6
Continuous
 62
     7
370
    25
100
AcDbLine
 10
149.8145347426
 20
59.5929821611
 30
0.0
 11
149.7475474445
 21
59.525994863
 31
0.0
  0
LINE
  5
10A
330
1F
100
AcDbEntity
  8
0
  6
Continuous
 62
     7
370
    25
100
AcDbLine
 10
154.2460664189
 20
96.36359917
 30
0.0
 11
154.2460664189
 21
95.76359917
 31
0.0
  0
LINE
  5
10B
330
1F
100
AcDbEntity
  8
0
  6
Continuous
 62
     7
370
    25
100
AcDbLine
 10
164.7242370842
 20
96.36359917
 30
0.0
 11
154.2460664189
 21
96.36359917
 31
0.0
  0
LINE
  5
10C
330
1F
100
AcDbEntity
  8
0
  6
Continuous
 62
     7
370
    25
100
AcDbLine
 10
164.7242370842
 20
95.76359917
 30
0.0
 11
164.7242370842
 21
96.36359917
 31
0.0
  0
LINE
  5
10D
330
1F
100
AcDbEntity
  8
0
  6
Continuous
 62
     7
370
    25
100
AcDbLine
 10
154.2460664189
 20
95.76359917
 30
0.0
 11
164.7242370842
 21
95.76359917
 31
0.0
  0
SPLINE
  5
10E
330
1F
100
AcDbEntity
  8
0
  6
Continuous
 62
     7
370
    25
100
AcDbSpline
210
0.0
220
0.0
230
1.0
 70
     8
 71
     3
 72
    15
 73
    11
 74
     0
 42
0.00000001
 43
0.00000001
 40
0.0
 40
0.0
 40
0.0
 40
0.0
 40
0.0081667445812695
 40
0.3321939991490083
 40
0.4756279600585602
 40
0.6866830973284899
 40
0.8457435502264811
 40
0.8967566214763185
 40
0.9909540928118029
 40
1.0
 40
1.0
 40
1.0
 40
1.0
 10
154.3861322379729
 20
96.61359917004293
 30
0.0
 10
154.38564470383
 20
96.61359649369714
 30
0.0
 10
154.365813556298
 20
96.6134876295103
 30
0.0
 10
154.3375327762887
 20
96.60394161724092
 30
0.0
 10
154.2997034777999
 20
96.56657923398637
 30
0.0
 10
154.2731195812324
 20
96.5217137192517
 30
0.0
 10
154.2559497574774
 20
96.46383741967477
 30
0.0
 10
154.248132761261
 20
96.41316137970287
 30
0.0
 10
154.2461370748251
 20
96.38446710018283
 30
0.0
 10
154.2460721108743
 20
96.36528026862736
 30
0.0
 10
154.2460664189076
 20
96.36359917004293
 30
0.0
  0
LINE
  5
10F
330
1F
100
AcDbEntity
  8
0
  6
Continuous
 62
     7
370
    25
100
AcDbLine
 10
154.386132238
 20
96.61359917
 30
0.0
 11
164.5841712652
 21
96.61359917
 31
0.0
  0
SPLINE
  5
110
330
1F
100
AcDbEntity
  8
0
  6
Continuous
 62
     7
370
    25
100
AcDbSpline
210
0.0
220
0.0
230
1.0
 70
     8
 71
     3
 72
    15
 73
    11
 74
     0
 42
0.00000001
 43
0.00000001
 40
0.0
 40
0.0
 40
0.0
 40
0.0
 40
0.0090459071881971
 40
0.1032433785236874
 40
0.1542564497735246
 40
0.313316902671511
 40
0.5243720399414428
 40
0.6678060008509903
 40
0.9918332554187292
 40
1.0
 40
1.0
 40
1.0
 40
1.0
 10
164.7242370842238
 20
96.36359917004293
 30
0.0
 10
164.7242313922571
 20
96.36528026862734
 30
0.0
 10
164.7241664283064
 20
96.38446710018289
 30
0.0
 10
164.7221707418705
 20
96.41316137970286
 30
0.0
 10
164.714353745654
 20
96.46383741967482
 30
0.0
 10
164.697183921899
 20
96.52171371925168
 30
0.0
 10
164.6706000253315
 20
96.56657923398637
 30
0.0
 10
164.6327707268428
 20
96.6039416172409
 30
0.0
 10
164.6044899468334
 20
96.61348762951037
 30
0.0
 10
164.5846587993014
 20
96.61359649369714
 30
0.0
 10
164.5841712651585
 20
96.61359917004293
 30
0.0
  0
LINE
  5
111
330
1F
100
AcDbEntity
  8
0
  6
Continuous
 62
     7
370
    25
100
AcDbLine
 10
154.0079261765
 20
96.36359917
 30
0.0
 11
154.2460664189
 21
96.36359917
 31
0.0
  0
SPLINE
  5
112
330
1F
100
AcDbEntity
  8
0
  6
Continuous
 62
     7
370
    25
100
AcDbSpline
210
0.0
220
0.0
230
1.0
 70
     8
 71
     3
 72
    15
 73
    11
 74
     0
 42
0.00000001
 43
0.00000001
 40
0.0
 40
0.0
 40
0.0
 40
0.0
 40
0.0089557228015919
 40
0.0999003359608148
 40
0.153163246058169
 40
0.3125636920784848
 40
0.5249666935694999
 40
0.6689893599352451
 40
0.9919152533810159
 40
1.0
 40
1.0
 40
1.0
 40
1.0
 10
154.007926176514
 20
96.36359917004293
 30
0.0
 10
154.0079419320926
 20
96.36528029561583
 30
0.0
 10
154.0081176842492
 20
96.38403311024027
 30
0.0
 10
154.0135467002687
 20
96.41279533934775
 30
0.0
 10
154.035082183976
 20
96.4636824128161
 30
0.0
 10
154.0827876122409
 20
96.52181806294874
 30
0.0
 10
154.1551785572328
 20
96.56652593613214
 30
0.0
 10
154.2570976692506
 20
96.6038077595939
 30
0.0
 10
154.332452760705
 20
96.61348691443148
 30
0.0
 10
154.3848524064288
 20
96.61359649363324
 30
0.0
 10
154.3861322379729
 20
96.61359917004293
 30
0.0
  0
LINE
  5
113
330
1F
100
AcDbEntity
  8
0
  6
Continuous
 62
     7
370
    25
100
AcDbLine
 10
164.7242370842
 20
96.36359917
 30
0.0
 11
164.9623773266
 21
96.36359917
 31
0.0
  0
SPLINE
  5
114
330
1F
100
AcDbEntity
  8
0
  6
Continuous
 62
     7
370
    25
100
AcDbSpline
210
0.0
220
0.0
230
1.0
 70
     8
 71
     3
 72
    15
 73
    11
 74
     0
 42
0.00000001
 43
0.00000001
 40
0.0
 40
0.0
 40
0.0
 40
0.0
 40
0.0080847466189818
 40
0.3310106400647567
 40
0.4750333064304972
 40
0.6874363079215137
 40
0.8468367539418253
 40
0.9000996640391794
 40
0.9910442771984082
 40
1.0
 40
1.0
 40
1.0
 40
1.0
 10
164.5841712651585
 20
96.61359917004293
 30
0.0
 10
164.5854510967026
 20
96.61359649363325
 30
0.0
 10
164.6378507424264
 20
96.61348691443146
 30
0.0
 10
164.7132058338809
 20
96.6038077595939
 30
0.0
 10
164.8151249458986
 20
96.56652593613215
 30
0.0
 10
164.8875158908905
 20
96.52181806294874
 30
0.0
 10
164.9352213191554
 20
96.46368241281608
 30
0.0
 10
164.9567568028627
 20
96.41279533934777
 30
0.0
 10
164.9621858188822
 20
96.3840331102403
 30
0.0
 10
164.9623615710388
 20
96.36528029561583
 30
0.0
 10
164.9623773266174
 20
96.36359917004293
 30
0.0
  0
LINE
  5
115
330
1F
100
AcDbEntity
  8
0
  6
Continuous
 62
     7
370
    25
100
AcDbLine
 10
154.0079261765
 20
95.76359917
 30
0.0
 11
154.0079261765
 21
96.36359917
 31
0.0
  0
LINE
  5
116
330
1F
100
AcDbEntity
  8
0
  6
Continuous
 62
     7
370
    25
100
AcDbLine
 10
154.2460664189
 20
95.76359917
 30
0.0
 11
154.0079261765
 21
95.76359917
 31
0.0
  0
LINE
  5
117
330
1F
100
AcDbEntity
  8
0
  6
Continuous
 62
     7
370
    25
100
AcDbLine
 10
164.9623773266
 20
96.36359917
 30
0.0
 11
164.9623773266
 21
95.76359917
 31
0.0
  0
LINE
  5
118
330
1F
100
AcDbEntity
  8
0
  6
Continuous
 62
     7
370
    25
100
AcDbLine
 10
164.9623773266
 20
95.76359917
 30
0.0
 11
164.7242370842
 21
95.76359917
 31
0.0
  0
LINE
  5
119
330
1F
100
AcDbEntity
  8
0
  6
Continuous
 62
     7
370
    25
100
AcDbLine
 10
153.7351517516
 20
96.36359917
 30
0.0
 11
153.7351517516
 21
95.76359917
 31
0.0
  0
LINE
  5
11A
330
1F
100
AcDbEntity
  8
0
  6
Continuous
 62
     7
370
    25
100
AcDbLine
 10
154.0079261765
 20
96.36359917
 30
0.0
 11
153.7351517516
 21
96.36359917
 31
0.0
  0
LINE
  5
11B
330
1F
100
AcDbEntity
  8
0
  6
Continuous
 62
     7
370
    25
100
AcDbLine
 10
154.0079261765
 20
95.76359917
 30
0.0
 11
153.7351517516
 21
95.76359917
 31
0.0
  0
LINE
  5
11C
330
1F
100
AcDbEntity
  8
0
  6
Continuous
 62
     7
370
    25
100
AcDbLine
 10
153.7351517516
 20
96.61359917
 30
0.0
 11
153.7351517516
 21
96.36359917
 31
0.0
  0
LINE
  5
11D
330
1F
100
AcDbEntity
  8
0
  6
Continuous
 62
     7
370
    25
100
AcDbLine
 10
153.7351517516
 20
96.61359917
 30
0.0
 11
154.386132238
 21
96.61359917
 31
0.0
  0
LINE
  5
11E
330
1F
100
AcDbEntity
  8
0
  6
Continuous
 62
     7
370
    25
100
AcDbLine
 10
153.4851517516
 20
96.36359917
 30
0.0
 11
153.7351517516
 21
96.36359917
 31
0.0
  0
ARC
  5
11F
330
1F
100
AcDbEntity
  8
0
  6
Continuous
 62
     7
370
    25
100
AcDbCircle
 10
153.7351517516
 20
96.36359917
 30
0.0
 40
0.25
100
AcDbArc
 50
90.0
 51
180.0
  0
LINE
  5
120
330
1F
100
AcDbEntity
  8
0
  6
Continuous
 62
     7
370
    25
100
AcDbLine
 10
153.4851517516
 20
95.76359917
 30
0.0
 11
153.4851517516
 21
96.36359917
 31
0.0
  0
LINE
  5
121
330
1F
100
AcDbEntity
  8
0
  6
Continuous
 62
     7
370
    25
100
AcDbLine
 10
153.7351517516
 20
95.76359917
 30
0.0
 11
153.4851517516
 21
95.76359917
 31
0.0
  0
LINE
  5
122
330
1F
100
AcDbEntity
  8
0
  6
Continuous
 62
     7
370
    25
100
AcDbLine
 10
165.2351517516
 20
96.36359917
 30
0.0
 11
165.2351517516
 21
96.61359917
 31
0.0
  0
LINE
  5
123
330
1F
100
AcDbEntity
  8
0
  6
Continuous
 62
     7
370
    25
100
AcDbLine
 10
165.2351517516
 20
96.36359917
 30
0.0
 11
164.9623773266
 21
96.36359917
 31
0.0
  0
LINE
  5
124
330
1F
100
AcDbEntity
  8
0
  6
Continuous
 62
     7
370
    25
100
AcDbLine
 10
164.5841712652
 20
96.61359917
 30
0.0
 11
165.2351517516
 21
96.61359917
 31
0.0
  0
LINE
  5
125
330
1F
100
AcDbEntity
  8
0
  6
Continuous
 62
     7
370
    25
100
AcDbLine
 10
165.2351517516
 20
95.76359917
 30
0.0
 11
165.2351517516
 21
96.36359917
 31
0.0
  0
LINE
  5
126
330
1F
100
AcDbEntity
  8
0
  6
Continuous
 62
     7
370
    25
100
AcDbLine
 10
165.2351517516
 20
96.36359917
 30
0.0
 11
165.4851517516
 21
96.36359917
 31
0.0
  0
LINE
  5
127
330
1F
100
AcDbEntity
  8
0
  6
Continuous
 62
     7
370
    25
100
AcDbLine
 10
165.4851517516
 20
96.36359917
 30
0.0
 11
165.4851517516
 21
95.76359917
 31
0.0
  0
LINE
  5
128
330
1F
100
AcDbEntity
  8
0
  6
Continuous
 62
     7
370
    25
100
AcDbLine
 10
165.4851517516
 20
95.76359917
 30
0.0
 11
165.2351517516
 21
95.76359917
 31
0.0
  0
ARC
  5
129
330
1F
100
AcDbEntity
  8
0
  6
Continuous
 62
     7
370
    25
100
AcDbCircle
 10
165.2351517516
 20
96.36359917
 30
0.0
 40
0.25
100
AcDbArc
 50
0.0
 51
90.0
  0
LINE
  5
12A
330
1F
100
AcDbEntity
  8
0
  6
Continuous
 62
     7
370
    25
100
AcDbLine
 10
165.2351517516
 20
95.76359917
 30
0.0
 11
164.9623773266
 21
95.76359917
 31
0.0
  0
LINE
  5
12B
330
1F
100
AcDbEntity
  8
0
  6
Continuous
 62
     7
370
    25
100
AcDbLine
 10
154.4851517516
 20
96.62359917
 30
0.0
 11
164.4851517516
 21
96.62359917
 31
0.0
  0
LINE
  5
12C
330
1F
100
AcDbEntity
  8
0
  6
Continuous
 62
     7
370
    25
100
AcDbLine
 10
164.4851517516
 20
96.61359917
 30
0.0
 11
164.4851517516
 21
96.62359917
 31
0.0
  0
LINE
  5
12D
330
1F
100
AcDbEntity
  8
0
  6
Continuous
 62
     7
370
    25
100
AcDbLine
 10
154.4851517516
 20
96.61359917
 30
0.0
 11
154.4851517516
 21
96.62359917
 31
0.0
  0
LINE
  5
12E
330
1F
100
AcDbEntity
  8
0
  6
Continuous
 62
     7
370
    25
100
AcDbLine
 10
155.0106048675
 20
87.76359917
 30
0.0
 11
166.9351517516
 21
87.76359917
 31
0.0
  0
LINE
  5
12F
330
1F
100
AcDbEntity
  8
0
  6
Continuous
 62
     7
370
    25
100
AcDbLine
 10
155.7708156232
 20
88.758342748
 30
0.0
 11
155.0106048675
 21
87.76359917
 31
0.0
  0
LINE
  5
130
330
1F
100
AcDbEntity
  8
0
  6
Continuous
 62
     7
370
    25
100
AcDbLine
 10
154.2613495772
 20
95.76359917
 30
0.0
 11
152.5332109132
 21
88.758342748
 31
0.0
  0
LINE
  5
131
330
1F
100
AcDbEntity
  8
0
  6
Continuous
 62
     7
370
    25
100
AcDbLine
 10
164.7242370842
 20
95.76359917
 30
0.0
 11
154.2613495772
 21
95.76359917
 31
0.0
  0
LINE
  5
132
330
1F
100
AcDbEntity
  8
0
  6
Continuous
 62
     7
370
    25
100
AcDbLine
 10
157.4851517516
 20
79.76359917
 30
0.0
 11
166.4851517516
 21
79.76359917
 31
0.0
  0
LINE
  5
133
330
1F
100
AcDbEntity
  8
0
  6
Continuous
 62
     7
370
    25
100
AcDbLine
 10
157.4851517516
 20
79.8014160938
 30
0.0
 11
157.4851517516
 21
79.76359917
 31
0.0
  0
SPLINE
  5
134
330
1F
100
AcDbEntity
  8
0
  6
Continuous
 62
     7
370
    25
100
AcDbSpline
210
0.0
220
0.0
230
1.0
 70
     8
 71
     3
 72
     9
 73
     5
 74
     0
 42
0.00000001
 43
0.00000001
 40
0.0
 40
0.0
 40
0.0
 40
0.0
 40
0.4875141023677128
 40
0.9999999999999999
 40
0.9999999999999999
 40
0.9999999999999999
 40
0.9999999999999999
 10
157.3292065011385
 20
79.763599170043
 30
0.0
 10
157.3555130750611
 20
79.7653265160147
 30
0.0
 10
157.4094737170093
 20
79.76886968730618
 30
0.0
 10
157.4595092477041
 20
79.79038817325548
 30
0.0
 10
157.4851517515657
 20
79.80141609384292
 30
0.0
  0
SPLINE
  5
135
330
1F
100
AcDbEntity
  8
0
  6
Continuous
 62
     7
370
    25
100
AcDbSpline
210
0.0
220
0.0
230
1.0
 70
     8
 71
     3
 72
    17
 73
    13
 74
     0
 42
0.00000001
 43
0.00000001
 40
0.0
 40
0.0
 40
0.0
 40
0.0
 40
0.3241697628029873
 40
0.5422758463620719
 40
0.689509052693928
 40
0.7894036290694505
 40
0.8577090008137825
 40
0.9049823971474137
 40
0.9551712229700868
 40
0.9753097783197817
 40
0.9919572060138848
 40
1.0
 40
1.0
 40
1.0
 40
1.0
 10
155.0106048674836
 20
87.76359917004056
 30
0.0
 10
155.1533202275007
 20
86.85098566743488
 30
0.0
 10
155.3920565364427
 20
85.32435266117355
 30
0.0
 10
155.7716437308943
 20
83.39757975889258
 30
0.0
 10
156.0807779392414
 20
82.10994428795982
 30
0.0
 10
156.3368914674415
 20
81.25079232123807
 30
0.0
 10
156.5512024703365
 20
80.67732443286066
 30
0.0
 10
156.7544366913644
 20
80.2557922788307
 30
0.0
 10
156.9389819559071
 20
79.97529973603527
 30
0.0
 10
157.1250530422752
 20
79.8197510674546
 30
0.0
 10
157.2402636415311
 20
79.7691404682571
 30
0.0
 10
157.307352447004
 20
79.76496071645246
 30
0.0
 10
157.3292065011385
 20
79.763599170043
 30
0.0
  0
SPLINE
  5
136
330
1F
100
AcDbEntity
  8
0
  6
Continuous
 62
     7
370
    25
100
AcDbSpline
210
0.0
220
0.0
230
1.0
 70
     8
 71
     3
 72
    14
 73
    10
 74
     0
 42
0.00000001
 43
0.00000001
 40
0.0
 40
0.0
 40
0.0
 40
0.0
 40
0.1576095309202822
 40
0.3152382602707094
 40
0.4726926441579498
 40
0.6301650083177254
 40
0.7907313191165901
 40
0.9513050385928076
 40
1.0
 40
1.0
 40
1.0
 40
1.0
 10
152.9851517515657
 20
79.76359917004292
 30
0.0
 10
152.9185807367837
 20
79.97710095852032
 30
0.0
 10
152.7854305981987
 20
80.40413054214585
 30
0.0
 10
152.456863636448
 20
80.98937762100215
 30
0.0
 10
152.043473995716
 20
81.51153216182458
 30
0.0
 10
151.5477990767714
 20
81.96051028924445
 30
0.0
 10
150.9815093714869
 20
82.31979202105083
 30
0.0
 10
150.5052587150938
 20
82.52435820015201
 30
0.0
 10
150.2250641469011
 20
82.60515274850331
 30
0.0
 10
150.159865362128
 20
82.62395292155009
 30
0.0
  0
LINE
  5
137
330
1F
100
AcDbEntity
  8
0
  6
Continuous
 62
     7
370
    25
100
AcDbLine
 10
150.1598653621
 20
82.6239529216
 30
0.0
 11
144.3801085123
 21
84.192574362
 31
0.0
  0
SPLINE
  5
138
330
1F
100
AcDbEntity
  8
0
  6
Continuous
 62
     7
370
    25
100
AcDbSpline
210
0.0
220
0.0
230
1.0
 70
     8
 71
     3
 72
    11
 73
     7
 74
     0
 42
0.00000001
 43
0.00000001
 40
0.0
 40
0.0
 40
0.0
 40
0.0
 40
0.2488466353289361
 40
0.4976946020535204
 40
0.7488461225871278
 40
1.0
 40
1.0
 40
1.0
 40
1.0
 10
137.3097148900291
 20
85.51577486301848
 30
0.0
 10
137.9041509391653
 20
85.44625048652485
 30
0.0
 10
139.0930262178287
 20
85.30720136156367
 30
0.0
 10
140.8677508885378
 20
85.0068726234384
 30
0.0
 10
142.6343315302801
 20
84.64496300518323
 30
0.0
 10
143.7981810312998
 20
84.34337104811867
 30
0.0
 10
144.3801085122728
 20
84.19257436203297
 30
0.0
  0
LINE
  5
139
330
1F
100
AcDbEntity
  8
0
  6
Continuous
 62
     7
370
    25
100
AcDbLine
 10
137.30971489
 20
85.515774863
 30
0.0
 11
137.30971489
 21
88.758342748
 31
0.0
  0
LINE
  5
13A
330
1F
100
AcDbEntity
  8
0
  6
Continuous
 62
     7
370
    25
100
AcDbLine
 10
137.30971489
 20
88.758342748
 30
0.0
 11
155.7708156232
 21
88.758342748
 31
0.0
  0
LINE
  5
13B
330
1F
100
AcDbEntity
  8
0
  6
Continuous
 62
     7
370
    25
100
AcDbLine
 10
157.3292065011
 20
79.76359917
 30
0.0
 11
152.9851517516
 21
79.76359917
 31
0.0
  0
LINE
  5
13C
330
1F
100
AcDbEntity
  8
0
  6
Continuous
 62
     7
370
    25
100
AcDbLine
 10
157.4851517516
 20
79.8014160938
 30
0.0
 11
157.4783523936
 21
79.76359917
 31
0.0
  0
LINE
  5
13D
330
1F
100
AcDbEntity
  8
0
  6
Continuous
 62
     7
370
    25
100
AcDbLine
 10
157.4851517516
 20
79.76359917
 30
0.0
 11
157.4783523936
 21
79.76359917
 31
0.0
  0
LINE
  5
13E
330
1F
100
AcDbEntity
  8
0
  6
Continuous
 62
     7
370
    25
100
AcDbLine
 10
157.4783523936
 20
79.76359917
 30
0.0
 11
157.3292065011
 21
79.76359917
 31
0.0
  0
LINE
  5
13F
330
1F
100
AcDbEntity
  8
0
  6
Continuous
 62
     7
370
    25
100
AcDbLine
 10
119.4851517516
 20
97.76359917
 30
0.0
 11
137.30971489
 21
97.76359917
 31
0.0
  0
LINE
  5
140
330
1F
100
AcDbEntity
  8
0
  6
Continuous
 62
     7
370
    25
100
AcDbLine
 10
137.30971489
 20
97.76359917
 30
0.0
 11
137.30971489
 21
88.758342748
 31
0.0
  0
LINE
  5
141
330
1F
100
AcDbEntity
  8
0
  6
Continuous
 62
     7
370
    25
100
AcDbLine
 10
132.5934838938
 20
85.76359917
 30
0.0
 11
124.4851517516
 21
85.76359917
 31
0.0
  0
ARC
  5
142
330
1F
100
AcDbEntity
  8
0
  6
Continuous
 62
     7
370
    25
100
AcDbCircle
 10
124.4851517516
 20
90.76359917
 30
0.0
 40
4.999999999999986
100
AcDbArc
 50
180.0
 51
270.0
  0
LINE
  5
143
330
1F
100
AcDbEntity
  8
0
  6
Continuous
 62
     7
370
    25
100
AcDbLine
 10
119.4851517516
 20
90.76359917
 30
0.0
 11
119.4851517516
 21
97.76359917
 31
0.0
  0
ARC
  5
144
330
1F
100
AcDbEntity
  8
0
  6
Continuous
 62
     7
370
    25
100
AcDbCircle
 10
132.5934838938
 20
40.7634699159
 30
0.0
 40
45.00012925418375
100
AcDbArc
 50
83.9840777705
 51
90.0
  0
LINE
  5
145
330
1F
100
AcDbEntity
  8
0
  6
Continuous
 62
     7
370
    25
100
AcDbLine
 10
137.30971489
 20
97.76359917
 30
0.0
 11
139.4851517516
 21
97.76359917
 31
0.0
  0
LINE
  5
146
330
1F
100
AcDbEntity
  8
0
  6
Continuous
 62
     7
370
    25
100
AcDbLine
 10
139.4851517516
 20
97.76359917
 30
0.0
 11
139.4851517516
 21
95.7825546934
 31
0.0
  0
ARC
  5
147
330
1F
100
AcDbEntity
  8
0
  6
Continuous
 62
     7
370
    25
100
AcDbCircle
 10
145.4851517516
 20
95.7825546934
 30
0.0
 40
6.000000000000005
100
AcDbArc
 50
180.0
 51
275.5801667845
  0
ARC
  5
148
330
1F
100
AcDbEntity
  8
0
  6
Continuous
 62
     7
370
    25
100
AcDbCircle
 10
145.0961981873
 20
99.76359917
 30
0.0
 40
10.00000000000848
100
AcDbArc
 50
275.5801667845
 51
336.4218215217
  0
LINE
  5
149
330
1F
100
AcDbEntity
  8
0
  6
Continuous
 62
     7
370
    25
100
AcDbLine
 10
152.9851517516
 20
79.76359917
 30
0.0
 11
152.4851517516
 21
79.76359917
 31
0.0
  0
LINE
  5
14A
330
1F
100
AcDbEntity
  8
0
  6
Continuous
 62
     7
370
    25
100
AcDbLine
 10
154.2460664189
 20
95.76359917
 30
0.0
 11
154.2613495772
 21
95.76359917
 31
0.0
  0
LINE
  5
14B
330
1F
100
AcDbEntity
  8
0
  6
Continuous
 62
     7
370
    25
100
AcDbLine
 10
144.7851517516
 20
74.2570795526
 30
0.0
 11
144.7851517516
 21
61.26359917
 31
0.0
  0
LINE
  5
14C
330
1F
100
AcDbEntity
  8
0
  6
Continuous
 62
     7
370
    25
100
AcDbLine
 10
144.7851517516
 20
77.26359917
 30
0.0
 11
144.7851517516
 21
74.2570795526
 31
0.0
  0
LINE
  5
14D
330
1F
100
AcDbEntity
  8
0
  6
Continuous
 62
     7
370
    25
100
AcDbLine
 10
144.5851517516
 20
74.1322425431
 30
0.0
 11
144.5851517516
 21
77.06359917
 31
0.0
  0
LINE
  5
14E
330
1F
100
AcDbEntity
  8
0
  6
Continuous
 62
     7
370
    25
100
AcDbLine
 10
144.5851517516
 20
61.46359917
 30
0.0
 11
144.5851517516
 21
74.1322425431
 31
0.0
  0
LINE
  5
14F
330
1F
100
AcDbEntity
  8
0
  6
Continuous
 62
     7
370
    25
100
AcDbLine
 10
135.0851517516
 20
72.3907662596
 30
0.0
 11
135.0851517516
 21
64.25359917
 31
0.0
  0
LINE
  5
150
330
1F
100
AcDbEntity
  8
0
  6
Continuous
 62
     7
370
    25
100
AcDbLine
 10
135.0851517516
 20
74.27359917
 30
0.0
 11
135.0851517516
 21
72.3907662596
 31
0.0
  0
SPLINE
  5
151
330
1F
100
AcDbEntity
  8
0
  6
Continuous
 62
     7
370
    25
100
AcDbSpline
210
0.0
220
0.0
230
1.0
 70
     8
 71
     3
 72
    30
 73
    26
 74
     0
 42
0.00000001
 43
0.00000001
 40
0.0
 40
0.0
 40
0.0
 40
0.0
 40
0.0110569947995957
 40
0.0534018586163523
 40
0.0957739243294413
 40
0.152560285963683
 40
0.2094465507836707
 40
0.2166929089147469
 40
0.2775705853057713
 40
0.3384474861342897
 40
0.3856607907517328
 40
0.4327791182719195
 40
0.4698641362073264
 40
0.5069103241819656
 40
0.5439143354842868
 40
0.5809675385159896
 40
0.6306181182252716
 40
0.6803606635267528
 40
0.7335199301453341
 40
0.786670493119384
 40
0.8314134775104652
 40
0.876121580665438
 40
0.9187009688159357
 40
0.961245266880381
 40
1.0
 40
1.0
 40
1.0
 40
1.0
 10
153.5851517515657
 20
78.76359917004294
 30
0.0
 10
153.585975798912
 20
78.76290133814523
 30
0.0
 10
153.5899556922442
 20
78.75953102631864
 30
0.0
 10
153.6607374011734
 20
78.69918138271329
 30
0.0
 10
153.8820261312726
 20
78.51365128705537
 30
0.0
 10
154.2725891466692
 20
78.19310534211375
 30
0.0
 10
154.6758312327553
 20
77.87942843857334
 30
0.0
 10
155.1426454718443
 20
77.53303915068355
 30
0.0
 10
155.6782733059187
 20
77.152614203677
 30
0.0
 10
156.4940236839364
 20
76.6545906534292
 30
0.0
 10
157.3355834896568
 20
76.24247278031807
 30
0.0
 10
158.118990408427
 20
75.9654736642245
 30
0.0
 10
158.891975285103
 20
75.81405651139978
 30
0.0
 10
159.6225655908895
 20
75.77590704214269
 30
0.0
 10
160.3472880476999
 20
75.85523893380487
 30
0.0
 10
161.1206576609032
 20
76.04774213693454
 30
0.0
 10
161.9110525121082
 20
76.36490163040429
 30
0.0
 10
162.7078569427476
 20
76.79018007002922
 30
0.0
 10
163.4352245107052
 20
77.25264117069271
 30
0.0
 10
164.0494286933799
 20
77.69305314734147
 30
0.0
 10
164.5428921607249
 20
78.07151676277984
 30
0.0
 10
164.9179419762343
 20
78.37327201399036
 30
0.0
 10
165.1881969054773
 20
78.59691737350842
 30
0.0
 10
165.3571717058539
 20
78.73984470305378
 30
0.0
 10
165.3725853489021
 20
78.75286273608714
 30
0.0
 10
165.3799329348947
 20
78.75906834996226
 30
0.0
  0
LINE
  5
152
330
1F
100
AcDbEntity
  8
0
  6
Continuous
 62
     7
370
    25
100
AcDbLine
 10
136.0751517516
 20
73.008709457
 30
0.0
 11
136.0751517516
 21
63.26359917
 31
0.0
  0
LINE
  5
153
330
1F
100
AcDbEntity
  8
0
  6
Continuous
 62
     7
370
    25
100
AcDbLine
 10
136.0751517516
 20
75.26359917
 30
0.0
 11
136.0751517516
 21
73.008709457
 31
0.0
  0
LINE
  5
154
330
1F
100
AcDbEntity
  8
0
  6
Continuous
 62
     7
370
    25
100
AcDbLine
 10
136.0951517516
 20
73.008709457
 30
0.0
 11
136.0951517516
 21
63.26359917
 31
0.0
  0
LINE
  5
155
330
1F
100
AcDbEntity
  8
0
  6
Continuous
 62
     7
370
    25
100
AcDbLine
 10
136.0951517516
 20
75.26359917
 30
0.0
 11
136.0951517516
 21
73.008709457
 31
0.0
  0
LINE
  5
156
330
1F
100
AcDbEntity
  8
0
  6
Continuous
 62
     7
370
    25
100
AcDbLine
 10
137.0300869735
 20
72.5939824789
 30
0.0
 11
137.0300869735
 21
63.9280287002
 31
0.0
  0
LINE
  5
157
330
1F
100
AcDbEntity
  8
0
  6
Continuous
 62
     7
370
    25
100
AcDbLine
 10
137.0300869735
 20
74.5991696398
 30
0.0
 11
137.0300869735
 21
72.5939824789
 31
0.0
  0
LINE
  5
158
330
1F
100
AcDbEntity
  8
0
  6
Continuous
 62
     7
370
    25
100
AcDbLine
 10
137.5022764795
 20
72.3845244092
 30
0.0
 11
137.5022764795
 21
64.26359917
 31
0.0
  0
LINE
  5
159
330
1F
100
AcDbEntity
  8
0
  6
Continuous
 62
     7
370
    25
100
AcDbLine
 10
137.5022764795
 20
74.26359917
 30
0.0
 11
137.5022764795
 21
72.3845244092
 31
0.0
  0
LINE
  5
15A
330
1F
100
AcDbEntity
  8
0
  6
Continuous
 62
     7
370
    18
100
AcDbLine
 10
151.7312114214
 20
56.76359917
 30
0.0
 11
152.0514887213
 21
46.5147255718
 31
0.0
  0
LINE
  5
15B
330
1F
100
AcDbEntity
  8
0
  6
Continuous
 62
     7
370
    18
100
AcDbLine
 10
166.9188147818
 20
46.5147255718
 30
0.0
 11
167.2390920818
 21
56.76359917
 31
0.0
  0
LINE
  5
15C
330
1F
100
AcDbEntity
  8
0
  6
CENTERX2
 62
     7
370
    18
100
AcDbLine
 10
172.6911102692
 20
69.26359917
 30
0.0
 11
133.0851517516
 21
69.26359917
 31
0.0
  0
LINE
  5
15D
330
1F
100
AcDbEntity
  8
0
  6
CENTERX2
 62
     7
370
    18
100
AcDbLine
 10
159.4851517516
 20
98.4984149493
 30
0.0
 11
159.4851517516
 21
44.4378512889
 31
0.0
  0
LINE
  5
15E
330
1F
100
AcDbEntity
  8
0
  6
Continuous
 62
     7
370
    25
100
AcDbLine
 10
203.0674449931
 20
57.2682540566
 30
0.0
 11
203.0755074931
 21
57.26359917
 31
0.0
  0
LINE
  5
15F
330
1F
100
AcDbEntity
  8
0
  6
Continuous
 62
     7
370
    25
100
AcDbLine
 10
203.0755074931
 20
57.26359917
 30
0.0
 11
203.3700728233
 21
47.8375086037
 31
0.0
  0
LINE
  5
160
330
1F
100
AcDbEntity
  8
0
  6
Continuous
 62
     7
370
    25
100
AcDbLine
 10
219.7648171629
 20
47.8375086037
 30
0.0
 11
220.0593824931
 21
57.26359917
 31
0.0
  0
LINE
  5
161
330
1F
100
AcDbEntity
  8
0
  6
Continuous
 62
     7
370
    25
100
AcDbLine
 10
203.3700728233
 20
47.8375086037
 30
0.0
 11
204.5674449931
 21
45.76359917
 31
0.0
  0
LINE
  5
162
330
1F
100
AcDbEntity
  8
0
  6
Continuous
 62
     7
370
    25
100
AcDbLine
 10
218.5674449931
 20
45.76359917
 30
0.0
 11
219.7648171629
 21
47.8375086037
 31
0.0
  0
LINE
  5
163
330
1F
100
AcDbEntity
  8
0
  6
Continuous
 62
     7
370
    25
100
AcDbLine
 10
217.4674449931
 20
75.802127834
 30
0.0
 11
217.4674449931
 21
79.76359917
 31
0.0
  0
LINE
  5
164
330
1F
100
AcDbEntity
  8
0
  6
Continuous
 62
     7
370
    25
100
AcDbLine
 10
205.6674449931
 20
79.76359917
 30
0.0
 11
205.6674449931
 21
75.7968254232
 31
0.0
  0
ARC
  5
165
330
1F
100
AcDbEntity
  8
0
  6
Continuous
 62
     7
370
    25
100
AcDbCircle
 10
206.3174449931
 20
96.36359917
 30
0.0
 40
0.25
100
AcDbArc
 50
90.0
 51
180.0
  0
ARC
  5
166
330
1F
100
AcDbEntity
  8
0
  6
Continuous
 62
     7
370
    25
100
AcDbCircle
 10
216.8174449931
 20
96.36359917
 30
0.0
 40
0.25
100
AcDbArc
 50
0.0
 51
90.0
  0
LINE
  5
167
330
1F
100
AcDbEntity
  8
0
  6
Continuous
 62
     7
370
    25
100
AcDbLine
 10
206.0674449931
 20
96.36359917
 30
0.0
 11
206.0674449931
 21
95.76359917
 31
0.0
  0
LINE
  5
168
330
1F
100
AcDbEntity
  8
0
  6
Continuous
 62
     7
370
    25
100
AcDbLine
 10
217.0674449931
 20
95.76359917
 30
0.0
 11
217.0674449931
 21
96.36359917
 31
0.0
  0
LINE
  5
169
330
1F
100
AcDbEntity
  8
0
  6
Continuous
 62
     7
370
    25
100
AcDbLine
 10
219.0174449931
 20
87.76359917
 30
0.0
 11
217.0674449931
 21
95.76359917
 31
0.0
  0
LINE
  5
16A
330
1F
100
AcDbEntity
  8
0
  6
Continuous
 62
     7
370
    25
100
AcDbLine
 10
206.0674449931
 20
95.76359917
 30
0.0
 11
204.1174449931
 21
87.76359917
 31
0.0
  0
LINE
  5
16B
330
1F
100
AcDbEntity
  8
0
  6
Continuous
 62
     7
370
    25
100
AcDbLine
 10
204.1174449931
 20
87.76359917
 30
0.0
 11
204.5674449931
 21
79.76359917
 31
0.0
  0
LINE
  5
16C
330
1F
100
AcDbEntity
  8
0
  6
Continuous
 62
     7
370
    25
100
AcDbLine
 10
218.5674449931
 20
79.76359917
 30
0.0
 11
219.0174449931
 21
87.76359917
 31
0.0
  0
SPLINE
  5
16D
330
1F
100
AcDbEntity
  8
0
  6
Continuous
 62
     7
370
    25
100
AcDbSpline
210
0.0
220
0.0
230
1.0
 70
     8
 71
     3
 72
    10
 73
     6
 74
     0
 42
0.00000001
 43
0.00000001
 40
0.0
 40
0.0
 40
0.0
 40
0.0
 40
0.5
 40
0.5
 40
1.0
 40
1.0
 40
1.0
 40
1.0
 10
211.8174449931119
 20
78.93421617896918
 30
0.0
 10
211.7430646157346
 20
78.97715970987039
 30
0.0
 10
211.655971527619
 20
79.00112447422639
 30
0.0
 10
211.4798131387431
 20
79.00128207970117
 30
0.0
 10
211.3918520660152
 20
78.97717512253948
 30
0.0
 10
211.3174449931119
 20
78.93421617896918
 30
0.0
  0
SPLINE
  5
16E
330
1F
100
AcDbEntity
  8
0
  6
Continuous
 62
     7
370
    25
100
AcDbSpline
210
0.0
220
0.0
230
1.0
 70
    24
 71
     3
 72
    16
 73
    12
 74
     0
 42
0.00000001
 43
0.00000001
 40
0.0
 40
0.0
 40
0.0
 40
0.0
 40
0.2499999999999998
 40
0.2499999999999998
 40
0.4999999999999996
 40
0.4999999999999996
 40
0.6249999999999994
 40
0.6249999999999994
 40
0.7499999999999996
 40
0.7499999999999996
 40
1.0
 40
1.0
 40
1.0
 40
1.0
 10
219.817444993112
 20
74.31541402545217
 30
0.0
 10
219.1639282130712
 20
74.69272211432866
 30
0.0
 10
218.5057078039812
 20
75.07274584470287
 30
0.0
 10
217.1761452206154
 20
75.84036916011355
 30
0.0
 10
216.5047212385448
 20
76.22801597690234
 30
0.0
 10
215.4857201515381
 20
76.8163365287902
 30
0.0
 10
215.1443793692219
 20
77.01340972134585
 30
0.0
 10
214.4687808662515
 20
77.40346669889996
 30
0.0
 10
214.1331217162868
 20
77.59725959948798
 30
0.0
 10
213.1318560797872
 20
78.1753405842514
 30
0.0
 10
212.471948421184
 20
78.55633844858625
 30
0.0
 10
211.8174449931119
 20
78.93421617896917
 30
0.0
  0
SPLINE
  5
16F
330
1F
100
AcDbEntity
  8
0
  6
Continuous
 62
     7
370
    25
100
AcDbSpline
210
0.0
220
0.0
230
1.0
 70
     8
 71
     3
 72
    10
 73
     6
 74
     0
 42
0.00000001
 43
0.00000001
 40
0.0
 40
0.0
 40
0.0
 40
0.0
 40
0.5
 40
0.5
 40
1.0
 40
1.0
 40
1.0
 40
1.0
 10
220.067444993112
 20
73.88240132355995
 30
0.0
 10
220.067444993112
 20
73.9682883853624
 30
0.0
 10
220.0446525437822
 20
74.05569559434251
 30
0.0
 10
219.9567098396891
 20
74.20833203693626
 30
0.0
 10
219.8918520660152
 20
74.27245508188184
 30
0.0
 10
219.817444993112
 20
74.31541402545217
 30
0.0
  0
SPLINE
  5
170
330
1F
100
AcDbEntity
  8
0
  6
Continuous
 62
     7
370
    25
100
AcDbSpline
210
0.0
220
0.0
230
1.0
 70
    24
 71
     3
 72
    14
 73
    10
 74
     0
 42
0.00000001
 43
0.00000001
 40
0.0
 40
0.0
 40
0.0
 40
0.0
 40
0.25
 40
0.25
 40
0.5
 40
0.5
 40
0.75
 40
0.75
 40
1.0
 40
1.0
 40
1.0
 40
1.0
 10
220.067444993112
 20
64.64479701652589
 30
0.0
 10
220.067444993112
 20
65.3993929078558
 30
0.0
 10
220.067444993112
 20
66.1685865522526
 30
0.0
 10
220.067444993112
 20
67.70891030833822
 30
0.0
 10
220.067444993112
 20
68.48381492407437
 30
0.0
 10
220.067444993112
 20
70.04462366165787
 30
0.0
 10
220.067444993112
 20
70.83515092323239
 30
0.0
 10
220.067444993112
 20
72.37709873588847
 30
0.0
 10
220.067444993112
 20
73.1344431350356
 30
0.0
 10
220.067444993112
 20
73.88240132355995
 30
0.0
  0
SPLINE
  5
171
330
1F
100
AcDbEntity
  8
0
  6
Continuous
 62
     7
370
    25
100
AcDbSpline
210
0.0
220
0.0
230
1.0
 70
     8
 71
     3
 72
    10
 73
     6
 74
     0
 42
0.00000001
 43
0.00000001
 40
0.0
 40
0.0
 40
0.0
 40
0.0
 40
0.5
 40
0.5
 40
1.0
 40
1.0
 40
1.0
 40
1.0
 10
219.817444993112
 20
64.2117843146337
 30
0.0
 10
219.8918253704891
 20
64.25472784553483
 30
0.0
 10
219.9561260092746
 20
64.31817029015852
 30
0.0
 10
220.0443416940579
 20
64.47064912727764
 30
0.0
 10
220.067444993112
 20
64.55887912938512
 30
0.0
 10
220.067444993112
 20
64.6447970165259
 30
0.0
  0
SPLINE
  5
172
330
1F
100
AcDbEntity
  8
0
  6
Continuous
 62
     7
370
    25
100
AcDbSpline
210
0.0
220
0.0
230
1.0
 70
    24
 71
     3
 72
    16
 73
    12
 74
     0
 42
0.00000001
 43
0.00000001
 40
0.0
 40
0.0
 40
0.0
 40
0.0
 40
0.2499999999999999
 40
0.2499999999999999
 40
0.4999999999999998
 40
0.4999999999999998
 40
0.6249999999999998
 40
0.6249999999999998
 40
0.7499999999999999
 40
0.7499999999999999
 40
1.0
 40
1.0
 40
1.0
 40
1.0
 10
211.8174449931119
 20
59.5929821611167
 30
0.0
 10
212.4709617731527
 20
59.97029024999317
 30
0.0
 10
213.1291821822426
 20
60.35031398036733
 30
0.0
 10
214.4587447656083
 20
61.11793729577798
 30
0.0
 10
215.1301687476788
 20
61.50558411256674
 30
0.0
 10
216.1491698346854
 20
62.09390466445454
 30
0.0
 10
216.4905106170016
 20
62.29097785701018
 30
0.0
 10
217.166109119972
 20
62.68103483456425
 30
0.0
 10
217.5017682699366
 20
62.87482773515227
 30
0.0
 10
218.5030339064363
 20
63.45290871991565
 30
0.0
 10
219.1629415650393
 20
63.83390658425045
 30
0.0
 10
219.8174449931113
 20
64.21178431463335
 30
0.0
  0
SPLINE
  5
173
330
1F
100
AcDbEntity
  8
0
  6
Continuous
 62
     7
370
    25
100
AcDbSpline
210
0.0
220
0.0
230
1.0
 70
     8
 71
     3
 72
    10
 73
     6
 74
     0
 42
0.00000001
 43
0.00000001
 40
0.0
 40
0.0
 40
0.0
 40
0.0
 40
0.5
 40
0.5
 40
1.0
 40
1.0
 40
1.0
 40
1.0
 10
211.3174449931119
 20
59.5929821611167
 30
0.0
 10
211.3918253704893
 20
59.55003863021547
 30
0.0
 10
211.4789184586049
 20
59.52607386585949
 30
0.0
 10
211.6550768474809
 20
59.5259162603847
 30
0.0
 10
211.7430379202087
 20
59.55002321754638
 30
0.0
 10
211.8174449931119
 20
59.59298216111669
 30
0.0
  0
SPLINE
  5
174
330
1F
100
AcDbEntity
  8
0
  6
Continuous
 62
     7
370
    25
100
AcDbSpline
210
0.0
220
0.0
230
1.0
 70
    24
 71
     3
 72
    16
 73
    12
 74
     0
 42
0.00000001
 43
0.00000001
 40
0.0
 40
0.0
 40
0.0
 40
0.0
 40
0.25
 40
0.25
 40
0.5
 40
0.5
 40
0.6250000000000001
 40
0.6250000000000001
 40
0.7500000000000002
 40
0.7500000000000002
 40
1.0
 40
1.0
 40
1.0
 40
1.0
 10
203.3174449931119
 20
64.2117843146337
 30
0.0
 10
203.9709617731528
 20
63.83447622575721
 30
0.0
 10
204.6291821822427
 20
63.45445249538301
 30
0.0
 10
205.9587447656085
 20
62.68682917997231
 30
0.0
 10
206.6301687476791
 20
62.29918236318352
 30
0.0
 10
207.6491698346858
 20
61.71086181129566
 30
0.0
 10
207.990510617002
 20
61.51378861874002
 30
0.0
 10
208.6661091199724
 20
61.12373164118592
 30
0.0
 10
209.0017682699371
 20
60.92993874059788
 30
0.0
 10
210.0030339064367
 20
60.35185775583445
 30
0.0
 10
210.6629415650399
 20
59.97085989149964
 30
0.0
 10
211.3174449931119
 20
59.5929821611167
 30
0.0
  0
SPLINE
  5
175
330
1F
100
AcDbEntity
  8
0
  6
Continuous
 62
     7
370
    25
100
AcDbSpline
210
0.0
220
0.0
230
1.0
 70
     8
 71
     3
 72
    10
 73
     6
 74
     0
 42
0.00000001
 43
0.00000001
 40
0.0
 40
0.0
 40
0.0
 40
0.0
 40
0.5
 40
0.5
 40
1.0
 40
1.0
 40
1.0
 40
1.0
 10
203.067444993112
 20
64.64479701652593
 30
0.0
 10
203.0674449931119
 20
64.55890995472346
 30
0.0
 10
203.0902374424417
 20
64.47150274574332
 30
0.0
 10
203.1781801465348
 20
64.3188663031496
 30
0.0
 10
203.2430379202087
 20
64.25474325820402
 30
0.0
 10
203.3174449931119
 20
64.2117843146337
 30
0.0
  0
SPLINE
  5
176
330
1F
100
AcDbEntity
  8
0
  6
Continuous
 62
     7
370
    25
100
AcDbSpline
210
0.0
220
0.0
230
1.0
 70
    24
 71
     3
 72
    14
 73
    10
 74
     0
 42
0.00000001
 43
0.00000001
 40
0.0
 40
0.0
 40
0.0
 40
0.0
 40
0.25
 40
0.25
 40
0.5
 40
0.5
 40
0.75
 40
0.75
 40
1.0
 40
1.0
 40
1.0
 40
1.0
 10
203.067444993112
 20
64.64479701652589
 30
0.0
 10
203.067444993112
 20
65.3993929078558
 30
0.0
 10
203.067444993112
 20
66.1685865522526
 30
0.0
 10
203.067444993112
 20
67.70891030833822
 30
0.0
 10
203.067444993112
 20
68.48381492407437
 30
0.0
 10
203.0674449931119
 20
70.04462366165787
 30
0.0
 10
203.067444993112
 20
70.83515092323239
 30
0.0
 10
203.0674449931119
 20
72.37709873588848
 30
0.0
 10
203.067444993112
 20
73.1344431350356
 30
0.0
 10
203.067444993112
 20
73.88240132355995
 30
0.0
  0
SPLINE
  5
177
330
1F
100
AcDbEntity
  8
0
  6
Continuous
 62
     7
370
    25
100
AcDbSpline
210
0.0
220
0.0
230
1.0
 70
     8
 71
     3
 72
    10
 73
     6
 74
     0
 42
0.00000001
 43
0.00000001
 40
0.0
 40
0.0
 40
0.0
 40
0.0
 40
0.5
 40
0.5
 40
1.0
 40
1.0
 40
1.0
 40
1.0
 10
203.317444993112
 20
74.31541402545217
 30
0.0
 10
203.2430646157346
 20
74.27247049455093
 30
0.0
 10
203.1787639769488
 20
74.20902804992681
 30
0.0
 10
203.0905482921659
 20
74.05654921280784
 30
0.0
 10
203.067444993112
 20
73.96831921070057
 30
0.0
 10
203.067444993112
 20
73.88240132355995
 30
0.0
  0
SPLINE
  5
178
330
1F
100
AcDbEntity
  8
0
  6
Continuous
 62
     7
370
    25
100
AcDbSpline
210
0.0
220
0.0
230
1.0
 70
    24
 71
     3
 72
    16
 73
    12
 74
     0
 42
0.00000001
 43
0.00000001
 40
0.0
 40
0.0
 40
0.0
 40
0.0
 40
0.2499999999999997
 40
0.2499999999999997
 40
0.4999999999999994
 40
0.4999999999999994
 40
0.6249999999999996
 40
0.6249999999999996
 40
0.7499999999999996
 40
0.7499999999999996
 40
1.0
 40
1.0
 40
1.0
 40
1.0
 10
211.3174449931119
 20
78.93421617896918
 30
0.0
 10
210.6639282130711
 20
78.55690809009266
 30
0.0
 10
210.0057078039812
 20
78.17688435971847
 30
0.0
 10
208.6761452206154
 20
77.40926104430777
 30
0.0
 10
208.0047212385448
 20
77.02161422751898
 30
0.0
 10
206.9857201515381
 20
76.43329367563113
 30
0.0
 10
206.644379369222
 20
76.23622048307547
 30
0.0
 10
205.9687808662515
 20
75.84616350552139
 30
0.0
 10
205.6331217162869
 20
75.65237060493335
 30
0.0
 10
204.6318560797872
 20
75.07428962016992
 30
0.0
 10
203.971948421184
 20
74.69329175583509
 30
0.0
 10
203.317444993112
 20
74.31541402545217
 30
0.0
  0
CIRCLE
  5
179
330
1F
100
AcDbEntity
  8
0
  6
Continuous
 62
     7
370
    25
100
AcDbCircle
 10
211.5674449931
 20
69.26359917
 30
0.0
 40
8.423205080756873
  0
LINE
  5
17A
330
1F
100
AcDbEntity
  8
0
  6
Continuous
 62
     7
370
    25
100
AcDbLine
 10
203.0755074931
 20
57.26359917
 30
0.0
 11
211.5674449931
 21
57.26359917
 31
0.0
  0
SPLINE
  5
17B
330
1F
100
AcDbEntity
  8
0
  6
Continuous
 62
     7
370
    25
100
AcDbSpline
210
0.0
220
0.0
230
1.0
 70
     8
 71
     3
 72
    10
 73
     6
 74
     0
 42
0.00000001
 43
0.00000001
 40
0.0
 40
0.0
 40
0.0
 40
0.0
 40
0.5
 40
0.5
 40
1.0
 40
1.0
 40
1.0
 40
1.0
 10
203.3174449931119
 20
57.94597546184847
 30
0.0
 10
203.2430745261864
 20
57.96964770176002
 30
0.0
 10
203.1787689298985
 20
57.98274169169529
 30
0.0
 10
203.0905461420927
 20
57.98282855915674
 30
0.0
 10
203.0674449931119
 20
57.96965876939737
 30
0.0
 10
203.067444993112
 20
57.94597546184847
 30
0.0
  0
SPLINE
  5
17C
330
1F
100
AcDbEntity
  8
0
  6
Continuous
 62
     7
370
    25
100
AcDbSpline
210
0.0
220
0.0
230
1.0
 70
     8
 71
     3
 72
    16
 73
    12
 74
     0
 42
0.00000001
 43
0.00000001
 40
0.0
 40
0.0
 40
0.0
 40
0.0
 40
0.2500000000000001
 40
0.2500000000000001
 40
0.5000000000000002
 40
0.5000000000000002
 40
0.6250000000000001
 40
0.6250000000000001
 40
0.75
 40
0.75
 40
1.0
 40
1.0
 40
1.0
 40
1.0
 10
203.3174449931119
 20
57.945975461848
 30
0.0
 10
203.9716666465514
 20
57.73773565139935
 30
0.0
 10
204.6301191820626
 20
57.56756236498992
 30
0.0
 10
205.9587638070458
 20
57.33284010537406
 30
0.0
 10
206.6290282513334
 20
57.26894213029959
 30
0.0
 10
207.644963994895
 20
57.2679184282131
 30
0.0
 10
207.9863151129948
 20
57.28340497535779
 30
0.0
 10
208.6627314244592
 20
57.34452869681578
 30
0.0
 10
208.9988041935001
 20
57.3900504241108
 30
0.0
 10
210.0013222545611
 20
57.56654978785597
 30
0.0
 10
210.6620801246526
 20
57.7373717642098
 30
0.0
 10
211.317444993112
 20
57.94597546184832
 30
0.0
  0
SPLINE
  5
17D
330
1F
100
AcDbEntity
  8
0
  6
Continuous
 62
     7
370
    25
100
AcDbSpline
210
0.0
220
0.0
230
1.0
 70
     8
 71
     3
 72
    10
 73
     6
 74
     0
 42
0.00000001
 43
0.00000001
 40
0.0
 40
0.0
 40
0.0
 40
0.0
 40
0.5
 40
0.5
 40
1.0
 40
1.0
 40
1.0
 40
1.0
 10
211.8174449931119
 20
57.94597546184847
 30
0.0
 10
211.7430702391219
 20
57.96964906633958
 30
0.0
 10
211.655976507556
 20
57.98274184213281
 30
0.0
 10
211.4798106790115
 20
57.98282841023376
 30
0.0
 10
211.3918496551213
 20
57.96965858611048
 30
0.0
 10
211.3174449931119
 20
57.94597546184847
 30
0.0
  0
SPLINE
  5
17E
330
1F
100
AcDbEntity
  8
0
  6
Continuous
 62
     7
370
    25
100
AcDbSpline
210
0.0
220
0.0
230
1.0
 70
     8
 71
     3
 72
    16
 73
    12
 74
     0
 42
0.00000001
 43
0.00000001
 40
0.0
 40
0.0
 40
0.0
 40
0.0
 40
0.2499999999999999
 40
0.2499999999999999
 40
0.4999999999999998
 40
0.4999999999999998
 40
0.6249999999999998
 40
0.6249999999999998
 40
0.7499999999999999
 40
0.7499999999999999
 40
1.0
 40
1.0
 40
1.0
 40
1.0
 10
211.8174449931119
 20
57.945975461848
 30
0.0
 10
212.4716666465514
 20
57.73773565139935
 30
0.0
 10
213.1301191820626
 20
57.56756236498991
 30
0.0
 10
214.4587638070458
 20
57.33284010537407
 30
0.0
 10
215.1290282513334
 20
57.26894213029959
 30
0.0
 10
216.144963994895
 20
57.26791842821309
 30
0.0
 10
216.4863151129947
 20
57.28340497535779
 30
0.0
 10
217.1627314244592
 20
57.34452869681579
 30
0.0
 10
217.4988041935001
 20
57.3900504241108
 30
0.0
 10
218.5013222545611
 20
57.56654978785597
 30
0.0
 10
219.1620801246526
 20
57.73737176420979
 30
0.0
 10
219.817444993112
 20
57.94597546184832
 30
0.0
  0
SPLINE
  5
17F
330
1F
100
AcDbEntity
  8
0
  6
Continuous
 62
     7
370
    25
100
AcDbSpline
210
0.0
220
0.0
230
1.0
 70
     8
 71
     3
 72
    10
 73
     6
 74
     0
 42
0.00000001
 43
0.00000001
 40
0.0
 40
0.0
 40
0.0
 40
0.0
 40
0.5
 40
0.5
 40
1.0
 40
1.0
 40
1.0
 40
1.0
 10
220.067444993112
 20
57.94597546184847
 30
0.0
 10
220.067444993112
 20
57.96964936240443
 30
0.0
 10
220.0446544214645
 20
57.98274191958356
 30
0.0
 10
219.9567084241657
 20
57.98282833356583
 30
0.0
 10
219.8918476314329
 20
57.96965794196721
 30
0.0
 10
219.817444993112
 20
57.94597546184847
 30
0.0
  0
SPLINE
  5
180
330
1F
100
AcDbEntity
  8
0
  6
Continuous
 62
     7
370
    25
100
AcDbSpline
210
0.0
220
0.0
230
1.0
 70
    24
 71
     3
 72
    11
 73
     7
 74
     0
 42
0.00000001
 43
0.00000001
 40
0.0
 40
0.0
 40
0.0
 40
0.0
 40
0.2620809100389322
 40
0.5241001776937355
 40
0.7913638393277732
 40
1.0
 40
1.0
 40
1.0
 40
1.0
 10
220.067444993112
 20
57.94597546184847
 30
0.0
 10
220.067444993112
 20
57.84290145535209
 30
0.0
 10
220.067444993112
 20
57.63677768574091
 30
0.0
 10
220.067444993112
 20
57.41915401341168
 30
0.0
 10
220.067444993112
 20
57.28645824713401
 30
0.0
 10
220.067444993112
 20
57.28017131616335
 30
0.0
 10
220.067444993112
 20
57.27741510345082
 30
0.0
  0
SPLINE
  5
181
330
1F
100
AcDbEntity
  8
0
  6
Continuous
 62
     7
370
    25
100
AcDbSpline
210
0.0
220
0.0
230
1.0
 70
    24
 71
     3
 72
    11
 73
     7
 74
     0
 42
0.00000001
 43
0.00000001
 40
0.0
 40
0.0
 40
0.0
 40
0.0
 40
0.2030351117370624
 40
0.4647208790300112
 40
0.7323268356900292
 40
1.0
 40
1.0
 40
1.0
 40
1.0
 10
203.067444993112
 20
57.27717206775839
 30
0.0
 10
203.067444993112
 20
57.27968465443092
 30
0.0
 10
203.067444993112
 20
57.28543563748556
 30
0.0
 10
203.067444993112
 20
57.41409916221392
 30
0.0
 10
203.067444993112
 20
57.63056131156664
 30
0.0
 10
203.067444993112
 20
57.84082861162855
 30
0.0
 10
203.067444993112
 20
57.94597546184847
 30
0.0
  0
LINE
  5
182
330
1F
100
AcDbEntity
  8
0
  6
Continuous
 62
     7
370
    25
100
AcDbLine
 10
211.3174449931
 20
57.9459754618
 30
0.0
 11
211.3174449931
 21
59.5929821611
 31
0.0
  0
LINE
  5
183
330
1F
100
AcDbEntity
  8
0
  6
Continuous
 62
     7
370
    25
100
AcDbLine
 10
211.8174449931
 20
59.5929821611
 30
0.0
 11
211.8174449931
 21
57.9459754618
 31
0.0
  0
SPLINE
  5
184
330
1F
100
AcDbEntity
  8
0
  6
Continuous
 62
     7
370
    25
100
AcDbSpline
210
0.0
220
0.0
230
1.0
 70
     8
 71
     3
 72
    10
 73
     6
 74
     0
 42
0.00000001
 43
0.00000001
 40
0.0
 40
0.0
 40
0.0
 40
0.0
 40
0.5
 40
0.5
 40
1.0
 40
1.0
 40
1.0
 40
1.0
 10
203.3174449931124
 20
61.29720263018808
 30
0.0
 10
203.9522726989261
 20
61.49926931573901
 30
0.0
 10
204.5915384015019
 20
61.66566208800965
 30
0.0
 10
205.8823533330917
 20
61.8997090618797
 30
0.0
 10
206.5339729685616
 20
61.96679731583853
 30
0.0
 10
207.1930149003817
 20
61.97422298540832
 30
0.0
  0
LINE
  5
185
330
1F
100
AcDbEntity
  8
0
  6
Continuous
 62
     7
370
    25
100
AcDbLine
 10
203.3174449931
 20
61.2972026302
 30
0.0
 11
203.3174449931
 21
57.9459754618
 31
0.0
  0
SPLINE
  5
186
330
1F
100
AcDbEntity
  8
0
  6
Continuous
 62
     7
370
    25
100
AcDbSpline
210
0.0
220
0.0
230
1.0
 70
     8
 71
     3
 72
    12
 73
     8
 74
     0
 42
0.00000001
 43
0.00000001
 40
0.0
 40
0.0
 40
0.0
 40
0.0
 40
0.2500000000000002
 40
0.2500000000000002
 40
0.5000000000000004
 40
0.5000000000000004
 40
1.0
 40
1.0
 40
1.0
 40
1.0
 10
215.9418750858643
 20
61.97422298540807
 30
0.0
 10
216.2710100762575
 20
61.97051449955164
 30
0.0
 10
216.6004722291942
 20
61.95193199671397
 30
0.0
 10
217.2533458472519
 20
61.88706495974782
 30
0.0
 10
217.5777984391289
 20
61.84079940649755
 30
0.0
 10
218.545858880321
 20
61.66507487619059
 30
0.0
 10
219.184181364569
 20
61.49877146741384
 30
0.0
 10
219.817444993112
 20
61.29720263018793
 30
0.0
  0
LINE
  5
187
330
1F
100
AcDbEntity
  8
0
  6
Continuous
 62
     7
370
    25
100
AcDbLine
 10
219.8174449931
 20
57.9459754618
 30
0.0
 11
219.8174449931
 21
61.2972026302
 31
0.0
  0
LINE
  5
188
330
1F
100
AcDbEntity
  8
0
  6
Continuous
 62
     7
370
    25
100
AcDbLine
 10
219.7648171629
 20
47.8375086037
 30
0.0
 11
203.3700728233
 21
47.8375086037
 31
0.0
  0
LINE
  5
189
330
1F
100
AcDbEntity
  8
0
  6
Continuous
 62
     7
370
    25
100
AcDbLine
 10
211.5674449931
 20
45.76359917
 30
0.0
 11
204.5674449931
 21
45.76359917
 31
0.0
  0
LINE
  5
18A
330
1F
100
AcDbEntity
  8
0
  6
Continuous
 62
     7
370
    25
100
AcDbLine
 10
218.5674449931
 20
45.76359917
 30
0.0
 11
211.5674449931
 21
45.76359917
 31
0.0
  0
SPLINE
  5
18B
330
1F
100
AcDbEntity
  8
0
  6
Continuous
 62
     7
370
    25
100
AcDbSpline
210
0.0
220
0.0
230
1.0
 70
     8
 71
     3
 72
     8
 73
     4
 74
     0
 42
0.00000001
 43
0.00000001
 40
0.0
 40
0.0
 40
0.0
 40
0.0
 40
1.0
 40
1.0
 40
1.0
 40
1.0
 10
204.6392417628365
 20
62.26359917004294
 30
0.0
 10
204.1128209016272
 20
62.00038873943833
 30
0.0
 10
203.5892764449135
 20
61.73129131105162
 30
0.0
 10
203.0674449931119
 20
61.45868795846896
 30
0.0
  0
SPLINE
  5
18C
330
1F
100
AcDbEntity
  8
0
  6
Continuous
 62
     7
370
    25
100
AcDbSpline
210
0.0
220
0.0
230
1.0
 70
     8
 71
     3
 72
    10
 73
     6
 74
     0
 42
0.00000001
 43
0.00000001
 40
0.0
 40
0.0
 40
0.0
 40
0.0
 40
0.5
 40
0.5
 40
1.0
 40
1.0
 40
1.0
 40
1.0
 10
203.067444993112
 20
61.29720263018787
 30
0.0
 10
203.067444993112
 20
61.27352723576346
 30
0.0
 10
203.0902374424418
 20
61.26043612587887
 30
0.0
 10
203.1781801465351
 20
61.26034980459065
 30
0.0
 10
203.2430379202092
 20
61.27351873853458
 30
0.0
 10
203.3174449931126
 20
61.29720263018815
 30
0.0
  0
SPLINE
  5
18D
330
1F
100
AcDbEntity
  8
0
  6
Continuous
 62
     7
370
    25
100
AcDbSpline
210
0.0
220
0.0
230
1.0
 70
    24
 71
     3
 72
     8
 73
     4
 74
     0
 42
0.00000001
 43
0.00000001
 40
0.0
 40
0.0
 40
0.0
 40
0.0
 40
1.0
 40
1.0
 40
1.0
 40
1.0
 10
203.067444993112
 20
61.29720263018794
 30
0.0
 10
203.067444993112
 20
61.35376359731215
 30
0.0
 10
203.067444993112
 20
61.40770366872599
 30
0.0
 10
203.067444993112
 20
61.45868795846896
 30
0.0
  0
SPLINE
  5
18E
330
1F
100
AcDbEntity
  8
0
  6
Continuous
 62
     7
370
    25
100
AcDbSpline
210
0.0
220
0.0
230
1.0
 70
     8
 71
     3
 72
     8
 73
     4
 74
     0
 42
0.00000001
 43
0.00000001
 40
0.0
 40
0.0
 40
0.0
 40
0.0
 40
1.0
 40
1.0
 40
1.0
 40
1.0
 10
220.067444993112
 20
61.45868795846895
 30
0.0
 10
219.5456388418101
 20
61.7312780941383
 30
0.0
 10
219.0219853729539
 20
62.00043059525969
 30
0.0
 10
218.4956482233875
 20
62.26359917004294
 30
0.0
  0
SPLINE
  5
18F
330
1F
100
AcDbEntity
  8
0
  6
Continuous
 62
     7
370
    25
100
AcDbSpline
210
0.0
220
0.0
230
1.0
 70
     8
 71
     3
 72
    10
 73
     6
 74
     0
 42
0.00000001
 43
0.00000001
 40
0.0
 40
0.0
 40
0.0
 40
0.0
 40
0.5
 40
0.5
 40
1.0
 40
1.0
 40
1.0
 40
1.0
 10
219.817444993112
 20
61.29720263018793
 30
0.0
 10
219.8918253704893
 20
61.27352723576355
 30
0.0
 10
219.9561260092751
 20
61.2604361258789
 30
0.0
 10
220.044341694058
 20
61.26034980459062
 30
0.0
 10
220.067444993112
 20
61.27351873853446
 30
0.0
 10
220.067444993112
 20
61.29720263018793
 30
0.0
  0
SPLINE
  5
190
330
1F
100
AcDbEntity
  8
0
  6
Continuous
 62
     7
370
    25
100
AcDbSpline
210
0.0
220
0.0
230
1.0
 70
    24
 71
     3
 72
     8
 73
     4
 74
     0
 42
0.00000001
 43
0.00000001
 40
0.0
 40
0.0
 40
0.0
 40
0.0
 40
1.0
 40
1.0
 40
1.0
 40
1.0
 10
220.067444993112
 20
61.29720263018794
 30
0.0
 10
220.067444993112
 20
61.35376359731216
 30
0.0
 10
220.067444993112
 20
61.40770366872599
 30
0.0
 10
220.067444993112
 20
61.45868795846896
 30
0.0
  0
LINE
  5
191
330
1F
100
AcDbEntity
  8
0
  6
Continuous
 62
     7
370
    25
100
AcDbLine
 10
204.0674449931
 20
62.26359917
 30
0.0
 11
206.6918006461
 21
62.26359917
 31
0.0
  0
LINE
  5
192
330
1F
100
AcDbEntity
  8
0
  6
Continuous
 62
     7
370
    25
100
AcDbLine
 10
204.0674449931
 20
63.7787716127
 30
0.0
 11
204.0674449931
 21
62.26359917
 31
0.0
  0
LINE
  5
193
330
1F
100
AcDbEntity
  8
0
  6
Continuous
 62
     7
370
    25
100
AcDbLine
 10
219.0674449931
 20
62.26359917
 30
0.0
 11
219.0674449931
 21
63.7787716127
 31
0.0
  0
LINE
  5
194
330
1F
100
AcDbEntity
  8
0
  6
Continuous
 62
     7
370
    25
100
AcDbLine
 10
216.4430893401
 20
62.26359917
 30
0.0
 11
219.0674449931
 21
62.26359917
 31
0.0
  0
LINE
  5
195
330
1F
100
AcDbEntity
  8
0
  6
Continuous
 62
     7
370
    25
100
AcDbLine
 10
203.0674449931
 20
57.9459754618
 30
0.0
 11
203.0674449931
 21
61.2972026302
 31
0.0
  0
LINE
  5
196
330
1F
100
AcDbEntity
  8
0
  6
Continuous
 62
     7
370
    25
100
AcDbLine
 10
220.0674449931
 20
61.2972026302
 30
0.0
 11
220.0674449931
 21
57.9459754618
 31
0.0
  0
LINE
  5
197
330
1F
100
AcDbEntity
  8
0
  6
Continuous
 62
     7
370
    25
100
AcDbLine
 10
203.0674449931
 20
61.4586879585
 30
0.0
 11
203.0674449931
 21
64.6014536009
 31
0.0
  0
LINE
  5
198
330
1F
100
AcDbEntity
  8
0
  6
Continuous
 62
     7
370
    25
100
AcDbLine
 10
220.0674449931
 20
61.4586879585
 30
0.0
 11
220.0674449931
 21
64.6014536009
 31
0.0
  0
LINE
  5
199
330
1F
100
AcDbEntity
  8
0
  6
Continuous
 62
     7
370
    25
100
AcDbLine
 10
206.3174449931
 20
96.61359917
 30
0.0
 11
208.0674449931
 21
96.61359917
 31
0.0
  0
LINE
  5
19A
330
1F
100
AcDbEntity
  8
0
  6
Continuous
 62
     7
370
    25
100
AcDbLine
 10
215.0674449931
 20
96.61359917
 30
0.0
 11
216.8174449931
 21
96.61359917
 31
0.0
  0
LINE
  5
19B
330
1F
100
AcDbEntity
  8
0
  6
Continuous
 62
     7
370
    25
100
AcDbLine
 10
206.0674449931
 20
95.76359917
 30
0.0
 11
208.0674449931
 21
95.76359917
 31
0.0
  0
LINE
  5
19C
330
1F
100
AcDbEntity
  8
0
  6
Continuous
 62
     7
370
    25
100
AcDbLine
 10
215.0674449931
 20
95.76359917
 30
0.0
 11
217.0674449931
 21
95.76359917
 31
0.0
  0
LINE
  5
19D
330
1F
100
AcDbEntity
  8
0
  6
Continuous
 62
     7
370
    25
100
AcDbLine
 10
208.0674449931
 20
97.76359917
 30
0.0
 11
215.0674449931
 21
97.76359917
 31
0.0
  0
LINE
  5
19E
330
1F
100
AcDbEntity
  8
0
  6
Continuous
 62
     7
370
    25
100
AcDbLine
 10
215.0674449931
 20
90.76359917
 30
0.0
 11
215.0674449931
 21
97.76359917
 31
0.0
  0
LINE
  5
19F
330
1F
100
AcDbEntity
  8
0
  6
Continuous
 62
     7
370
    25
100
AcDbLine
 10
208.0674449931
 20
90.76359917
 30
0.0
 11
215.0674449931
 21
90.76359917
 31
0.0
  0
LINE
  5
1A0
330
1F
100
AcDbEntity
  8
0
  6
Continuous
 62
     7
370
    25
100
AcDbLine
 10
208.0674449931
 20
97.76359917
 30
0.0
 11
208.0674449931
 21
90.76359917
 31
0.0
  0
LINE
  5
1A1
330
1F
100
AcDbEntity
  8
0
  6
Continuous
 62
     7
370
    25
100
AcDbLine
 10
215.0674449931
 20
85.76359917
 30
0.0
 11
208.0674449931
 21
85.76359917
 31
0.0
  0
LINE
  5
1A2
330
1F
100
AcDbEntity
  8
0
  6
Continuous
 62
     7
370
    25
100
AcDbLine
 10
215.0674449931
 20
90.76359917
 30
0.0
 11
215.0674449931
 21
85.76359917
 31
0.0
  0
LINE
  5
1A3
330
1F
100
AcDbEntity
  8
0
  6
Continuous
 62
     7
370
    25
100
AcDbLine
 10
208.0674449931
 20
85.76359917
 30
0.0
 11
208.0674449931
 21
90.76359917
 31
0.0
  0
SPLINE
  5
1A4
330
1F
100
AcDbEntity
  8
0
  6
Continuous
 62
     7
370
    25
100
AcDbSpline
210
0.0
220
0.0
230
1.0
 70
     8
 71
     3
 72
    11
 73
     7
 74
     0
 42
0.00000001
 43
0.00000001
 40
0.0
 40
0.0
 40
0.0
 40
0.0
 40
0.2488466353289361
 40
0.4976946020535204
 40
0.7488461225871278
 40
1.0
 40
1.0
 40
1.0
 40
1.0
 10
215.067444993112
 20
85.51577486301848
 30
0.0
 10
215.0721365290514
 20
85.44625048652485
 30
0.0
 10
215.0815196260312
 20
85.30720136156367
 30
0.0
 10
215.157941509518
 20
85.0068726234384
 30
0.0
 10
215.2756676374817
 20
84.64496300518323
 30
0.0
 10
215.3939765608147
 20
84.34337104811867
 30
0.0
 10
215.4531313000413
 20
84.19257436203297
 30
0.0
  0
LINE
  5
1A5
330
1F
100
AcDbEntity
  8
0
  6
Continuous
 62
     7
370
    25
100
AcDbLine
 10
215.4531313
 20
84.192574362
 30
0.0
 11
207.6817586862
 21
84.192574362
 31
0.0
  0
SPLINE
  5
1A6
330
1F
100
AcDbEntity
  8
0
  6
Continuous
 62
     7
370
    25
100
AcDbSpline
210
0.0
220
0.0
230
1.0
 70
     8
 71
     3
 72
    10
 73
     6
 74
     0
 42
0.00000001
 43
0.00000001
 40
0.0
 40
0.0
 40
0.0
 40
0.0
 40
0.4976498059513298
 40
0.7488255961348531
 40
1.0
 40
1.0
 40
1.0
 40
1.0
 10
207.6817586861826
 20
84.19257436203297
 30
0.0
 10
207.7908005440421
 20
84.47897865252529
 30
0.0
 10
207.9548784422726
 20
84.90993805610326
 30
0.0
 10
208.052268327061
 20
85.30380803309696
 30
0.0
 10
208.0623861137355
 20
85.4451193830353
 30
0.0
 10
208.0674449931119
 20
85.51577486301848
 30
0.0
  0
LINE
  5
1A7
330
1F
100
AcDbEntity
  8
0
  6
Continuous
 62
     7
370
    25
100
AcDbLine
 10
215.0674449931
 20
85.76359917
 30
0.0
 11
215.0674449931
 21
85.515774863
 31
0.0
  0
LINE
  5
1A8
330
1F
100
AcDbEntity
  8
0
  6
Continuous
 62
     7
370
    25
100
AcDbLine
 10
208.0674449931
 20
85.515774863
 30
0.0
 11
208.0674449931
 21
85.76359917
 31
0.0
  0
SPLINE
  5
1A9
330
1F
100
AcDbEntity
  8
0
  6
Continuous
 62
     7
370
    25
100
AcDbSpline
210
0.0
220
0.0
230
1.0
 70
     8
 71
     3
 72
    16
 73
    12
 74
     0
 42
0.00000001
 43
0.00000001
 40
0.0
 40
0.0
 40
0.0
 40
0.0
 40
0.0155634360124117
 40
0.0359329243097674
 40
0.0739120889290614
 40
0.1570057548437684
 40
0.2406581385754913
 40
0.4592958294318596
 40
0.6783839187935417
 40
0.8974954344294845
 40
1.0
 40
1.0
 40
1.0
 40
1.0
 10
204.9077227708897
 20
79.76359917004302
 30
0.0
 10
204.921416437903
 20
79.7687925418222
 30
0.0
 10
204.9530324319497
 20
79.78078301968996
 30
0.0
 10
205.0085121222598
 20
79.89910894368693
 30
0.0
 10
205.0871129327503
 20
80.21036025113588
 30
0.0
 10
205.1664531193793
 20
80.73600775250094
 30
0.0
 10
205.2716808274825
 20
81.77455391677108
 30
0.0
 10
205.3866742287018
 20
83.20962795911721
 30
0.0
 10
205.4890742291167
 20
85.04788006055665
 30
0.0
 10
205.5588231089971
 20
86.56906290937609
 30
0.0
 10
205.5982817284258
 20
87.47489495017261
 30
0.0
 10
205.6108578677389
 20
87.76359917004056
 30
0.0
  0
LINE
  5
1AA
330
1F
100
AcDbEntity
  8
0
  6
Continuous
 62
     7
370
    25
100
AcDbLine
 10
205.6108578677
 20
87.76359917
 30
0.0
 11
205.3906971525
 21
88.758342748
 31
0.0
  0
LINE
  5
1AB
330
1F
100
AcDbEntity
  8
0
  6
Continuous
 62
     7
370
    25
100
AcDbLine
 10
205.3906971525
 20
88.758342748
 30
0.0
 11
208.0674449931
 21
88.758342748
 31
0.0
  0
ELLIPSE
  5
1AC
330
1F
100
AcDbEntity
  8
0
  6
Continuous
 62
     7
370
    25
100
AcDbEllipse
 10
143.0674449931
 20
86.1114736024
 30
0.0
 11
65.0
 21
0.0
 31
0.0
210
0.0
220
0.0
230
1.0
 40
0.2713992096
 41
6.084179739699223
 42
6.174194364446292
  0
SPLINE
  5
1AD
330
1F
100
AcDbEntity
  8
0
  6
Continuous
 62
     7
370
    25
100
AcDbSpline
210
0.0
220
0.0
230
1.0
 70
     8
 71
     3
 72
    13
 73
     9
 74
     0
 42
0.00000001
 43
0.00000001
 40
0.0
 40
0.0
 40
0.0
 40
0.0
 40
0.1610294006389558
 40
0.3266880383557516
 40
0.4877296220820637
 40
0.6535536198224136
 40
0.8237602734841889
 40
1.0
 40
1.0
 40
1.0
 40
1.0
 10
206.7845826630074
 20
82.62395292155009
 30
0.0
 10
206.740778895575
 20
82.55455602697285
 30
0.0
 10
206.6519120998327
 20
82.41376723146429
 30
0.0
 10
206.5228920811608
 20
82.06764241375664
 30
0.0
 10
206.4018819853934
 20
81.62843577070461
 30
0.0
 10
206.2952010022688
 20
81.09483393376502
 30
0.0
 10
206.204533714913
 20
80.47100762706533
 30
0.0
 10
206.1677149060162
 20
80.00212372886334
 30
0.0
 10
206.1489849172449
 20
79.76359917004292
 30
0.0
  0
LINE
  5
1AE
330
1F
100
AcDbEntity
  8
0
  6
Continuous
 62
     7
370
    25
100
AcDbLine
 10
206.1489849172
 20
79.76359917
 30
0.0
 11
204.9077227709
 21
79.76359917
 31
0.0
  0
SPLINE
  5
1AF
330
1F
100
AcDbEntity
  8
0
  6
Continuous
 62
     7
370
    25
100
AcDbSpline
210
0.0
220
0.0
230
1.0
 70
     8
 71
     3
 72
    17
 73
    13
 74
     0
 42
0.00000001
 43
0.00000001
 40
0.0
 40
0.0
 40
0.0
 40
0.0
 40
0.3241697628029873
 40
0.5422758463620719
 40
0.689509052693928
 40
0.7894036290694505
 40
0.8577090008137825
 40
0.9049823971474137
 40
0.9551712229700868
 40
0.9753097783197817
 40
0.9919572060138848
 40
1.0
 40
1.0
 40
1.0
 40
1.0
 10
217.524032118485
 20
87.76359917004056
 30
0.0
 10
217.5646825572118
 20
86.85098566743488
 30
0.0
 10
217.6326831963675
 20
85.32435266117355
 30
0.0
 10
217.7441160956838
 20
83.39757975889258
 30
0.0
 10
217.8366207557424
 20
82.10994428795982
 30
0.0
 10
217.9145222120598
 20
81.25079232123807
 30
0.0
 10
217.9805747114821
 20
80.67732443286066
 30
0.0
 10
218.0439313188445
 20
80.2557922788307
 30
0.0
 10
218.1020577865384
 20
79.97529973603527
 30
0.0
 10
218.1613996148612
 20
79.8197510674546
 30
0.0
 10
218.1984056834839
 20
79.7691404682571
 30
0.0
 10
218.2201002503544
 20
79.76496071645246
 30
0.0
 10
218.2271672153342
 20
79.763599170043
 30
0.0
  0
LINE
  5
1B0
330
1F
100
AcDbEntity
  8
0
  6
Continuous
 62
     7
370
    25
100
AcDbLine
 10
218.2271672153
 20
79.76359917
 30
0.0
 11
216.985905069
 21
79.76359917
 31
0.0
  0
SPLINE
  5
1B1
330
1F
100
AcDbEntity
  8
0
  6
Continuous
 62
     7
370
    25
100
AcDbSpline
210
0.0
220
0.0
230
1.0
 70
     8
 71
     3
 72
    14
 73
    10
 74
     0
 42
0.00000001
 43
0.00000001
 40
0.0
 40
0.0
 40
0.0
 40
0.0
 40
0.1576095309202822
 40
0.3152382602707094
 40
0.4726926441579498
 40
0.6301650083177254
 40
0.7907313191165901
 40
0.9513050385928076
 40
1.0
 40
1.0
 40
1.0
 40
1.0
 10
216.985905068979
 20
79.76359917004292
 30
0.0
 10
216.9693997321366
 20
79.97710095852032
 30
0.0
 10
216.9363870479352
 20
80.40413054214585
 30
0.0
 10
216.8565833580233
 20
80.98937762100215
 30
0.0
 10
216.7587959505371
 20
81.51153216182458
 30
0.0
 10
216.6452061108551
 20
81.96051028924445
 30
0.0
 10
216.5206640118234
 20
82.31979202105083
 30
0.0
 10
216.4203066710469
 20
82.52435820015201
 30
0.0
 10
216.3635208734318
 20
82.60515274850331
 30
0.0
 10
216.3503073232165
 20
82.62395292155009
 30
0.0
  0
ELLIPSE
  5
1B2
330
1F
100
AcDbEntity
  8
0
  6
Continuous
 62
     7
370
    25
100
AcDbEllipse
 10
280.0674449931
 20
86.1114736024
 30
0.0
 11
65.0
 21
0.0
 31
0.0
210
0.0
220
0.0
230
1.0
 40
0.2713992096
 41
3.250583596323188
 42
3.340598221070255
  0
LINE
  5
1B3
330
1F
100
AcDbEntity
  8
0
  6
Continuous
 62
     7
370
    25
100
AcDbLine
 10
217.7441928338
 20
88.758342748
 30
0.0
 11
217.5240321185
 21
87.76359917
 31
0.0
  0
LINE
  5
1B4
330
1F
100
AcDbEntity
  8
0
  6
Continuous
 62
     7
370
    25
100
AcDbLine
 10
215.0674449931
 20
88.758342748
 30
0.0
 11
217.7441928338
 21
88.758342748
 31
0.0
  0
LINE
  5
1B5
330
1F
100
AcDbEntity
  8
0
  6
Continuous
 62
     7
370
    25
100
AcDbLine
 10
206.784582663
 20
82.6239529216
 30
0.0
 11
216.3503073232
 21
82.6239529216
 31
0.0
  0
SPLINE
  5
1B6
330
1F
100
AcDbEntity
  8
0
  6
Continuous
 62
     7
370
    25
100
AcDbSpline
210
0.0
220
0.0
230
1.0
 70
     8
 71
     3
 72
    16
 73
    12
 74
     0
 42
0.00000001
 43
0.00000001
 40
0.0
 40
0.0
 40
0.0
 40
0.0
 40
0.1082397394540288
 40
0.2409347985297594
 40
0.3278143823752722
 40
0.4147786007912546
 40
0.5911316736061375
 40
0.6905102391473411
 40
0.7897210831517909
 40
0.9112972329116562
 40
1.0
 40
1.0
 40
1.0
 40
1.0
 10
214.1655212044653
 20
79.76359917004292
 30
0.0
 10
214.0474673212379
 20
79.94665636473377
 30
0.0
 10
213.7846868608034
 20
80.3541300758193
 30
0.0
 10
213.2080090997261
 20
80.69835974429326
 30
0.0
 10
212.622451507332
 20
80.90234228841102
 30
0.0
 10
211.9154294943
 20
81.03375631877309
 30
0.0
 10
211.1556065596846
 20
81.03073607471755
 30
0.0
 10
210.4016380534339
 20
80.87597634000923
 30
0.0
 10
209.8012618508675
 20
80.63543000866602
 30
0.0
 10
209.2846077397297
 20
80.27498817023636
 30
0.0
 10
209.0628948048177
 20
79.91531956568204
 30
0.0
 10
208.9693687817586
 20
79.76359917004292
 30
0.0
  0
LINE
  5
1B7
330
1F
100
AcDbEntity
  8
0
  6
Continuous
 62
     7
370
    25
100
AcDbLine
 10
208.9693687818
 20
79.76359917
 30
0.0
 11
206.1489849172
 21
79.76359917
 31
0.0
  0
LINE
  5
1B8
330
1F
100
AcDbEntity
  8
0
  6
Continuous
 62
     7
370
    25
100
AcDbLine
 10
216.985905069
 20
79.76359917
 30
0.0
 11
214.1655212045
 21
79.76359917
 31
0.0
  0
LINE
  5
1B9
330
1F
100
AcDbEntity
  8
0
  6
Continuous
 62
     7
370
    25
100
AcDbLine
 10
214.1655212045
 20
79.76359917
 30
0.0
 11
208.9693687818
 21
79.76359917
 31
0.0
  0
LINE
  5
1BA
330
1F
100
AcDbEntity
  8
0
  6
Continuous
 62
     7
370
    25
100
AcDbLine
 10
217.5240321185
 20
87.76359917
 30
0.0
 11
219.0174449931
 21
87.76359917
 31
0.0
  0
LINE
  5
1BB
330
1F
100
AcDbEntity
  8
0
  6
Continuous
 62
     7
370
    25
100
AcDbLine
 10
204.1174449931
 20
87.76359917
 30
0.0
 11
205.6108578677
 21
87.76359917
 31
0.0
  0
SPLINE
  5
1BC
330
1F
100
AcDbEntity
  8
0
  6
Continuous
 62
     7
370
    25
100
AcDbSpline
210
0.0
220
0.0
230
1.0
 70
     8
 71
     3
 72
     9
 73
     5
 74
     0
 42
0.00000001
 43
0.00000001
 40
0.0
 40
0.0
 40
0.0
 40
0.0
 40
0.4875141023677128
 40
0.9999999999999999
 40
0.9999999999999999
 40
0.9999999999999999
 40
0.9999999999999999
 10
218.2271672153342
 20
79.763599170043
 30
0.0
 10
218.2356933268699
 20
79.7653265160147
 30
0.0
 10
218.2531822805113
 20
79.76886968730618
 30
0.0
 10
218.2695039843977
 20
79.79038817325548
 30
0.0
 10
218.2778686274648
 20
79.80141609384292
 30
0.0
  0
SPLINE
  5
1BD
330
1F
100
AcDbEntity
  8
0
  6
Continuous
 62
     7
370
    25
100
AcDbSpline
210
0.0
220
0.0
230
1.0
 70
     8
 71
     3
 72
     9
 73
     5
 74
     0
 42
0.00000001
 43
0.00000001
 40
0.0
 40
0.0
 40
0.0
 40
0.0
 40
0.5124861829376838
 40
0.9999999999999999
 40
0.9999999999999999
 40
0.9999999999999999
 40
0.9999999999999999
 10
204.8570213896254
 20
79.80141604798314
 30
0.0
 10
204.865386032749
 20
79.79038813503198
 30
0.0
 10
204.8817077276593
 20
79.76886967596256
 30
0.0
 10
204.899196669901
 20
79.76532651161742
 30
0.0
 10
204.9077227708897
 20
79.76359917004302
 30
0.0
  0
LINE
  5
1BE
330
1F
100
AcDbEntity
  8
0
  6
Continuous
 62
     7
370
    25
100
AcDbLine
 10
218.2756489256
 20
79.76359917
 30
0.0
 11
218.5674449931
 21
79.76359917
 31
0.0
  0
LINE
  5
1BF
330
1F
100
AcDbEntity
  8
0
  6
Continuous
 62
     7
370
    25
100
AcDbLine
 10
204.5674449931
 20
79.76359917
 30
0.0
 11
204.8592410606
 21
79.76359917
 31
0.0
  0
LINE
  5
1C0
330
1F
100
AcDbEntity
  8
0
  6
Continuous
 62
     7
370
    25
100
AcDbLine
 10
218.2778686275
 20
79.8014160938
 30
0.0
 11
218.2756489256
 21
79.76359917
 31
0.0
  0
LINE
  5
1C1
330
1F
100
AcDbEntity
  8
0
  6
Continuous
 62
     7
370
    25
100
AcDbLine
 10
218.2756489256
 20
79.76359917
 30
0.0
 11
218.2271672153
 21
79.76359917
 31
0.0
  0
LINE
  5
1C2
330
1F
100
AcDbEntity
  8
0
  6
Continuous
 62
     7
370
    25
100
AcDbLine
 10
204.8592410606
 20
79.76359917
 30
0.0
 11
204.8570213896
 21
79.801416048
 31
0.0
  0
LINE
  5
1C3
330
1F
100
AcDbEntity
  8
0
  6
Continuous
 62
     7
370
    25
100
AcDbLine
 10
204.9077227709
 20
79.76359917
 30
0.0
 11
204.8592410606
 21
79.76359917
 31
0.0
  0
CIRCLE
  5
1C4
330
1F
100
AcDbEntity
  8
0
  6
Continuous
 62
     7
370
    25
100
AcDbCircle
 10
211.5674449931
 20
69.26359917
 30
0.0
 40
6.000000000000011
  0
CIRCLE
  5
1C5
330
1F
100
AcDbEntity
  8
0
  6
Continuous
 62
     7
370
    25
100
AcDbCircle
 10
211.5674449931
 20
69.26359917
 30
0.0
 40
5.009999999999999
  0
CIRCLE
  5
1C6
330
1F
100
AcDbEntity
  8
0
  6
Continuous
 62
     7
370
    25
100
AcDbCircle
 10
211.5674449931
 20
69.26359917
 30
0.0
 40
3.000000000000012
  0
CIRCLE
  5
1C7
330
1F
100
AcDbEntity
  8
0
  6
Continuous
 62
     7
370
    25
100
AcDbCircle
 10
211.5674449931
 20
69.26359917
 30
0.0
 40
2.900000000000007
  0
CIRCLE
  5
1C8
330
1F
100
AcDbEntity
  8
0
  6
Continuous
 62
     7
370
    25
100
AcDbCircle
 10
211.5674449931
 20
69.26359917
 30
0.0
 40
8.000000000000025
  0
CIRCLE
  5
1C9
330
1F
100
AcDbEntity
  8
0
  6
Continuous
 62
     7
370
    25
100
AcDbCircle
 10
211.5674449931
 20
69.26359917
 30
0.0
 40
7.80000000000002
  0
SPLINE
  5
1CA
330
1F
100
AcDbEntity
  8
0
  6
Continuous
 62
     7
370
    25
100
AcDbSpline
210
0.0
220
0.0
230
1.0
 70
     8
 71
     3
 72
    18
 73
    14
 74
     0
 42
0.00000001
 43
0.00000001
 40
0.0
 40
0.0
 40
0.0
 40
0.0
 40
0.0468482616128918
 40
0.1374798842167751
 40
0.2589429285613984
 40
0.3806196605720601
 40
0.3961192399372785
 40
0.5263333916152385
 40
0.6565458844057411
 40
0.7575326626984138
 40
0.8583162899695422
 40
0.9376391951245244
 40
1.0
 40
1.0
 40
1.0
 40
1.0
 10
212.1819027800985
 20
78.72379637754425
 30
0.0
 10
212.3245510099001
 20
78.71312626950409
 30
0.0
 10
212.7431633861479
 20
78.68181400374573
 30
0.0
 10
213.4968541180127
 20
78.50927101184405
 30
0.0
 10
214.3943799736481
 20
78.19449050012395
 30
0.0
 10
215.0041636659434
 20
77.87939275495114
 30
0.0
 10
215.5799013358349
 20
77.5330680371209
 30
0.0
 10
216.1172738860348
 20
77.15251141556607
 30
0.0
 10
216.6831933744035
 20
76.65488597943667
 30
0.0
 10
217.0847734209232
 20
76.24165116695109
 30
0.0
 10
217.3241084975966
 20
75.96827939397976
 30
0.0
 10
217.4492575239832
 20
75.81659235861703
 30
0.0
 10
217.4565739932451
 20
75.80716232324394
 30
0.0
 10
217.4597942710873
 20
75.80301177837366
 30
0.0
  0
SPLINE
  5
1CB
330
1F
100
AcDbEntity
  8
0
  6
Continuous
 62
     7
370
    25
100
AcDbSpline
210
0.0
220
0.0
230
1.0
 70
     8
 71
     3
 72
    19
 73
    15
 74
     0
 42
0.00000001
 43
0.00000001
 40
0.0
 40
0.0
 40
0.0
 40
0.0
 40
0.0663389399261943
 40
0.1059253903440237
 40
0.1953099057486755
 40
0.2848606784750018
 40
0.4058539227372187
 40
0.52693339712631
 40
0.6283677103195434
 40
0.7297347462875277
 40
0.8191458470735202
 40
0.9084829714226771
 40
0.9868723793755738
 40
1.0
 40
1.0
 40
1.0
 40
1.0
 10
205.6693875097038
 20
75.79616765028877
 30
0.0
 10
205.674127352725
 20
75.80196506123502
 30
0.0
 10
205.6816956033293
 20
75.81122196250826
 30
0.0
 10
205.7629527709207
 20
75.91022995566432
 30
0.0
 10
205.9126213307979
 20
76.08706761839467
 30
0.0
 10
206.2210101762006
 20
76.42387837872695
 30
0.0
 10
206.6782540287291
 20
76.86446640404614
 30
0.0
 10
207.2765814691462
 20
77.34648518793354
 30
0.0
 10
207.9464659796968
 20
77.78241292542914
 30
0.0
 10
208.6366199965331
 20
78.13876372757986
 30
0.0
 10
209.3727066094105
 20
78.42560590447869
 30
0.0
 10
210.1055135034876
 20
78.61758872967549
 30
0.0
 10
210.6460748848103
 20
78.71728922669286
 30
0.0
 10
210.9270442822457
 20
78.73023104589633
 30
0.0
 10
210.9673478160683
 20
78.73208747956048
 30
0.0
  0
LINE
  5
1CC
330
1F
100
AcDbEntity
  8
0
  6
Continuous
 62
     7
370
    25
100
AcDbLine
 10
208.0674449931
 20
96.36359917
 30
0.0
 11
206.0674449931
 21
96.36359917
 31
0.0
  0
LINE
  5
1CD
330
1F
100
AcDbEntity
  8
0
  6
Continuous
 62
     7
370
    25
100
AcDbLine
 10
217.0674449931
 20
96.36359917
 30
0.0
 11
215.0674449931
 21
96.36359917
 31
0.0
  0
INSERT
  5
1D9
330
1F
100
AcDbEntity
  8
0
  6
Continuous
 62
     7
370
    18
100
AcDbBlockReference
  2
SW_CENTERMARKSYMBOL_0
 10
211.5674449931
 20
69.26359917
 30
0.0
  0
LINE
  5
1DA
330
1F
100
AcDbEntity
  8
0
  6
Continuous
 62
     7
370
    18
100
AcDbLine
 10
203.8135046629
 20
56.76359917
 30
0.0
 11
204.1337819629
 21
46.5147255718
 31
0.0
  0
LINE
  5
1DB
330
1F
100
AcDbEntity
  8
0
  6
Continuous
 62
     7
370
    18
100
AcDbLine
 10
219.0011080234
 20
46.5147255718
 30
0.0
 11
219.3213853233
 21
56.76359917
 31
0.0
  0
LINE
  5
1DC
330
1F
100
AcDbEntity
  8
0
  6
Continuous
 62
     7
370
    25
100
AcDbLine
 10
171.3408141843
 20
124.4319084949
 30
0.0
 11
171.4851517516
 21
124.6819084949
 31
0.0
  0
LINE
  5
1DD
330
1F
100
AcDbEntity
  8
0
  6
Continuous
 62
     7
370
    25
100
AcDbLine
 10
171.4851517516
 20
141.1819084949
 30
0.0
 11
171.3408141843
 21
141.4319084949
 31
0.0
  0
LINE
  5
1DE
330
1F
100
AcDbEntity
  8
0
  6
Continuous
 62
     7
370
    25
100
AcDbLine
 10
147.6294893189
 20
141.4319084949
 30
0.0
 11
147.5851517516
 21
141.3551135757
 31
0.0
  0
LINE
  5
1DF
330
1F
100
AcDbEntity
  8
0
  6
Continuous
 62
     7
370
    25
100
AcDbLine
 10
147.5851517516
 20
124.5087034142
 30
0.0
 11
147.6294893189
 21
124.4319084949
 31
0.0
  0
LINE
  5
1E0
330
1F
100
AcDbEntity
  8
0
  6
Continuous
 62
     7
370
    25
100
AcDbLine
 10
144.7851517516
 20
140.9319084949
 30
0.0
 11
144.5851517516
 21
140.7319084949
 31
0.0
  0
LINE
  5
1E1
330
1F
100
AcDbEntity
  8
0
  6
Continuous
 62
     7
370
    25
100
AcDbLine
 10
144.5851517516
 20
125.1319084949
 30
0.0
 11
144.7851517516
 21
124.9319084949
 31
0.0
  0
LINE
  5
1E2
330
1F
100
AcDbEntity
  8
0
  6
Continuous
 62
     7
370
    25
100
AcDbLine
 10
147.5851517516
 20
140.9319084949
 30
0.0
 11
144.7851517516
 21
140.9319084949
 31
0.0
  0
LINE
  5
1E3
330
1F
100
AcDbEntity
  8
0
  6
Continuous
 62
     7
370
    25
100
AcDbLine
 10
144.7851517516
 20
124.9319084949
 30
0.0
 11
147.5851517516
 21
124.9319084949
 31
0.0
  0
ARC
  5
1E4
330
1F
100
AcDbEntity
  8
0
  6
Continuous
 62
     7
370
    25
100
AcDbCircle
 10
136.0751517516
 20
137.9419084949
 30
0.0
 40
0.9899999999999807
100
AcDbArc
 50
90.0
 51
180.0
  0
ARC
  5
1E5
330
1F
100
AcDbEntity
  8
0
  6
Continuous
 62
     7
370
    25
100
AcDbCircle
 10
136.0751517516
 20
127.9219084949
 30
0.0
 40
0.9899999999999949
100
AcDbArc
 50
180.0
 51
270.0
  0
ARC
  5
1E6
330
1F
100
AcDbEntity
  8
0
  6
Continuous
 62
     7
370
    25
100
AcDbCircle
 10
136.0951517516
 20
137.9419084949
 30
0.0
 40
0.9899999999999807
100
AcDbArc
 50
19.1995397339
 51
90.0
  0
ARC
  5
1E7
330
1F
100
AcDbEntity
  8
0
  6
Continuous
 62
     7
370
    25
100
AcDbCircle
 10
136.0951517516
 20
127.9219084949
 30
0.0
 40
0.9899999999999949
100
AcDbArc
 50
270.0
 51
340.8004602661
  0
LINE
  5
1E8
330
1F
100
AcDbEntity
  8
0
  6
Continuous
 62
     7
370
    25
100
AcDbLine
 10
136.0951517516
 20
138.9319084949
 30
0.0
 11
136.0751517516
 21
138.9319084949
 31
0.0
  0
LINE
  5
1E9
330
1F
100
AcDbEntity
  8
0
  6
Continuous
 62
     7
370
    25
100
AcDbLine
 10
136.0751517516
 20
126.9319084949
 30
0.0
 11
136.0951517516
 21
126.9319084949
 31
0.0
  0
ARC
  5
1EA
330
1F
100
AcDbEntity
  8
0
  6
Continuous
 62
     7
370
    25
100
AcDbCircle
 10
137.5022764795
 20
138.4319084949
 30
0.0
 40
0.5000000000000235
100
AcDbArc
 50
199.1995397339
 51
270.0
  0
ARC
  5
1EB
330
1F
100
AcDbEntity
  8
0
  6
Continuous
 62
     7
370
    25
100
AcDbCircle
 10
137.5022764795
 20
127.4319084949
 30
0.0
 40
0.5000000000000189
100
AcDbArc
 50
90.0
 51
160.8004602661
  0
LINE
  5
1EC
330
1F
100
AcDbEntity
  8
0
  6
Continuous
 62
     7
370
    25
100
AcDbLine
 10
144.5851517516
 20
137.9319084949
 30
0.0
 11
137.5022764795
 21
137.9319084949
 31
0.0
  0
LINE
  5
1ED
330
1F
100
AcDbEntity
  8
0
  6
Continuous
 62
     7
370
    25
100
AcDbLine
 10
137.5022764795
 20
127.9319084949
 30
0.0
 11
144.5851517516
 21
127.9319084949
 31
0.0
  0
SPLINE
  5
1EE
330
1F
100
AcDbEntity
  8
0
  6
Continuous
 62
     7
370
    25
100
AcDbSpline
210
0.0
220
0.0
230
1.0
 70
    24
 71
     3
 72
    10
 73
     6
 74
     0
 42
0.00000001
 43
0.00000001
 40
0.0
 40
0.0
 40
0.0
 40
0.0
 40
0.3696206477394096
 40
0.7422868690073858
 40
1.0
 40
1.0
 40
1.0
 40
1.0
 10
170.6630927790081
 20
124.4319084949308
 30
0.0
 10
170.8042955369294
 20
124.4319084949308
 30
0.0
 10
171.0878645250627
 20
124.4319084949308
 30
0.0
 10
171.3070030131228
 20
124.4319084949308
 30
0.0
 10
171.3293939806057
 20
124.4319084949308
 30
0.0
 10
171.3385479072298
 20
124.4319084949308
 30
0.0
  0
SPLINE
  5
1EF
330
1F
100
AcDbEntity
  8
0
  6
Continuous
 62
     7
370
    25
100
AcDbSpline
210
0.0
220
0.0
230
1.0
 70
     8
 71
     3
 72
    10
 73
     6
 74
     0
 42
0.00000001
 43
0.00000001
 40
0.0
 40
0.0
 40
0.0
 40
0.0
 40
0.5
 40
0.5
 40
1.0
 40
1.0
 40
1.0
 40
1.0
 10
170.6630927790081
 20
124.6819084949308
 30
0.0
 10
170.6394173845837
 20
124.6075281175535
 30
0.0
 10
170.6263262746991
 20
124.5432274787677
 30
0.0
 10
170.6262399534108
 20
124.4550117939848
 30
0.0
 10
170.6394088873546
 20
124.4319084949308
 30
0.0
 10
170.6630927790081
 20
124.4319084949308
 30
0.0
  0
SPLINE
  5
1F0
330
1F
100
AcDbEntity
  8
0
  6
Continuous
 62
     7
370
    25
100
AcDbSpline
210
0.0
220
0.0
230
1.0
 70
     8
 71
     3
 72
    16
 73
    12
 74
     0
 42
0.00000001
 43
0.00000001
 40
0.0
 40
0.0
 40
0.0
 40
0.0
 40
0.2500000000000001
 40
0.2500000000000001
 40
0.5000000000000001
 40
0.5000000000000001
 40
0.6250000000000001
 40
0.6250000000000001
 40
0.7500000000000002
 40
0.7500000000000002
 40
1.0
 40
1.0
 40
1.0
 40
1.0
 10
170.6630927790081
 20
132.6819084949308
 30
0.0
 10
170.8711082271139
 20
132.02839171489
 30
0.0
 10
171.0413145320869
 20
131.3701713058001
 30
0.0
 10
171.2762505636545
 20
130.0406087224343
 30
0.0
 10
171.3403226953181
 20
129.3691847403637
 30
0.0
 10
171.3410556442391
 20
128.350183653357
 30
0.0
 10
171.3253961641561
 20
128.0088428710408
 30
0.0
 10
171.2641210375191
 20
127.3332443680704
 30
0.0
 10
171.21856476502
 20
126.9975852181058
 30
0.0
 10
171.0420787322637
 20
125.996319581606
 30
0.0
 10
170.8714222787781
 20
125.3364119230029
 30
0.0
 10
170.6630927790081
 20
124.6819084949308
 30
0.0
  0
SPLINE
  5
1F1
330
1F
100
AcDbEntity
  8
0
  6
Continuous
 62
     7
370
    25
100
AcDbSpline
210
0.0
220
0.0
230
1.0
 70
     8
 71
     3
 72
    10
 73
     6
 74
     0
 42
0.00000001
 43
0.00000001
 40
0.0
 40
0.0
 40
0.0
 40
0.0
 40
0.5
 40
0.5
 40
1.0
 40
1.0
 40
1.0
 40
1.0
 10
170.6630927790081
 20
133.1819084949308
 30
0.0
 10
170.6394173845837
 20
133.1075281175535
 30
0.0
 10
170.6263262746991
 20
133.0204350294379
 30
0.0
 10
170.6262399534108
 20
132.844276640562
 30
0.0
 10
170.6394088873546
 20
132.7563155678341
 30
0.0
 10
170.6630927790081
 20
132.6819084949308
 30
0.0
  0
SPLINE
  5
1F2
330
1F
100
AcDbEntity
  8
0
  6
Continuous
 62
     7
370
    25
100
AcDbSpline
210
0.0
220
0.0
230
1.0
 70
     8
 71
     3
 72
    16
 73
    12
 74
     0
 42
0.00000001
 43
0.00000001
 40
0.0
 40
0.0
 40
0.0
 40
0.0
 40
0.2499999999999997
 40
0.2499999999999997
 40
0.4999999999999993
 40
0.4999999999999993
 40
0.6249999999999993
 40
0.6249999999999993
 40
0.7499999999999996
 40
0.7499999999999996
 40
1.0
 40
1.0
 40
1.0
 40
1.0
 10
170.6630927790081
 20
141.1819084949308
 30
0.0
 10
170.8711082271138
 20
140.52839171489
 30
0.0
 10
171.0413145320869
 20
139.8701713058001
 30
0.0
 10
171.2762505636545
 20
138.5406087224343
 30
0.0
 10
171.3403226953181
 20
137.8691847403637
 30
0.0
 10
171.3410556442391
 20
136.850183653357
 30
0.0
 10
171.3253961641561
 20
136.5088428710409
 30
0.0
 10
171.2641210375191
 20
135.8332443680704
 30
0.0
 10
171.21856476502
 20
135.4975852181058
 30
0.0
 10
171.0420787322637
 20
134.496319581606
 30
0.0
 10
170.8714222787781
 20
133.8364119230029
 30
0.0
 10
170.6630927790081
 20
133.1819084949308
 30
0.0
  0
SPLINE
  5
1F3
330
1F
100
AcDbEntity
  8
0
  6
Continuous
 62
     7
370
    25
100
AcDbSpline
210
0.0
220
0.0
230
1.0
 70
     8
 71
     3
 72
    10
 73
     6
 74
     0
 42
0.00000001
 43
0.00000001
 40
0.0
 40
0.0
 40
0.0
 40
0.0
 40
0.5
 40
0.5
 40
1.0
 40
1.0
 40
1.0
 40
1.0
 10
170.6630927790081
 20
141.4319084949308
 30
0.0
 10
170.6394173845837
 20
141.4319084949308
 30
0.0
 10
170.6263262746991
 20
141.4091160456011
 30
0.0
 10
170.6262399534108
 20
141.321173341508
 30
0.0
 10
170.6394088873546
 20
141.2563155678341
 30
0.0
 10
170.6630927790081
 20
141.1819084949308
 30
0.0
  0
SPLINE
  5
1F4
330
1F
100
AcDbEntity
  8
0
  6
Continuous
 62
     7
370
    25
100
AcDbSpline
210
0.0
220
0.0
230
1.0
 70
    24
 71
     3
 72
    10
 73
     6
 74
     0
 42
0.00000001
 43
0.00000001
 40
0.0
 40
0.0
 40
0.0
 40
0.0
 40
0.2577093523435597
 40
0.6270769306220254
 40
1.0
 40
1.0
 40
1.0
 40
1.0
 10
171.3372061631036
 20
141.4319084949308
 30
0.0
 10
171.3286026615975
 20
141.4319084949308
 30
0.0
 10
171.3076680029676
 20
141.4319084949308
 30
0.0
 10
171.0886988429766
 20
141.4319084949308
 30
0.0
 10
170.8054137685159
 20
141.4319084949308
 30
0.0
 10
170.6630927790081
 20
141.4319084949308
 30
0.0
  0
LINE
  5
1F5
330
1F
100
AcDbEntity
  8
0
  6
Continuous
 62
     7
370
    25
100
AcDbLine
 10
171.4851517516
 20
141.1819084949
 30
0.0
 11
171.4851517516
 21
124.6819084949
 31
0.0
  0
SPLINE
  5
1F6
330
1F
100
AcDbEntity
  8
0
  6
Continuous
 62
     7
370
    25
100
AcDbSpline
210
0.0
220
0.0
230
1.0
 70
     8
 71
     3
 72
    11
 73
     7
 74
     0
 42
0.00000001
 43
0.00000001
 40
0.0
 40
0.0
 40
0.0
 40
0.0
 40
0.2728922242471614
 40
0.5457173061692318
 40
0.8242036621894181
 40
1.0
 40
1.0
 40
1.0
 40
1.0
 10
148.3072107241233
 20
124.6819084949308
 30
0.0
 10
148.20265729515
 20
125.0298625861823
 30
0.0
 10
147.9935761614992
 20
125.7256851581598
 30
0.0
 10
147.775405069675
 20
126.7952867282566
 30
0.0
 10
147.6482162190237
 20
127.7484394062757
 30
0.0
 10
147.644350474501
 20
128.3470047507985
 30
0.0
 10
147.6428545255264
 20
128.5786349602175
 30
0.0
  0
SPLINE
  5
1F7
330
1F
100
AcDbEntity
  8
0
  6
Continuous
 62
     7
370
    25
100
AcDbSpline
210
0.0
220
0.0
230
1.0
 70
     8
 71
     3
 72
    10
 73
     6
 74
     0
 42
0.00000001
 43
0.00000001
 40
0.0
 40
0.0
 40
0.0
 40
0.0
 40
0.5
 40
0.5
 40
1.0
 40
1.0
 40
1.0
 40
1.0
 10
148.3072107241233
 20
124.4319084949308
 30
0.0
 10
148.3308861185477
 20
124.4319084949308
 30
0.0
 10
148.3439772284324
 20
124.4547009442606
 30
0.0
 10
148.3440635497206
 20
124.5426436483537
 30
0.0
 10
148.3308946157768
 20
124.6075014220276
 30
0.0
 10
148.3072107241233
 20
124.6819084949308
 30
0.0
  0
SPLINE
  5
1F8
330
1F
100
AcDbEntity
  8
0
  6
Continuous
 62
     7
370
    25
100
AcDbSpline
210
0.0
220
0.0
230
1.0
 70
    24
 71
     3
 72
    10
 73
     6
 74
     0
 42
0.00000001
 43
0.00000001
 40
0.0
 40
0.0
 40
0.0
 40
0.0
 40
0.249451590581644
 40
0.6228784731851938
 40
1.0
 40
1.0
 40
1.0
 40
1.0
 10
147.6346130986322
 20
124.4319084949308
 30
0.0
 10
147.6419991001799
 20
124.4319084949308
 30
0.0
 10
147.6604418824298
 20
124.4319084949308
 30
0.0
 10
147.8774139085151
 20
124.4319084949308
 30
0.0
 10
148.1634757302973
 20
124.4319084949308
 30
0.0
 10
148.3072107241233
 20
124.4319084949308
 30
0.0
  0
SPLINE
  5
1F9
330
1F
100
AcDbEntity
  8
0
  6
Continuous
 62
     7
370
    25
100
AcDbSpline
210
0.0
220
0.0
230
1.0
 70
    24
 71
     3
 72
    10
 73
     6
 74
     0
 42
0.00000001
 43
0.00000001
 40
0.0
 40
0.0
 40
0.0
 40
0.0
 40
0.3736912241656335
 40
0.7505444045138879
 40
1.0
 40
1.0
 40
1.0
 40
1.0
 10
148.3072107241233
 20
141.4319084949308
 30
0.0
 10
148.1646345673315
 20
141.4319084949308
 30
0.0
 10
147.8782758578485
 20
141.4319084949308
 30
0.0
 10
147.6611088125244
 20
141.4319084949308
 30
0.0
 10
147.6412302330146
 20
141.4319084949308
 30
0.0
 10
147.6333126960419
 20
141.4319084949308
 30
0.0
  0
SPLINE
  5
1FA
330
1F
100
AcDbEntity
  8
0
  6
Continuous
 62
     7
370
    25
100
AcDbSpline
210
0.0
220
0.0
230
1.0
 70
     8
 71
     3
 72
    10
 73
     6
 74
     0
 42
0.00000001
 43
0.00000001
 40
0.0
 40
0.0
 40
0.0
 40
0.0
 40
0.5
 40
0.5
 40
1.0
 40
1.0
 40
1.0
 40
1.0
 10
148.3072107241233
 20
141.1819084949308
 30
0.0
 10
148.3308861185477
 20
141.2562888723082
 30
0.0
 10
148.3439772284324
 20
141.3205895110939
 30
0.0
 10
148.3440635497206
 20
141.4088051958769
 30
0.0
 10
148.3308946157768
 20
141.4319084949308
 30
0.0
 10
148.3072107241233
 20
141.4319084949308
 30
0.0
  0
SPLINE
  5
1FB
330
1F
100
AcDbEntity
  8
0
  6
Continuous
 62
     7
370
    25
100
AcDbSpline
210
0.0
220
0.0
230
1.0
 70
     8
 71
     3
 72
    10
 73
     6
 74
     0
 42
0.00000001
 43
0.00000001
 40
0.0
 40
0.0
 40
0.0
 40
0.0
 40
0.0492153451902603
 40
0.5206854070913425
 40
1.0
 40
1.0
 40
1.0
 40
1.0
 10
147.6380423919701
 20
137.2900167527307
 30
0.0
 10
147.6362381227827
 20
137.3547180126212
 30
0.0
 10
147.6171494293531
 20
138.0392403240093
 30
0.0
 10
147.7941418306065
 20
139.3551058854615
 30
0.0
 10
148.1352496464411
 20
140.569634101752
 30
0.0
 10
148.3072107241233
 20
141.1819084949308
 30
0.0
  0
LINE
  5
1FC
330
1F
100
AcDbEntity
  8
0
  6
Continuous
 62
     7
370
    25
100
AcDbLine
 10
147.5851517516
 20
124.5087034142
 30
0.0
 11
147.5851517516
 21
128.6145805903
 31
0.0
  0
LINE
  5
1FD
330
1F
100
AcDbEntity
  8
0
  6
Continuous
 62
     7
370
    25
100
AcDbLine
 10
147.5851517516
 20
137.2492363995
 30
0.0
 11
147.5851517516
 21
141.3551135757
 31
0.0
  0
SPLINE
  5
1FE
330
1F
100
AcDbEntity
  8
0
  6
Continuous
 62
     7
370
    25
100
AcDbSpline
210
0.0
220
0.0
230
1.0
 70
     8
 71
     3
 72
    10
 73
     6
 74
     0
 42
0.00000001
 43
0.00000001
 40
0.0
 40
0.0
 40
0.0
 40
0.0
 40
0.0462065521438292
 40
0.5191685984145291
 40
1.0
 40
1.0
 40
1.0
 40
1.0
 10
165.4868004923774
 20
137.3024360224314
 30
0.0
 10
165.4874475001028
 20
137.3629981242958
 30
0.0
 10
165.4947171637845
 20
138.0434631251053
 30
0.0
 10
165.6410947971622
 20
139.3550765783443
 30
0.0
 10
165.9879929990678
 20
140.5696242791268
 30
0.0
 10
166.1628731568259
 20
141.1819084949308
 30
0.0
  0
LINE
  5
1FF
330
1F
100
AcDbEntity
  8
0
  6
Continuous
 62
     7
370
    25
100
AcDbLine
 10
170.663092779
 20
141.1819084949
 30
0.0
 11
166.1628731568
 21
141.1819084949
 31
0.0
  0
LINE
  5
200
330
1F
100
AcDbEntity
  8
0
  6
Continuous
 62
     7
370
    25
100
AcDbLine
 10
152.8074303463
 20
141.1819084949
 30
0.0
 11
148.3072107241
 21
141.1819084949
 31
0.0
  0
SPLINE
  5
201
330
1F
100
AcDbEntity
  8
0
  6
Continuous
 62
     7
370
    25
100
AcDbSpline
210
0.0
220
0.0
230
1.0
 70
     8
 71
     3
 72
     9
 73
     5
 74
     0
 42
0.00000001
 43
0.00000001
 40
0.0
 40
0.0
 40
0.0
 40
0.0
 40
0.7349271183512944
 40
1.0
 40
1.0
 40
1.0
 40
1.0
 10
152.8074303463055
 20
141.1819084949309
 30
0.0
 10
152.9992992311902
 20
140.5314963349229
 30
0.0
 10
153.2603712206348
 20
139.6464940758321
 30
0.0
 10
153.3690868585802
 20
138.7394763850157
 30
0.0
 10
153.3979044260107
 20
138.4990505920046
 30
0.0
  0
SPLINE
  5
202
330
1F
100
AcDbEntity
  8
0
  6
Continuous
 62
     7
370
    25
100
AcDbSpline
210
0.0
220
0.0
230
1.0
 70
     8
 71
     3
 72
     9
 73
     5
 74
     0
 42
0.00000001
 43
0.00000001
 40
0.0
 40
0.0
 40
0.0
 40
0.0
 40
0.3107600758301498
 40
1.0
 40
1.0
 40
1.0
 40
1.0
 10
153.3718117559185
 20
127.3767843697038
 30
0.0
 10
153.3472394583887
 20
127.0930164200976
 30
0.0
 10
153.2681678547918
 20
126.1798748305671
 30
0.0
 10
152.9954194417961
 20
125.2931053940867
 30
0.0
 10
152.8074303463055
 20
124.6819084949308
 30
0.0
  0
LINE
  5
203
330
1F
100
AcDbEntity
  8
0
  6
Continuous
 62
     7
370
    25
100
AcDbLine
 10
148.3072107241
 20
124.6819084949
 30
0.0
 11
152.8074303463
 21
124.6819084949
 31
0.0
  0
LINE
  5
204
330
1F
100
AcDbEntity
  8
0
  6
Continuous
 62
     7
370
    25
100
AcDbLine
 10
166.1628731568
 20
124.6819084949
 30
0.0
 11
170.663092779
 21
124.6819084949
 31
0.0
  0
SPLINE
  5
205
330
1F
100
AcDbEntity
  8
0
  6
Continuous
 62
     7
370
    25
100
AcDbSpline
210
0.0
220
0.0
230
1.0
 70
     8
 71
     3
 72
    10
 73
     6
 74
     0
 42
0.00000001
 43
0.00000001
 40
0.0
 40
0.0
 40
0.0
 40
0.0
 40
0.5071780628999478
 40
0.7652704560580089
 40
1.0
 40
1.0
 40
1.0
 40
1.0
 10
166.1628731568259
 20
124.6819084949308
 30
0.0
 10
165.977892338949
 20
125.3329071841527
 30
0.0
 10
165.6987786208808
 20
126.3151855992432
 30
0.0
 10
165.5173939163827
 20
127.6288971087367
 30
0.0
 10
165.4984517525876
 20
128.2796358969256
 30
0.0
 10
165.4894296593442
 20
128.5895807420673
 30
0.0
  0
LINE
  5
206
330
1F
100
AcDbEntity
  8
0
  6
Continuous
 62
     7
370
    25
100
AcDbLine
 10
165.4851517516
 20
128.5157450016
 30
0.0
 11
165.4851517516
 21
125.4319084949
 31
0.0
  0
LINE
  5
207
330
1F
100
AcDbEntity
  8
0
  6
Continuous
 62
     7
370
    25
100
AcDbLine
 10
165.4851517516
 20
125.4319084949
 30
0.0
 11
153.4851517516
 21
125.4319084949
 31
0.0
  0
LINE
  5
208
330
1F
100
AcDbEntity
  8
0
  6
Continuous
 62
     7
370
    25
100
AcDbLine
 10
153.4851517516
 20
127.387092891
 30
0.0
 11
153.4851517516
 21
125.4319084949
 31
0.0
  0
LINE
  5
209
330
1F
100
AcDbEntity
  8
0
  6
Continuous
 62
     7
370
    25
100
AcDbLine
 10
153.4851517516
 20
140.4319084949
 30
0.0
 11
153.4851517516
 21
138.4767240989
 31
0.0
  0
LINE
  5
20A
330
1F
100
AcDbEntity
  8
0
  6
Continuous
 62
     7
370
    25
100
AcDbLine
 10
153.4851517516
 20
140.4319084949
 30
0.0
 11
165.4851517516
 21
140.4319084949
 31
0.0
  0
LINE
  5
20B
330
1F
100
AcDbEntity
  8
0
  6
Continuous
 62
     7
370
    25
100
AcDbLine
 10
165.4851517516
 20
140.4319084949
 30
0.0
 11
165.4851517516
 21
137.3480719883
 31
0.0
  0
SPLINE
  5
20C
330
1F
100
AcDbEntity
  8
0
  6
Continuous
 62
     7
370
    25
100
AcDbSpline
210
0.0
220
0.0
230
1.0
 70
     8
 71
     3
 72
     8
 73
     4
 74
     0
 42
0.00000001
 43
0.00000001
 40
0.0
 40
0.0
 40
0.0
 40
0.0
 40
1.0
 40
1.0
 40
1.0
 40
1.0
 10
152.9689156745865
 20
141.4319084949308
 30
0.0
 10
153.1426187508063
 20
141.0993970727953
 30
0.0
 10
153.314920969869
 20
140.7660699728965
 30
0.0
 10
153.4851517515657
 20
140.4319084949308
 30
0.0
  0
SPLINE
  5
20D
330
1F
100
AcDbEntity
  8
0
  6
Continuous
 62
     7
370
    25
100
AcDbSpline
210
0.0
220
0.0
230
1.0
 70
     8
 71
     3
 72
    10
 73
     6
 74
     0
 42
0.00000001
 43
0.00000001
 40
0.0
 40
0.0
 40
0.0
 40
0.0
 40
0.5
 40
0.5
 40
1.0
 40
1.0
 40
1.0
 40
1.0
 10
152.8074303463112
 20
141.4319084949308
 30
0.0
 10
152.7837549518869
 20
141.4319084949308
 30
0.0
 10
152.7706638419966
 20
141.4091160456014
 30
0.0
 10
152.7705775207081
 20
141.3211733415083
 30
0.0
 10
152.783746454652
 20
141.2563155678343
 30
0.0
 10
152.8074303463055
 20
141.1819084949309
 30
0.0
  0
SPLINE
  5
20E
330
1F
100
AcDbEntity
  8
0
  6
Continuous
 62
     7
370
    25
100
AcDbSpline
210
0.0
220
0.0
230
1.0
 70
    24
 71
     3
 72
     8
 73
     4
 74
     0
 42
0.00000001
 43
0.00000001
 40
0.0
 40
0.0
 40
0.0
 40
0.0
 40
1.0
 40
1.0
 40
1.0
 40
1.0
 10
152.9689156745865
 20
141.4319084949308
 30
0.0
 10
152.9180169576641
 20
141.4319084949308
 30
0.0
 10
152.8640828214135
 20
141.4319084949308
 30
0.0
 10
152.8074303463059
 20
141.4319084949308
 30
0.0
  0
SPLINE
  5
20F
330
1F
100
AcDbEntity
  8
0
  6
Continuous
 62
     7
370
    25
100
AcDbSpline
210
0.0
220
0.0
230
1.0
 70
     8
 71
     3
 72
     8
 73
     4
 74
     0
 42
0.00000001
 43
0.00000001
 40
0.0
 40
0.0
 40
0.0
 40
0.0
 40
1.0
 40
1.0
 40
1.0
 40
1.0
 10
165.4851517515657
 20
140.4319084949308
 30
0.0
 10
165.6554293589094
 20
140.7661618912162
 30
0.0
 10
165.8277011075351
 20
141.0994283807851
 30
0.0
 10
166.0013878285448
 20
141.4319084949306
 30
0.0
  0
SPLINE
  5
210
330
1F
100
AcDbEntity
  8
0
  6
Continuous
 62
     7
370
    25
100
AcDbSpline
210
0.0
220
0.0
230
1.0
 70
    24
 71
     3
 72
     8
 73
     4
 74
     0
 42
0.00000001
 43
0.00000001
 40
0.0
 40
0.0
 40
0.0
 40
0.0
 40
1.0
 40
1.0
 40
1.0
 40
1.0
 10
166.0013878285444
 20
141.4319084949308
 30
0.0
 10
166.0522840617996
 20
141.4319084949308
 30
0.0
 10
166.1062180167634
 20
141.4319084949308
 30
0.0
 10
166.1628731568259
 20
141.4319084949308
 30
0.0
  0
SPLINE
  5
211
330
1F
100
AcDbEntity
  8
0
  6
Continuous
 62
     7
370
    25
100
AcDbSpline
210
0.0
220
0.0
230
1.0
 70
     8
 71
     3
 72
    10
 73
     6
 74
     0
 42
0.00000001
 43
0.00000001
 40
0.0
 40
0.0
 40
0.0
 40
0.0
 40
0.5
 40
0.5
 40
1.0
 40
1.0
 40
1.0
 40
1.0
 10
166.1628731568259
 20
141.1819084949308
 30
0.0
 10
166.1865485512503
 20
141.2562888723082
 30
0.0
 10
166.1996396611349
 20
141.3205895110939
 30
0.0
 10
166.1997259824232
 20
141.4088051958769
 30
0.0
 10
166.1865570484794
 20
141.4319084949308
 30
0.0
 10
166.1628731568259
 20
141.4319084949308
 30
0.0
  0
SPLINE
  5
212
330
1F
100
AcDbEntity
  8
0
  6
Continuous
 62
     7
370
    25
100
AcDbSpline
210
0.0
220
0.0
230
1.0
 70
     8
 71
     3
 72
     8
 73
     4
 74
     0
 42
0.00000001
 43
0.00000001
 40
0.0
 40
0.0
 40
0.0
 40
0.0
 40
1.0
 40
1.0
 40
1.0
 40
1.0
 10
153.4851517515657
 20
125.4319084949309
 30
0.0
 10
153.314874144222
 20
125.0976550986454
 30
0.0
 10
153.1426023955962
 20
124.7643886090764
 30
0.0
 10
152.9689156745865
 20
124.4319084949308
 30
0.0
  0
SPLINE
  5
213
330
1F
100
AcDbEntity
  8
0
  6
Continuous
 62
     7
370
    25
100
AcDbSpline
210
0.0
220
0.0
230
1.0
 70
    24
 71
     3
 72
     8
 73
     4
 74
     0
 42
0.00000001
 43
0.00000001
 40
0.0
 40
0.0
 40
0.0
 40
0.0
 40
1.0
 40
1.0
 40
1.0
 40
1.0
 10
152.9689156745865
 20
124.4319084949308
 30
0.0
 10
152.918016957664
 20
124.4319084949308
 30
0.0
 10
152.8640828214133
 20
124.4319084949308
 30
0.0
 10
152.8074303463055
 20
124.4319084949308
 30
0.0
  0
SPLINE
  5
214
330
1F
100
AcDbEntity
  8
0
  6
Continuous
 62
     7
370
    25
100
AcDbSpline
210
0.0
220
0.0
230
1.0
 70
     8
 71
     3
 72
    10
 73
     6
 74
     0
 42
0.00000001
 43
0.00000001
 40
0.0
 40
0.0
 40
0.0
 40
0.0
 40
0.5
 40
0.5
 40
1.0
 40
1.0
 40
1.0
 40
1.0
 10
152.8074303463055
 20
124.6819084949308
 30
0.0
 10
152.7837549518811
 20
124.6075281175535
 30
0.0
 10
152.7706638419965
 20
124.5432274787677
 30
0.0
 10
152.7705775207082
 20
124.4550117939848
 30
0.0
 10
152.783746454652
 20
124.4319084949308
 30
0.0
 10
152.8074303463055
 20
124.4319084949308
 30
0.0
  0
SPLINE
  5
215
330
1F
100
AcDbEntity
  8
0
  6
Continuous
 62
     7
370
    25
100
AcDbSpline
210
0.0
220
0.0
230
1.0
 70
     8
 71
     3
 72
     8
 73
     4
 74
     0
 42
0.00000001
 43
0.00000001
 40
0.0
 40
0.0
 40
0.0
 40
0.0
 40
1.0
 40
1.0
 40
1.0
 40
1.0
 10
166.0013878285449
 20
124.4319084949308
 30
0.0
 10
165.8276847523251
 20
124.7644199170663
 30
0.0
 10
165.6553825332624
 20
125.0977470169652
 30
0.0
 10
165.4851517515657
 20
125.4319084949309
 30
0.0
  0
SPLINE
  5
216
330
1F
100
AcDbEntity
  8
0
  6
Continuous
 62
     7
370
    25
100
AcDbSpline
210
0.0
220
0.0
230
1.0
 70
     8
 71
     3
 72
    10
 73
     6
 74
     0
 42
0.00000001
 43
0.00000001
 40
0.0
 40
0.0
 40
0.0
 40
0.0
 40
0.5
 40
0.5
 40
1.0
 40
1.0
 40
1.0
 40
1.0
 10
166.1628731568259
 20
124.4319084949308
 30
0.0
 10
166.1865485512503
 20
124.4319084949308
 30
0.0
 10
166.1996396611349
 20
124.4547009442606
 30
0.0
 10
166.1997259824232
 20
124.5426436483537
 30
0.0
 10
166.1865570484794
 20
124.6075014220275
 30
0.0
 10
166.1628731568259
 20
124.6819084949308
 30
0.0
  0
SPLINE
  5
217
330
1F
100
AcDbEntity
  8
0
  6
Continuous
 62
     7
370
    25
100
AcDbSpline
210
0.0
220
0.0
230
1.0
 70
    24
 71
     3
 72
     8
 73
     4
 74
     0
 42
0.00000001
 43
0.00000001
 40
0.0
 40
0.0
 40
0.0
 40
0.0
 40
1.0
 40
1.0
 40
1.0
 40
1.0
 10
166.0013878285449
 20
124.4319084949308
 30
0.0
 10
166.0522840618
 20
124.4319084949308
 30
0.0
 10
166.1062180167636
 20
124.4319084949308
 30
0.0
 10
166.1628731568259
 20
124.4319084949308
 30
0.0
  0
LINE
  5
218
330
1F
100
AcDbEntity
  8
0
  6
Continuous
 62
     7
370
    25
100
AcDbLine
 10
148.3072107241
 20
141.4319084949
 30
0.0
 11
152.8074303463
 21
141.4319084949
 31
0.0
  0
LINE
  5
219
330
1F
100
AcDbEntity
  8
0
  6
Continuous
 62
     7
370
    25
100
AcDbLine
 10
166.1628731568
 20
141.4319084949
 30
0.0
 11
170.663092779
 21
141.4319084949
 31
0.0
  0
LINE
  5
21A
330
1F
100
AcDbEntity
  8
0
  6
Continuous
 62
     7
370
    25
100
AcDbLine
 10
170.663092779
 20
124.4319084949
 30
0.0
 11
166.1628731568
 21
124.4319084949
 31
0.0
  0
LINE
  5
21B
330
1F
100
AcDbEntity
  8
0
  6
Continuous
 62
     7
370
    25
100
AcDbLine
 10
152.8074303463
 20
124.4319084949
 30
0.0
 11
148.3072107241
 21
124.4319084949
 31
0.0
  0
LINE
  5
21C
330
1F
100
AcDbEntity
  8
0
  6
Continuous
 62
     7
370
    25
100
AcDbLine
 10
166.0013878285
 20
141.4319084949
 30
0.0
 11
152.9689156746
 21
141.4319084949
 31
0.0
  0
LINE
  5
21D
330
1F
100
AcDbEntity
  8
0
  6
Continuous
 62
     7
370
    25
100
AcDbLine
 10
166.0013878285
 20
124.4319084949
 30
0.0
 11
152.9689156746
 21
124.4319084949
 31
0.0
  0
SPLINE
  5
21E
330
1F
100
AcDbEntity
  8
0
  6
Continuous
 62
     7
370
    25
100
AcDbSpline
210
0.0
220
0.0
230
1.0
 70
     8
 71
     3
 72
    15
 73
    11
 74
     0
 42
0.00000001
 43
0.00000001
 40
0.0
 40
0.0
 40
0.0
 40
0.0
 40
0.0090459071881971
 40
0.1032433785236817
 40
0.1542564497735191
 40
0.3133169026715104
 40
0.5243720399414403
 40
0.667806000850918
 40
0.9918332554187028
 40
1.0
 40
1.0
 40
1.0
 40
1.0
 10
154.2460664189076
 20
134.6058215384091
 30
0.0
 10
154.2460721108743
 20
134.6058038926846
 30
0.0
 10
154.2461370748251
 20
134.6056024972721
 30
0.0
 10
154.248132761261
 20
134.5994128766059
 30
0.0
 10
154.2559497574774
 20
134.5752109447617
 30
0.0
 10
154.2731195812324
 20
134.5221919527601
 30
0.0
 10
154.2997034777999
 20
134.4408210655635
 30
0.0
 10
154.3375327762885
 20
134.326241993541
 30
0.0
 10
154.3658135562988
 20
134.2418168158219
 30
0.0
 10
154.3856447038301
 20
134.1833459578699
 30
0.0
 10
154.3861322379729
 20
134.1819084949308
 30
0.0
  0
ARC
  5
21F
330
1F
100
AcDbEntity
  8
0
  6
Continuous
 62
     7
370
    25
100
AcDbCircle
 10
159.4851517516
 20
132.9319084949
 30
0.0
 40
5.500000000000029
100
AcDbArc
 50
17.7189318734
 51
162.2810681266
  0
SPLINE
  5
220
330
1F
100
AcDbEntity
  8
0
  6
Continuous
 62
     7
370
    25
100
AcDbSpline
210
0.0
220
0.0
230
1.0
 70
     8
 71
     3
 72
    15
 73
    11
 74
     0
 42
0.00000001
 43
0.00000001
 40
0.0
 40
0.0
 40
0.0
 40
0.0
 40
0.0081667445812973
 40
0.3321939991490804
 40
0.475627960058556
 40
0.6866830973284891
 40
0.8457435502264751
 40
0.8967566214763124
 40
0.9909540928118028
 40
1.0
 40
1.0
 40
1.0
 40
1.0
 10
164.5841712651585
 20
134.1819084949308
 30
0.0
 10
164.5846587993014
 20
134.1833459578699
 30
0.0
 10
164.6044899468326
 20
134.2418168158219
 30
0.0
 10
164.6327707268429
 20
134.326241993541
 30
0.0
 10
164.6706000253315
 20
134.4408210655635
 30
0.0
 10
164.6971839218991
 20
134.5221919527601
 30
0.0
 10
164.714353745654
 20
134.5752109447618
 30
0.0
 10
164.7221707418705
 20
134.5994128766059
 30
0.0
 10
164.7241664283064
 20
134.6056024972721
 30
0.0
 10
164.7242313922571
 20
134.6058038926846
 30
0.0
 10
164.7242370842238
 20
134.6058215384091
 30
0.0
  0
ARC
  5
221
330
1F
100
AcDbEntity
  8
0
  6
Continuous
 62
     7
370
    25
100
AcDbCircle
 10
159.4851517516
 20
132.9319084949
 30
0.0
 40
5.250000000000009
100
AcDbArc
 50
13.774146998
 51
166.225853002
  0
SPLINE
  5
222
330
1F
100
AcDbEntity
  8
0
  6
Continuous
 62
     7
370
    25
100
AcDbSpline
210
0.0
220
0.0
230
1.0
 70
     8
 71
     3
 72
    15
 73
    11
 74
     0
 42
0.00000001
 43
0.00000001
 40
0.0
 40
0.0
 40
0.0
 40
0.0
 40
0.0089557228015919
 40
0.0999003359608209
 40
0.1531632460581751
 40
0.3125636920784904
 40
0.5249666935695061
 40
0.6689893599351777
 40
0.991915253381045
 40
1.0
 40
1.0
 40
1.0
 40
1.0
 10
164.9623773266174
 20
134.4319084949308
 30
0.0
 10
164.9623615710388
 20
134.4318977105677
 30
0.0
 10
164.9621858188822
 20
134.4317774119022
 30
0.0
 10
164.9567568028627
 20
134.4280589609841
 30
0.0
 10
164.9352213191554
 20
134.4133479199178
 30
0.0
 10
164.8875158908905
 20
134.3808990584592
 30
0.0
 10
164.8151249458986
 20
134.3323150181158
 30
0.0
 10
164.713205833881
 20
134.2649445458475
 30
0.0
 10
164.6378507424259
 20
134.2161309811136
 30
0.0
 10
164.5854510967026
 20
134.1827244309191
 30
0.0
 10
164.5841712651585
 20
134.1819084949308
 30
0.0
  0
ARC
  5
223
330
1F
100
AcDbEntity
  8
0
  6
Continuous
 62
     7
370
    25
100
AcDbCircle
 10
164.9623773266
 20
134.6819084949
 30
0.0
 40
0.25
100
AcDbArc
 50
197.7189318734
 51
270.0
  0
SPLINE
  5
224
330
1F
100
AcDbEntity
  8
0
  6
Continuous
 62
     7
370
    25
100
AcDbSpline
210
0.0
220
0.0
230
1.0
 70
     8
 71
     3
 72
    15
 73
    11
 74
     0
 42
0.00000001
 43
0.00000001
 40
0.0
 40
0.0
 40
0.0
 40
0.0
 40
0.0080847466189582
 40
0.3310106400648243
 40
0.4750333064304948
 40
0.6874363079215142
 40
0.8468367539418303
 40
0.9000996640391847
 40
0.9910442771984082
 40
1.0
 40
1.0
 40
1.0
 40
1.0
 10
154.3861322379729
 20
134.1819084949308
 30
0.0
 10
154.3848524064288
 20
134.1827244309191
 30
0.0
 10
154.3324527607056
 20
134.2161309811137
 30
0.0
 10
154.2570976692504
 20
134.2649445458474
 30
0.0
 10
154.1551785572328
 20
134.3323150181158
 30
0.0
 10
154.0827876122409
 20
134.3808990584592
 30
0.0
 10
154.035082183976
 20
134.4133479199178
 30
0.0
 10
154.0135467002687
 20
134.4280589609841
 30
0.0
 10
154.0081176842492
 20
134.4317774119022
 30
0.0
 10
154.0079419320926
 20
134.4318977105677
 30
0.0
 10
154.007926176514
 20
134.4319084949308
 30
0.0
  0
ARC
  5
225
330
1F
100
AcDbEntity
  8
0
  6
Continuous
 62
     7
370
    25
100
AcDbCircle
 10
154.0079261765
 20
134.6819084949
 30
0.0
 40
0.25
100
AcDbArc
 50
270.0
 51
342.2810681266
  0
ARC
  5
226
330
1F
100
AcDbEntity
  8
0
  6
Continuous
 62
     7
370
    25
100
AcDbCircle
 10
164.9623773266
 20
131.1819084949
 30
0.0
 40
0.25
100
AcDbArc
 50
90.0
 51
162.2810681266
  0
SPLINE
  5
227
330
1F
100
AcDbEntity
  8
0
  6
Continuous
 62
     7
370
    25
100
AcDbSpline
210
0.0
220
0.0
230
1.0
 70
     8
 71
     3
 72
    15
 73
    11
 74
     0
 42
0.00000001
 43
0.00000001
 40
0.0
 40
0.0
 40
0.0
 40
0.0
 40
0.0090459071881971
 40
0.1032433785236874
 40
0.1542564497735246
 40
0.313316902671511
 40
0.5243720399414428
 40
0.6678060008509903
 40
0.9918332554187292
 40
1.0
 40
1.0
 40
1.0
 40
1.0
 10
164.7242370842238
 20
131.2579954514526
 30
0.0
 10
164.7242313922571
 20
131.258013097177
 30
0.0
 10
164.7241664283064
 20
131.2582144925896
 30
0.0
 10
164.7221707418705
 20
131.2644041132558
 30
0.0
 10
164.714353745654
 20
131.2886060450999
 30
0.0
 10
164.697183921899
 20
131.3416250371016
 30
0.0
 10
164.6706000253315
 20
131.4229959242982
 30
0.0
 10
164.6327707268428
 20
131.5375749963206
 30
0.0
 10
164.6044899468334
 20
131.6220001740401
 30
0.0
 10
164.5846587993014
 20
131.6804710319918
 30
0.0
 10
164.5841712651585
 20
131.6819084949308
 30
0.0
  0
SPLINE
  5
228
330
1F
100
AcDbEntity
  8
0
  6
Continuous
 62
     7
370
    25
100
AcDbSpline
210
0.0
220
0.0
230
1.0
 70
     8
 71
     3
 72
    15
 73
    11
 74
     0
 42
0.00000001
 43
0.00000001
 40
0.0
 40
0.0
 40
0.0
 40
0.0
 40
0.0080847466189818
 40
0.3310106400647567
 40
0.4750333064304972
 40
0.6874363079215137
 40
0.8468367539418253
 40
0.9000996640391794
 40
0.9910442771984082
 40
1.0
 40
1.0
 40
1.0
 40
1.0
 10
164.5841712651585
 20
131.6819084949308
 30
0.0
 10
164.5854510967026
 20
131.6810925589426
 30
0.0
 10
164.6378507424264
 20
131.6476860087489
 30
0.0
 10
164.7132058338809
 20
131.5988724440141
 30
0.0
 10
164.8151249458986
 20
131.5315019717459
 30
0.0
 10
164.8875158908905
 20
131.4829179314024
 30
0.0
 10
164.9352213191554
 20
131.4504690699439
 30
0.0
 10
164.9567568028627
 20
131.4357580288776
 30
0.0
 10
164.9621858188822
 20
131.4320395779595
 30
0.0
 10
164.9623615710388
 20
131.431919279294
 30
0.0
 10
164.9623773266174
 20
131.4319084949308
 30
0.0
  0
SPLINE
  5
229
330
1F
100
AcDbEntity
  8
0
  6
Continuous
 62
     7
370
    25
100
AcDbSpline
210
0.0
220
0.0
230
1.0
 70
     8
 71
     3
 72
    15
 73
    11
 74
     0
 42
0.00000001
 43
0.00000001
 40
0.0
 40
0.0
 40
0.0
 40
0.0
 40
0.0081667445812695
 40
0.3321939991490083
 40
0.4756279600585602
 40
0.6866830973284899
 40
0.8457435502264811
 40
0.8967566214763185
 40
0.9909540928118029
 40
1.0
 40
1.0
 40
1.0
 40
1.0
 10
154.3861322379729
 20
131.6819084949308
 30
0.0
 10
154.38564470383
 20
131.6804710319918
 30
0.0
 10
154.365813556298
 20
131.6220001740401
 30
0.0
 10
154.3375327762887
 20
131.5375749963206
 30
0.0
 10
154.2997034777999
 20
131.4229959242982
 30
0.0
 10
154.2731195812324
 20
131.3416250371016
 30
0.0
 10
154.2559497574774
 20
131.2886060450999
 30
0.0
 10
154.248132761261
 20
131.2644041132558
 30
0.0
 10
154.2461370748251
 20
131.2582144925896
 30
0.0
 10
154.2460721108743
 20
131.258013097177
 30
0.0
 10
154.2460664189076
 20
131.2579954514526
 30
0.0
  0
ARC
  5
22A
330
1F
100
AcDbEntity
  8
0
  6
Continuous
 62
     7
370
    25
100
AcDbCircle
 10
159.4851517516
 20
132.9319084949
 30
0.0
 40
5.250000000000009
100
AcDbArc
 50
193.774146998
 51
346.225853002
  0
ARC
  5
22B
330
1F
100
AcDbEntity
  8
0
  6
Continuous
 62
     7
370
    25
100
AcDbCircle
 10
159.4851517516
 20
132.9319084949
 30
0.0
 40
5.50000000000002
100
AcDbArc
 50
197.7189318734
 51
342.2810681266
  0
ARC
  5
22C
330
1F
100
AcDbEntity
  8
0
  6
Continuous
 62
     7
370
    25
100
AcDbCircle
 10
154.0079261765
 20
131.1819084949
 30
0.0
 40
0.25
100
AcDbArc
 50
17.7189318734
 51
90.0
  0
SPLINE
  5
22D
330
1F
100
AcDbEntity
  8
0
  6
Continuous
 62
     7
370
    25
100
AcDbSpline
210
0.0
220
0.0
230
1.0
 70
     8
 71
     3
 72
    15
 73
    11
 74
     0
 42
0.00000001
 43
0.00000001
 40
0.0
 40
0.0
 40
0.0
 40
0.0
 40
0.0089557228015919
 40
0.0999003359608148
 40
0.153163246058169
 40
0.3125636920784848
 40
0.5249666935694999
 40
0.6689893599352451
 40
0.9919152533810159
 40
1.0
 40
1.0
 40
1.0
 40
1.0
 10
154.007926176514
 20
131.4319084949308
 30
0.0
 10
154.0079419320926
 20
131.431919279294
 30
0.0
 10
154.0081176842492
 20
131.4320395779595
 30
0.0
 10
154.0135467002687
 20
131.4357580288776
 30
0.0
 10
154.035082183976
 20
131.4504690699439
 30
0.0
 10
154.0827876122409
 20
131.4829179314024
 30
0.0
 10
154.1551785572328
 20
131.5315019717459
 30
0.0
 10
154.2570976692506
 20
131.5988724440141
 30
0.0
 10
154.332452760705
 20
131.6476860087488
 30
0.0
 10
154.3848524064288
 20
131.6810925589426
 30
0.0
 10
154.3861322379729
 20
131.6819084949308
 30
0.0
  0
LINE
  5
22E
330
1F
100
AcDbEntity
  8
0
  6
Continuous
 62
     7
370
    25
100
AcDbLine
 10
154.4851517516
 20
132.3319084949
 30
0.0
 11
164.4851517516
 21
132.3319084949
 31
0.0
  0
LINE
  5
22F
330
1F
100
AcDbEntity
  8
0
  6
Continuous
 62
     7
370
    25
100
AcDbLine
 10
164.4851517516
 20
133.5319084949
 30
0.0
 11
154.4851517516
 21
133.5319084949
 31
0.0
  0
LINE
  5
230
330
1F
100
AcDbEntity
  8
0
  6
Continuous
 62
     7
370
    25
100
AcDbLine
 10
164.4851517516
 20
132.3319084949
 30
0.0
 11
164.4851517516
 21
133.5319084949
 31
0.0
  0
LINE
  5
231
330
1F
100
AcDbEntity
  8
0
  6
Continuous
 62
     7
370
    25
100
AcDbLine
 10
154.4851517516
 20
133.5319084949
 30
0.0
 11
154.4851517516
 21
132.3319084949
 31
0.0
  0
LINE
  5
232
330
1F
100
AcDbEntity
  8
0
  6
Continuous
 62
     7
370
    25
100
AcDbLine
 10
153.7351517516
 20
131.6819084949
 30
0.0
 11
154.386132238
 21
131.6819084949
 31
0.0
  0
LINE
  5
233
330
1F
100
AcDbEntity
  8
0
  6
Continuous
 62
     7
370
    25
100
AcDbLine
 10
153.7351517516
 20
134.1819084949
 30
0.0
 11
153.7351517516
 21
131.6819084949
 31
0.0
  0
LINE
  5
234
330
1F
100
AcDbEntity
  8
0
  6
Continuous
 62
     7
370
    25
100
AcDbLine
 10
154.386132238
 20
134.1819084949
 30
0.0
 11
153.7351517516
 21
134.1819084949
 31
0.0
  0
LINE
  5
235
330
1F
100
AcDbEntity
  8
0
  6
Continuous
 62
     7
370
    25
100
AcDbLine
 10
165.2351517516
 20
134.1819084949
 30
0.0
 11
164.5841712652
 21
134.1819084949
 31
0.0
  0
LINE
  5
236
330
1F
100
AcDbEntity
  8
0
  6
Continuous
 62
     7
370
    25
100
AcDbLine
 10
165.2351517516
 20
131.6819084949
 30
0.0
 11
165.2351517516
 21
134.1819084949
 31
0.0
  0
LINE
  5
237
330
1F
100
AcDbEntity
  8
0
  6
Continuous
 62
     7
370
    25
100
AcDbLine
 10
164.5841712652
 20
131.6819084949
 30
0.0
 11
165.2351517516
 21
131.6819084949
 31
0.0
  0
ARC
  5
238
330
1F
100
AcDbEntity
  8
0
  6
Continuous
 62
     7
370
    25
100
AcDbCircle
 10
153.7351517516
 20
134.1819084949
 30
0.0
 40
0.25
100
AcDbArc
 50
90.0
 51
180.0
  0
LINE
  5
239
330
1F
100
AcDbEntity
  8
0
  6
Continuous
 62
     7
370
    25
100
AcDbLine
 10
153.7351517516
 20
134.4319084949
 30
0.0
 11
153.7351517516
 21
134.1819084949
 31
0.0
  0
LINE
  5
23A
330
1F
100
AcDbEntity
  8
0
  6
Continuous
 62
     7
370
    25
100
AcDbLine
 10
153.7351517516
 20
134.1819084949
 30
0.0
 11
153.4851517516
 21
134.1819084949
 31
0.0
  0
LINE
  5
23B
330
1F
100
AcDbEntity
  8
0
  6
Continuous
 62
     7
370
    25
100
AcDbLine
 10
164.9623773266
 20
134.4319084949
 30
0.0
 11
165.2351517516
 21
134.4319084949
 31
0.0
  0
LINE
  5
23C
330
1F
100
AcDbEntity
  8
0
  6
Continuous
 62
     7
370
    25
100
AcDbLine
 10
165.2351517516
 20
134.1819084949
 30
0.0
 11
165.2351517516
 21
134.4319084949
 31
0.0
  0
LINE
  5
23D
330
1F
100
AcDbEntity
  8
0
  6
Continuous
 62
     7
370
    25
100
AcDbLine
 10
153.7351517516
 20
134.4319084949
 30
0.0
 11
154.0079261765
 21
134.4319084949
 31
0.0
  0
LINE
  5
23E
330
1F
100
AcDbEntity
  8
0
  6
Continuous
 62
     7
370
    25
100
AcDbLine
 10
165.4851517516
 20
134.1819084949
 30
0.0
 11
165.2351517516
 21
134.1819084949
 31
0.0
  0
ARC
  5
23F
330
1F
100
AcDbEntity
  8
0
  6
Continuous
 62
     7
370
    25
100
AcDbCircle
 10
165.2351517516
 20
134.1819084949
 30
0.0
 40
0.25
100
AcDbArc
 50
0.0
 51
90.0
  0
LINE
  5
240
330
1F
100
AcDbEntity
  8
0
  6
Continuous
 62
     7
370
    25
100
AcDbLine
 10
153.4851517516
 20
131.6819084949
 30
0.0
 11
153.7351517516
 21
131.6819084949
 31
0.0
  0
LINE
  5
241
330
1F
100
AcDbEntity
  8
0
  6
Continuous
 62
     7
370
    25
100
AcDbLine
 10
153.4851517516
 20
131.6819084949
 30
0.0
 11
153.4851517516
 21
134.1819084949
 31
0.0
  0
LINE
  5
242
330
1F
100
AcDbEntity
  8
0
  6
Continuous
 62
     7
370
    25
100
AcDbLine
 10
165.4851517516
 20
134.1819084949
 30
0.0
 11
165.4851517516
 21
131.6819084949
 31
0.0
  0
LINE
  5
243
330
1F
100
AcDbEntity
  8
0
  6
Continuous
 62
     7
370
    25
100
AcDbLine
 10
165.2351517516
 20
131.6819084949
 30
0.0
 11
165.4851517516
 21
131.6819084949
 31
0.0
  0
ARC
  5
244
330
1F
100
AcDbEntity
  8
0
  6
Continuous
 62
     7
370
    25
100
AcDbCircle
 10
153.7351517516
 20
131.6819084949
 30
0.0
 40
0.25
100
AcDbArc
 50
180.0
 51
270.0
  0
LINE
  5
245
330
1F
100
AcDbEntity
  8
0
  6
Continuous
 62
     7
370
    25
100
AcDbLine
 10
153.7351517516
 20
131.6819084949
 30
0.0
 11
153.7351517516
 21
131.4319084949
 31
0.0
  0
LINE
  5
246
330
1F
100
AcDbEntity
  8
0
  6
Continuous
 62
     7
370
    25
100
AcDbLine
 10
154.0079261765
 20
131.4319084949
 30
0.0
 11
153.7351517516
 21
131.4319084949
 31
0.0
  0
LINE
  5
247
330
1F
100
AcDbEntity
  8
0
  6
Continuous
 62
     7
370
    25
100
AcDbLine
 10
165.2351517516
 20
131.4319084949
 30
0.0
 11
165.2351517516
 21
131.6819084949
 31
0.0
  0
ARC
  5
248
330
1F
100
AcDbEntity
  8
0
  6
Continuous
 62
     7
370
    25
100
AcDbCircle
 10
165.2351517516
 20
131.6819084949
 30
0.0
 40
0.25
100
AcDbArc
 50
270.0
 51
0.0
  0
LINE
  5
249
330
1F
100
AcDbEntity
  8
0
  6
Continuous
 62
     7
370
    25
100
AcDbLine
 10
165.2351517516
 20
131.4319084949
 30
0.0
 11
164.9623773266
 21
131.4319084949
 31
0.0
  0
LINE
  5
24A
330
1F
100
AcDbEntity
  8
0
  6
Continuous
 62
     7
370
    25
100
AcDbLine
 10
139.4851517516
 20
136.203607759
 30
0.0
 11
137.30971489
 21
136.4319084949
 31
0.0
  0
LINE
  5
24B
330
1F
100
AcDbEntity
  8
0
  6
Continuous
 62
     7
370
    25
100
AcDbLine
 10
139.4851517516
 20
129.6602092309
 30
0.0
 11
139.4851517516
 21
136.203607759
 31
0.0
  0
LINE
  5
24C
330
1F
100
AcDbEntity
  8
0
  6
Continuous
 62
     7
370
    25
100
AcDbLine
 10
137.30971489
 20
129.4319084949
 30
0.0
 11
139.4851517516
 21
129.6602092309
 31
0.0
  0
LINE
  5
24D
330
1F
100
AcDbEntity
  8
0
  6
Continuous
 62
     7
370
    25
100
AcDbLine
 10
119.4851517516
 20
129.4319084949
 30
0.0
 11
137.30971489
 21
129.4319084949
 31
0.0
  0
LINE
  5
24E
330
1F
100
AcDbEntity
  8
0
  6
Continuous
 62
     7
370
    25
100
AcDbLine
 10
119.4851517516
 20
136.4319084949
 30
0.0
 11
119.4851517516
 21
129.4319084949
 31
0.0
  0
LINE
  5
24F
330
1F
100
AcDbEntity
  8
0
  6
Continuous
 62
     7
370
    25
100
AcDbLine
 10
137.30971489
 20
136.4319084949
 30
0.0
 11
119.4851517516
 21
136.4319084949
 31
0.0
  0
LINE
  5
250
330
1F
100
AcDbEntity
  8
0
  6
Continuous
 62
     7
370
    25
100
AcDbLine
 10
154.2613495772
 20
134.6529229757
 30
0.0
 11
154.1647852599
 21
134.4935236555
 31
0.0
  0
LINE
  5
251
330
1F
100
AcDbEntity
  8
0
  6
Continuous
 62
     7
370
    25
100
AcDbLine
 10
154.1425078793
 20
131.3866908276
 30
0.0
 11
154.2613495772
 21
131.2108940141
 31
0.0
  0
LINE
  5
252
330
1F
100
AcDbEntity
  8
0
  6
Continuous
 62
     7
370
    25
100
AcDbLine
 10
146.068582098
 20
135.5127111305
 30
0.0
 11
146.068582098
 21
130.3511058594
 31
0.0
  0
LINE
  5
253
330
1F
100
AcDbEntity
  8
0
  6
Continuous
 62
     7
370
    25
100
AcDbLine
 10
154.2613495772
 20
131.2108940141
 30
0.0
 11
146.068582098
 21
130.3511058594
 31
0.0
  0
LINE
  5
254
330
1F
100
AcDbEntity
  8
0
  6
Continuous
 62
     7
370
    25
100
AcDbLine
 10
146.068582098
 20
135.5127111305
 30
0.0
 11
154.2613495772
 21
134.6529229758
 31
0.0
  0
LINE
  5
255
330
1F
100
AcDbEntity
  8
0
  6
Continuous
 62
     7
370
    25
100
AcDbLine
 10
146.068582098
 20
130.3511058594
 30
0.0
 11
139.4851517516
 21
129.6602092309
 31
0.0
  0
LINE
  5
256
330
1F
100
AcDbEntity
  8
0
  6
Continuous
 62
     7
370
    25
100
AcDbLine
 10
139.4851517516
 20
136.203607759
 30
0.0
 11
146.068582098
 21
135.5127111305
 31
0.0
  0
ARC
  5
257
330
1F
100
AcDbEntity
  8
0
  6
Continuous
 62
     7
370
    25
100
AcDbCircle
 10
159.4851517516
 20
132.9319084949
 30
0.0
 40
7.450000000000673
100
AcDbArc
 50
233.0863788866
 51
126.9136211134
  0
ARC
  5
258
330
1F
100
AcDbEntity
  8
0
  6
Continuous
 62
     7
370
    25
100
AcDbCircle
 10
159.4851517516
 20
132.9319084949
 30
0.0
 40
7.207531252870793
100
AcDbArc
 50
195.3041237151
 51
238.9797515565
  0
ARC
  5
259
330
1F
100
AcDbEntity
  8
0
  6
Continuous
 62
     7
370
    25
100
AcDbCircle
 10
159.4851517516
 20
132.9319084949
 30
0.0
 40
7.207531252872461
100
AcDbArc
 50
121.0202484435
 51
164.6958762849
  0
ARC
  5
25A
330
1F
100
AcDbEntity
  8
0
  6
Continuous
 62
     7
370
    25
100
AcDbCircle
 10
137.30971489
 20
201.4319084949
 30
0.0
 40
65.0
100
AcDbArc
 50
270.0
 51
286.5000949923
  0
ARC
  5
25B
330
1F
100
AcDbEntity
  8
0
  6
Continuous
 62
     7
370
    25
100
AcDbCircle
 10
137.30971489
 20
64.4319084949
 30
0.0
 40
65.00000000000001
100
AcDbArc
 50
73.4999050077
 51
90.0
  0
LINE
  5
25C
330
1F
100
AcDbEntity
  8
0
  6
Continuous
 62
     7
370
    25
100
AcDbLine
 10
144.7851517516
 20
126.681696205
 30
0.0
 11
144.7851517516
 21
124.9319084949
 31
0.0
  0
LINE
  5
25D
330
1F
100
AcDbEntity
  8
0
  6
Continuous
 62
     7
370
    25
100
AcDbLine
 10
144.7851517516
 20
140.9319084949
 30
0.0
 11
144.7851517516
 21
136.8632021138
 31
0.0
  0
LINE
  5
25E
330
1F
100
AcDbEntity
  8
0
  6
Continuous
 62
     7
370
    25
100
AcDbLine
 10
144.7851517516
 20
129.000614876
 30
0.0
 11
144.7851517516
 21
126.681696205
 31
0.0
  0
LINE
  5
25F
330
1F
100
AcDbEntity
  8
0
  6
Continuous
 62
     7
370
    25
100
AcDbLine
 10
144.5851517516
 20
126.8379515123
 30
0.0
 11
144.5851517516
 21
129.0234560726
 31
0.0
  0
LINE
  5
260
330
1F
100
AcDbEntity
  8
0
  6
Continuous
 62
     7
370
    25
100
AcDbLine
 10
144.5851517516
 20
136.8403609173
 30
0.0
 11
144.5851517516
 21
140.7319084949
 31
0.0
  0
LINE
  5
261
330
1F
100
AcDbEntity
  8
0
  6
Continuous
 62
     7
370
    25
100
AcDbLine
 10
144.5851517516
 20
125.1319084949
 30
0.0
 11
144.5851517516
 21
126.8379515123
 31
0.0
  0
LINE
  5
262
330
1F
100
AcDbEntity
  8
0
  6
Continuous
 62
     7
370
    25
100
AcDbLine
 10
135.0851517516
 20
129.0177130484
 30
0.0
 11
135.0851517516
 21
127.9219084949
 31
0.0
  0
LINE
  5
263
330
1F
100
AcDbEntity
  8
0
  6
Continuous
 62
     7
370
    25
100
AcDbLine
 10
135.0851517516
 20
137.9419084949
 30
0.0
 11
135.0851517516
 21
136.4319084949
 31
0.0
  0
LINE
  5
264
330
1F
100
AcDbEntity
  8
0
  6
Continuous
 62
     7
370
    25
100
AcDbLine
 10
135.0851517516
 20
129.4319084949
 30
0.0
 11
135.0851517516
 21
129.0177130484
 31
0.0
  0
LINE
  5
265
330
1F
100
AcDbEntity
  8
0
  6
Continuous
 62
     7
370
    25
100
AcDbLine
 10
170.663092779
 20
132.6819084949
 30
0.0
 11
166.9309559392
 21
132.6819084949
 31
0.0
  0
LINE
  5
266
330
1F
100
AcDbEntity
  8
0
  6
Continuous
 62
     7
370
    25
100
AcDbLine
 10
166.9309559392
 20
133.1819084949
 30
0.0
 11
170.663092779
 21
133.1819084949
 31
0.0
  0
LINE
  5
267
330
1F
100
AcDbEntity
  8
0
  6
Continuous
 62
     7
370
    25
100
AcDbLine
 10
136.0751517516
 20
128.2442492775
 30
0.0
 11
136.0751517516
 21
126.9319084949
 31
0.0
  0
LINE
  5
268
330
1F
100
AcDbEntity
  8
0
  6
Continuous
 62
     7
370
    25
100
AcDbLine
 10
136.0751517516
 20
138.9319084949
 30
0.0
 11
136.0751517516
 21
136.4319084949
 31
0.0
  0
LINE
  5
269
330
1F
100
AcDbEntity
  8
0
  6
Continuous
 62
     7
370
    25
100
AcDbLine
 10
136.0751517516
 20
129.4319084949
 30
0.0
 11
136.0751517516
 21
128.2442492775
 31
0.0
  0
LINE
  5
26A
330
1F
100
AcDbEntity
  8
0
  6
Continuous
 62
     7
370
    25
100
AcDbLine
 10
137.0300869735
 20
128.7633524794
 30
0.0
 11
137.0300869735
 21
127.5963380251
 31
0.0
  0
LINE
  5
26B
330
1F
100
AcDbEntity
  8
0
  6
Continuous
 62
     7
370
    25
100
AcDbLine
 10
137.0300869735
 20
138.2674789647
 30
0.0
 11
137.0300869735
 21
136.4319084949
 31
0.0
  0
LINE
  5
26C
330
1F
100
AcDbEntity
  8
0
  6
Continuous
 62
     7
370
    25
100
AcDbLine
 10
137.0300869735
 20
129.4319084949
 30
0.0
 11
137.0300869735
 21
128.7633524794
 31
0.0
  0
LINE
  5
26D
330
1F
100
AcDbEntity
  8
0
  6
Continuous
 62
     7
370
    25
100
AcDbLine
 10
136.0951517516
 20
128.2442492775
 30
0.0
 11
136.0951517516
 21
126.9319084949
 31
0.0
  0
LINE
  5
26E
330
1F
100
AcDbEntity
  8
0
  6
Continuous
 62
     7
370
    25
100
AcDbLine
 10
136.0951517516
 20
138.9319084949
 30
0.0
 11
136.0951517516
 21
136.4319084949
 31
0.0
  0
LINE
  5
26F
330
1F
100
AcDbEntity
  8
0
  6
Continuous
 62
     7
370
    25
100
AcDbLine
 10
136.0951517516
 20
129.4319084949
 30
0.0
 11
136.0951517516
 21
128.2442492775
 31
0.0
  0
LINE
  5
270
330
1F
100
AcDbEntity
  8
0
  6
Continuous
 62
     7
370
    25
100
AcDbLine
 10
137.5022764795
 20
129.0255258137
 30
0.0
 11
137.5022764795
 21
127.9319084949
 31
0.0
  0
LINE
  5
271
330
1F
100
AcDbEntity
  8
0
  6
Continuous
 62
     7
370
    25
100
AcDbLine
 10
137.5022764795
 20
137.9319084949
 30
0.0
 11
137.5022764795
 21
136.4321937261
 31
0.0
  0
LINE
  5
272
330
1F
100
AcDbEntity
  8
0
  6
Continuous
 62
     7
370
    25
100
AcDbLine
 10
137.5022764795
 20
129.4316232638
 30
0.0
 11
137.5022764795
 21
129.0255258137
 31
0.0
  0
INSERT
  5
27E
330
1F
100
AcDbEntity
  8
0
  6
Continuous
 62
     7
370
    18
100
AcDbBlockReference
  2
SW_CENTERMARKSYMBOL_1
 10
159.4851517516
 20
132.9319084949
 30
0.0
  0
ENDSEC
  0
SECTION
  2
OBJECTS
  0
DICTIONARY
  5
C
330
0
100
AcDbDictionary
281
     1
  3
ACAD_GROUP
350
D
  3
ACAD_LAYOUT
350
1A
  3
ACAD_MLINESTYLE
350
17
  3
ACAD_PLOTSETTINGS
350
19
  3
ACAD_PLOTSTYLENAME
350
E
  3
ACAD_SCALELIST
350
47
  3
DWGPROPS
350
27F
  0
DICTIONARY
  5
D
102
{ACAD_REACTORS
330
C
102
}
330
C
100
AcDbDictionary
281
     1
  0
DICTIONARY
  5
1A
102
{ACAD_REACTORS
330
C
102
}
330
C
100
AcDbDictionary
281
     1
  3
Layout1
350
1E
  3
Layout2
350
26
  3
Model
350
22
  0
DICTIONARY
  5
17
102
{ACAD_REACTORS
330
C
102
}
330
C
100
AcDbDictionary
281
     1
  3
Standard
350
18
  0
DICTIONARY
  5
19
102
{ACAD_REACTORS
330
C
102
}
330
C
100
AcDbDictionary
281
     1
  0
ACDBDICTIONARYWDFLT
  5
E
102
{ACAD_REACTORS
330
C
102
}
330
C
100
AcDbDictionary
281
     1
  3
Normal
350
F
100
AcDbDictionaryWithDefault
340
F
  0
DICTIONARY
  5
47
102
{ACAD_REACTORS
330
C
102
}
330
C
100
AcDbDictionary
281
     1
  3
A0
350
48
  3
A1
350
49
  3
A2
350
4A
  3
A3
350
4B
  3
A4
350
4C
  3
A5
350
4D
  3
A6
350
4E
  3
A7
350
4F
  3
A8
350
50
  3
A9
350
51
  3
B0
350
52
  3
B1
350
53
  3
B2
350
54
  3
B3
350
55
  3
B4
350
56
  3
B5
350
57
  3
B6
350
58
  0
XRECORD
  5
27F
102
{ACAD_REACTORS
330
C
102
}
330
C
100
AcDbXrecord
280
     1
  1
DWGPROPS COOKIE
  2

  3

  4

  6

  7

  8
user28
  9

300
=
301
=
302
=
303
=
304
=
305
=
306
=
307
=
308
=
309
=
 40
0.0
 41
2460195.017462292
 42
2460195.017463044
  1

 90
        0
  0
LAYOUT
  5
1E
102
{ACAD_REACTORS
330
1A
102
}
330
1A
100
AcDbPlotSettings
  1

  2
none_device
  4

  6

 40
0.0
 41
0.0
 42
0.0
 43
0.0
 44
0.0
 45
0.0
 46
0.0
 47
0.0
 48
0.0
 49
0.0
140
0.0
141
0.0
142
1.0
143
1.0
 70
   688
 72
     1
 73
     0
 74
     5
  7

 75
    16
147
1.0
148
0.0
149
0.0
100
AcDbLayout
  1
Layout1
 70
     1
 71
     1
 10
0.0
 20
0.0
 11
420.0
 21
297.0
 12
0.0
 22
0.0
 32
0.0
 14
1.0000000000E+20
 24
1.0000000000E+20
 34
1.0000000000E+20
 15
-1.0000000000E+20
 25
-1.0000000000E+20
 35
-1.0000000000E+20
146
0.0
 13
0.0
 23
0.0
 33
0.0
 16
1.0
 26
0.0
 36
0.0
 17
0.0
 27
1.0
 37
0.0
 76
     0
330
1B
  0
LAYOUT
  5
26
102
{ACAD_REACTORS
330
1A
102
}
330
1A
100
AcDbPlotSettings
  1

  2
none_device
  4

  6

 40
0.0
 41
0.0
 42
0.0
 43
0.0
 44
0.0
 45
0.0
 46
0.0
 47
0.0
 48
0.0
 49
0.0
140
0.0
141
0.0
142
1.0
143
1.0
 70
   688
 72
     1
 73
     0
 74
     5
  7

 75
    16
147
1.0
148
0.0
149
0.0
100
AcDbLayout
  1
Layout2
 70
     1
 71
     2
 10
0.0
 20
0.0
 11
0.0
 21
0.0
 12
0.0
 22
0.0
 32
0.0
 14
0.0
 24
0.0
 34
0.0
 15
0.0
 25
0.0
 35
0.0
146
0.0
 13
0.0
 23
0.0
 33
0.0
 16
1.0
 26
0.0
 36
0.0
 17
0.0
 27
1.0
 37
0.0
 76
     0
330
23
  0
LAYOUT
  5
22
102
{ACAD_REACTORS
330
1A
102
}
330
1A
100
AcDbPlotSettings
  1

  2
none_device
  4
Letter_(8.50_x_11.00_Inches)
  6

 40
6.35
 41
6.35
 42
6.35000508
 43
6.35000508
 44
215.9
 45
279.4
 46
0.0
 47
0.0
 48
0.0
 49
0.0
140
0.0
141
0.0
142
1.0
143
1.0
 70
  1712
 72
     1
 73
     0
 74
     0
  7

 75
     0
147
1.0
148
0.0
149
0.0
100
AcDbLayout
  1
Model
 70
     1
 71
     0
 10
0.0
 20
0.0
 11
431.8
 21
279.4
 12
0.0
 22
0.0
 32
0.0
 14
0.0
 24
0.0
 34
0.0
 15
431.8
 25
279.4
 35
0.0
146
0.0
 13
0.0
 23
0.0
 33
0.0
 16
1.0
 26
0.0
 36
0.0
 17
0.0
 27
1.0
 37
0.0
 76
     0
330
1F
331
29
  0
MLINESTYLE
  5
18
102
{ACAD_REACTORS
330
17
102
}
330
17
100
AcDbMlineStyle
  2
Standard
 70
     0
  3

 62
   256
 51
90.0
 52
90.0
 71
     2
 49
0.5
 62
   256
  6
BYLAYER
 49
-0.5
 62
   256
  6
BYLAYER
  0
ACDBPLACEHOLDER
  5
F
102
{ACAD_REACTORS
330
E
102
}
330
E
  0
SCALE
  5
48
102
{ACAD_REACTORS
330
47
102
}
330
47
100
AcDbScale
 70
     0
300
1:1
140
1.0
141
1.0
290
     1
  0
SCALE
  5
49
102
{ACAD_REACTORS
330
47
102
}
330
47
100
AcDbScale
 70
     0
300
1:2
140
1.0
141
2.0
290
     0
  0
SCALE
  5
4A
102
{ACAD_REACTORS
330
47
102
}
330
47
100
AcDbScale
 70
     0
300
1:4
140
1.0
141
4.0
290
     0
  0
SCALE
  5
4B
102
{ACAD_REACTORS
330
47
102
}
330
47
100
AcDbScale
 70
     0
300
1:5
140
1.0
141
5.0
290
     0
  0
SCALE
  5
4C
102
{ACAD_REACTORS
330
47
102
}
330
47
100
AcDbScale
 70
     0
300
1:8
140
1.0
141
8.0
290
     0
  0
SCALE
  5
4D
102
{ACAD_REACTORS
330
47
102
}
330
47
100
AcDbScale
 70
     0
300
1:10
140
1.0
141
10.0
290
     0
  0
SCALE
  5
4E
102
{ACAD_REACTORS
330
47
102
}
330
47
100
AcDbScale
 70
     0
300
1:16
140
1.0
141
16.0
290
     0
  0
SCALE
  5
4F
102
{ACAD_REACTORS
330
47
102
}
330
47
100
AcDbScale
 70
     0
300
1:20
140
1.0
141
20.0
290
     0
  0
SCALE
  5
50
102
{ACAD_REACTORS
330
47
102
}
330
47
100
AcDbScale
 70
     0
300
1:30
140
1.0
141
30.0
290
     0
  0
SCALE
  5
51
102
{ACAD_REACTORS
330
47
102
}
330
47
100
AcDbScale
 70
     0
300
1:40
140
1.0
141
40.0
290
     0
  0
SCALE
  5
52
102
{ACAD_REACTORS
330
47
102
}
330
47
100
AcDbScale
 70
     0
300
1:50
140
1.0
141
50.0
290
     0
  0
SCALE
  5
53
102
{ACAD_REACTORS
330
47
102
}
330
47
100
AcDbScale
 70
     0
300
1:100
140
1.0
141
100.0
290
     0
  0
SCALE
  5
54
102
{ACAD_REACTORS
330
47
102
}
330
47
100
AcDbScale
 70
     0
300
2:1
140
2.0
141
1.0
290
     0
  0
SCALE
  5
55
102
{ACAD_REACTORS
330
47
102
}
330
47
100
AcDbScale
 70
     0
300
4:1
140
4.0
141
1.0
290
     0
  0
SCALE
  5
56
102
{ACAD_REACTORS
330
47
102
}
330
47
100
AcDbScale
 70
     0
300
8:1
140
8.0
141
1.0
290
     0
  0
SCALE
  5
57
102
{ACAD_REACTORS
330
47
102
}
330
47
100
AcDbScale
 70
     0
300
10:1
140
10.0
141
1.0
290
     0
  0
SCALE
  5
58
102
{ACAD_REACTORS
330
47
102
}
330
47
100
AcDbScale
 70
     0
300
100:1
140
100.0
141
1.0
290
     0
  0
ENDSEC
  0
EOF
