  0
SECTION
  2
HEADER
  9
$ACADVER
  1
AC1015
  9
$ACADMAINTVER
 70
     6
  9
$DWGCODEPAGE
  3
DOS932
  9
$INSBASE
 10
0.0
 20
0.0
 30
0.0
  9
$EXTMIN
 10
0.0
 20
0.0
 30
0.0
  9
$EXTMAX
 10
431.8
 20
279.4
 30
0.0
  9
$LIMMIN
 10
0.0
 20
0.0
  9
$LIMMAX
 10
431.8
 20
279.4
  9
$ORTHOMODE
 70
     0
  9
$REGENMODE
 70
     1
  9
$FILLMODE
 70
     1
  9
$QTEXTMODE
 70
     0
  9
$MIRRTEXT
 70
     1
  9
$LTSCALE
 40
1.0
  9
$ATTMODE
 70
     1
  9
$TEXTSIZE
 40
3.5
  9
$TRACEWID
 40
1.0
  9
$TEXTSTYLE
  7
Standard
  9
$CLAYER
  8
0
  9
$CELTYPE
  6
ByLayer
  9
$CECOLOR
 62
   256
  9
$CELTSCALE
 40
1.0
  9
$DISPSILH
 70
     0
  9
$DIMSCALE
 40
1.0
  9
$DIMASZ
 40
3.556
  9
$DIMEXO
 40
1.0
  9
$DIMDLI
 40
3.75
  9
$DIMRND
 40
0.0
  9
$DIMDLE
 40
0.0
  9
$DIMEXE
 40
1.0
  9
$DIMTP
 40
0.0
  9
$DIMTM
 40
0.0
  9
$DIMTXT
 40
3.5
  9
$DIMCEN
 40
2.5
  9
$DIMTSZ
 40
0.0
  9
$DIMTOL
 70
     0
  9
$DIMLIM
 70
     0
  9
$DIMTIH
 70
     1
  9
$DIMTOH
 70
     1
  9
$DIMSE1
 70
     0
  9
$DIMSE2
 70
     0
  9
$DIMTAD
 70
     1
  9
$DIMZIN
 70
     0
  9
$DIMBLK
  1

  9
$DIMASO
 70
     1
  9
$DIMSHO
 70
     1
  9
$DIMPOST
  1

  9
$DIMAPOST
  1

  9
$DIMALT
 70
     0
  9
$DIMALTD
 70
     3
  9
$DIMALTF
 40
0.0393700787
  9
$DIMLFAC
 40
1.0
  9
$DIMTOFL
 70
     1
  9
$DIMTVP
 40
0.0
  9
$DIMTIX
 70
     0
  9
$DIMSOXD
 70
     0
  9
$DIMSAH
 70
     0
  9
$DIMBLK1
  1

  9
$DIMBLK2
  1

  9
$DIMSTYLE
  2
ISO-25
  9
$DIMCLRD
 70
     0
  9
$DIMCLRE
 70
     0
  9
$DIMCLRT
 70
     0
  9
$DIMTFAC
 40
1.0
  9
$DIMGAP
 40
1.524
  9
$DIMJUST
 70
     0
  9
$DIMSD1
 70
     0
  9
$DIMSD2
 70
     0
  9
$DIMTOLJ
 70
     0
  9
$DIMTZIN
 70
     0
  9
$DIMALTZ
 70
     0
  9
$DIMALTTZ
 70
     0
  9
$DIMUPT
 70
     0
  9
$DIMDEC
 70
     3
  9
$DIMTDEC
 70
     3
  9
$DIMALTU
 70
     2
  9
$DIMALTTD
 70
     3
  9
$DIMTXSTY
  7
Standard
  9
$DIMAUNIT
 70
     0
  9
$DIMADEC
 70
     2
  9
$DIMALTRND
 40
0.0
  9
$DIMAZIN
 70
     0
  9
$DIMDSEP
 70
    44
  9
$DIMATFIT
 70
     3
  9
$DIMFRAC
 70
     0
  9
$DIMLDRBLK
  1

  9
$DIMLUNIT
 70
     2
  9
$DIMLWD
 70
    -2
  9
$DIMLWE
 70
    -2
  9
$DIMTMOVE
 70
     0
  9
$LUNITS
 70
     2
  9
$LUPREC
 70
     3
  9
$SKETCHINC
 40
1.0
  9
$FILLETRAD
 40
0.0
  9
$AUNITS
 70
     0
  9
$AUPREC
 70
     2
  9
$MENU
  1
.
  9
$ELEVATION
 40
0.0
  9
$PELEVATION
 40
0.0
  9
$THICKNESS
 40
0.0
  9
$LIMCHECK
 70
     0
  9
$CHAMFERA
 40
0.0
  9
$CHAMFERB
 40
0.0
  9
$CHAMFERC
 40
0.0
  9
$CHAMFERD
 40
0.0
  9
$SKPOLY
 70
     0
  9
$TDCREATE
 40
2460195.391084444
  9
$TDUCREATE
 40
2460195.016084444
  9
$TDUPDATE
 40
2460195.391085092
  9
$TDUUPDATE
 40
2460195.016085092
  9
$TDINDWG
 40
0.0000000116
  9
$TDUSRTIMER
 40
0.0000000116
  9
$USRTIMER
 70
     1
  9
$ANGBASE
 50
0.0
  9
$ANGDIR
 70
     0
  9
$PDMODE
 70
     0
  9
$PDSIZE
 40
-1.0
  9
$PLINEWID
 40
0.0
  9
$SPLFRAME
 70
     0
  9
$SPLINETYPE
 70
     6
  9
$SPLINESEGS
 70
     8
  9
$HANDSEED
  5
282
  9
$SURFTAB1
 70
     6
  9
$SURFTAB2
 70
     6
  9
$SURFTYPE
 70
     6
  9
$SURFU
 70
     6
  9
$SURFV
 70
     6
  9
$UCSBASE
  2

  9
$UCSNAME
  2

  9
$UCSORG
 10
0.0
 20
0.0
 30
0.0
  9
$UCSXDIR
 10
1.0
 20
0.0
 30
0.0
  9
$UCSYDIR
 10
0.0
 20
1.0
 30
0.0
  9
$UCSORTHOREF
  2

  9
$UCSORTHOVIEW
 70
     0
  9
$UCSORGTOP
 10
0.0
 20
0.0
 30
0.0
  9
$UCSORGBOTTOM
 10
0.0
 20
0.0
 30
0.0
  9
$UCSORGLEFT
 10
0.0
 20
0.0
 30
0.0
  9
$UCSORGRIGHT
 10
0.0
 20
0.0
 30
0.0
  9
$UCSORGFRONT
 10
0.0
 20
0.0
 30
0.0
  9
$UCSORGBACK
 10
0.0
 20
0.0
 30
0.0
  9
$PUCSBASE
  2

  9
$PUCSNAME
  2

  9
$PUCSORG
 10
0.0
 20
0.0
 30
0.0
  9
$PUCSXDIR
 10
1.0
 20
0.0
 30
0.0
  9
$PUCSYDIR
 10
0.0
 20
1.0
 30
0.0
  9
$PUCSORTHOREF
  2

  9
$PUCSORTHOVIEW
 70
     0
  9
$PUCSORGTOP
 10
0.0
 20
0.0
 30
0.0
  9
$PUCSORGBOTTOM
 10
0.0
 20
0.0
 30
0.0
  9
$PUCSORGLEFT
 10
0.0
 20
0.0
 30
0.0
  9
$PUCSORGRIGHT
 10
0.0
 20
0.0
 30
0.0
  9
$PUCSORGFRONT
 10
0.0
 20
0.0
 30
0.0
  9
$PUCSORGBACK
 10
0.0
 20
0.0
 30
0.0
  9
$USERI1
 70
     0
  9
$USERI2
 70
     0
  9
$USERI3
 70
     0
  9
$USERI4
 70
     0
  9
$USERI5
 70
     0
  9
$USERR1
 40
0.0
  9
$USERR2
 40
0.0
  9
$USERR3
 40
0.0
  9
$USERR4
 40
0.0
  9
$USERR5
 40
0.0
  9
$WORLDVIEW
 70
     1
  9
$SHADEDGE
 70
     3
  9
$SHADEDIF
 70
    70
  9
$TILEMODE
 70
     1
  9
$MAXACTVP
 70
    64
  9
$PINSBASE
 10
0.0
 20
0.0
 30
0.0
  9
$PLIMCHECK
 70
     0
  9
$PEXTMIN
 10
1.0000000000E+20
 20
1.0000000000E+20
 30
1.0000000000E+20
  9
$PEXTMAX
 10
-1.0000000000E+20
 20
-1.0000000000E+20
 30
-1.0000000000E+20
  9
$PLIMMIN
 10
0.0
 20
0.0
  9
$PLIMMAX
 10
420.0
 20
297.0
  9
$UNITMODE
 70
     0
  9
$VISRETAIN
 70
     1
  9
$PLINEGEN
 70
     0
  9
$PSLTSCALE
 70
     1
  9
$TREEDEPTH
 70
  3020
  9
$CMLSTYLE
  2
Standard
  9
$CMLJUST
 70
     0
  9
$CMLSCALE
 40
20.0
  9
$PROXYGRAPHICS
 70
     1
  9
$MEASUREMENT
 70
     1
  9
$CELWEIGHT
370
    -1
  9
$ENDCAPS
280
     0
  9
$JOINSTYLE
280
     0
  9
$LWDISPLAY
290
     1
  9
$INSUNITS
 70
     4
  9
$HYPERLINKBASE
  1

  9
$STYLESHEET
  1

  9
$XEDIT
290
     1
  9
$CEPSNTYPE
380
     0
  9
$PSTYLEMODE
290
     1
  9
$FINGERPRINTGUID
  2
{fa6dce32-020a-4c68-9639-500649246184}
  9
$VERSIONGUID
  2
{FAEB1C32-E019-11D5-929B-00C0DF256EC4}
  9
$EXTNAMES
290
     1
  9
$PSVPSCALE
 40
0.0
  9
$OLESTARTUP
290
     0
  0
ENDSEC
  0
SECTION
  2
CLASSES
  0
CLASS
  1
ACDBDICTIONARYWDFLT
  2
AcDbDictionaryWithDefault
  3
ObjectDBX Classes
 90
        0
280
     0
281
     0
  0
CLASS
  1
VISUALSTYLE
  2
AcDbVisualStyle
  3
ObjectDBX Classes
 90
     4095
280
     0
281
     0
  0
CLASS
  1
MATERIAL
  2
AcDbMaterial
  3
ObjectDBX Classes
 90
     1153
280
     0
281
     0
  0
CLASS
  1
SCALE
  2
AcDbScale
  3
ObjectDBX Classes
 90
     1153
280
     0
281
     0
  0
CLASS
  1
TABLESTYLE
  2
AcDbTableStyle
  3
ObjectDBX Classes
 90
     4095
280
     0
281
     0
  0
CLASS
  1
MLEADERSTYLE
  2
AcDbMLeaderStyle
  3
ACDB_MLEADERSTYLE_CLASS
 90
     4095
280
     0
281
     0
  0
CLASS
  1
SUN
  2
AcDbSun
  3
SCENEOE
 90
     1153
280
     0
281
     0
  0
CLASS
  1
ACDBPLACEHOLDER
  2
AcDbPlaceHolder
  3
ObjectDBX Classes
 90
        0
280
     0
281
     0
  0
CLASS
  1
LAYOUT
  2
AcDbLayout
  3
ObjectDBX Classes
 90
        0
280
     0
281
     0
  0
ENDSEC
  0
SECTION
  2
TABLES
  0
TABLE
  2
VPORT
  5
8
330
0
100
AcDbSymbolTable
 70
     1
  0
VPORT
  5
29
330
8
100
AcDbSymbolTableRecord
100
AcDbViewportTableRecord
  2
*Active
 70
     0
 10
0.0
 20
0.0
 11
1.0
 21
1.0
 12
215.9
 22
139.7
 13
0.0
 23
0.0
 14
10.0
 24
10.0
 15
10.0
 25
10.0
 16
0.0
 26
0.0
 36
1.0
 17
0.0
 27
0.0
 37
0.0
 40
279.4
 41
1.5454545455
 42
50.0
 43
0.0
 44
0.0
 50
0.0
 51
0.0
 71
     0
 72
  2000
 73
     1
 74
     3
 75
     0
 76
     0
 77
     0
 78
     0
281
     0
 65
     1
110
0.0
120
0.0
130
0.0
111
1.0
121
0.0
131
0.0
112
0.0
122
1.0
132
0.0
 79
     0
146
0.0
  0
ENDTAB
  0
TABLE
  2
LTYPE
  5
5
330
0
100
AcDbSymbolTable
 70
     6
  0
LTYPE
  5
14
330
5
100
AcDbSymbolTableRecord
100
AcDbLinetypeTableRecord
  2
ByBlock
 70
     0
  3

 72
    65
 73
     0
 40
0.0
  0
LTYPE
  5
15
330
5
100
AcDbSymbolTableRecord
100
AcDbLinetypeTableRecord
  2
ByLayer
 70
     0
  3

 72
    65
 73
     0
 40
0.0
  0
LTYPE
  5
16
330
5
100
AcDbSymbolTableRecord
100
AcDbLinetypeTableRecord
  2
Continuous
 70
     0
  3
Solid line
 72
    65
 73
     0
 40
0.0
  0
LTYPE
  5
5E
330
5
100
AcDbSymbolTableRecord
100
AcDbLinetypeTableRecord
  2
HIDDEN
 70
     0
  3
Hidden __ __ __ __ __ __ __ __ __ __ __ __ __ __
 72
    65
 73
     2
 40
1.905
 49
1.27
 74
     0
 49
-0.635
 74
     0
  0
LTYPE
  5
5F
330
5
100
AcDbSymbolTableRecord
100
AcDbLinetypeTableRecord
  2
PHANTOM
 70
     0
  3
Phantom ______  __  __  ______  __  __  ______
 72
    65
 73
     6
 40
12.7
 49
6.35
 74
     0
 49
-1.27
 74
     0
 49
1.27
 74
     0
 49
-1.27
 74
     0
 49
1.27
 74
     0
 49
-1.27
 74
     0
  0
LTYPE
  5
60
330
5
100
AcDbSymbolTableRecord
100
AcDbLinetypeTableRecord
  2
CENTER
 70
     0
  3
Center ____ _ ____ _ ____ _ ____ _ ____ _ ____
 72
    65
 73
     4
 40
10.16
 49
6.35
 74
     0
 49
-1.27
 74
     0
 49
1.27
 74
     0
 49
-1.27
 74
     0
  0
LTYPE
  5
61
330
5
100
AcDbSymbolTableRecord
100
AcDbLinetypeTableRecord
  2
CENTERX2
 70
     0
  3
Center (2x) ________  __  ________  __  _____
 72
    65
 73
     4
 40
20.32
 49
12.7
 74
     0
 49
-2.54
 74
     0
 49
2.54
 74
     0
 49
-2.54
 74
     0
  0
LTYPE
  5
62
330
5
100
AcDbSymbolTableRecord
100
AcDbLinetypeTableRecord
  2
DOT2
 70
     0
  3
Dot (.5x) ........................................
 72
    65
 73
     2
 40
0.635
 49
0.0
 74
     0
 49
-0.635
 74
     0
  0
ENDTAB
  0
TABLE
  2
LAYER
  5
2
330
0
100
AcDbSymbolTable
 70
     1
  0
LAYER
  5
10
330
2
100
AcDbSymbolTableRecord
100
AcDbLayerTableRecord
  2
0
 70
     0
 62
     7
  6
Continuous
370
    -3
390
F
  0
ENDTAB
  0
TABLE
  2
STYLE
  5
3
330
0
100
AcDbSymbolTable
 70
     2
  0
STYLE
  5
11
330
3
100
AcDbSymbolTableRecord
100
AcDbTextStyleTableRecord
  2
Standard
 70
     0
 40
0.0
 41
1.0
 50
0.0
 71
     0
 42
3.5
  3
txt
  4
bigfont
  0
STYLE
  5
63
330
3
100
AcDbSymbolTableRecord
100
AcDbTextStyleTableRecord
  2
SLDTEXTSTYLE0
 70
     0
 40
0.0
 41
0.7
 50
0.0
 71
     0
 42
3.5
  3
TXT
  4
bigfont
  0
ENDTAB
  0
TABLE
  2
VIEW
  5
6
330
0
100
AcDbSymbolTable
 70
     0
  0
ENDTAB
  0
TABLE
  2
UCS
  5
7
330
0
100
AcDbSymbolTable
 70
     0
  0
ENDTAB
  0
TABLE
  2
APPID
  5
9
330
0
100
AcDbSymbolTable
 70
     1
  0
APPID
  5
12
330
9
100
AcDbSymbolTableRecord
100
AcDbRegAppTableRecord
  2
ACAD
 70
     0
  0
ENDTAB
  0
TABLE
  2
DIMSTYLE
  5
A
330
0
100
AcDbSymbolTable
 70
     1
100
AcDbDimStyleTable
  0
DIMSTYLE
105
27
330
A
100
AcDbSymbolTableRecord
100
AcDbDimStyleTableRecord
  2
ISO-25
 70
     0
 41
2.5
 42
0.625
 43
3.75
 44
1.25
 73
     0
 74
     0
 77
     1
 78
     8
140
2.5
141
2.5
143
0.0393700787
147
0.625
171
     3
172
     1
178
     0
271
     2
272
     2
274
     3
278
    44
283
     0
284
     8
340
11
  0
ENDTAB
  0
TABLE
  2
BLOCK_RECORD
  5
1
330
0
100
AcDbSymbolTable
 70
     3
  0
BLOCK_RECORD
  5
1F
330
1
100
AcDbSymbolTableRecord
100
AcDbBlockTableRecord
  2
*Model_Space
340
22
  0
BLOCK_RECORD
  5
1B
330
1
100
AcDbSymbolTableRecord
100
AcDbBlockTableRecord
  2
*Paper_Space
340
1E
  0
BLOCK_RECORD
  5
23
330
1
100
AcDbSymbolTableRecord
100
AcDbBlockTableRecord
  2
*Paper_Space0
340
26
  0
BLOCK_RECORD
  5
1D0
330
1
100
AcDbSymbolTableRecord
100
AcDbBlockTableRecord
  2
SW_CENTERMARKSYMBOL_0
340
0
102
{BLKREFS
331
1DB
102
}
  0
BLOCK_RECORD
  5
275
330
1
100
AcDbSymbolTableRecord
100
AcDbBlockTableRecord
  2
SW_CENTERMARKSYMBOL_1
340
0
102
{BLKREFS
331
280
102
}
  0
ENDTAB
  0
ENDSEC
  0
SECTION
  2
BLOCKS
  0
BLOCK
  5
20
330
1F
100
AcDbEntity
  8
0
100
AcDbBlockBegin
  2
*Model_Space
 70
     0
 10
0.0
 20
0.0
 30
0.0
  3
*Model_Space
  1

  0
ENDBLK
  5
21
330
1F
100
AcDbEntity
  8
0
100
AcDbBlockEnd
  0
BLOCK
  5
1C
330
1B
100
AcDbEntity
 67
     1
  8
0
100
AcDbBlockBegin
  2
*Paper_Space
 70
     0
 10
0.0
 20
0.0
 30
0.0
  3
*Paper_Space
  1

  0
ENDBLK
  5
1D
330
1B
100
AcDbEntity
 67
     1
  8
0
100
AcDbBlockEnd
  0
BLOCK
  5
24
330
23
100
AcDbEntity
  8
0
100
AcDbBlockBegin
  2
*Paper_Space0
 70
     0
 10
0.0
 20
0.0
 30
0.0
  3
*Paper_Space0
  1

  0
ENDBLK
  5
25
330
23
100
AcDbEntity
  8
0
100
AcDbBlockEnd
  0
BLOCK
  5
1D1
330
1D0
100
AcDbEntity
  8
0
100
AcDbBlockBegin
  2
SW_CENTERMARKSYMBOL_0
 70
     0
 10
0.0
 20
0.0
 30
0.0
  3
SW_CENTERMARKSYMBOL_0
  1

  0
LINE
  5
1D3
330
1D0
100
AcDbEntity
  8
0
  6
Continuous
 62
     0
370
    18
100
AcDbLine
 10
0.0
 20
0.0
 30
0.0
 11
0.0
 21
2.5
 31
0.0
  0
LINE
  5
1D4
330
1D0
100
AcDbEntity
  8
0
  6
Continuous
 62
     0
370
    18
100
AcDbLine
 10
0.0
 20
0.0
 30
0.0
 11
-2.5
 21
0.0
 31
0.0
  0
LINE
  5
1D5
330
1D0
100
AcDbEntity
  8
0
  6
Continuous
 62
     0
370
    18
100
AcDbLine
 10
0.0
 20
0.0
 30
0.0
 11
0.0
 21
-2.5
 31
0.0
  0
LINE
  5
1D6
330
1D0
100
AcDbEntity
  8
0
  6
Continuous
 62
     0
370
    18
100
AcDbLine
 10
0.0
 20
0.0
 30
0.0
 11
2.5
 21
0.0
 31
0.0
  0
LINE
  5
1D7
330
1D0
100
AcDbEntity
  8
0
  6
Continuous
 62
     0
370
    18
100
AcDbLine
 10
0.0
 20
5.0
 30
0.0
 11
0.0
 21
30.0410412153
 31
0.0
  0
LINE
  5
1D8
330
1D0
100
AcDbEntity
  8
0
  6
Continuous
 62
     0
370
    18
100
AcDbLine
 10
-5.0
 20
0.0
 30
0.0
 11
-10.9232050808
 21
0.0
 31
0.0
  0
LINE
  5
1D9
330
1D0
100
AcDbEntity
  8
0
  6
Continuous
 62
     0
370
    18
100
AcDbLine
 10
0.0
 20
-5.0
 30
0.0
 11
0.0
 21
-25.0159809911
 31
0.0
  0
LINE
  5
1DA
330
1D0
100
AcDbEntity
  8
0
  6
Continuous
 62
     0
370
    18
100
AcDbLine
 10
5.0
 20
0.0
 30
0.0
 11
10.9232050808
 21
0.0
 31
0.0
  0
ENDBLK
  5
1D2
330
1D0
100
AcDbEntity
  8
0
100
AcDbBlockEnd
  0
BLOCK
  5
276
330
275
100
AcDbEntity
  8
0
100
AcDbBlockBegin
  2
SW_CENTERMARKSYMBOL_1
 70
     0
 10
0.0
 20
0.0
 30
0.0
  3
SW_CENTERMARKSYMBOL_1
  1

  0
LINE
  5
278
330
275
100
AcDbEntity
  8
0
  6
Continuous
 62
     0
370
    18
100
AcDbLine
 10
0.0
 20
0.0
 30
0.0
 11
0.0
 21
2.5
 31
0.0
  0
LINE
  5
279
330
275
100
AcDbEntity
  8
0
  6
Continuous
 62
     0
370
    18
100
AcDbLine
 10
0.0
 20
0.0
 30
0.0
 11
-2.5
 21
0.0
 31
0.0
  0
LINE
  5
27A
330
275
100
AcDbEntity
  8
0
  6
Continuous
 62
     0
370
    18
100
AcDbLine
 10
0.0
 20
0.0
 30
0.0
 11
0.0
 21
-2.5
 31
0.0
  0
LINE
  5
27B
330
275
100
AcDbEntity
  8
0
  6
Continuous
 62
     0
370
    18
100
AcDbLine
 10
0.0
 20
0.0
 30
0.0
 11
2.5
 21
0.0
 31
0.0
  0
LINE
  5
27C
330
275
100
AcDbEntity
  8
0
  6
Continuous
 62
     0
370
    18
100
AcDbLine
 10
0.0
 20
5.0
 30
0.0
 11
0.0
 21
9.95
 31
0.0
  0
LINE
  5
27D
330
275
100
AcDbEntity
  8
0
  6
Continuous
 62
     0
370
    18
100
AcDbLine
 10
-5.0
 20
0.0
 30
0.0
 11
-42.2319287639
 21
0.0
 31
0.0
  0
LINE
  5
27E
330
275
100
AcDbEntity
  8
0
  6
Continuous
 62
     0
370
    18
100
AcDbLine
 10
0.0
 20
-5.0
 30
0.0
 11
0.0
 21
-9.95
 31
0.0
  0
LINE
  5
27F
330
275
100
AcDbEntity
  8
0
  6
Continuous
 62
     0
370
    18
100
AcDbLine
 10
5.0
 20
0.0
 30
0.0
 11
13.0179376533
 21
0.0
 31
0.0
  0
ENDBLK
  5
277
330
275
100
AcDbEntity
  8
0
100
AcDbBlockEnd
  0
ENDSEC
  0
SECTION
  2
ENTITIES
  0
MTEXT
  5
64
330
1F
100
AcDbEntity
  8
0
  6
Continuous
 62
     7
370
     0
100
AcDbMText
 10
170.4916010111
 20
112.4859278911
 30
0.0
 40
3.5
 41
0.0
 71
     1
 72
     1
  1
エースボール　アングル型　BD-3200R
  7
SLDTEXTSTYLE0
 73
     1
 44
1.0
  0
LINE
  5
65
330
1F
100
AcDbEntity
  8
0
  6
Continuous
 62
     7
370
    25
100
AcDbLine
 10
165.1313734854
 20
58.9843897461
 30
0.0
 11
165.9902422325
 21
60.4719940531
 31
0.0
  0
LINE
  5
66
330
1F
100
AcDbEntity
  8
0
  6
Continuous
 62
     7
370
    25
100
AcDbLine
 10
165.9902422325
 20
76.9719940531
 30
0.0
 11
165.1313734854
 21
78.4595983602
 31
0.0
  0
LINE
  5
67
330
1F
100
AcDbEntity
  8
0
  6
Continuous
 62
     7
370
    25
100
AcDbLine
 10
144.2526379255
 20
57.5808628003
 30
0.0
 11
145.7402422325
 21
56.7219940531
 31
0.0
  0
LINE
  5
68
330
1F
100
AcDbEntity
  8
0
  6
Continuous
 62
     7
370
    25
100
AcDbLine
 10
162.2402422325
 20
56.7219940531
 30
0.0
 11
163.7278465395
 21
57.5808628003
 31
0.0
  0
LINE
  5
69
330
1F
100
AcDbEntity
  8
0
  6
Continuous
 62
     7
370
    25
100
AcDbLine
 10
142.8491109796
 20
78.4595983602
 30
0.0
 11
142.0902422325
 21
77.1451991339
 31
0.0
  0
LINE
  5
6A
330
1F
100
AcDbEntity
  8
0
  6
Continuous
 62
     7
370
    25
100
AcDbLine
 10
142.0902422325
 20
60.2987889724
 30
0.0
 11
142.8491109796
 21
58.9843897461
 31
0.0
  0
LINE
  5
6B
330
1F
100
AcDbEntity
  8
0
  6
Continuous
 62
     7
370
    25
100
AcDbLine
 10
147.2401797325
 20
56.7219940531
 30
0.0
 11
147.5342801183
 21
47.3107817069
 31
0.0
  0
LINE
  5
6C
330
1F
100
AcDbEntity
  8
0
  6
Continuous
 62
     7
370
    25
100
AcDbLine
 10
160.4462043467
 20
47.3107817069
 30
0.0
 11
160.7403047325
 21
56.7219940531
 31
0.0
  0
SPLINE
  5
6D
330
1F
100
AcDbEntity
  8
0
  6
Continuous
 62
     7
370
    25
100
AcDbSpline
210
0.0
220
0.0
230
1.0
 70
     8
 71
     3
 72
    11
 73
     7
 74
     0
 42
0.00000001
 43
0.00000001
 40
0.0
 40
0.0
 40
0.0
 40
0.0
 40
0.2350493969884527
 40
0.5843697938656436
 40
0.8881522698236235
 40
1.0
 40
1.0
 40
1.0
 40
1.0
 10
160.1593723862453
 20
77.51024254900182
 30
0.0
 10
160.1164241548671
 20
77.55496770311576
 30
0.0
 10
160.0096480923076
 20
77.66616147525485
 30
0.0
 10
159.9155300504059
 20
77.88365368690734
 30
0.0
 10
159.8684755659802
 20
78.08169524267917
 30
0.0
 10
159.8754458824746
 20
78.19073878358395
 30
0.0
 10
159.8773216221754
 20
78.22008283115458
 30
0.0
  0
SPLINE
  5
6E
330
1F
100
AcDbEntity
  8
0
  6
Continuous
 62
     7
370
    25
100
AcDbSpline
210
0.0
220
0.0
230
1.0
 70
     8
 71
     3
 72
    11
 73
     7
 74
     0
 42
0.00000001
 43
0.00000001
 40
0.0
 40
0.0
 40
0.0
 40
0.0
 40
0.1643924951260743
 40
0.4914722417575729
 40
0.8288811284267421
 40
1.0
 40
1.0
 40
1.0
 40
1.0
 10
148.0973942671503
 20
78.22146615445126
 30
0.0
 10
148.0991141298135
 20
78.17835586988566
 30
0.0
 10
148.1042558776647
 20
78.04947219924118
 30
0.0
 10
148.0426917337521
 20
77.83844613747668
 30
0.0
 10
147.9452484749634
 20
77.6381552014551
 30
0.0
 10
147.8481509139788
 20
77.54640965772396
 30
0.0
 10
147.8154777220067
 20
77.51553741198968
 30
0.0
  0
LINE
  5
6F
330
1F
100
AcDbEntity
  8
0
  6
Continuous
 62
     7
370
    25
100
AcDbLine
 10
147.5342801183
 20
47.3107817069
 30
0.0
 11
148.7402422325
 21
45.2219940531
 31
0.0
  0
LINE
  5
70
330
1F
100
AcDbEntity
  8
0
  6
Continuous
 62
     7
370
    25
100
AcDbLine
 10
159.2402422325
 20
45.2219940531
 30
0.0
 11
160.4462043467
 21
47.3107817069
 31
0.0
  0
LINE
  5
71
330
1F
100
AcDbEntity
  8
0
  6
Continuous
 62
     7
370
    25
100
AcDbLine
 10
159.8902422325
 20
78.2174632331
 30
0.0
 11
159.8902422325
 21
79.2219940531
 31
0.0
  0
LINE
  5
72
330
1F
100
AcDbEntity
  8
0
  6
Continuous
 62
     7
370
    25
100
AcDbLine
 10
148.0902422325
 20
79.2219940531
 30
0.0
 11
148.0902422325
 21
78.2219940531
 31
0.0
  0
LINE
  5
73
330
1F
100
AcDbEntity
  8
0
  6
Continuous
 62
     7
370
    25
100
AcDbLine
 10
147.8200753252
 20
77.5167317824
 30
0.0
 11
147.2757110527
 21
78.4595983602
 31
0.0
  0
LINE
  5
74
330
1F
100
AcDbEntity
  8
0
  6
Continuous
 62
     7
370
    25
100
AcDbLine
 10
160.7047734123
 20
78.4595983602
 30
0.0
 11
160.1604091398
 21
77.5167317824
 31
0.0
  0
LINE
  5
75
330
1F
100
AcDbEntity
  8
0
  6
Continuous
 62
     7
370
    25
100
AcDbLine
 10
163.7278465395
 20
57.5783024189
 30
0.0
 11
163.7278465395
 21
58.9843897461
 31
0.0
  0
LINE
  5
76
330
1F
100
AcDbEntity
  8
0
  6
Continuous
 62
     7
370
    25
100
AcDbLine
 10
163.7278465395
 20
58.9843897461
 30
0.0
 11
165.1339415409
 21
58.9843897461
 31
0.0
  0
LINE
  5
77
330
1F
100
AcDbEntity
  8
0
  6
Continuous
 62
     7
370
    25
100
AcDbLine
 10
147.2782791081
 20
78.4595983602
 30
0.0
 11
142.8465429241
 21
78.4595983602
 31
0.0
  0
LINE
  5
78
330
1F
100
AcDbEntity
  8
0
  6
Continuous
 62
     7
370
    25
100
AcDbLine
 10
165.1339415409
 20
78.4595983602
 30
0.0
 11
160.7022053569
 21
78.4595983602
 31
0.0
  0
LINE
  5
79
330
1F
100
AcDbEntity
  8
0
  6
Continuous
 62
     7
370
    25
100
AcDbLine
 10
144.2526379255
 20
58.9843897461
 30
0.0
 11
144.2526379255
 21
57.5783024189
 31
0.0
  0
LINE
  5
7A
330
1F
100
AcDbEntity
  8
0
  6
Continuous
 62
     7
370
    25
100
AcDbLine
 10
142.8465429241
 20
58.9843897461
 30
0.0
 11
144.2526379255
 21
58.9843897461
 31
0.0
  0
LINE
  5
7B
330
1F
100
AcDbEntity
  8
0
  6
Continuous
 62
     7
370
    25
100
AcDbLine
 10
160.9902422325
 20
79.2219940531
 30
0.0
 11
161.4402422325
 21
87.2219940531
 31
0.0
  0
LINE
  5
7C
330
1F
100
AcDbEntity
  8
0
  6
Continuous
 62
     7
370
    25
100
AcDbLine
 10
161.4402422325
 20
87.2219940531
 30
0.0
 11
159.4902422325
 21
95.2219940531
 31
0.0
  0
LINE
  5
7D
330
1F
100
AcDbEntity
  8
0
  6
Continuous
 62
     7
370
    25
100
AcDbLine
 10
146.9214968149
 20
80.4441348104
 30
0.0
 11
146.9902422325
 21
79.2219940531
 31
0.0
  0
LINE
  5
7E
330
1F
100
AcDbEntity
  8
0
  6
Continuous
 62
     7
370
    25
100
AcDbLine
 10
148.4902422325
 20
95.2219940531
 30
0.0
 11
148.237010698
 21
94.18309545
 31
0.0
  0
LINE
  5
7F
330
1F
100
AcDbEntity
  8
0
  6
Continuous
 62
     7
370
    25
100
AcDbLine
 10
142.0902422325
 20
76.7219940531
 30
0.0
 11
139.2902422325
 21
76.7219940531
 31
0.0
  0
LINE
  5
80
330
1F
100
AcDbEntity
  8
0
  6
Continuous
 62
     7
370
    25
100
AcDbLine
 10
139.2902422325
 20
60.7219940531
 30
0.0
 11
142.0902422325
 21
60.7219940531
 31
0.0
  0
LINE
  5
81
330
1F
100
AcDbEntity
  8
0
  6
Continuous
 62
     7
370
    25
100
AcDbLine
 10
139.2902422325
 20
76.7219940531
 30
0.0
 11
139.0902422325
 21
76.5219940531
 31
0.0
  0
LINE
  5
82
330
1F
100
AcDbEntity
  8
0
  6
Continuous
 62
     7
370
    25
100
AcDbLine
 10
139.0902422325
 20
60.9219940531
 30
0.0
 11
139.2902422325
 21
60.7219940531
 31
0.0
  0
ARC
  5
83
330
1F
100
AcDbEntity
  8
0
  6
Continuous
 62
     7
370
    25
100
AcDbCircle
 10
130.5802422325
 20
73.7319940531
 30
0.0
 40
0.9900000000000091
100
AcDbArc
 50
90.0
 51
180.0
  0
ARC
  5
84
330
1F
100
AcDbEntity
  8
0
  6
Continuous
 62
     7
370
    25
100
AcDbCircle
 10
130.5802422325
 20
63.7119940531
 30
0.0
 40
0.990000000000002
100
AcDbArc
 50
180.0
 51
270.0
  0
LINE
  5
85
330
1F
100
AcDbEntity
  8
0
  6
Continuous
 62
     7
370
    25
100
AcDbLine
 10
130.6002422325
 20
74.7219940531
 30
0.0
 11
130.5802422325
 21
74.7219940531
 31
0.0
  0
LINE
  5
86
330
1F
100
AcDbEntity
  8
0
  6
Continuous
 62
     7
370
    25
100
AcDbLine
 10
130.5802422325
 20
62.7219940531
 30
0.0
 11
130.6002422325
 21
62.7219940531
 31
0.0
  0
ARC
  5
87
330
1F
100
AcDbEntity
  8
0
  6
Continuous
 62
     7
370
    25
100
AcDbCircle
 10
130.6002422325
 20
73.7319940531
 30
0.0
 40
0.9900000000000091
100
AcDbArc
 50
19.1995397339
 51
90.0
  0
ARC
  5
88
330
1F
100
AcDbEntity
  8
0
  6
Continuous
 62
     7
370
    25
100
AcDbCircle
 10
130.6002422325
 20
63.7119940531
 30
0.0
 40
0.9900000000000103
100
AcDbArc
 50
270.0
 51
340.8004602661
  0
ARC
  5
89
330
1F
100
AcDbEntity
  8
0
  6
Continuous
 62
     7
370
    25
100
AcDbCircle
 10
132.0073669604
 20
74.2219940531
 30
0.0
 40
0.5000000000000013
100
AcDbArc
 50
199.1995397339
 51
270.0
  0
ARC
  5
8A
330
1F
100
AcDbEntity
  8
0
  6
Continuous
 62
     7
370
    25
100
AcDbCircle
 10
132.0073669604
 20
63.2219940531
 30
0.0
 40
0.5
100
AcDbArc
 50
90.0
 51
160.8004602661
  0
LINE
  5
8B
330
1F
100
AcDbEntity
  8
0
  6
Continuous
 62
     7
370
    25
100
AcDbLine
 10
139.0902422325
 20
73.7219940531
 30
0.0
 11
132.0073669604
 21
73.7219940531
 31
0.0
  0
LINE
  5
8C
330
1F
100
AcDbEntity
  8
0
  6
Continuous
 62
     7
370
    25
100
AcDbLine
 10
132.0073669604
 20
63.7219940531
 30
0.0
 11
139.0902422325
 21
63.7219940531
 31
0.0
  0
LINE
  5
8D
330
1F
100
AcDbEntity
  8
0
  6
Continuous
 62
     7
370
    25
100
AcDbLine
 10
149.371440079
 20
60.7555975133
 30
0.0
 11
149.371440079
 21
57.5440530257
 31
0.0
  0
SPLINE
  5
8E
330
1F
100
AcDbEntity
  8
0
  6
Continuous
 62
     7
370
    25
100
AcDbSpline
210
0.0
220
0.0
230
1.0
 70
     8
 71
     3
 72
     8
 73
     4
 74
     0
 42
0.00000001
 43
0.00000001
 40
0.0
 40
0.0
 40
0.0
 40
0.0
 40
1.0
 40
1.0
 40
1.0
 40
1.0
 10
149.3714400789833
 20
60.75559751328212
 30
0.0
 10
149.5766259015266
 20
60.81215848040634
 30
0.0
 10
149.7828491022339
 20
60.86609855182017
 30
0.0
 10
149.9902422325003
 20
60.91708284156314
 30
0.0
  0
LINE
  5
8F
330
1F
100
AcDbEntity
  8
0
  6
Continuous
 62
     7
370
    25
100
AcDbLine
 10
149.9902422325
 20
64.7219940531
 30
0.0
 11
147.4740061555
 21
64.7219940531
 31
0.0
  0
SPLINE
  5
90
330
1F
100
AcDbEntity
  8
0
  6
Continuous
 62
     7
370
    25
100
AcDbSpline
210
0.0
220
0.0
230
1.0
 70
     8
 71
     3
 72
     8
 73
     4
 74
     0
 42
0.00000001
 43
0.00000001
 40
0.0
 40
0.0
 40
0.0
 40
0.0
 40
1.0
 40
1.0
 40
1.0
 40
1.0
 10
147.3125208272402
 20
64.10319189962007
 30
0.0
 10
147.3690841967084
 20
64.30838643712984
 30
0.0
 10
147.4230241195297
 20
64.514610090647
 30
0.0
 10
147.4740061555212
 20
64.72199405313711
 30
0.0
  0
LINE
  5
91
330
1F
100
AcDbEntity
  8
0
  6
Continuous
 62
     7
370
    25
100
AcDbLine
 10
142.8123012051
 20
64.1031918996
 30
0.0
 11
147.3125208272
 21
64.1031918996
 31
0.0
  0
SPLINE
  5
92
330
1F
100
AcDbEntity
  8
0
  6
Continuous
 62
     7
370
    25
100
AcDbSpline
210
0.0
220
0.0
230
1.0
 70
     8
 71
     3
 72
    14
 73
    10
 74
     0
 42
0.00000001
 43
0.00000001
 40
0.0
 40
0.0
 40
0.0
 40
0.0
 40
0.25
 40
0.25
 40
0.5
 40
0.5
 40
0.75
 40
0.75
 40
1.0
 40
1.0
 40
1.0
 40
1.0
 10
142.8123012050579
 20
64.10319189962006
 30
0.0
 10
142.6042913490525
 20
64.85778779094998
 30
0.0
 10
142.4321397548167
 20
65.62698143534679
 30
0.0
 10
142.1975214229235
 20
67.16730519143239
 30
0.0
 10
142.1345469414842
 20
67.94220980716854
 30
0.0
 10
142.1346126842315
 20
69.50301854475205
 30
0.0
 10
142.1992694588561
 20
70.29354580632658
 30
0.0
 10
142.435795152684
 20
71.83549361898264
 30
0.0
 10
142.6061210801982
 20
72.59283801812978
 30
0.0
 10
142.8123012050579
 20
73.34079620665412
 30
0.0
  0
LINE
  5
93
330
1F
100
AcDbEntity
  8
0
  6
Continuous
 62
     7
370
    25
100
AcDbLine
 10
147.3125208272
 20
73.3407962067
 30
0.0
 11
142.8123012051
 21
73.3407962067
 31
0.0
  0
SPLINE
  5
94
330
1F
100
AcDbEntity
  8
0
  6
Continuous
 62
     7
370
    25
100
AcDbSpline
210
0.0
220
0.0
230
1.0
 70
     8
 71
     3
 72
     8
 73
     4
 74
     0
 42
0.00000001
 43
0.00000001
 40
0.0
 40
0.0
 40
0.0
 40
0.0
 40
1.0
 40
1.0
 40
1.0
 40
1.0
 10
147.4740061555212
 20
72.72199405313712
 30
0.0
 10
147.4231074385987
 20
72.9290390915661
 30
0.0
 10
147.3691733023479
 20
73.13527842124275
 30
0.0
 10
147.3125208272401
 20
73.34079620665412
 30
0.0
  0
LINE
  5
95
330
1F
100
AcDbEntity
  8
0
  6
Continuous
 62
     7
370
    25
100
AcDbLine
 10
160.5064783095
 20
72.7219940531
 30
0.0
 11
147.4740061555
 21
72.7219940531
 31
0.0
  0
SPLINE
  5
96
330
1F
100
AcDbEntity
  8
0
  6
Continuous
 62
     7
370
    25
100
AcDbSpline
210
0.0
220
0.0
230
1.0
 70
     8
 71
     3
 72
     8
 73
     4
 74
     0
 42
0.00000001
 43
0.00000001
 40
0.0
 40
0.0
 40
0.0
 40
0.0
 40
1.0
 40
1.0
 40
1.0
 40
1.0
 10
160.5064783094795
 20
72.72199405313718
 30
0.0
 10
160.5573745427346
 20
72.92902898854094
 30
0.0
 10
160.6113084976982
 20
73.13526875360593
 30
0.0
 10
160.6679636377605
 20
73.34079620665412
 30
0.0
  0
LINE
  5
97
330
1F
100
AcDbEntity
  8
0
  6
Continuous
 62
     7
370
    25
100
AcDbLine
 10
165.1681832599
 20
73.3407962067
 30
0.0
 11
160.6679636378
 21
73.3407962067
 31
0.0
  0
SPLINE
  5
98
330
1F
100
AcDbEntity
  8
0
  6
Continuous
 62
     7
370
    25
100
AcDbSpline
210
0.0
220
0.0
230
1.0
 70
     8
 71
     3
 72
    14
 73
    10
 74
     0
 42
0.00000001
 43
0.00000001
 40
0.0
 40
0.0
 40
0.0
 40
0.0
 40
0.25
 40
0.25
 40
0.5
 40
0.5
 40
0.75
 40
0.75
 40
1.0
 40
1.0
 40
1.0
 40
1.0
 10
165.1681832599428
 20
64.10319189962006
 30
0.0
 10
165.3761336206485
 20
64.85757196027005
 30
0.0
 10
165.5483554293374
 20
65.62701312773554
 30
0.0
 10
165.7829905520883
 20
67.1675244886767
 30
0.0
 10
165.845934610716
 20
67.94237886868372
 30
0.0
 10
165.8458746979845
 20
69.50273982356927
 30
0.0
 10
165.7812600316924
 20
70.29319601635432
 30
0.0
 10
165.5447006922911
 20
71.83547567916278
 30
0.0
 10
165.3743555522117
 20
72.59286643236398
 30
0.0
 10
165.1681832599428
 20
73.34079620665412
 30
0.0
  0
LINE
  5
99
330
1F
100
AcDbEntity
  8
0
  6
Continuous
 62
     7
370
    25
100
AcDbLine
 10
160.6679636378
 20
64.1031918996
 30
0.0
 11
165.1681832599
 21
64.1031918996
 31
0.0
  0
SPLINE
  5
9A
330
1F
100
AcDbEntity
  8
0
  6
Continuous
 62
     7
370
    25
100
AcDbSpline
210
0.0
220
0.0
230
1.0
 70
     8
 71
     3
 72
     8
 73
     4
 74
     0
 42
0.00000001
 43
0.00000001
 40
0.0
 40
0.0
 40
0.0
 40
0.0
 40
1.0
 40
1.0
 40
1.0
 40
1.0
 10
160.6679636377605
 20
64.10319189962007
 30
0.0
 10
160.6114017943236
 20
64.3083809011569
 30
0.0
 10
160.5574617770672
 20
64.5146042672216
 30
0.0
 10
160.5064783094795
 20
64.72199405313705
 30
0.0
  0
LINE
  5
9B
330
1F
100
AcDbEntity
  8
0
  6
Continuous
 62
     7
370
    25
100
AcDbLine
 10
160.5064783095
 20
64.7219940531
 30
0.0
 11
157.9902422325
 21
64.7219940531
 31
0.0
  0
LINE
  5
9C
330
1F
100
AcDbEntity
  8
0
  6
Continuous
 62
     7
370
    25
100
AcDbLine
 10
157.9902422325
 20
60.9170828416
 30
0.0
 11
157.9902422325
 21
64.7219940531
 31
0.0
  0
SPLINE
  5
9D
330
1F
100
AcDbEntity
  8
0
  6
Continuous
 62
     7
370
    25
100
AcDbSpline
210
0.0
220
0.0
230
1.0
 70
     8
 71
     3
 72
     8
 73
     4
 74
     0
 42
0.00000001
 43
0.00000001
 40
0.0
 40
0.0
 40
0.0
 40
0.0
 40
1.0
 40
1.0
 40
1.0
 40
1.0
 10
157.9902422325003
 20
60.91708284156313
 30
0.0
 10
158.1972712958357
 20
60.86618805186231
 30
0.0
 10
158.4035113131051
 20
60.81225420250087
 30
0.0
 10
158.6090443860174
 20
60.75559751328211
 30
0.0
  0
LINE
  5
9E
330
1F
100
AcDbEntity
  8
0
  6
Continuous
 62
     7
370
    25
100
AcDbLine
 10
158.609044386
 20
57.5440530257
 30
0.0
 11
158.609044386
 21
60.7555975133
 31
0.0
  0
SPLINE
  5
9F
330
1F
100
AcDbEntity
  8
0
  6
Continuous
 62
     7
370
    25
100
AcDbSpline
210
0.0
220
0.0
230
1.0
 70
     8
 71
     3
 72
    14
 73
    10
 74
     0
 42
0.00000001
 43
0.00000001
 40
0.0
 40
0.0
 40
0.0
 40
0.0
 40
0.5000000000000001
 40
0.5000000000000001
 40
0.6250000000000001
 40
0.6250000000000001
 40
0.7500000000000002
 40
0.7500000000000002
 40
1.0
 40
1.0
 40
1.0
 40
1.0
 10
149.3714400789833
 20
57.54405302569471
 30
0.0
 10
150.8690733185175
 20
57.13121951032084
 30
0.0
 10
152.3966978673226
 20
56.86776658440092
 30
0.0
 10
154.3719871157731
 20
56.8659804034617
 30
0.0
 10
154.7689161961692
 20
56.88178752854167
 30
0.0
 10
155.5521727298154
 20
56.94346757375716
 30
0.0
 10
155.9405785439592
 20
56.98928129344873
 30
0.0
 10
157.0972898157545
 20
57.1662478808621
 30
0.0
 10
157.8571206130983
 20
57.33677975860034
 30
0.0
 10
158.6090443860174
 20
57.54405302569471
 30
0.0
  0
ARC
  5
A0
330
1F
100
AcDbEntity
  8
0
  6
Continuous
 62
     7
370
    25
100
AcDbCircle
 10
155.5409735882
 20
68.1450750598
 30
0.0
 40
0.889000000000007
100
AcDbArc
 50
45.0
 51
315.0
  0
LINE
  5
A1
330
1F
100
AcDbEntity
  8
0
  6
Continuous
 62
     7
370
    25
100
AcDbLine
 10
156.1695915167
 20
68.7736929883
 30
0.0
 11
156.6362019023
 21
69.2403033739
 31
0.0
  0
ARC
  5
A2
330
1F
100
AcDbEntity
  8
0
  6
Continuous
 62
     7
370
    25
100
AcDbCircle
 10
155.5409735882
 20
68.1450750598
 30
0.0
 40
1.548886735692394
100
AcDbArc
 50
45.0
 51
315.0
  0
LINE
  5
A3
330
1F
100
AcDbEntity
  8
0
  6
Continuous
 62
     7
370
    25
100
AcDbLine
 10
156.6362019023
 20
67.0498467457
 30
0.0
 11
156.1695915167
 21
67.5164571314
 31
0.0
  0
ARC
  5
A4
330
1F
100
AcDbEntity
  8
0
  6
Continuous
 62
     7
370
    25
100
AcDbCircle
 10
158.8831181846
 20
68.1450750598
 30
0.0
 40
0.8889999999999868
100
AcDbArc
 50
45.0
 51
159.0751675724
  0
LINE
  5
A5
330
1F
100
AcDbEntity
  8
0
  6
Continuous
 62
     7
370
    25
100
AcDbLine
 10
159.5117361131
 20
68.7736929883
 30
0.0
 11
159.9783464987
 21
69.2403033739
 31
0.0
  0
ARC
  5
A6
330
1F
100
AcDbEntity
  8
0
  6
Continuous
 62
     7
370
    25
100
AcDbCircle
 10
158.8831181846
 20
68.1450750598
 30
0.0
 40
1.548886735692384
100
AcDbArc
 50
45.0
 51
315.0
  0
LINE
  5
A7
330
1F
100
AcDbEntity
  8
0
  6
Continuous
 62
     7
370
    25
100
AcDbLine
 10
159.9783464987
 20
67.0498467457
 30
0.0
 11
159.5117361131
 21
67.5164571314
 31
0.0
  0
ARC
  5
A8
330
1F
100
AcDbEntity
  8
0
  6
Continuous
 62
     7
370
    25
100
AcDbCircle
 10
158.8831181846
 20
68.1450750598
 30
0.0
 40
0.8890000000000191
100
AcDbArc
 50
200.9248324276
 51
315.0
  0
LINE
  5
A9
330
1F
100
AcDbEntity
  8
0
  6
Continuous
 62
     7
370
    25
100
AcDbLine
 10
158.0527479358
 20
67.8275750598
 30
0.0
 11
159.9783464987
 21
67.8275750598
 31
0.0
  0
LINE
  5
AA
330
1F
100
AcDbEntity
  8
0
  6
Continuous
 62
     7
370
    25
100
AcDbLine
 10
159.9783464987
 20
67.8275750598
 30
0.0
 11
159.9783464987
 21
68.4625750598
 31
0.0
  0
LINE
  5
AB
330
1F
100
AcDbEntity
  8
0
  6
Continuous
 62
     7
370
    25
100
AcDbLine
 10
159.9783464987
 20
68.4625750598
 30
0.0
 11
158.0527479358
 21
68.4625750598
 31
0.0
  0
LINE
  5
AC
330
1F
100
AcDbEntity
  8
0
  6
Continuous
 62
     7
370
    25
100
AcDbLine
 10
153.0884833185
 20
67.2996210355
 30
0.0
 11
153.0468329992
 21
67.2758161057
 31
0.0
  0
ELLIPSE
  5
AD
330
1F
100
AcDbEntity
  8
0
  6
Continuous
 62
     7
370
    25
100
AcDbEllipse
 10
152.6979898197
 20
67.8304985769
 30
0.0
 11
0.678412947925267
 21
6.110667527536863E-13
 31
0.0
210
0.0
220
0.0
230
1.0
 40
0.9533039403
 41
3.470145824140271
 42
5.252469180536299
  0
LINE
  5
AE
330
1F
100
AcDbEntity
  8
0
  6
Continuous
 62
     7
370
    25
100
AcDbLine
 10
152.0558650527
 20
67.6218144619
 30
0.0
 11
150.7962108478
 21
71.1442588586
 31
0.0
  0
ELLIPSE
  5
AF
330
1F
100
AcDbEntity
  8
0
  6
Continuous
 62
     7
370
    25
100
AcDbEllipse
 10
150.2052282898
 20
70.8819196225
 30
0.0
 11
0.6519124952381786
 21
5.968558980384842E-13
 31
0.0
210
0.0
220
0.0
230
1.0
 40
0.9533023292
 41
0.4357905044355165
 42
2.705800116361503
  0
LINE
  5
B0
330
1F
100
AcDbEntity
  8
0
  6
Continuous
 62
     7
370
    25
100
AcDbLine
 10
149.6142462913
 20
71.1442600038
 30
0.0
 11
148.3548814897
 21
67.6226366021
 31
0.0
  0
ELLIPSE
  5
B1
330
1F
100
AcDbEntity
  8
0
  6
Continuous
 62
     7
370
    25
100
AcDbEllipse
 10
147.7127603057
 20
67.8313194358
 30
0.0
 11
-0.6784085062757867
 21
3.268496584496461E-13
 31
0.0
210
0.0
220
0.0
230
1.0
 40
0.9533122623
 41
1.04719377118795
 42
2.813042320199904
  0
LINE
  5
B2
330
1F
100
AcDbEntity
  8
0
  6
Continuous
 62
     7
370
    25
100
AcDbLine
 10
147.3735538317
 20
67.2712315905
 30
0.0
 11
147.3219732612
 21
67.2996210355
 31
0.0
  0
LINE
  5
B3
330
1F
100
AcDbEntity
  8
0
  6
Continuous
 62
     7
370
    25
100
AcDbLine
 10
147.3219732612
 20
67.2996210355
 30
0.0
 11
148.1182419207
 21
65.7814489341
 31
0.0
  0
ELLIPSE
  5
B4
330
1F
100
AcDbEntity
  8
0
  6
Continuous
 62
     7
370
    25
100
AcDbEllipse
 10
148.1940907941
 20
65.8176024491
 30
0.0
 11
0.08480161849067258
 21
-2.842170943040401E-14
 31
0.0
210
0.0
220
0.0
230
1.0
 40
0.9533039403
 41
3.605240262591132
 42
5.462183310215191
  0
ELLIPSE
  5
B5
330
1F
100
AcDbEntity
  8
0
  6
Continuous
 62
     7
370
    25
100
AcDbEllipse
 10
150.2052282898
 20
63.7587538285
 30
0.0
 11
2.866293551216216
 21
-1.499245172453812E-12
 31
0.0
210
0.0
220
0.0
230
1.0
 40
0.9533046568
 41
0.8210016221243743
 42
2.320591031466438
  0
ELLIPSE
  5
B6
330
1F
100
AcDbEntity
  8
0
  6
Continuous
 62
     7
370
    25
100
AcDbEllipse
 10
152.2163657856
 20
65.8176024491
 30
0.0
 11
0.08480161849058732
 21
0.0
 31
0.0
210
0.0
220
0.0
230
1.0
 40
0.9533039403
 41
3.962594650556444
 42
5.819537698177162
  0
LINE
  5
B7
330
1F
100
AcDbEntity
  8
0
  6
Continuous
 62
     7
370
    25
100
AcDbLine
 10
152.292214659
 20
65.7814489341
 30
0.0
 11
153.0884833185
 21
67.2996210355
 31
0.0
  0
LINE
  5
B8
330
1F
100
AcDbEntity
  8
0
  6
Continuous
 62
     7
370
    25
100
AcDbLine
 10
149.9902422325
 20
60.9170828416
 30
0.0
 11
149.9902422325
 21
64.7219940531
 31
0.0
  0
LINE
  5
B9
330
1F
100
AcDbEntity
  8
0
  6
Continuous
 62
     7
370
    25
100
AcDbLine
 10
147.9902422325
 20
76.0832099853
 30
0.0
 11
147.9902422325
 21
72.7219940531
 31
0.0
  0
SPLINE
  5
BA
330
1F
100
AcDbEntity
  8
0
  6
Continuous
 62
     7
370
    25
100
AcDbSpline
210
0.0
220
0.0
230
1.0
 70
     8
 71
     3
 72
    10
 73
     6
 74
     0
 42
0.00000001
 43
0.00000001
 40
0.0
 40
0.0
 40
0.0
 40
0.0
 40
0.5
 40
0.5
 40
1.0
 40
1.0
 40
1.0
 40
1.0
 10
147.3125208272401
 20
73.77380890854634
 30
0.0
 10
147.2888454328157
 20
73.73086537764512
 30
0.0
 10
147.2757543229311
 20
73.66742293302099
 30
0.0
 10
147.2756680016429
 20
73.51494409590202
 30
0.0
 10
147.2888369355867
 20
73.42671409379476
 30
0.0
 10
147.3125208272401
 20
73.34079620665412
 30
0.0
  0
SPLINE
  5
BB
330
1F
100
AcDbEntity
  8
0
  6
Continuous
 62
     7
370
    25
100
AcDbSpline
210
0.0
220
0.0
230
1.0
 70
     8
 71
     3
 72
    12
 73
     8
 74
     0
 42
0.00000001
 43
0.00000001
 40
0.0
 40
0.0
 40
0.0
 40
0.0
 40
0.2500000000000001
 40
0.2500000000000001
 40
0.5000000000000002
 40
0.5000000000000002
 40
1.0
 40
1.0
 40
1.0
 40
1.0
 10
147.9902422325003
 20
76.08320998530485
 30
0.0
 10
147.9902422325003
 20
75.88746772242533
 30
0.0
 10
147.9743992964114
 20
75.69080111323477
 30
0.0
 10
147.9128964361737
 20
75.3015328859065
 30
0.0
 10
147.86729279513
 20
75.10812885295357
 30
0.0
 10
147.6908417776408
 20
74.53119980169681
 30
0.0
 10
147.5204444103889
 20
74.1509503684938
 30
0.0
 10
147.3125208272401
 20
73.77380890854634
 30
0.0
  0
SPLINE
  5
BC
330
1F
100
AcDbEntity
  8
0
  6
Continuous
 62
     7
370
    25
100
AcDbSpline
210
0.0
220
0.0
230
1.0
 70
     8
 71
     3
 72
    10
 73
     6
 74
     0
 42
0.00000001
 43
0.00000001
 40
0.0
 40
0.0
 40
0.0
 40
0.0
 40
0.5
 40
0.5
 40
1.0
 40
1.0
 40
1.0
 40
1.0
 10
147.3125208272401
 20
64.1031918996201
 30
0.0
 10
147.2888454328157
 20
64.01730483781765
 30
0.0
 10
147.2757543229311
 20
63.92989762883752
 30
0.0
 10
147.2756680016429
 20
63.77726118624378
 30
0.0
 10
147.2888369355867
 20
63.7131381412982
 30
0.0
 10
147.3125208272401
 20
63.67017919772788
 30
0.0
  0
LINE
  5
BD
330
1F
100
AcDbEntity
  8
0
  6
Continuous
 62
     7
370
    25
100
AcDbLine
 10
147.3125208272
 20
63.6701791977
 30
0.0
 11
142.8123012051
 21
63.6701791977
 31
0.0
  0
SPLINE
  5
BE
330
1F
100
AcDbEntity
  8
0
  6
Continuous
 62
     7
370
    25
100
AcDbSpline
210
0.0
220
0.0
230
1.0
 70
     8
 71
     3
 72
    10
 73
     6
 74
     0
 42
0.00000001
 43
0.00000001
 40
0.0
 40
0.0
 40
0.0
 40
0.0
 40
0.5
 40
0.5
 40
1.0
 40
1.0
 40
1.0
 40
1.0
 10
142.8123012050536
 20
63.67017919772788
 30
0.0
 10
142.8359765994779
 20
63.71312272862902
 30
0.0
 10
142.8490677093669
 20
63.7765651732527
 30
0.0
 10
142.8491540306553
 20
63.92904401037182
 30
0.0
 10
142.8359850967115
 20
64.01727401247929
 30
0.0
 10
142.8123012050579
 20
64.10319189962007
 30
0.0
  0
SPLINE
  5
BF
330
1F
100
AcDbEntity
  8
0
  6
Continuous
 62
     7
370
    25
100
AcDbSpline
210
0.0
220
0.0
230
1.0
 70
     8
 71
     3
 72
    10
 73
     6
 74
     0
 42
0.00000001
 43
0.00000001
 40
0.0
 40
0.0
 40
0.0
 40
0.0
 40
0.5
 40
0.5
 40
1.0
 40
1.0
 40
1.0
 40
1.0
 10
158.6090443860174
 20
60.75559751328209
 30
0.0
 10
158.6949314478199
 20
60.73192211885768
 30
0.0
 10
158.7823386568001
 20
60.71883100897305
 30
0.0
 10
158.934975099394
 20
60.71874468768483
 30
0.0
 10
158.9990981443397
 20
60.73191362162878
 30
0.0
 10
159.0420570879099
 20
60.75559751328232
 30
0.0
  0
LINE
  5
C0
330
1F
100
AcDbEntity
  8
0
  6
Continuous
 62
     7
370
    25
100
AcDbLine
 10
159.0420570879
 20
60.7555975133
 30
0.0
 11
159.0420570879
 21
57.5440530257
 31
0.0
  0
SPLINE
  5
C1
330
1F
100
AcDbEntity
  8
0
  6
Continuous
 62
     7
370
    25
100
AcDbSpline
210
0.0
220
0.0
230
1.0
 70
     8
 71
     3
 72
    10
 73
     6
 74
     0
 42
0.00000001
 43
0.00000001
 40
0.0
 40
0.0
 40
0.0
 40
0.0
 40
0.5
 40
0.5
 40
1.0
 40
1.0
 40
1.0
 40
1.0
 10
158.6090443860174
 20
57.54405302569471
 30
0.0
 10
158.6949260285238
 20
57.56772692625066
 30
0.0
 10
158.7823352344892
 20
57.5808194834298
 30
0.0
 10
158.9349777195642
 20
57.58090589741209
 30
0.0
 10
158.9991007046465
 20
57.56773550581346
 30
0.0
 10
159.0420570879096
 20
57.54405302569471
 30
0.0
  0
SPLINE
  5
C2
330
1F
100
AcDbEntity
  8
0
  6
Continuous
 62
     7
370
    25
100
AcDbSpline
210
0.0
220
0.0
230
1.0
 70
     8
 71
     3
 72
     8
 73
     4
 74
     0
 42
0.00000001
 43
0.00000001
 40
0.0
 40
0.0
 40
0.0
 40
0.0
 40
1.0
 40
1.0
 40
1.0
 40
1.0
 10
160.3328041913142
 20
61.72199405313712
 30
0.0
 10
160.6552835181635
 20
61.63027976540265
 30
0.0
 10
160.9706012744874
 20
61.53362297633475
 30
0.0
 10
161.2796184171349
 20
61.4326178685025
 30
0.0
  0
SPLINE
  5
C3
330
1F
100
AcDbEntity
  8
0
  6
Continuous
 62
     7
370
    25
100
AcDbSpline
210
0.0
220
0.0
230
1.0
 70
     8
 71
     3
 72
    10
 73
     6
 74
     0
 42
0.00000001
 43
0.00000001
 40
0.0
 40
0.0
 40
0.0
 40
0.0
 40
0.5
 40
0.5
 40
1.0
 40
1.0
 40
1.0
 40
1.0
 10
159.0420570879098
 20
60.75559751328227
 30
0.0
 10
159.4085750347504
 20
60.95766419883319
 30
0.0
 10
159.7776552602162
 20
61.12405697110383
 30
0.0
 10
160.5229076084436
 20
61.35810394497389
 30
0.0
 10
160.8991203803914
 20
61.42519219893271
 30
0.0
 10
161.2796184171349
 20
61.4326178685025
 30
0.0
  0
LINE
  5
C4
330
1F
100
AcDbEntity
  8
0
  6
Continuous
 62
     7
370
    25
100
AcDbLine
 10
165.1681832599
 20
63.6701791977
 30
0.0
 11
160.6679636378
 21
63.6701791977
 31
0.0
  0
SPLINE
  5
C5
330
1F
100
AcDbEntity
  8
0
  6
Continuous
 62
     7
370
    25
100
AcDbSpline
210
0.0
220
0.0
230
1.0
 70
     8
 71
     3
 72
    10
 73
     6
 74
     0
 42
0.00000001
 43
0.00000001
 40
0.0
 40
0.0
 40
0.0
 40
0.0
 40
0.5
 40
0.5
 40
1.0
 40
1.0
 40
1.0
 40
1.0
 10
160.6679636377573
 20
63.67017919772788
 30
0.0
 10
160.6916390321816
 20
63.71312272862905
 30
0.0
 10
160.7047301420695
 20
63.77656517325283
 30
0.0
 10
160.7048164633579
 20
63.92904401037192
 30
0.0
 10
160.691647529414
 20
64.01727401247935
 30
0.0
 10
160.6679636377605
 20
64.10319189962009
 30
0.0
  0
SPLINE
  5
C6
330
1F
100
AcDbEntity
  8
0
  6
Continuous
 62
     7
370
    25
100
AcDbSpline
210
0.0
220
0.0
230
1.0
 70
     8
 71
     3
 72
    10
 73
     6
 74
     0
 42
0.00000001
 43
0.00000001
 40
0.0
 40
0.0
 40
0.0
 40
0.0
 40
0.5
 40
0.5
 40
1.0
 40
1.0
 40
1.0
 40
1.0
 10
165.1681832599426
 20
64.1031918996201
 30
0.0
 10
165.1445078655182
 20
64.01730483781765
 30
0.0
 10
165.1314167556337
 20
63.92989762883751
 30
0.0
 10
165.1313304343454
 20
63.77726118624378
 30
0.0
 10
165.1444993682893
 20
63.7131381412982
 30
0.0
 10
165.1681832599428
 20
63.67017919772788
 30
0.0
  0
SPLINE
  5
C7
330
1F
100
AcDbEntity
  8
0
  6
Continuous
 62
     7
370
    25
100
AcDbSpline
210
0.0
220
0.0
230
1.0
 70
     8
 71
     3
 72
    10
 73
     6
 74
     0
 42
0.00000001
 43
0.00000001
 40
0.0
 40
0.0
 40
0.0
 40
0.0
 40
0.5
 40
0.5
 40
1.0
 40
1.0
 40
1.0
 40
1.0
 10
160.6679636377606
 20
73.34079620665412
 30
0.0
 10
160.691639032185
 20
73.42668326845657
 30
0.0
 10
160.7047301420696
 20
73.51409047743668
 30
0.0
 10
160.7048164633578
 20
73.66672692003041
 30
0.0
 10
160.691647529414
 20
73.73084996497599
 30
0.0
 10
160.6679636377605
 20
73.77380890854631
 30
0.0
  0
LINE
  5
C8
330
1F
100
AcDbEntity
  8
0
  6
Continuous
 62
     7
370
    25
100
AcDbLine
 10
160.6679636378
 20
73.7738089085
 30
0.0
 11
165.1681832599
 21
73.7738089085
 31
0.0
  0
SPLINE
  5
C9
330
1F
100
AcDbEntity
  8
0
  6
Continuous
 62
     7
370
    25
100
AcDbSpline
210
0.0
220
0.0
230
1.0
 70
     8
 71
     3
 72
    10
 73
     6
 74
     0
 42
0.00000001
 43
0.00000001
 40
0.0
 40
0.0
 40
0.0
 40
0.0
 40
0.5
 40
0.5
 40
1.0
 40
1.0
 40
1.0
 40
1.0
 10
165.1681832599428
 20
73.77380890854634
 30
0.0
 10
165.1445078655183
 20
73.73086537764512
 30
0.0
 10
165.1314167556337
 20
73.66742293302099
 30
0.0
 10
165.1313304343454
 20
73.51494409590202
 30
0.0
 10
165.1444993682893
 20
73.42671409379476
 30
0.0
 10
165.1681832599428
 20
73.34079620665412
 30
0.0
  0
LINE
  5
CA
330
1F
100
AcDbEntity
  8
0
  6
Continuous
 62
     7
370
    25
100
AcDbLine
 10
147.9902422325
 20
64.7219940531
 30
0.0
 11
147.9902422325
 21
62.7219940531
 31
0.0
  0
SPLINE
  5
CB
330
1F
100
AcDbEntity
  8
0
  6
Continuous
 62
     7
370
    25
100
AcDbSpline
210
0.0
220
0.0
230
1.0
 70
     8
 71
     3
 72
     8
 73
     4
 74
     0
 42
0.00000001
 43
0.00000001
 40
0.0
 40
0.0
 40
0.0
 40
0.0
 40
1.0
 40
1.0
 40
1.0
 40
1.0
 10
147.9902422325003
 20
62.72199405313711
 30
0.0
 10
147.9504635743102
 20
62.584608964137
 30
0.0
 10
147.9099746114819
 20
62.44790488232524
 30
0.0
 10
147.8688587410042
 20
62.31187251981186
 30
0.0
  0
SPLINE
  5
CC
330
1F
100
AcDbEntity
  8
0
  6
Continuous
 62
     7
370
    25
100
AcDbSpline
210
0.0
220
0.0
230
1.0
 70
     8
 71
     3
 72
     8
 73
     4
 74
     0
 42
0.00000001
 43
0.00000001
 40
0.0
 40
0.0
 40
0.0
 40
0.0
 40
1.0
 40
1.0
 40
1.0
 40
1.0
 10
147.3125208272401
 20
63.67017919772788
 30
0.0
 10
147.5596946081241
 20
63.22184390467655
 30
0.0
 10
147.7534162764281
 20
62.76966941393297
 30
0.0
 10
147.8688587410042
 20
62.31187251981186
 30
0.0
  0
SPLINE
  5
CD
330
1F
100
AcDbEntity
  8
0
  6
Continuous
 62
     7
370
    25
100
AcDbSpline
210
0.0
220
0.0
230
1.0
 70
     8
 71
     3
 72
     8
 73
     4
 74
     0
 42
0.00000001
 43
0.00000001
 40
0.0
 40
0.0
 40
0.0
 40
0.0
 40
1.0
 40
1.0
 40
1.0
 40
1.0
 10
146.7008660478837
 20
61.43261786850838
 30
0.0
 10
147.0098831905255
 20
61.53362297633851
 30
0.0
 10
147.3252009468435
 20
61.63027976540444
 30
0.0
 10
147.6476802736865
 20
61.72199405313712
 30
0.0
  0
SPLINE
  5
CE
330
1F
100
AcDbEntity
  8
0
  6
Continuous
 62
     7
370
    25
100
AcDbSpline
210
0.0
220
0.0
230
1.0
 70
     8
 71
     3
 72
    10
 73
     6
 74
     0
 42
0.00000001
 43
0.00000001
 40
0.0
 40
0.0
 40
0.0
 40
0.0
 40
0.5
 40
0.5
 40
1.0
 40
1.0
 40
1.0
 40
1.0
 10
148.9384273770911
 20
60.75559751328211
 30
0.0
 10
148.9813709079924
 20
60.73192211885772
 30
0.0
 10
149.0448133526165
 20
60.71883100897309
 30
0.0
 10
149.1972921897354
 20
60.7187446876848
 30
0.0
 10
149.2855221918427
 20
60.73191362162864
 30
0.0
 10
149.3714400789833
 20
60.7555975132821
 30
0.0
  0
SPLINE
  5
CF
330
1F
100
AcDbEntity
  8
0
  6
Continuous
 62
     7
370
    25
100
AcDbSpline
210
0.0
220
0.0
230
1.0
 70
     8
 71
     3
 72
    12
 73
     8
 74
     0
 42
0.00000001
 43
0.00000001
 40
0.0
 40
0.0
 40
0.0
 40
0.0
 40
0.2500000000000002
 40
0.2500000000000002
 40
0.5000000000000004
 40
0.5000000000000004
 40
1.0
 40
1.0
 40
1.0
 40
1.0
 10
146.7008660478785
 20
61.43261786850225
 30
0.0
 10
146.8908922231817
 20
61.42890938264582
 30
0.0
 10
147.0811072858675
 20
61.41032687980815
 30
0.0
 10
147.4580440449999
 20
61.345459842842
 30
0.0
 10
147.6453668362594
 20
61.29919428959172
 30
0.0
 10
148.2042767925735
 20
61.12346975928477
 30
0.0
 10
148.5728124506838
 20
60.95716635050802
 30
0.0
 10
148.9384273770911
 20
60.75559751328211
 30
0.0
  0
LINE
  5
D0
330
1F
100
AcDbEntity
  8
0
  6
Continuous
 62
     7
370
    25
100
AcDbLine
 10
149.936481226
 20
68.1475621967
 30
0.0
 11
150.5438295848
 21
68.1475621967
 31
0.0
  0
ELLIPSE
  5
D1
330
1F
100
AcDbEntity
  8
0
  6
Continuous
 62
     7
370
    25
100
AcDbEllipse
 10
150.2401554072
 20
69.0389865307
 30
0.0
 11
0.08480161849067258
 21
1.421085471520200E-14
 31
0.0
210
0.0
220
0.0
230
1.0
 40
0.9533039403
 41
0.3430239404206244
 42
2.798568713168708
  0
LINE
  5
D2
330
1F
100
AcDbEntity
  8
0
  6
Continuous
 62
     7
370
    25
100
AcDbLine
 10
150.6236908231
 20
68.2555939254
 30
0.0
 11
150.3200166455
 21
69.0661765426
 31
0.0
  0
LINE
  5
D3
330
1F
100
AcDbEntity
  8
0
  6
Continuous
 62
     7
370
    25
100
AcDbLine
 10
150.1602941689
 20
69.0661765426
 30
0.0
 11
149.8566199877
 21
68.2555939257
 31
0.0
  0
ELLIPSE
  5
D4
330
1F
100
AcDbEntity
  8
0
  6
Continuous
 62
     7
370
    25
100
AcDbEllipse
 10
150.5438295848
 20
68.2284039137
 30
0.0
 11
-0.08480161849064416
 21
-4.263256414560601E-14
 31
0.0
210
0.0
220
0.0
230
1.0
 40
0.9533039403
 41
1.570796326794417
 42
3.48461659214898
  0
ELLIPSE
  5
D5
330
1F
100
AcDbEntity
  8
0
  6
Continuous
 62
     7
370
    25
100
AcDbEllipse
 10
149.936481226
 20
68.2284039137
 30
0.0
 11
0.08480161849067258
 21
-1.421085471520200E-14
 31
0.0
210
0.0
220
0.0
230
1.0
 40
0.9533039403
 41
2.798568711308552
 42
4.712388980384862
  0
LINE
  5
D6
330
1F
100
AcDbEntity
  8
0
  6
Continuous
 62
     7
370
    25
100
AcDbLine
 10
159.9902422325
 20
76.0832099853
 30
0.0
 11
159.9902422325
 21
72.7219940531
 31
0.0
  0
SPLINE
  5
D7
330
1F
100
AcDbEntity
  8
0
  6
Continuous
 62
     7
370
    25
100
AcDbSpline
210
0.0
220
0.0
230
1.0
 70
     8
 71
     3
 72
    10
 73
     6
 74
     0
 42
0.00000001
 43
0.00000001
 40
0.0
 40
0.0
 40
0.0
 40
0.0
 40
0.5
 40
0.5
 40
1.0
 40
1.0
 40
1.0
 40
1.0
 10
160.6679636377605
 20
73.77380890854631
 30
0.0
 10
160.4595428849431
 20
74.15185215794848
 30
0.0
 10
160.2890790496657
 20
74.53262166274432
 30
0.0
 10
160.0540966147273
 20
75.30177018830187
 30
0.0
 10
159.9902422325003
 20
75.69019691647712
 30
0.0
 10
159.9902422325003
 20
76.08320998530485
 30
0.0
  0
SPLINE
  5
D8
330
1F
100
AcDbEntity
  8
0
  6
Continuous
 62
     7
370
    25
100
AcDbSpline
210
0.0
220
0.0
230
1.0
 70
     8
 71
     3
 72
    16
 73
    12
 74
     0
 42
0.00000001
 43
0.00000001
 40
0.0
 40
0.0
 40
0.0
 40
0.0
 40
0.2500000000000001
 40
0.2500000000000001
 40
0.5000000000000001
 40
0.5000000000000001
 40
0.6250000000000001
 40
0.6250000000000001
 40
0.7500000000000002
 40
0.7500000000000002
 40
1.0
 40
1.0
 40
1.0
 40
1.0
 10
165.1681832599428
 20
78.39261106206335
 30
0.0
 10
165.3761987080485
 20
78.01530297318686
 30
0.0
 10
165.5464050130215
 20
77.63527924281264
 30
0.0
 10
165.7813410445891
 20
76.86765592740196
 30
0.0
 10
165.8454131762527
 20
76.48000911061315
 30
0.0
 10
165.8461461251737
 20
75.89168855872532
 30
0.0
 10
165.8304866450907
 20
75.69461536616967
 30
0.0
 10
165.7692115184538
 20
75.30455838861556
 30
0.0
 10
165.7236552459546
 20
75.11076548802752
 30
0.0
 10
165.5471692131984
 20
74.5326845032641
 30
0.0
 10
165.3765127597127
 20
74.15168663892928
 30
0.0
 10
165.1681832599428
 20
73.77380890854634
 30
0.0
  0
SPLINE
  5
D9
330
1F
100
AcDbEntity
  8
0
  6
Continuous
 62
     7
370
    25
100
AcDbSpline
210
0.0
220
0.0
230
1.0
 70
     8
 71
     3
 72
    10
 73
     6
 74
     0
 42
0.00000001
 43
0.00000001
 40
0.0
 40
0.0
 40
0.0
 40
0.0
 40
0.1601790552921226
 40
0.7197651707803578
 40
1.0
 40
1.0
 40
1.0
 40
1.0
 10
165.1339538268258
 20
78.4548893408131
 30
0.0
 10
165.1331910367326
 20
78.45628156883946
 30
0.0
 10
165.1297634366588
 20
78.46253755056779
 30
0.0
 10
165.1442709014571
 20
78.43603028583988
 30
0.0
 10
165.162200454575
 20
78.40347443069471
 30
0.0
 10
165.1681832599428
 20
78.39261106206335
 30
0.0
  0
SPLINE
  5
DA
330
1F
100
AcDbEntity
  8
0
  6
Continuous
 62
     7
370
    25
100
AcDbSpline
210
0.0
220
0.0
230
1.0
 70
     8
 71
     3
 72
     9
 73
     5
 74
     0
 42
0.00000001
 43
0.00000001
 40
0.0
 40
0.0
 40
0.0
 40
0.0
 40
0.5797912171256352
 40
1.0
 40
1.0
 40
1.0
 40
1.0
 10
165.1681832599428
 20
59.05137704421088
 30
0.0
 10
165.1558246565963
 20
59.02890339596975
 30
0.0
 10
165.1345090468019
 20
58.99014177354893
 30
0.0
 10
165.1341181042991
 20
58.98940736879072
 30
0.0
 10
165.1339538268258
 20
58.98909876546114
 30
0.0
  0
SPLINE
  5
DB
330
1F
100
AcDbEntity
  8
0
  6
Continuous
 62
     7
370
    25
100
AcDbSpline
210
0.0
220
0.0
230
1.0
 70
     8
 71
     3
 72
    16
 73
    12
 74
     0
 42
0.00000001
 43
0.00000001
 40
0.0
 40
0.0
 40
0.0
 40
0.0
 40
0.2500000000000001
 40
0.2500000000000001
 40
0.5000000000000002
 40
0.5000000000000002
 40
0.6250000000000001
 40
0.6250000000000001
 40
0.7500000000000001
 40
0.7500000000000001
 40
1.0
 40
1.0
 40
1.0
 40
1.0
 10
165.1681832599428
 20
63.67017919772788
 30
0.0
 10
165.3761987080485
 20
63.29287110885139
 30
0.0
 10
165.5464050130215
 20
62.91284737847719
 30
0.0
 10
165.7813410445891
 20
62.14522406306649
 30
0.0
 10
165.8454131762527
 20
61.7575772462777
 30
0.0
 10
165.8461461251737
 20
61.16925669438985
 30
0.0
 10
165.8304866450907
 20
60.97218350183419
 30
0.0
 10
165.7692115184538
 20
60.5821265242801
 30
0.0
 10
165.7236552459546
 20
60.38833362369206
 30
0.0
 10
165.5471692131984
 20
59.81025263892864
 30
0.0
 10
165.3765127597127
 20
59.42925477459382
 30
0.0
 10
165.1681832599428
 20
59.05137704421088
 30
0.0
  0
LINE
  5
DC
330
1F
100
AcDbEntity
  8
0
  6
Continuous
 62
     7
370
    25
100
AcDbLine
 10
165.9902422325
 20
76.9719940531
 30
0.0
 11
165.9902422325
 21
60.4719940531
 31
0.0
  0
LINE
  5
DD
330
1F
100
AcDbEntity
  8
0
  6
Continuous
 62
     7
370
    25
100
AcDbLine
 10
162.2402422325
 20
56.7219940531
 30
0.0
 11
145.7402422325
 21
56.7219940531
 31
0.0
  0
SPLINE
  5
DE
330
1F
100
AcDbEntity
  8
0
  6
Continuous
 62
     7
370
    25
100
AcDbSpline
210
0.0
220
0.0
230
1.0
 70
     8
 71
     3
 72
    10
 73
     6
 74
     0
 42
0.00000001
 43
0.00000001
 40
0.0
 40
0.0
 40
0.0
 40
0.0
 40
0.5
 40
0.5
 40
1.0
 40
1.0
 40
1.0
 40
1.0
 10
148.9384273770911
 20
57.54405302569471
 30
0.0
 10
148.9813651861903
 20
57.56772526560627
 30
0.0
 10
149.0448057760826
 20
57.58081925554152
 30
0.0
 10
149.1972949215914
 20
57.58090612300298
 30
0.0
 10
149.2855243107947
 20
57.56773633324362
 30
0.0
 10
149.3714400789833
 20
57.54405302569471
 30
0.0
  0
SPLINE
  5
DF
330
1F
100
AcDbEntity
  8
0
  6
Continuous
 62
     7
370
    25
100
AcDbSpline
210
0.0
220
0.0
230
1.0
 70
     8
 71
     3
 72
    16
 73
    12
 74
     0
 42
0.00000001
 43
0.00000001
 40
0.0
 40
0.0
 40
0.0
 40
0.0
 40
0.25
 40
0.25
 40
0.5
 40
0.5
 40
0.625
 40
0.625
 40
0.75
 40
0.75
 40
1.0
 40
1.0
 40
1.0
 40
1.0
 10
163.6608592414266
 20
57.54405302569425
 30
0.0
 10
163.2831441937036
 20
57.3358132152456
 30
0.0
 10
162.9029864450776
 20
57.16563992883615
 30
0.0
 10
162.1358931131862
 20
56.93091766922031
 30
0.0
 10
161.7489157558486
 20
56.86701969414584
 30
0.0
 10
161.1623649808239
 20
56.86599599205934
 30
0.0
 10
160.9652858209008
 20
56.88148253920404
 30
0.0
 10
160.5747566813926
 20
56.94260626066202
 30
0.0
 10
160.3807249777196
 20
56.98812798795705
 30
0.0
 10
159.8019209052985
 20
57.16462735170222
 30
0.0
 10
159.420432171132
 20
57.33544932805604
 30
0.0
 10
159.0420570879096
 20
57.54405302569456
 30
0.0
  0
SPLINE
  5
E0
330
1F
100
AcDbEntity
  8
0
  6
Continuous
 62
     7
370
    25
100
AcDbSpline
210
0.0
220
0.0
230
1.0
 70
     8
 71
     3
 72
     9
 73
     5
 74
     0
 42
0.00000001
 43
0.00000001
 40
0.0
 40
0.0
 40
0.0
 40
0.0
 40
0.5789479223911497
 40
1.0
 40
1.0
 40
1.0
 40
1.0
 10
163.6608592414266
 20
57.54405302569471
 30
0.0
 10
163.6833006086192
 20
57.55639391600912
 30
0.0
 10
163.7220629330438
 20
57.57770997888304
 30
0.0
 10
163.7228288359029
 20
57.57811815279742
 30
0.0
 10
163.7231513208929
 20
57.5782900152721
 30
0.0
  0
SPLINE
  5
E1
330
1F
100
AcDbEntity
  8
0
  6
Continuous
 62
     7
370
    25
100
AcDbSpline
210
0.0
220
0.0
230
1.0
 70
     8
 71
     3
 72
    10
 73
     6
 74
     0
 42
0.00000001
 43
0.00000001
 40
0.0
 40
0.0
 40
0.0
 40
0.0
 40
0.1593935213061662
 40
0.71899345457563
 40
1.0
 40
1.0
 40
1.0
 40
1.0
 10
144.2573331441078
 20
57.5782900152721
 30
0.0
 10
144.2559432252811
 20
57.57905154226955
 30
0.0
 10
144.2496735693343
 20
57.58248664378542
 30
0.0
 10
144.2761575111583
 20
57.56799202131881
 30
0.0
 10
144.308734915205
 20
57.5500506508262
 30
0.0
 10
144.3196252235741
 20
57.54405302569471
 30
0.0
  0
SPLINE
  5
E2
330
1F
100
AcDbEntity
  8
0
  6
Continuous
 62
     7
370
    25
100
AcDbSpline
210
0.0
220
0.0
230
1.0
 70
     8
 71
     3
 72
    16
 73
    12
 74
     0
 42
0.00000001
 43
0.00000001
 40
0.0
 40
0.0
 40
0.0
 40
0.0
 40
0.2500000000000003
 40
0.2500000000000003
 40
0.5000000000000006
 40
0.5000000000000006
 40
0.6250000000000006
 40
0.6250000000000006
 40
0.7500000000000004
 40
0.7500000000000004
 40
1.0
 40
1.0
 40
1.0
 40
1.0
 10
148.9384273770912
 20
57.54405302569425
 30
0.0
 10
148.5607123293682
 20
57.3358132152456
 30
0.0
 10
148.1805545807422
 20
57.16563992883615
 30
0.0
 10
147.4134612488508
 20
56.93091766922031
 30
0.0
 10
147.0264838915131
 20
56.86701969414584
 30
0.0
 10
146.4399331164884
 20
56.86599599205934
 30
0.0
 10
146.2428539565654
 20
56.88148253920404
 30
0.0
 10
145.8523248170571
 20
56.94260626066202
 30
0.0
 10
145.6582931133841
 20
56.98812798795705
 30
0.0
 10
145.079489040963
 20
57.16462735170222
 30
0.0
 10
144.6980003067965
 20
57.33544932805604
 30
0.0
 10
144.3196252235741
 20
57.54405302569457
 30
0.0
  0
SPLINE
  5
E3
330
1F
100
AcDbEntity
  8
0
  6
Continuous
 62
     7
370
    25
100
AcDbSpline
210
0.0
220
0.0
230
1.0
 70
     8
 71
     3
 72
     9
 73
     5
 74
     0
 42
0.00000001
 43
0.00000001
 40
0.0
 40
0.0
 40
0.0
 40
0.0
 40
0.5797912171256419
 40
1.0
 40
1.0
 40
1.0
 40
1.0
 10
142.8123012050579
 20
78.39261106206335
 30
0.0
 10
142.8246598084044
 20
78.41508471030448
 30
0.0
 10
142.8459754181988
 20
78.45384633272532
 30
0.0
 10
142.8463663607016
 20
78.45458073748351
 30
0.0
 10
142.8465306381748
 20
78.4548893408131
 30
0.0
  0
SPLINE
  5
E4
330
1F
100
AcDbEntity
  8
0
  6
Continuous
 62
     7
370
    25
100
AcDbSpline
210
0.0
220
0.0
230
1.0
 70
     8
 71
     3
 72
    16
 73
    12
 74
     0
 42
0.00000001
 43
0.00000001
 40
0.0
 40
0.0
 40
0.0
 40
0.0
 40
0.2499999999999998
 40
0.2499999999999998
 40
0.4999999999999996
 40
0.4999999999999996
 40
0.6249999999999994
 40
0.6249999999999994
 40
0.7499999999999996
 40
0.7499999999999996
 40
1.0
 40
1.0
 40
1.0
 40
1.0
 10
142.8123012050579
 20
73.77380890854634
 30
0.0
 10
142.6042857569522
 20
74.15111699742285
 30
0.0
 10
142.4340794519792
 20
74.53114072779704
 30
0.0
 10
142.1991434204116
 20
75.29876404320774
 30
0.0
 10
142.135071288748
 20
75.68641085999653
 30
0.0
 10
142.1343383398269
 20
76.27473141188439
 30
0.0
 10
142.14999781991
 20
76.47180460444002
 30
0.0
 10
142.2112729465469
 20
76.86186158199413
 30
0.0
 10
142.256829219046
 20
77.05565448258217
 30
0.0
 10
142.4333152518023
 20
77.63373546734559
 30
0.0
 10
142.603971705288
 20
78.01473333168042
 30
0.0
 10
142.8123012050579
 20
78.39261106206334
 30
0.0
  0
SPLINE
  5
E5
330
1F
100
AcDbEntity
  8
0
  6
Continuous
 62
     7
370
    25
100
AcDbSpline
210
0.0
220
0.0
230
1.0
 70
     8
 71
     3
 72
    10
 73
     6
 74
     0
 42
0.00000001
 43
0.00000001
 40
0.0
 40
0.0
 40
0.0
 40
0.0
 40
0.5
 40
0.5
 40
1.0
 40
1.0
 40
1.0
 40
1.0
 10
142.8123012050579
 20
73.34079620665412
 30
0.0
 10
142.8359765994823
 20
73.42668326845659
 30
0.0
 10
142.849067709367
 20
73.5140904774367
 30
0.0
 10
142.8491540306552
 20
73.66672692003044
 30
0.0
 10
142.8359850967114
 20
73.73084996497603
 30
0.0
 10
142.8123012050579
 20
73.77380890854634
 30
0.0
  0
SPLINE
  5
E6
330
1F
100
AcDbEntity
  8
0
  6
Continuous
 62
     7
370
    25
100
AcDbSpline
210
0.0
220
0.0
230
1.0
 70
     8
 71
     3
 72
    16
 73
    12
 74
     0
 42
0.00000001
 43
0.00000001
 40
0.0
 40
0.0
 40
0.0
 40
0.0
 40
0.2499999999999999
 40
0.2499999999999999
 40
0.4999999999999998
 40
0.4999999999999998
 40
0.6249999999999998
 40
0.6249999999999998
 40
0.7499999999999999
 40
0.7499999999999999
 40
1.0
 40
1.0
 40
1.0
 40
1.0
 10
142.8123012050579
 20
59.05137704421088
 30
0.0
 10
142.6042857569522
 20
59.42868513308735
 30
0.0
 10
142.4340794519792
 20
59.80870886346151
 30
0.0
 10
142.1991434204116
 20
60.57633217887216
 30
0.0
 10
142.135071288748
 20
60.96397899566092
 30
0.0
 10
142.1343383398269
 20
61.55229954754872
 30
0.0
 10
142.1499978199099
 20
61.74937274010436
 30
0.0
 10
142.2112729465468
 20
62.13942971765843
 30
0.0
 10
142.256829219046
 20
62.33322261824645
 30
0.0
 10
142.4333152518022
 20
62.91130360300984
 30
0.0
 10
142.6039717052878
 20
63.29230146734463
 30
0.0
 10
142.8123012050578
 20
63.67017919772753
 30
0.0
  0
SPLINE
  5
E7
330
1F
100
AcDbEntity
  8
0
  6
Continuous
 62
     7
370
    25
100
AcDbSpline
210
0.0
220
0.0
230
1.0
 70
     8
 71
     3
 72
    10
 73
     6
 74
     0
 42
0.00000001
 43
0.00000001
 40
0.0
 40
0.0
 40
0.0
 40
0.0
 40
0.1601790552921157
 40
0.7197651707803561
 40
1.0
 40
1.0
 40
1.0
 40
1.0
 10
142.8465306381748
 20
58.98909876546114
 30
0.0
 10
142.8472934282681
 20
58.98770653743475
 30
0.0
 10
142.8507210283418
 20
58.98145055570643
 30
0.0
 10
142.8362135635435
 20
59.00795782043434
 30
0.0
 10
142.8182840104257
 20
59.04051367557951
 30
0.0
 10
142.8123012050579
 20
59.05137704421087
 30
0.0
  0
LINE
  5
E8
330
1F
100
AcDbEntity
  8
0
  6
Continuous
 62
     7
370
    25
100
AcDbLine
 10
142.0902422325
 20
60.2987889724
 30
0.0
 11
142.0902422325
 21
77.1451991339
 31
0.0
  0
SPLINE
  5
E9
330
1F
100
AcDbEntity
  8
0
  6
Continuous
 62
     7
370
    25
100
AcDbSpline
210
0.0
220
0.0
230
1.0
 70
     8
 71
     3
 72
     8
 73
     4
 74
     0
 42
0.00000001
 43
0.00000001
 40
0.0
 40
0.0
 40
0.0
 40
0.0
 40
1.0
 40
1.0
 40
1.0
 40
1.0
 10
160.1116257239965
 20
62.31187251981187
 30
0.0
 10
160.0705104483552
 20
62.44790291430142
 30
0.0
 10
160.0300214654874
 20
62.58460697893887
 30
0.0
 10
159.9902422325003
 20
62.72199405313711
 30
0.0
  0
LINE
  5
EA
330
1F
100
AcDbEntity
  8
0
  6
Continuous
 62
     7
370
    25
100
AcDbLine
 10
159.9902422325
 20
64.7219940531
 30
0.0
 11
159.9902422325
 21
62.7219940531
 31
0.0
  0
SPLINE
  5
EB
330
1F
100
AcDbEntity
  8
0
  6
Continuous
 62
     7
370
    25
100
AcDbSpline
210
0.0
220
0.0
230
1.0
 70
     8
 71
     3
 72
     8
 73
     4
 74
     0
 42
0.00000001
 43
0.00000001
 40
0.0
 40
0.0
 40
0.0
 40
0.0
 40
1.0
 40
1.0
 40
1.0
 40
1.0
 10
160.1116257239965
 20
62.31187251981187
 30
0.0
 10
160.2272583340256
 20
62.77042345186963
 30
0.0
 10
160.421147738846
 20
63.22249304762788
 30
0.0
 10
160.6679636377604
 20
63.67017919772763
 30
0.0
  0
LINE
  5
EC
330
1F
100
AcDbEntity
  8
0
  6
Continuous
 62
     7
370
    25
100
AcDbLine
 10
142.8123012051
 20
73.7738089085
 30
0.0
 11
147.3125208272
 21
73.7738089085
 31
0.0
  0
LINE
  5
ED
330
1F
100
AcDbEntity
  8
0
  6
Continuous
 62
     7
370
    25
100
AcDbLine
 10
148.9384273771
 20
57.5440530257
 30
0.0
 11
148.9384273771
 21
60.7555975133
 31
0.0
  0
SPLINE
  5
EE
330
1F
100
AcDbEntity
  8
0
  6
Continuous
 62
     7
370
    25
100
AcDbSpline
210
0.0
220
0.0
230
1.0
 70
     8
 71
     3
 72
    12
 73
     8
 74
     0
 42
0.00000001
 43
0.00000001
 40
0.0
 40
0.0
 40
0.0
 40
0.0
 40
0.2499999999999999
 40
0.2499999999999999
 40
0.4999999999999998
 40
0.4999999999999998
 40
1.0
 40
1.0
 40
1.0
 40
1.0
 10
159.9902422325003
 20
76.08320998530485
 30
0.0
 10
159.9902422325003
 20
76.27895224818435
 30
0.0
 10
160.0060851685893
 20
76.47561885737491
 30
0.0
 10
160.0675880288269
 20
76.8648870847032
 30
0.0
 10
160.1131916698706
 20
77.05829111765613
 30
0.0
 10
160.2896426873599
 20
77.6352201689129
 30
0.0
 10
160.4600400546117
 20
78.01546960211589
 30
0.0
 10
160.6679636377605
 20
78.39261106206335
 30
0.0
  0
LINE
  5
EF
330
1F
100
AcDbEntity
  8
0
  6
Continuous
 62
     7
370
    25
100
AcDbLine
 10
165.1681832599
 20
78.3926110621
 30
0.0
 11
160.6679636378
 21
78.3926110621
 31
0.0
  0
ELLIPSE
  5
F0
330
1F
100
AcDbEntity
  8
0
  6
Continuous
 62
     7
370
    25
100
AcDbEllipse
 10
153.9902422325
 20
58.9070394769
 30
0.0
 11
8.499999999999972
 21
0.0
 31
0.0
210
0.0
220
0.0
230
1.0
 40
0.5773502692
 41
2.374833212873089
 42
2.530692279913061
  0
LINE
  5
F1
330
1F
100
AcDbEntity
  8
0
  6
Continuous
 62
     7
370
    25
100
AcDbLine
 10
146.7008660479
 20
61.4326178685
 30
0.0
 11
144.3196252236
 21
59.0513770442
 31
0.0
  0
LINE
  5
F2
330
1F
100
AcDbEntity
  8
0
  6
Continuous
 62
     7
370
    25
100
AcDbLine
 10
142.8123012051
 20
59.0513770442
 30
0.0
 11
144.3196252236
 21
59.0513770442
 31
0.0
  0
LINE
  5
F3
330
1F
100
AcDbEntity
  8
0
  6
Continuous
 62
     7
370
    25
100
AcDbLine
 10
147.3125208272
 20
78.3926110621
 30
0.0
 11
142.8123012051
 21
78.3926110621
 31
0.0
  0
SPLINE
  5
F4
330
1F
100
AcDbEntity
  8
0
  6
Continuous
 62
     7
370
    25
100
AcDbSpline
210
0.0
220
0.0
230
1.0
 70
     8
 71
     3
 72
    10
 73
     6
 74
     0
 42
0.00000001
 43
0.00000001
 40
0.0
 40
0.0
 40
0.0
 40
0.0
 40
0.5
 40
0.5
 40
1.0
 40
1.0
 40
1.0
 40
1.0
 10
147.3125208272401
 20
78.39261106206337
 30
0.0
 10
147.5209415800576
 20
78.01456781266121
 30
0.0
 10
147.691405415335
 20
77.63379830786536
 30
0.0
 10
147.9263878502734
 20
76.86464978230782
 30
0.0
 10
147.9902422325003
 20
76.47622305413259
 30
0.0
 10
147.9902422325003
 20
76.08320998530485
 30
0.0
  0
ELLIPSE
  5
F5
330
1F
100
AcDbEntity
  8
0
  6
Continuous
 62
     7
370
    25
100
AcDbEllipse
 10
153.9902422325
 20
58.9070394769
 30
0.0
 11
8.499999999999972
 21
0.0
 31
0.0
210
0.0
220
0.0
230
1.0
 40
0.5773502692
 41
0.6109003736767333
 42
0.7667594407167072
  0
LINE
  5
F6
330
1F
100
AcDbEntity
  8
0
  6
Continuous
 62
     7
370
    25
100
AcDbLine
 10
163.6608592414
 20
59.0513770442
 30
0.0
 11
165.1681832599
 21
59.0513770442
 31
0.0
  0
LINE
  5
F7
330
1F
100
AcDbEntity
  8
0
  6
Continuous
 62
     7
370
    25
100
AcDbLine
 10
163.6608592414
 20
59.0513770442
 30
0.0
 11
161.2796184171
 21
61.4326178685
 31
0.0
  0
LINE
  5
F8
330
1F
100
AcDbEntity
  8
0
  6
Continuous
 62
     7
370
    25
100
AcDbLine
 10
144.3196252236
 20
59.0513770442
 30
0.0
 11
144.3196252236
 21
57.5440530257
 31
0.0
  0
LINE
  5
F9
330
1F
100
AcDbEntity
  8
0
  6
Continuous
 62
     7
370
    25
100
AcDbLine
 10
163.6608592414
 20
57.5440530257
 30
0.0
 11
163.6608592414
 21
59.0513770442
 31
0.0
  0
LINE
  5
FA
330
1F
100
AcDbEntity
  8
0
  6
Continuous
 62
     7
370
    25
100
AcDbLine
 10
149.9902422325
 20
64.7219940531
 30
0.0
 11
147.9902422325
 21
62.7219940531
 31
0.0
  0
LINE
  5
FB
330
1F
100
AcDbEntity
  8
0
  6
Continuous
 62
     7
370
    25
100
AcDbLine
 10
147.0276211598
 20
61.7219940531
 30
0.0
 11
149.9902422325
 21
61.7219940531
 31
0.0
  0
LINE
  5
FC
330
1F
100
AcDbEntity
  8
0
  6
Continuous
 62
     7
370
    25
100
AcDbLine
 10
159.9902422325
 20
62.7219940531
 30
0.0
 11
157.9902422325
 21
64.7219940531
 31
0.0
  0
LINE
  5
FD
330
1F
100
AcDbEntity
  8
0
  6
Continuous
 62
     7
370
    25
100
AcDbLine
 10
157.9902422325
 20
61.7219940531
 30
0.0
 11
160.9528633052
 21
61.7219940531
 31
0.0
  0
LINE
  5
FE
330
1F
100
AcDbEntity
  8
0
  6
Continuous
 62
     7
370
    25
100
AcDbLine
 10
147.9902422325
 20
76.6564485314
 30
0.0
 11
147.9902422325
 21
76.0832099853
 31
0.0
  0
SPLINE
  5
FF
330
1F
100
AcDbEntity
  8
0
  6
Continuous
 62
     7
370
    25
100
AcDbSpline
210
0.0
220
0.0
230
1.0
 70
     8
 71
     3
 72
    32
 73
    28
 74
     0
 42
0.00000001
 43
0.00000001
 40
0.0
 40
0.0
 40
0.0
 40
0.0
 40
0.0625000000000001
 40
0.0625000000000001
 40
0.1250000000000001
 40
0.1250000000000001
 40
0.1875000000000002
 40
0.1875000000000002
 40
0.2500000000000003
 40
0.2500000000000003
 40
0.3750000000000003
 40
0.3750000000000003
 40
0.4375000000000003
 40
0.4375000000000003
 40
0.5000000000000002
 40
0.5000000000000002
 40
0.5625000000000002
 40
0.5625000000000002
 40
0.6250000000000001
 40
0.6250000000000001
 40
0.7500000000000001
 40
0.7500000000000001
 40
0.8750000000000002
 40
0.8750000000000002
 40
0.9375000000000001
 40
0.9375000000000001
 40
1.0
 40
1.0
 40
1.0
 40
1.0
 10
159.9902422324919
 20
76.65644853135777
 30
0.0
 10
159.833385896575
 20
76.56149155346206
 30
0.0
 10
159.6603874624194
 20
76.45873837883688
 30
0.0
 10
159.2836828757935
 20
76.24202717718862
 30
0.0
 10
159.0808300953369
 20
76.12860846669861
 30
0.0
 10
158.6548488325342
 20
75.90051833000044
 30
0.0
 10
158.4306708722463
 20
75.78521144754859
 30
0.0
 10
157.9593197786699
 20
75.5568883451738
 30
0.0
 10
157.7106342633048
 20
75.44323832904006
 30
0.0
 10
156.9400617786131
 20
75.12017429780602
 30
0.0
 10
156.3944243685309
 20
74.9272757736425
 30
0.0
 10
155.5116446200346
 20
74.71568184836882
 30
0.0
 10
155.2130055201618
 20
74.66003946225106
 30
0.0
 10
154.606503919446
 20
74.58437139288723
 30
0.0
 10
154.2963566807801
 20
74.56439814711091
 30
0.0
 10
153.6762711920963
 20
74.56473191336416
 30
0.0
 10
153.3697001546282
 20
74.58473087868694
 30
0.0
 10
152.76304540732
 20
74.66076966488342
 30
0.0
 10
152.4606723426947
 20
74.71742276501496
 30
0.0
 10
151.5840360399418
 20
74.9282013150608
 30
0.0
 10
151.0359819079649
 20
75.12174714563257
 30
0.0
 10
150.0054846407216
 20
75.55436643890835
 30
0.0
 10
149.5379246054421
 20
75.78684308359878
 30
0.0
 10
148.8997110018142
 20
76.12858108451782
 30
0.0
 10
148.6965012636244
 20
76.24219859994622
 30
0.0
 10
148.32016433723
 20
76.45870099230245
 30
0.0
 10
148.1471857287384
 20
76.56143878874684
 30
0.0
 10
147.9902422325003
 20
76.65644853136291
 30
0.0
  0
LINE
  5
100
330
1F
100
AcDbEntity
  8
0
  6
Continuous
 62
     7
370
    25
100
AcDbLine
 10
159.9902422325
 20
76.6564485314
 30
0.0
 11
159.9902422325
 21
76.0832099853
 31
0.0
  0
LINE
  5
101
330
1F
100
AcDbEntity
  8
0
  6
Continuous
 62
     7
370
    25
100
AcDbLine
 10
160.4462043467
 20
47.3107817069
 30
0.0
 11
147.5342801183
 21
47.3107817069
 31
0.0
  0
SPLINE
  5
102
330
1F
100
AcDbEntity
  8
0
  6
Continuous
 62
     7
370
    25
100
AcDbSpline
210
0.0
220
0.0
230
1.0
 70
     8
 71
     3
 72
    12
 73
     8
 74
     0
 42
0.00000001
 43
0.00000001
 40
0.0
 40
0.0
 40
0.0
 40
0.0
 40
0.0860276384484858
 40
0.3125921905364371
 40
0.5444262578673806
 40
0.772029644149985
 40
1.0
 40
1.0
 40
1.0
 40
1.0
 10
160.1635894199674
 20
77.51489564683824
 30
0.0
 10
160.1647996690592
 20
77.51892557048004
 30
0.0
 10
160.1691972605954
 20
77.53356880237165
 30
0.0
 10
160.1366748673042
 20
77.42599137609841
 30
0.0
 10
160.0806466911197
 20
77.2198425602577
 30
0.0
 10
160.012453863324
 20
76.93660208284705
 30
0.0
 10
159.9976500843095
 20
76.749883183216
 30
0.0
 10
159.9902422325003
 20
76.65644853135578
 30
0.0
  0
SPLINE
  5
103
330
1F
100
AcDbEntity
  8
0
  6
Continuous
 62
     7
370
    25
100
AcDbSpline
210
0.0
220
0.0
230
1.0
 70
     8
 71
     3
 72
    11
 73
     7
 74
     0
 42
0.00000001
 43
0.00000001
 40
0.0
 40
0.0
 40
0.0
 40
0.0
 40
0.3176290063312592
 40
0.6359451303407148
 40
0.8656693413736148
 40
1.0
 40
1.0
 40
1.0
 40
1.0
 10
147.9902422325003
 20
76.65644853136283
 30
0.0
 10
147.9766034996409
 20
76.78771307895032
 30
0.0
 10
147.9492965296441
 20
77.05052613493923
 30
0.0
 10
147.8612915489061
 20
77.3621717936831
 30
0.0
 10
147.8167305000508
 20
77.51592060928354
 30
0.0
 10
147.8170795589924
 20
77.51440604142304
 30
0.0
 10
147.8172083563839
 20
77.51384718913128
 30
0.0
  0
LINE
  5
104
330
1F
100
AcDbEntity
  8
0
  6
Continuous
 62
     7
370
    25
100
AcDbLine
 10
159.8850234158
 20
78.2174632331
 30
0.0
 11
159.8876547105
 21
78.2196874956
 31
0.0
  0
LINE
  5
105
330
1F
100
AcDbEntity
  8
0
  6
Continuous
 62
     7
370
    25
100
AcDbLine
 10
159.2402422325
 20
45.2219940531
 30
0.0
 11
148.7402422325
 21
45.2219940531
 31
0.0
  0
SPLINE
  5
106
330
1F
100
AcDbEntity
  8
0
  6
Continuous
 62
     7
370
    25
100
AcDbSpline
210
0.0
220
0.0
230
1.0
 70
     8
 71
     3
 72
    10
 73
     6
 74
     0
 42
0.00000001
 43
0.00000001
 40
0.0
 40
0.0
 40
0.0
 40
0.0
 40
0.1601790552921523
 40
0.7197651707804853
 40
1.0
 40
1.0
 40
1.0
 40
1.0
 10
147.2782913941232
 20
78.4548893408131
 30
0.0
 10
147.27752860403
 20
78.45628156883946
 30
0.0
 10
147.2741010039563
 20
78.46253755056779
 30
0.0
 10
147.2886084687545
 20
78.43603028583988
 30
0.0
 10
147.3065380218724
 20
78.40347443069473
 30
0.0
 10
147.3125208272401
 20
78.39261106206337
 30
0.0
  0
SPLINE
  5
107
330
1F
100
AcDbEntity
  8
0
  6
Continuous
 62
     7
370
    25
100
AcDbSpline
210
0.0
220
0.0
230
1.0
 70
     8
 71
     3
 72
     9
 73
     5
 74
     0
 42
0.00000001
 43
0.00000001
 40
0.0
 40
0.0
 40
0.0
 40
0.0
 40
0.5797912171256431
 40
1.0
 40
1.0
 40
1.0
 40
1.0
 10
160.6679636377605
 20
78.39261106206335
 30
0.0
 10
160.680322241107
 20
78.41508471030448
 30
0.0
 10
160.7016378509014
 20
78.4538463327253
 30
0.0
 10
160.7020287934042
 20
78.45458073748351
 30
0.0
 10
160.7021930708775
 20
78.4548893408131
 30
0.0
  0
LINE
  5
108
330
1F
100
AcDbEntity
  8
0
  6
Continuous
 62
     7
370
    25
100
AcDbLine
 10
163.7278465395
 20
58.9843897461
 30
0.0
 11
163.6608592414
 21
59.0513770442
 31
0.0
  0
LINE
  5
109
330
1F
100
AcDbEntity
  8
0
  6
Continuous
 62
     7
370
    25
100
AcDbLine
 10
144.3196252236
 20
59.0513770442
 30
0.0
 11
144.2526379255
 21
58.9843897461
 31
0.0
  0
LINE
  5
10A
330
1F
100
AcDbEntity
  8
0
  6
Continuous
 62
     7
370
    25
100
AcDbLine
 10
148.7511568998
 20
95.8219940531
 30
0.0
 11
148.7511568998
 21
95.2219940531
 31
0.0
  0
LINE
  5
10B
330
1F
100
AcDbEntity
  8
0
  6
Continuous
 62
     7
370
    25
100
AcDbLine
 10
159.2293275652
 20
95.8219940531
 30
0.0
 11
148.7511568998
 21
95.8219940531
 31
0.0
  0
LINE
  5
10C
330
1F
100
AcDbEntity
  8
0
  6
Continuous
 62
     7
370
    25
100
AcDbLine
 10
159.2293275652
 20
95.2219940531
 30
0.0
 11
159.2293275652
 21
95.8219940531
 31
0.0
  0
LINE
  5
10D
330
1F
100
AcDbEntity
  8
0
  6
Continuous
 62
     7
370
    25
100
AcDbLine
 10
148.7511568998
 20
95.2219940531
 30
0.0
 11
159.2293275652
 21
95.2219940531
 31
0.0
  0
SPLINE
  5
10E
330
1F
100
AcDbEntity
  8
0
  6
Continuous
 62
     7
370
    25
100
AcDbSpline
210
0.0
220
0.0
230
1.0
 70
     8
 71
     3
 72
    15
 73
    11
 74
     0
 42
0.00000001
 43
0.00000001
 40
0.0
 40
0.0
 40
0.0
 40
0.0
 40
0.0081667445812695
 40
0.3321939991490083
 40
0.4756279600585602
 40
0.6866830973284899
 40
0.8457435502264811
 40
0.8967566214763185
 40
0.9909540928118029
 40
1.0
 40
1.0
 40
1.0
 40
1.0
 10
148.8912227189076
 20
96.07199405313712
 30
0.0
 10
148.8907351847647
 20
96.07199137679135
 30
0.0
 10
148.8709040372326
 20
96.07188251260445
 30
0.0
 10
148.8426232572233
 20
96.06233650033512
 30
0.0
 10
148.8047939587345
 20
96.02497411708055
 30
0.0
 10
148.778210062167
 20
95.98010860234588
 30
0.0
 10
148.761040238412
 20
95.92223230276898
 30
0.0
 10
148.7532232421956
 20
95.87155626279704
 30
0.0
 10
148.7512275557597
 20
95.84286198327705
 30
0.0
 10
148.7511625918089
 20
95.82367515172153
 30
0.0
 10
148.7511568998422
 20
95.82199405313712
 30
0.0
  0
LINE
  5
10F
330
1F
100
AcDbEntity
  8
0
  6
Continuous
 62
     7
370
    25
100
AcDbLine
 10
148.8912227189
 20
96.0719940531
 30
0.0
 11
159.0892617461
 21
96.0719940531
 31
0.0
  0
SPLINE
  5
110
330
1F
100
AcDbEntity
  8
0
  6
Continuous
 62
     7
370
    25
100
AcDbSpline
210
0.0
220
0.0
230
1.0
 70
     8
 71
     3
 72
    15
 73
    11
 74
     0
 42
0.00000001
 43
0.00000001
 40
0.0
 40
0.0
 40
0.0
 40
0.0
 40
0.0090459071881971
 40
0.1032433785236874
 40
0.1542564497735246
 40
0.313316902671511
 40
0.5243720399414428
 40
0.6678060008509903
 40
0.9918332554187292
 40
1.0
 40
1.0
 40
1.0
 40
1.0
 10
159.2293275651585
 20
95.82199405313712
 30
0.0
 10
159.2293218731918
 20
95.82367515172153
 30
0.0
 10
159.229256909241
 20
95.84286198327707
 30
0.0
 10
159.2272612228051
 20
95.87155626279703
 30
0.0
 10
159.2194442265886
 20
95.922232302769
 30
0.0
 10
159.2022744028337
 20
95.98010860234587
 30
0.0
 10
159.1756905062662
 20
96.02497411708055
 30
0.0
 10
159.1378612077773
 20
96.0623365003351
 30
0.0
 10
159.1095804277681
 20
96.07188251260456
 30
0.0
 10
159.089749280236
 20
96.07199137679135
 30
0.0
 10
159.0892617460931
 20
96.07199405313712
 30
0.0
  0
LINE
  5
111
330
1F
100
AcDbEntity
  8
0
  6
Continuous
 62
     7
370
    25
100
AcDbLine
 10
148.5130166574
 20
95.8219940531
 30
0.0
 11
148.7511568998
 21
95.8219940531
 31
0.0
  0
SPLINE
  5
112
330
1F
100
AcDbEntity
  8
0
  6
Continuous
 62
     7
370
    25
100
AcDbSpline
210
0.0
220
0.0
230
1.0
 70
     8
 71
     3
 72
    15
 73
    11
 74
     0
 42
0.00000001
 43
0.00000001
 40
0.0
 40
0.0
 40
0.0
 40
0.0
 40
0.0089557228015919
 40
0.0999003359608148
 40
0.153163246058169
 40
0.3125636920784848
 40
0.5249666935694999
 40
0.6689893599352451
 40
0.9919152533810159
 40
1.0
 40
1.0
 40
1.0
 40
1.0
 10
148.5130166574487
 20
95.82199405313712
 30
0.0
 10
148.5130324130273
 20
95.82367517871003
 30
0.0
 10
148.5132081651838
 20
95.84242799333445
 30
0.0
 10
148.5186371812034
 20
95.87119022244195
 30
0.0
 10
148.5401726649107
 20
95.92207729591028
 30
0.0
 10
148.5878780931755
 20
95.98021294604293
 30
0.0
 10
148.6602690381674
 20
96.02492081922634
 30
0.0
 10
148.7621881501852
 20
96.06220264268809
 30
0.0
 10
148.8375432416397
 20
96.07188179752565
 30
0.0
 10
148.8899428873634
 20
96.07199137672744
 30
0.0
 10
148.8912227189076
 20
96.07199405313712
 30
0.0
  0
LINE
  5
113
330
1F
100
AcDbEntity
  8
0
  6
Continuous
 62
     7
370
    25
100
AcDbLine
 10
159.2293275652
 20
95.8219940531
 30
0.0
 11
159.4674678076
 21
95.8219940531
 31
0.0
  0
SPLINE
  5
114
330
1F
100
AcDbEntity
  8
0
  6
Continuous
 62
     7
370
    25
100
AcDbSpline
210
0.0
220
0.0
230
1.0
 70
     8
 71
     3
 72
    15
 73
    11
 74
     0
 42
0.00000001
 43
0.00000001
 40
0.0
 40
0.0
 40
0.0
 40
0.0
 40
0.0080847466189818
 40
0.3310106400647567
 40
0.4750333064304972
 40
0.6874363079215137
 40
0.8468367539418253
 40
0.9000996640391794
 40
0.9910442771984082
 40
1.0
 40
1.0
 40
1.0
 40
1.0
 10
159.0892617460931
 20
96.07199405313712
 30
0.0
 10
159.0905415776373
 20
96.07199137672745
 30
0.0
 10
159.142941223361
 20
96.07188179752559
 30
0.0
 10
159.2182963148155
 20
96.06220264268809
 30
0.0
 10
159.3202154268333
 20
96.02492081922634
 30
0.0
 10
159.3926063718252
 20
95.98021294604293
 30
0.0
 10
159.44031180009
 20
95.92207729591026
 30
0.0
 10
159.4618472837973
 20
95.87119022244197
 30
0.0
 10
159.4672762998168
 20
95.84242799333448
 30
0.0
 10
159.4674520519734
 20
95.82367517871003
 30
0.0
 10
159.467467807552
 20
95.82199405313712
 30
0.0
  0
LINE
  5
115
330
1F
100
AcDbEntity
  8
0
  6
Continuous
 62
     7
370
    25
100
AcDbLine
 10
148.5130166574
 20
95.2219940531
 30
0.0
 11
148.5130166574
 21
95.8219940531
 31
0.0
  0
LINE
  5
116
330
1F
100
AcDbEntity
  8
0
  6
Continuous
 62
     7
370
    25
100
AcDbLine
 10
148.7511568998
 20
95.2219940531
 30
0.0
 11
148.5130166574
 21
95.2219940531
 31
0.0
  0
LINE
  5
117
330
1F
100
AcDbEntity
  8
0
  6
Continuous
 62
     7
370
    25
100
AcDbLine
 10
159.4674678076
 20
95.8219940531
 30
0.0
 11
159.4674678076
 21
95.2219940531
 31
0.0
  0
LINE
  5
118
330
1F
100
AcDbEntity
  8
0
  6
Continuous
 62
     7
370
    25
100
AcDbLine
 10
159.4674678076
 20
95.2219940531
 30
0.0
 11
159.2293275652
 21
95.2219940531
 31
0.0
  0
LINE
  5
119
330
1F
100
AcDbEntity
  8
0
  6
Continuous
 62
     7
370
    25
100
AcDbLine
 10
147.9902422325
 20
95.2219940531
 30
0.0
 11
147.9902422325
 21
95.8219940531
 31
0.0
  0
LINE
  5
11A
330
1F
100
AcDbEntity
  8
0
  6
Continuous
 62
     7
370
    25
100
AcDbLine
 10
147.9902422325
 20
95.8219940531
 30
0.0
 11
148.2402422325
 21
95.8219940531
 31
0.0
  0
LINE
  5
11B
330
1F
100
AcDbEntity
  8
0
  6
Continuous
 62
     7
370
    25
100
AcDbLine
 10
148.2402422325
 20
95.8219940531
 30
0.0
 11
148.2402422325
 21
95.2219940531
 31
0.0
  0
LINE
  5
11C
330
1F
100
AcDbEntity
  8
0
  6
Continuous
 62
     7
370
    25
100
AcDbLine
 10
148.2402422325
 20
95.2219940531
 30
0.0
 11
147.9902422325
 21
95.2219940531
 31
0.0
  0
ARC
  5
11D
330
1F
100
AcDbEntity
  8
0
  6
Continuous
 62
     7
370
    25
100
AcDbCircle
 10
148.2402422325
 20
95.8219940531
 30
0.0
 40
0.25
100
AcDbArc
 50
90.0
 51
180.0
  0
LINE
  5
11E
330
1F
100
AcDbEntity
  8
0
  6
Continuous
 62
     7
370
    25
100
AcDbLine
 10
148.2402422325
 20
96.0719940531
 30
0.0
 11
148.2402422325
 21
95.8219940531
 31
0.0
  0
LINE
  5
11F
330
1F
100
AcDbEntity
  8
0
  6
Continuous
 62
     7
370
    25
100
AcDbLine
 10
148.5130166574
 20
95.8219940531
 30
0.0
 11
148.2402422325
 21
95.8219940531
 31
0.0
  0
LINE
  5
120
330
1F
100
AcDbEntity
  8
0
  6
Continuous
 62
     7
370
    25
100
AcDbLine
 10
148.5130166574
 20
95.2219940531
 30
0.0
 11
148.2402422325
 21
95.2219940531
 31
0.0
  0
LINE
  5
121
330
1F
100
AcDbEntity
  8
0
  6
Continuous
 62
     7
370
    25
100
AcDbLine
 10
148.2402422325
 20
96.0719940531
 30
0.0
 11
148.8912227189
 21
96.0719940531
 31
0.0
  0
LINE
  5
122
330
1F
100
AcDbEntity
  8
0
  6
Continuous
 62
     7
370
    25
100
AcDbLine
 10
159.7402422325
 20
95.8219940531
 30
0.0
 11
159.7402422325
 21
96.0719940531
 31
0.0
  0
LINE
  5
123
330
1F
100
AcDbEntity
  8
0
  6
Continuous
 62
     7
370
    25
100
AcDbLine
 10
159.7402422325
 20
95.8219940531
 30
0.0
 11
159.4674678076
 21
95.8219940531
 31
0.0
  0
LINE
  5
124
330
1F
100
AcDbEntity
  8
0
  6
Continuous
 62
     7
370
    25
100
AcDbLine
 10
159.0892617461
 20
96.0719940531
 30
0.0
 11
159.7402422325
 21
96.0719940531
 31
0.0
  0
LINE
  5
125
330
1F
100
AcDbEntity
  8
0
  6
Continuous
 62
     7
370
    25
100
AcDbLine
 10
159.7402422325
 20
95.2219940531
 30
0.0
 11
159.7402422325
 21
95.8219940531
 31
0.0
  0
LINE
  5
126
330
1F
100
AcDbEntity
  8
0
  6
Continuous
 62
     7
370
    25
100
AcDbLine
 10
159.7402422325
 20
95.8219940531
 30
0.0
 11
159.9902422325
 21
95.8219940531
 31
0.0
  0
LINE
  5
127
330
1F
100
AcDbEntity
  8
0
  6
Continuous
 62
     7
370
    25
100
AcDbLine
 10
159.9902422325
 20
95.8219940531
 30
0.0
 11
159.9902422325
 21
95.2219940531
 31
0.0
  0
LINE
  5
128
330
1F
100
AcDbEntity
  8
0
  6
Continuous
 62
     7
370
    25
100
AcDbLine
 10
159.9902422325
 20
95.2219940531
 30
0.0
 11
159.7402422325
 21
95.2219940531
 31
0.0
  0
ARC
  5
129
330
1F
100
AcDbEntity
  8
0
  6
Continuous
 62
     7
370
    25
100
AcDbCircle
 10
159.7402422325
 20
95.8219940531
 30
0.0
 40
0.2500000000000284
100
AcDbArc
 50
0.0
 51
90.0
  0
LINE
  5
12A
330
1F
100
AcDbEntity
  8
0
  6
Continuous
 62
     7
370
    25
100
AcDbLine
 10
159.7402422325
 20
95.2219940531
 30
0.0
 11
159.4674678076
 21
95.2219940531
 31
0.0
  0
LINE
  5
12B
330
1F
100
AcDbEntity
  8
0
  6
Continuous
 62
     7
370
    25
100
AcDbLine
 10
148.9902422325
 20
96.0819940531
 30
0.0
 11
158.9902422325
 21
96.0819940531
 31
0.0
  0
LINE
  5
12C
330
1F
100
AcDbEntity
  8
0
  6
Continuous
 62
     7
370
    25
100
AcDbLine
 10
158.9902422325
 20
96.0719940531
 30
0.0
 11
158.9902422325
 21
96.0819940531
 31
0.0
  0
LINE
  5
12D
330
1F
100
AcDbEntity
  8
0
  6
Continuous
 62
     7
370
    25
100
AcDbLine
 10
148.9902422325
 20
96.0719940531
 30
0.0
 11
148.9902422325
 21
96.0819940531
 31
0.0
  0
LINE
  5
12E
330
1F
100
AcDbEntity
  8
0
  6
Continuous
 62
     7
370
    25
100
AcDbLine
 10
151.9902422325
 20
79.2219940531
 30
0.0
 11
160.9902422325
 21
79.2219940531
 31
0.0
  0
LINE
  5
12F
330
1F
100
AcDbEntity
  8
0
  6
Continuous
 62
     7
370
    25
100
AcDbLine
 10
151.9902422325
 20
79.2598109769
 30
0.0
 11
151.9902422325
 21
79.2219940531
 31
0.0
  0
SPLINE
  5
130
330
1F
100
AcDbEntity
  8
0
  6
Continuous
 62
     7
370
    25
100
AcDbSpline
210
0.0
220
0.0
230
1.0
 70
     8
 71
     3
 72
     9
 73
     5
 74
     0
 42
0.00000001
 43
0.00000001
 40
0.0
 40
0.0
 40
0.0
 40
0.0
 40
0.4875141023677128
 40
0.9999999999999999
 40
0.9999999999999999
 40
0.9999999999999999
 40
0.9999999999999999
 10
151.8342969820731
 20
79.22199405313718
 30
0.0
 10
151.8606035559957
 20
79.22372139910888
 30
0.0
 10
151.914564197944
 20
79.22726457040035
 30
0.0
 10
151.9645997286387
 20
79.24878305634968
 30
0.0
 10
151.9902422325003
 20
79.2598109769371
 30
0.0
  0
SPLINE
  5
131
330
1F
100
AcDbEntity
  8
0
  6
Continuous
 62
     7
370
    25
100
AcDbSpline
210
0.0
220
0.0
230
1.0
 70
     8
 71
     3
 72
    17
 73
    13
 74
     0
 42
0.00000001
 43
0.00000001
 40
0.0
 40
0.0
 40
0.0
 40
0.0
 40
0.3241697628029873
 40
0.5422758463620719
 40
0.689509052693928
 40
0.7894036290694505
 40
0.8577090008137825
 40
0.9049823971474137
 40
0.9551712229700868
 40
0.9753097783197817
 40
0.9919572060138848
 40
1.0
 40
1.0
 40
1.0
 40
1.0
 10
149.5156953484182
 20
87.22199405313475
 30
0.0
 10
149.6584107084354
 20
86.30938055052907
 30
0.0
 10
149.8971470173773
 20
84.78274754426774
 30
0.0
 10
150.276734211829
 20
82.85597464198675
 30
0.0
 10
150.585868420176
 20
81.56833917105399
 30
0.0
 10
150.8419819483762
 20
80.70918720433225
 30
0.0
 10
151.0562929512712
 20
80.13571931595486
 30
0.0
 10
151.2595271722991
 20
79.71418716192488
 30
0.0
 10
151.4440724368417
 20
79.43369461912945
 30
0.0
 10
151.6301435232098
 20
79.27814595054879
 30
0.0
 10
151.7453541224657
 20
79.22753535135129
 30
0.0
 10
151.8124429279386
 20
79.22335559954666
 30
0.0
 10
151.8342969820731
 20
79.22199405313718
 30
0.0
  0
LINE
  5
132
330
1F
100
AcDbEntity
  8
0
  6
Continuous
 62
     7
370
    25
100
AcDbLine
 10
149.5156953484
 20
87.2219940531
 30
0.0
 11
161.4402422325
 21
87.2219940531
 31
0.0
  0
LINE
  5
133
330
1F
100
AcDbEntity
  8
0
  6
Continuous
 62
     7
370
    25
100
AcDbLine
 10
150.2759061042
 20
88.2167376311
 30
0.0
 11
149.5156953484
 21
87.2219940531
 31
0.0
  0
LINE
  5
134
330
1F
100
AcDbEntity
  8
0
  6
Continuous
 62
     7
370
    25
100
AcDbLine
 10
148.7664400581
 20
95.2219940531
 30
0.0
 11
147.0383013942
 21
88.2167376311
 31
0.0
  0
LINE
  5
135
330
1F
100
AcDbEntity
  8
0
  6
Continuous
 62
     7
370
    25
100
AcDbLine
 10
159.2293275652
 20
95.2219940531
 30
0.0
 11
148.7664400581
 21
95.2219940531
 31
0.0
  0
SPLINE
  5
136
330
1F
100
AcDbEntity
  8
0
  6
Continuous
 62
     7
370
    25
100
AcDbSpline
210
0.0
220
0.0
230
1.0
 70
     8
 71
     3
 72
    14
 73
    10
 74
     0
 42
0.00000001
 43
0.00000001
 40
0.0
 40
0.0
 40
0.0
 40
0.0
 40
0.1576095309202822
 40
0.3152382602707094
 40
0.4726926441579498
 40
0.6301650083177254
 40
0.7907313191165901
 40
0.9513050385928076
 40
1.0
 40
1.0
 40
1.0
 40
1.0
 10
147.4902422325003
 20
79.22199405313712
 30
0.0
 10
147.4236712177183
 20
79.43549584161453
 30
0.0
 10
147.2905210791334
 20
79.86252542524002
 30
0.0
 10
146.9619541173827
 20
80.44777250409635
 30
0.0
 10
146.5485644766507
 20
80.96992704491876
 30
0.0
 10
146.052889557706
 20
81.41890517233863
 30
0.0
 10
145.4865998524215
 20
81.77818690414502
 30
0.0
 10
145.0103491960285
 20
81.9827530832462
 30
0.0
 10
144.7301546278357
 20
82.0635476315975
 30
0.0
 10
144.6649558430627
 20
82.08234780464427
 30
0.0
  0
LINE
  5
137
330
1F
100
AcDbEntity
  8
0
  6
Continuous
 62
     7
370
    25
100
AcDbLine
 10
144.6649558431
 20
82.0823478046
 30
0.0
 11
138.8851989932
 21
83.6509692451
 31
0.0
  0
SPLINE
  5
138
330
1F
100
AcDbEntity
  8
0
  6
Continuous
 62
     7
370
    25
100
AcDbSpline
210
0.0
220
0.0
230
1.0
 70
     8
 71
     3
 72
    11
 73
     7
 74
     0
 42
0.00000001
 43
0.00000001
 40
0.0
 40
0.0
 40
0.0
 40
0.0
 40
0.2488466353289361
 40
0.4976946020535204
 40
0.7488461225871278
 40
1.0
 40
1.0
 40
1.0
 40
1.0
 10
131.8148053709637
 20
84.97416974611266
 30
0.0
 10
132.4092414200999
 20
84.90464536961903
 30
0.0
 10
133.5981166987633
 20
84.76559624465786
 30
0.0
 10
135.3728413694724
 20
84.46526750653257
 30
0.0
 10
137.1394220112148
 20
84.10335788827743
 30
0.0
 10
138.3032715122344
 20
83.80176593121287
 30
0.0
 10
138.8851989932074
 20
83.65096924512714
 30
0.0
  0
LINE
  5
139
330
1F
100
AcDbEntity
  8
0
  6
Continuous
 62
     7
370
    25
100
AcDbLine
 10
131.814805371
 20
84.9741697461
 30
0.0
 11
131.814805371
 21
88.2167376311
 31
0.0
  0
LINE
  5
13A
330
1F
100
AcDbEntity
  8
0
  6
Continuous
 62
     7
370
    25
100
AcDbLine
 10
131.814805371
 20
88.2167376311
 30
0.0
 11
150.2759061042
 21
88.2167376311
 31
0.0
  0
LINE
  5
13B
330
1F
100
AcDbEntity
  8
0
  6
Continuous
 62
     7
370
    25
100
AcDbLine
 10
151.8342969821
 20
79.2219940531
 30
0.0
 11
147.4902422325
 21
79.2219940531
 31
0.0
  0
LINE
  5
13C
330
1F
100
AcDbEntity
  8
0
  6
Continuous
 62
     7
370
    25
100
AcDbLine
 10
151.9902422325
 20
79.2598109769
 30
0.0
 11
151.9834428746
 21
79.2219940531
 31
0.0
  0
LINE
  5
13D
330
1F
100
AcDbEntity
  8
0
  6
Continuous
 62
     7
370
    25
100
AcDbLine
 10
151.9834428746
 20
79.2219940531
 30
0.0
 11
151.8342969821
 21
79.2219940531
 31
0.0
  0
LINE
  5
13E
330
1F
100
AcDbEntity
  8
0
  6
Continuous
 62
     7
370
    25
100
AcDbLine
 10
151.9902422325
 20
79.2219940531
 30
0.0
 11
151.9834428746
 21
79.2219940531
 31
0.0
  0
LINE
  5
13F
330
1F
100
AcDbEntity
  8
0
  6
Continuous
 62
     7
370
    25
100
AcDbLine
 10
113.9902422325
 20
97.2219940531
 30
0.0
 11
131.814805371
 21
97.2219940531
 31
0.0
  0
LINE
  5
140
330
1F
100
AcDbEntity
  8
0
  6
Continuous
 62
     7
370
    25
100
AcDbLine
 10
131.814805371
 20
97.2219940531
 30
0.0
 11
131.814805371
 21
88.2167376311
 31
0.0
  0
LINE
  5
141
330
1F
100
AcDbEntity
  8
0
  6
Continuous
 62
     7
370
    25
100
AcDbLine
 10
127.0985743747
 20
85.2219940531
 30
0.0
 11
118.9902422325
 21
85.2219940531
 31
0.0
  0
ARC
  5
142
330
1F
100
AcDbEntity
  8
0
  6
Continuous
 62
     7
370
    25
100
AcDbCircle
 10
118.9902422325
 20
90.2219940531
 30
0.0
 40
5.000000000000014
100
AcDbArc
 50
180.0
 51
270.0
  0
LINE
  5
143
330
1F
100
AcDbEntity
  8
0
  6
Continuous
 62
     7
370
    25
100
AcDbLine
 10
113.9902422325
 20
90.2219940531
 30
0.0
 11
113.9902422325
 21
97.2219940531
 31
0.0
  0
ARC
  5
144
330
1F
100
AcDbEntity
  8
0
  6
Continuous
 62
     7
370
    25
100
AcDbCircle
 10
127.0985743747
 20
40.221864799
 30
0.0
 40
45.00012925418374
100
AcDbArc
 50
83.9840777705
 51
90.0
  0
LINE
  5
145
330
1F
100
AcDbEntity
  8
0
  6
Continuous
 62
     7
370
    25
100
AcDbLine
 10
131.814805371
 20
97.2219940531
 30
0.0
 11
133.9902422325
 21
97.2219940531
 31
0.0
  0
LINE
  5
146
330
1F
100
AcDbEntity
  8
0
  6
Continuous
 62
     7
370
    25
100
AcDbLine
 10
133.9902422325
 20
97.2219940531
 30
0.0
 11
133.9902422325
 21
95.2409495765
 31
0.0
  0
ARC
  5
147
330
1F
100
AcDbEntity
  8
0
  6
Continuous
 62
     7
370
    25
100
AcDbCircle
 10
139.9902422325
 20
95.2409495765
 30
0.0
 40
6.000000000000028
100
AcDbArc
 50
180.0
 51
275.5801667845
  0
ARC
  5
148
330
1F
100
AcDbEntity
  8
0
  6
Continuous
 62
     7
370
    25
100
AcDbCircle
 10
139.6012886682
 20
99.2219940531
 30
0.0
 40
10.00000000000847
100
AcDbArc
 50
275.5801667845
 51
336.4218215217
  0
LINE
  5
149
330
1F
100
AcDbEntity
  8
0
  6
Continuous
 62
     7
370
    25
100
AcDbLine
 10
147.4902422325
 20
79.2219940531
 30
0.0
 11
146.9902422325
 21
79.2219940531
 31
0.0
  0
LINE
  5
14A
330
1F
100
AcDbEntity
  8
0
  6
Continuous
 62
     7
370
    25
100
AcDbLine
 10
148.7511568998
 20
95.2219940531
 30
0.0
 11
148.7664400581
 21
95.2219940531
 31
0.0
  0
LINE
  5
14B
330
1F
100
AcDbEntity
  8
0
  6
Continuous
 62
     7
370
    25
100
AcDbLine
 10
139.2902422325
 20
73.7154744357
 30
0.0
 11
139.2902422325
 21
60.7219940531
 31
0.0
  0
LINE
  5
14C
330
1F
100
AcDbEntity
  8
0
  6
Continuous
 62
     7
370
    25
100
AcDbLine
 10
139.2902422325
 20
76.7219940531
 30
0.0
 11
139.2902422325
 21
73.7154744357
 31
0.0
  0
LINE
  5
14D
330
1F
100
AcDbEntity
  8
0
  6
Continuous
 62
     7
370
    25
100
AcDbLine
 10
139.0902422325
 20
73.5906374262
 30
0.0
 11
139.0902422325
 21
76.5219940531
 31
0.0
  0
LINE
  5
14E
330
1F
100
AcDbEntity
  8
0
  6
Continuous
 62
     7
370
    25
100
AcDbLine
 10
139.0902422325
 20
60.9219940531
 30
0.0
 11
139.0902422325
 21
73.5906374262
 31
0.0
  0
LINE
  5
14F
330
1F
100
AcDbEntity
  8
0
  6
Continuous
 62
     7
370
    25
100
AcDbLine
 10
129.5902422325
 20
71.8491611427
 30
0.0
 11
129.5902422325
 21
63.7119940531
 31
0.0
  0
LINE
  5
150
330
1F
100
AcDbEntity
  8
0
  6
Continuous
 62
     7
370
    25
100
AcDbLine
 10
129.5902422325
 20
73.7319940531
 30
0.0
 11
129.5902422325
 21
71.8491611427
 31
0.0
  0
SPLINE
  5
151
330
1F
100
AcDbEntity
  8
0
  6
Continuous
 62
     7
370
    25
100
AcDbSpline
210
0.0
220
0.0
230
1.0
 70
     8
 71
     3
 72
    30
 73
    26
 74
     0
 42
0.00000001
 43
0.00000001
 40
0.0
 40
0.0
 40
0.0
 40
0.0
 40
0.0110569947995957
 40
0.0534018586163523
 40
0.0957739243294413
 40
0.152560285963683
 40
0.2094465507836707
 40
0.2166929089147469
 40
0.2775705853057713
 40
0.3384474861342897
 40
0.3856607907517328
 40
0.4327791182719195
 40
0.4698641362073264
 40
0.5069103241819656
 40
0.5439143354842868
 40
0.5809675385159896
 40
0.6306181182252716
 40
0.6803606635267528
 40
0.7335199301453341
 40
0.786670493119384
 40
0.8314134775104652
 40
0.876121580665438
 40
0.9187009688159357
 40
0.961245266880381
 40
1.0
 40
1.0
 40
1.0
 40
1.0
 10
148.0902422325003
 20
78.22199405313712
 30
0.0
 10
148.0910662798466
 20
78.22129622123941
 30
0.0
 10
148.0950461731788
 20
78.21792590941281
 30
0.0
 10
148.165827882108
 20
78.15757626580748
 30
0.0
 10
148.3871166122073
 20
77.97204617014955
 30
0.0
 10
148.7776796276038
 20
77.65150022520794
 30
0.0
 10
149.1809217136899
 20
77.33782332166753
 30
0.0
 10
149.6477359527789
 20
76.99143403377772
 30
0.0
 10
150.1833637868533
 20
76.61100908677118
 30
0.0
 10
150.999114164871
 20
76.11298553652338
 30
0.0
 10
151.8406739705914
 20
75.70086766341225
 30
0.0
 10
152.6240808893617
 20
75.42386854731868
 30
0.0
 10
153.3970657660376
 20
75.27245139449397
 30
0.0
 10
154.1276560718242
 20
75.23430192523688
 30
0.0
 10
154.8523785286345
 20
75.31363381689906
 30
0.0
 10
155.6257481418379
 20
75.50613702002873
 30
0.0
 10
156.4161429930428
 20
75.82329651349848
 30
0.0
 10
157.2129474236822
 20
76.2485749531234
 30
0.0
 10
157.9403149916398
 20
76.71103605378688
 30
0.0
 10
158.5545191743145
 20
77.15144803043565
 30
0.0
 10
159.0479826416595
 20
77.52991164587401
 30
0.0
 10
159.4230324571689
 20
77.83166689708455
 30
0.0
 10
159.6932873864119
 20
78.0553122566026
 30
0.0
 10
159.8622621867886
 20
78.19823958614795
 30
0.0
 10
159.8776758298368
 20
78.21125761918132
 30
0.0
 10
159.8850234158293
 20
78.21746323305645
 30
0.0
  0
LINE
  5
152
330
1F
100
AcDbEntity
  8
0
  6
Continuous
 62
     7
370
    25
100
AcDbLine
 10
130.5802422325
 20
72.4671043401
 30
0.0
 11
130.5802422325
 21
62.7219940531
 31
0.0
  0
LINE
  5
153
330
1F
100
AcDbEntity
  8
0
  6
Continuous
 62
     7
370
    25
100
AcDbLine
 10
130.5802422325
 20
74.7219940531
 30
0.0
 11
130.5802422325
 21
72.4671043401
 31
0.0
  0
LINE
  5
154
330
1F
100
AcDbEntity
  8
0
  6
Continuous
 62
     7
370
    25
100
AcDbLine
 10
130.6002422325
 20
72.4671043401
 30
0.0
 11
130.6002422325
 21
62.7219940531
 31
0.0
  0
LINE
  5
155
330
1F
100
AcDbEntity
  8
0
  6
Continuous
 62
     7
370
    25
100
AcDbLine
 10
130.6002422325
 20
74.7219940531
 30
0.0
 11
130.6002422325
 21
72.4671043401
 31
0.0
  0
LINE
  5
156
330
1F
100
AcDbEntity
  8
0
  6
Continuous
 62
     7
370
    25
100
AcDbLine
 10
131.5351774544
 20
72.052377362
 30
0.0
 11
131.5351774544
 21
63.3864235833
 31
0.0
  0
LINE
  5
157
330
1F
100
AcDbEntity
  8
0
  6
Continuous
 62
     7
370
    25
100
AcDbLine
 10
131.5351774544
 20
74.0575645229
 30
0.0
 11
131.5351774544
 21
72.052377362
 31
0.0
  0
LINE
  5
158
330
1F
100
AcDbEntity
  8
0
  6
Continuous
 62
     7
370
    25
100
AcDbLine
 10
132.0073669604
 20
71.8429192923
 30
0.0
 11
132.0073669604
 21
63.7219940531
 31
0.0
  0
LINE
  5
159
330
1F
100
AcDbEntity
  8
0
  6
Continuous
 62
     7
370
    25
100
AcDbLine
 10
132.0073669604
 20
73.7219940531
 30
0.0
 11
132.0073669604
 21
71.8429192923
 31
0.0
  0
LINE
  5
15A
330
1F
100
AcDbEntity
  8
0
  6
Continuous
 62
     7
370
    18
100
AcDbLine
 10
147.9892668467
 20
56.2219940531
 30
0.0
 11
148.3097138124
 21
45.9676911509
 31
0.0
  0
LINE
  5
15B
330
1F
100
AcDbEntity
  8
0
  6
Continuous
 62
     7
370
    18
100
AcDbLine
 10
159.6707706526
 20
45.9676911509
 30
0.0
 11
159.9912176183
 21
56.2219940531
 31
0.0
  0
LINE
  5
15C
330
1F
100
AcDbEntity
  8
0
  6
CENTERX2
 62
     7
370
    18
100
AcDbLine
 10
167.6831346239
 20
68.7219940531
 30
0.0
 11
127.5902422325
 21
68.7219940531
 31
0.0
  0
LINE
  5
15D
330
1F
100
AcDbEntity
  8
0
  6
CENTERX2
 62
     7
370
    18
100
AcDbLine
 10
153.9902422325
 20
97.6059700032
 30
0.0
 11
153.9902422325
 21
42.9346362186
 31
0.0
  0
LINE
  5
15E
330
1F
100
AcDbEntity
  8
0
  6
Continuous
 62
     7
370
    25
100
AcDbLine
 10
203.195300416
 20
56.8663316204
 30
0.0
 11
203.445300416
 21
56.7219940531
 31
0.0
  0
LINE
  5
15F
330
1F
100
AcDbEntity
  8
0
  6
Continuous
 62
     7
370
    25
100
AcDbLine
 10
219.945300416
 20
56.7219940531
 30
0.0
 11
220.195300416
 21
56.8663316204
 31
0.0
  0
LINE
  5
160
330
1F
100
AcDbEntity
  8
0
  6
Continuous
 62
     7
370
    25
100
AcDbLine
 10
204.945237916
 20
56.7219940531
 30
0.0
 11
205.2393383018
 21
47.3107817069
 31
0.0
  0
LINE
  5
161
330
1F
100
AcDbEntity
  8
0
  6
Continuous
 62
     7
370
    25
100
AcDbLine
 10
218.1512625302
 20
47.3107817069
 30
0.0
 11
218.445362916
 21
56.7219940531
 31
0.0
  0
LINE
  5
162
330
1F
100
AcDbEntity
  8
0
  6
Continuous
 62
     7
370
    25
100
AcDbLine
 10
205.2393383018
 20
47.3107817069
 30
0.0
 11
206.445300416
 21
45.2219940531
 31
0.0
  0
LINE
  5
163
330
1F
100
AcDbEntity
  8
0
  6
Continuous
 62
     7
370
    25
100
AcDbLine
 10
216.945300416
 20
45.2219940531
 30
0.0
 11
218.1512625302
 21
47.3107817069
 31
0.0
  0
LINE
  5
164
330
1F
100
AcDbEntity
  8
0
  6
Continuous
 62
     7
370
    25
100
AcDbLine
 10
217.595300416
 20
75.2605227171
 30
0.0
 11
217.595300416
 21
79.2219940531
 31
0.0
  0
LINE
  5
165
330
1F
100
AcDbEntity
  8
0
  6
Continuous
 62
     7
370
    25
100
AcDbLine
 10
205.795300416
 20
79.2219940531
 30
0.0
 11
205.795300416
 21
75.2552203063
 31
0.0
  0
ARC
  5
166
330
1F
100
AcDbEntity
  8
0
  6
Continuous
 62
     7
370
    25
100
AcDbCircle
 10
206.445300416
 20
95.8219940531
 30
0.0
 40
0.25
100
AcDbArc
 50
90.0
 51
180.0
  0
ARC
  5
167
330
1F
100
AcDbEntity
  8
0
  6
Continuous
 62
     7
370
    25
100
AcDbCircle
 10
216.945300416
 20
95.8219940531
 30
0.0
 40
0.25
100
AcDbArc
 50
0.0
 51
90.0
  0
LINE
  5
168
330
1F
100
AcDbEntity
  8
0
  6
Continuous
 62
     7
370
    25
100
AcDbLine
 10
206.195300416
 20
95.8219940531
 30
0.0
 11
206.195300416
 21
95.2219940531
 31
0.0
  0
LINE
  5
169
330
1F
100
AcDbEntity
  8
0
  6
Continuous
 62
     7
370
    25
100
AcDbLine
 10
217.195300416
 20
95.2219940531
 30
0.0
 11
217.195300416
 21
95.8219940531
 31
0.0
  0
LINE
  5
16A
330
1F
100
AcDbEntity
  8
0
  6
Continuous
 62
     7
370
    25
100
AcDbLine
 10
219.145300416
 20
87.2219940531
 30
0.0
 11
217.195300416
 21
95.2219940531
 31
0.0
  0
LINE
  5
16B
330
1F
100
AcDbEntity
  8
0
  6
Continuous
 62
     7
370
    25
100
AcDbLine
 10
206.195300416
 20
95.2219940531
 30
0.0
 11
204.245300416
 21
87.2219940531
 31
0.0
  0
LINE
  5
16C
330
1F
100
AcDbEntity
  8
0
  6
Continuous
 62
     7
370
    25
100
AcDbLine
 10
204.245300416
 20
87.2219940531
 30
0.0
 11
204.695300416
 21
79.2219940531
 31
0.0
  0
LINE
  5
16D
330
1F
100
AcDbEntity
  8
0
  6
Continuous
 62
     7
370
    25
100
AcDbLine
 10
218.695300416
 20
79.2219940531
 30
0.0
 11
219.145300416
 21
87.2219940531
 31
0.0
  0
SPLINE
  5
16E
330
1F
100
AcDbEntity
  8
0
  6
Continuous
 62
     7
370
    25
100
AcDbSpline
210
0.0
220
0.0
230
1.0
 70
     8
 71
     3
 72
    10
 73
     6
 74
     0
 42
0.00000001
 43
0.00000001
 40
0.0
 40
0.0
 40
0.0
 40
0.0
 40
0.5
 40
0.5
 40
1.0
 40
1.0
 40
1.0
 40
1.0
 10
211.9453004159787
 20
78.39261106206335
 30
0.0
 10
211.8709200386014
 20
78.43555459296456
 30
0.0
 10
211.7838269504858
 20
78.45951935732057
 30
0.0
 10
211.6076685616098
 20
78.45967696279536
 30
0.0
 10
211.519707488882
 20
78.43557000563365
 30
0.0
 10
211.4453004159787
 20
78.39261106206335
 30
0.0
  0
SPLINE
  5
16F
330
1F
100
AcDbEntity
  8
0
  6
Continuous
 62
     7
370
    25
100
AcDbSpline
210
0.0
220
0.0
230
1.0
 70
    24
 71
     3
 72
    16
 73
    12
 74
     0
 42
0.00000001
 43
0.00000001
 40
0.0
 40
0.0
 40
0.0
 40
0.0
 40
0.2499999999999998
 40
0.2499999999999998
 40
0.4999999999999996
 40
0.4999999999999996
 40
0.6249999999999994
 40
0.6249999999999994
 40
0.7499999999999996
 40
0.7499999999999996
 40
1.0
 40
1.0
 40
1.0
 40
1.0
 10
219.9453004159787
 20
73.77380890854634
 30
0.0
 10
219.2917836359379
 20
74.15111699742285
 30
0.0
 10
218.633563226848
 20
74.53114072779704
 30
0.0
 10
217.3040006434821
 20
75.29876404320774
 30
0.0
 10
216.6325766614116
 20
75.68641085999653
 30
0.0
 10
215.6135755744049
 20
76.27473141188439
 30
0.0
 10
215.2722347920887
 20
76.47180460444002
 30
0.0
 10
214.5966362891183
 20
76.86186158199413
 30
0.0
 10
214.2609771391537
 20
77.05565448258217
 30
0.0
 10
213.2597115026539
 20
77.63373546734559
 30
0.0
 10
212.5998038440508
 20
78.01473333168042
 30
0.0
 10
211.9453004159787
 20
78.39261106206334
 30
0.0
  0
SPLINE
  5
170
330
1F
100
AcDbEntity
  8
0
  6
Continuous
 62
     7
370
    25
100
AcDbSpline
210
0.0
220
0.0
230
1.0
 70
     8
 71
     3
 72
    10
 73
     6
 74
     0
 42
0.00000001
 43
0.00000001
 40
0.0
 40
0.0
 40
0.0
 40
0.0
 40
0.5
 40
0.5
 40
1.0
 40
1.0
 40
1.0
 40
1.0
 10
220.1953004159787
 20
73.34079620665412
 30
0.0
 10
220.1953004159787
 20
73.42668326845659
 30
0.0
 10
220.1725079666489
 20
73.5140904774367
 30
0.0
 10
220.0845652625559
 20
73.66672692003044
 30
0.0
 10
220.019707488882
 20
73.73084996497603
 30
0.0
 10
219.9453004159787
 20
73.77380890854634
 30
0.0
  0
SPLINE
  5
171
330
1F
100
AcDbEntity
  8
0
  6
Continuous
 62
     7
370
    25
100
AcDbSpline
210
0.0
220
0.0
230
1.0
 70
    24
 71
     3
 72
    14
 73
    10
 74
     0
 42
0.00000001
 43
0.00000001
 40
0.0
 40
0.0
 40
0.0
 40
0.0
 40
0.25
 40
0.25
 40
0.5
 40
0.5
 40
0.75
 40
0.75
 40
1.0
 40
1.0
 40
1.0
 40
1.0
 10
220.1953004159787
 20
64.10319189962006
 30
0.0
 10
220.1953004159787
 20
64.85778779094998
 30
0.0
 10
220.1953004159787
 20
65.62698143534679
 30
0.0
 10
220.1953004159787
 20
67.16730519143239
 30
0.0
 10
220.1953004159787
 20
67.94220980716854
 30
0.0
 10
220.1953004159787
 20
69.50301854475205
 30
0.0
 10
220.1953004159787
 20
70.29354580632658
 30
0.0
 10
220.1953004159787
 20
71.83549361898264
 30
0.0
 10
220.1953004159787
 20
72.59283801812978
 30
0.0
 10
220.1953004159787
 20
73.34079620665412
 30
0.0
  0
SPLINE
  5
172
330
1F
100
AcDbEntity
  8
0
  6
Continuous
 62
     7
370
    25
100
AcDbSpline
210
0.0
220
0.0
230
1.0
 70
     8
 71
     3
 72
    10
 73
     6
 74
     0
 42
0.00000001
 43
0.00000001
 40
0.0
 40
0.0
 40
0.0
 40
0.0
 40
0.5
 40
0.5
 40
1.0
 40
1.0
 40
1.0
 40
1.0
 10
219.9453004159787
 20
63.67017919772788
 30
0.0
 10
220.0196807933559
 20
63.71312272862902
 30
0.0
 10
220.0839814321414
 20
63.7765651732527
 30
0.0
 10
220.1721971169247
 20
63.92904401037182
 30
0.0
 10
220.1953004159787
 20
64.01727401247929
 30
0.0
 10
220.1953004159787
 20
64.10319189962007
 30
0.0
  0
SPLINE
  5
173
330
1F
100
AcDbEntity
  8
0
  6
Continuous
 62
     7
370
    25
100
AcDbSpline
210
0.0
220
0.0
230
1.0
 70
    24
 71
     3
 72
    16
 73
    12
 74
     0
 42
0.00000001
 43
0.00000001
 40
0.0
 40
0.0
 40
0.0
 40
0.0
 40
0.2499999999999999
 40
0.2499999999999999
 40
0.4999999999999998
 40
0.4999999999999998
 40
0.6249999999999998
 40
0.6249999999999998
 40
0.7499999999999999
 40
0.7499999999999999
 40
1.0
 40
1.0
 40
1.0
 40
1.0
 10
211.9453004159787
 20
59.05137704421088
 30
0.0
 10
212.5988171960195
 20
59.42868513308735
 30
0.0
 10
213.2570376051094
 20
59.80870886346151
 30
0.0
 10
214.5866001884751
 20
60.57633217887216
 30
0.0
 10
215.2580241705456
 20
60.96397899566092
 30
0.0
 10
216.2770252575522
 20
61.55229954754872
 30
0.0
 10
216.6183660398684
 20
61.74937274010436
 30
0.0
 10
217.2939645428388
 20
62.13942971765843
 30
0.0
 10
217.6296236928034
 20
62.33322261824645
 30
0.0
 10
218.630889329303
 20
62.91130360300984
 30
0.0
 10
219.2907969879061
 20
63.29230146734463
 30
0.0
 10
219.9453004159781
 20
63.67017919772753
 30
0.0
  0
SPLINE
  5
174
330
1F
100
AcDbEntity
  8
0
  6
Continuous
 62
     7
370
    25
100
AcDbSpline
210
0.0
220
0.0
230
1.0
 70
     8
 71
     3
 72
    10
 73
     6
 74
     0
 42
0.00000001
 43
0.00000001
 40
0.0
 40
0.0
 40
0.0
 40
0.0
 40
0.5
 40
0.5
 40
1.0
 40
1.0
 40
1.0
 40
1.0
 10
211.4453004159787
 20
59.05137704421088
 30
0.0
 10
211.5196807933561
 20
59.00843351330965
 30
0.0
 10
211.6067738814716
 20
58.98446874895367
 30
0.0
 10
211.7829322703476
 20
58.98431114347888
 30
0.0
 10
211.8708933430755
 20
59.00841810064057
 30
0.0
 10
211.9453004159787
 20
59.05137704421087
 30
0.0
  0
SPLINE
  5
175
330
1F
100
AcDbEntity
  8
0
  6
Continuous
 62
     7
370
    25
100
AcDbSpline
210
0.0
220
0.0
230
1.0
 70
    24
 71
     3
 72
    16
 73
    12
 74
     0
 42
0.00000001
 43
0.00000001
 40
0.0
 40
0.0
 40
0.0
 40
0.0
 40
0.25
 40
0.25
 40
0.5
 40
0.5
 40
0.6250000000000001
 40
0.6250000000000001
 40
0.7500000000000002
 40
0.7500000000000002
 40
1.0
 40
1.0
 40
1.0
 40
1.0
 10
203.4453004159787
 20
63.67017919772788
 30
0.0
 10
204.0988171960196
 20
63.29287110885139
 30
0.0
 10
204.7570376051095
 20
62.91284737847719
 30
0.0
 10
206.0866001884753
 20
62.14522406306649
 30
0.0
 10
206.7580241705458
 20
61.7575772462777
 30
0.0
 10
207.7770252575526
 20
61.16925669438985
 30
0.0
 10
208.1183660398687
 20
60.9721835018342
 30
0.0
 10
208.7939645428392
 20
60.5821265242801
 30
0.0
 10
209.1296236928038
 20
60.38833362369206
 30
0.0
 10
210.1308893293035
 20
59.81025263892863
 30
0.0
 10
210.7907969879067
 20
59.42925477459382
 30
0.0
 10
211.4453004159787
 20
59.05137704421088
 30
0.0
  0
SPLINE
  5
176
330
1F
100
AcDbEntity
  8
0
  6
Continuous
 62
     7
370
    25
100
AcDbSpline
210
0.0
220
0.0
230
1.0
 70
     8
 71
     3
 72
    10
 73
     6
 74
     0
 42
0.00000001
 43
0.00000001
 40
0.0
 40
0.0
 40
0.0
 40
0.0
 40
0.5
 40
0.5
 40
1.0
 40
1.0
 40
1.0
 40
1.0
 10
203.1953004159787
 20
64.1031918996201
 30
0.0
 10
203.1953004159787
 20
64.01730483781765
 30
0.0
 10
203.2180928653085
 20
63.92989762883751
 30
0.0
 10
203.3060355694016
 20
63.77726118624378
 30
0.0
 10
203.3708933430755
 20
63.7131381412982
 30
0.0
 10
203.4453004159787
 20
63.67017919772788
 30
0.0
  0
SPLINE
  5
177
330
1F
100
AcDbEntity
  8
0
  6
Continuous
 62
     7
370
    25
100
AcDbSpline
210
0.0
220
0.0
230
1.0
 70
    24
 71
     3
 72
    14
 73
    10
 74
     0
 42
0.00000001
 43
0.00000001
 40
0.0
 40
0.0
 40
0.0
 40
0.0
 40
0.25
 40
0.25
 40
0.5
 40
0.5
 40
0.75
 40
0.75
 40
1.0
 40
1.0
 40
1.0
 40
1.0
 10
203.1953004159787
 20
64.10319189962006
 30
0.0
 10
203.1953004159787
 20
64.85778779094998
 30
0.0
 10
203.1953004159787
 20
65.62698143534679
 30
0.0
 10
203.1953004159787
 20
67.16730519143239
 30
0.0
 10
203.1953004159787
 20
67.94220980716854
 30
0.0
 10
203.1953004159787
 20
69.50301854475205
 30
0.0
 10
203.1953004159787
 20
70.29354580632658
 30
0.0
 10
203.1953004159787
 20
71.83549361898265
 30
0.0
 10
203.1953004159787
 20
72.59283801812978
 30
0.0
 10
203.1953004159787
 20
73.34079620665412
 30
0.0
  0
SPLINE
  5
178
330
1F
100
AcDbEntity
  8
0
  6
Continuous
 62
     7
370
    25
100
AcDbSpline
210
0.0
220
0.0
230
1.0
 70
     8
 71
     3
 72
    10
 73
     6
 74
     0
 42
0.00000001
 43
0.00000001
 40
0.0
 40
0.0
 40
0.0
 40
0.0
 40
0.5
 40
0.5
 40
1.0
 40
1.0
 40
1.0
 40
1.0
 10
203.4453004159787
 20
73.77380890854634
 30
0.0
 10
203.3709200386014
 20
73.73086537764512
 30
0.0
 10
203.3066193998156
 20
73.66742293302099
 30
0.0
 10
203.2184037150327
 20
73.51494409590202
 30
0.0
 10
203.1953004159787
 20
73.42671409379476
 30
0.0
 10
203.1953004159787
 20
73.34079620665412
 30
0.0
  0
SPLINE
  5
179
330
1F
100
AcDbEntity
  8
0
  6
Continuous
 62
     7
370
    25
100
AcDbSpline
210
0.0
220
0.0
230
1.0
 70
    24
 71
     3
 72
    16
 73
    12
 74
     0
 42
0.00000001
 43
0.00000001
 40
0.0
 40
0.0
 40
0.0
 40
0.0
 40
0.2499999999999997
 40
0.2499999999999997
 40
0.4999999999999994
 40
0.4999999999999994
 40
0.6249999999999996
 40
0.6249999999999996
 40
0.7499999999999996
 40
0.7499999999999996
 40
1.0
 40
1.0
 40
1.0
 40
1.0
 10
211.4453004159787
 20
78.39261106206335
 30
0.0
 10
210.7917836359379
 20
78.01530297318685
 30
0.0
 10
210.1335632268479
 20
77.63527924281264
 30
0.0
 10
208.8040006434822
 20
76.86765592740196
 30
0.0
 10
208.1325766614116
 20
76.48000911061315
 30
0.0
 10
207.1135755744049
 20
75.89168855872532
 30
0.0
 10
206.7722347920887
 20
75.69461536616966
 30
0.0
 10
206.0966362891183
 20
75.30455838861556
 30
0.0
 10
205.7609771391537
 20
75.11076548802752
 30
0.0
 10
204.7597115026539
 20
74.5326845032641
 30
0.0
 10
204.0998038440508
 20
74.15168663892928
 30
0.0
 10
203.4453004159787
 20
73.77380890854634
 30
0.0
  0
CIRCLE
  5
17A
330
1F
100
AcDbEntity
  8
0
  6
Continuous
 62
     7
370
    25
100
AcDbCircle
 10
211.695300416
 20
68.7219940531
 30
0.0
 40
8.423205080756873
  0
LINE
  5
17B
330
1F
100
AcDbEntity
  8
0
  6
Continuous
 62
     7
370
    25
100
AcDbLine
 10
211.695300416
 20
56.7219940531
 30
0.0
 11
203.445300416
 21
56.7219940531
 31
0.0
  0
LINE
  5
17C
330
1F
100
AcDbEntity
  8
0
  6
Continuous
 62
     7
370
    25
100
AcDbLine
 10
219.945300416
 20
56.7219940531
 30
0.0
 11
211.695300416
 21
56.7219940531
 31
0.0
  0
SPLINE
  5
17D
330
1F
100
AcDbEntity
  8
0
  6
Continuous
 62
     7
370
    25
100
AcDbSpline
210
0.0
220
0.0
230
1.0
 70
     8
 71
     3
 72
    10
 73
     6
 74
     0
 42
0.00000001
 43
0.00000001
 40
0.0
 40
0.0
 40
0.0
 40
0.0
 40
0.5
 40
0.5
 40
1.0
 40
1.0
 40
1.0
 40
1.0
 10
219.9453004159787
 20
57.54405302569471
 30
0.0
 10
220.0196708829043
 20
57.56772526560627
 30
0.0
 10
220.0839764791921
 20
57.58081925554152
 30
0.0
 10
220.172199266998
 20
57.58090612300298
 30
0.0
 10
220.1953004159787
 20
57.56773633324362
 30
0.0
 10
220.1953004159787
 20
57.54405302569471
 30
0.0
  0
SPLINE
  5
17E
330
1F
100
AcDbEntity
  8
0
  6
Continuous
 62
     7
370
    25
100
AcDbSpline
210
0.0
220
0.0
230
1.0
 70
     8
 71
     3
 72
    10
 73
     6
 74
     0
 42
0.00000001
 43
0.00000001
 40
0.0
 40
0.0
 40
0.0
 40
0.0
 40
0.5
 40
0.5
 40
1.0
 40
1.0
 40
1.0
 40
1.0
 10
203.1953004159787
 20
57.54405302569471
 30
0.0
 10
203.1953004159787
 20
57.56772692625066
 30
0.0
 10
203.2180909876262
 20
57.5808194834298
 30
0.0
 10
203.306036984925
 20
57.58090589741208
 30
0.0
 10
203.3708977776578
 20
57.56773550581346
 30
0.0
 10
203.4453004159787
 20
57.54405302569472
 30
0.0
  0
SPLINE
  5
17F
330
1F
100
AcDbEntity
  8
0
  6
Continuous
 62
     7
370
    25
100
AcDbSpline
210
0.0
220
0.0
230
1.0
 70
     8
 71
     3
 72
    16
 73
    12
 74
     0
 42
0.00000001
 43
0.00000001
 40
0.0
 40
0.0
 40
0.0
 40
0.0
 40
0.2499999999999999
 40
0.2499999999999999
 40
0.4999999999999999
 40
0.4999999999999999
 40
0.6249999999999999
 40
0.6249999999999999
 40
0.7499999999999998
 40
0.7499999999999998
 40
1.0
 40
1.0
 40
1.0
 40
1.0
 10
211.4453004159788
 20
57.54405302569425
 30
0.0
 10
210.7910787625393
 20
57.3358132152456
 30
0.0
 10
210.1326262270281
 20
57.16563992883615
 30
0.0
 10
208.8039816020449
 20
56.9309176692203
 30
0.0
 10
208.1337171577573
 20
56.86701969414583
 30
0.0
 10
207.1177814141957
 20
56.86599599205934
 30
0.0
 10
206.7764302960959
 20
56.88148253920404
 30
0.0
 10
206.1000139846315
 20
56.94260626066202
 30
0.0
 10
205.7639412155906
 20
56.98812798795705
 30
0.0
 10
204.7614231545296
 20
57.16462735170222
 30
0.0
 10
204.100665284438
 20
57.33544932805604
 30
0.0
 10
203.4453004159787
 20
57.54405302569457
 30
0.0
  0
SPLINE
  5
180
330
1F
100
AcDbEntity
  8
0
  6
Continuous
 62
     7
370
    25
100
AcDbSpline
210
0.0
220
0.0
230
1.0
 70
     8
 71
     3
 72
    10
 73
     6
 74
     0
 42
0.00000001
 43
0.00000001
 40
0.0
 40
0.0
 40
0.0
 40
0.0
 40
0.5
 40
0.5
 40
1.0
 40
1.0
 40
1.0
 40
1.0
 10
211.4453004159787
 20
57.54405302569471
 30
0.0
 10
211.5196751699688
 20
57.56772663018582
 30
0.0
 10
211.6067689015347
 20
57.58081940597906
 30
0.0
 10
211.7829347300791
 20
57.58090597408
 30
0.0
 10
211.8708957539694
 20
57.56773614995672
 30
0.0
 10
211.9453004159787
 20
57.54405302569471
 30
0.0
  0
SPLINE
  5
181
330
1F
100
AcDbEntity
  8
0
  6
Continuous
 62
     7
370
    25
100
AcDbSpline
210
0.0
220
0.0
230
1.0
 70
     8
 71
     3
 72
    16
 73
    12
 74
     0
 42
0.00000001
 43
0.00000001
 40
0.0
 40
0.0
 40
0.0
 40
0.0
 40
0.2500000000000003
 40
0.2500000000000003
 40
0.5000000000000006
 40
0.5000000000000006
 40
0.6250000000000006
 40
0.6250000000000006
 40
0.7500000000000004
 40
0.7500000000000004
 40
1.0
 40
1.0
 40
1.0
 40
1.0
 10
219.9453004159788
 20
57.54405302569425
 30
0.0
 10
219.2910787625393
 20
57.3358132152456
 30
0.0
 10
218.6326262270281
 20
57.16563992883615
 30
0.0
 10
217.3039816020449
 20
56.93091766922031
 30
0.0
 10
216.6337171577573
 20
56.86701969414584
 30
0.0
 10
215.6177814141957
 20
56.86599599205934
 30
0.0
 10
215.276430296096
 20
56.88148253920404
 30
0.0
 10
214.6000139846315
 20
56.94260626066202
 30
0.0
 10
214.2639412155906
 20
56.98812798795705
 30
0.0
 10
213.2614231545296
 20
57.16462735170222
 30
0.0
 10
212.600665284438
 20
57.33544932805604
 30
0.0
 10
211.9453004159787
 20
57.54405302569457
 30
0.0
  0
SPLINE
  5
182
330
1F
100
AcDbEntity
  8
0
  6
Continuous
 62
     7
370
    25
100
AcDbSpline
210
0.0
220
0.0
230
1.0
 70
    24
 71
     3
 72
    11
 73
     7
 74
     0
 42
0.00000001
 43
0.00000001
 40
0.0
 40
0.0
 40
0.0
 40
0.0
 40
0.2021977744139266
 40
0.4641481248639601
 40
0.7320403062841466
 40
1.0
 40
1.0
 40
1.0
 40
1.0
 10
220.1953004159787
 20
56.87538176479423
 30
0.0
 10
220.1953004159787
 20
56.87779077192374
 30
0.0
 10
220.1953004159787
 20
56.88332068512473
 30
0.0
 10
220.1953004159787
 20
57.01176732379672
 30
0.0
 10
220.1953004159787
 20
57.22830291758291
 30
0.0
 10
220.1953004159787
 20
57.43879414968571
 30
0.0
 10
220.1953004159787
 20
57.54405302569471
 30
0.0
  0
SPLINE
  5
183
330
1F
100
AcDbEntity
  8
0
  6
Continuous
 62
     7
370
    25
100
AcDbSpline
210
0.0
220
0.0
230
1.0
 70
    24
 71
     3
 72
    11
 73
     7
 74
     0
 42
0.00000001
 43
0.00000001
 40
0.0
 40
0.0
 40
0.0
 40
0.0
 40
0.2623528517141256
 40
0.524643793835094
 40
0.7921984074816136
 40
1.0
 40
1.0
 40
1.0
 40
1.0
 10
203.1953004159787
 20
57.54405302569471
 30
0.0
 10
203.1953004159787
 20
57.44087442614354
 30
0.0
 10
203.1953004159787
 20
57.23454157495691
 30
0.0
 10
203.1953004159787
 20
57.01683526348112
 30
0.0
 10
203.1953004159787
 20
56.88434552464365
 30
0.0
 10
203.1953004159787
 20
56.87828310909781
 30
0.0
 10
203.1953004159787
 20
56.87563292889904
 30
0.0
  0
LINE
  5
184
330
1F
100
AcDbEntity
  8
0
  6
Continuous
 62
     7
370
    25
100
AcDbLine
 10
211.945300416
 20
59.0513770442
 30
0.0
 11
211.945300416
 21
57.5440530257
 31
0.0
  0
LINE
  5
185
330
1F
100
AcDbEntity
  8
0
  6
Continuous
 62
     7
370
    25
100
AcDbLine
 10
211.445300416
 20
57.5440530257
 30
0.0
 11
211.445300416
 21
59.0513770442
 31
0.0
  0
LINE
  5
186
330
1F
100
AcDbEntity
  8
0
  6
Continuous
 62
     7
370
    25
100
AcDbLine
 10
203.445300416
 20
60.7555975133
 30
0.0
 11
203.445300416
 21
57.5440530257
 31
0.0
  0
SPLINE
  5
187
330
1F
100
AcDbEntity
  8
0
  6
Continuous
 62
     7
370
    25
100
AcDbSpline
210
0.0
220
0.0
230
1.0
 70
     8
 71
     3
 72
    10
 73
     6
 74
     0
 42
0.00000001
 43
0.00000001
 40
0.0
 40
0.0
 40
0.0
 40
0.0
 40
0.5
 40
0.5
 40
1.0
 40
1.0
 40
1.0
 40
1.0
 10
203.4453004159792
 20
60.75559751328227
 30
0.0
 10
204.0801281217929
 20
60.95766419883319
 30
0.0
 10
204.7193938243686
 20
61.12405697110383
 30
0.0
 10
206.0102087559585
 20
61.35810394497389
 30
0.0
 10
206.6618283914283
 20
61.42519219893271
 30
0.0
 10
207.3208703232484
 20
61.4326178685025
 30
0.0
  0
SPLINE
  5
188
330
1F
100
AcDbEntity
  8
0
  6
Continuous
 62
     7
370
    25
100
AcDbSpline
210
0.0
220
0.0
230
1.0
 70
     8
 71
     3
 72
    12
 73
     8
 74
     0
 42
0.00000001
 43
0.00000001
 40
0.0
 40
0.0
 40
0.0
 40
0.0
 40
0.2500000000000002
 40
0.2500000000000002
 40
0.5000000000000004
 40
0.5000000000000004
 40
1.0
 40
1.0
 40
1.0
 40
1.0
 10
216.0697305087311
 20
61.43261786850225
 30
0.0
 10
216.3988654991243
 20
61.42890938264582
 30
0.0
 10
216.728327652061
 20
61.41032687980815
 30
0.0
 10
217.3812012701187
 20
61.345459842842
 30
0.0
 10
217.7056538619957
 20
61.29919428959172
 30
0.0
 10
218.6737143031878
 20
61.12346975928477
 30
0.0
 10
219.3120367874357
 20
60.95716635050802
 30
0.0
 10
219.9453004159787
 20
60.75559751328211
 30
0.0
  0
LINE
  5
189
330
1F
100
AcDbEntity
  8
0
  6
Continuous
 62
     7
370
    25
100
AcDbLine
 10
219.945300416
 20
57.5440530257
 30
0.0
 11
219.945300416
 21
60.7555975133
 31
0.0
  0
SPLINE
  5
18A
330
1F
100
AcDbEntity
  8
0
  6
Continuous
 62
     7
370
    25
100
AcDbSpline
210
0.0
220
0.0
230
1.0
 70
     8
 71
     3
 72
     8
 73
     4
 74
     0
 42
0.00000001
 43
0.00000001
 40
0.0
 40
0.0
 40
0.0
 40
0.0
 40
1.0
 40
1.0
 40
1.0
 40
1.0
 10
204.7670971857032
 20
61.72199405313712
 30
0.0
 10
204.240676324494
 20
61.45878362253251
 30
0.0
 10
203.7171318677803
 20
61.18968619414581
 30
0.0
 10
203.1953004159787
 20
60.91708284156314
 30
0.0
  0
SPLINE
  5
18B
330
1F
100
AcDbEntity
  8
0
  6
Continuous
 62
     7
370
    25
100
AcDbSpline
210
0.0
220
0.0
230
1.0
 70
     8
 71
     3
 72
    10
 73
     6
 74
     0
 42
0.00000001
 43
0.00000001
 40
0.0
 40
0.0
 40
0.0
 40
0.0
 40
0.5
 40
0.5
 40
1.0
 40
1.0
 40
1.0
 40
1.0
 10
203.1953004159787
 20
60.75559751328205
 30
0.0
 10
203.1953004159787
 20
60.73192211885764
 30
0.0
 10
203.2180928653086
 20
60.71883100897305
 30
0.0
 10
203.3060355694018
 20
60.71874468768483
 30
0.0
 10
203.370893343076
 20
60.73191362162877
 30
0.0
 10
203.4453004159794
 20
60.75559751328232
 30
0.0
  0
SPLINE
  5
18C
330
1F
100
AcDbEntity
  8
0
  6
Continuous
 62
     7
370
    25
100
AcDbSpline
210
0.0
220
0.0
230
1.0
 70
    24
 71
     3
 72
     8
 73
     4
 74
     0
 42
0.00000001
 43
0.00000001
 40
0.0
 40
0.0
 40
0.0
 40
0.0
 40
1.0
 40
1.0
 40
1.0
 40
1.0
 10
203.1953004159787
 20
60.75559751328212
 30
0.0
 10
203.1953004159787
 20
60.81215848040633
 30
0.0
 10
203.1953004159787
 20
60.86609855182017
 30
0.0
 10
203.1953004159787
 20
60.91708284156314
 30
0.0
  0
SPLINE
  5
18D
330
1F
100
AcDbEntity
  8
0
  6
Continuous
 62
     7
370
    25
100
AcDbSpline
210
0.0
220
0.0
230
1.0
 70
     8
 71
     3
 72
     8
 73
     4
 74
     0
 42
0.00000001
 43
0.00000001
 40
0.0
 40
0.0
 40
0.0
 40
0.0
 40
1.0
 40
1.0
 40
1.0
 40
1.0
 10
220.1953004159787
 20
60.91708284156313
 30
0.0
 10
219.6734942646769
 20
61.18967297723248
 30
0.0
 10
219.1498407958207
 20
61.45882547835387
 30
0.0
 10
218.6235036462542
 20
61.72199405313712
 30
0.0
  0
SPLINE
  5
18E
330
1F
100
AcDbEntity
  8
0
  6
Continuous
 62
     7
370
    25
100
AcDbSpline
210
0.0
220
0.0
230
1.0
 70
     8
 71
     3
 72
    10
 73
     6
 74
     0
 42
0.00000001
 43
0.00000001
 40
0.0
 40
0.0
 40
0.0
 40
0.0
 40
0.5
 40
0.5
 40
1.0
 40
1.0
 40
1.0
 40
1.0
 10
219.9453004159787
 20
60.75559751328211
 30
0.0
 10
220.0196807933561
 20
60.73192211885772
 30
0.0
 10
220.0839814321418
 20
60.71883100897309
 30
0.0
 10
220.1721971169248
 20
60.7187446876848
 30
0.0
 10
220.1953004159787
 20
60.73191362162864
 30
0.0
 10
220.1953004159787
 20
60.7555975132821
 30
0.0
  0
SPLINE
  5
18F
330
1F
100
AcDbEntity
  8
0
  6
Continuous
 62
     7
370
    25
100
AcDbSpline
210
0.0
220
0.0
230
1.0
 70
    24
 71
     3
 72
     8
 73
     4
 74
     0
 42
0.00000001
 43
0.00000001
 40
0.0
 40
0.0
 40
0.0
 40
0.0
 40
1.0
 40
1.0
 40
1.0
 40
1.0
 10
220.1953004159787
 20
60.75559751328212
 30
0.0
 10
220.1953004159787
 20
60.81215848040634
 30
0.0
 10
220.1953004159787
 20
60.86609855182017
 30
0.0
 10
220.1953004159787
 20
60.91708284156314
 30
0.0
  0
LINE
  5
190
330
1F
100
AcDbEntity
  8
0
  6
Continuous
 62
     7
370
    25
100
AcDbLine
 10
204.195300416
 20
61.7219940531
 30
0.0
 11
206.819656069
 21
61.7219940531
 31
0.0
  0
LINE
  5
191
330
1F
100
AcDbEntity
  8
0
  6
Continuous
 62
     7
370
    25
100
AcDbLine
 10
204.195300416
 20
63.2371664958
 30
0.0
 11
204.195300416
 21
61.7219940531
 31
0.0
  0
LINE
  5
192
330
1F
100
AcDbEntity
  8
0
  6
Continuous
 62
     7
370
    25
100
AcDbLine
 10
219.195300416
 20
61.7219940531
 30
0.0
 11
219.195300416
 21
63.2371664958
 31
0.0
  0
LINE
  5
193
330
1F
100
AcDbEntity
  8
0
  6
Continuous
 62
     7
370
    25
100
AcDbLine
 10
216.570944763
 20
61.7219940531
 30
0.0
 11
219.195300416
 21
61.7219940531
 31
0.0
  0
LINE
  5
194
330
1F
100
AcDbEntity
  8
0
  6
Continuous
 62
     7
370
    25
100
AcDbLine
 10
218.1512625302
 20
47.3107817069
 30
0.0
 11
205.2393383018
 21
47.3107817069
 31
0.0
  0
LINE
  5
195
330
1F
100
AcDbEntity
  8
0
  6
Continuous
 62
     7
370
    25
100
AcDbLine
 10
211.695300416
 20
45.2219940531
 30
0.0
 11
206.445300416
 21
45.2219940531
 31
0.0
  0
LINE
  5
196
330
1F
100
AcDbEntity
  8
0
  6
Continuous
 62
     7
370
    25
100
AcDbLine
 10
216.945300416
 20
45.2219940531
 30
0.0
 11
211.695300416
 21
45.2219940531
 31
0.0
  0
LINE
  5
197
330
1F
100
AcDbEntity
  8
0
  6
Continuous
 62
     7
370
    25
100
AcDbLine
 10
203.195300416
 20
57.5440530257
 30
0.0
 11
203.195300416
 21
60.7555975133
 31
0.0
  0
LINE
  5
198
330
1F
100
AcDbEntity
  8
0
  6
Continuous
 62
     7
370
    25
100
AcDbLine
 10
220.195300416
 20
60.7555975133
 30
0.0
 11
220.195300416
 21
57.5440530257
 31
0.0
  0
LINE
  5
199
330
1F
100
AcDbEntity
  8
0
  6
Continuous
 62
     7
370
    25
100
AcDbLine
 10
203.195300416
 20
60.9170828416
 30
0.0
 11
203.195300416
 21
64.059848484
 31
0.0
  0
LINE
  5
19A
330
1F
100
AcDbEntity
  8
0
  6
Continuous
 62
     7
370
    25
100
AcDbLine
 10
220.195300416
 20
60.9170828416
 30
0.0
 11
220.195300416
 21
64.059848484
 31
0.0
  0
LINE
  5
19B
330
1F
100
AcDbEntity
  8
0
  6
Continuous
 62
     7
370
    25
100
AcDbLine
 10
206.445300416
 20
96.0719940531
 30
0.0
 11
208.195300416
 21
96.0719940531
 31
0.0
  0
LINE
  5
19C
330
1F
100
AcDbEntity
  8
0
  6
Continuous
 62
     7
370
    25
100
AcDbLine
 10
215.195300416
 20
96.0719940531
 30
0.0
 11
216.945300416
 21
96.0719940531
 31
0.0
  0
LINE
  5
19D
330
1F
100
AcDbEntity
  8
0
  6
Continuous
 62
     7
370
    25
100
AcDbLine
 10
206.195300416
 20
95.2219940531
 30
0.0
 11
208.195300416
 21
95.2219940531
 31
0.0
  0
LINE
  5
19E
330
1F
100
AcDbEntity
  8
0
  6
Continuous
 62
     7
370
    25
100
AcDbLine
 10
215.195300416
 20
95.2219940531
 30
0.0
 11
217.195300416
 21
95.2219940531
 31
0.0
  0
LINE
  5
19F
330
1F
100
AcDbEntity
  8
0
  6
Continuous
 62
     7
370
    25
100
AcDbLine
 10
215.195300416
 20
85.2219940531
 30
0.0
 11
208.195300416
 21
85.2219940531
 31
0.0
  0
LINE
  5
1A0
330
1F
100
AcDbEntity
  8
0
  6
Continuous
 62
     7
370
    25
100
AcDbLine
 10
208.195300416
 20
85.2219940531
 30
0.0
 11
208.195300416
 21
90.2219940531
 31
0.0
  0
LINE
  5
1A1
330
1F
100
AcDbEntity
  8
0
  6
Continuous
 62
     7
370
    25
100
AcDbLine
 10
208.195300416
 20
90.2219940531
 30
0.0
 11
215.195300416
 21
90.2219940531
 31
0.0
  0
LINE
  5
1A2
330
1F
100
AcDbEntity
  8
0
  6
Continuous
 62
     7
370
    25
100
AcDbLine
 10
215.195300416
 20
90.2219940531
 30
0.0
 11
215.195300416
 21
85.2219940531
 31
0.0
  0
LINE
  5
1A3
330
1F
100
AcDbEntity
  8
0
  6
Continuous
 62
     7
370
    25
100
AcDbLine
 10
208.195300416
 20
97.2219940531
 30
0.0
 11
215.195300416
 21
97.2219940531
 31
0.0
  0
LINE
  5
1A4
330
1F
100
AcDbEntity
  8
0
  6
Continuous
 62
     7
370
    25
100
AcDbLine
 10
215.195300416
 20
90.2219940531
 30
0.0
 11
215.195300416
 21
97.2219940531
 31
0.0
  0
LINE
  5
1A5
330
1F
100
AcDbEntity
  8
0
  6
Continuous
 62
     7
370
    25
100
AcDbLine
 10
208.195300416
 20
97.2219940531
 30
0.0
 11
208.195300416
 21
90.2219940531
 31
0.0
  0
SPLINE
  5
1A6
330
1F
100
AcDbEntity
  8
0
  6
Continuous
 62
     7
370
    25
100
AcDbSpline
210
0.0
220
0.0
230
1.0
 70
     8
 71
     3
 72
    11
 73
     7
 74
     0
 42
0.00000001
 43
0.00000001
 40
0.0
 40
0.0
 40
0.0
 40
0.0
 40
0.2488466353289361
 40
0.4976946020535204
 40
0.7488461225871278
 40
1.0
 40
1.0
 40
1.0
 40
1.0
 10
215.1953004159787
 20
84.97416974611266
 30
0.0
 10
215.1999919519182
 20
84.90464536961903
 30
0.0
 10
215.209375048898
 20
84.76559624465786
 30
0.0
 10
215.2857969323848
 20
84.46526750653257
 30
0.0
 10
215.4035230603485
 20
84.10335788827743
 30
0.0
 10
215.5218319836815
 20
83.80176593121287
 30
0.0
 10
215.5809867229081
 20
83.65096924512714
 30
0.0
  0
LINE
  5
1A7
330
1F
100
AcDbEntity
  8
0
  6
Continuous
 62
     7
370
    25
100
AcDbLine
 10
215.5809867229
 20
83.6509692451
 30
0.0
 11
207.809614109
 21
83.6509692451
 31
0.0
  0
SPLINE
  5
1A8
330
1F
100
AcDbEntity
  8
0
  6
Continuous
 62
     7
370
    25
100
AcDbSpline
210
0.0
220
0.0
230
1.0
 70
     8
 71
     3
 72
    10
 73
     6
 74
     0
 42
0.00000001
 43
0.00000001
 40
0.0
 40
0.0
 40
0.0
 40
0.0
 40
0.4976498059513298
 40
0.748825596134853
 40
0.9999999999999999
 40
0.9999999999999999
 40
0.9999999999999999
 40
0.9999999999999999
 10
207.8096141090494
 20
83.65096924512716
 30
0.0
 10
207.9186559669089
 20
83.93737353561946
 30
0.0
 10
208.0827338651394
 20
84.36833293919743
 30
0.0
 10
208.1801237499278
 20
84.76220291619113
 30
0.0
 10
208.1902415366023
 20
84.90351426612949
 30
0.0
 10
208.1953004159787
 20
84.97416974611266
 30
0.0
  0
LINE
  5
1A9
330
1F
100
AcDbEntity
  8
0
  6
Continuous
 62
     7
370
    25
100
AcDbLine
 10
215.195300416
 20
85.2219940531
 30
0.0
 11
215.195300416
 21
84.9741697461
 31
0.0
  0
LINE
  5
1AA
330
1F
100
AcDbEntity
  8
0
  6
Continuous
 62
     7
370
    25
100
AcDbLine
 10
208.195300416
 20
84.9741697461
 30
0.0
 11
208.195300416
 21
85.2219940531
 31
0.0
  0
SPLINE
  5
1AB
330
1F
100
AcDbEntity
  8
0
  6
Continuous
 62
     7
370
    25
100
AcDbSpline
210
0.0
220
0.0
230
1.0
 70
     8
 71
     3
 72
    16
 73
    12
 74
     0
 42
0.00000001
 43
0.00000001
 40
0.0
 40
0.0
 40
0.0
 40
0.0
 40
0.0155634360124117
 40
0.0359329243097674
 40
0.0739120889290614
 40
0.1570057548437684
 40
0.2406581385754913
 40
0.4592958294318596
 40
0.6783839187935412
 40
0.8974954344294845
 40
1.0
 40
1.0
 40
1.0
 40
1.0
 10
205.0355781937565
 20
79.22199405313721
 30
0.0
 10
205.0492718607698
 20
79.22718742491638
 30
0.0
 10
205.0808878548165
 20
79.23917790278415
 30
0.0
 10
205.1363675451265
 20
79.35750382678111
 30
0.0
 10
205.2149683556171
 20
79.66875513423007
 30
0.0
 10
205.2943085422461
 20
80.19440263559513
 30
0.0
 10
205.3995362503493
 20
81.23294879986527
 30
0.0
 10
205.5145296515686
 20
82.6680228422114
 30
0.0
 10
205.6169296519835
 20
84.50627494365084
 30
0.0
 10
205.6866785318638
 20
86.02745779247027
 30
0.0
 10
205.7261371512926
 20
86.93328983326678
 30
0.0
 10
205.7387132906056
 20
87.22199405313475
 30
0.0
  0
LINE
  5
1AC
330
1F
100
AcDbEntity
  8
0
  6
Continuous
 62
     7
370
    25
100
AcDbLine
 10
205.7387132906
 20
87.2219940531
 30
0.0
 11
205.5185525753
 21
88.2167376311
 31
0.0
  0
LINE
  5
1AD
330
1F
100
AcDbEntity
  8
0
  6
Continuous
 62
     7
370
    25
100
AcDbLine
 10
205.5185525753
 20
88.2167376311
 30
0.0
 11
208.195300416
 21
88.2167376311
 31
0.0
  0
ELLIPSE
  5
1AE
330
1F
100
AcDbEntity
  8
0
  6
Continuous
 62
     7
370
    25
100
AcDbEllipse
 10
143.195300416
 20
85.5698684855
 30
0.0
 11
65.0
 21
0.0
 31
0.0
210
0.0
220
0.0
230
1.0
 40
0.2713992096
 41
6.084179739699224
 42
6.174194364446292
  0
SPLINE
  5
1AF
330
1F
100
AcDbEntity
  8
0
  6
Continuous
 62
     7
370
    25
100
AcDbSpline
210
0.0
220
0.0
230
1.0
 70
     8
 71
     3
 72
    13
 73
     9
 74
     0
 42
0.00000001
 43
0.00000001
 40
0.0
 40
0.0
 40
0.0
 40
0.0
 40
0.1610294006389558
 40
0.3266880383557516
 40
0.4877296220820637
 40
0.6535536198224136
 40
0.8237602734841889
 40
1.0
 40
1.0
 40
1.0
 40
1.0
 10
206.9124380858742
 20
82.08234780464429
 30
0.0
 10
206.8686343184418
 20
82.01295091006702
 30
0.0
 10
206.7797675226995
 20
81.87216211455848
 30
0.0
 10
206.6507475040276
 20
81.52603729685084
 30
0.0
 10
206.5297374082602
 20
81.08683065379878
 30
0.0
 10
206.4230564251356
 20
80.55322881685919
 30
0.0
 10
206.3323891377798
 20
79.9294025101595
 30
0.0
 10
206.295570328883
 20
79.46051861195753
 30
0.0
 10
206.2768403401116
 20
79.22199405313712
 30
0.0
  0
LINE
  5
1B0
330
1F
100
AcDbEntity
  8
0
  6
Continuous
 62
     7
370
    25
100
AcDbLine
 10
206.2768403401
 20
79.2219940531
 30
0.0
 11
205.0355781938
 21
79.2219940531
 31
0.0
  0
SPLINE
  5
1B1
330
1F
100
AcDbEntity
  8
0
  6
Continuous
 62
     7
370
    25
100
AcDbSpline
210
0.0
220
0.0
230
1.0
 70
     8
 71
     3
 72
    17
 73
    13
 74
     0
 42
0.00000001
 43
0.00000001
 40
0.0
 40
0.0
 40
0.0
 40
0.0
 40
0.3241697628029873
 40
0.5422758463620719
 40
0.689509052693928
 40
0.7894036290694505
 40
0.8577090008137825
 40
0.9049823971474137
 40
0.9551712229700868
 40
0.9753097783197817
 40
0.9919572060138848
 40
1.0
 40
1.0
 40
1.0
 40
1.0
 10
217.6518875413518
 20
87.22199405313475
 30
0.0
 10
217.6925379800786
 20
86.30938055052907
 30
0.0
 10
217.7605386192342
 20
84.78274754426774
 30
0.0
 10
217.8719715185506
 20
82.85597464198675
 30
0.0
 10
217.9644761786091
 20
81.56833917105399
 30
0.0
 10
218.0423776349265
 20
80.70918720433225
 30
0.0
 10
218.1084301343489
 20
80.13571931595486
 30
0.0
 10
218.1717867417113
 20
79.71418716192488
 30
0.0
 10
218.2299132094052
 20
79.43369461912945
 30
0.0
 10
218.2892550377279
 20
79.27814595054879
 30
0.0
 10
218.3262611063507
 20
79.22753535135129
 30
0.0
 10
218.3479556732212
 20
79.22335559954666
 30
0.0
 10
218.3550226382009
 20
79.22199405313718
 30
0.0
  0
LINE
  5
1B2
330
1F
100
AcDbEntity
  8
0
  6
Continuous
 62
     7
370
    25
100
AcDbLine
 10
218.3550226382
 20
79.2219940531
 30
0.0
 11
217.1137604918
 21
79.2219940531
 31
0.0
  0
SPLINE
  5
1B3
330
1F
100
AcDbEntity
  8
0
  6
Continuous
 62
     7
370
    25
100
AcDbSpline
210
0.0
220
0.0
230
1.0
 70
     8
 71
     3
 72
    14
 73
    10
 74
     0
 42
0.00000001
 43
0.00000001
 40
0.0
 40
0.0
 40
0.0
 40
0.0
 40
0.1576095309202822
 40
0.3152382602707094
 40
0.4726926441579498
 40
0.6301650083177254
 40
0.7907313191165901
 40
0.9513050385928076
 40
1.0
 40
1.0
 40
1.0
 40
1.0
 10
217.1137604918458
 20
79.22199405313712
 30
0.0
 10
217.0972551550034
 20
79.43549584161453
 30
0.0
 10
217.064242470802
 20
79.86252542524002
 30
0.0
 10
216.9844387808901
 20
80.44777250409635
 30
0.0
 10
216.8866513734039
 20
80.96992704491876
 30
0.0
 10
216.7730615337219
 20
81.41890517233863
 30
0.0
 10
216.6485194346901
 20
81.77818690414502
 30
0.0
 10
216.5481620939137
 20
81.9827530832462
 30
0.0
 10
216.4913762962986
 20
82.0635476315975
 30
0.0
 10
216.4781627460833
 20
82.08234780464427
 30
0.0
  0
ELLIPSE
  5
1B4
330
1F
100
AcDbEntity
  8
0
  6
Continuous
 62
     7
370
    25
100
AcDbEllipse
 10
280.195300416
 20
85.5698684855
 30
0.0
 11
65.00000000000006
 21
0.0
 31
0.0
210
0.0
220
0.0
230
1.0
 40
0.2713992096
 41
3.25058359632319
 42
3.340598221070255
  0
LINE
  5
1B5
330
1F
100
AcDbEntity
  8
0
  6
Continuous
 62
     7
370
    25
100
AcDbLine
 10
217.8720482566
 20
88.2167376311
 30
0.0
 11
217.6518875414
 21
87.2219940531
 31
0.0
  0
LINE
  5
1B6
330
1F
100
AcDbEntity
  8
0
  6
Continuous
 62
     7
370
    25
100
AcDbLine
 10
215.195300416
 20
88.2167376311
 30
0.0
 11
217.8720482566
 21
88.2167376311
 31
0.0
  0
LINE
  5
1B7
330
1F
100
AcDbEntity
  8
0
  6
Continuous
 62
     7
370
    25
100
AcDbLine
 10
206.9124380859
 20
82.0823478046
 30
0.0
 11
216.4781627461
 21
82.0823478046
 31
0.0
  0
SPLINE
  5
1B8
330
1F
100
AcDbEntity
  8
0
  6
Continuous
 62
     7
370
    25
100
AcDbSpline
210
0.0
220
0.0
230
1.0
 70
     8
 71
     3
 72
    16
 73
    12
 74
     0
 42
0.00000001
 43
0.00000001
 40
0.0
 40
0.0
 40
0.0
 40
0.0
 40
0.1082397394540288
 40
0.2409347985297594
 40
0.3278143823752722
 40
0.4147786007912546
 40
0.5911316736061375
 40
0.6905102391473411
 40
0.7897210831517909
 40
0.9112972329116562
 40
1.0
 40
1.0
 40
1.0
 40
1.0
 10
214.2933766273321
 20
79.22199405313712
 30
0.0
 10
214.1753227441047
 20
79.40505124782797
 30
0.0
 10
213.9125422836702
 20
79.81252495891349
 30
0.0
 10
213.3358645225929
 20
80.15675462738743
 30
0.0
 10
212.7503069301988
 20
80.3607371715052
 30
0.0
 10
212.0432849171667
 20
80.49215120186729
 30
0.0
 10
211.2834619825514
 20
80.48913095781174
 30
0.0
 10
210.5294934763007
 20
80.33437122310342
 30
0.0
 10
209.9291172737342
 20
80.0938248917602
 30
0.0
 10
209.4124631625965
 20
79.73338305333054
 30
0.0
 10
209.1907502276845
 20
79.37371444877623
 30
0.0
 10
209.0972242046254
 20
79.22199405313712
 30
0.0
  0
LINE
  5
1B9
330
1F
100
AcDbEntity
  8
0
  6
Continuous
 62
     7
370
    25
100
AcDbLine
 10
209.0972242046
 20
79.2219940531
 30
0.0
 11
206.2768403401
 21
79.2219940531
 31
0.0
  0
LINE
  5
1BA
330
1F
100
AcDbEntity
  8
0
  6
Continuous
 62
     7
370
    25
100
AcDbLine
 10
217.1137604918
 20
79.2219940531
 30
0.0
 11
214.2933766273
 21
79.2219940531
 31
0.0
  0
LINE
  5
1BB
330
1F
100
AcDbEntity
  8
0
  6
Continuous
 62
     7
370
    25
100
AcDbLine
 10
214.2933766273
 20
79.2219940531
 30
0.0
 11
209.0972242046
 21
79.2219940531
 31
0.0
  0
LINE
  5
1BC
330
1F
100
AcDbEntity
  8
0
  6
Continuous
 62
     7
370
    25
100
AcDbLine
 10
217.6518875414
 20
87.2219940531
 30
0.0
 11
219.145300416
 21
87.2219940531
 31
0.0
  0
LINE
  5
1BD
330
1F
100
AcDbEntity
  8
0
  6
Continuous
 62
     7
370
    25
100
AcDbLine
 10
204.245300416
 20
87.2219940531
 30
0.0
 11
205.7387132906
 21
87.2219940531
 31
0.0
  0
SPLINE
  5
1BE
330
1F
100
AcDbEntity
  8
0
  6
Continuous
 62
     7
370
    25
100
AcDbSpline
210
0.0
220
0.0
230
1.0
 70
     8
 71
     3
 72
     9
 73
     5
 74
     0
 42
0.00000001
 43
0.00000001
 40
0.0
 40
0.0
 40
0.0
 40
0.0
 40
0.4875141023677128
 40
0.9999999999999999
 40
0.9999999999999999
 40
0.9999999999999999
 40
0.9999999999999999
 10
218.3550226382009
 20
79.22199405313718
 30
0.0
 10
218.3635487497367
 20
79.22372139910888
 30
0.0
 10
218.381037703378
 20
79.22726457040035
 30
0.0
 10
218.3973594072644
 20
79.24878305634968
 30
0.0
 10
218.4057240503315
 20
79.2598109769371
 30
0.0
  0
SPLINE
  5
1BF
330
1F
100
AcDbEntity
  8
0
  6
Continuous
 62
     7
370
    25
100
AcDbSpline
210
0.0
220
0.0
230
1.0
 70
     8
 71
     3
 72
     9
 73
     5
 74
     0
 42
0.00000001
 43
0.00000001
 40
0.0
 40
0.0
 40
0.0
 40
0.0
 40
0.5124861829376838
 40
0.9999999999999999
 40
0.9999999999999999
 40
0.9999999999999999
 40
0.9999999999999999
 10
204.9848768124922
 20
79.25981093107734
 30
0.0
 10
204.9932414556158
 20
79.24878301812616
 30
0.0
 10
205.009563150526
 20
79.22726455905675
 30
0.0
 10
205.0270520927678
 20
79.22372139471159
 30
0.0
 10
205.0355781937565
 20
79.22199405313721
 30
0.0
  0
LINE
  5
1C0
330
1F
100
AcDbEntity
  8
0
  6
Continuous
 62
     7
370
    25
100
AcDbLine
 10
218.4035043485
 20
79.2219940531
 30
0.0
 11
218.695300416
 21
79.2219940531
 31
0.0
  0
LINE
  5
1C1
330
1F
100
AcDbEntity
  8
0
  6
Continuous
 62
     7
370
    25
100
AcDbLine
 10
204.695300416
 20
79.2219940531
 30
0.0
 11
204.9870964835
 21
79.2219940531
 31
0.0
  0
LINE
  5
1C2
330
1F
100
AcDbEntity
  8
0
  6
Continuous
 62
     7
370
    25
100
AcDbLine
 10
218.4057240503
 20
79.2598109769
 30
0.0
 11
218.4035043485
 21
79.2219940531
 31
0.0
  0
LINE
  5
1C3
330
1F
100
AcDbEntity
  8
0
  6
Continuous
 62
     7
370
    25
100
AcDbLine
 10
218.4035043485
 20
79.2219940531
 30
0.0
 11
218.3550226382
 21
79.2219940531
 31
0.0
  0
LINE
  5
1C4
330
1F
100
AcDbEntity
  8
0
  6
Continuous
 62
     7
370
    25
100
AcDbLine
 10
204.9870964835
 20
79.2219940531
 30
0.0
 11
204.9848768125
 21
79.2598109311
 31
0.0
  0
LINE
  5
1C5
330
1F
100
AcDbEntity
  8
0
  6
Continuous
 62
     7
370
    25
100
AcDbLine
 10
205.0355781938
 20
79.2219940531
 30
0.0
 11
204.9870964835
 21
79.2219940531
 31
0.0
  0
CIRCLE
  5
1C6
330
1F
100
AcDbEntity
  8
0
  6
Continuous
 62
     7
370
    25
100
AcDbCircle
 10
211.695300416
 20
68.7219940531
 30
0.0
 40
6.00000000000002
  0
CIRCLE
  5
1C7
330
1F
100
AcDbEntity
  8
0
  6
Continuous
 62
     7
370
    25
100
AcDbCircle
 10
211.695300416
 20
68.7219940531
 30
0.0
 40
5.010000000000009
  0
CIRCLE
  5
1C8
330
1F
100
AcDbEntity
  8
0
  6
Continuous
 62
     7
370
    25
100
AcDbCircle
 10
211.695300416
 20
68.7219940531
 30
0.0
 40
2.999999999999999
  0
CIRCLE
  5
1C9
330
1F
100
AcDbEntity
  8
0
  6
Continuous
 62
     7
370
    25
100
AcDbCircle
 10
211.695300416
 20
68.7219940531
 30
0.0
 40
2.900000000000007
  0
CIRCLE
  5
1CA
330
1F
100
AcDbEntity
  8
0
  6
Continuous
 62
     7
370
    25
100
AcDbCircle
 10
211.695300416
 20
68.7219940531
 30
0.0
 40
8.00000000000001
  0
CIRCLE
  5
1CB
330
1F
100
AcDbEntity
  8
0
  6
Continuous
 62
     7
370
    25
100
AcDbCircle
 10
211.695300416
 20
68.7219940531
 30
0.0
 40
7.800000000000029
  0
SPLINE
  5
1CC
330
1F
100
AcDbEntity
  8
0
  6
Continuous
 62
     7
370
    25
100
AcDbSpline
210
0.0
220
0.0
230
1.0
 70
     8
 71
     3
 72
    18
 73
    14
 74
     0
 42
0.00000001
 43
0.00000001
 40
0.0
 40
0.0
 40
0.0
 40
0.0
 40
0.0468482616128918
 40
0.1374798842167751
 40
0.2589429285613984
 40
0.3806196605720601
 40
0.3961192399372785
 40
0.5263333916152385
 40
0.6565458844057411
 40
0.7575326626984138
 40
0.8583162899695422
 40
0.9376391951245244
 40
1.0
 40
1.0
 40
1.0
 40
1.0
 10
212.3097582029653
 20
78.18219126063842
 30
0.0
 10
212.4524064327668
 20
78.17152115259827
 30
0.0
 10
212.8710188090147
 20
78.14020888683991
 30
0.0
 10
213.6247095408795
 20
77.96766589493822
 30
0.0
 10
214.5222353965149
 20
77.65288538321813
 30
0.0
 10
215.1320190888102
 20
77.33778763804531
 30
0.0
 10
215.7077567587017
 20
76.99146292021508
 30
0.0
 10
216.2451293089015
 20
76.61090629866024
 30
0.0
 10
216.8110487972702
 20
76.11328086253086
 30
0.0
 10
217.21262884379
 20
75.70004605004527
 30
0.0
 10
217.4519639204634
 20
75.42667427707393
 30
0.0
 10
217.57711294685
 20
75.2749872417112
 30
0.0
 10
217.5844294161119
 20
75.26555720633813
 30
0.0
 10
217.5876496939541
 20
75.26140666146784
 30
0.0
  0
SPLINE
  5
1CD
330
1F
100
AcDbEntity
  8
0
  6
Continuous
 62
     7
370
    25
100
AcDbSpline
210
0.0
220
0.0
230
1.0
 70
     8
 71
     3
 72
    19
 73
    15
 74
     0
 42
0.00000001
 43
0.00000001
 40
0.0
 40
0.0
 40
0.0
 40
0.0
 40
0.0663389399261943
 40
0.1059253903440237
 40
0.1953099057486755
 40
0.2848606784750018
 40
0.4058539227372187
 40
0.52693339712631
 40
0.6283677103195434
 40
0.7297347462875277
 40
0.8191458470735202
 40
0.9084829714226771
 40
0.9868723793755738
 40
1.0
 40
1.0
 40
1.0
 40
1.0
 10
205.7972429325706
 20
75.25456253338295
 30
0.0
 10
205.8019827755917
 20
75.26035994432921
 30
0.0
 10
205.8095510261961
 20
75.26961684560243
 30
0.0
 10
205.8908081937875
 20
75.3686248387585
 30
0.0
 10
206.0404767536646
 20
75.54546250148884
 30
0.0
 10
206.3488655990674
 20
75.88227326182114
 30
0.0
 10
206.8061094515959
 20
76.32286128714031
 30
0.0
 10
207.404436892013
 20
76.80488007102771
 30
0.0
 10
208.0743214025636
 20
77.24080780852333
 30
0.0
 10
208.7644754193999
 20
77.59715861067404
 30
0.0
 10
209.5005620322773
 20
77.88400078757286
 30
0.0
 10
210.2333689263544
 20
78.07598361276968
 30
0.0
 10
210.7739303076771
 20
78.17568410978704
 30
0.0
 10
211.0548997051125
 20
78.1886259289905
 30
0.0
 10
211.0952032389351
 20
78.19048236265466
 30
0.0
  0
LINE
  5
1CE
330
1F
100
AcDbEntity
  8
0
  6
Continuous
 62
     7
370
    25
100
AcDbLine
 10
208.195300416
 20
95.8219940531
 30
0.0
 11
206.195300416
 21
95.8219940531
 31
0.0
  0
LINE
  5
1CF
330
1F
100
AcDbEntity
  8
0
  6
Continuous
 62
     7
370
    25
100
AcDbLine
 10
217.195300416
 20
95.8219940531
 30
0.0
 11
215.195300416
 21
95.8219940531
 31
0.0
  0
INSERT
  5
1DB
330
1F
100
AcDbEntity
  8
0
  6
Continuous
 62
     7
370
    18
100
AcDbBlockReference
  2
SW_CENTERMARKSYMBOL_0
 10
211.695300416
 20
68.7219940531
 30
0.0
  0
LINE
  5
1DC
330
1F
100
AcDbEntity
  8
0
  6
Continuous
 62
     7
370
    18
100
AcDbLine
 10
205.6943250302
 20
56.2219940531
 30
0.0
 11
206.0147719959
 21
45.9676911509
 31
0.0
  0
LINE
  5
1DD
330
1F
100
AcDbEntity
  8
0
  6
Continuous
 62
     7
370
    18
100
AcDbLine
 10
217.3758288361
 20
45.9676911509
 30
0.0
 11
217.6962758018
 21
56.2219940531
 31
0.0
  0
LINE
  5
1DE
330
1F
100
AcDbEntity
  8
0
  6
Continuous
 62
     7
370
    25
100
AcDbLine
 10
165.8459046652
 20
125.650651886
 30
0.0
 11
165.9902422325
 21
125.900651886
 31
0.0
  0
LINE
  5
1DF
330
1F
100
AcDbEntity
  8
0
  6
Continuous
 62
     7
370
    25
100
AcDbLine
 10
165.9902422325
 20
142.400651886
 30
0.0
 11
165.8459046652
 21
142.650651886
 31
0.0
  0
LINE
  5
1E0
330
1F
100
AcDbEntity
  8
0
  6
Continuous
 62
     7
370
    25
100
AcDbLine
 10
142.1345797998
 20
142.650651886
 30
0.0
 11
142.0902422325
 21
142.5738569668
 31
0.0
  0
LINE
  5
1E1
330
1F
100
AcDbEntity
  8
0
  6
Continuous
 62
     7
370
    25
100
AcDbLine
 10
142.0902422325
 20
125.7274468053
 30
0.0
 11
142.1345797998
 21
125.650651886
 31
0.0
  0
LINE
  5
1E2
330
1F
100
AcDbEntity
  8
0
  6
Continuous
 62
     7
370
    25
100
AcDbLine
 10
142.0902422325
 20
142.150651886
 30
0.0
 11
139.2902422325
 21
142.150651886
 31
0.0
  0
LINE
  5
1E3
330
1F
100
AcDbEntity
  8
0
  6
Continuous
 62
     7
370
    25
100
AcDbLine
 10
139.2902422325
 20
126.150651886
 30
0.0
 11
142.0902422325
 21
126.150651886
 31
0.0
  0
LINE
  5
1E4
330
1F
100
AcDbEntity
  8
0
  6
Continuous
 62
     7
370
    25
100
AcDbLine
 10
139.2902422325
 20
142.150651886
 30
0.0
 11
139.0902422325
 21
141.950651886
 31
0.0
  0
LINE
  5
1E5
330
1F
100
AcDbEntity
  8
0
  6
Continuous
 62
     7
370
    25
100
AcDbLine
 10
139.0902422325
 20
126.350651886
 30
0.0
 11
139.2902422325
 21
126.150651886
 31
0.0
  0
ARC
  5
1E6
330
1F
100
AcDbEntity
  8
0
  6
Continuous
 62
     7
370
    25
100
AcDbCircle
 10
130.6002422325
 20
139.160651886
 30
0.0
 40
0.9900000000000033
100
AcDbArc
 50
19.1995397339
 51
90.0
  0
ARC
  5
1E7
330
1F
100
AcDbEntity
  8
0
  6
Continuous
 62
     7
370
    25
100
AcDbCircle
 10
130.6002422325
 20
129.140651886
 30
0.0
 40
0.9900000000000126
100
AcDbArc
 50
270.0
 51
340.8004602661
  0
ARC
  5
1E8
330
1F
100
AcDbEntity
  8
0
  6
Continuous
 62
     7
370
    25
100
AcDbCircle
 10
130.5802422325
 20
139.160651886
 30
0.0
 40
0.9899999999999807
100
AcDbArc
 50
90.0
 51
180.0
  0
ARC
  5
1E9
330
1F
100
AcDbEntity
  8
0
  6
Continuous
 62
     7
370
    25
100
AcDbCircle
 10
130.5802422325
 20
129.140651886
 30
0.0
 40
0.9899999999999807
100
AcDbArc
 50
180.0
 51
270.0
  0
LINE
  5
1EA
330
1F
100
AcDbEntity
  8
0
  6
Continuous
 62
     7
370
    25
100
AcDbLine
 10
130.6002422325
 20
140.150651886
 30
0.0
 11
130.5802422325
 21
140.150651886
 31
0.0
  0
LINE
  5
1EB
330
1F
100
AcDbEntity
  8
0
  6
Continuous
 62
     7
370
    25
100
AcDbLine
 10
130.5802422325
 20
128.150651886
 30
0.0
 11
130.6002422325
 21
128.150651886
 31
0.0
  0
ARC
  5
1EC
330
1F
100
AcDbEntity
  8
0
  6
Continuous
 62
     7
370
    25
100
AcDbCircle
 10
132.0073669604
 20
139.650651886
 30
0.0
 40
0.5
100
AcDbArc
 50
199.1995397339
 51
270.0
  0
ARC
  5
1ED
330
1F
100
AcDbEntity
  8
0
  6
Continuous
 62
     7
370
    25
100
AcDbCircle
 10
132.0073669604
 20
128.650651886
 30
0.0
 40
0.5
100
AcDbArc
 50
90.0
 51
160.8004602661
  0
LINE
  5
1EE
330
1F
100
AcDbEntity
  8
0
  6
Continuous
 62
     7
370
    25
100
AcDbLine
 10
139.0902422325
 20
139.150651886
 30
0.0
 11
132.0073669604
 21
139.150651886
 31
0.0
  0
LINE
  5
1EF
330
1F
100
AcDbEntity
  8
0
  6
Continuous
 62
     7
370
    25
100
AcDbLine
 10
132.0073669604
 20
129.150651886
 30
0.0
 11
139.0902422325
 21
129.150651886
 31
0.0
  0
SPLINE
  5
1F0
330
1F
100
AcDbEntity
  8
0
  6
Continuous
 62
     7
370
    25
100
AcDbSpline
210
0.0
220
0.0
230
1.0
 70
    24
 71
     3
 72
    10
 73
     6
 74
     0
 42
0.00000001
 43
0.00000001
 40
0.0
 40
0.0
 40
0.0
 40
0.0
 40
0.3696206477394096
 40
0.7422868690073858
 40
1.0
 40
1.0
 40
1.0
 40
1.0
 10
165.1681832599428
 20
125.6506518860336
 30
0.0
 10
165.3093860178641
 20
125.6506518860336
 30
0.0
 10
165.5929550059974
 20
125.6506518860336
 30
0.0
 10
165.8120934940574
 20
125.6506518860336
 30
0.0
 10
165.8344844615403
 20
125.6506518860336
 30
0.0
 10
165.8436383881644
 20
125.6506518860336
 30
0.0
  0
SPLINE
  5
1F1
330
1F
100
AcDbEntity
  8
0
  6
Continuous
 62
     7
370
    25
100
AcDbSpline
210
0.0
220
0.0
230
1.0
 70
     8
 71
     3
 72
    10
 73
     6
 74
     0
 42
0.00000001
 43
0.00000001
 40
0.0
 40
0.0
 40
0.0
 40
0.0
 40
0.5
 40
0.5
 40
1.0
 40
1.0
 40
1.0
 40
1.0
 10
165.1681832599428
 20
125.9006518860336
 30
0.0
 10
165.1445078655183
 20
125.8262715086562
 30
0.0
 10
165.1314167556337
 20
125.7619708698705
 30
0.0
 10
165.1313304343454
 20
125.6737551850875
 30
0.0
 10
165.1444993682893
 20
125.6506518860336
 30
0.0
 10
165.1681832599428
 20
125.6506518860336
 30
0.0
  0
SPLINE
  5
1F2
330
1F
100
AcDbEntity
  8
0
  6
Continuous
 62
     7
370
    25
100
AcDbSpline
210
0.0
220
0.0
230
1.0
 70
     8
 71
     3
 72
    16
 73
    12
 74
     0
 42
0.00000001
 43
0.00000001
 40
0.0
 40
0.0
 40
0.0
 40
0.0
 40
0.2500000000000001
 40
0.2500000000000001
 40
0.5000000000000001
 40
0.5000000000000001
 40
0.6250000000000001
 40
0.6250000000000001
 40
0.7500000000000002
 40
0.7500000000000002
 40
1.0
 40
1.0
 40
1.0
 40
1.0
 10
165.1681832599428
 20
133.9006518860336
 30
0.0
 10
165.3761987080485
 20
133.2471351059928
 30
0.0
 10
165.5464050130215
 20
132.5889146969028
 30
0.0
 10
165.7813410445891
 20
131.259352113537
 30
0.0
 10
165.8454131762527
 20
130.5879281314665
 30
0.0
 10
165.8461461251737
 20
129.5689270444597
 30
0.0
 10
165.8304866450907
 20
129.2275862621436
 30
0.0
 10
165.7692115184538
 20
128.5519877591731
 30
0.0
 10
165.7236552459546
 20
128.2163286092085
 30
0.0
 10
165.5471692131984
 20
127.2150629727088
 30
0.0
 10
165.3765127597127
 20
126.5551553141056
 30
0.0
 10
165.1681832599428
 20
125.9006518860336
 30
0.0
  0
SPLINE
  5
1F3
330
1F
100
AcDbEntity
  8
0
  6
Continuous
 62
     7
370
    25
100
AcDbSpline
210
0.0
220
0.0
230
1.0
 70
     8
 71
     3
 72
    10
 73
     6
 74
     0
 42
0.00000001
 43
0.00000001
 40
0.0
 40
0.0
 40
0.0
 40
0.0
 40
0.5
 40
0.5
 40
1.0
 40
1.0
 40
1.0
 40
1.0
 10
165.1681832599428
 20
134.4006518860336
 30
0.0
 10
165.1445078655183
 20
134.3262715086562
 30
0.0
 10
165.1314167556337
 20
134.2391784205407
 30
0.0
 10
165.1313304343454
 20
134.0630200316647
 30
0.0
 10
165.1444993682893
 20
133.9750589589368
 30
0.0
 10
165.1681832599428
 20
133.9006518860336
 30
0.0
  0
SPLINE
  5
1F4
330
1F
100
AcDbEntity
  8
0
  6
Continuous
 62
     7
370
    25
100
AcDbSpline
210
0.0
220
0.0
230
1.0
 70
     8
 71
     3
 72
    16
 73
    12
 74
     0
 42
0.00000001
 43
0.00000001
 40
0.0
 40
0.0
 40
0.0
 40
0.0
 40
0.2499999999999997
 40
0.2499999999999997
 40
0.4999999999999993
 40
0.4999999999999993
 40
0.6249999999999993
 40
0.6249999999999993
 40
0.7499999999999996
 40
0.7499999999999996
 40
1.0
 40
1.0
 40
1.0
 40
1.0
 10
165.1681832599428
 20
142.4006518860336
 30
0.0
 10
165.3761987080485
 20
141.7471351059928
 30
0.0
 10
165.5464050130215
 20
141.0889146969028
 30
0.0
 10
165.7813410445891
 20
139.759352113537
 30
0.0
 10
165.8454131762527
 20
139.0879281314664
 30
0.0
 10
165.8461461251737
 20
138.0689270444597
 30
0.0
 10
165.8304866450907
 20
137.7275862621436
 30
0.0
 10
165.7692115184538
 20
137.0519877591731
 30
0.0
 10
165.7236552459546
 20
136.7163286092085
 30
0.0
 10
165.5471692131984
 20
135.7150629727088
 30
0.0
 10
165.3765127597127
 20
135.0551553141056
 30
0.0
 10
165.1681832599428
 20
134.4006518860336
 30
0.0
  0
SPLINE
  5
1F5
330
1F
100
AcDbEntity
  8
0
  6
Continuous
 62
     7
370
    25
100
AcDbSpline
210
0.0
220
0.0
230
1.0
 70
     8
 71
     3
 72
    10
 73
     6
 74
     0
 42
0.00000001
 43
0.00000001
 40
0.0
 40
0.0
 40
0.0
 40
0.0
 40
0.5
 40
0.5
 40
1.0
 40
1.0
 40
1.0
 40
1.0
 10
165.1681832599428
 20
142.6506518860336
 30
0.0
 10
165.1445078655183
 20
142.6506518860336
 30
0.0
 10
165.1314167556337
 20
142.6278594367038
 30
0.0
 10
165.1313304343454
 20
142.5399167326107
 30
0.0
 10
165.1444993682893
 20
142.4750589589368
 30
0.0
 10
165.1681832599428
 20
142.4006518860336
 30
0.0
  0
SPLINE
  5
1F6
330
1F
100
AcDbEntity
  8
0
  6
Continuous
 62
     7
370
    25
100
AcDbSpline
210
0.0
220
0.0
230
1.0
 70
    24
 71
     3
 72
    10
 73
     6
 74
     0
 42
0.00000001
 43
0.00000001
 40
0.0
 40
0.0
 40
0.0
 40
0.0
 40
0.2577093523435597
 40
0.6270769306220254
 40
1.0
 40
1.0
 40
1.0
 40
1.0
 10
165.8422966440382
 20
142.6506518860336
 30
0.0
 10
165.8336931425321
 20
142.6506518860336
 30
0.0
 10
165.8127584839023
 20
142.6506518860336
 30
0.0
 10
165.5937893239113
 20
142.6506518860336
 30
0.0
 10
165.3105042494505
 20
142.6506518860336
 30
0.0
 10
165.1681832599428
 20
142.6506518860336
 30
0.0
  0
LINE
  5
1F7
330
1F
100
AcDbEntity
  8
0
  6
Continuous
 62
     7
370
    25
100
AcDbLine
 10
165.9902422325
 20
142.400651886
 30
0.0
 11
165.9902422325
 21
125.900651886
 31
0.0
  0
SPLINE
  5
1F8
330
1F
100
AcDbEntity
  8
0
  6
Continuous
 62
     7
370
    25
100
AcDbSpline
210
0.0
220
0.0
230
1.0
 70
     8
 71
     3
 72
    11
 73
     7
 74
     0
 42
0.00000001
 43
0.00000001
 40
0.0
 40
0.0
 40
0.0
 40
0.0
 40
0.2728922242471614
 40
0.5457173061692318
 40
0.8242036621894181
 40
1.0
 40
1.0
 40
1.0
 40
1.0
 10
142.8123012050579
 20
125.9006518860336
 30
0.0
 10
142.7077477760846
 20
126.2486059772851
 30
0.0
 10
142.4986666424338
 20
126.9444285492626
 30
0.0
 10
142.2804955506097
 20
128.0140301193593
 30
0.0
 10
142.1533066999583
 20
128.9671827973784
 30
0.0
 10
142.1494409554356
 20
129.5657481419013
 30
0.0
 10
142.1479450064611
 20
129.7973783513202
 30
0.0
  0
SPLINE
  5
1F9
330
1F
100
AcDbEntity
  8
0
  6
Continuous
 62
     7
370
    25
100
AcDbSpline
210
0.0
220
0.0
230
1.0
 70
     8
 71
     3
 72
    10
 73
     6
 74
     0
 42
0.00000001
 43
0.00000001
 40
0.0
 40
0.0
 40
0.0
 40
0.0
 40
0.5
 40
0.5
 40
1.0
 40
1.0
 40
1.0
 40
1.0
 10
142.8123012050579
 20
125.6506518860336
 30
0.0
 10
142.8359765994823
 20
125.6506518860336
 30
0.0
 10
142.849067709367
 20
125.6734443353634
 30
0.0
 10
142.8491540306552
 20
125.7613870394564
 30
0.0
 10
142.8359850967114
 20
125.8262448131303
 30
0.0
 10
142.8123012050579
 20
125.9006518860336
 30
0.0
  0
SPLINE
  5
1FA
330
1F
100
AcDbEntity
  8
0
  6
Continuous
 62
     7
370
    25
100
AcDbSpline
210
0.0
220
0.0
230
1.0
 70
    24
 71
     3
 72
    10
 73
     6
 74
     0
 42
0.00000001
 43
0.00000001
 40
0.0
 40
0.0
 40
0.0
 40
0.0
 40
0.249451590581644
 40
0.6228784731851938
 40
1.0
 40
1.0
 40
1.0
 40
1.0
 10
142.1397035795669
 20
125.6506518860336
 30
0.0
 10
142.1470895811146
 20
125.6506518860336
 30
0.0
 10
142.1655323633645
 20
125.6506518860336
 30
0.0
 10
142.3825043894497
 20
125.6506518860336
 30
0.0
 10
142.6685662112319
 20
125.6506518860336
 30
0.0
 10
142.8123012050579
 20
125.6506518860336
 30
0.0
  0
SPLINE
  5
1FB
330
1F
100
AcDbEntity
  8
0
  6
Continuous
 62
     7
370
    25
100
AcDbSpline
210
0.0
220
0.0
230
1.0
 70
    24
 71
     3
 72
    10
 73
     6
 74
     0
 42
0.00000001
 43
0.00000001
 40
0.0
 40
0.0
 40
0.0
 40
0.0
 40
0.3736912241656335
 40
0.7505444045138879
 40
1.0
 40
1.0
 40
1.0
 40
1.0
 10
142.8123012050579
 20
142.6506518860336
 30
0.0
 10
142.6697250482661
 20
142.6506518860336
 30
0.0
 10
142.3833663387832
 20
142.6506518860336
 30
0.0
 10
142.166199293459
 20
142.6506518860336
 30
0.0
 10
142.1463207139492
 20
142.6506518860336
 30
0.0
 10
142.1384031769765
 20
142.6506518860336
 30
0.0
  0
SPLINE
  5
1FC
330
1F
100
AcDbEntity
  8
0
  6
Continuous
 62
     7
370
    25
100
AcDbSpline
210
0.0
220
0.0
230
1.0
 70
     8
 71
     3
 72
    10
 73
     6
 74
     0
 42
0.00000001
 43
0.00000001
 40
0.0
 40
0.0
 40
0.0
 40
0.0
 40
0.5
 40
0.5
 40
1.0
 40
1.0
 40
1.0
 40
1.0
 10
142.8123012050579
 20
142.4006518860336
 30
0.0
 10
142.8359765994823
 20
142.4750322634109
 30
0.0
 10
142.849067709367
 20
142.5393329021967
 30
0.0
 10
142.8491540306553
 20
142.6275485869796
 30
0.0
 10
142.8359850967114
 20
142.6506518860336
 30
0.0
 10
142.8123012050579
 20
142.6506518860336
 30
0.0
  0
SPLINE
  5
1FD
330
1F
100
AcDbEntity
  8
0
  6
Continuous
 62
     7
370
    25
100
AcDbSpline
210
0.0
220
0.0
230
1.0
 70
     8
 71
     3
 72
    10
 73
     6
 74
     0
 42
0.00000001
 43
0.00000001
 40
0.0
 40
0.0
 40
0.0
 40
0.0
 40
0.0492153451902603
 40
0.5206854070913425
 40
1.0
 40
1.0
 40
1.0
 40
1.0
 10
142.1431328729047
 20
138.5087601438335
 30
0.0
 10
142.1413286037173
 20
138.5734614037239
 30
0.0
 10
142.1222399102877
 20
139.257983715112
 30
0.0
 10
142.2992323115411
 20
140.5738492765642
 30
0.0
 10
142.6403401273758
 20
141.7883774928547
 30
0.0
 10
142.8123012050579
 20
142.4006518860336
 30
0.0
  0
LINE
  5
1FE
330
1F
100
AcDbEntity
  8
0
  6
Continuous
 62
     7
370
    25
100
AcDbLine
 10
142.0902422325
 20
125.7274468053
 30
0.0
 11
142.0902422325
 21
129.8333239814
 31
0.0
  0
LINE
  5
1FF
330
1F
100
AcDbEntity
  8
0
  6
Continuous
 62
     7
370
    25
100
AcDbLine
 10
142.0902422325
 20
138.4679797906
 30
0.0
 11
142.0902422325
 21
142.5738569668
 31
0.0
  0
SPLINE
  5
200
330
1F
100
AcDbEntity
  8
0
  6
Continuous
 62
     7
370
    25
100
AcDbSpline
210
0.0
220
0.0
230
1.0
 70
     8
 71
     3
 72
    10
 73
     6
 74
     0
 42
0.00000001
 43
0.00000001
 40
0.0
 40
0.0
 40
0.0
 40
0.0
 40
0.0462065521438292
 40
0.5191685984145291
 40
1.0
 40
1.0
 40
1.0
 40
1.0
 10
159.9918909733121
 20
138.5211794135342
 30
0.0
 10
159.9925379810375
 20
138.5817415153985
 30
0.0
 10
159.9998076447191
 20
139.262206516208
 30
0.0
 10
160.1461852780968
 20
140.573819969447
 30
0.0
 10
160.4930834800024
 20
141.7883676702295
 30
0.0
 10
160.6679636377605
 20
142.4006518860336
 30
0.0
  0
LINE
  5
201
330
1F
100
AcDbEntity
  8
0
  6
Continuous
 62
     7
370
    25
100
AcDbLine
 10
165.1681832599
 20
142.400651886
 30
0.0
 11
160.6679636378
 21
142.400651886
 31
0.0
  0
LINE
  5
202
330
1F
100
AcDbEntity
  8
0
  6
Continuous
 62
     7
370
    25
100
AcDbLine
 10
147.3125208272
 20
142.400651886
 30
0.0
 11
142.8123012051
 21
142.400651886
 31
0.0
  0
SPLINE
  5
203
330
1F
100
AcDbEntity
  8
0
  6
Continuous
 62
     7
370
    25
100
AcDbSpline
210
0.0
220
0.0
230
1.0
 70
     8
 71
     3
 72
     9
 73
     5
 74
     0
 42
0.00000001
 43
0.00000001
 40
0.0
 40
0.0
 40
0.0
 40
0.0
 40
0.7349271183512944
 40
1.0
 40
1.0
 40
1.0
 40
1.0
 10
147.3125208272401
 20
142.4006518860336
 30
0.0
 10
147.5043897121249
 20
141.7502397260256
 30
0.0
 10
147.7654617015694
 20
140.8652374669348
 30
0.0
 10
147.8741773395149
 20
139.9582197761184
 30
0.0
 10
147.9029949069453
 20
139.7177939831074
 30
0.0
  0
SPLINE
  5
204
330
1F
100
AcDbEntity
  8
0
  6
Continuous
 62
     7
370
    25
100
AcDbSpline
210
0.0
220
0.0
230
1.0
 70
     8
 71
     3
 72
     9
 73
     5
 74
     0
 42
0.00000001
 43
0.00000001
 40
0.0
 40
0.0
 40
0.0
 40
0.0
 40
0.3107600758301498
 40
1.0
 40
1.0
 40
1.0
 40
1.0
 10
147.8769022368532
 20
128.5955277608065
 30
0.0
 10
147.8523299393233
 20
128.3117598112003
 30
0.0
 10
147.7732583357264
 20
127.3986182216698
 30
0.0
 10
147.5005099227307
 20
126.5118487851895
 30
0.0
 10
147.3125208272401
 20
125.9006518860336
 30
0.0
  0
LINE
  5
205
330
1F
100
AcDbEntity
  8
0
  6
Continuous
 62
     7
370
    25
100
AcDbLine
 10
142.8123012051
 20
125.900651886
 30
0.0
 11
147.3125208272
 21
125.900651886
 31
0.0
  0
LINE
  5
206
330
1F
100
AcDbEntity
  8
0
  6
Continuous
 62
     7
370
    25
100
AcDbLine
 10
160.6679636378
 20
125.900651886
 30
0.0
 11
165.1681832599
 21
125.900651886
 31
0.0
  0
SPLINE
  5
207
330
1F
100
AcDbEntity
  8
0
  6
Continuous
 62
     7
370
    25
100
AcDbSpline
210
0.0
220
0.0
230
1.0
 70
     8
 71
     3
 72
    10
 73
     6
 74
     0
 42
0.00000001
 43
0.00000001
 40
0.0
 40
0.0
 40
0.0
 40
0.0
 40
0.5071780628999478
 40
0.7652704560580089
 40
1.0
 40
1.0
 40
1.0
 40
1.0
 10
160.6679636377605
 20
125.9006518860335
 30
0.0
 10
160.4829828198836
 20
126.5516505752554
 30
0.0
 10
160.2038691018154
 20
127.5339289903459
 30
0.0
 10
160.0224843973173
 20
128.8476404998394
 30
0.0
 10
160.0035422335222
 20
129.4983792880283
 30
0.0
 10
159.9945201402789
 20
129.8083241331701
 30
0.0
  0
LINE
  5
208
330
1F
100
AcDbEntity
  8
0
  6
Continuous
 62
     7
370
    25
100
AcDbLine
 10
159.9902422325
 20
129.7344883927
 30
0.0
 11
159.9902422325
 21
126.650651886
 31
0.0
  0
LINE
  5
209
330
1F
100
AcDbEntity
  8
0
  6
Continuous
 62
     7
370
    25
100
AcDbLine
 10
159.9902422325
 20
126.650651886
 30
0.0
 11
147.9902422325
 21
126.650651886
 31
0.0
  0
LINE
  5
20A
330
1F
100
AcDbEntity
  8
0
  6
Continuous
 62
     7
370
    25
100
AcDbLine
 10
147.9902422325
 20
128.6058362821
 30
0.0
 11
147.9902422325
 21
126.650651886
 31
0.0
  0
LINE
  5
20B
330
1F
100
AcDbEntity
  8
0
  6
Continuous
 62
     7
370
    25
100
AcDbLine
 10
147.9902422325
 20
141.650651886
 30
0.0
 11
147.9902422325
 21
139.69546749
 31
0.0
  0
LINE
  5
20C
330
1F
100
AcDbEntity
  8
0
  6
Continuous
 62
     7
370
    25
100
AcDbLine
 10
147.9902422325
 20
141.650651886
 30
0.0
 11
159.9902422325
 21
141.650651886
 31
0.0
  0
LINE
  5
20D
330
1F
100
AcDbEntity
  8
0
  6
Continuous
 62
     7
370
    25
100
AcDbLine
 10
159.9902422325
 20
141.650651886
 30
0.0
 11
159.9902422325
 21
138.5668153794
 31
0.0
  0
SPLINE
  5
20E
330
1F
100
AcDbEntity
  8
0
  6
Continuous
 62
     7
370
    25
100
AcDbSpline
210
0.0
220
0.0
230
1.0
 70
     8
 71
     3
 72
     8
 73
     4
 74
     0
 42
0.00000001
 43
0.00000001
 40
0.0
 40
0.0
 40
0.0
 40
0.0
 40
1.0
 40
1.0
 40
1.0
 40
1.0
 10
147.4740061555212
 20
142.6506518860336
 30
0.0
 10
147.6477092317409
 20
142.3181404638981
 30
0.0
 10
147.8200114508036
 20
141.9848133639992
 30
0.0
 10
147.9902422325003
 20
141.6506518860336
 30
0.0
  0
SPLINE
  5
20F
330
1F
100
AcDbEntity
  8
0
  6
Continuous
 62
     7
370
    25
100
AcDbSpline
210
0.0
220
0.0
230
1.0
 70
     8
 71
     3
 72
    10
 73
     6
 74
     0
 42
0.00000001
 43
0.00000001
 40
0.0
 40
0.0
 40
0.0
 40
0.0
 40
0.5
 40
0.5
 40
1.0
 40
1.0
 40
1.0
 40
1.0
 10
147.3125208272458
 20
142.6506518860336
 30
0.0
 10
147.2888454328215
 20
142.6506518860336
 30
0.0
 10
147.2757543229312
 20
142.6278594367041
 30
0.0
 10
147.2756680016428
 20
142.539916732611
 30
0.0
 10
147.2888369355866
 20
142.4750589589371
 30
0.0
 10
147.3125208272401
 20
142.4006518860336
 30
0.0
  0
SPLINE
  5
210
330
1F
100
AcDbEntity
  8
0
  6
Continuous
 62
     7
370
    25
100
AcDbSpline
210
0.0
220
0.0
230
1.0
 70
    24
 71
     3
 72
     8
 73
     4
 74
     0
 42
0.00000001
 43
0.00000001
 40
0.0
 40
0.0
 40
0.0
 40
0.0
 40
1.0
 40
1.0
 40
1.0
 40
1.0
 10
147.4740061555212
 20
142.6506518860336
 30
0.0
 10
147.4231074385988
 20
142.6506518860336
 30
0.0
 10
147.3691733023481
 20
142.6506518860336
 30
0.0
 10
147.3125208272405
 20
142.6506518860336
 30
0.0
  0
SPLINE
  5
211
330
1F
100
AcDbEntity
  8
0
  6
Continuous
 62
     7
370
    25
100
AcDbSpline
210
0.0
220
0.0
230
1.0
 70
     8
 71
     3
 72
     8
 73
     4
 74
     0
 42
0.00000001
 43
0.00000001
 40
0.0
 40
0.0
 40
0.0
 40
0.0
 40
1.0
 40
1.0
 40
1.0
 40
1.0
 10
159.9902422325003
 20
141.6506518860336
 30
0.0
 10
160.1605198398441
 20
141.9849052823189
 30
0.0
 10
160.3327915884697
 20
142.3181717718878
 30
0.0
 10
160.5064783094794
 20
142.6506518860334
 30
0.0
  0
SPLINE
  5
212
330
1F
100
AcDbEntity
  8
0
  6
Continuous
 62
     7
370
    25
100
AcDbSpline
210
0.0
220
0.0
230
1.0
 70
    24
 71
     3
 72
     8
 73
     4
 74
     0
 42
0.00000001
 43
0.00000001
 40
0.0
 40
0.0
 40
0.0
 40
0.0
 40
1.0
 40
1.0
 40
1.0
 40
1.0
 10
160.506478309479
 20
142.6506518860336
 30
0.0
 10
160.5573745427342
 20
142.6506518860336
 30
0.0
 10
160.611308497698
 20
142.6506518860336
 30
0.0
 10
160.6679636377605
 20
142.6506518860336
 30
0.0
  0
SPLINE
  5
213
330
1F
100
AcDbEntity
  8
0
  6
Continuous
 62
     7
370
    25
100
AcDbSpline
210
0.0
220
0.0
230
1.0
 70
     8
 71
     3
 72
    10
 73
     6
 74
     0
 42
0.00000001
 43
0.00000001
 40
0.0
 40
0.0
 40
0.0
 40
0.0
 40
0.5
 40
0.5
 40
1.0
 40
1.0
 40
1.0
 40
1.0
 10
160.6679636377605
 20
142.4006518860336
 30
0.0
 10
160.6916390321849
 20
142.4750322634109
 30
0.0
 10
160.7047301420696
 20
142.5393329021967
 30
0.0
 10
160.7048164633578
 20
142.6275485869796
 30
0.0
 10
160.691647529414
 20
142.6506518860336
 30
0.0
 10
160.6679636377605
 20
142.6506518860336
 30
0.0
  0
SPLINE
  5
214
330
1F
100
AcDbEntity
  8
0
  6
Continuous
 62
     7
370
    25
100
AcDbSpline
210
0.0
220
0.0
230
1.0
 70
     8
 71
     3
 72
     8
 73
     4
 74
     0
 42
0.00000001
 43
0.00000001
 40
0.0
 40
0.0
 40
0.0
 40
0.0
 40
1.0
 40
1.0
 40
1.0
 40
1.0
 10
147.9902422325003
 20
126.6506518860336
 30
0.0
 10
147.8199646251566
 20
126.3163984897482
 30
0.0
 10
147.6476928765309
 20
125.9831320001792
 30
0.0
 10
147.4740061555212
 20
125.6506518860336
 30
0.0
  0
SPLINE
  5
215
330
1F
100
AcDbEntity
  8
0
  6
Continuous
 62
     7
370
    25
100
AcDbSpline
210
0.0
220
0.0
230
1.0
 70
    24
 71
     3
 72
     8
 73
     4
 74
     0
 42
0.00000001
 43
0.00000001
 40
0.0
 40
0.0
 40
0.0
 40
0.0
 40
1.0
 40
1.0
 40
1.0
 40
1.0
 10
147.4740061555212
 20
125.6506518860336
 30
0.0
 10
147.4231074385987
 20
125.6506518860336
 30
0.0
 10
147.3691733023479
 20
125.6506518860336
 30
0.0
 10
147.3125208272401
 20
125.6506518860336
 30
0.0
  0
SPLINE
  5
216
330
1F
100
AcDbEntity
  8
0
  6
Continuous
 62
     7
370
    25
100
AcDbSpline
210
0.0
220
0.0
230
1.0
 70
     8
 71
     3
 72
    10
 73
     6
 74
     0
 42
0.00000001
 43
0.00000001
 40
0.0
 40
0.0
 40
0.0
 40
0.0
 40
0.5
 40
0.5
 40
1.0
 40
1.0
 40
1.0
 40
1.0
 10
147.3125208272401
 20
125.9006518860336
 30
0.0
 10
147.2888454328157
 20
125.8262715086562
 30
0.0
 10
147.2757543229311
 20
125.7619708698705
 30
0.0
 10
147.2756680016429
 20
125.6737551850875
 30
0.0
 10
147.2888369355867
 20
125.6506518860336
 30
0.0
 10
147.3125208272401
 20
125.6506518860336
 30
0.0
  0
SPLINE
  5
217
330
1F
100
AcDbEntity
  8
0
  6
Continuous
 62
     7
370
    25
100
AcDbSpline
210
0.0
220
0.0
230
1.0
 70
     8
 71
     3
 72
     8
 73
     4
 74
     0
 42
0.00000001
 43
0.00000001
 40
0.0
 40
0.0
 40
0.0
 40
0.0
 40
1.0
 40
1.0
 40
1.0
 40
1.0
 10
160.5064783094795
 20
125.6506518860336
 30
0.0
 10
160.3327752332598
 20
125.9831633081691
 30
0.0
 10
160.1604730141971
 20
126.3164904080679
 30
0.0
 10
159.9902422325003
 20
126.6506518860336
 30
0.0
  0
SPLINE
  5
218
330
1F
100
AcDbEntity
  8
0
  6
Continuous
 62
     7
370
    25
100
AcDbSpline
210
0.0
220
0.0
230
1.0
 70
     8
 71
     3
 72
    10
 73
     6
 74
     0
 42
0.00000001
 43
0.00000001
 40
0.0
 40
0.0
 40
0.0
 40
0.0
 40
0.5
 40
0.5
 40
1.0
 40
1.0
 40
1.0
 40
1.0
 10
160.6679636377606
 20
125.6506518860336
 30
0.0
 10
160.691639032185
 20
125.6506518860336
 30
0.0
 10
160.7047301420696
 20
125.6734443353634
 30
0.0
 10
160.7048164633578
 20
125.7613870394564
 30
0.0
 10
160.691647529414
 20
125.8262448131303
 30
0.0
 10
160.6679636377605
 20
125.9006518860335
 30
0.0
  0
SPLINE
  5
219
330
1F
100
AcDbEntity
  8
0
  6
Continuous
 62
     7
370
    25
100
AcDbSpline
210
0.0
220
0.0
230
1.0
 70
    24
 71
     3
 72
     8
 73
     4
 74
     0
 42
0.00000001
 43
0.00000001
 40
0.0
 40
0.0
 40
0.0
 40
0.0
 40
1.0
 40
1.0
 40
1.0
 40
1.0
 10
160.5064783094795
 20
125.6506518860336
 30
0.0
 10
160.5573745427346
 20
125.6506518860336
 30
0.0
 10
160.6113084976982
 20
125.6506518860336
 30
0.0
 10
160.6679636377605
 20
125.6506518860336
 30
0.0
  0
LINE
  5
21A
330
1F
100
AcDbEntity
  8
0
  6
Continuous
 62
     7
370
    25
100
AcDbLine
 10
142.8123012051
 20
142.650651886
 30
0.0
 11
147.3125208272
 21
142.650651886
 31
0.0
  0
LINE
  5
21B
330
1F
100
AcDbEntity
  8
0
  6
Continuous
 62
     7
370
    25
100
AcDbLine
 10
160.6679636378
 20
142.650651886
 30
0.0
 11
165.1681832599
 21
142.650651886
 31
0.0
  0
LINE
  5
21C
330
1F
100
AcDbEntity
  8
0
  6
Continuous
 62
     7
370
    25
100
AcDbLine
 10
165.1681832599
 20
125.650651886
 30
0.0
 11
160.6679636378
 21
125.650651886
 31
0.0
  0
LINE
  5
21D
330
1F
100
AcDbEntity
  8
0
  6
Continuous
 62
     7
370
    25
100
AcDbLine
 10
147.3125208272
 20
125.650651886
 30
0.0
 11
142.8123012051
 21
125.650651886
 31
0.0
  0
LINE
  5
21E
330
1F
100
AcDbEntity
  8
0
  6
Continuous
 62
     7
370
    25
100
AcDbLine
 10
160.5064783095
 20
142.650651886
 30
0.0
 11
147.4740061555
 21
142.650651886
 31
0.0
  0
LINE
  5
21F
330
1F
100
AcDbEntity
  8
0
  6
Continuous
 62
     7
370
    25
100
AcDbLine
 10
160.5064783095
 20
125.650651886
 30
0.0
 11
147.4740061555
 21
125.650651886
 31
0.0
  0
SPLINE
  5
220
330
1F
100
AcDbEntity
  8
0
  6
Continuous
 62
     7
370
    25
100
AcDbSpline
210
0.0
220
0.0
230
1.0
 70
     8
 71
     3
 72
    15
 73
    11
 74
     0
 42
0.00000001
 43
0.00000001
 40
0.0
 40
0.0
 40
0.0
 40
0.0
 40
0.0090459071881971
 40
0.1032433785236817
 40
0.1542564497735191
 40
0.3133169026715104
 40
0.5243720399414403
 40
0.667806000850918
 40
0.9918332554187028
 40
1.0
 40
1.0
 40
1.0
 40
1.0
 10
148.7511568998422
 20
135.8245649295118
 30
0.0
 10
148.7511625918089
 20
135.8245472837874
 30
0.0
 10
148.7512275557597
 20
135.8243458883748
 30
0.0
 10
148.7532232421956
 20
135.8181562677086
 30
0.0
 10
148.7610402384121
 20
135.7939543358645
 30
0.0
 10
148.778210062167
 20
135.7409353438628
 30
0.0
 10
148.8047939587345
 20
135.6595644566662
 30
0.0
 10
148.8426232572232
 20
135.5449853846438
 30
0.0
 10
148.8709040372334
 20
135.4605602069246
 30
0.0
 10
148.8907351847647
 20
135.4020893489726
 30
0.0
 10
148.8912227189076
 20
135.4006518860336
 30
0.0
  0
ARC
  5
221
330
1F
100
AcDbEntity
  8
0
  6
Continuous
 62
     7
370
    25
100
AcDbCircle
 10
153.9902422325
 20
134.150651886
 30
0.0
 40
5.500000000000029
100
AcDbArc
 50
17.7189318734
 51
162.2810681266
  0
SPLINE
  5
222
330
1F
100
AcDbEntity
  8
0
  6
Continuous
 62
     7
370
    25
100
AcDbSpline
210
0.0
220
0.0
230
1.0
 70
     8
 71
     3
 72
    15
 73
    11
 74
     0
 42
0.00000001
 43
0.00000001
 40
0.0
 40
0.0
 40
0.0
 40
0.0
 40
0.0081667445812973
 40
0.3321939991490804
 40
0.475627960058556
 40
0.6866830973284891
 40
0.8457435502264751
 40
0.8967566214763124
 40
0.9909540928118028
 40
1.0
 40
1.0
 40
1.0
 40
1.0
 10
159.0892617460931
 20
135.4006518860336
 30
0.0
 10
159.089749280236
 20
135.4020893489726
 30
0.0
 10
159.1095804277673
 20
135.4605602069246
 30
0.0
 10
159.1378612077775
 20
135.5449853846438
 30
0.0
 10
159.1756905062661
 20
135.6595644566662
 30
0.0
 10
159.2022744028337
 20
135.7409353438628
 30
0.0
 10
159.2194442265886
 20
135.7939543358645
 30
0.0
 10
159.2272612228051
 20
135.8181562677086
 30
0.0
 10
159.229256909241
 20
135.8243458883748
 30
0.0
 10
159.2293218731918
 20
135.8245472837874
 30
0.0
 10
159.2293275651585
 20
135.8245649295118
 30
0.0
  0
ARC
  5
223
330
1F
100
AcDbEntity
  8
0
  6
Continuous
 62
     7
370
    25
100
AcDbCircle
 10
153.9902422325
 20
134.150651886
 30
0.0
 40
5.250000000000009
100
AcDbArc
 50
13.774146998
 51
166.225853002
  0
SPLINE
  5
224
330
1F
100
AcDbEntity
  8
0
  6
Continuous
 62
     7
370
    25
100
AcDbSpline
210
0.0
220
0.0
230
1.0
 70
     8
 71
     3
 72
    15
 73
    11
 74
     0
 42
0.00000001
 43
0.00000001
 40
0.0
 40
0.0
 40
0.0
 40
0.0
 40
0.0089557228015919
 40
0.0999003359608209
 40
0.1531632460581751
 40
0.3125636920784904
 40
0.5249666935695061
 40
0.6689893599351777
 40
0.991915253381045
 40
1.0
 40
1.0
 40
1.0
 40
1.0
 10
159.467467807552
 20
135.6506518860336
 30
0.0
 10
159.4674520519734
 20
135.6506411016704
 30
0.0
 10
159.4672762998168
 20
135.6505208030049
 30
0.0
 10
159.4618472837973
 20
135.6468023520868
 30
0.0
 10
159.44031180009
 20
135.6320913110205
 30
0.0
 10
159.3926063718252
 20
135.599642449562
 30
0.0
 10
159.3202154268332
 20
135.5510584092185
 30
0.0
 10
159.2182963148156
 20
135.4836879369502
 30
0.0
 10
159.1429412233605
 20
135.4348743722163
 30
0.0
 10
159.0905415776373
 20
135.4014678220219
 30
0.0
 10
159.0892617460931
 20
135.4006518860336
 30
0.0
  0
ARC
  5
225
330
1F
100
AcDbEntity
  8
0
  6
Continuous
 62
     7
370
    25
100
AcDbCircle
 10
159.4674678076
 20
135.900651886
 30
0.0
 40
0.25
100
AcDbArc
 50
197.7189318734
 51
270.0
  0
SPLINE
  5
226
330
1F
100
AcDbEntity
  8
0
  6
Continuous
 62
     7
370
    25
100
AcDbSpline
210
0.0
220
0.0
230
1.0
 70
     8
 71
     3
 72
    15
 73
    11
 74
     0
 42
0.00000001
 43
0.00000001
 40
0.0
 40
0.0
 40
0.0
 40
0.0
 40
0.0080847466189582
 40
0.3310106400648243
 40
0.4750333064304948
 40
0.6874363079215142
 40
0.8468367539418303
 40
0.9000996640391847
 40
0.9910442771984082
 40
1.0
 40
1.0
 40
1.0
 40
1.0
 10
148.8912227189076
 20
135.4006518860336
 30
0.0
 10
148.8899428873634
 20
135.4014678220219
 30
0.0
 10
148.8375432416402
 20
135.4348743722164
 30
0.0
 10
148.7621881501851
 20
135.4836879369502
 30
0.0
 10
148.6602690381674
 20
135.5510584092185
 30
0.0
 10
148.5878780931755
 20
135.599642449562
 30
0.0
 10
148.5401726649107
 20
135.6320913110205
 30
0.0
 10
148.5186371812034
 20
135.6468023520868
 30
0.0
 10
148.5132081651838
 20
135.6505208030049
 30
0.0
 10
148.5130324130273
 20
135.6506411016704
 30
0.0
 10
148.5130166574487
 20
135.6506518860336
 30
0.0
  0
ARC
  5
227
330
1F
100
AcDbEntity
  8
0
  6
Continuous
 62
     7
370
    25
100
AcDbCircle
 10
148.5130166574
 20
135.900651886
 30
0.0
 40
0.25
100
AcDbArc
 50
270.0
 51
342.2810681266
  0
ARC
  5
228
330
1F
100
AcDbEntity
  8
0
  6
Continuous
 62
     7
370
    25
100
AcDbCircle
 10
159.4674678076
 20
132.400651886
 30
0.0
 40
0.25
100
AcDbArc
 50
90.0
 51
162.2810681266
  0
SPLINE
  5
229
330
1F
100
AcDbEntity
  8
0
  6
Continuous
 62
     7
370
    25
100
AcDbSpline
210
0.0
220
0.0
230
1.0
 70
     8
 71
     3
 72
    15
 73
    11
 74
     0
 42
0.00000001
 43
0.00000001
 40
0.0
 40
0.0
 40
0.0
 40
0.0
 40
0.0090459071881971
 40
0.1032433785236874
 40
0.1542564497735246
 40
0.313316902671511
 40
0.5243720399414428
 40
0.6678060008509903
 40
0.9918332554187292
 40
1.0
 40
1.0
 40
1.0
 40
1.0
 10
159.2293275651585
 20
132.4767388425553
 30
0.0
 10
159.2293218731918
 20
132.4767564882798
 30
0.0
 10
159.229256909241
 20
132.4769578836923
 30
0.0
 10
159.2272612228051
 20
132.4831475043585
 30
0.0
 10
159.2194442265886
 20
132.5073494362026
 30
0.0
 10
159.2022744028337
 20
132.5603684282043
 30
0.0
 10
159.1756905062662
 20
132.6417393154009
 30
0.0
 10
159.1378612077773
 20
132.7563183874234
 30
0.0
 10
159.1095804277681
 20
132.8407435651428
 30
0.0
 10
159.089749280236
 20
132.8992144230945
 30
0.0
 10
159.0892617460931
 20
132.9006518860336
 30
0.0
  0
SPLINE
  5
22A
330
1F
100
AcDbEntity
  8
0
  6
Continuous
 62
     7
370
    25
100
AcDbSpline
210
0.0
220
0.0
230
1.0
 70
     8
 71
     3
 72
    15
 73
    11
 74
     0
 42
0.00000001
 43
0.00000001
 40
0.0
 40
0.0
 40
0.0
 40
0.0
 40
0.0080847466189818
 40
0.3310106400647567
 40
0.4750333064304972
 40
0.6874363079215137
 40
0.8468367539418253
 40
0.9000996640391794
 40
0.9910442771984082
 40
1.0
 40
1.0
 40
1.0
 40
1.0
 10
159.0892617460931
 20
132.9006518860336
 30
0.0
 10
159.0905415776373
 20
132.8998359500453
 30
0.0
 10
159.142941223361
 20
132.8664293998517
 30
0.0
 10
159.2182963148155
 20
132.8176158351168
 30
0.0
 10
159.3202154268333
 20
132.7502453628487
 30
0.0
 10
159.3926063718252
 20
132.7016613225052
 30
0.0
 10
159.44031180009
 20
132.6692124610466
 30
0.0
 10
159.4618472837973
 20
132.6545014199803
 30
0.0
 10
159.4672762998168
 20
132.6507829690622
 30
0.0
 10
159.4674520519734
 20
132.6506626703967
 30
0.0
 10
159.467467807552
 20
132.6506518860336
 30
0.0
  0
SPLINE
  5
22B
330
1F
100
AcDbEntity
  8
0
  6
Continuous
 62
     7
370
    25
100
AcDbSpline
210
0.0
220
0.0
230
1.0
 70
     8
 71
     3
 72
    15
 73
    11
 74
     0
 42
0.00000001
 43
0.00000001
 40
0.0
 40
0.0
 40
0.0
 40
0.0
 40
0.0081667445812695
 40
0.3321939991490083
 40
0.4756279600585602
 40
0.6866830973284899
 40
0.8457435502264811
 40
0.8967566214763185
 40
0.9909540928118029
 40
1.0
 40
1.0
 40
1.0
 40
1.0
 10
148.8912227189076
 20
132.9006518860336
 30
0.0
 10
148.8907351847647
 20
132.8992144230945
 30
0.0
 10
148.8709040372326
 20
132.8407435651429
 30
0.0
 10
148.8426232572233
 20
132.7563183874234
 30
0.0
 10
148.8047939587345
 20
132.6417393154009
 30
0.0
 10
148.778210062167
 20
132.5603684282043
 30
0.0
 10
148.761040238412
 20
132.5073494362026
 30
0.0
 10
148.7532232421956
 20
132.4831475043585
 30
0.0
 10
148.7512275557597
 20
132.4769578836923
 30
0.0
 10
148.7511625918089
 20
132.4767564882798
 30
0.0
 10
148.7511568998422
 20
132.4767388425553
 30
0.0
  0
ARC
  5
22C
330
1F
100
AcDbEntity
  8
0
  6
Continuous
 62
     7
370
    25
100
AcDbCircle
 10
153.9902422325
 20
134.150651886
 30
0.0
 40
5.250000000000009
100
AcDbArc
 50
193.774146998
 51
346.225853002
  0
ARC
  5
22D
330
1F
100
AcDbEntity
  8
0
  6
Continuous
 62
     7
370
    25
100
AcDbCircle
 10
153.9902422325
 20
134.150651886
 30
0.0
 40
5.50000000000002
100
AcDbArc
 50
197.7189318734
 51
342.2810681266
  0
ARC
  5
22E
330
1F
100
AcDbEntity
  8
0
  6
Continuous
 62
     7
370
    25
100
AcDbCircle
 10
148.5130166574
 20
132.400651886
 30
0.0
 40
0.25
100
AcDbArc
 50
17.7189318734
 51
90.0
  0
SPLINE
  5
22F
330
1F
100
AcDbEntity
  8
0
  6
Continuous
 62
     7
370
    25
100
AcDbSpline
210
0.0
220
0.0
230
1.0
 70
     8
 71
     3
 72
    15
 73
    11
 74
     0
 42
0.00000001
 43
0.00000001
 40
0.0
 40
0.0
 40
0.0
 40
0.0
 40
0.0089557228015919
 40
0.0999003359608148
 40
0.153163246058169
 40
0.3125636920784848
 40
0.5249666935694999
 40
0.6689893599352451
 40
0.9919152533810159
 40
1.0
 40
1.0
 40
1.0
 40
1.0
 10
148.5130166574487
 20
132.6506518860336
 30
0.0
 10
148.5130324130273
 20
132.6506626703967
 30
0.0
 10
148.5132081651838
 20
132.6507829690622
 30
0.0
 10
148.5186371812034
 20
132.6545014199803
 30
0.0
 10
148.5401726649107
 20
132.6692124610466
 30
0.0
 10
148.5878780931755
 20
132.7016613225052
 30
0.0
 10
148.6602690381674
 20
132.7502453628487
 30
0.0
 10
148.7621881501852
 20
132.8176158351168
 30
0.0
 10
148.8375432416397
 20
132.8664293998516
 30
0.0
 10
148.8899428873634
 20
132.8998359500453
 30
0.0
 10
148.8912227189076
 20
132.9006518860336
 30
0.0
  0
LINE
  5
230
330
1F
100
AcDbEntity
  8
0
  6
Continuous
 62
     7
370
    25
100
AcDbLine
 10
148.9902422325
 20
133.550651886
 30
0.0
 11
158.9902422325
 21
133.550651886
 31
0.0
  0
LINE
  5
231
330
1F
100
AcDbEntity
  8
0
  6
Continuous
 62
     7
370
    25
100
AcDbLine
 10
158.9902422325
 20
134.750651886
 30
0.0
 11
148.9902422325
 21
134.750651886
 31
0.0
  0
LINE
  5
232
330
1F
100
AcDbEntity
  8
0
  6
Continuous
 62
     7
370
    25
100
AcDbLine
 10
158.9902422325
 20
133.550651886
 30
0.0
 11
158.9902422325
 21
134.750651886
 31
0.0
  0
LINE
  5
233
330
1F
100
AcDbEntity
  8
0
  6
Continuous
 62
     7
370
    25
100
AcDbLine
 10
148.9902422325
 20
134.750651886
 30
0.0
 11
148.9902422325
 21
133.550651886
 31
0.0
  0
LINE
  5
234
330
1F
100
AcDbEntity
  8
0
  6
Continuous
 62
     7
370
    25
100
AcDbLine
 10
148.2402422325
 20
132.900651886
 30
0.0
 11
148.8912227189
 21
132.900651886
 31
0.0
  0
LINE
  5
235
330
1F
100
AcDbEntity
  8
0
  6
Continuous
 62
     7
370
    25
100
AcDbLine
 10
148.2402422325
 20
135.400651886
 30
0.0
 11
148.2402422325
 21
132.900651886
 31
0.0
  0
LINE
  5
236
330
1F
100
AcDbEntity
  8
0
  6
Continuous
 62
     7
370
    25
100
AcDbLine
 10
148.8912227189
 20
135.400651886
 30
0.0
 11
148.2402422325
 21
135.400651886
 31
0.0
  0
LINE
  5
237
330
1F
100
AcDbEntity
  8
0
  6
Continuous
 62
     7
370
    25
100
AcDbLine
 10
159.7402422325
 20
135.400651886
 30
0.0
 11
159.0892617461
 21
135.400651886
 31
0.0
  0
LINE
  5
238
330
1F
100
AcDbEntity
  8
0
  6
Continuous
 62
     7
370
    25
100
AcDbLine
 10
159.7402422325
 20
132.900651886
 30
0.0
 11
159.7402422325
 21
135.400651886
 31
0.0
  0
LINE
  5
239
330
1F
100
AcDbEntity
  8
0
  6
Continuous
 62
     7
370
    25
100
AcDbLine
 10
159.0892617461
 20
132.900651886
 30
0.0
 11
159.7402422325
 21
132.900651886
 31
0.0
  0
ARC
  5
23A
330
1F
100
AcDbEntity
  8
0
  6
Continuous
 62
     7
370
    25
100
AcDbCircle
 10
148.2402422325
 20
135.400651886
 30
0.0
 40
0.25
100
AcDbArc
 50
90.0
 51
180.0
  0
LINE
  5
23B
330
1F
100
AcDbEntity
  8
0
  6
Continuous
 62
     7
370
    25
100
AcDbLine
 10
148.2402422325
 20
135.650651886
 30
0.0
 11
148.2402422325
 21
135.400651886
 31
0.0
  0
LINE
  5
23C
330
1F
100
AcDbEntity
  8
0
  6
Continuous
 62
     7
370
    25
100
AcDbLine
 10
148.2402422325
 20
135.400651886
 30
0.0
 11
147.9902422325
 21
135.400651886
 31
0.0
  0
LINE
  5
23D
330
1F
100
AcDbEntity
  8
0
  6
Continuous
 62
     7
370
    25
100
AcDbLine
 10
159.4674678076
 20
135.650651886
 30
0.0
 11
159.7402422325
 21
135.650651886
 31
0.0
  0
LINE
  5
23E
330
1F
100
AcDbEntity
  8
0
  6
Continuous
 62
     7
370
    25
100
AcDbLine
 10
159.7402422325
 20
135.400651886
 30
0.0
 11
159.7402422325
 21
135.650651886
 31
0.0
  0
LINE
  5
23F
330
1F
100
AcDbEntity
  8
0
  6
Continuous
 62
     7
370
    25
100
AcDbLine
 10
148.2402422325
 20
135.650651886
 30
0.0
 11
148.5130166574
 21
135.650651886
 31
0.0
  0
LINE
  5
240
330
1F
100
AcDbEntity
  8
0
  6
Continuous
 62
     7
370
    25
100
AcDbLine
 10
159.9902422325
 20
135.400651886
 30
0.0
 11
159.7402422325
 21
135.400651886
 31
0.0
  0
ARC
  5
241
330
1F
100
AcDbEntity
  8
0
  6
Continuous
 62
     7
370
    25
100
AcDbCircle
 10
159.7402422325
 20
135.400651886
 30
0.0
 40
0.2500000000000284
100
AcDbArc
 50
0.0
 51
90.0
  0
LINE
  5
242
330
1F
100
AcDbEntity
  8
0
  6
Continuous
 62
     7
370
    25
100
AcDbLine
 10
147.9902422325
 20
132.900651886
 30
0.0
 11
148.2402422325
 21
132.900651886
 31
0.0
  0
LINE
  5
243
330
1F
100
AcDbEntity
  8
0
  6
Continuous
 62
     7
370
    25
100
AcDbLine
 10
147.9902422325
 20
132.900651886
 30
0.0
 11
147.9902422325
 21
135.400651886
 31
0.0
  0
LINE
  5
244
330
1F
100
AcDbEntity
  8
0
  6
Continuous
 62
     7
370
    25
100
AcDbLine
 10
159.9902422325
 20
135.400651886
 30
0.0
 11
159.9902422325
 21
132.900651886
 31
0.0
  0
LINE
  5
245
330
1F
100
AcDbEntity
  8
0
  6
Continuous
 62
     7
370
    25
100
AcDbLine
 10
159.7402422325
 20
132.900651886
 30
0.0
 11
159.9902422325
 21
132.900651886
 31
0.0
  0
ARC
  5
246
330
1F
100
AcDbEntity
  8
0
  6
Continuous
 62
     7
370
    25
100
AcDbCircle
 10
148.2402422325
 20
132.900651886
 30
0.0
 40
0.25
100
AcDbArc
 50
180.0
 51
270.0
  0
LINE
  5
247
330
1F
100
AcDbEntity
  8
0
  6
Continuous
 62
     7
370
    25
100
AcDbLine
 10
148.2402422325
 20
132.900651886
 30
0.0
 11
148.2402422325
 21
132.650651886
 31
0.0
  0
LINE
  5
248
330
1F
100
AcDbEntity
  8
0
  6
Continuous
 62
     7
370
    25
100
AcDbLine
 10
148.5130166574
 20
132.650651886
 30
0.0
 11
148.2402422325
 21
132.650651886
 31
0.0
  0
LINE
  5
249
330
1F
100
AcDbEntity
  8
0
  6
Continuous
 62
     7
370
    25
100
AcDbLine
 10
159.7402422325
 20
132.650651886
 30
0.0
 11
159.7402422325
 21
132.900651886
 31
0.0
  0
ARC
  5
24A
330
1F
100
AcDbEntity
  8
0
  6
Continuous
 62
     7
370
    25
100
AcDbCircle
 10
159.7402422325
 20
132.900651886
 30
0.0
 40
0.2500000000000284
100
AcDbArc
 50
270.0
 51
0.0
  0
LINE
  5
24B
330
1F
100
AcDbEntity
  8
0
  6
Continuous
 62
     7
370
    25
100
AcDbLine
 10
159.7402422325
 20
132.650651886
 30
0.0
 11
159.4674678076
 21
132.650651886
 31
0.0
  0
LINE
  5
24C
330
1F
100
AcDbEntity
  8
0
  6
Continuous
 62
     7
370
    25
100
AcDbLine
 10
133.9902422325
 20
137.4223511501
 30
0.0
 11
131.814805371
 21
137.650651886
 31
0.0
  0
LINE
  5
24D
330
1F
100
AcDbEntity
  8
0
  6
Continuous
 62
     7
370
    25
100
AcDbLine
 10
133.9902422325
 20
130.878952622
 30
0.0
 11
133.9902422325
 21
137.4223511501
 31
0.0
  0
LINE
  5
24E
330
1F
100
AcDbEntity
  8
0
  6
Continuous
 62
     7
370
    25
100
AcDbLine
 10
131.814805371
 20
130.650651886
 30
0.0
 11
133.9902422325
 21
130.878952622
 31
0.0
  0
LINE
  5
24F
330
1F
100
AcDbEntity
  8
0
  6
Continuous
 62
     7
370
    25
100
AcDbLine
 10
113.9902422325
 20
130.650651886
 30
0.0
 11
131.814805371
 21
130.650651886
 31
0.0
  0
LINE
  5
250
330
1F
100
AcDbEntity
  8
0
  6
Continuous
 62
     7
370
    25
100
AcDbLine
 10
113.9902422325
 20
137.650651886
 30
0.0
 11
113.9902422325
 21
130.650651886
 31
0.0
  0
LINE
  5
251
330
1F
100
AcDbEntity
  8
0
  6
Continuous
 62
     7
370
    25
100
AcDbLine
 10
131.814805371
 20
137.650651886
 30
0.0
 11
113.9902422325
 21
137.650651886
 31
0.0
  0
LINE
  5
252
330
1F
100
AcDbEntity
  8
0
  6
Continuous
 62
     7
370
    25
100
AcDbLine
 10
148.7664400581
 20
135.8716663668
 30
0.0
 11
148.6698757408
 21
135.7122670466
 31
0.0
  0
LINE
  5
253
330
1F
100
AcDbEntity
  8
0
  6
Continuous
 62
     7
370
    25
100
AcDbLine
 10
148.6475983602
 20
132.6054342187
 30
0.0
 11
148.7664400581
 21
132.4296374052
 31
0.0
  0
LINE
  5
254
330
1F
100
AcDbEntity
  8
0
  6
Continuous
 62
     7
370
    25
100
AcDbLine
 10
140.5736725789
 20
136.7314545216
 30
0.0
 11
140.5736725789
 21
131.5698492505
 31
0.0
  0
LINE
  5
255
330
1F
100
AcDbEntity
  8
0
  6
Continuous
 62
     7
370
    25
100
AcDbLine
 10
148.7664400581
 20
132.4296374052
 30
0.0
 11
140.5736725789
 21
131.5698492505
 31
0.0
  0
LINE
  5
256
330
1F
100
AcDbEntity
  8
0
  6
Continuous
 62
     7
370
    25
100
AcDbLine
 10
140.5736725789
 20
136.7314545216
 30
0.0
 11
148.7664400581
 21
135.8716663669
 31
0.0
  0
LINE
  5
257
330
1F
100
AcDbEntity
  8
0
  6
Continuous
 62
     7
370
    25
100
AcDbLine
 10
140.5736725789
 20
131.5698492505
 30
0.0
 11
133.9902422325
 21
130.878952622
 31
0.0
  0
LINE
  5
258
330
1F
100
AcDbEntity
  8
0
  6
Continuous
 62
     7
370
    25
100
AcDbLine
 10
133.9902422325
 20
137.4223511501
 30
0.0
 11
140.5736725789
 21
136.7314545216
 31
0.0
  0
ARC
  5
259
330
1F
100
AcDbEntity
  8
0
  6
Continuous
 62
     7
370
    25
100
AcDbCircle
 10
153.9902422325
 20
134.150651886
 30
0.0
 40
7.450000000000673
100
AcDbArc
 50
233.0863788866
 51
126.9136211134
  0
ARC
  5
25A
330
1F
100
AcDbEntity
  8
0
  6
Continuous
 62
     7
370
    25
100
AcDbCircle
 10
153.9902422325
 20
134.150651886
 30
0.0
 40
7.207531252870766
100
AcDbArc
 50
195.3041237151
 51
238.9797515565
  0
ARC
  5
25B
330
1F
100
AcDbEntity
  8
0
  6
Continuous
 62
     7
370
    25
100
AcDbCircle
 10
153.9902422325
 20
134.150651886
 30
0.0
 40
7.207531252872461
100
AcDbArc
 50
121.0202484435
 51
164.6958762849
  0
ARC
  5
25C
330
1F
100
AcDbEntity
  8
0
  6
Continuous
 62
     7
370
    25
100
AcDbCircle
 10
131.814805371
 20
202.650651886
 30
0.0
 40
65.0
100
AcDbArc
 50
270.0
 51
286.5000949923
  0
ARC
  5
25D
330
1F
100
AcDbEntity
  8
0
  6
Continuous
 62
     7
370
    25
100
AcDbCircle
 10
131.814805371
 20
65.650651886
 30
0.0
 40
65.0
100
AcDbArc
 50
73.4999050077
 51
90.0
  0
LINE
  5
25E
330
1F
100
AcDbEntity
  8
0
  6
Continuous
 62
     7
370
    25
100
AcDbLine
 10
139.2902422325
 20
127.9004395961
 30
0.0
 11
139.2902422325
 21
126.150651886
 31
0.0
  0
LINE
  5
25F
330
1F
100
AcDbEntity
  8
0
  6
Continuous
 62
     7
370
    25
100
AcDbLine
 10
139.2902422325
 20
142.150651886
 30
0.0
 11
139.2902422325
 21
138.0819455049
 31
0.0
  0
LINE
  5
260
330
1F
100
AcDbEntity
  8
0
  6
Continuous
 62
     7
370
    25
100
AcDbLine
 10
139.2902422325
 20
130.2193582671
 30
0.0
 11
139.2902422325
 21
127.9004395961
 31
0.0
  0
LINE
  5
261
330
1F
100
AcDbEntity
  8
0
  6
Continuous
 62
     7
370
    25
100
AcDbLine
 10
139.0902422325
 20
128.0566949034
 30
0.0
 11
139.0902422325
 21
130.2421994637
 31
0.0
  0
LINE
  5
262
330
1F
100
AcDbEntity
  8
0
  6
Continuous
 62
     7
370
    25
100
AcDbLine
 10
139.0902422325
 20
138.0591043084
 30
0.0
 11
139.0902422325
 21
141.950651886
 31
0.0
  0
LINE
  5
263
330
1F
100
AcDbEntity
  8
0
  6
Continuous
 62
     7
370
    25
100
AcDbLine
 10
139.0902422325
 20
126.350651886
 30
0.0
 11
139.0902422325
 21
128.0566949034
 31
0.0
  0
LINE
  5
264
330
1F
100
AcDbEntity
  8
0
  6
Continuous
 62
     7
370
    25
100
AcDbLine
 10
129.5902422325
 20
130.2364564395
 30
0.0
 11
129.5902422325
 21
129.140651886
 31
0.0
  0
LINE
  5
265
330
1F
100
AcDbEntity
  8
0
  6
Continuous
 62
     7
370
    25
100
AcDbLine
 10
129.5902422325
 20
139.160651886
 30
0.0
 11
129.5902422325
 21
137.650651886
 31
0.0
  0
LINE
  5
266
330
1F
100
AcDbEntity
  8
0
  6
Continuous
 62
     7
370
    25
100
AcDbLine
 10
129.5902422325
 20
130.650651886
 30
0.0
 11
129.5902422325
 21
130.2364564395
 31
0.0
  0
LINE
  5
267
330
1F
100
AcDbEntity
  8
0
  6
Continuous
 62
     7
370
    25
100
AcDbLine
 10
165.1681832599
 20
133.900651886
 30
0.0
 11
161.4360464201
 21
133.900651886
 31
0.0
  0
LINE
  5
268
330
1F
100
AcDbEntity
  8
0
  6
Continuous
 62
     7
370
    25
100
AcDbLine
 10
161.4360464201
 20
134.400651886
 30
0.0
 11
165.1681832599
 21
134.400651886
 31
0.0
  0
LINE
  5
269
330
1F
100
AcDbEntity
  8
0
  6
Continuous
 62
     7
370
    25
100
AcDbLine
 10
131.5351774544
 20
129.9820958705
 30
0.0
 11
131.5351774544
 21
128.8150814162
 31
0.0
  0
LINE
  5
26A
330
1F
100
AcDbEntity
  8
0
  6
Continuous
 62
     7
370
    25
100
AcDbLine
 10
131.5351774544
 20
139.4862223558
 30
0.0
 11
131.5351774544
 21
137.650651886
 31
0.0
  0
LINE
  5
26B
330
1F
100
AcDbEntity
  8
0
  6
Continuous
 62
     7
370
    25
100
AcDbLine
 10
131.5351774544
 20
130.650651886
 30
0.0
 11
131.5351774544
 21
129.9820958705
 31
0.0
  0
LINE
  5
26C
330
1F
100
AcDbEntity
  8
0
  6
Continuous
 62
     7
370
    25
100
AcDbLine
 10
130.6002422325
 20
129.4629926686
 30
0.0
 11
130.6002422325
 21
128.150651886
 31
0.0
  0
LINE
  5
26D
330
1F
100
AcDbEntity
  8
0
  6
Continuous
 62
     7
370
    25
100
AcDbLine
 10
130.6002422325
 20
140.150651886
 30
0.0
 11
130.6002422325
 21
137.650651886
 31
0.0
  0
LINE
  5
26E
330
1F
100
AcDbEntity
  8
0
  6
Continuous
 62
     7
370
    25
100
AcDbLine
 10
130.6002422325
 20
130.650651886
 30
0.0
 11
130.6002422325
 21
129.4629926686
 31
0.0
  0
LINE
  5
26F
330
1F
100
AcDbEntity
  8
0
  6
Continuous
 62
     7
370
    25
100
AcDbLine
 10
130.5802422325
 20
129.4629926686
 30
0.0
 11
130.5802422325
 21
128.150651886
 31
0.0
  0
LINE
  5
270
330
1F
100
AcDbEntity
  8
0
  6
Continuous
 62
     7
370
    25
100
AcDbLine
 10
130.5802422325
 20
140.150651886
 30
0.0
 11
130.5802422325
 21
137.650651886
 31
0.0
  0
LINE
  5
271
330
1F
100
AcDbEntity
  8
0
  6
Continuous
 62
     7
370
    25
100
AcDbLine
 10
130.5802422325
 20
130.650651886
 30
0.0
 11
130.5802422325
 21
129.4629926686
 31
0.0
  0
LINE
  5
272
330
1F
100
AcDbEntity
  8
0
  6
Continuous
 62
     7
370
    25
100
AcDbLine
 10
132.0073669604
 20
130.2442692048
 30
0.0
 11
132.0073669604
 21
129.150651886
 31
0.0
  0
LINE
  5
273
330
1F
100
AcDbEntity
  8
0
  6
Continuous
 62
     7
370
    25
100
AcDbLine
 10
132.0073669604
 20
139.150651886
 30
0.0
 11
132.0073669604
 21
137.6509371172
 31
0.0
  0
LINE
  5
274
330
1F
100
AcDbEntity
  8
0
  6
Continuous
 62
     7
370
    25
100
AcDbLine
 10
132.0073669604
 20
130.6503666549
 30
0.0
 11
132.0073669604
 21
130.2442692048
 31
0.0
  0
INSERT
  5
280
330
1F
100
AcDbEntity
  8
0
  6
Continuous
 62
     7
370
    18
100
AcDbBlockReference
  2
SW_CENTERMARKSYMBOL_1
 10
153.9902422325
 20
134.150651886
 30
0.0
  0
ENDSEC
  0
SECTION
  2
OBJECTS
  0
DICTIONARY
  5
C
330
0
100
AcDbDictionary
281
     1
  3
ACAD_GROUP
350
D
  3
ACAD_LAYOUT
350
1A
  3
ACAD_MLINESTYLE
350
17
  3
ACAD_PLOTSETTINGS
350
19
  3
ACAD_PLOTSTYLENAME
350
E
  3
ACAD_SCALELIST
350
47
  3
DWGPROPS
350
281
  0
DICTIONARY
  5
D
102
{ACAD_REACTORS
330
C
102
}
330
C
100
AcDbDictionary
281
     1
  0
DICTIONARY
  5
1A
102
{ACAD_REACTORS
330
C
102
}
330
C
100
AcDbDictionary
281
     1
  3
Layout1
350
1E
  3
Layout2
350
26
  3
Model
350
22
  0
DICTIONARY
  5
17
102
{ACAD_REACTORS
330
C
102
}
330
C
100
AcDbDictionary
281
     1
  3
Standard
350
18
  0
DICTIONARY
  5
19
102
{ACAD_REACTORS
330
C
102
}
330
C
100
AcDbDictionary
281
     1
  0
ACDBDICTIONARYWDFLT
  5
E
102
{ACAD_REACTORS
330
C
102
}
330
C
100
AcDbDictionary
281
     1
  3
Normal
350
F
100
AcDbDictionaryWithDefault
340
F
  0
DICTIONARY
  5
47
102
{ACAD_REACTORS
330
C
102
}
330
C
100
AcDbDictionary
281
     1
  3
A0
350
48
  3
A1
350
49
  3
A2
350
4A
  3
A3
350
4B
  3
A4
350
4C
  3
A5
350
4D
  3
A6
350
4E
  3
A7
350
4F
  3
A8
350
50
  3
A9
350
51
  3
B0
350
52
  3
B1
350
53
  3
B2
350
54
  3
B3
350
55
  3
B4
350
56
  3
B5
350
57
  3
B6
350
58
  0
XRECORD
  5
281
102
{ACAD_REACTORS
330
C
102
}
330
C
100
AcDbXrecord
280
     1
  1
DWGPROPS COOKIE
  2

  3

  4

  6

  7

  8
user28
  9

300
=
301
=
302
=
303
=
304
=
305
=
306
=
307
=
308
=
309
=
 40
0.0
 41
2460195.016084444
 42
2460195.016085092
  1

 90
        0
  0
LAYOUT
  5
1E
102
{ACAD_REACTORS
330
1A
102
}
330
1A
100
AcDbPlotSettings
  1

  2
none_device
  4

  6

 40
0.0
 41
0.0
 42
0.0
 43
0.0
 44
0.0
 45
0.0
 46
0.0
 47
0.0
 48
0.0
 49
0.0
140
0.0
141
0.0
142
1.0
143
1.0
 70
   688
 72
     1
 73
     0
 74
     5
  7

 75
    16
147
1.0
148
0.0
149
0.0
100
AcDbLayout
  1
Layout1
 70
     1
 71
     1
 10
0.0
 20
0.0
 11
420.0
 21
297.0
 12
0.0
 22
0.0
 32
0.0
 14
1.0000000000E+20
 24
1.0000000000E+20
 34
1.0000000000E+20
 15
-1.0000000000E+20
 25
-1.0000000000E+20
 35
-1.0000000000E+20
146
0.0
 13
0.0
 23
0.0
 33
0.0
 16
1.0
 26
0.0
 36
0.0
 17
0.0
 27
1.0
 37
0.0
 76
     0
330
1B
  0
LAYOUT
  5
26
102
{ACAD_REACTORS
330
1A
102
}
330
1A
100
AcDbPlotSettings
  1

  2
none_device
  4

  6

 40
0.0
 41
0.0
 42
0.0
 43
0.0
 44
0.0
 45
0.0
 46
0.0
 47
0.0
 48
0.0
 49
0.0
140
0.0
141
0.0
142
1.0
143
1.0
 70
   688
 72
     1
 73
     0
 74
     5
  7

 75
    16
147
1.0
148
0.0
149
0.0
100
AcDbLayout
  1
Layout2
 70
     1
 71
     2
 10
0.0
 20
0.0
 11
0.0
 21
0.0
 12
0.0
 22
0.0
 32
0.0
 14
0.0
 24
0.0
 34
0.0
 15
0.0
 25
0.0
 35
0.0
146
0.0
 13
0.0
 23
0.0
 33
0.0
 16
1.0
 26
0.0
 36
0.0
 17
0.0
 27
1.0
 37
0.0
 76
     0
330
23
  0
LAYOUT
  5
22
102
{ACAD_REACTORS
330
1A
102
}
330
1A
100
AcDbPlotSettings
  1

  2
none_device
  4
Letter_(8.50_x_11.00_Inches)
  6

 40
6.35
 41
6.35
 42
6.35000508
 43
6.35000508
 44
215.9
 45
279.4
 46
0.0
 47
0.0
 48
0.0
 49
0.0
140
0.0
141
0.0
142
1.0
143
1.0
 70
  1712
 72
     1
 73
     0
 74
     0
  7

 75
     0
147
1.0
148
0.0
149
0.0
100
AcDbLayout
  1
Model
 70
     1
 71
     0
 10
0.0
 20
0.0
 11
431.8
 21
279.4
 12
0.0
 22
0.0
 32
0.0
 14
0.0
 24
0.0
 34
0.0
 15
431.8
 25
279.4
 35
0.0
146
0.0
 13
0.0
 23
0.0
 33
0.0
 16
1.0
 26
0.0
 36
0.0
 17
0.0
 27
1.0
 37
0.0
 76
     0
330
1F
331
29
  0
MLINESTYLE
  5
18
102
{ACAD_REACTORS
330
17
102
}
330
17
100
AcDbMlineStyle
  2
Standard
 70
     0
  3

 62
   256
 51
90.0
 52
90.0
 71
     2
 49
0.5
 62
   256
  6
BYLAYER
 49
-0.5
 62
   256
  6
BYLAYER
  0
ACDBPLACEHOLDER
  5
F
102
{ACAD_REACTORS
330
E
102
}
330
E
  0
SCALE
  5
48
102
{ACAD_REACTORS
330
47
102
}
330
47
100
AcDbScale
 70
     0
300
1:1
140
1.0
141
1.0
290
     1
  0
SCALE
  5
49
102
{ACAD_REACTORS
330
47
102
}
330
47
100
AcDbScale
 70
     0
300
1:2
140
1.0
141
2.0
290
     0
  0
SCALE
  5
4A
102
{ACAD_REACTORS
330
47
102
}
330
47
100
AcDbScale
 70
     0
300
1:4
140
1.0
141
4.0
290
     0
  0
SCALE
  5
4B
102
{ACAD_REACTORS
330
47
102
}
330
47
100
AcDbScale
 70
     0
300
1:5
140
1.0
141
5.0
290
     0
  0
SCALE
  5
4C
102
{ACAD_REACTORS
330
47
102
}
330
47
100
AcDbScale
 70
     0
300
1:8
140
1.0
141
8.0
290
     0
  0
SCALE
  5
4D
102
{ACAD_REACTORS
330
47
102
}
330
47
100
AcDbScale
 70
     0
300
1:10
140
1.0
141
10.0
290
     0
  0
SCALE
  5
4E
102
{ACAD_REACTORS
330
47
102
}
330
47
100
AcDbScale
 70
     0
300
1:16
140
1.0
141
16.0
290
     0
  0
SCALE
  5
4F
102
{ACAD_REACTORS
330
47
102
}
330
47
100
AcDbScale
 70
     0
300
1:20
140
1.0
141
20.0
290
     0
  0
SCALE
  5
50
102
{ACAD_REACTORS
330
47
102
}
330
47
100
AcDbScale
 70
     0
300
1:30
140
1.0
141
30.0
290
     0
  0
SCALE
  5
51
102
{ACAD_REACTORS
330
47
102
}
330
47
100
AcDbScale
 70
     0
300
1:40
140
1.0
141
40.0
290
     0
  0
SCALE
  5
52
102
{ACAD_REACTORS
330
47
102
}
330
47
100
AcDbScale
 70
     0
300
1:50
140
1.0
141
50.0
290
     0
  0
SCALE
  5
53
102
{ACAD_REACTORS
330
47
102
}
330
47
100
AcDbScale
 70
     0
300
1:100
140
1.0
141
100.0
290
     0
  0
SCALE
  5
54
102
{ACAD_REACTORS
330
47
102
}
330
47
100
AcDbScale
 70
     0
300
2:1
140
2.0
141
1.0
290
     0
  0
SCALE
  5
55
102
{ACAD_REACTORS
330
47
102
}
330
47
100
AcDbScale
 70
     0
300
4:1
140
4.0
141
1.0
290
     0
  0
SCALE
  5
56
102
{ACAD_REACTORS
330
47
102
}
330
47
100
AcDbScale
 70
     0
300
8:1
140
8.0
141
1.0
290
     0
  0
SCALE
  5
57
102
{ACAD_REACTORS
330
47
102
}
330
47
100
AcDbScale
 70
     0
300
10:1
140
10.0
141
1.0
290
     0
  0
SCALE
  5
58
102
{ACAD_REACTORS
330
47
102
}
330
47
100
AcDbScale
 70
     0
300
100:1
140
100.0
141
1.0
290
     0
  0
ENDSEC
  0
EOF
