  0
SECTION
  2
HEADER
  9
$ACADVER
  1
AC1015
  9
$ACADMAINTVER
 70
     6
  9
$DWGCODEPAGE
  3
DOS932
  9
$INSBASE
 10
0.0
 20
0.0
 30
0.0
  9
$EXTMIN
 10
0.0
 20
0.0
 30
0.0
  9
$EXTMAX
 10
431.8
 20
279.4
 30
0.0
  9
$LIMMIN
 10
0.0
 20
0.0
  9
$LIMMAX
 10
431.8
 20
279.4
  9
$ORTHOMODE
 70
     0
  9
$REGENMODE
 70
     1
  9
$FILLMODE
 70
     1
  9
$QTEXTMODE
 70
     0
  9
$MIRRTEXT
 70
     1
  9
$LTSCALE
 40
1.0
  9
$ATTMODE
 70
     1
  9
$TEXTSIZE
 40
3.5
  9
$TRACEWID
 40
1.0
  9
$TEXTSTYLE
  7
Standard
  9
$CLAYER
  8
0
  9
$CELTYPE
  6
ByLayer
  9
$CECOLOR
 62
   256
  9
$CELTSCALE
 40
1.0
  9
$DISPSILH
 70
     0
  9
$DIMSCALE
 40
1.0
  9
$DIMASZ
 40
3.556
  9
$DIMEXO
 40
1.0
  9
$DIMDLI
 40
3.75
  9
$DIMRND
 40
0.0
  9
$DIMDLE
 40
0.0
  9
$DIMEXE
 40
1.0
  9
$DIMTP
 40
0.0
  9
$DIMTM
 40
0.0
  9
$DIMTXT
 40
3.5
  9
$DIMCEN
 40
2.5
  9
$DIMTSZ
 40
0.0
  9
$DIMTOL
 70
     0
  9
$DIMLIM
 70
     0
  9
$DIMTIH
 70
     1
  9
$DIMTOH
 70
     1
  9
$DIMSE1
 70
     0
  9
$DIMSE2
 70
     0
  9
$DIMTAD
 70
     1
  9
$DIMZIN
 70
     0
  9
$DIMBLK
  1

  9
$DIMASO
 70
     1
  9
$DIMSHO
 70
     1
  9
$DIMPOST
  1

  9
$DIMAPOST
  1

  9
$DIMALT
 70
     0
  9
$DIMALTD
 70
     3
  9
$DIMALTF
 40
0.0393700787
  9
$DIMLFAC
 40
1.0
  9
$DIMTOFL
 70
     1
  9
$DIMTVP
 40
0.0
  9
$DIMTIX
 70
     0
  9
$DIMSOXD
 70
     0
  9
$DIMSAH
 70
     0
  9
$DIMBLK1
  1

  9
$DIMBLK2
  1

  9
$DIMSTYLE
  2
ISO-25
  9
$DIMCLRD
 70
     0
  9
$DIMCLRE
 70
     0
  9
$DIMCLRT
 70
     0
  9
$DIMTFAC
 40
1.0
  9
$DIMGAP
 40
1.524
  9
$DIMJUST
 70
     0
  9
$DIMSD1
 70
     0
  9
$DIMSD2
 70
     0
  9
$DIMTOLJ
 70
     0
  9
$DIMTZIN
 70
     0
  9
$DIMALTZ
 70
     0
  9
$DIMALTTZ
 70
     0
  9
$DIMUPT
 70
     0
  9
$DIMDEC
 70
     3
  9
$DIMTDEC
 70
     3
  9
$DIMALTU
 70
     2
  9
$DIMALTTD
 70
     3
  9
$DIMTXSTY
  7
Standard
  9
$DIMAUNIT
 70
     0
  9
$DIMADEC
 70
     2
  9
$DIMALTRND
 40
0.0
  9
$DIMAZIN
 70
     0
  9
$DIMDSEP
 70
    44
  9
$DIMATFIT
 70
     3
  9
$DIMFRAC
 70
     0
  9
$DIMLDRBLK
  1

  9
$DIMLUNIT
 70
     2
  9
$DIMLWD
 70
    -2
  9
$DIMLWE
 70
    -2
  9
$DIMTMOVE
 70
     0
  9
$LUNITS
 70
     2
  9
$LUPREC
 70
     3
  9
$SKETCHINC
 40
1.0
  9
$FILLETRAD
 40
0.0
  9
$AUNITS
 70
     0
  9
$AUPREC
 70
     2
  9
$MENU
  1
.
  9
$ELEVATION
 40
0.0
  9
$PELEVATION
 40
0.0
  9
$THICKNESS
 40
0.0
  9
$LIMCHECK
 70
     0
  9
$CHAMFERA
 40
0.0
  9
$CHAMFERB
 40
0.0
  9
$CHAMFERC
 40
0.0
  9
$CHAMFERD
 40
0.0
  9
$SKPOLY
 70
     0
  9
$TDCREATE
 40
2460195.389763195
  9
$TDUCREATE
 40
2460195.014763195
  9
$TDUPDATE
 40
2460195.389764144
  9
$TDUUPDATE
 40
2460195.014764144
  9
$TDINDWG
 40
0.0000000116
  9
$TDUSRTIMER
 40
0.0000000116
  9
$USRTIMER
 70
     1
  9
$ANGBASE
 50
0.0
  9
$ANGDIR
 70
     0
  9
$PDMODE
 70
     0
  9
$PDSIZE
 40
-1.0
  9
$PLINEWID
 40
0.0
  9
$SPLFRAME
 70
     0
  9
$SPLINETYPE
 70
     6
  9
$SPLINESEGS
 70
     8
  9
$HANDSEED
  5
282
  9
$SURFTAB1
 70
     6
  9
$SURFTAB2
 70
     6
  9
$SURFTYPE
 70
     6
  9
$SURFU
 70
     6
  9
$SURFV
 70
     6
  9
$UCSBASE
  2

  9
$UCSNAME
  2

  9
$UCSORG
 10
0.0
 20
0.0
 30
0.0
  9
$UCSXDIR
 10
1.0
 20
0.0
 30
0.0
  9
$UCSYDIR
 10
0.0
 20
1.0
 30
0.0
  9
$UCSORTHOREF
  2

  9
$UCSORTHOVIEW
 70
     0
  9
$UCSORGTOP
 10
0.0
 20
0.0
 30
0.0
  9
$UCSORGBOTTOM
 10
0.0
 20
0.0
 30
0.0
  9
$UCSORGLEFT
 10
0.0
 20
0.0
 30
0.0
  9
$UCSORGRIGHT
 10
0.0
 20
0.0
 30
0.0
  9
$UCSORGFRONT
 10
0.0
 20
0.0
 30
0.0
  9
$UCSORGBACK
 10
0.0
 20
0.0
 30
0.0
  9
$PUCSBASE
  2

  9
$PUCSNAME
  2

  9
$PUCSORG
 10
0.0
 20
0.0
 30
0.0
  9
$PUCSXDIR
 10
1.0
 20
0.0
 30
0.0
  9
$PUCSYDIR
 10
0.0
 20
1.0
 30
0.0
  9
$PUCSORTHOREF
  2

  9
$PUCSORTHOVIEW
 70
     0
  9
$PUCSORGTOP
 10
0.0
 20
0.0
 30
0.0
  9
$PUCSORGBOTTOM
 10
0.0
 20
0.0
 30
0.0
  9
$PUCSORGLEFT
 10
0.0
 20
0.0
 30
0.0
  9
$PUCSORGRIGHT
 10
0.0
 20
0.0
 30
0.0
  9
$PUCSORGFRONT
 10
0.0
 20
0.0
 30
0.0
  9
$PUCSORGBACK
 10
0.0
 20
0.0
 30
0.0
  9
$USERI1
 70
     0
  9
$USERI2
 70
     0
  9
$USERI3
 70
     0
  9
$USERI4
 70
     0
  9
$USERI5
 70
     0
  9
$USERR1
 40
0.0
  9
$USERR2
 40
0.0
  9
$USERR3
 40
0.0
  9
$USERR4
 40
0.0
  9
$USERR5
 40
0.0
  9
$WORLDVIEW
 70
     1
  9
$SHADEDGE
 70
     3
  9
$SHADEDIF
 70
    70
  9
$TILEMODE
 70
     1
  9
$MAXACTVP
 70
    64
  9
$PINSBASE
 10
0.0
 20
0.0
 30
0.0
  9
$PLIMCHECK
 70
     0
  9
$PEXTMIN
 10
1.0000000000E+20
 20
1.0000000000E+20
 30
1.0000000000E+20
  9
$PEXTMAX
 10
-1.0000000000E+20
 20
-1.0000000000E+20
 30
-1.0000000000E+20
  9
$PLIMMIN
 10
0.0
 20
0.0
  9
$PLIMMAX
 10
420.0
 20
297.0
  9
$UNITMODE
 70
     0
  9
$VISRETAIN
 70
     1
  9
$PLINEGEN
 70
     0
  9
$PSLTSCALE
 70
     1
  9
$TREEDEPTH
 70
  3020
  9
$CMLSTYLE
  2
Standard
  9
$CMLJUST
 70
     0
  9
$CMLSCALE
 40
20.0
  9
$PROXYGRAPHICS
 70
     1
  9
$MEASUREMENT
 70
     1
  9
$CELWEIGHT
370
    -1
  9
$ENDCAPS
280
     0
  9
$JOINSTYLE
280
     0
  9
$LWDISPLAY
290
     1
  9
$INSUNITS
 70
     4
  9
$HYPERLINKBASE
  1

  9
$STYLESHEET
  1

  9
$XEDIT
290
     1
  9
$CEPSNTYPE
380
     0
  9
$PSTYLEMODE
290
     1
  9
$FINGERPRINTGUID
  2
{5224df82-b2e8-41e8-a615-08482e0b5820}
  9
$VERSIONGUID
  2
{FAEB1C32-E019-11D5-929B-00C0DF256EC4}
  9
$EXTNAMES
290
     1
  9
$PSVPSCALE
 40
0.0
  9
$OLESTARTUP
290
     0
  0
ENDSEC
  0
SECTION
  2
CLASSES
  0
CLASS
  1
ACDBDICTIONARYWDFLT
  2
AcDbDictionaryWithDefault
  3
ObjectDBX Classes
 90
        0
280
     0
281
     0
  0
CLASS
  1
VISUALSTYLE
  2
AcDbVisualStyle
  3
ObjectDBX Classes
 90
     4095
280
     0
281
     0
  0
CLASS
  1
MATERIAL
  2
AcDbMaterial
  3
ObjectDBX Classes
 90
     1153
280
     0
281
     0
  0
CLASS
  1
SCALE
  2
AcDbScale
  3
ObjectDBX Classes
 90
     1153
280
     0
281
     0
  0
CLASS
  1
TABLESTYLE
  2
AcDbTableStyle
  3
ObjectDBX Classes
 90
     4095
280
     0
281
     0
  0
CLASS
  1
MLEADERSTYLE
  2
AcDbMLeaderStyle
  3
ACDB_MLEADERSTYLE_CLASS
 90
     4095
280
     0
281
     0
  0
CLASS
  1
SUN
  2
AcDbSun
  3
SCENEOE
 90
     1153
280
     0
281
     0
  0
CLASS
  1
ACDBPLACEHOLDER
  2
AcDbPlaceHolder
  3
ObjectDBX Classes
 90
        0
280
     0
281
     0
  0
CLASS
  1
LAYOUT
  2
AcDbLayout
  3
ObjectDBX Classes
 90
        0
280
     0
281
     0
  0
ENDSEC
  0
SECTION
  2
TABLES
  0
TABLE
  2
VPORT
  5
8
330
0
100
AcDbSymbolTable
 70
     1
  0
VPORT
  5
29
330
8
100
AcDbSymbolTableRecord
100
AcDbViewportTableRecord
  2
*Active
 70
     0
 10
0.0
 20
0.0
 11
1.0
 21
1.0
 12
215.9
 22
139.7
 13
0.0
 23
0.0
 14
10.0
 24
10.0
 15
10.0
 25
10.0
 16
0.0
 26
0.0
 36
1.0
 17
0.0
 27
0.0
 37
0.0
 40
279.4
 41
1.5454545455
 42
50.0
 43
0.0
 44
0.0
 50
0.0
 51
0.0
 71
     0
 72
  2000
 73
     1
 74
     3
 75
     0
 76
     0
 77
     0
 78
     0
281
     0
 65
     1
110
0.0
120
0.0
130
0.0
111
1.0
121
0.0
131
0.0
112
0.0
122
1.0
132
0.0
 79
     0
146
0.0
  0
ENDTAB
  0
TABLE
  2
LTYPE
  5
5
330
0
100
AcDbSymbolTable
 70
     6
  0
LTYPE
  5
14
330
5
100
AcDbSymbolTableRecord
100
AcDbLinetypeTableRecord
  2
ByBlock
 70
     0
  3

 72
    65
 73
     0
 40
0.0
  0
LTYPE
  5
15
330
5
100
AcDbSymbolTableRecord
100
AcDbLinetypeTableRecord
  2
ByLayer
 70
     0
  3

 72
    65
 73
     0
 40
0.0
  0
LTYPE
  5
16
330
5
100
AcDbSymbolTableRecord
100
AcDbLinetypeTableRecord
  2
Continuous
 70
     0
  3
Solid line
 72
    65
 73
     0
 40
0.0
  0
LTYPE
  5
5E
330
5
100
AcDbSymbolTableRecord
100
AcDbLinetypeTableRecord
  2
HIDDEN
 70
     0
  3
Hidden __ __ __ __ __ __ __ __ __ __ __ __ __ __
 72
    65
 73
     2
 40
1.905
 49
1.27
 74
     0
 49
-0.635
 74
     0
  0
LTYPE
  5
5F
330
5
100
AcDbSymbolTableRecord
100
AcDbLinetypeTableRecord
  2
PHANTOM
 70
     0
  3
Phantom ______  __  __  ______  __  __  ______
 72
    65
 73
     6
 40
12.7
 49
6.35
 74
     0
 49
-1.27
 74
     0
 49
1.27
 74
     0
 49
-1.27
 74
     0
 49
1.27
 74
     0
 49
-1.27
 74
     0
  0
LTYPE
  5
60
330
5
100
AcDbSymbolTableRecord
100
AcDbLinetypeTableRecord
  2
CENTER
 70
     0
  3
Center ____ _ ____ _ ____ _ ____ _ ____ _ ____
 72
    65
 73
     4
 40
10.16
 49
6.35
 74
     0
 49
-1.27
 74
     0
 49
1.27
 74
     0
 49
-1.27
 74
     0
  0
LTYPE
  5
61
330
5
100
AcDbSymbolTableRecord
100
AcDbLinetypeTableRecord
  2
CENTERX2
 70
     0
  3
Center (2x) ________  __  ________  __  _____
 72
    65
 73
     4
 40
20.32
 49
12.7
 74
     0
 49
-2.54
 74
     0
 49
2.54
 74
     0
 49
-2.54
 74
     0
  0
LTYPE
  5
62
330
5
100
AcDbSymbolTableRecord
100
AcDbLinetypeTableRecord
  2
DOT2
 70
     0
  3
Dot (.5x) ........................................
 72
    65
 73
     2
 40
0.635
 49
0.0
 74
     0
 49
-0.635
 74
     0
  0
ENDTAB
  0
TABLE
  2
LAYER
  5
2
330
0
100
AcDbSymbolTable
 70
     1
  0
LAYER
  5
10
330
2
100
AcDbSymbolTableRecord
100
AcDbLayerTableRecord
  2
0
 70
     0
 62
     7
  6
Continuous
370
    -3
390
F
  0
ENDTAB
  0
TABLE
  2
STYLE
  5
3
330
0
100
AcDbSymbolTable
 70
     2
  0
STYLE
  5
11
330
3
100
AcDbSymbolTableRecord
100
AcDbTextStyleTableRecord
  2
Standard
 70
     0
 40
0.0
 41
1.0
 50
0.0
 71
     0
 42
3.5
  3
txt
  4
bigfont
  0
STYLE
  5
63
330
3
100
AcDbSymbolTableRecord
100
AcDbTextStyleTableRecord
  2
SLDTEXTSTYLE0
 70
     0
 40
0.0
 41
0.7
 50
0.0
 71
     0
 42
3.5
  3
TXT
  4
bigfont
  0
ENDTAB
  0
TABLE
  2
VIEW
  5
6
330
0
100
AcDbSymbolTable
 70
     0
  0
ENDTAB
  0
TABLE
  2
UCS
  5
7
330
0
100
AcDbSymbolTable
 70
     0
  0
ENDTAB
  0
TABLE
  2
APPID
  5
9
330
0
100
AcDbSymbolTable
 70
     1
  0
APPID
  5
12
330
9
100
AcDbSymbolTableRecord
100
AcDbRegAppTableRecord
  2
ACAD
 70
     0
  0
ENDTAB
  0
TABLE
  2
DIMSTYLE
  5
A
330
0
100
AcDbSymbolTable
 70
     1
100
AcDbDimStyleTable
  0
DIMSTYLE
105
27
330
A
100
AcDbSymbolTableRecord
100
AcDbDimStyleTableRecord
  2
ISO-25
 70
     0
 41
2.5
 42
0.625
 43
3.75
 44
1.25
 73
     0
 74
     0
 77
     1
 78
     8
140
2.5
141
2.5
143
0.0393700787
147
0.625
171
     3
172
     1
178
     0
271
     2
272
     2
274
     3
278
    44
283
     0
284
     8
340
11
  0
ENDTAB
  0
TABLE
  2
BLOCK_RECORD
  5
1
330
0
100
AcDbSymbolTable
 70
     3
  0
BLOCK_RECORD
  5
1F
330
1
100
AcDbSymbolTableRecord
100
AcDbBlockTableRecord
  2
*Model_Space
340
22
  0
BLOCK_RECORD
  5
1B
330
1
100
AcDbSymbolTableRecord
100
AcDbBlockTableRecord
  2
*Paper_Space
340
1E
  0
BLOCK_RECORD
  5
23
330
1
100
AcDbSymbolTableRecord
100
AcDbBlockTableRecord
  2
*Paper_Space0
340
26
  0
BLOCK_RECORD
  5
1D0
330
1
100
AcDbSymbolTableRecord
100
AcDbBlockTableRecord
  2
SW_CENTERMARKSYMBOL_0
340
0
102
{BLKREFS
331
1DB
102
}
  0
BLOCK_RECORD
  5
275
330
1
100
AcDbSymbolTableRecord
100
AcDbBlockTableRecord
  2
SW_CENTERMARKSYMBOL_1
340
0
102
{BLKREFS
331
280
102
}
  0
ENDTAB
  0
ENDSEC
  0
SECTION
  2
BLOCKS
  0
BLOCK
  5
20
330
1F
100
AcDbEntity
  8
0
100
AcDbBlockBegin
  2
*Model_Space
 70
     0
 10
0.0
 20
0.0
 30
0.0
  3
*Model_Space
  1

  0
ENDBLK
  5
21
330
1F
100
AcDbEntity
  8
0
100
AcDbBlockEnd
  0
BLOCK
  5
1C
330
1B
100
AcDbEntity
 67
     1
  8
0
100
AcDbBlockBegin
  2
*Paper_Space
 70
     0
 10
0.0
 20
0.0
 30
0.0
  3
*Paper_Space
  1

  0
ENDBLK
  5
1D
330
1B
100
AcDbEntity
 67
     1
  8
0
100
AcDbBlockEnd
  0
BLOCK
  5
24
330
23
100
AcDbEntity
  8
0
100
AcDbBlockBegin
  2
*Paper_Space0
 70
     0
 10
0.0
 20
0.0
 30
0.0
  3
*Paper_Space0
  1

  0
ENDBLK
  5
25
330
23
100
AcDbEntity
  8
0
100
AcDbBlockEnd
  0
BLOCK
  5
1D1
330
1D0
100
AcDbEntity
  8
0
100
AcDbBlockBegin
  2
SW_CENTERMARKSYMBOL_0
 70
     0
 10
0.0
 20
0.0
 30
0.0
  3
SW_CENTERMARKSYMBOL_0
  1

  0
LINE
  5
1D3
330
1D0
100
AcDbEntity
  8
0
  6
Continuous
 62
     0
370
    18
100
AcDbLine
 10
0.0
 20
0.0
 30
0.0
 11
0.0
 21
2.5
 31
0.0
  0
LINE
  5
1D4
330
1D0
100
AcDbEntity
  8
0
  6
Continuous
 62
     0
370
    18
100
AcDbLine
 10
0.0
 20
0.0
 30
0.0
 11
-2.5
 21
0.0
 31
0.0
  0
LINE
  5
1D5
330
1D0
100
AcDbEntity
  8
0
  6
Continuous
 62
     0
370
    18
100
AcDbLine
 10
0.0
 20
0.0
 30
0.0
 11
0.0
 21
-2.5
 31
0.0
  0
LINE
  5
1D6
330
1D0
100
AcDbEntity
  8
0
  6
Continuous
 62
     0
370
    18
100
AcDbLine
 10
0.0
 20
0.0
 30
0.0
 11
2.5
 21
0.0
 31
0.0
  0
LINE
  5
1D7
330
1D0
100
AcDbEntity
  8
0
  6
Continuous
 62
     0
370
    18
100
AcDbLine
 10
0.0
 20
5.0
 30
0.0
 11
0.0
 21
29.8902630656
 31
0.0
  0
LINE
  5
1D8
330
1D0
100
AcDbEntity
  8
0
  6
Continuous
 62
     0
370
    18
100
AcDbLine
 10
-5.0
 20
0.0
 30
0.0
 11
-10.9232050808
 21
0.0
 31
0.0
  0
LINE
  5
1D9
330
1D0
100
AcDbEntity
  8
0
  6
Continuous
 62
     0
370
    18
100
AcDbLine
 10
0.0
 20
-5.0
 30
0.0
 11
0.0
 21
-24.5042334643
 31
0.0
  0
LINE
  5
1DA
330
1D0
100
AcDbEntity
  8
0
  6
Continuous
 62
     0
370
    18
100
AcDbLine
 10
5.0
 20
0.0
 30
0.0
 11
10.9232050808
 21
0.0
 31
0.0
  0
ENDBLK
  5
1D2
330
1D0
100
AcDbEntity
  8
0
100
AcDbBlockEnd
  0
BLOCK
  5
276
330
275
100
AcDbEntity
  8
0
100
AcDbBlockBegin
  2
SW_CENTERMARKSYMBOL_1
 70
     0
 10
0.0
 20
0.0
 30
0.0
  3
SW_CENTERMARKSYMBOL_1
  1

  0
LINE
  5
278
330
275
100
AcDbEntity
  8
0
  6
Continuous
 62
     0
370
    18
100
AcDbLine
 10
0.0
 20
0.0
 30
0.0
 11
0.0
 21
2.5
 31
0.0
  0
LINE
  5
279
330
275
100
AcDbEntity
  8
0
  6
Continuous
 62
     0
370
    18
100
AcDbLine
 10
0.0
 20
0.0
 30
0.0
 11
-2.5
 21
0.0
 31
0.0
  0
LINE
  5
27A
330
275
100
AcDbEntity
  8
0
  6
Continuous
 62
     0
370
    18
100
AcDbLine
 10
0.0
 20
0.0
 30
0.0
 11
0.0
 21
-2.5
 31
0.0
  0
LINE
  5
27B
330
275
100
AcDbEntity
  8
0
  6
Continuous
 62
     0
370
    18
100
AcDbLine
 10
0.0
 20
0.0
 30
0.0
 11
2.5
 21
0.0
 31
0.0
  0
LINE
  5
27C
330
275
100
AcDbEntity
  8
0
  6
Continuous
 62
     0
370
    18
100
AcDbLine
 10
0.0
 20
5.0
 30
0.0
 11
0.0
 21
9.95
 31
0.0
  0
LINE
  5
27D
330
275
100
AcDbEntity
  8
0
  6
Continuous
 62
     0
370
    18
100
AcDbLine
 10
-5.0
 20
0.0
 30
0.0
 11
-42.1475177589
 21
0.0
 31
0.0
  0
LINE
  5
27E
330
275
100
AcDbEntity
  8
0
  6
Continuous
 62
     0
370
    18
100
AcDbLine
 10
0.0
 20
-5.0
 30
0.0
 11
0.0
 21
-9.95
 31
0.0
  0
LINE
  5
27F
330
275
100
AcDbEntity
  8
0
  6
Continuous
 62
     0
370
    18
100
AcDbLine
 10
5.0
 20
0.0
 30
0.0
 11
13.6278916859
 21
0.0
 31
0.0
  0
ENDBLK
  5
277
330
275
100
AcDbEntity
  8
0
100
AcDbBlockEnd
  0
ENDSEC
  0
SECTION
  2
ENTITIES
  0
MTEXT
  5
64
330
1F
100
AcDbEntity
  8
0
  6
Continuous
 62
     7
370
     0
100
AcDbMText
 10
170.4916010111
 20
112.4859278911
 30
0.0
 40
3.5
 41
0.0
 71
     1
 72
     1
  1
エースボール　アングル型　BD-3100R
  7
SLDTEXTSTYLE0
 73
     1
 44
1.0
  0
LINE
  5
65
330
1F
100
AcDbEntity
  8
0
  6
Continuous
 62
     7
370
    25
100
AcDbLine
 10
168.9002263279
 20
88.8956535797
 30
0.0
 11
166.9502263279
 21
96.8956535797
 31
0.0
  0
LINE
  5
66
330
1F
100
AcDbEntity
  8
0
  6
Continuous
 62
     7
370
    25
100
AcDbLine
 10
168.4502263279
 20
80.8956535797
 30
0.0
 11
168.9002263279
 21
88.8956535797
 31
0.0
  0
LINE
  5
67
330
1F
100
AcDbEntity
  8
0
  6
Continuous
 62
     7
370
    25
100
AcDbLine
 10
154.3814809103
 20
82.1177943369
 30
0.0
 11
154.4502263279
 21
80.8956535797
 31
0.0
  0
LINE
  5
68
330
1F
100
AcDbEntity
  8
0
  6
Continuous
 62
     7
370
    25
100
AcDbLine
 10
155.950226328
 20
96.8956535797
 30
0.0
 11
155.6969947934
 21
95.8567549765
 31
0.0
  0
LINE
  5
69
330
1F
100
AcDbEntity
  8
0
  6
Continuous
 62
     7
370
    25
100
AcDbLine
 10
146.7502263279
 20
78.3956535797
 30
0.0
 11
146.5502263279
 21
78.1956535797
 31
0.0
  0
LINE
  5
6A
330
1F
100
AcDbEntity
  8
0
  6
Continuous
 62
     7
370
    25
100
AcDbLine
 10
146.5502263279
 20
62.5956535797
 30
0.0
 11
146.7502263279
 21
62.3956535797
 31
0.0
  0
LINE
  5
6B
330
1F
100
AcDbEntity
  8
0
  6
Continuous
 62
     7
370
    25
100
AcDbLine
 10
149.5502263279
 20
78.3956535797
 30
0.0
 11
146.7502263279
 21
78.3956535797
 31
0.0
  0
LINE
  5
6C
330
1F
100
AcDbEntity
  8
0
  6
Continuous
 62
     7
370
    25
100
AcDbLine
 10
146.7502263279
 20
62.3956535797
 30
0.0
 11
149.5502263279
 21
62.3956535797
 31
0.0
  0
LINE
  5
6D
330
1F
100
AcDbEntity
  8
0
  6
Continuous
 62
     7
370
    25
100
AcDbLine
 10
138.0602263279
 20
76.3956535797
 30
0.0
 11
138.0402263279
 21
76.3956535797
 31
0.0
  0
LINE
  5
6E
330
1F
100
AcDbEntity
  8
0
  6
Continuous
 62
     7
370
    25
100
AcDbLine
 10
138.0402263279
 20
64.3956535797
 30
0.0
 11
138.0602263279
 21
64.3956535797
 31
0.0
  0
ARC
  5
6F
330
1F
100
AcDbEntity
  8
0
  6
Continuous
 62
     7
370
    25
100
AcDbCircle
 10
138.0602263279
 20
75.4056535797
 30
0.0
 40
0.9900000000000091
100
AcDbArc
 50
19.1995397339
 51
90.0
  0
ARC
  5
70
330
1F
100
AcDbEntity
  8
0
  6
Continuous
 62
     7
370
    25
100
AcDbCircle
 10
138.0602263279
 20
65.3856535797
 30
0.0
 40
0.9899999999999949
100
AcDbArc
 50
270.0
 51
340.8004602661
  0
ARC
  5
71
330
1F
100
AcDbEntity
  8
0
  6
Continuous
 62
     7
370
    25
100
AcDbCircle
 10
138.0402263279
 20
75.4056535797
 30
0.0
 40
0.9900000000000091
100
AcDbArc
 50
90.0
 51
180.0
  0
ARC
  5
72
330
1F
100
AcDbEntity
  8
0
  6
Continuous
 62
     7
370
    25
100
AcDbCircle
 10
138.0402263279
 20
65.3856535797
 30
0.0
 40
0.9899999999999949
100
AcDbArc
 50
180.0
 51
270.0
  0
ARC
  5
73
330
1F
100
AcDbEntity
  8
0
  6
Continuous
 62
     7
370
    25
100
AcDbCircle
 10
139.4673510559
 20
75.8956535797
 30
0.0
 40
0.5000000000000235
100
AcDbArc
 50
199.1995397339
 51
270.0
  0
ARC
  5
74
330
1F
100
AcDbEntity
  8
0
  6
Continuous
 62
     7
370
    25
100
AcDbCircle
 10
139.4673510559
 20
64.8956535797
 30
0.0
 40
0.5000000000000189
100
AcDbArc
 50
90.0
 51
160.8004602661
  0
LINE
  5
75
330
1F
100
AcDbEntity
  8
0
  6
Continuous
 62
     7
370
    25
100
AcDbLine
 10
146.5502263279
 20
75.3956535797
 30
0.0
 11
139.4673510559
 21
75.3956535797
 31
0.0
  0
LINE
  5
76
330
1F
100
AcDbEntity
  8
0
  6
Continuous
 62
     7
370
    25
100
AcDbLine
 10
139.4673510559
 20
65.3956535797
 30
0.0
 11
146.5502263279
 21
65.3956535797
 31
0.0
  0
LINE
  5
77
330
1F
100
AcDbEntity
  8
0
  6
Continuous
 62
     7
370
    25
100
AcDbLine
 10
150.3090950751
 20
80.1332578867
 30
0.0
 11
149.5502263279
 21
78.8188586604
 31
0.0
  0
LINE
  5
78
330
1F
100
AcDbEntity
  8
0
  6
Continuous
 62
     7
370
    25
100
AcDbLine
 10
149.5502263279
 20
61.9724484989
 30
0.0
 11
150.3090950751
 21
60.6580492726
 31
0.0
  0
LINE
  5
79
330
1F
100
AcDbEntity
  8
0
  6
Continuous
 62
     7
370
    25
100
AcDbLine
 10
151.7126220209
 20
59.2545223268
 30
0.0
 11
153.2002263279
 21
58.3956535797
 31
0.0
  0
LINE
  5
7A
330
1F
100
AcDbEntity
  8
0
  6
Continuous
 62
     7
370
    25
100
AcDbLine
 10
169.7002263279
 20
58.3956535797
 30
0.0
 11
171.187830635
 21
59.2545223268
 31
0.0
  0
LINE
  5
7B
330
1F
100
AcDbEntity
  8
0
  6
Continuous
 62
     7
370
    25
100
AcDbLine
 10
172.5913575808
 20
60.6580492726
 30
0.0
 11
173.4502263279
 21
62.1456535797
 31
0.0
  0
LINE
  5
7C
330
1F
100
AcDbEntity
  8
0
  6
Continuous
 62
     7
370
    25
100
AcDbLine
 10
173.4502263279
 20
78.6456535797
 30
0.0
 11
172.5913575808
 21
80.1332578867
 31
0.0
  0
SPLINE
  5
7D
330
1F
100
AcDbEntity
  8
0
  6
Continuous
 62
     7
370
    25
100
AcDbSpline
210
0.0
220
0.0
230
1.0
 70
     8
 71
     3
 72
    11
 73
     7
 74
     0
 42
0.00000001
 43
0.00000001
 40
0.0
 40
0.0
 40
0.0
 40
0.0
 40
0.2350493969887364
 40
0.5843697938667738
 40
0.8881522698236621
 40
1.0
 40
1.0
 40
1.0
 40
1.0
 10
167.6193564816897
 20
79.18390207554118
 30
0.0
 10
167.5764082503115
 20
79.22862722965517
 30
0.0
 10
167.4696321877517
 20
79.33982100179452
 30
0.0
 10
167.3755141458501
 20
79.55731321344716
 30
0.0
 10
167.3284596614245
 20
79.755354769219
 30
0.0
 10
167.3354299779188
 20
79.86439831012352
 30
0.0
 10
167.3373057176196
 20
79.89374235769414
 30
0.0
  0
SPLINE
  5
7E
330
1F
100
AcDbEntity
  8
0
  6
Continuous
 62
     7
370
    25
100
AcDbSpline
210
0.0
220
0.0
230
1.0
 70
     8
 71
     3
 72
    11
 73
     7
 74
     0
 42
0.00000001
 43
0.00000001
 40
0.0
 40
0.0
 40
0.0
 40
0.0
 40
0.164392495126477
 40
0.4914722417571376
 40
0.8288811284267302
 40
0.9999999999999999
 40
0.9999999999999999
 40
0.9999999999999999
 40
0.9999999999999999
 10
155.5573783625946
 20
79.89512568099082
 30
0.0
 10
155.5590982252577
 20
79.85201539642513
 30
0.0
 10
155.5642399731088
 20
79.72313172578075
 30
0.0
 10
155.5026758291963
 20
79.51210566401625
 30
0.0
 10
155.4052325704077
 20
79.31181472799477
 30
0.0
 10
155.3081350094231
 20
79.22006918426347
 30
0.0
 10
155.275461817451
 20
79.1891969385292
 30
0.0
  0
LINE
  5
7F
330
1F
100
AcDbEntity
  8
0
  6
Continuous
 62
     7
370
    25
100
AcDbLine
 10
167.3502263279
 20
79.8911227596
 30
0.0
 11
167.3502263279
 21
80.8956535797
 31
0.0
  0
LINE
  5
80
330
1F
100
AcDbEntity
  8
0
  6
Continuous
 62
     7
370
    25
100
AcDbLine
 10
155.5502263279
 20
80.8956535797
 30
0.0
 11
155.5502263279
 21
79.8956535797
 31
0.0
  0
LINE
  5
81
330
1F
100
AcDbEntity
  8
0
  6
Continuous
 62
     7
370
    25
100
AcDbLine
 10
156.3509138279
 20
58.3956535797
 30
0.0
 11
156.6679467011
 21
48.2506016391
 31
0.0
  0
LINE
  5
82
330
1F
100
AcDbEntity
  8
0
  6
Continuous
 62
     7
370
    25
100
AcDbLine
 10
166.2325059548
 20
48.2506016391
 30
0.0
 11
166.5495388279
 21
58.3956535797
 31
0.0
  0
LINE
  5
83
330
1F
100
AcDbEntity
  8
0
  6
Continuous
 62
     7
370
    25
100
AcDbLine
 10
156.6679467011
 20
48.2506016391
 30
0.0
 11
157.4502263279
 21
46.8956535797
 31
0.0
  0
LINE
  5
84
330
1F
100
AcDbEntity
  8
0
  6
Continuous
 62
     7
370
    25
100
AcDbLine
 10
165.4502263279
 20
46.8956535797
 30
0.0
 11
166.2325059548
 21
48.2506016391
 31
0.0
  0
LINE
  5
85
330
1F
100
AcDbEntity
  8
0
  6
Continuous
 62
     7
370
    25
100
AcDbLine
 10
155.2800594206
 20
79.190391309
 30
0.0
 11
154.7356951481
 21
80.1332578867
 31
0.0
  0
LINE
  5
86
330
1F
100
AcDbEntity
  8
0
  6
Continuous
 62
     7
370
    25
100
AcDbLine
 10
168.1647575078
 20
80.1332578867
 30
0.0
 11
167.6203932353
 21
79.190391309
 31
0.0
  0
LINE
  5
87
330
1F
100
AcDbEntity
  8
0
  6
Continuous
 62
     7
370
    25
100
AcDbLine
 10
171.187830635
 20
60.6580492726
 30
0.0
 11
172.5939256363
 21
60.6580492726
 31
0.0
  0
LINE
  5
88
330
1F
100
AcDbEntity
  8
0
  6
Continuous
 62
     7
370
    25
100
AcDbLine
 10
171.187830635
 20
59.2519619455
 30
0.0
 11
171.187830635
 21
60.6580492726
 31
0.0
  0
LINE
  5
89
330
1F
100
AcDbEntity
  8
0
  6
Continuous
 62
     7
370
    25
100
AcDbLine
 10
154.7382632036
 20
80.1332578867
 30
0.0
 11
150.3065270196
 21
80.1332578867
 31
0.0
  0
LINE
  5
8A
330
1F
100
AcDbEntity
  8
0
  6
Continuous
 62
     7
370
    25
100
AcDbLine
 10
172.5939256363
 20
80.1332578867
 30
0.0
 11
168.1621894523
 21
80.1332578867
 31
0.0
  0
LINE
  5
8B
330
1F
100
AcDbEntity
  8
0
  6
Continuous
 62
     7
370
    25
100
AcDbLine
 10
151.7126220209
 20
60.6580492726
 30
0.0
 11
151.7126220209
 21
59.2519619455
 31
0.0
  0
LINE
  5
8C
330
1F
100
AcDbEntity
  8
0
  6
Continuous
 62
     7
370
    25
100
AcDbLine
 10
150.3065270196
 20
60.6580492726
 30
0.0
 11
151.7126220209
 21
60.6580492726
 31
0.0
  0
LINE
  5
8D
330
1F
100
AcDbEntity
  8
0
  6
Continuous
 62
     7
370
    25
100
AcDbLine
 10
156.2111409953
 20
97.4956535797
 30
0.0
 11
156.2111409953
 21
96.8956535797
 31
0.0
  0
LINE
  5
8E
330
1F
100
AcDbEntity
  8
0
  6
Continuous
 62
     7
370
    25
100
AcDbLine
 10
166.6893116606
 20
97.4956535797
 30
0.0
 11
156.2111409953
 21
97.4956535797
 31
0.0
  0
LINE
  5
8F
330
1F
100
AcDbEntity
  8
0
  6
Continuous
 62
     7
370
    25
100
AcDbLine
 10
166.6893116606
 20
96.8956535797
 30
0.0
 11
166.6893116606
 21
97.4956535797
 31
0.0
  0
LINE
  5
90
330
1F
100
AcDbEntity
  8
0
  6
Continuous
 62
     7
370
    25
100
AcDbLine
 10
156.2111409953
 20
96.8956535797
 30
0.0
 11
166.6893116606
 21
96.8956535797
 31
0.0
  0
SPLINE
  5
91
330
1F
100
AcDbEntity
  8
0
  6
Continuous
 62
     7
370
    25
100
AcDbSpline
210
0.0
220
0.0
230
1.0
 70
     8
 71
     3
 72
    15
 73
    11
 74
     0
 42
0.00000001
 43
0.00000001
 40
0.0
 40
0.0
 40
0.0
 40
0.0
 40
0.0081667445812695
 40
0.3321939991490083
 40
0.4756279600585602
 40
0.6866830973284899
 40
0.8457435502264811
 40
0.8967566214763185
 40
0.9909540928118029
 40
1.0
 40
1.0
 40
1.0
 40
1.0
 10
156.3512068143518
 20
97.74565357967667
 30
0.0
 10
156.3507192802089
 20
97.7456509033309
 30
0.0
 10
156.3308881326768
 20
97.74554203914406
 30
0.0
 10
156.3026073526675
 20
97.73599602687466
 30
0.0
 10
156.2647780541787
 20
97.69863364362011
 30
0.0
 10
156.2381941576112
 20
97.65376812888543
 30
0.0
 10
156.2210243338562
 20
97.59589182930851
 30
0.0
 10
156.2132073376398
 20
97.5452157893366
 30
0.0
 10
156.2112116512039
 20
97.51652150981657
 30
0.0
 10
156.2111466872531
 20
97.4973346782611
 30
0.0
 10
156.2111409952864
 20
97.49565357967667
 30
0.0
  0
LINE
  5
92
330
1F
100
AcDbEntity
  8
0
  6
Continuous
 62
     7
370
    25
100
AcDbLine
 10
156.3512068144
 20
97.7456535797
 30
0.0
 11
166.5492458415
 21
97.7456535797
 31
0.0
  0
SPLINE
  5
93
330
1F
100
AcDbEntity
  8
0
  6
Continuous
 62
     7
370
    25
100
AcDbSpline
210
0.0
220
0.0
230
1.0
 70
     8
 71
     3
 72
    15
 73
    11
 74
     0
 42
0.00000001
 43
0.00000001
 40
0.0
 40
0.0
 40
0.0
 40
0.0
 40
0.0090459071881971
 40
0.1032433785236874
 40
0.1542564497735246
 40
0.313316902671511
 40
0.5243720399414428
 40
0.6678060008509903
 40
0.9918332554187292
 40
1.0
 40
1.0
 40
1.0
 40
1.0
 10
166.6893116606027
 20
97.49565357967667
 30
0.0
 10
166.689305968636
 20
97.49733467826108
 30
0.0
 10
166.6892410046852
 20
97.51652150981663
 30
0.0
 10
166.6872453182493
 20
97.54521578933658
 30
0.0
 10
166.6794283220329
 20
97.59589182930856
 30
0.0
 10
166.6622584982779
 20
97.65376812888542
 30
0.0
 10
166.6356746017104
 20
97.69863364362011
 30
0.0
 10
166.5978453032216
 20
97.73599602687464
 30
0.0
 10
166.5695645232123
 20
97.74554203914411
 30
0.0
 10
166.5497333756802
 20
97.7456509033309
 30
0.0
 10
166.5492458415374
 20
97.74565357967667
 30
0.0
  0
LINE
  5
94
330
1F
100
AcDbEntity
  8
0
  6
Continuous
 62
     7
370
    25
100
AcDbLine
 10
155.9730007529
 20
97.4956535797
 30
0.0
 11
156.2111409953
 21
97.4956535797
 31
0.0
  0
SPLINE
  5
95
330
1F
100
AcDbEntity
  8
0
  6
Continuous
 62
     7
370
    25
100
AcDbSpline
210
0.0
220
0.0
230
1.0
 70
     8
 71
     3
 72
    15
 73
    11
 74
     0
 42
0.00000001
 43
0.00000001
 40
0.0
 40
0.0
 40
0.0
 40
0.0
 40
0.0089557228015919
 40
0.0999003359608148
 40
0.153163246058169
 40
0.3125636920784848
 40
0.5249666935694999
 40
0.6689893599352451
 40
0.9919152533810159
 40
1.0
 40
1.0
 40
1.0
 40
1.0
 10
155.9730007528929
 20
97.49565357967667
 30
0.0
 10
155.9730165084715
 20
97.49733470524957
 30
0.0
 10
155.9731922606281
 20
97.51608751987402
 30
0.0
 10
155.9786212766476
 20
97.54484974898149
 30
0.0
 10
156.0001567603549
 20
97.59573682244985
 30
0.0
 10
156.0478621886197
 20
97.65387247258248
 30
0.0
 10
156.1202531336116
 20
97.69858034576588
 30
0.0
 10
156.2221722456294
 20
97.73586216922764
 30
0.0
 10
156.2975273370839
 20
97.74554132406521
 30
0.0
 10
156.3499269828076
 20
97.74565090326698
 30
0.0
 10
156.3512068143518
 20
97.74565357967667
 30
0.0
  0
LINE
  5
96
330
1F
100
AcDbEntity
  8
0
  6
Continuous
 62
     7
370
    25
100
AcDbLine
 10
166.6893116606
 20
97.4956535797
 30
0.0
 11
166.927451903
 21
97.4956535797
 31
0.0
  0
SPLINE
  5
97
330
1F
100
AcDbEntity
  8
0
  6
Continuous
 62
     7
370
    25
100
AcDbSpline
210
0.0
220
0.0
230
1.0
 70
     8
 71
     3
 72
    15
 73
    11
 74
     0
 42
0.00000001
 43
0.00000001
 40
0.0
 40
0.0
 40
0.0
 40
0.0
 40
0.0080847466189818
 40
0.3310106400647567
 40
0.4750333064304972
 40
0.6874363079215137
 40
0.8468367539418253
 40
0.9000996640391794
 40
0.9910442771984082
 40
1.0
 40
1.0
 40
1.0
 40
1.0
 10
166.5492458415374
 20
97.74565357967667
 30
0.0
 10
166.5505256730815
 20
97.74565090326699
 30
0.0
 10
166.6029253188053
 20
97.7455413240652
 30
0.0
 10
166.6782804102597
 20
97.73586216922764
 30
0.0
 10
166.7801995222775
 20
97.69858034576589
 30
0.0
 10
166.8525904672694
 20
97.65387247258248
 30
0.0
 10
166.9002958955342
 20
97.59573682244982
 30
0.0
 10
166.9218313792415
 20
97.54484974898152
 30
0.0
 10
166.9272603952611
 20
97.51608751987403
 30
0.0
 10
166.9274361474176
 20
97.49733470524959
 30
0.0
 10
166.9274519029962
 20
97.49565357967667
 30
0.0
  0
LINE
  5
98
330
1F
100
AcDbEntity
  8
0
  6
Continuous
 62
     7
370
    25
100
AcDbLine
 10
155.9730007529
 20
96.8956535797
 30
0.0
 11
155.9730007529
 21
97.4956535797
 31
0.0
  0
LINE
  5
99
330
1F
100
AcDbEntity
  8
0
  6
Continuous
 62
     7
370
    25
100
AcDbLine
 10
156.2111409953
 20
96.8956535797
 30
0.0
 11
155.9730007529
 21
96.8956535797
 31
0.0
  0
LINE
  5
9A
330
1F
100
AcDbEntity
  8
0
  6
Continuous
 62
     7
370
    25
100
AcDbLine
 10
166.927451903
 20
97.4956535797
 30
0.0
 11
166.927451903
 21
96.8956535797
 31
0.0
  0
LINE
  5
9B
330
1F
100
AcDbEntity
  8
0
  6
Continuous
 62
     7
370
    25
100
AcDbLine
 10
166.927451903
 20
96.8956535797
 30
0.0
 11
166.6893116606
 21
96.8956535797
 31
0.0
  0
LINE
  5
9C
330
1F
100
AcDbEntity
  8
0
  6
Continuous
 62
     7
370
    25
100
AcDbLine
 10
155.7002263279
 20
97.4956535797
 30
0.0
 11
155.7002263279
 21
96.8956535797
 31
0.0
  0
LINE
  5
9D
330
1F
100
AcDbEntity
  8
0
  6
Continuous
 62
     7
370
    25
100
AcDbLine
 10
155.9730007529
 20
97.4956535797
 30
0.0
 11
155.7002263279
 21
97.4956535797
 31
0.0
  0
LINE
  5
9E
330
1F
100
AcDbEntity
  8
0
  6
Continuous
 62
     7
370
    25
100
AcDbLine
 10
155.9730007529
 20
96.8956535797
 30
0.0
 11
155.7002263279
 21
96.8956535797
 31
0.0
  0
LINE
  5
9F
330
1F
100
AcDbEntity
  8
0
  6
Continuous
 62
     7
370
    25
100
AcDbLine
 10
155.4502263279
 20
96.8956535797
 30
0.0
 11
155.4502263279
 21
97.4956535797
 31
0.0
  0
LINE
  5
A0
330
1F
100
AcDbEntity
  8
0
  6
Continuous
 62
     7
370
    25
100
AcDbLine
 10
155.4502263279
 20
97.4956535797
 30
0.0
 11
155.7002263279
 21
97.4956535797
 31
0.0
  0
LINE
  5
A1
330
1F
100
AcDbEntity
  8
0
  6
Continuous
 62
     7
370
    25
100
AcDbLine
 10
155.7002263279
 20
96.8956535797
 30
0.0
 11
155.4502263279
 21
96.8956535797
 31
0.0
  0
ARC
  5
A2
330
1F
100
AcDbEntity
  8
0
  6
Continuous
 62
     7
370
    25
100
AcDbCircle
 10
155.7002263279
 20
97.4956535797
 30
0.0
 40
0.25
100
AcDbArc
 50
90.0
 51
180.0
  0
LINE
  5
A3
330
1F
100
AcDbEntity
  8
0
  6
Continuous
 62
     7
370
    25
100
AcDbLine
 10
155.7002263279
 20
97.7456535797
 30
0.0
 11
155.7002263279
 21
97.4956535797
 31
0.0
  0
LINE
  5
A4
330
1F
100
AcDbEntity
  8
0
  6
Continuous
 62
     7
370
    25
100
AcDbLine
 10
155.7002263279
 20
97.7456535797
 30
0.0
 11
156.3512068144
 21
97.7456535797
 31
0.0
  0
LINE
  5
A5
330
1F
100
AcDbEntity
  8
0
  6
Continuous
 62
     7
370
    25
100
AcDbLine
 10
167.2002263279
 20
97.4956535797
 30
0.0
 11
167.2002263279
 21
97.7456535797
 31
0.0
  0
LINE
  5
A6
330
1F
100
AcDbEntity
  8
0
  6
Continuous
 62
     7
370
    25
100
AcDbLine
 10
167.2002263279
 20
97.4956535797
 30
0.0
 11
166.927451903
 21
97.4956535797
 31
0.0
  0
LINE
  5
A7
330
1F
100
AcDbEntity
  8
0
  6
Continuous
 62
     7
370
    25
100
AcDbLine
 10
166.5492458415
 20
97.7456535797
 30
0.0
 11
167.2002263279
 21
97.7456535797
 31
0.0
  0
ARC
  5
A8
330
1F
100
AcDbEntity
  8
0
  6
Continuous
 62
     7
370
    25
100
AcDbCircle
 10
167.2002263279
 20
97.4956535797
 30
0.0
 40
0.25
100
AcDbArc
 50
0.0
 51
90.0
  0
LINE
  5
A9
330
1F
100
AcDbEntity
  8
0
  6
Continuous
 62
     7
370
    25
100
AcDbLine
 10
167.2002263279
 20
97.4956535797
 30
0.0
 11
167.4502263279
 21
97.4956535797
 31
0.0
  0
LINE
  5
AA
330
1F
100
AcDbEntity
  8
0
  6
Continuous
 62
     7
370
    25
100
AcDbLine
 10
167.2002263279
 20
96.8956535797
 30
0.0
 11
167.2002263279
 21
97.4956535797
 31
0.0
  0
LINE
  5
AB
330
1F
100
AcDbEntity
  8
0
  6
Continuous
 62
     7
370
    25
100
AcDbLine
 10
167.2002263279
 20
96.8956535797
 30
0.0
 11
166.927451903
 21
96.8956535797
 31
0.0
  0
LINE
  5
AC
330
1F
100
AcDbEntity
  8
0
  6
Continuous
 62
     7
370
    25
100
AcDbLine
 10
167.4502263279
 20
97.4956535797
 30
0.0
 11
167.4502263279
 21
96.8956535797
 31
0.0
  0
LINE
  5
AD
330
1F
100
AcDbEntity
  8
0
  6
Continuous
 62
     7
370
    25
100
AcDbLine
 10
167.4502263279
 20
96.8956535797
 30
0.0
 11
167.2002263279
 21
96.8956535797
 31
0.0
  0
LINE
  5
AE
330
1F
100
AcDbEntity
  8
0
  6
Continuous
 62
     7
370
    25
100
AcDbLine
 10
156.4502263279
 20
97.7556535797
 30
0.0
 11
166.4502263279
 21
97.7556535797
 31
0.0
  0
LINE
  5
AF
330
1F
100
AcDbEntity
  8
0
  6
Continuous
 62
     7
370
    25
100
AcDbLine
 10
156.4502263279
 20
97.7456535797
 30
0.0
 11
156.4502263279
 21
97.7556535797
 31
0.0
  0
LINE
  5
B0
330
1F
100
AcDbEntity
  8
0
  6
Continuous
 62
     7
370
    25
100
AcDbLine
 10
166.4502263279
 20
97.7456535797
 30
0.0
 11
166.4502263279
 21
97.7556535797
 31
0.0
  0
LINE
  5
B1
330
1F
100
AcDbEntity
  8
0
  6
Continuous
 62
     7
370
    25
100
AcDbLine
 10
156.9756794439
 20
88.8956535797
 30
0.0
 11
168.900226328
 21
88.8956535797
 31
0.0
  0
LINE
  5
B2
330
1F
100
AcDbEntity
  8
0
  6
Continuous
 62
     7
370
    25
100
AcDbLine
 10
157.7358901996
 20
89.8903971576
 30
0.0
 11
156.9756794439
 21
88.8956535797
 31
0.0
  0
LINE
  5
B3
330
1F
100
AcDbEntity
  8
0
  6
Continuous
 62
     7
370
    25
100
AcDbLine
 10
156.2264241536
 20
96.8956535797
 30
0.0
 11
154.4982854896
 21
89.8903971576
 31
0.0
  0
LINE
  5
B4
330
1F
100
AcDbEntity
  8
0
  6
Continuous
 62
     7
370
    25
100
AcDbLine
 10
166.6893116606
 20
96.8956535796
 30
0.0
 11
156.2264241536
 21
96.8956535797
 31
0.0
  0
LINE
  5
B5
330
1F
100
AcDbEntity
  8
0
  6
Continuous
 62
     7
370
    25
100
AcDbLine
 10
159.4502263279
 20
80.8956535797
 30
0.0
 11
168.4502263279
 21
80.8956535797
 31
0.0
  0
LINE
  5
B6
330
1F
100
AcDbEntity
  8
0
  6
Continuous
 62
     7
370
    25
100
AcDbLine
 10
159.4502263279
 20
80.9334705035
 30
0.0
 11
159.4502263279
 21
80.8956535797
 31
0.0
  0
SPLINE
  5
B7
330
1F
100
AcDbEntity
  8
0
  6
Continuous
 62
     7
370
    25
100
AcDbSpline
210
0.0
220
0.0
230
1.0
 70
     8
 71
     3
 72
     9
 73
     5
 74
     0
 42
0.00000001
 43
0.00000001
 40
0.0
 40
0.0
 40
0.0
 40
0.0
 40
0.4875141023677128
 40
0.9999999999999999
 40
0.9999999999999999
 40
0.9999999999999999
 40
0.9999999999999999
 10
159.2942810775174
 20
80.89565357967673
 30
0.0
 10
159.32058765144
 20
80.89738092564843
 30
0.0
 10
159.3745482933882
 20
80.90092409693992
 30
0.0
 10
159.424583824083
 20
80.92244258288922
 30
0.0
 10
159.4502263279446
 20
80.93347050347666
 30
0.0
  0
SPLINE
  5
B8
330
1F
100
AcDbEntity
  8
0
  6
Continuous
 62
     7
370
    25
100
AcDbSpline
210
0.0
220
0.0
230
1.0
 70
     8
 71
     3
 72
    17
 73
    13
 74
     0
 42
0.00000001
 43
0.00000001
 40
0.0
 40
0.0
 40
0.0
 40
0.0
 40
0.3241697628029873
 40
0.5422758463620719
 40
0.689509052693928
 40
0.7894036290694505
 40
0.8577090008137825
 40
0.9049823971474137
 40
0.9551712229700868
 40
0.9753097783197817
 40
0.9919572060138848
 40
1.0
 40
1.0
 40
1.0
 40
1.0
 10
156.9756794438624
 20
88.8956535796743
 30
0.0
 10
157.1183948038796
 20
87.98304007706862
 30
0.0
 10
157.3571311128215
 20
86.45640707080729
 30
0.0
 10
157.7367183072732
 20
84.52963416852633
 30
0.0
 10
158.0458525156203
 20
83.24199869759354
 30
0.0
 10
158.3019660438204
 20
82.3828467308718
 30
0.0
 10
158.5162770467154
 20
81.8093788424944
 30
0.0
 10
158.7195112677433
 20
81.38784668846444
 30
0.0
 10
158.9040565322859
 20
81.107354145669
 30
0.0
 10
159.090127618654
 20
80.95180547708834
 30
0.0
 10
159.2053382179099
 20
80.90119487789084
 30
0.0
 10
159.2724270233828
 20
80.89701512608622
 30
0.0
 10
159.2942810775174
 20
80.89565357967673
 30
0.0
  0
SPLINE
  5
B9
330
1F
100
AcDbEntity
  8
0
  6
Continuous
 62
     7
370
    25
100
AcDbSpline
210
0.0
220
0.0
230
1.0
 70
     8
 71
     3
 72
    14
 73
    10
 74
     0
 42
0.00000001
 43
0.00000001
 40
0.0
 40
0.0
 40
0.0
 40
0.0
 40
0.1576095309202822
 40
0.3152382602707094
 40
0.4726926441579498
 40
0.6301650083177254
 40
0.7907313191165901
 40
0.9513050385928076
 40
1.0
 40
1.0
 40
1.0
 40
1.0
 10
154.9502263279446
 20
80.89565357967666
 30
0.0
 10
154.8836553131625
 20
81.10915536815406
 30
0.0
 10
154.7505051745776
 20
81.53618495177959
 30
0.0
 10
154.4219382128269
 20
82.12143203063589
 30
0.0
 10
154.0085485720949
 20
82.64358657145831
 30
0.0
 10
153.5128736531502
 20
83.09256469887819
 30
0.0
 10
152.9465839478657
 20
83.45184643068457
 30
0.0
 10
152.4703332914727
 20
83.65641260978575
 30
0.0
 10
152.1901387232799
 20
83.73720715813705
 30
0.0
 10
152.1249399385069
 20
83.75600733118382
 30
0.0
  0
LINE
  5
BA
330
1F
100
AcDbEntity
  8
0
  6
Continuous
 62
     7
370
    25
100
AcDbLine
 10
152.1249399385
 20
83.7560073312
 30
0.0
 11
146.3451830887
 21
85.3246287717
 31
0.0
  0
SPLINE
  5
BB
330
1F
100
AcDbEntity
  8
0
  6
Continuous
 62
     7
370
    25
100
AcDbSpline
210
0.0
220
0.0
230
1.0
 70
     8
 71
     3
 72
    11
 73
     7
 74
     0
 42
0.00000001
 43
0.00000001
 40
0.0
 40
0.0
 40
0.0
 40
0.0
 40
0.2488466353289361
 40
0.4976946020535204
 40
0.7488461225871278
 40
1.0
 40
1.0
 40
1.0
 40
1.0
 10
139.2747894664079
 20
86.64782927265222
 30
0.0
 10
139.8692255155441
 20
86.57830489615858
 30
0.0
 10
141.0581007942075
 20
86.43925577119741
 30
0.0
 10
142.8328254649166
 20
86.13892703307214
 30
0.0
 10
144.599406106659
 20
85.77701741481697
 30
0.0
 10
145.7632556076786
 20
85.47542545775242
 30
0.0
 10
146.3451830886516
 20
85.3246287716667
 30
0.0
  0
LINE
  5
BC
330
1F
100
AcDbEntity
  8
0
  6
Continuous
 62
     7
370
    25
100
AcDbLine
 10
139.2747894664
 20
86.6478292727
 30
0.0
 11
139.2747894664
 21
89.8903971577
 31
0.0
  0
LINE
  5
BD
330
1F
100
AcDbEntity
  8
0
  6
Continuous
 62
     7
370
    25
100
AcDbLine
 10
139.2747894664
 20
89.8903971577
 30
0.0
 11
157.7358901996
 21
89.8903971576
 31
0.0
  0
LINE
  5
BE
330
1F
100
AcDbEntity
  8
0
  6
Continuous
 62
     7
370
    25
100
AcDbLine
 10
159.2942810775
 20
80.8956535797
 30
0.0
 11
154.9502263279
 21
80.8956535797
 31
0.0
  0
LINE
  5
BF
330
1F
100
AcDbEntity
  8
0
  6
Continuous
 62
     7
370
    25
100
AcDbLine
 10
159.4502263279
 20
80.9334705035
 30
0.0
 11
159.44342697
 21
80.8956535797
 31
0.0
  0
LINE
  5
C0
330
1F
100
AcDbEntity
  8
0
  6
Continuous
 62
     7
370
    25
100
AcDbLine
 10
159.4502263279
 20
80.8956535797
 30
0.0
 11
159.44342697
 21
80.8956535797
 31
0.0
  0
LINE
  5
C1
330
1F
100
AcDbEntity
  8
0
  6
Continuous
 62
     7
370
    25
100
AcDbLine
 10
159.44342697
 20
80.8956535797
 30
0.0
 11
159.2942810775
 21
80.8956535797
 31
0.0
  0
LINE
  5
C2
330
1F
100
AcDbEntity
  8
0
  6
Continuous
 62
     7
370
    25
100
AcDbLine
 10
121.4502263279
 20
98.8956535797
 30
0.0
 11
139.2747894664
 21
98.8956535797
 31
0.0
  0
LINE
  5
C3
330
1F
100
AcDbEntity
  8
0
  6
Continuous
 62
     7
370
    25
100
AcDbLine
 10
139.2747894664
 20
98.8956535797
 30
0.0
 11
139.2747894664
 21
89.8903971577
 31
0.0
  0
LINE
  5
C4
330
1F
100
AcDbEntity
  8
0
  6
Continuous
 62
     7
370
    25
100
AcDbLine
 10
134.5585584702
 20
86.8956535797
 30
0.0
 11
126.4502263279
 21
86.8956535797
 31
0.0
  0
ARC
  5
C5
330
1F
100
AcDbEntity
  8
0
  6
Continuous
 62
     7
370
    25
100
AcDbCircle
 10
126.4502263279
 20
91.8956535797
 30
0.0
 40
5.000000000000014
100
AcDbArc
 50
180.0
 51
270.0
  0
LINE
  5
C6
330
1F
100
AcDbEntity
  8
0
  6
Continuous
 62
     7
370
    25
100
AcDbLine
 10
121.4502263279
 20
91.8956535797
 30
0.0
 11
121.4502263279
 21
98.8956535797
 31
0.0
  0
ARC
  5
C7
330
1F
100
AcDbEntity
  8
0
  6
Continuous
 62
     7
370
    25
100
AcDbCircle
 10
134.5585584702
 20
41.8955243255
 30
0.0
 40
45.00012925418375
100
AcDbArc
 50
83.9840777705
 51
90.0
  0
LINE
  5
C8
330
1F
100
AcDbEntity
  8
0
  6
Continuous
 62
     7
370
    25
100
AcDbLine
 10
139.2747894664
 20
98.8956535797
 30
0.0
 11
141.4502263279
 21
98.8956535797
 31
0.0
  0
LINE
  5
C9
330
1F
100
AcDbEntity
  8
0
  6
Continuous
 62
     7
370
    25
100
AcDbLine
 10
141.4502263279
 20
98.8956535797
 30
0.0
 11
141.4502263279
 21
96.9146091031
 31
0.0
  0
ARC
  5
CA
330
1F
100
AcDbEntity
  8
0
  6
Continuous
 62
     7
370
    25
100
AcDbCircle
 10
147.4502263279
 20
96.9146091031
 30
0.0
 40
6.000000000000028
100
AcDbArc
 50
180.0
 51
275.5801667845
  0
ARC
  5
CB
330
1F
100
AcDbEntity
  8
0
  6
Continuous
 62
     7
370
    25
100
AcDbCircle
 10
147.0612727637
 20
100.8956535797
 30
0.0
 40
10.00000000000848
100
AcDbArc
 50
275.5801667845
 51
336.4218215217
  0
LINE
  5
CC
330
1F
100
AcDbEntity
  8
0
  6
Continuous
 62
     7
370
    25
100
AcDbLine
 10
154.9502263279
 20
80.8956535797
 30
0.0
 11
154.4502263279
 21
80.8956535797
 31
0.0
  0
LINE
  5
CD
330
1F
100
AcDbEntity
  8
0
  6
Continuous
 62
     7
370
    25
100
AcDbLine
 10
156.2111409953
 20
96.8956535796
 30
0.0
 11
156.2264241536
 21
96.8956535797
 31
0.0
  0
LINE
  5
CE
330
1F
100
AcDbEntity
  8
0
  6
Continuous
 62
     7
370
    25
100
AcDbLine
 10
146.7502263279
 20
75.3891339623
 30
0.0
 11
146.7502263279
 21
62.3956535797
 31
0.0
  0
LINE
  5
CF
330
1F
100
AcDbEntity
  8
0
  6
Continuous
 62
     7
370
    25
100
AcDbLine
 10
146.7502263279
 20
78.3956535797
 30
0.0
 11
146.7502263279
 21
75.3891339623
 31
0.0
  0
LINE
  5
D0
330
1F
100
AcDbEntity
  8
0
  6
Continuous
 62
     7
370
    25
100
AcDbLine
 10
146.5502263279
 20
75.2642969527
 30
0.0
 11
146.5502263279
 21
78.1956535797
 31
0.0
  0
LINE
  5
D1
330
1F
100
AcDbEntity
  8
0
  6
Continuous
 62
     7
370
    25
100
AcDbLine
 10
146.5502263279
 20
62.5956535797
 30
0.0
 11
146.5502263279
 21
75.2642969527
 31
0.0
  0
LINE
  5
D2
330
1F
100
AcDbEntity
  8
0
  6
Continuous
 62
     7
370
    25
100
AcDbLine
 10
137.0502263279
 20
73.5228206693
 30
0.0
 11
137.0502263279
 21
65.3856535797
 31
0.0
  0
LINE
  5
D3
330
1F
100
AcDbEntity
  8
0
  6
Continuous
 62
     7
370
    25
100
AcDbLine
 10
137.0502263279
 20
75.4056535797
 30
0.0
 11
137.0502263279
 21
73.5228206693
 31
0.0
  0
LINE
  5
D4
330
1F
100
AcDbEntity
  8
0
  6
Continuous
 62
     7
370
    25
100
AcDbLine
 10
155.4502263279
 20
77.7568695118
 30
0.0
 11
155.4502263279
 21
74.3956535797
 31
0.0
  0
SPLINE
  5
D5
330
1F
100
AcDbEntity
  8
0
  6
Continuous
 62
     7
370
    25
100
AcDbSpline
210
0.0
220
0.0
230
1.0
 70
     8
 71
     3
 72
     8
 73
     4
 74
     0
 42
0.00000001
 43
0.00000001
 40
0.0
 40
0.0
 40
0.0
 40
0.0
 40
1.0
 40
1.0
 40
1.0
 40
1.0
 10
154.9339902509654
 20
74.39565357967668
 30
0.0
 10
154.8830915340429
 20
74.60269861810568
 30
0.0
 10
154.8291573977921
 20
74.8089379477823
 30
0.0
 10
154.7725049226844
 20
75.01445573319369
 30
0.0
  0
SPLINE
  5
D6
330
1F
100
AcDbEntity
  8
0
  6
Continuous
 62
     7
370
    25
100
AcDbSpline
210
0.0
220
0.0
230
1.0
 70
     8
 71
     3
 72
    10
 73
     6
 74
     0
 42
0.00000001
 43
0.00000001
 40
0.0
 40
0.0
 40
0.0
 40
0.0
 40
0.5
 40
0.5
 40
1.0
 40
1.0
 40
1.0
 40
1.0
 10
154.7725049226844
 20
75.4474684350859
 30
0.0
 10
154.74882952826
 20
75.40452490418467
 30
0.0
 10
154.7357384183753
 20
75.34108245956054
 30
0.0
 10
154.7356520970871
 20
75.18860362244158
 30
0.0
 10
154.7488210310309
 20
75.10037362033431
 30
0.0
 10
154.7725049226844
 20
75.01445573319369
 30
0.0
  0
SPLINE
  5
D7
330
1F
100
AcDbEntity
  8
0
  6
Continuous
 62
     7
370
    25
100
AcDbSpline
210
0.0
220
0.0
230
1.0
 70
     8
 71
     3
 72
    12
 73
     8
 74
     0
 42
0.00000001
 43
0.00000001
 40
0.0
 40
0.0
 40
0.0
 40
0.0
 40
0.2500000000000001
 40
0.2500000000000001
 40
0.5000000000000002
 40
0.5000000000000002
 40
1.0
 40
1.0
 40
1.0
 40
1.0
 10
155.4502263279446
 20
77.7568695118444
 30
0.0
 10
155.4502263279446
 20
77.5611272489649
 30
0.0
 10
155.4343833918556
 20
77.36446063977432
 30
0.0
 10
155.3728805316179
 20
76.97519241244605
 30
0.0
 10
155.3272768905742
 20
76.78178837949314
 30
0.0
 10
155.150825873085
 20
76.20485932823637
 30
0.0
 10
154.9804285058331
 20
75.82460989503336
 30
0.0
 10
154.7725049226844
 20
75.4474684350859
 30
0.0
  0
LINE
  5
D8
330
1F
100
AcDbEntity
  8
0
  6
Continuous
 62
     7
370
    25
100
AcDbLine
 10
156.8314241744
 20
62.4292570398
 30
0.0
 11
156.8314241744
 21
59.2177125522
 31
0.0
  0
SPLINE
  5
D9
330
1F
100
AcDbEntity
  8
0
  6
Continuous
 62
     7
370
    25
100
AcDbSpline
210
0.0
220
0.0
230
1.0
 70
     8
 71
     3
 72
     8
 73
     4
 74
     0
 42
0.00000001
 43
0.00000001
 40
0.0
 40
0.0
 40
0.0
 40
0.0
 40
1.0
 40
1.0
 40
1.0
 40
1.0
 10
156.8314241744275
 20
62.42925703982168
 30
0.0
 10
157.0366099969708
 20
62.48581800694589
 30
0.0
 10
157.2428331976781
 20
62.53975807835974
 30
0.0
 10
157.4502263279446
 20
62.5907423681027
 30
0.0
  0
LINE
  5
DA
330
1F
100
AcDbEntity
  8
0
  6
Continuous
 62
     7
370
    25
100
AcDbLine
 10
157.4502263279
 20
66.3956535797
 30
0.0
 11
154.933990251
 21
66.3956535797
 31
0.0
  0
SPLINE
  5
DB
330
1F
100
AcDbEntity
  8
0
  6
Continuous
 62
     7
370
    25
100
AcDbSpline
210
0.0
220
0.0
230
1.0
 70
     8
 71
     3
 72
     8
 73
     4
 74
     0
 42
0.00000001
 43
0.00000001
 40
0.0
 40
0.0
 40
0.0
 40
0.0
 40
1.0
 40
1.0
 40
1.0
 40
1.0
 10
154.7725049226844
 20
65.77685142615964
 30
0.0
 10
154.8290682921526
 20
65.98204596366939
 30
0.0
 10
154.8830082149739
 20
66.18826961718656
 30
0.0
 10
154.9339902509654
 20
66.39565357967666
 30
0.0
  0
LINE
  5
DC
330
1F
100
AcDbEntity
  8
0
  6
Continuous
 62
     7
370
    25
100
AcDbLine
 10
150.2722853005
 20
65.7768514262
 30
0.0
 11
154.7725049227
 21
65.7768514262
 31
0.0
  0
SPLINE
  5
DD
330
1F
100
AcDbEntity
  8
0
  6
Continuous
 62
     7
370
    25
100
AcDbSpline
210
0.0
220
0.0
230
1.0
 70
     8
 71
     3
 72
    14
 73
    10
 74
     0
 42
0.00000001
 43
0.00000001
 40
0.0
 40
0.0
 40
0.0
 40
0.0
 40
0.25
 40
0.25
 40
0.5
 40
0.5
 40
0.75
 40
0.75
 40
1.0
 40
1.0
 40
1.0
 40
1.0
 10
150.2722853005021
 20
65.77685142615962
 30
0.0
 10
150.0642754444967
 20
66.53144731748954
 30
0.0
 10
149.8921238502609
 20
67.30064096188636
 30
0.0
 10
149.6575055183677
 20
68.84096471797196
 30
0.0
 10
149.5945310369284
 20
69.6158693337081
 30
0.0
 10
149.5945967796757
 20
71.17667807129162
 30
0.0
 10
149.6592535543003
 20
71.96720533286614
 30
0.0
 10
149.8957792481282
 20
73.50915314552222
 30
0.0
 10
150.0661051756425
 20
74.26649754466933
 30
0.0
 10
150.2722853005021
 20
75.01445573319369
 30
0.0
  0
LINE
  5
DE
330
1F
100
AcDbEntity
  8
0
  6
Continuous
 62
     7
370
    25
100
AcDbLine
 10
154.7725049227
 20
75.0144557332
 30
0.0
 11
150.2722853005
 21
75.0144557332
 31
0.0
  0
LINE
  5
DF
330
1F
100
AcDbEntity
  8
0
  6
Continuous
 62
     7
370
    25
100
AcDbLine
 10
167.9664624049
 20
74.3956535797
 30
0.0
 11
154.933990251
 21
74.3956535797
 31
0.0
  0
SPLINE
  5
E0
330
1F
100
AcDbEntity
  8
0
  6
Continuous
 62
     7
370
    25
100
AcDbSpline
210
0.0
220
0.0
230
1.0
 70
     8
 71
     3
 72
     8
 73
     4
 74
     0
 42
0.00000001
 43
0.00000001
 40
0.0
 40
0.0
 40
0.0
 40
0.0
 40
1.0
 40
1.0
 40
1.0
 40
1.0
 10
167.9664624049237
 20
74.39565357967675
 30
0.0
 10
168.0173586381788
 20
74.6026885150805
 30
0.0
 10
168.0712925931425
 20
74.8089282801455
 30
0.0
 10
168.1279477332047
 20
75.0144557331937
 30
0.0
  0
LINE
  5
E1
330
1F
100
AcDbEntity
  8
0
  6
Continuous
 62
     7
370
    25
100
AcDbLine
 10
172.6281673554
 20
75.0144557332
 30
0.0
 11
168.1279477332
 21
75.0144557332
 31
0.0
  0
SPLINE
  5
E2
330
1F
100
AcDbEntity
  8
0
  6
Continuous
 62
     7
370
    25
100
AcDbSpline
210
0.0
220
0.0
230
1.0
 70
     8
 71
     3
 72
    14
 73
    10
 74
     0
 42
0.00000001
 43
0.00000001
 40
0.0
 40
0.0
 40
0.0
 40
0.0
 40
0.25
 40
0.25
 40
0.5
 40
0.5
 40
0.75
 40
0.75
 40
1.0
 40
1.0
 40
1.0
 40
1.0
 10
172.628167355387
 20
65.77685142615962
 30
0.0
 10
172.8361177160928
 20
66.5312314868096
 30
0.0
 10
173.0083395247816
 20
67.3006726542751
 30
0.0
 10
173.2429746475325
 20
68.84118401521626
 30
0.0
 10
173.3059187061602
 20
69.61603839522328
 30
0.0
 10
173.3058587934287
 20
71.17639935010885
 30
0.0
 10
173.2412441271366
 20
71.96685554289387
 30
0.0
 10
173.0046847877354
 20
73.50913520570234
 30
0.0
 10
172.8343396476559
 20
74.26652595890353
 30
0.0
 10
172.6281673553869
 20
75.01445573319369
 30
0.0
  0
LINE
  5
E3
330
1F
100
AcDbEntity
  8
0
  6
Continuous
 62
     7
370
    25
100
AcDbLine
 10
168.1279477332
 20
65.7768514262
 30
0.0
 11
172.6281673554
 21
65.7768514262
 31
0.0
  0
SPLINE
  5
E4
330
1F
100
AcDbEntity
  8
0
  6
Continuous
 62
     7
370
    25
100
AcDbSpline
210
0.0
220
0.0
230
1.0
 70
     8
 71
     3
 72
     8
 73
     4
 74
     0
 42
0.00000001
 43
0.00000001
 40
0.0
 40
0.0
 40
0.0
 40
0.0
 40
1.0
 40
1.0
 40
1.0
 40
1.0
 10
168.1279477332047
 20
65.77685142615965
 30
0.0
 10
168.0713858897678
 20
65.98204042769645
 30
0.0
 10
168.0174458725114
 20
66.18826379376115
 30
0.0
 10
167.9664624049237
 20
66.3956535796766
 30
0.0
  0
LINE
  5
E5
330
1F
100
AcDbEntity
  8
0
  6
Continuous
 62
     7
370
    25
100
AcDbLine
 10
167.9664624049
 20
66.3956535797
 30
0.0
 11
165.4502263279
 21
66.3956535797
 31
0.0
  0
SPLINE
  5
E6
330
1F
100
AcDbEntity
  8
0
  6
Continuous
 62
     7
370
    25
100
AcDbSpline
210
0.0
220
0.0
230
1.0
 70
     8
 71
     3
 72
     8
 73
     4
 74
     0
 42
0.00000001
 43
0.00000001
 40
0.0
 40
0.0
 40
0.0
 40
0.0
 40
1.0
 40
1.0
 40
1.0
 40
1.0
 10
165.4502263279445
 20
62.5907423681027
 30
0.0
 10
165.65725539128
 20
62.53984757840186
 30
0.0
 10
165.8634954085493
 20
62.48591372904043
 30
0.0
 10
166.0690284814615
 20
62.42925703982167
 30
0.0
  0
LINE
  5
E7
330
1F
100
AcDbEntity
  8
0
  6
Continuous
 62
     7
370
    25
100
AcDbLine
 10
166.0690284815
 20
59.2177125522
 30
0.0
 11
166.0690284815
 21
62.4292570398
 31
0.0
  0
SPLINE
  5
E8
330
1F
100
AcDbEntity
  8
0
  6
Continuous
 62
     7
370
    25
100
AcDbSpline
210
0.0
220
0.0
230
1.0
 70
     8
 71
     3
 72
    14
 73
    10
 74
     0
 42
0.00000001
 43
0.00000001
 40
0.0
 40
0.0
 40
0.0
 40
0.0
 40
0.5000000000000001
 40
0.5000000000000001
 40
0.6250000000000001
 40
0.6250000000000001
 40
0.7500000000000002
 40
0.7500000000000002
 40
1.0
 40
1.0
 40
1.0
 40
1.0
 10
156.8314241744276
 20
59.21771255223427
 30
0.0
 10
158.3290574139617
 20
58.80487903686039
 30
0.0
 10
159.8566819627668
 20
58.54142611094047
 30
0.0
 10
161.8319712112173
 20
58.53963993000126
 30
0.0
 10
162.2289002916134
 20
58.55544705508124
 30
0.0
 10
163.0121568252596
 20
58.61712710029673
 30
0.0
 10
163.4005626394034
 20
58.66294081998829
 30
0.0
 10
164.5572739111987
 20
58.83990740740167
 30
0.0
 10
165.3171047085425
 20
59.01043928513991
 30
0.0
 10
166.0690284814615
 20
59.21771255223427
 30
0.0
  0
ARC
  5
E9
330
1F
100
AcDbEntity
  8
0
  6
Continuous
 62
     7
370
    25
100
AcDbCircle
 10
163.0009576837
 20
69.8187345864
 30
0.0
 40
0.889000000000007
100
AcDbArc
 50
45.0
 51
315.0
  0
LINE
  5
EA
330
1F
100
AcDbEntity
  8
0
  6
Continuous
 62
     7
370
    25
100
AcDbLine
 10
163.6295756121
 20
70.4473525148
 30
0.0
 11
164.0961859978
 21
70.9139629005
 31
0.0
  0
ARC
  5
EB
330
1F
100
AcDbEntity
  8
0
  6
Continuous
 62
     7
370
    25
100
AcDbCircle
 10
163.0009576837
 20
69.8187345864
 30
0.0
 40
1.548886735692394
100
AcDbArc
 50
45.0
 51
315.0
  0
LINE
  5
EC
330
1F
100
AcDbEntity
  8
0
  6
Continuous
 62
     7
370
    25
100
AcDbLine
 10
164.0961859978
 20
68.7235062723
 30
0.0
 11
163.6295756121
 21
69.1901166579
 31
0.0
  0
ARC
  5
ED
330
1F
100
AcDbEntity
  8
0
  6
Continuous
 62
     7
370
    25
100
AcDbCircle
 10
166.34310228
 20
69.8187345864
 30
0.0
 40
0.8889999999999768
100
AcDbArc
 50
45.0
 51
159.0751675724
  0
LINE
  5
EE
330
1F
100
AcDbEntity
  8
0
  6
Continuous
 62
     7
370
    25
100
AcDbLine
 10
166.9717202085
 20
70.4473525148
 30
0.0
 11
167.4383305941
 21
70.9139629005
 31
0.0
  0
ARC
  5
EF
330
1F
100
AcDbEntity
  8
0
  6
Continuous
 62
     7
370
    25
100
AcDbCircle
 10
166.34310228
 20
69.8187345864
 30
0.0
 40
1.548886735692384
100
AcDbArc
 50
45.0
 51
315.0
  0
LINE
  5
F0
330
1F
100
AcDbEntity
  8
0
  6
Continuous
 62
     7
370
    25
100
AcDbLine
 10
167.4383305941
 20
68.7235062723
 30
0.0
 11
166.9717202085
 21
69.1901166579
 31
0.0
  0
ARC
  5
F1
330
1F
100
AcDbEntity
  8
0
  6
Continuous
 62
     7
370
    25
100
AcDbCircle
 10
166.34310228
 20
69.8187345864
 30
0.0
 40
0.889000000000014
100
AcDbArc
 50
200.9248324276
 51
315.0
  0
LINE
  5
F2
330
1F
100
AcDbEntity
  8
0
  6
Continuous
 62
     7
370
    25
100
AcDbLine
 10
165.5127320313
 20
69.5012345864
 30
0.0
 11
167.4383305941
 21
69.5012345864
 31
0.0
  0
LINE
  5
F3
330
1F
100
AcDbEntity
  8
0
  6
Continuous
 62
     7
370
    25
100
AcDbLine
 10
167.4383305941
 20
69.5012345864
 30
0.0
 11
167.4383305941
 21
70.1362345864
 31
0.0
  0
LINE
  5
F4
330
1F
100
AcDbEntity
  8
0
  6
Continuous
 62
     7
370
    25
100
AcDbLine
 10
167.4383305941
 20
70.1362345864
 30
0.0
 11
165.5127320313
 21
70.1362345864
 31
0.0
  0
LINE
  5
F5
330
1F
100
AcDbEntity
  8
0
  6
Continuous
 62
     7
370
    25
100
AcDbLine
 10
160.548467414
 20
68.9732805621
 30
0.0
 11
160.5068170947
 21
68.9494756322
 31
0.0
  0
ELLIPSE
  5
F6
330
1F
100
AcDbEntity
  8
0
  6
Continuous
 62
     7
370
    25
100
AcDbEllipse
 10
160.1579739151
 20
69.5041581035
 30
0.0
 11
0.678412947925267
 21
6.110667527536863E-13
 31
0.0
210
0.0
220
0.0
230
1.0
 40
0.9533039403
 41
3.470145824140265
 42
5.252469180536309
  0
LINE
  5
F7
330
1F
100
AcDbEntity
  8
0
  6
Continuous
 62
     7
370
    25
100
AcDbLine
 10
159.5158491481
 20
69.2954739885
 30
0.0
 11
158.2561949432
 21
72.8179183851
 31
0.0
  0
ELLIPSE
  5
F8
330
1F
100
AcDbEntity
  8
0
  6
Continuous
 62
     7
370
    25
100
AcDbEllipse
 10
157.6652123853
 20
72.5555791491
 30
0.0
 11
0.6519124952381786
 21
6.110667527536860E-13
 31
0.0
210
0.0
220
0.0
230
1.0
 40
0.9533023292
 41
0.4357905044354733
 42
2.70580011636148
  0
LINE
  5
F9
330
1F
100
AcDbEntity
  8
0
  6
Continuous
 62
     7
370
    25
100
AcDbLine
 10
157.0742303868
 20
72.8179195304
 30
0.0
 11
155.8148655851
 21
69.2962961287
 31
0.0
  0
ELLIPSE
  5
FA
330
1F
100
AcDbEntity
  8
0
  6
Continuous
 62
     7
370
    25
100
AcDbEllipse
 10
155.1727444011
 20
69.5049789623
 30
0.0
 11
-0.6784085062757867
 21
3.268496584496461E-13
 31
0.0
210
0.0
220
0.0
230
1.0
 40
0.9533122623
 41
1.04719377118793
 42
2.81304232019991
  0
LINE
  5
FB
330
1F
100
AcDbEntity
  8
0
  6
Continuous
 62
     7
370
    25
100
AcDbLine
 10
154.8335379271
 20
68.9448911171
 30
0.0
 11
154.7819573566
 21
68.9732805621
 31
0.0
  0
LINE
  5
FC
330
1F
100
AcDbEntity
  8
0
  6
Continuous
 62
     7
370
    25
100
AcDbLine
 10
154.7819573566
 20
68.9732805621
 30
0.0
 11
155.5782260161
 21
67.4551084607
 31
0.0
  0
ELLIPSE
  5
FD
330
1F
100
AcDbEntity
  8
0
  6
Continuous
 62
     7
370
    25
100
AcDbEllipse
 10
155.6540748896
 20
67.4912619756
 30
0.0
 11
0.08480161849064416
 21
-2.842170943040401E-14
 31
0.0
210
0.0
220
0.0
230
1.0
 40
0.9533039403
 41
3.605240262590927
 42
5.462183310215446
  0
ELLIPSE
  5
FE
330
1F
100
AcDbEntity
  8
0
  6
Continuous
 62
     7
370
    25
100
AcDbEllipse
 10
157.6652123853
 20
65.4324133551
 30
0.0
 11
2.866293551216245
 21
-1.477928890381008E-12
 31
0.0
210
0.0
220
0.0
230
1.0
 40
0.9533046568
 41
0.8210016221243781
 42
2.320591031466423
  0
ELLIPSE
  5
FF
330
1F
100
AcDbEntity
  8
0
  6
Continuous
 62
     7
370
    25
100
AcDbEllipse
 10
159.676349881
 20
67.4912619756
 30
0.0
 11
0.08480161849058732
 21
0.0
 31
0.0
210
0.0
220
0.0
230
1.0
 40
0.9533039403
 41
3.962594650556324
 42
5.819537698177162
  0
LINE
  5
100
330
1F
100
AcDbEntity
  8
0
  6
Continuous
 62
     7
370
    25
100
AcDbLine
 10
159.7521987544
 20
67.4551084607
 30
0.0
 11
160.548467414
 21
68.9732805621
 31
0.0
  0
LINE
  5
101
330
1F
100
AcDbEntity
  8
0
  6
Continuous
 62
     7
370
    25
100
AcDbLine
 10
157.4502263279
 20
62.5907423681
 30
0.0
 11
157.4502263279
 21
66.3956535797
 31
0.0
  0
LINE
  5
102
330
1F
100
AcDbEntity
  8
0
  6
Continuous
 62
     7
370
    25
100
AcDbLine
 10
165.4502263279
 20
62.5907423681
 30
0.0
 11
165.4502263279
 21
66.3956535797
 31
0.0
  0
SPLINE
  5
103
330
1F
100
AcDbEntity
  8
0
  6
Continuous
 62
     7
370
    25
100
AcDbSpline
210
0.0
220
0.0
230
1.0
 70
     8
 71
     3
 72
     9
 73
     5
 74
     0
 42
0.00000001
 43
0.00000001
 40
0.0
 40
0.0
 40
0.0
 40
0.0
 40
0.5797912171256419
 40
1.0
 40
1.0
 40
1.0
 40
1.0
 10
150.2722853005021
 20
80.0662705886029
 30
0.0
 10
150.2846439038486
 20
80.08874423684405
 30
0.0
 10
150.305959513643
 20
80.12750585926487
 30
0.0
 10
150.3063504561458
 20
80.12824026402308
 30
0.0
 10
150.3065147336191
 20
80.12854886735266
 30
0.0
  0
SPLINE
  5
104
330
1F
100
AcDbEntity
  8
0
  6
Continuous
 62
     7
370
    25
100
AcDbSpline
210
0.0
220
0.0
230
1.0
 70
     8
 71
     3
 72
    16
 73
    12
 74
     0
 42
0.00000001
 43
0.00000001
 40
0.0
 40
0.0
 40
0.0
 40
0.0
 40
0.2499999999999998
 40
0.2499999999999998
 40
0.4999999999999996
 40
0.4999999999999996
 40
0.6249999999999994
 40
0.6249999999999994
 40
0.7499999999999996
 40
0.7499999999999996
 40
1.0
 40
1.0
 40
1.0
 40
1.0
 10
150.2722853005021
 20
75.4474684350859
 30
0.0
 10
150.0642698523964
 20
75.8247765239624
 30
0.0
 10
149.8940635474234
 20
76.20480025433659
 30
0.0
 10
149.6591275158558
 20
76.97242356974729
 30
0.0
 10
149.5950553841922
 20
77.3600703865361
 30
0.0
 10
149.5943224352712
 20
77.94839093842394
 30
0.0
 10
149.6099819153542
 20
78.14546413097959
 30
0.0
 10
149.6712570419911
 20
78.53552110853369
 30
0.0
 10
149.7168133144903
 20
78.72931400912172
 30
0.0
 10
149.8932993472465
 20
79.30739499388515
 30
0.0
 10
150.0639558007322
 20
79.68839285821998
 30
0.0
 10
150.2722853005021
 20
80.0662705886029
 30
0.0
  0
SPLINE
  5
105
330
1F
100
AcDbEntity
  8
0
  6
Continuous
 62
     7
370
    25
100
AcDbSpline
210
0.0
220
0.0
230
1.0
 70
     8
 71
     3
 72
    10
 73
     6
 74
     0
 42
0.00000001
 43
0.00000001
 40
0.0
 40
0.0
 40
0.0
 40
0.0
 40
0.5
 40
0.5
 40
1.0
 40
1.0
 40
1.0
 40
1.0
 10
150.2722853005021
 20
75.01445573319369
 30
0.0
 10
150.2959606949265
 20
75.10034279499614
 30
0.0
 10
150.3090518048112
 20
75.18775000397625
 30
0.0
 10
150.3091381260994
 20
75.34038644657
 30
0.0
 10
150.2959691921556
 20
75.40450949151558
 30
0.0
 10
150.2722853005021
 20
75.4474684350859
 30
0.0
  0
SPLINE
  5
106
330
1F
100
AcDbEntity
  8
0
  6
Continuous
 62
     7
370
    25
100
AcDbSpline
210
0.0
220
0.0
230
1.0
 70
     8
 71
     3
 72
    10
 73
     6
 74
     0
 42
0.00000001
 43
0.00000001
 40
0.0
 40
0.0
 40
0.0
 40
0.0
 40
0.5
 40
0.5
 40
1.0
 40
1.0
 40
1.0
 40
1.0
 10
150.2722853004978
 20
65.34383872426744
 30
0.0
 10
150.2959606949221
 20
65.38678225516857
 30
0.0
 10
150.3090518048111
 20
65.45022469979226
 30
0.0
 10
150.3091381260995
 20
65.60270353691138
 30
0.0
 10
150.2959691921557
 20
65.69093353901886
 30
0.0
 10
150.2722853005021
 20
65.77685142615965
 30
0.0
  0
SPLINE
  5
107
330
1F
100
AcDbEntity
  8
0
  6
Continuous
 62
     7
370
    25
100
AcDbSpline
210
0.0
220
0.0
230
1.0
 70
     8
 71
     3
 72
    16
 73
    12
 74
     0
 42
0.00000001
 43
0.00000001
 40
0.0
 40
0.0
 40
0.0
 40
0.0
 40
0.2499999999999999
 40
0.2499999999999999
 40
0.4999999999999998
 40
0.4999999999999998
 40
0.6249999999999998
 40
0.6249999999999998
 40
0.7499999999999999
 40
0.7499999999999999
 40
1.0
 40
1.0
 40
1.0
 40
1.0
 10
150.2722853005021
 20
60.72503657075043
 30
0.0
 10
150.0642698523964
 20
61.10234465962691
 30
0.0
 10
149.8940635474234
 20
61.48236839000108
 30
0.0
 10
149.6591275158559
 20
62.24999170541172
 30
0.0
 10
149.5950553841922
 20
62.63763852220049
 30
0.0
 10
149.5943224352712
 20
63.22595907408829
 30
0.0
 10
149.6099819153542
 20
63.42303226664392
 30
0.0
 10
149.6712570419911
 20
63.81308924419798
 30
0.0
 10
149.7168133144902
 20
64.00688214478602
 30
0.0
 10
149.8932993472464
 20
64.5849631295494
 30
0.0
 10
150.0639558007321
 20
64.96596099388418
 30
0.0
 10
150.2722853005019
 20
65.3438387242671
 30
0.0
  0
SPLINE
  5
108
330
1F
100
AcDbEntity
  8
0
  6
Continuous
 62
     7
370
    25
100
AcDbSpline
210
0.0
220
0.0
230
1.0
 70
     8
 71
     3
 72
    10
 73
     6
 74
     0
 42
0.00000001
 43
0.00000001
 40
0.0
 40
0.0
 40
0.0
 40
0.0
 40
0.1601790552921157
 40
0.7197651707803561
 40
1.0
 40
1.0
 40
1.0
 40
1.0
 10
150.3065147336191
 20
60.66275829200069
 30
0.0
 10
150.3072775237123
 20
60.66136606397432
 30
0.0
 10
150.3107051237861
 20
60.65511008224599
 30
0.0
 10
150.2961976589878
 20
60.68161734697391
 30
0.0
 10
150.2782681058699
 20
60.71417320211907
 30
0.0
 10
150.2722853005021
 20
60.72503657075043
 30
0.0
  0
LINE
  5
109
330
1F
100
AcDbEntity
  8
0
  6
Continuous
 62
     7
370
    25
100
AcDbLine
 10
149.5502263279
 20
61.9724484989
 30
0.0
 11
149.5502263279
 21
78.8188586604
 31
0.0
  0
SPLINE
  5
10A
330
1F
100
AcDbEntity
  8
0
  6
Continuous
 62
     7
370
    25
100
AcDbSpline
210
0.0
220
0.0
230
1.0
 70
     8
 71
     3
 72
    10
 73
     6
 74
     0
 42
0.00000001
 43
0.00000001
 40
0.0
 40
0.0
 40
0.0
 40
0.0
 40
0.5
 40
0.5
 40
1.0
 40
1.0
 40
1.0
 40
1.0
 10
156.3984114725353
 20
62.42925703982168
 30
0.0
 10
156.4413550034366
 20
62.40558164539728
 30
0.0
 10
156.5047974480607
 20
62.39249053551264
 30
0.0
 10
156.6572762851796
 20
62.39240421422436
 30
0.0
 10
156.7455062872869
 20
62.4055731481682
 30
0.0
 10
156.8314241744275
 20
62.42925703982167
 30
0.0
  0
SPLINE
  5
10B
330
1F
100
AcDbEntity
  8
0
  6
Continuous
 62
     7
370
    25
100
AcDbSpline
210
0.0
220
0.0
230
1.0
 70
     8
 71
     3
 72
    10
 73
     6
 74
     0
 42
0.00000001
 43
0.00000001
 40
0.0
 40
0.0
 40
0.0
 40
0.0
 40
0.5
 40
0.5
 40
1.0
 40
1.0
 40
1.0
 40
1.0
 10
156.3984114725353
 20
59.21771255223427
 30
0.0
 10
156.4413492816346
 20
59.24138479214583
 30
0.0
 10
156.5047898715268
 20
59.25447878208109
 30
0.0
 10
156.6572790170356
 20
59.25456564954253
 30
0.0
 10
156.7455084062389
 20
59.24139585978318
 30
0.0
 10
156.8314241744276
 20
59.21771255223427
 30
0.0
  0
LINE
  5
10C
330
1F
100
AcDbEntity
  8
0
  6
Continuous
 62
     7
370
    25
100
AcDbLine
 10
156.3984114725
 20
59.2177125522
 30
0.0
 11
156.3984114725
 21
62.4292570398
 31
0.0
  0
SPLINE
  5
10D
330
1F
100
AcDbEntity
  8
0
  6
Continuous
 62
     7
370
    25
100
AcDbSpline
210
0.0
220
0.0
230
1.0
 70
     8
 71
     3
 72
    10
 73
     6
 74
     0
 42
0.00000001
 43
0.00000001
 40
0.0
 40
0.0
 40
0.0
 40
0.0
 40
0.5
 40
0.5
 40
1.0
 40
1.0
 40
1.0
 40
1.0
 10
166.0690284814615
 20
62.42925703982166
 30
0.0
 10
166.1549155432641
 20
62.40558164539723
 30
0.0
 10
166.2423227522443
 20
62.39249053551261
 30
0.0
 10
166.3949591948382
 20
62.39240421422439
 30
0.0
 10
166.4590822397839
 20
62.40557314816833
 30
0.0
 10
166.5020411833542
 20
62.42925703982188
 30
0.0
  0
LINE
  5
10E
330
1F
100
AcDbEntity
  8
0
  6
Continuous
 62
     7
370
    25
100
AcDbLine
 10
166.5020411834
 20
62.4292570398
 30
0.0
 11
166.5020411834
 21
59.2177125522
 31
0.0
  0
SPLINE
  5
10F
330
1F
100
AcDbEntity
  8
0
  6
Continuous
 62
     7
370
    25
100
AcDbSpline
210
0.0
220
0.0
230
1.0
 70
     8
 71
     3
 72
    10
 73
     6
 74
     0
 42
0.00000001
 43
0.00000001
 40
0.0
 40
0.0
 40
0.0
 40
0.0
 40
0.5
 40
0.5
 40
1.0
 40
1.0
 40
1.0
 40
1.0
 10
166.0690284814615
 20
59.21771255223427
 30
0.0
 10
166.154910123968
 20
59.24138645279022
 30
0.0
 10
166.2423193299335
 20
59.25447900996937
 30
0.0
 10
166.3949618150084
 20
59.25456542395164
 30
0.0
 10
166.4590848000907
 20
59.24139503235302
 30
0.0
 10
166.5020411833538
 20
59.21771255223427
 30
0.0
  0
SPLINE
  5
110
330
1F
100
AcDbEntity
  8
0
  6
Continuous
 62
     7
370
    25
100
AcDbSpline
210
0.0
220
0.0
230
1.0
 70
     8
 71
     3
 72
     8
 73
     4
 74
     0
 42
0.00000001
 43
0.00000001
 40
0.0
 40
0.0
 40
0.0
 40
0.0
 40
1.0
 40
1.0
 40
1.0
 40
1.0
 10
154.1608501433279
 20
63.10627739504794
 30
0.0
 10
154.4698672859697
 20
63.20728250287807
 30
0.0
 10
154.7851850422877
 20
63.303939291944
 30
0.0
 10
155.1076643691307
 20
63.39565357967668
 30
0.0
  0
SPLINE
  5
111
330
1F
100
AcDbEntity
  8
0
  6
Continuous
 62
     7
370
    25
100
AcDbSpline
210
0.0
220
0.0
230
1.0
 70
     8
 71
     3
 72
    12
 73
     8
 74
     0
 42
0.00000001
 43
0.00000001
 40
0.0
 40
0.0
 40
0.0
 40
0.0
 40
0.2500000000000002
 40
0.2500000000000002
 40
0.5000000000000004
 40
0.5000000000000004
 40
1.0
 40
1.0
 40
1.0
 40
1.0
 10
154.1608501433227
 20
63.10627739504181
 30
0.0
 10
154.3508763186259
 20
63.10256890918538
 30
0.0
 10
154.5410913813117
 20
63.0839864063477
 30
0.0
 10
154.9180281404441
 20
63.01911936938155
 30
0.0
 10
155.1053509317036
 20
62.9728538161313
 30
0.0
 10
155.6642608880177
 20
62.79712928582433
 30
0.0
 10
156.032796546128
 20
62.63082587704758
 30
0.0
 10
156.3984114725353
 20
62.42925703982168
 30
0.0
  0
LINE
  5
112
330
1F
100
AcDbEntity
  8
0
  6
Continuous
 62
     7
370
    25
100
AcDbLine
 10
169.7002263279
 20
58.3956535797
 30
0.0
 11
153.2002263279
 21
58.3956535797
 31
0.0
  0
SPLINE
  5
113
330
1F
100
AcDbEntity
  8
0
  6
Continuous
 62
     7
370
    25
100
AcDbSpline
210
0.0
220
0.0
230
1.0
 70
     8
 71
     3
 72
    16
 73
    12
 74
     0
 42
0.00000001
 43
0.00000001
 40
0.0
 40
0.0
 40
0.0
 40
0.0
 40
0.2500000000000001
 40
0.2500000000000001
 40
0.5000000000000001
 40
0.5000000000000001
 40
0.6250000000000001
 40
0.6250000000000001
 40
0.7500000000000002
 40
0.7500000000000002
 40
1.0
 40
1.0
 40
1.0
 40
1.0
 10
171.1208433368708
 20
59.21771255223381
 30
0.0
 10
170.7431282891478
 20
59.00947274178515
 30
0.0
 10
170.3629705405218
 20
58.83929945537572
 30
0.0
 10
169.5958772086304
 20
58.60457719575987
 30
0.0
 10
169.2088998512928
 20
58.5406792206854
 30
0.0
 10
168.6223490762681
 20
58.5396555185989
 30
0.0
 10
168.425269916345
 20
58.5551420657436
 30
0.0
 10
168.0347407768368
 20
58.61626578720158
 30
0.0
 10
167.8407090731638
 20
58.6617875144966
 30
0.0
 10
167.2619050007427
 20
58.83828687824177
 30
0.0
 10
166.8804162665762
 20
59.0091088545956
 30
0.0
 10
166.5020411833538
 20
59.21771255223413
 30
0.0
  0
SPLINE
  5
114
330
1F
100
AcDbEntity
  8
0
  6
Continuous
 62
     7
370
    25
100
AcDbSpline
210
0.0
220
0.0
230
1.0
 70
     8
 71
     3
 72
     9
 73
     5
 74
     0
 42
0.00000001
 43
0.00000001
 40
0.0
 40
0.0
 40
0.0
 40
0.0
 40
0.5789479223911497
 40
1.0
 40
1.0
 40
1.0
 40
1.0
 10
171.1208433368708
 20
59.21771255223427
 30
0.0
 10
171.1432847040634
 20
59.23005344254868
 30
0.0
 10
171.182047028488
 20
59.25136950542259
 30
0.0
 10
171.1828129313471
 20
59.25177767933697
 30
0.0
 10
171.1831354163371
 20
59.25194954181165
 30
0.0
  0
SPLINE
  5
115
330
1F
100
AcDbEntity
  8
0
  6
Continuous
 62
     7
370
    25
100
AcDbSpline
210
0.0
220
0.0
230
1.0
 70
     8
 71
     3
 72
    10
 73
     6
 74
     0
 42
0.00000001
 43
0.00000001
 40
0.0
 40
0.0
 40
0.0
 40
0.0
 40
0.159393521306166
 40
0.718993454575629
 40
1.0
 40
1.0
 40
1.0
 40
1.0
 10
151.717317239552
 20
59.25194954181165
 30
0.0
 10
151.7159273207253
 20
59.25271106880912
 30
0.0
 10
151.7096576647785
 20
59.25614617032497
 30
0.0
 10
151.7361416066025
 20
59.24165154785837
 30
0.0
 10
151.7687190106492
 20
59.22371017736576
 30
0.0
 10
151.7796093190183
 20
59.21771255223427
 30
0.0
  0
SPLINE
  5
116
330
1F
100
AcDbEntity
  8
0
  6
Continuous
 62
     7
370
    25
100
AcDbSpline
210
0.0
220
0.0
230
1.0
 70
     8
 71
     3
 72
    16
 73
    12
 74
     0
 42
0.00000001
 43
0.00000001
 40
0.0
 40
0.0
 40
0.0
 40
0.0
 40
0.2500000000000003
 40
0.2500000000000003
 40
0.5000000000000006
 40
0.5000000000000006
 40
0.6250000000000006
 40
0.6250000000000006
 40
0.7500000000000004
 40
0.7500000000000004
 40
1.0
 40
1.0
 40
1.0
 40
1.0
 10
156.3984114725354
 20
59.21771255223381
 30
0.0
 10
156.0206964248124
 20
59.00947274178515
 30
0.0
 10
155.6405386761864
 20
58.83929945537572
 30
0.0
 10
154.873445344295
 20
58.60457719575987
 30
0.0
 10
154.4864679869573
 20
58.5406792206854
 30
0.0
 10
153.8999172119327
 20
58.5396555185989
 30
0.0
 10
153.7028380520096
 20
58.5551420657436
 30
0.0
 10
153.3123089125013
 20
58.61626578720158
 30
0.0
 10
153.1182772088283
 20
58.6617875144966
 30
0.0
 10
152.5394731364073
 20
58.83828687824177
 30
0.0
 10
152.1579844022407
 20
59.0091088545956
 30
0.0
 10
151.7796093190183
 20
59.21771255223413
 30
0.0
  0
SPLINE
  5
117
330
1F
100
AcDbEntity
  8
0
  6
Continuous
 62
     7
370
    25
100
AcDbSpline
210
0.0
220
0.0
230
1.0
 70
     8
 71
     3
 72
    10
 73
     6
 74
     0
 42
0.00000001
 43
0.00000001
 40
0.0
 40
0.0
 40
0.0
 40
0.0
 40
0.5
 40
0.5
 40
1.0
 40
1.0
 40
1.0
 40
1.0
 10
172.6281673553868
 20
65.77685142615967
 30
0.0
 10
172.6044919609624
 20
65.6909643643572
 30
0.0
 10
172.5914008510779
 20
65.60355715537706
 30
0.0
 10
172.5913145297897
 20
65.45092071278334
 30
0.0
 10
172.6044834637335
 20
65.38679766783775
 30
0.0
 10
172.6281673553869
 20
65.34383872426746
 30
0.0
  0
SPLINE
  5
118
330
1F
100
AcDbEntity
  8
0
  6
Continuous
 62
     7
370
    25
100
AcDbSpline
210
0.0
220
0.0
230
1.0
 70
     8
 71
     3
 72
    10
 73
     6
 74
     0
 42
0.00000001
 43
0.00000001
 40
0.0
 40
0.0
 40
0.0
 40
0.0
 40
0.5
 40
0.5
 40
1.0
 40
1.0
 40
1.0
 40
1.0
 10
172.6281673553869
 20
75.4474684350859
 30
0.0
 10
172.6044919609625
 20
75.40452490418467
 30
0.0
 10
172.5914008510779
 20
75.34108245956054
 30
0.0
 10
172.5913145297897
 20
75.18860362244158
 30
0.0
 10
172.6044834637335
 20
75.10037362033431
 30
0.0
 10
172.6281673553869
 20
75.01445573319369
 30
0.0
  0
SPLINE
  5
119
330
1F
100
AcDbEntity
  8
0
  6
Continuous
 62
     7
370
    25
100
AcDbSpline
210
0.0
220
0.0
230
1.0
 70
     8
 71
     3
 72
    16
 73
    12
 74
     0
 42
0.00000001
 43
0.00000001
 40
0.0
 40
0.0
 40
0.0
 40
0.0
 40
0.2500000000000001
 40
0.2500000000000001
 40
0.5000000000000001
 40
0.5000000000000001
 40
0.6250000000000001
 40
0.6250000000000001
 40
0.7500000000000002
 40
0.7500000000000002
 40
1.0
 40
1.0
 40
1.0
 40
1.0
 10
172.6281673553869
 20
80.0662705886029
 30
0.0
 10
172.8361828034927
 20
79.68896249972641
 30
0.0
 10
173.0063891084657
 20
79.30893876935221
 30
0.0
 10
173.2413251400333
 20
78.54131545394151
 30
0.0
 10
173.3053972716969
 20
78.15366863715272
 30
0.0
 10
173.3061302206179
 20
77.56534808526487
 30
0.0
 10
173.2904707405349
 20
77.36827489270922
 30
0.0
 10
173.229195613898
 20
76.97821791515511
 30
0.0
 10
173.1836393413988
 20
76.78442501456709
 30
0.0
 10
173.0071533086426
 20
76.20634402980367
 30
0.0
 10
172.8364968551569
 20
75.82534616546883
 30
0.0
 10
172.6281673553869
 20
75.4474684350859
 30
0.0
  0
SPLINE
  5
11A
330
1F
100
AcDbEntity
  8
0
  6
Continuous
 62
     7
370
    25
100
AcDbSpline
210
0.0
220
0.0
230
1.0
 70
     8
 71
     3
 72
    10
 73
     6
 74
     0
 42
0.00000001
 43
0.00000001
 40
0.0
 40
0.0
 40
0.0
 40
0.0
 40
0.1601790552921226
 40
0.7197651707803578
 40
1.0
 40
1.0
 40
1.0
 40
1.0
 10
172.59393792227
 20
80.12854886735266
 30
0.0
 10
172.5931751321768
 20
80.12994109537902
 30
0.0
 10
172.589747532103
 20
80.13619707710734
 30
0.0
 10
172.6042549969013
 20
80.10968981237944
 30
0.0
 10
172.6221845500192
 20
80.07713395723427
 30
0.0
 10
172.6281673553869
 20
80.0662705886029
 30
0.0
  0
SPLINE
  5
11B
330
1F
100
AcDbEntity
  8
0
  6
Continuous
 62
     7
370
    25
100
AcDbSpline
210
0.0
220
0.0
230
1.0
 70
     8
 71
     3
 72
     9
 73
     5
 74
     0
 42
0.00000001
 43
0.00000001
 40
0.0
 40
0.0
 40
0.0
 40
0.0
 40
0.5797912171256352
 40
1.0
 40
1.0
 40
1.0
 40
1.0
 10
172.6281673553869
 20
60.72503657075044
 30
0.0
 10
172.6158087520405
 20
60.70256292250931
 30
0.0
 10
172.5944931422461
 20
60.66380130008849
 30
0.0
 10
172.5941021997433
 20
60.66306689533028
 30
0.0
 10
172.59393792227
 20
60.6627582920007
 30
0.0
  0
SPLINE
  5
11C
330
1F
100
AcDbEntity
  8
0
  6
Continuous
 62
     7
370
    25
100
AcDbSpline
210
0.0
220
0.0
230
1.0
 70
     8
 71
     3
 72
    16
 73
    12
 74
     0
 42
0.00000001
 43
0.00000001
 40
0.0
 40
0.0
 40
0.0
 40
0.0
 40
0.2500000000000001
 40
0.2500000000000001
 40
0.5000000000000002
 40
0.5000000000000002
 40
0.6250000000000001
 40
0.6250000000000001
 40
0.7500000000000001
 40
0.7500000000000001
 40
1.0
 40
1.0
 40
1.0
 40
1.0
 10
172.6281673553869
 20
65.34383872426746
 30
0.0
 10
172.8361828034927
 20
64.96653063539095
 30
0.0
 10
173.0063891084657
 20
64.58650690501675
 30
0.0
 10
173.2413251400333
 20
63.81888358960605
 30
0.0
 10
173.3053972716969
 20
63.43123677281726
 30
0.0
 10
173.3061302206179
 20
62.84291622092941
 30
0.0
 10
173.2904707405349
 20
62.64584302837375
 30
0.0
 10
173.229195613898
 20
62.25578605081966
 30
0.0
 10
173.1836393413988
 20
62.06199315023162
 30
0.0
 10
173.0071533086426
 20
61.4839121654682
 30
0.0
 10
172.8364968551569
 20
61.10291430113337
 30
0.0
 10
172.6281673553869
 20
60.72503657075044
 30
0.0
  0
LINE
  5
11D
330
1F
100
AcDbEntity
  8
0
  6
Continuous
 62
     7
370
    25
100
AcDbLine
 10
173.4502263279
 20
78.6456535797
 30
0.0
 11
173.4502263279
 21
62.1456535797
 31
0.0
  0
LINE
  5
11E
330
1F
100
AcDbEntity
  8
0
  6
Continuous
 62
     7
370
    25
100
AcDbLine
 10
172.6281673554
 20
65.3438387243
 30
0.0
 11
168.1279477332
 21
65.3438387243
 31
0.0
  0
SPLINE
  5
11F
330
1F
100
AcDbEntity
  8
0
  6
Continuous
 62
     7
370
    25
100
AcDbSpline
210
0.0
220
0.0
230
1.0
 70
     8
 71
     3
 72
    10
 73
     6
 74
     0
 42
0.00000001
 43
0.00000001
 40
0.0
 40
0.0
 40
0.0
 40
0.0
 40
0.5
 40
0.5
 40
1.0
 40
1.0
 40
1.0
 40
1.0
 10
168.1279477332015
 20
65.34383872426746
 30
0.0
 10
168.1516231276258
 20
65.3867822551686
 30
0.0
 10
168.1647142375137
 20
65.45022469979239
 30
0.0
 10
168.1648005588021
 20
65.60270353691149
 30
0.0
 10
168.1516316248583
 20
65.6909335390189
 30
0.0
 10
168.1279477332047
 20
65.77685142615967
 30
0.0
  0
SPLINE
  5
120
330
1F
100
AcDbEntity
  8
0
  6
Continuous
 62
     7
370
    25
100
AcDbSpline
210
0.0
220
0.0
230
1.0
 70
     8
 71
     3
 72
    10
 73
     6
 74
     0
 42
0.00000001
 43
0.00000001
 40
0.0
 40
0.0
 40
0.0
 40
0.0
 40
0.5
 40
0.5
 40
1.0
 40
1.0
 40
1.0
 40
1.0
 10
168.1279477332048
 20
75.01445573319369
 30
0.0
 10
168.1516231276292
 20
75.10034279499614
 30
0.0
 10
168.1647142375138
 20
75.18775000397625
 30
0.0
 10
168.1648005588021
 20
75.34038644656997
 30
0.0
 10
168.1516316248582
 20
75.40450949151555
 30
0.0
 10
168.1279477332048
 20
75.44746843508588
 30
0.0
  0
LINE
  5
121
330
1F
100
AcDbEntity
  8
0
  6
Continuous
 62
     7
370
    25
100
AcDbLine
 10
168.1279477332
 20
75.4474684351
 30
0.0
 11
172.6281673554
 21
75.4474684351
 31
0.0
  0
SPLINE
  5
122
330
1F
100
AcDbEntity
  8
0
  6
Continuous
 62
     7
370
    25
100
AcDbSpline
210
0.0
220
0.0
230
1.0
 70
     8
 71
     3
 72
     8
 73
     4
 74
     0
 42
0.00000001
 43
0.00000001
 40
0.0
 40
0.0
 40
0.0
 40
0.0
 40
1.0
 40
1.0
 40
1.0
 40
1.0
 10
167.5716098194407
 20
63.98553204635144
 30
0.0
 10
167.5304945437994
 20
64.12156244084098
 30
0.0
 10
167.4900055609316
 20
64.25826650547842
 30
0.0
 10
167.4502263279445
 20
64.39565357967666
 30
0.0
  0
LINE
  5
123
330
1F
100
AcDbEntity
  8
0
  6
Continuous
 62
     7
370
    25
100
AcDbLine
 10
167.4502263279
 20
66.3956535797
 30
0.0
 11
167.4502263279
 21
64.3956535797
 31
0.0
  0
SPLINE
  5
124
330
1F
100
AcDbEntity
  8
0
  6
Continuous
 62
     7
370
    25
100
AcDbSpline
210
0.0
220
0.0
230
1.0
 70
     8
 71
     3
 72
     8
 73
     4
 74
     0
 42
0.00000001
 43
0.00000001
 40
0.0
 40
0.0
 40
0.0
 40
0.0
 40
1.0
 40
1.0
 40
1.0
 40
1.0
 10
167.5716098194407
 20
63.98553204635144
 30
0.0
 10
167.6872424294698
 20
64.44408297840918
 30
0.0
 10
167.8811318342902
 20
64.89615257416744
 30
0.0
 10
168.1279477332046
 20
65.34383872426719
 30
0.0
  0
LINE
  5
125
330
1F
100
AcDbEntity
  8
0
  6
Continuous
 62
     7
370
    25
100
AcDbLine
 10
155.4502263279
 20
66.3956535797
 30
0.0
 11
155.4502263279
 21
64.3956535797
 31
0.0
  0
SPLINE
  5
126
330
1F
100
AcDbEntity
  8
0
  6
Continuous
 62
     7
370
    25
100
AcDbSpline
210
0.0
220
0.0
230
1.0
 70
     8
 71
     3
 72
     8
 73
     4
 74
     0
 42
0.00000001
 43
0.00000001
 40
0.0
 40
0.0
 40
0.0
 40
0.0
 40
1.0
 40
1.0
 40
1.0
 40
1.0
 10
155.4502263279446
 20
64.39565357967666
 30
0.0
 10
155.4104476697544
 20
64.25826849067656
 30
0.0
 10
155.3699587069261
 20
64.1215644088648
 30
0.0
 10
155.3288428364484
 20
63.98553204635144
 30
0.0
  0
SPLINE
  5
127
330
1F
100
AcDbEntity
  8
0
  6
Continuous
 62
     7
370
    25
100
AcDbSpline
210
0.0
220
0.0
230
1.0
 70
     8
 71
     3
 72
     8
 73
     4
 74
     0
 42
0.00000001
 43
0.00000001
 40
0.0
 40
0.0
 40
0.0
 40
0.0
 40
1.0
 40
1.0
 40
1.0
 40
1.0
 10
154.7725049226844
 20
65.34383872426746
 30
0.0
 10
155.0196787035683
 20
64.89550343121613
 30
0.0
 10
155.2134003718723
 20
64.44332894047253
 30
0.0
 10
155.3288428364484
 20
63.98553204635144
 30
0.0
  0
SPLINE
  5
128
330
1F
100
AcDbEntity
  8
0
  6
Continuous
 62
     7
370
    25
100
AcDbSpline
210
0.0
220
0.0
230
1.0
 70
     8
 71
     3
 72
    10
 73
     6
 74
     0
 42
0.00000001
 43
0.00000001
 40
0.0
 40
0.0
 40
0.0
 40
0.0
 40
0.5
 40
0.5
 40
1.0
 40
1.0
 40
1.0
 40
1.0
 10
154.7725049226843
 20
65.77685142615967
 30
0.0
 10
154.7488295282599
 20
65.69096436435721
 30
0.0
 10
154.7357384183753
 20
65.60355715537708
 30
0.0
 10
154.7356520970871
 20
65.45092071278334
 30
0.0
 10
154.7488210310309
 20
65.38679766783775
 30
0.0
 10
154.7725049226844
 20
65.34383872426746
 30
0.0
  0
LINE
  5
129
330
1F
100
AcDbEntity
  8
0
  6
Continuous
 62
     7
370
    25
100
AcDbLine
 10
150.2722853005
 20
75.4474684351
 30
0.0
 11
154.7725049227
 21
75.4474684351
 31
0.0
  0
LINE
  5
12A
330
1F
100
AcDbEntity
  8
0
  6
Continuous
 62
     7
370
    25
100
AcDbLine
 10
157.3964653214
 20
69.8212217232
 30
0.0
 11
158.0038136802
 21
69.8212217232
 31
0.0
  0
ELLIPSE
  5
12B
330
1F
100
AcDbEntity
  8
0
  6
Continuous
 62
     7
370
    25
100
AcDbEllipse
 10
157.3964653214
 20
69.9020634403
 30
0.0
 11
0.08480161849067258
 21
-1.421085471520200E-14
 31
0.0
210
0.0
220
0.0
230
1.0
 40
0.9533039403
 41
2.798568711308443
 42
4.712388980384862
  0
LINE
  5
12C
330
1F
100
AcDbEntity
  8
0
  6
Continuous
 62
     7
370
    25
100
AcDbLine
 10
158.0836749186
 20
69.929253452
 30
0.0
 11
157.7800007409
 21
70.7398360691
 31
0.0
  0
ELLIPSE
  5
12D
330
1F
100
AcDbEntity
  8
0
  6
Continuous
 62
     7
370
    25
100
AcDbEllipse
 10
158.0038136802
 20
69.9020634403
 30
0.0
 11
-0.08480161849064416
 21
-4.263256414560601E-14
 31
0.0
210
0.0
220
0.0
230
1.0
 40
0.9533039403
 41
1.570796326794417
 42
3.484616592149146
  0
LINE
  5
12E
330
1F
100
AcDbEntity
  8
0
  6
Continuous
 62
     7
370
    25
100
AcDbLine
 10
157.6202782643
 20
70.7398360691
 30
0.0
 11
157.3166040832
 21
69.9292534522
 31
0.0
  0
ELLIPSE
  5
12F
330
1F
100
AcDbEntity
  8
0
  6
Continuous
 62
     7
370
    25
100
AcDbEllipse
 10
157.7001395026
 20
70.7126460573
 30
0.0
 11
0.08480161849067258
 21
0.0
 31
0.0
210
0.0
220
0.0
230
1.0
 40
0.9533039403
 41
0.3430239404205786
 42
2.798568713169102
  0
LINE
  5
130
330
1F
100
AcDbEntity
  8
0
  6
Continuous
 62
     7
370
    25
100
AcDbLine
 10
167.4502263279
 20
77.7568695118
 30
0.0
 11
167.4502263279
 21
74.3956535797
 31
0.0
  0
SPLINE
  5
131
330
1F
100
AcDbEntity
  8
0
  6
Continuous
 62
     7
370
    25
100
AcDbSpline
210
0.0
220
0.0
230
1.0
 70
     8
 71
     3
 72
    10
 73
     6
 74
     0
 42
0.00000001
 43
0.00000001
 40
0.0
 40
0.0
 40
0.0
 40
0.0
 40
0.5
 40
0.5
 40
1.0
 40
1.0
 40
1.0
 40
1.0
 10
168.1279477332047
 20
75.44746843508588
 30
0.0
 10
167.9195269803873
 20
75.82551168448803
 30
0.0
 10
167.7490631451099
 20
76.2062811892839
 30
0.0
 10
167.5140807101715
 20
76.97542971484144
 30
0.0
 10
167.4502263279445
 20
77.36385644301667
 30
0.0
 10
167.4502263279445
 20
77.7568695118444
 30
0.0
  0
SPLINE
  5
132
330
1F
100
AcDbEntity
  8
0
  6
Continuous
 62
     7
370
    25
100
AcDbSpline
210
0.0
220
0.0
230
1.0
 70
     8
 71
     3
 72
     8
 73
     4
 74
     0
 42
0.00000001
 43
0.00000001
 40
0.0
 40
0.0
 40
0.0
 40
0.0
 40
1.0
 40
1.0
 40
1.0
 40
1.0
 10
167.7927882867584
 20
63.39565357967668
 30
0.0
 10
168.1152676136077
 20
63.30393929194222
 30
0.0
 10
168.4305853699317
 20
63.20728250287431
 30
0.0
 10
168.7396025125792
 20
63.10627739504206
 30
0.0
  0
SPLINE
  5
133
330
1F
100
AcDbEntity
  8
0
  6
Continuous
 62
     7
370
    25
100
AcDbSpline
210
0.0
220
0.0
230
1.0
 70
     8
 71
     3
 72
    10
 73
     6
 74
     0
 42
0.00000001
 43
0.00000001
 40
0.0
 40
0.0
 40
0.0
 40
0.0
 40
0.5
 40
0.5
 40
1.0
 40
1.0
 40
1.0
 40
1.0
 10
166.502041183354
 20
62.42925703982182
 30
0.0
 10
166.8685591301946
 20
62.63132372537275
 30
0.0
 10
167.2376393556604
 20
62.7977164976434
 30
0.0
 10
167.9828917038878
 20
63.03176347151344
 30
0.0
 10
168.3591044758356
 20
63.09885172547228
 30
0.0
 10
168.7396025125792
 20
63.10627739504206
 30
0.0
  0
LINE
  5
134
330
1F
100
AcDbEntity
  8
0
  6
Continuous
 62
     7
370
    25
100
AcDbLine
 10
154.7725049227
 20
65.3438387243
 30
0.0
 11
150.2722853005
 21
65.3438387243
 31
0.0
  0
SPLINE
  5
135
330
1F
100
AcDbEntity
  8
0
  6
Continuous
 62
     7
370
    25
100
AcDbSpline
210
0.0
220
0.0
230
1.0
 70
     8
 71
     3
 72
    12
 73
     8
 74
     0
 42
0.00000001
 43
0.00000001
 40
0.0
 40
0.0
 40
0.0
 40
0.0
 40
0.2499999999999999
 40
0.2499999999999999
 40
0.4999999999999998
 40
0.4999999999999998
 40
1.0
 40
1.0
 40
1.0
 40
1.0
 10
167.4502263279445
 20
77.7568695118444
 30
0.0
 10
167.4502263279445
 20
77.95261177472393
 30
0.0
 10
167.4660692640335
 20
78.14927838391448
 30
0.0
 10
167.5275721242712
 20
78.53854661124277
 30
0.0
 10
167.5731757653149
 20
78.73195064419568
 30
0.0
 10
167.7496267828041
 20
79.30887969545245
 30
0.0
 10
167.920024150056
 20
79.68912912865545
 30
0.0
 10
168.1279477332047
 20
80.0662705886029
 30
0.0
  0
LINE
  5
136
330
1F
100
AcDbEntity
  8
0
  6
Continuous
 62
     7
370
    25
100
AcDbLine
 10
172.6281673554
 20
80.0662705886
 30
0.0
 11
168.1279477332
 21
80.0662705886
 31
0.0
  0
ELLIPSE
  5
137
330
1F
100
AcDbEntity
  8
0
  6
Continuous
 62
     7
370
    25
100
AcDbEllipse
 10
161.4502263279
 20
60.5806990035
 30
0.0
 11
8.499999999999972
 21
0.0
 31
0.0
210
0.0
220
0.0
230
1.0
 40
0.5773502692
 41
2.374833212873086
 42
2.530692279913061
  0
LINE
  5
138
330
1F
100
AcDbEntity
  8
0
  6
Continuous
 62
     7
370
    25
100
AcDbLine
 10
154.1608501433
 20
63.106277395
 30
0.0
 11
151.779609319
 21
60.7250365708
 31
0.0
  0
LINE
  5
139
330
1F
100
AcDbEntity
  8
0
  6
Continuous
 62
     7
370
    25
100
AcDbLine
 10
150.2722853005
 20
60.7250365708
 30
0.0
 11
151.779609319
 21
60.7250365708
 31
0.0
  0
LINE
  5
13A
330
1F
100
AcDbEntity
  8
0
  6
Continuous
 62
     7
370
    25
100
AcDbLine
 10
154.7725049227
 20
80.0662705886
 30
0.0
 11
150.2722853005
 21
80.0662705886
 31
0.0
  0
SPLINE
  5
13B
330
1F
100
AcDbEntity
  8
0
  6
Continuous
 62
     7
370
    25
100
AcDbSpline
210
0.0
220
0.0
230
1.0
 70
     8
 71
     3
 72
    10
 73
     6
 74
     0
 42
0.00000001
 43
0.00000001
 40
0.0
 40
0.0
 40
0.0
 40
0.0
 40
0.5
 40
0.5
 40
1.0
 40
1.0
 40
1.0
 40
1.0
 10
154.7725049226844
 20
80.06627058860293
 30
0.0
 10
154.9809256755018
 20
79.68822733920078
 30
0.0
 10
155.1513895107792
 20
79.30745783440491
 30
0.0
 10
155.3863719457176
 20
78.53830930884737
 30
0.0
 10
155.4502263279446
 20
78.14988258067214
 30
0.0
 10
155.4502263279446
 20
77.7568695118444
 30
0.0
  0
ELLIPSE
  5
13C
330
1F
100
AcDbEntity
  8
0
  6
Continuous
 62
     7
370
    25
100
AcDbEllipse
 10
161.4502263279
 20
60.5806990035
 30
0.0
 11
8.499999999999972
 21
0.0
 31
0.0
210
0.0
220
0.0
230
1.0
 40
0.5773502692
 41
0.610900373676734
 42
0.7667594407167088
  0
LINE
  5
13D
330
1F
100
AcDbEntity
  8
0
  6
Continuous
 62
     7
370
    25
100
AcDbLine
 10
171.1208433369
 20
60.7250365708
 30
0.0
 11
172.6281673554
 21
60.7250365708
 31
0.0
  0
LINE
  5
13E
330
1F
100
AcDbEntity
  8
0
  6
Continuous
 62
     7
370
    25
100
AcDbLine
 10
171.1208433369
 20
60.7250365708
 30
0.0
 11
168.7396025126
 21
63.106277395
 31
0.0
  0
LINE
  5
13F
330
1F
100
AcDbEntity
  8
0
  6
Continuous
 62
     7
370
    25
100
AcDbLine
 10
151.779609319
 20
60.7250365708
 30
0.0
 11
151.779609319
 21
59.2177125522
 31
0.0
  0
LINE
  5
140
330
1F
100
AcDbEntity
  8
0
  6
Continuous
 62
     7
370
    25
100
AcDbLine
 10
171.1208433369
 20
59.2177125522
 30
0.0
 11
171.1208433369
 21
60.7250365708
 31
0.0
  0
LINE
  5
141
330
1F
100
AcDbEntity
  8
0
  6
Continuous
 62
     7
370
    25
100
AcDbLine
 10
157.4502263279
 20
66.3956535797
 30
0.0
 11
155.4502263279
 21
64.3956535797
 31
0.0
  0
LINE
  5
142
330
1F
100
AcDbEntity
  8
0
  6
Continuous
 62
     7
370
    25
100
AcDbLine
 10
154.4876052553
 20
63.3956535797
 30
0.0
 11
157.4502263279
 21
63.3956535797
 31
0.0
  0
LINE
  5
143
330
1F
100
AcDbEntity
  8
0
  6
Continuous
 62
     7
370
    25
100
AcDbLine
 10
167.4502263279
 20
64.3956535797
 30
0.0
 11
165.4502263279
 21
66.3956535797
 31
0.0
  0
LINE
  5
144
330
1F
100
AcDbEntity
  8
0
  6
Continuous
 62
     7
370
    25
100
AcDbLine
 10
165.4502263279
 20
63.3956535797
 30
0.0
 11
168.4128474006
 21
63.3956535797
 31
0.0
  0
LINE
  5
145
330
1F
100
AcDbEntity
  8
0
  6
Continuous
 62
     7
370
    25
100
AcDbLine
 10
155.4502263279
 20
78.3301080579
 30
0.0
 11
155.4502263279
 21
77.7568695118
 31
0.0
  0
SPLINE
  5
146
330
1F
100
AcDbEntity
  8
0
  6
Continuous
 62
     7
370
    25
100
AcDbSpline
210
0.0
220
0.0
230
1.0
 70
     8
 71
     3
 72
    32
 73
    28
 74
     0
 42
0.00000001
 43
0.00000001
 40
0.0
 40
0.0
 40
0.0
 40
0.0
 40
0.0625000000000001
 40
0.0625000000000001
 40
0.1250000000000001
 40
0.1250000000000001
 40
0.1875000000000002
 40
0.1875000000000002
 40
0.2500000000000003
 40
0.2500000000000003
 40
0.3750000000000003
 40
0.3750000000000003
 40
0.4375000000000003
 40
0.4375000000000003
 40
0.5000000000000002
 40
0.5000000000000002
 40
0.5625000000000002
 40
0.5625000000000002
 40
0.6250000000000001
 40
0.6250000000000001
 40
0.7500000000000001
 40
0.7500000000000001
 40
0.8750000000000002
 40
0.8750000000000002
 40
0.9375000000000001
 40
0.9375000000000001
 40
1.0
 40
1.0
 40
1.0
 40
1.0
 10
167.4502263279361
 20
78.33010805789732
 30
0.0
 10
167.2933699920192
 20
78.23515108000163
 30
0.0
 10
167.1203715578636
 20
78.13239790537645
 30
0.0
 10
166.7436669712377
 20
77.91568670372818
 30
0.0
 10
166.5408141907811
 20
77.80226799323816
 30
0.0
 10
166.1148329279785
 20
77.57417785654
 30
0.0
 10
165.8906549676905
 20
77.45887097408814
 30
0.0
 10
165.419303874114
 20
77.23054787171337
 30
0.0
 10
165.170618358749
 20
77.11689785557961
 30
0.0
 10
164.4000458740573
 20
76.79383382434557
 30
0.0
 10
163.8544084639751
 20
76.60093530018209
 30
0.0
 10
162.9716287154788
 20
76.38934137490837
 30
0.0
 10
162.672989615606
 20
76.33369898879063
 30
0.0
 10
162.0664880148902
 20
76.25803091942679
 30
0.0
 10
161.7563407762243
 20
76.23805767365047
 30
0.0
 10
161.1362552875405
 20
76.23839143990372
 30
0.0
 10
160.8296842500725
 20
76.2583904052265
 30
0.0
 10
160.2230295027643
 20
76.33442919142297
 30
0.0
 10
159.920656438139
 20
76.39108229155453
 30
0.0
 10
159.044020135386
 20
76.60186084160037
 30
0.0
 10
158.4959660034091
 20
76.79540667217212
 30
0.0
 10
157.4654687361658
 20
77.22802596544793
 30
0.0
 10
156.9979087008863
 20
77.46050261013835
 30
0.0
 10
156.3596950972584
 20
77.80224061105739
 30
0.0
 10
156.1564853590686
 20
77.91585812648577
 30
0.0
 10
155.7801484326742
 20
78.132360518842
 30
0.0
 10
155.6071698241826
 20
78.23509831528641
 30
0.0
 10
155.4502263279446
 20
78.33010805790248
 30
0.0
  0
LINE
  5
147
330
1F
100
AcDbEntity
  8
0
  6
Continuous
 62
     7
370
    25
100
AcDbLine
 10
167.4502263279
 20
78.3301080579
 30
0.0
 11
167.4502263279
 21
77.7568695118
 31
0.0
  0
SPLINE
  5
148
330
1F
100
AcDbEntity
  8
0
  6
Continuous
 62
     7
370
    25
100
AcDbSpline
210
0.0
220
0.0
230
1.0
 70
     8
 71
     3
 72
    12
 73
     8
 74
     0
 42
0.00000001
 43
0.00000001
 40
0.0
 40
0.0
 40
0.0
 40
0.0
 40
0.0860276384484858
 40
0.3125921905364371
 40
0.5444262578673806
 40
0.772029644149985
 40
1.0
 40
1.0
 40
1.0
 40
1.0
 10
167.6235735154116
 20
79.1885551733778
 30
0.0
 10
167.6247837645034
 20
79.19258509701962
 30
0.0
 10
167.6291813560396
 20
79.20722832891121
 30
0.0
 10
167.5966589627484
 20
79.09965090263799
 30
0.0
 10
167.5406307865639
 20
78.89350208679727
 30
0.0
 10
167.4724379587683
 20
78.61026160938661
 30
0.0
 10
167.4576341797537
 20
78.42354270975557
 30
0.0
 10
167.4502263279445
 20
78.33010805789534
 30
0.0
  0
SPLINE
  5
149
330
1F
100
AcDbEntity
  8
0
  6
Continuous
 62
     7
370
    25
100
AcDbSpline
210
0.0
220
0.0
230
1.0
 70
     8
 71
     3
 72
    11
 73
     7
 74
     0
 42
0.00000001
 43
0.00000001
 40
0.0
 40
0.0
 40
0.0
 40
0.0
 40
0.3176290063312591
 40
0.6359451303407145
 40
0.8656693413736145
 40
1.0
 40
1.0
 40
1.0
 40
1.0
 10
155.4502263279446
 20
78.3301080579024
 30
0.0
 10
155.4365875950851
 20
78.46137260548988
 30
0.0
 10
155.4092806250883
 20
78.72418566147878
 30
0.0
 10
155.3212756443503
 20
79.03583132022266
 30
0.0
 10
155.276714595495
 20
79.18958013582309
 30
0.0
 10
155.2770636544367
 20
79.1880655679626
 30
0.0
 10
155.2771924518281
 20
79.18750671567085
 30
0.0
  0
LINE
  5
14A
330
1F
100
AcDbEntity
  8
0
  6
Continuous
 62
     7
370
    25
100
AcDbLine
 10
167.3450075113
 20
79.8911227596
 30
0.0
 11
167.347638806
 21
79.8933470221
 31
0.0
  0
LINE
  5
14B
330
1F
100
AcDbEntity
  8
0
  6
Continuous
 62
     7
370
    25
100
AcDbLine
 10
166.2325059548
 20
48.2506016391
 30
0.0
 11
156.6679467011
 21
48.2506016391
 31
0.0
  0
LINE
  5
14C
330
1F
100
AcDbEntity
  8
0
  6
Continuous
 62
     7
370
    25
100
AcDbLine
 10
165.4502263279
 20
46.8956535797
 30
0.0
 11
157.4502263279
 21
46.8956535797
 31
0.0
  0
SPLINE
  5
14D
330
1F
100
AcDbEntity
  8
0
  6
Continuous
 62
     7
370
    25
100
AcDbSpline
210
0.0
220
0.0
230
1.0
 70
     8
 71
     3
 72
    10
 73
     6
 74
     0
 42
0.00000001
 43
0.00000001
 40
0.0
 40
0.0
 40
0.0
 40
0.0
 40
0.1601790552921523
 40
0.7197651707804853
 40
1.0
 40
1.0
 40
1.0
 40
1.0
 10
154.7382754895675
 20
80.12854886735266
 30
0.0
 10
154.7375126994742
 20
80.12994109537902
 30
0.0
 10
154.7340850994005
 20
80.13619707710735
 30
0.0
 10
154.7485925641988
 20
80.10968981237944
 30
0.0
 10
154.7665221173166
 20
80.07713395723428
 30
0.0
 10
154.7725049226844
 20
80.06627058860293
 30
0.0
  0
SPLINE
  5
14E
330
1F
100
AcDbEntity
  8
0
  6
Continuous
 62
     7
370
    25
100
AcDbSpline
210
0.0
220
0.0
230
1.0
 70
     8
 71
     3
 72
     9
 73
     5
 74
     0
 42
0.00000001
 43
0.00000001
 40
0.0
 40
0.0
 40
0.0
 40
0.0
 40
0.5797912171256431
 40
1.0
 40
1.0
 40
1.0
 40
1.0
 10
168.1279477332047
 20
80.0662705886029
 30
0.0
 10
168.1403063365512
 20
80.08874423684405
 30
0.0
 10
168.1616219463456
 20
80.12750585926487
 30
0.0
 10
168.1620128888484
 20
80.12824026402308
 30
0.0
 10
168.1621771663216
 20
80.12854886735266
 30
0.0
  0
LINE
  5
14F
330
1F
100
AcDbEntity
  8
0
  6
Continuous
 62
     7
370
    25
100
AcDbLine
 10
171.187830635
 20
60.6580492726
 30
0.0
 11
171.1208433369
 21
60.7250365708
 31
0.0
  0
LINE
  5
150
330
1F
100
AcDbEntity
  8
0
  6
Continuous
 62
     7
370
    25
100
AcDbLine
 10
151.779609319
 20
60.7250365708
 30
0.0
 11
151.7126220209
 21
60.6580492726
 31
0.0
  0
LINE
  5
151
330
1F
100
AcDbEntity
  8
0
  6
Continuous
 62
     7
370
    25
100
AcDbLine
 10
138.0402263279
 20
74.1407638666
 30
0.0
 11
138.0402263279
 21
64.3956535797
 31
0.0
  0
LINE
  5
152
330
1F
100
AcDbEntity
  8
0
  6
Continuous
 62
     7
370
    25
100
AcDbLine
 10
138.0402263279
 20
76.3956535797
 30
0.0
 11
138.0402263279
 21
74.1407638666
 31
0.0
  0
LINE
  5
153
330
1F
100
AcDbEntity
  8
0
  6
Continuous
 62
     7
370
    25
100
AcDbLine
 10
138.0602263279
 20
74.1407638666
 30
0.0
 11
138.0602263279
 21
64.3956535797
 31
0.0
  0
LINE
  5
154
330
1F
100
AcDbEntity
  8
0
  6
Continuous
 62
     7
370
    25
100
AcDbLine
 10
138.0602263279
 20
76.3956535797
 30
0.0
 11
138.0602263279
 21
74.1407638666
 31
0.0
  0
LINE
  5
155
330
1F
100
AcDbEntity
  8
0
  6
Continuous
 62
     7
370
    25
100
AcDbLine
 10
138.9951615499
 20
73.7260368885
 30
0.0
 11
138.9951615499
 21
65.0600831099
 31
0.0
  0
LINE
  5
156
330
1F
100
AcDbEntity
  8
0
  6
Continuous
 62
     7
370
    25
100
AcDbLine
 10
138.9951615499
 20
75.7312240495
 30
0.0
 11
138.9951615499
 21
73.7260368885
 31
0.0
  0
LINE
  5
157
330
1F
100
AcDbEntity
  8
0
  6
Continuous
 62
     7
370
    25
100
AcDbLine
 10
139.4673510559
 20
73.5165788188
 30
0.0
 11
139.4673510559
 21
65.3956535797
 31
0.0
  0
LINE
  5
158
330
1F
100
AcDbEntity
  8
0
  6
Continuous
 62
     7
370
    25
100
AcDbLine
 10
139.4673510559
 20
75.3956535797
 30
0.0
 11
139.4673510559
 21
73.5165788188
 31
0.0
  0
SPLINE
  5
159
330
1F
100
AcDbEntity
  8
0
  6
Continuous
 62
     7
370
    25
100
AcDbSpline
210
0.0
220
0.0
230
1.0
 70
     8
 71
     3
 72
    30
 73
    26
 74
     0
 42
0.00000001
 43
0.00000001
 40
0.0
 40
0.0
 40
0.0
 40
0.0
 40
0.0110569947995957
 40
0.0534018586163523
 40
0.0957739243294413
 40
0.152560285963683
 40
0.2094465507836707
 40
0.2166929089147469
 40
0.2775705853057713
 40
0.3384474861342897
 40
0.3856607907517328
 40
0.4327791182719195
 40
0.4698641362073264
 40
0.5069103241819656
 40
0.5439143354842868
 40
0.5809675385159896
 40
0.6306181182252716
 40
0.6803606635267528
 40
0.7335199301453341
 40
0.786670493119384
 40
0.8314134775104652
 40
0.876121580665438
 40
0.9187009688159357
 40
0.961245266880381
 40
1.0
 40
1.0
 40
1.0
 40
1.0
 10
155.5502263279446
 20
79.89565357967668
 30
0.0
 10
155.5510503752908
 20
79.89495574777897
 30
0.0
 10
155.555030268623
 20
79.89158543595238
 30
0.0
 10
155.6258119775522
 20
79.83123579234703
 30
0.0
 10
155.8471007076515
 20
79.6457056966891
 30
0.0
 10
156.237663723048
 20
79.3251597517475
 30
0.0
 10
156.6409058091342
 20
79.0114828482071
 30
0.0
 10
157.1077200482231
 20
78.66509356031729
 30
0.0
 10
157.6433478822975
 20
78.28466861331074
 30
0.0
 10
158.4590982603152
 20
77.78664506306293
 30
0.0
 10
159.3006580660356
 20
77.3745271899518
 30
0.0
 10
160.0840649848059
 20
77.09752807385826
 30
0.0
 10
160.8570498614818
 20
76.94611092103352
 30
0.0
 10
161.5876401672684
 20
76.90796145177644
 30
0.0
 10
162.3123626240787
 20
76.98729334343861
 30
0.0
 10
163.0857322372821
 20
77.1797965465683
 30
0.0
 10
163.876127088487
 20
77.49695604003804
 30
0.0
 10
164.6729315191265
 20
77.92223447966296
 30
0.0
 10
165.400299087084
 20
78.38469558032645
 30
0.0
 10
166.0145032697588
 20
78.82510755697521
 30
0.0
 10
166.5079667371037
 20
79.20357117241358
 30
0.0
 10
166.8830165526131
 20
79.5053264236241
 30
0.0
 10
167.1532714818561
 20
79.72897178314216
 30
0.0
 10
167.3222462822328
 20
79.87189911268752
 30
0.0
 10
167.337659925281
 20
79.88491714572088
 30
0.0
 10
167.3450075112735
 20
79.891122759596
 30
0.0
  0
LINE
  5
15A
330
1F
100
AcDbEntity
  8
0
  6
Continuous
 62
     7
370
    18
100
AcDbLine
 10
156.8564763279
 20
57.8956535797
 30
0.0
 11
157.1859203471
 21
47.3534449673
 31
0.0
  0
LINE
  5
15B
330
1F
100
AcDbEntity
  8
0
  6
Continuous
 62
     7
370
    18
100
AcDbLine
 10
165.7145323088
 20
47.3534449673
 30
0.0
 11
166.0439763279
 21
57.8956535797
 31
0.0
  0
LINE
  5
15C
330
1F
100
AcDbEntity
  8
0
  6
CENTERX2
 62
     7
370
    18
100
AcDbLine
 10
161.4502263279
 20
98.770280519
 30
0.0
 11
161.4502263279
 21
46.2506016391
 31
0.0
  0
LINE
  5
15D
330
1F
100
AcDbEntity
  8
0
  6
CENTERX2
 62
     7
370
    18
100
AcDbLine
 10
175.1960008237
 20
70.3956535797
 30
0.0
 11
135.0502263279
 21
70.3956535797
 31
0.0
  0
ARC
  5
15E
330
1F
100
AcDbEntity
  8
0
  6
Continuous
 62
     7
370
    25
100
AcDbCircle
 10
205.3364162883
 20
97.4956535797
 30
0.0
 40
0.25
100
AcDbArc
 50
90.0
 51
180.0
  0
ARC
  5
15F
330
1F
100
AcDbEntity
  8
0
  6
Continuous
 62
     7
370
    25
100
AcDbCircle
 10
215.8364162883
 20
97.4956535797
 30
0.0
 40
0.25
100
AcDbArc
 50
0.0
 51
90.0
  0
LINE
  5
160
330
1F
100
AcDbEntity
  8
0
  6
Continuous
 62
     7
370
    25
100
AcDbLine
 10
205.0864162883
 20
97.4956535797
 30
0.0
 11
205.0864162883
 21
96.8956535797
 31
0.0
  0
LINE
  5
161
330
1F
100
AcDbEntity
  8
0
  6
Continuous
 62
     7
370
    25
100
AcDbLine
 10
216.0864162883
 20
96.8956535797
 30
0.0
 11
216.0864162883
 21
97.4956535797
 31
0.0
  0
LINE
  5
162
330
1F
100
AcDbEntity
  8
0
  6
Continuous
 62
     7
370
    25
100
AcDbLine
 10
218.0364162883
 20
88.8956535797
 30
0.0
 11
216.0864162883
 21
96.8956535797
 31
0.0
  0
LINE
  5
163
330
1F
100
AcDbEntity
  8
0
  6
Continuous
 62
     7
370
    25
100
AcDbLine
 10
205.0864162883
 20
96.8956535797
 30
0.0
 11
203.1364162883
 21
88.8956535797
 31
0.0
  0
LINE
  5
164
330
1F
100
AcDbEntity
  8
0
  6
Continuous
 62
     7
370
    25
100
AcDbLine
 10
203.1364162883
 20
88.8956535797
 30
0.0
 11
203.5864162883
 21
80.8956535797
 31
0.0
  0
LINE
  5
165
330
1F
100
AcDbEntity
  8
0
  6
Continuous
 62
     7
370
    25
100
AcDbLine
 10
217.5864162883
 20
80.8956535797
 30
0.0
 11
218.0364162883
 21
88.8956535797
 31
0.0
  0
LINE
  5
166
330
1F
100
AcDbEntity
  8
0
  6
Continuous
 62
     7
370
    25
100
AcDbLine
 10
202.0864162883
 20
58.539991147
 30
0.0
 11
202.3364162883
 21
58.3956535797
 31
0.0
  0
LINE
  5
167
330
1F
100
AcDbEntity
  8
0
  6
Continuous
 62
     7
370
    25
100
AcDbLine
 10
218.8364162883
 20
58.3956535797
 30
0.0
 11
219.0864162883
 21
58.539991147
 31
0.0
  0
LINE
  5
168
330
1F
100
AcDbEntity
  8
0
  6
Continuous
 62
     7
370
    25
100
AcDbLine
 10
216.4864162883
 20
76.9341822436
 30
0.0
 11
216.4864162883
 21
80.8956535797
 31
0.0
  0
LINE
  5
169
330
1F
100
AcDbEntity
  8
0
  6
Continuous
 62
     7
370
    25
100
AcDbLine
 10
204.6864162883
 20
80.8956535797
 30
0.0
 11
204.6864162883
 21
76.9288798329
 31
0.0
  0
LINE
  5
16A
330
1F
100
AcDbEntity
  8
0
  6
Continuous
 62
     7
370
    25
100
AcDbLine
 10
205.4871037883
 20
58.3956535797
 30
0.0
 11
205.8041366615
 21
48.2506016391
 31
0.0
  0
LINE
  5
16B
330
1F
100
AcDbEntity
  8
0
  6
Continuous
 62
     7
370
    25
100
AcDbLine
 10
215.3686959152
 20
48.2506016391
 30
0.0
 11
215.6857287883
 21
58.3956535797
 31
0.0
  0
LINE
  5
16C
330
1F
100
AcDbEntity
  8
0
  6
Continuous
 62
     7
370
    25
100
AcDbLine
 10
205.8041366615
 20
48.2506016391
 30
0.0
 11
206.5864162883
 21
46.8956535797
 31
0.0
  0
LINE
  5
16D
330
1F
100
AcDbEntity
  8
0
  6
Continuous
 62
     7
370
    25
100
AcDbLine
 10
214.5864162883
 20
46.8956535797
 30
0.0
 11
215.3686959152
 21
48.2506016391
 31
0.0
  0
LINE
  5
16E
330
1F
100
AcDbEntity
  8
0
  6
Continuous
 62
     7
370
    25
100
AcDbLine
 10
205.3364162883
 20
97.7456535797
 30
0.0
 11
207.0864162883
 21
97.7456535797
 31
0.0
  0
LINE
  5
16F
330
1F
100
AcDbEntity
  8
0
  6
Continuous
 62
     7
370
    25
100
AcDbLine
 10
214.0864162883
 20
97.7456535797
 30
0.0
 11
215.8364162883
 21
97.7456535797
 31
0.0
  0
LINE
  5
170
330
1F
100
AcDbEntity
  8
0
  6
Continuous
 62
     7
370
    25
100
AcDbLine
 10
205.0864162883
 20
96.8956535797
 30
0.0
 11
207.0864162883
 21
96.8956535797
 31
0.0
  0
LINE
  5
171
330
1F
100
AcDbEntity
  8
0
  6
Continuous
 62
     7
370
    25
100
AcDbLine
 10
214.0864162883
 20
96.8956535797
 30
0.0
 11
216.0864162883
 21
96.8956535797
 31
0.0
  0
LINE
  5
172
330
1F
100
AcDbEntity
  8
0
  6
Continuous
 62
     7
370
    25
100
AcDbLine
 10
214.0864162883
 20
91.8956535797
 30
0.0
 11
214.0864162883
 21
98.8956535797
 31
0.0
  0
LINE
  5
173
330
1F
100
AcDbEntity
  8
0
  6
Continuous
 62
     7
370
    25
100
AcDbLine
 10
207.0864162883
 20
91.8956535797
 30
0.0
 11
214.0864162883
 21
91.8956535797
 31
0.0
  0
LINE
  5
174
330
1F
100
AcDbEntity
  8
0
  6
Continuous
 62
     7
370
    25
100
AcDbLine
 10
207.0864162883
 20
98.8956535797
 30
0.0
 11
207.0864162883
 21
91.8956535797
 31
0.0
  0
LINE
  5
175
330
1F
100
AcDbEntity
  8
0
  6
Continuous
 62
     7
370
    25
100
AcDbLine
 10
207.0864162883
 20
98.8956535797
 30
0.0
 11
214.0864162883
 21
98.8956535797
 31
0.0
  0
LINE
  5
176
330
1F
100
AcDbEntity
  8
0
  6
Continuous
 62
     7
370
    25
100
AcDbLine
 10
214.0864162883
 20
86.8956535797
 30
0.0
 11
207.0864162883
 21
86.8956535797
 31
0.0
  0
LINE
  5
177
330
1F
100
AcDbEntity
  8
0
  6
Continuous
 62
     7
370
    25
100
AcDbLine
 10
207.0864162883
 20
86.8956535797
 30
0.0
 11
207.0864162883
 21
91.8956535797
 31
0.0
  0
LINE
  5
178
330
1F
100
AcDbEntity
  8
0
  6
Continuous
 62
     7
370
    25
100
AcDbLine
 10
214.0864162883
 20
91.8956535797
 30
0.0
 11
214.0864162883
 21
86.8956535797
 31
0.0
  0
SPLINE
  5
179
330
1F
100
AcDbEntity
  8
0
  6
Continuous
 62
     7
370
    25
100
AcDbSpline
210
0.0
220
0.0
230
1.0
 70
     8
 71
     3
 72
    11
 73
     7
 74
     0
 42
0.00000001
 43
0.00000001
 40
0.0
 40
0.0
 40
0.0
 40
0.0
 40
0.2488466353289361
 40
0.4976946020535204
 40
0.7488461225871278
 40
1.0
 40
1.0
 40
1.0
 40
1.0
 10
214.086416288325
 20
86.64782927265222
 30
0.0
 10
214.0911078242644
 20
86.57830489615858
 30
0.0
 10
214.1004909212442
 20
86.43925577119741
 30
0.0
 10
214.176912804731
 20
86.13892703307214
 30
0.0
 10
214.2946389326948
 20
85.77701741481697
 30
0.0
 10
214.4129478560278
 20
85.47542545775242
 30
0.0
 10
214.4721025952544
 20
85.3246287716667
 30
0.0
  0
LINE
  5
17A
330
1F
100
AcDbEntity
  8
0
  6
Continuous
 62
     7
370
    25
100
AcDbLine
 10
214.4721025953
 20
85.3246287717
 30
0.0
 11
206.7007299814
 21
85.3246287717
 31
0.0
  0
SPLINE
  5
17B
330
1F
100
AcDbEntity
  8
0
  6
Continuous
 62
     7
370
    25
100
AcDbSpline
210
0.0
220
0.0
230
1.0
 70
     8
 71
     3
 72
    10
 73
     6
 74
     0
 42
0.00000001
 43
0.00000001
 40
0.0
 40
0.0
 40
0.0
 40
0.0
 40
0.4976498059513298
 40
0.748825596134853
 40
0.9999999999999999
 40
0.9999999999999999
 40
0.9999999999999999
 40
0.9999999999999999
 10
206.7007299813956
 20
85.3246287716667
 30
0.0
 10
206.8097718392552
 20
85.61103306215902
 30
0.0
 10
206.9738497374857
 20
86.04199246573698
 30
0.0
 10
207.071239622274
 20
86.43586244273068
 30
0.0
 10
207.0813574089486
 20
86.57717379266904
 30
0.0
 10
207.086416288325
 20
86.64782927265222
 30
0.0
  0
LINE
  5
17C
330
1F
100
AcDbEntity
  8
0
  6
Continuous
 62
     7
370
    25
100
AcDbLine
 10
214.0864162883
 20
86.8956535797
 30
0.0
 11
214.0864162883
 21
86.6478292727
 31
0.0
  0
LINE
  5
17D
330
1F
100
AcDbEntity
  8
0
  6
Continuous
 62
     7
370
    25
100
AcDbLine
 10
207.0864162883
 20
86.6478292727
 30
0.0
 11
207.0864162883
 21
86.8956535797
 31
0.0
  0
SPLINE
  5
17E
330
1F
100
AcDbEntity
  8
0
  6
Continuous
 62
     7
370
    25
100
AcDbSpline
210
0.0
220
0.0
230
1.0
 70
     8
 71
     3
 72
    16
 73
    12
 74
     0
 42
0.00000001
 43
0.00000001
 40
0.0
 40
0.0
 40
0.0
 40
0.0
 40
0.0155634360124117
 40
0.0359329243097674
 40
0.0739120889290614
 40
0.1570057548437684
 40
0.2406581385754913
 40
0.4592958294318596
 40
0.6783839187935412
 40
0.8974954344294845
 40
1.0
 40
1.0
 40
1.0
 40
1.0
 10
203.9266940661028
 20
80.89565357967676
 30
0.0
 10
203.9403877331161
 20
80.90084695145593
 30
0.0
 10
203.9720037271627
 20
80.9128374293237
 30
0.0
 10
204.0274834174728
 20
81.03116335332066
 30
0.0
 10
204.1060842279633
 20
81.34241466076962
 30
0.0
 10
204.1854244145924
 20
81.86806216213468
 30
0.0
 10
204.2906521226956
 20
82.90660832640482
 30
0.0
 10
204.4056455239148
 20
84.34168236875095
 30
0.0
 10
204.5080455243298
 20
86.17993447019039
 30
0.0
 10
204.5777944042101
 20
87.70111731900982
 30
0.0
 10
204.6172530236389
 20
88.60694935980634
 30
0.0
 10
204.6298291629519
 20
88.8956535796743
 30
0.0
  0
LINE
  5
17F
330
1F
100
AcDbEntity
  8
0
  6
Continuous
 62
     7
370
    25
100
AcDbLine
 10
204.629829163
 20
88.8956535797
 30
0.0
 11
204.4096684477
 21
89.8903971576
 31
0.0
  0
LINE
  5
180
330
1F
100
AcDbEntity
  8
0
  6
Continuous
 62
     7
370
    25
100
AcDbLine
 10
204.4096684477
 20
89.8903971576
 30
0.0
 11
207.0864162883
 21
89.8903971577
 31
0.0
  0
ELLIPSE
  5
181
330
1F
100
AcDbEntity
  8
0
  6
Continuous
 62
     7
370
    25
100
AcDbEllipse
 10
142.0864162883
 20
87.243528012
 30
0.0
 11
65.00000000000003
 21
0.0
 31
0.0
210
0.0
220
0.0
230
1.0
 40
0.2713992096
 41
6.084179739699223
 42
6.174194364446292
  0
SPLINE
  5
182
330
1F
100
AcDbEntity
  8
0
  6
Continuous
 62
     7
370
    25
100
AcDbSpline
210
0.0
220
0.0
230
1.0
 70
     8
 71
     3
 72
    13
 73
     9
 74
     0
 42
0.00000001
 43
0.00000001
 40
0.0
 40
0.0
 40
0.0
 40
0.0
 40
0.1610294006389558
 40
0.3266880383557516
 40
0.4877296220820637
 40
0.6535536198224136
 40
0.8237602734841889
 40
1.0
 40
1.0
 40
1.0
 40
1.0
 10
205.8035539582204
 20
83.75600733118382
 30
0.0
 10
205.7597501907881
 20
83.68661043660659
 30
0.0
 10
205.6708833950458
 20
83.54582164109803
 30
0.0
 10
205.5418633763738
 20
83.19969682339038
 30
0.0
 10
205.4208532806065
 20
82.76049018033835
 30
0.0
 10
205.3141722974818
 20
82.22688834339876
 30
0.0
 10
205.223505010126
 20
81.60306203669906
 30
0.0
 10
205.1866862012293
 20
81.13417813849708
 30
0.0
 10
205.1679562124579
 20
80.89565357967666
 30
0.0
  0
LINE
  5
183
330
1F
100
AcDbEntity
  8
0
  6
Continuous
 62
     7
370
    25
100
AcDbLine
 10
205.1679562125
 20
80.8956535797
 30
0.0
 11
203.9266940661
 21
80.8956535797
 31
0.0
  0
SPLINE
  5
184
330
1F
100
AcDbEntity
  8
0
  6
Continuous
 62
     7
370
    25
100
AcDbSpline
210
0.0
220
0.0
230
1.0
 70
     8
 71
     3
 72
    17
 73
    13
 74
     0
 42
0.00000001
 43
0.00000001
 40
0.0
 40
0.0
 40
0.0
 40
0.0
 40
0.3241697628029873
 40
0.5422758463620719
 40
0.689509052693928
 40
0.7894036290694505
 40
0.8577090008137825
 40
0.9049823971474137
 40
0.9551712229700868
 40
0.9753097783197817
 40
0.9919572060138848
 40
1.0
 40
1.0
 40
1.0
 40
1.0
 10
216.5430034136981
 20
88.8956535796743
 30
0.0
 10
216.5836538524248
 20
87.98304007706862
 30
0.0
 10
216.6516544915805
 20
86.45640707080729
 30
0.0
 10
216.7630873908969
 20
84.52963416852633
 30
0.0
 10
216.8555920509554
 20
83.24199869759354
 30
0.0
 10
216.9334935072728
 20
82.3828467308718
 30
0.0
 10
216.9995460066951
 20
81.8093788424944
 30
0.0
 10
217.0629026140576
 20
81.38784668846444
 30
0.0
 10
217.1210290817515
 20
81.107354145669
 30
0.0
 10
217.1803709100742
 20
80.95180547708834
 30
0.0
 10
217.217376978697
 20
80.90119487789084
 30
0.0
 10
217.2390715455675
 20
80.89701512608622
 30
0.0
 10
217.2461385105472
 20
80.89565357967673
 30
0.0
  0
LINE
  5
185
330
1F
100
AcDbEntity
  8
0
  6
Continuous
 62
     7
370
    25
100
AcDbLine
 10
217.2461385105
 20
80.8956535797
 30
0.0
 11
216.0048763642
 21
80.8956535797
 31
0.0
  0
SPLINE
  5
186
330
1F
100
AcDbEntity
  8
0
  6
Continuous
 62
     7
370
    25
100
AcDbSpline
210
0.0
220
0.0
230
1.0
 70
     8
 71
     3
 72
    14
 73
    10
 74
     0
 42
0.00000001
 43
0.00000001
 40
0.0
 40
0.0
 40
0.0
 40
0.0
 40
0.1576095309202822
 40
0.3152382602707094
 40
0.4726926441579498
 40
0.6301650083177254
 40
0.7907313191165901
 40
0.9513050385928076
 40
1.0
 40
1.0
 40
1.0
 40
1.0
 10
216.0048763641921
 20
80.89565357967666
 30
0.0
 10
215.9883710273496
 20
81.10915536815406
 30
0.0
 10
215.9553583431483
 20
81.53618495177959
 30
0.0
 10
215.8755546532363
 20
82.12143203063589
 30
0.0
 10
215.7777672457501
 20
82.64358657145831
 30
0.0
 10
215.6641774060682
 20
83.09256469887819
 30
0.0
 10
215.5396353070364
 20
83.45184643068457
 30
0.0
 10
215.4392779662599
 20
83.65641260978575
 30
0.0
 10
215.3824921686449
 20
83.73720715813705
 30
0.0
 10
215.3692786184295
 20
83.75600733118382
 30
0.0
  0
ELLIPSE
  5
187
330
1F
100
AcDbEntity
  8
0
  6
Continuous
 62
     7
370
    25
100
AcDbEllipse
 10
279.0864162883
 20
87.243528012
 30
0.0
 11
65.0
 21
0.0
 31
0.0
210
0.0
220
0.0
230
1.0
 40
0.2713992096
 41
3.25058359632319
 42
3.340598221070255
  0
LINE
  5
188
330
1F
100
AcDbEntity
  8
0
  6
Continuous
 62
     7
370
    25
100
AcDbLine
 10
216.763164129
 20
89.8903971576
 30
0.0
 11
216.5430034137
 21
88.8956535797
 31
0.0
  0
LINE
  5
189
330
1F
100
AcDbEntity
  8
0
  6
Continuous
 62
     7
370
    25
100
AcDbLine
 10
214.0864162883
 20
89.8903971577
 30
0.0
 11
216.763164129
 21
89.8903971576
 31
0.0
  0
LINE
  5
18A
330
1F
100
AcDbEntity
  8
0
  6
Continuous
 62
     7
370
    25
100
AcDbLine
 10
205.8035539582
 20
83.7560073312
 30
0.0
 11
215.3692786184
 21
83.7560073312
 31
0.0
  0
SPLINE
  5
18B
330
1F
100
AcDbEntity
  8
0
  6
Continuous
 62
     7
370
    25
100
AcDbSpline
210
0.0
220
0.0
230
1.0
 70
     8
 71
     3
 72
    16
 73
    12
 74
     0
 42
0.00000001
 43
0.00000001
 40
0.0
 40
0.0
 40
0.0
 40
0.0
 40
0.1082397394540288
 40
0.2409347985297594
 40
0.3278143823752722
 40
0.4147786007912546
 40
0.5911316736061375
 40
0.6905102391473411
 40
0.7897210831517909
 40
0.9112972329116562
 40
1.0
 40
1.0
 40
1.0
 40
1.0
 10
213.1844924996783
 20
80.89565357967666
 30
0.0
 10
213.066438616451
 20
81.07871077436751
 30
0.0
 10
212.8036581560165
 20
81.48618448545304
 30
0.0
 10
212.2269803949391
 20
81.83041415392698
 30
0.0
 10
211.6414228025451
 20
82.03439669804476
 30
0.0
 10
210.934400789513
 20
82.16581072840683
 30
0.0
 10
210.1745778548976
 20
82.16279048435129
 30
0.0
 10
209.420609348647
 20
82.00803074964296
 30
0.0
 10
208.8202331460805
 20
81.76748441829976
 30
0.0
 10
208.3035790349428
 20
81.4070425798701
 30
0.0
 10
208.0818661000307
 20
81.04737397531578
 30
0.0
 10
207.9883400769717
 20
80.89565357967666
 30
0.0
  0
LINE
  5
18C
330
1F
100
AcDbEntity
  8
0
  6
Continuous
 62
     7
370
    25
100
AcDbLine
 10
207.988340077
 20
80.8956535797
 30
0.0
 11
205.1679562125
 21
80.8956535797
 31
0.0
  0
LINE
  5
18D
330
1F
100
AcDbEntity
  8
0
  6
Continuous
 62
     7
370
    25
100
AcDbLine
 10
216.0048763642
 20
80.8956535797
 30
0.0
 11
213.1844924997
 21
80.8956535797
 31
0.0
  0
LINE
  5
18E
330
1F
100
AcDbEntity
  8
0
  6
Continuous
 62
     7
370
    25
100
AcDbLine
 10
213.1844924997
 20
80.8956535797
 30
0.0
 11
207.988340077
 21
80.8956535797
 31
0.0
  0
LINE
  5
18F
330
1F
100
AcDbEntity
  8
0
  6
Continuous
 62
     7
370
    25
100
AcDbLine
 10
216.5430034137
 20
88.8956535797
 30
0.0
 11
218.0364162883
 21
88.8956535797
 31
0.0
  0
LINE
  5
190
330
1F
100
AcDbEntity
  8
0
  6
Continuous
 62
     7
370
    25
100
AcDbLine
 10
203.1364162883
 20
88.8956535797
 30
0.0
 11
204.629829163
 21
88.8956535797
 31
0.0
  0
SPLINE
  5
191
330
1F
100
AcDbEntity
  8
0
  6
Continuous
 62
     7
370
    25
100
AcDbSpline
210
0.0
220
0.0
230
1.0
 70
     8
 71
     3
 72
     9
 73
     5
 74
     0
 42
0.00000001
 43
0.00000001
 40
0.0
 40
0.0
 40
0.0
 40
0.0
 40
0.4875141023677128
 40
0.9999999999999999
 40
0.9999999999999999
 40
0.9999999999999999
 40
0.9999999999999999
 10
217.2461385105472
 20
80.89565357967673
 30
0.0
 10
217.254664622083
 20
80.89738092564843
 30
0.0
 10
217.2721535757243
 20
80.90092409693992
 30
0.0
 10
217.2884752796107
 20
80.92244258288922
 30
0.0
 10
217.2968399226778
 20
80.93347050347666
 30
0.0
  0
SPLINE
  5
192
330
1F
100
AcDbEntity
  8
0
  6
Continuous
 62
     7
370
    25
100
AcDbSpline
210
0.0
220
0.0
230
1.0
 70
     8
 71
     3
 72
     9
 73
     5
 74
     0
 42
0.00000001
 43
0.00000001
 40
0.0
 40
0.0
 40
0.0
 40
0.0
 40
0.5124861829376838
 40
0.9999999999999999
 40
0.9999999999999999
 40
0.9999999999999999
 40
0.9999999999999999
 10
203.8759926848385
 20
80.93347045761688
 30
0.0
 10
203.8843573279621
 20
80.92244254466571
 30
0.0
 10
203.9006790228723
 20
80.9009240855963
 30
0.0
 10
203.9181679651141
 20
80.89738092125116
 30
0.0
 10
203.9266940661028
 20
80.89565357967676
 30
0.0
  0
LINE
  5
193
330
1F
100
AcDbEntity
  8
0
  6
Continuous
 62
     7
370
    25
100
AcDbLine
 10
217.2946202208
 20
80.8956535797
 30
0.0
 11
217.5864162883
 21
80.8956535797
 31
0.0
  0
LINE
  5
194
330
1F
100
AcDbEntity
  8
0
  6
Continuous
 62
     7
370
    25
100
AcDbLine
 10
203.5864162883
 20
80.8956535797
 30
0.0
 11
203.8782123558
 21
80.8956535797
 31
0.0
  0
LINE
  5
195
330
1F
100
AcDbEntity
  8
0
  6
Continuous
 62
     7
370
    25
100
AcDbLine
 10
217.2968399227
 20
80.9334705035
 30
0.0
 11
217.2946202208
 21
80.8956535797
 31
0.0
  0
LINE
  5
196
330
1F
100
AcDbEntity
  8
0
  6
Continuous
 62
     7
370
    25
100
AcDbLine
 10
217.2946202208
 20
80.8956535797
 30
0.0
 11
217.2461385105
 21
80.8956535797
 31
0.0
  0
LINE
  5
197
330
1F
100
AcDbEntity
  8
0
  6
Continuous
 62
     7
370
    25
100
AcDbLine
 10
203.8782123558
 20
80.8956535797
 30
0.0
 11
203.8759926848
 21
80.9334704576
 31
0.0
  0
LINE
  5
198
330
1F
100
AcDbEntity
  8
0
  6
Continuous
 62
     7
370
    25
100
AcDbLine
 10
203.9266940661
 20
80.8956535797
 30
0.0
 11
203.8782123558
 21
80.8956535797
 31
0.0
  0
CIRCLE
  5
199
330
1F
100
AcDbEntity
  8
0
  6
Continuous
 62
     7
370
    25
100
AcDbCircle
 10
210.5864162883
 20
70.3956535797
 30
0.0
 40
5.999999999999988
  0
CIRCLE
  5
19A
330
1F
100
AcDbEntity
  8
0
  6
Continuous
 62
     7
370
    25
100
AcDbCircle
 10
210.5864162883
 20
70.3956535797
 30
0.0
 40
5.009999999999977
  0
CIRCLE
  5
19B
330
1F
100
AcDbEntity
  8
0
  6
Continuous
 62
     7
370
    25
100
AcDbCircle
 10
210.5864162883
 20
70.3956535797
 30
0.0
 40
2.999999999999999
  0
CIRCLE
  5
19C
330
1F
100
AcDbEntity
  8
0
  6
Continuous
 62
     7
370
    25
100
AcDbCircle
 10
210.5864162883
 20
70.3956535797
 30
0.0
 40
2.899999999999976
  0
CIRCLE
  5
19D
330
1F
100
AcDbEntity
  8
0
  6
Continuous
 62
     7
370
    25
100
AcDbCircle
 10
210.5864162883
 20
70.3956535797
 30
0.0
 40
8.000000000000002
  0
CIRCLE
  5
19E
330
1F
100
AcDbEntity
  8
0
  6
Continuous
 62
     7
370
    25
100
AcDbCircle
 10
210.5864162883
 20
70.3956535797
 30
0.0
 40
7.799999999999998
  0
SPLINE
  5
19F
330
1F
100
AcDbEntity
  8
0
  6
Continuous
 62
     7
370
    25
100
AcDbSpline
210
0.0
220
0.0
230
1.0
 70
     8
 71
     3
 72
    10
 73
     6
 74
     0
 42
0.00000001
 43
0.00000001
 40
0.0
 40
0.0
 40
0.0
 40
0.0
 40
0.5
 40
0.5
 40
1.0
 40
1.0
 40
1.0
 40
1.0
 10
210.836416288325
 20
80.0662705886029
 30
0.0
 10
210.7620359109477
 20
80.10921411950414
 30
0.0
 10
210.6749428228321
 20
80.13317888386013
 30
0.0
 10
210.4987844339561
 20
80.13333648933491
 30
0.0
 10
210.4108233612283
 20
80.10922953217323
 30
0.0
 10
210.336416288325
 20
80.0662705886029
 30
0.0
  0
SPLINE
  5
1A0
330
1F
100
AcDbEntity
  8
0
  6
Continuous
 62
     7
370
    25
100
AcDbSpline
210
0.0
220
0.0
230
1.0
 70
    24
 71
     3
 72
    16
 73
    12
 74
     0
 42
0.00000001
 43
0.00000001
 40
0.0
 40
0.0
 40
0.0
 40
0.0
 40
0.2499999999999998
 40
0.2499999999999998
 40
0.4999999999999996
 40
0.4999999999999996
 40
0.6249999999999994
 40
0.6249999999999994
 40
0.7499999999999996
 40
0.7499999999999996
 40
1.0
 40
1.0
 40
1.0
 40
1.0
 10
218.836416288325
 20
75.4474684350859
 30
0.0
 10
218.1828995082842
 20
75.8247765239624
 30
0.0
 10
217.5246790991942
 20
76.20480025433659
 30
0.0
 10
216.1951165158284
 20
76.97242356974729
 30
0.0
 10
215.5236925337579
 20
77.3600703865361
 30
0.0
 10
214.5046914467512
 20
77.94839093842394
 30
0.0
 10
214.163350664435
 20
78.14546413097959
 30
0.0
 10
213.4877521614645
 20
78.53552110853369
 30
0.0
 10
213.1520930114999
 20
78.72931400912172
 30
0.0
 10
212.1508273750002
 20
79.30739499388515
 30
0.0
 10
211.4909197163971
 20
79.68839285821998
 30
0.0
 10
210.836416288325
 20
80.0662705886029
 30
0.0
  0
SPLINE
  5
1A1
330
1F
100
AcDbEntity
  8
0
  6
Continuous
 62
     7
370
    25
100
AcDbSpline
210
0.0
220
0.0
230
1.0
 70
     8
 71
     3
 72
    10
 73
     6
 74
     0
 42
0.00000001
 43
0.00000001
 40
0.0
 40
0.0
 40
0.0
 40
0.0
 40
0.5
 40
0.5
 40
1.0
 40
1.0
 40
1.0
 40
1.0
 10
219.086416288325
 20
75.01445573319369
 30
0.0
 10
219.086416288325
 20
75.10034279499614
 30
0.0
 10
219.0636238389952
 20
75.18775000397625
 30
0.0
 10
218.9756811349021
 20
75.34038644657
 30
0.0
 10
218.9108233612283
 20
75.40450949151558
 30
0.0
 10
218.836416288325
 20
75.4474684350859
 30
0.0
  0
SPLINE
  5
1A2
330
1F
100
AcDbEntity
  8
0
  6
Continuous
 62
     7
370
    25
100
AcDbSpline
210
0.0
220
0.0
230
1.0
 70
    24
 71
     3
 72
    14
 73
    10
 74
     0
 42
0.00000001
 43
0.00000001
 40
0.0
 40
0.0
 40
0.0
 40
0.0
 40
0.25
 40
0.25
 40
0.5
 40
0.5
 40
0.75
 40
0.75
 40
1.0
 40
1.0
 40
1.0
 40
1.0
 10
219.086416288325
 20
65.77685142615962
 30
0.0
 10
219.086416288325
 20
66.53144731748954
 30
0.0
 10
219.086416288325
 20
67.30064096188636
 30
0.0
 10
219.086416288325
 20
68.84096471797196
 30
0.0
 10
219.086416288325
 20
69.6158693337081
 30
0.0
 10
219.086416288325
 20
71.17667807129162
 30
0.0
 10
219.086416288325
 20
71.96720533286614
 30
0.0
 10
219.086416288325
 20
73.50915314552222
 30
0.0
 10
219.086416288325
 20
74.26649754466933
 30
0.0
 10
219.086416288325
 20
75.01445573319369
 30
0.0
  0
SPLINE
  5
1A3
330
1F
100
AcDbEntity
  8
0
  6
Continuous
 62
     7
370
    25
100
AcDbSpline
210
0.0
220
0.0
230
1.0
 70
     8
 71
     3
 72
    10
 73
     6
 74
     0
 42
0.00000001
 43
0.00000001
 40
0.0
 40
0.0
 40
0.0
 40
0.0
 40
0.5
 40
0.5
 40
1.0
 40
1.0
 40
1.0
 40
1.0
 10
218.836416288325
 20
65.34383872426744
 30
0.0
 10
218.9107966657022
 20
65.38678225516857
 30
0.0
 10
218.9750973044877
 20
65.45022469979226
 30
0.0
 10
219.0633129892709
 20
65.60270353691138
 30
0.0
 10
219.086416288325
 20
65.69093353901886
 30
0.0
 10
219.086416288325
 20
65.77685142615965
 30
0.0
  0
SPLINE
  5
1A4
330
1F
100
AcDbEntity
  8
0
  6
Continuous
 62
     7
370
    25
100
AcDbSpline
210
0.0
220
0.0
230
1.0
 70
    24
 71
     3
 72
    16
 73
    12
 74
     0
 42
0.00000001
 43
0.00000001
 40
0.0
 40
0.0
 40
0.0
 40
0.0
 40
0.2499999999999999
 40
0.2499999999999999
 40
0.4999999999999998
 40
0.4999999999999998
 40
0.6249999999999998
 40
0.6249999999999998
 40
0.7499999999999999
 40
0.7499999999999999
 40
1.0
 40
1.0
 40
1.0
 40
1.0
 10
210.836416288325
 20
60.72503657075043
 30
0.0
 10
211.4899330683658
 20
61.10234465962691
 30
0.0
 10
212.1481534774557
 20
61.48236839000108
 30
0.0
 10
213.4777160608214
 20
62.24999170541172
 30
0.0
 10
214.1491400428919
 20
62.63763852220049
 30
0.0
 10
215.1681411298985
 20
63.22595907408829
 30
0.0
 10
215.5094819122147
 20
63.42303226664392
 30
0.0
 10
216.1850804151851
 20
63.81308924419798
 30
0.0
 10
216.5207395651497
 20
64.00688214478602
 30
0.0
 10
217.5220052016493
 20
64.5849631295494
 30
0.0
 10
218.1819128602524
 20
64.96596099388418
 30
0.0
 10
218.8364162883244
 20
65.3438387242671
 30
0.0
  0
SPLINE
  5
1A5
330
1F
100
AcDbEntity
  8
0
  6
Continuous
 62
     7
370
    25
100
AcDbSpline
210
0.0
220
0.0
230
1.0
 70
     8
 71
     3
 72
    10
 73
     6
 74
     0
 42
0.00000001
 43
0.00000001
 40
0.0
 40
0.0
 40
0.0
 40
0.0
 40
0.5
 40
0.5
 40
1.0
 40
1.0
 40
1.0
 40
1.0
 10
210.336416288325
 20
60.72503657075044
 30
0.0
 10
210.4107966657023
 20
60.68209303984921
 30
0.0
 10
210.4978897538179
 20
60.65812827549323
 30
0.0
 10
210.6740481426939
 20
60.65797067001845
 30
0.0
 10
210.7620092154217
 20
60.68207762718013
 30
0.0
 10
210.836416288325
 20
60.72503657075043
 30
0.0
  0
SPLINE
  5
1A6
330
1F
100
AcDbEntity
  8
0
  6
Continuous
 62
     7
370
    25
100
AcDbSpline
210
0.0
220
0.0
230
1.0
 70
    24
 71
     3
 72
    16
 73
    12
 74
     0
 42
0.00000001
 43
0.00000001
 40
0.0
 40
0.0
 40
0.0
 40
0.0
 40
0.25
 40
0.25
 40
0.5
 40
0.5
 40
0.6250000000000001
 40
0.6250000000000001
 40
0.7500000000000002
 40
0.7500000000000002
 40
1.0
 40
1.0
 40
1.0
 40
1.0
 10
202.336416288325
 20
65.34383872426746
 30
0.0
 10
202.9899330683658
 20
64.96653063539095
 30
0.0
 10
203.6481534774558
 20
64.58650690501675
 30
0.0
 10
204.9777160608216
 20
63.81888358960605
 30
0.0
 10
205.6491400428921
 20
63.43123677281726
 30
0.0
 10
206.6681411298988
 20
62.84291622092941
 30
0.0
 10
207.009481912215
 20
62.64584302837377
 30
0.0
 10
207.6850804151855
 20
62.25578605081966
 30
0.0
 10
208.0207395651501
 20
62.06199315023162
 30
0.0
 10
209.0220052016498
 20
61.4839121654682
 30
0.0
 10
209.681912860253
 20
61.10291430113337
 30
0.0
 10
210.336416288325
 20
60.72503657075044
 30
0.0
  0
SPLINE
  5
1A7
330
1F
100
AcDbEntity
  8
0
  6
Continuous
 62
     7
370
    25
100
AcDbSpline
210
0.0
220
0.0
230
1.0
 70
     8
 71
     3
 72
    10
 73
     6
 74
     0
 42
0.00000001
 43
0.00000001
 40
0.0
 40
0.0
 40
0.0
 40
0.0
 40
0.5
 40
0.5
 40
1.0
 40
1.0
 40
1.0
 40
1.0
 10
202.086416288325
 20
65.77685142615967
 30
0.0
 10
202.086416288325
 20
65.6909643643572
 30
0.0
 10
202.1092087376548
 20
65.60355715537706
 30
0.0
 10
202.1971514417479
 20
65.45092071278334
 30
0.0
 10
202.2620092154218
 20
65.38679766783775
 30
0.0
 10
202.336416288325
 20
65.34383872426746
 30
0.0
  0
SPLINE
  5
1A8
330
1F
100
AcDbEntity
  8
0
  6
Continuous
 62
     7
370
    25
100
AcDbSpline
210
0.0
220
0.0
230
1.0
 70
    24
 71
     3
 72
    14
 73
    10
 74
     0
 42
0.00000001
 43
0.00000001
 40
0.0
 40
0.0
 40
0.0
 40
0.0
 40
0.25
 40
0.25
 40
0.5
 40
0.5
 40
0.75
 40
0.75
 40
1.0
 40
1.0
 40
1.0
 40
1.0
 10
202.086416288325
 20
65.77685142615962
 30
0.0
 10
202.086416288325
 20
66.53144731748954
 30
0.0
 10
202.086416288325
 20
67.30064096188636
 30
0.0
 10
202.086416288325
 20
68.84096471797196
 30
0.0
 10
202.086416288325
 20
69.6158693337081
 30
0.0
 10
202.086416288325
 20
71.17667807129162
 30
0.0
 10
202.086416288325
 20
71.96720533286613
 30
0.0
 10
202.086416288325
 20
73.50915314552222
 30
0.0
 10
202.086416288325
 20
74.26649754466933
 30
0.0
 10
202.086416288325
 20
75.01445573319369
 30
0.0
  0
SPLINE
  5
1A9
330
1F
100
AcDbEntity
  8
0
  6
Continuous
 62
     7
370
    25
100
AcDbSpline
210
0.0
220
0.0
230
1.0
 70
     8
 71
     3
 72
    10
 73
     6
 74
     0
 42
0.00000001
 43
0.00000001
 40
0.0
 40
0.0
 40
0.0
 40
0.0
 40
0.5
 40
0.5
 40
1.0
 40
1.0
 40
1.0
 40
1.0
 10
202.336416288325
 20
75.4474684350859
 30
0.0
 10
202.2620359109477
 20
75.40452490418467
 30
0.0
 10
202.1977352721619
 20
75.34108245956054
 30
0.0
 10
202.109519587379
 20
75.18860362244158
 30
0.0
 10
202.086416288325
 20
75.10037362033431
 30
0.0
 10
202.086416288325
 20
75.01445573319369
 30
0.0
  0
SPLINE
  5
1AA
330
1F
100
AcDbEntity
  8
0
  6
Continuous
 62
     7
370
    25
100
AcDbSpline
210
0.0
220
0.0
230
1.0
 70
    24
 71
     3
 72
    16
 73
    12
 74
     0
 42
0.00000001
 43
0.00000001
 40
0.0
 40
0.0
 40
0.0
 40
0.0
 40
0.2499999999999997
 40
0.2499999999999997
 40
0.4999999999999994
 40
0.4999999999999994
 40
0.6249999999999996
 40
0.6249999999999996
 40
0.7499999999999996
 40
0.7499999999999996
 40
1.0
 40
1.0
 40
1.0
 40
1.0
 10
210.336416288325
 20
80.0662705886029
 30
0.0
 10
209.6828995082842
 20
79.68896249972641
 30
0.0
 10
209.0246790991942
 20
79.30893876935221
 30
0.0
 10
207.6951165158285
 20
78.54131545394151
 30
0.0
 10
207.0236925337579
 20
78.15366863715272
 30
0.0
 10
206.0046914467512
 20
77.56534808526487
 30
0.0
 10
205.663350664435
 20
77.36827489270922
 30
0.0
 10
204.9877521614645
 20
76.97821791515511
 30
0.0
 10
204.6520930114999
 20
76.78442501456709
 30
0.0
 10
203.6508273750002
 20
76.20634402980366
 30
0.0
 10
202.9909197163971
 20
75.82534616546883
 30
0.0
 10
202.336416288325
 20
75.4474684350859
 30
0.0
  0
CIRCLE
  5
1AB
330
1F
100
AcDbEntity
  8
0
  6
Continuous
 62
     7
370
    25
100
AcDbCircle
 10
210.5864162883
 20
70.3956535797
 30
0.0
 40
8.423205080756901
  0
LINE
  5
1AC
330
1F
100
AcDbEntity
  8
0
  6
Continuous
 62
     7
370
    25
100
AcDbLine
 10
210.5864162883
 20
58.3956535797
 30
0.0
 11
202.3364162883
 21
58.3956535797
 31
0.0
  0
LINE
  5
1AD
330
1F
100
AcDbEntity
  8
0
  6
Continuous
 62
     7
370
    25
100
AcDbLine
 10
218.8364162883
 20
58.3956535797
 30
0.0
 11
210.5864162883
 21
58.3956535797
 31
0.0
  0
SPLINE
  5
1AE
330
1F
100
AcDbEntity
  8
0
  6
Continuous
 62
     7
370
    25
100
AcDbSpline
210
0.0
220
0.0
230
1.0
 70
     8
 71
     3
 72
    10
 73
     6
 74
     0
 42
0.00000001
 43
0.00000001
 40
0.0
 40
0.0
 40
0.0
 40
0.0
 40
0.5
 40
0.5
 40
1.0
 40
1.0
 40
1.0
 40
1.0
 10
218.836416288325
 20
59.21771255223427
 30
0.0
 10
218.9107867552506
 20
59.24138479214583
 30
0.0
 10
218.9750923515384
 20
59.25447878208109
 30
0.0
 10
219.0633151393443
 20
59.25456564954253
 30
0.0
 10
219.086416288325
 20
59.24139585978318
 30
0.0
 10
219.086416288325
 20
59.21771255223427
 30
0.0
  0
SPLINE
  5
1AF
330
1F
100
AcDbEntity
  8
0
  6
Continuous
 62
     7
370
    25
100
AcDbSpline
210
0.0
220
0.0
230
1.0
 70
     8
 71
     3
 72
    10
 73
     6
 74
     0
 42
0.00000001
 43
0.00000001
 40
0.0
 40
0.0
 40
0.0
 40
0.0
 40
0.5
 40
0.5
 40
1.0
 40
1.0
 40
1.0
 40
1.0
 10
202.086416288325
 20
59.21771255223427
 30
0.0
 10
202.086416288325
 20
59.24138645279022
 30
0.0
 10
202.1092068599724
 20
59.25447900996937
 30
0.0
 10
202.1971528572712
 20
59.25456542395164
 30
0.0
 10
202.262013650004
 20
59.24139503235302
 30
0.0
 10
202.336416288325
 20
59.21771255223427
 30
0.0
  0
SPLINE
  5
1B0
330
1F
100
AcDbEntity
  8
0
  6
Continuous
 62
     7
370
    25
100
AcDbSpline
210
0.0
220
0.0
230
1.0
 70
     8
 71
     3
 72
    16
 73
    12
 74
     0
 42
0.00000001
 43
0.00000001
 40
0.0
 40
0.0
 40
0.0
 40
0.0
 40
0.2499999999999999
 40
0.2499999999999999
 40
0.4999999999999998
 40
0.4999999999999998
 40
0.6249999999999998
 40
0.6249999999999998
 40
0.7499999999999997
 40
0.7499999999999997
 40
1.0
 40
1.0
 40
1.0
 40
1.0
 10
210.3364162883251
 20
59.21771255223381
 30
0.0
 10
209.6821946348855
 20
59.00947274178515
 30
0.0
 10
209.0237420993744
 20
58.83929945537572
 30
0.0
 10
207.6950974743912
 20
58.60457719575987
 30
0.0
 10
207.0248330301036
 20
58.5406792206854
 30
0.0
 10
206.008897286542
 20
58.5396555185989
 30
0.0
 10
205.6675461684422
 20
58.5551420657436
 30
0.0
 10
204.9911298569777
 20
58.61626578720158
 30
0.0
 10
204.6550570879369
 20
58.6617875144966
 30
0.0
 10
203.6525390268758
 20
58.83828687824177
 30
0.0
 10
202.9917811567843
 20
59.0091088545956
 30
0.0
 10
202.336416288325
 20
59.21771255223413
 30
0.0
  0
SPLINE
  5
1B1
330
1F
100
AcDbEntity
  8
0
  6
Continuous
 62
     7
370
    25
100
AcDbSpline
210
0.0
220
0.0
230
1.0
 70
     8
 71
     3
 72
    10
 73
     6
 74
     0
 42
0.00000001
 43
0.00000001
 40
0.0
 40
0.0
 40
0.0
 40
0.0
 40
0.5
 40
0.5
 40
1.0
 40
1.0
 40
1.0
 40
1.0
 10
210.336416288325
 20
59.21771255223427
 30
0.0
 10
210.4107910423151
 20
59.24138615672539
 30
0.0
 10
210.497884773881
 20
59.25447893251862
 30
0.0
 10
210.6740506024254
 20
59.25456550061957
 30
0.0
 10
210.7620116263157
 20
59.24139567649628
 30
0.0
 10
210.836416288325
 20
59.21771255223427
 30
0.0
  0
SPLINE
  5
1B2
330
1F
100
AcDbEntity
  8
0
  6
Continuous
 62
     7
370
    25
100
AcDbSpline
210
0.0
220
0.0
230
1.0
 70
     8
 71
     3
 72
    16
 73
    12
 74
     0
 42
0.00000001
 43
0.00000001
 40
0.0
 40
0.0
 40
0.0
 40
0.0
 40
0.2500000000000003
 40
0.2500000000000003
 40
0.5000000000000006
 40
0.5000000000000006
 40
0.6250000000000006
 40
0.6250000000000006
 40
0.7500000000000004
 40
0.7500000000000004
 40
1.0
 40
1.0
 40
1.0
 40
1.0
 10
218.8364162883251
 20
59.21771255223381
 30
0.0
 10
218.1821946348855
 20
59.00947274178515
 30
0.0
 10
217.5237420993744
 20
58.83929945537572
 30
0.0
 10
216.1950974743912
 20
58.60457719575987
 30
0.0
 10
215.5248330301036
 20
58.5406792206854
 30
0.0
 10
214.508897286542
 20
58.5396555185989
 30
0.0
 10
214.1675461684422
 20
58.5551420657436
 30
0.0
 10
213.4911298569778
 20
58.61626578720158
 30
0.0
 10
213.1550570879369
 20
58.6617875144966
 30
0.0
 10
212.1525390268759
 20
58.83828687824177
 30
0.0
 10
211.4917811567843
 20
59.0091088545956
 30
0.0
 10
210.836416288325
 20
59.21771255223413
 30
0.0
  0
SPLINE
  5
1B3
330
1F
100
AcDbEntity
  8
0
  6
Continuous
 62
     7
370
    25
100
AcDbSpline
210
0.0
220
0.0
230
1.0
 70
    24
 71
     3
 72
    11
 73
     7
 74
     0
 42
0.00000001
 43
0.00000001
 40
0.0
 40
0.0
 40
0.0
 40
0.0
 40
0.2021977744139266
 40
0.4641481248639601
 40
0.7320403062841466
 40
1.0
 40
1.0
 40
1.0
 40
1.0
 10
219.086416288325
 20
58.5490412913338
 30
0.0
 10
219.086416288325
 20
58.5514502984633
 30
0.0
 10
219.086416288325
 20
58.55698021166429
 30
0.0
 10
219.086416288325
 20
58.68542685033628
 30
0.0
 10
219.086416288325
 20
58.90196244412246
 30
0.0
 10
219.086416288325
 20
59.11245367622526
 30
0.0
 10
219.086416288325
 20
59.21771255223427
 30
0.0
  0
SPLINE
  5
1B4
330
1F
100
AcDbEntity
  8
0
  6
Continuous
 62
     7
370
    25
100
AcDbSpline
210
0.0
220
0.0
230
1.0
 70
    24
 71
     3
 72
    11
 73
     7
 74
     0
 42
0.00000001
 43
0.00000001
 40
0.0
 40
0.0
 40
0.0
 40
0.0
 40
0.2623528517141256
 40
0.524643793835094
 40
0.7921984074816136
 40
1.0
 40
1.0
 40
1.0
 40
1.0
 10
202.086416288325
 20
59.21771255223427
 30
0.0
 10
202.086416288325
 20
59.1145339526831
 30
0.0
 10
202.086416288325
 20
58.90820110149648
 30
0.0
 10
202.086416288325
 20
58.69049479002069
 30
0.0
 10
202.086416288325
 20
58.55800505118322
 30
0.0
 10
202.086416288325
 20
58.55194263563737
 30
0.0
 10
202.086416288325
 20
58.5492924554386
 30
0.0
  0
LINE
  5
1B5
330
1F
100
AcDbEntity
  8
0
  6
Continuous
 62
     7
370
    25
100
AcDbLine
 10
210.8364162883
 20
60.7250365708
 30
0.0
 11
210.8364162883
 21
59.2177125522
 31
0.0
  0
LINE
  5
1B6
330
1F
100
AcDbEntity
  8
0
  6
Continuous
 62
     7
370
    25
100
AcDbLine
 10
210.3364162883
 20
59.2177125522
 30
0.0
 11
210.3364162883
 21
60.7250365708
 31
0.0
  0
LINE
  5
1B7
330
1F
100
AcDbEntity
  8
0
  6
Continuous
 62
     7
370
    25
100
AcDbLine
 10
202.3364162883
 20
62.4292570398
 30
0.0
 11
202.3364162883
 21
59.2177125522
 31
0.0
  0
SPLINE
  5
1B8
330
1F
100
AcDbEntity
  8
0
  6
Continuous
 62
     7
370
    25
100
AcDbSpline
210
0.0
220
0.0
230
1.0
 70
     8
 71
     3
 72
    10
 73
     6
 74
     0
 42
0.00000001
 43
0.00000001
 40
0.0
 40
0.0
 40
0.0
 40
0.0
 40
0.5
 40
0.5
 40
1.0
 40
1.0
 40
1.0
 40
1.0
 10
202.3364162883255
 20
62.42925703982182
 30
0.0
 10
202.9712439941391
 20
62.63132372537275
 30
0.0
 10
203.6105096967149
 20
62.7977164976434
 30
0.0
 10
204.9013246283048
 20
63.03176347151344
 30
0.0
 10
205.5529442637746
 20
63.09885172547228
 30
0.0
 10
206.2119861955947
 20
63.10627739504206
 30
0.0
  0
SPLINE
  5
1B9
330
1F
100
AcDbEntity
  8
0
  6
Continuous
 62
     7
370
    25
100
AcDbSpline
210
0.0
220
0.0
230
1.0
 70
     8
 71
     3
 72
    12
 73
     8
 74
     0
 42
0.00000001
 43
0.00000001
 40
0.0
 40
0.0
 40
0.0
 40
0.0
 40
0.2500000000000002
 40
0.2500000000000002
 40
0.5000000000000004
 40
0.5000000000000004
 40
1.0
 40
1.0
 40
1.0
 40
1.0
 10
214.9608463810773
 20
63.10627739504181
 30
0.0
 10
215.2899813714705
 20
63.10256890918538
 30
0.0
 10
215.6194435244073
 20
63.0839864063477
 30
0.0
 10
216.2723171424649
 20
63.01911936938155
 30
0.0
 10
216.596769734342
 20
62.9728538161313
 30
0.0
 10
217.5648301755341
 20
62.79712928582433
 30
0.0
 10
218.203152659782
 20
62.63082587704758
 30
0.0
 10
218.836416288325
 20
62.42925703982168
 30
0.0
  0
LINE
  5
1BA
330
1F
100
AcDbEntity
  8
0
  6
Continuous
 62
     7
370
    25
100
AcDbLine
 10
218.8364162883
 20
59.2177125522
 30
0.0
 11
218.8364162883
 21
62.4292570398
 31
0.0
  0
SPLINE
  5
1BB
330
1F
100
AcDbEntity
  8
0
  6
Continuous
 62
     7
370
    25
100
AcDbSpline
210
0.0
220
0.0
230
1.0
 70
     8
 71
     3
 72
     8
 73
     4
 74
     0
 42
0.00000001
 43
0.00000001
 40
0.0
 40
0.0
 40
0.0
 40
0.0
 40
1.0
 40
1.0
 40
1.0
 40
1.0
 10
203.6582130580495
 20
63.39565357967668
 30
0.0
 10
203.1317921968403
 20
63.13244314907207
 30
0.0
 10
202.6082477401266
 20
62.86334572068536
 30
0.0
 10
202.086416288325
 20
62.5907423681027
 30
0.0
  0
SPLINE
  5
1BC
330
1F
100
AcDbEntity
  8
0
  6
Continuous
 62
     7
370
    25
100
AcDbSpline
210
0.0
220
0.0
230
1.0
 70
     8
 71
     3
 72
    10
 73
     6
 74
     0
 42
0.00000001
 43
0.00000001
 40
0.0
 40
0.0
 40
0.0
 40
0.0
 40
0.5
 40
0.5
 40
1.0
 40
1.0
 40
1.0
 40
1.0
 10
202.086416288325
 20
62.42925703982161
 30
0.0
 10
202.086416288325
 20
62.4055816453972
 30
0.0
 10
202.1092087376549
 20
62.39249053551261
 30
0.0
 10
202.1971514417481
 20
62.39240421422439
 30
0.0
 10
202.2620092154223
 20
62.40557314816833
 30
0.0
 10
202.3364162883257
 20
62.42925703982188
 30
0.0
  0
SPLINE
  5
1BD
330
1F
100
AcDbEntity
  8
0
  6
Continuous
 62
     7
370
    25
100
AcDbSpline
210
0.0
220
0.0
230
1.0
 70
    24
 71
     3
 72
     8
 73
     4
 74
     0
 42
0.00000001
 43
0.00000001
 40
0.0
 40
0.0
 40
0.0
 40
0.0
 40
1.0
 40
1.0
 40
1.0
 40
1.0
 10
202.086416288325
 20
62.42925703982168
 30
0.0
 10
202.086416288325
 20
62.48581800694589
 30
0.0
 10
202.086416288325
 20
62.53975807835974
 30
0.0
 10
202.086416288325
 20
62.5907423681027
 30
0.0
  0
SPLINE
  5
1BE
330
1F
100
AcDbEntity
  8
0
  6
Continuous
 62
     7
370
    25
100
AcDbSpline
210
0.0
220
0.0
230
1.0
 70
     8
 71
     3
 72
     8
 73
     4
 74
     0
 42
0.00000001
 43
0.00000001
 40
0.0
 40
0.0
 40
0.0
 40
0.0
 40
1.0
 40
1.0
 40
1.0
 40
1.0
 10
219.086416288325
 20
62.5907423681027
 30
0.0
 10
218.5646101370232
 20
62.86333250377204
 30
0.0
 10
218.040956668167
 20
63.13248500489343
 30
0.0
 10
217.5146195186005
 20
63.39565357967668
 30
0.0
  0
SPLINE
  5
1BF
330
1F
100
AcDbEntity
  8
0
  6
Continuous
 62
     7
370
    25
100
AcDbSpline
210
0.0
220
0.0
230
1.0
 70
     8
 71
     3
 72
    10
 73
     6
 74
     0
 42
0.00000001
 43
0.00000001
 40
0.0
 40
0.0
 40
0.0
 40
0.0
 40
0.5
 40
0.5
 40
1.0
 40
1.0
 40
1.0
 40
1.0
 10
218.836416288325
 20
62.42925703982168
 30
0.0
 10
218.9107966657023
 20
62.40558164539728
 30
0.0
 10
218.9750973044881
 20
62.39249053551264
 30
0.0
 10
219.063312989271
 20
62.39240421422436
 30
0.0
 10
219.086416288325
 20
62.4055731481682
 30
0.0
 10
219.086416288325
 20
62.42925703982167
 30
0.0
  0
SPLINE
  5
1C0
330
1F
100
AcDbEntity
  8
0
  6
Continuous
 62
     7
370
    25
100
AcDbSpline
210
0.0
220
0.0
230
1.0
 70
    24
 71
     3
 72
     8
 73
     4
 74
     0
 42
0.00000001
 43
0.00000001
 40
0.0
 40
0.0
 40
0.0
 40
0.0
 40
1.0
 40
1.0
 40
1.0
 40
1.0
 10
219.086416288325
 20
62.42925703982168
 30
0.0
 10
219.086416288325
 20
62.48581800694589
 30
0.0
 10
219.086416288325
 20
62.53975807835974
 30
0.0
 10
219.086416288325
 20
62.5907423681027
 30
0.0
  0
LINE
  5
1C1
330
1F
100
AcDbEntity
  8
0
  6
Continuous
 62
     7
370
    25
100
AcDbLine
 10
203.0864162883
 20
63.3956535797
 30
0.0
 11
205.7107719413
 21
63.3956535797
 31
0.0
  0
LINE
  5
1C2
330
1F
100
AcDbEntity
  8
0
  6
Continuous
 62
     7
370
    25
100
AcDbLine
 10
203.0864162883
 20
64.9108260224
 30
0.0
 11
203.0864162883
 21
63.3956535797
 31
0.0
  0
LINE
  5
1C3
330
1F
100
AcDbEntity
  8
0
  6
Continuous
 62
     7
370
    25
100
AcDbLine
 10
218.0864162883
 20
63.3956535797
 30
0.0
 11
218.0864162883
 21
64.9108260224
 31
0.0
  0
LINE
  5
1C4
330
1F
100
AcDbEntity
  8
0
  6
Continuous
 62
     7
370
    25
100
AcDbLine
 10
215.4620606353
 20
63.3956535797
 30
0.0
 11
218.0864162883
 21
63.3956535797
 31
0.0
  0
LINE
  5
1C5
330
1F
100
AcDbEntity
  8
0
  6
Continuous
 62
     7
370
    25
100
AcDbLine
 10
215.3686959152
 20
48.2506016391
 30
0.0
 11
205.8041366615
 21
48.2506016391
 31
0.0
  0
LINE
  5
1C6
330
1F
100
AcDbEntity
  8
0
  6
Continuous
 62
     7
370
    25
100
AcDbLine
 10
202.0864162883
 20
59.2177125522
 30
0.0
 11
202.0864162883
 21
62.4292570398
 31
0.0
  0
LINE
  5
1C7
330
1F
100
AcDbEntity
  8
0
  6
Continuous
 62
     7
370
    25
100
AcDbLine
 10
219.0864162883
 20
62.4292570398
 30
0.0
 11
219.0864162883
 21
59.2177125522
 31
0.0
  0
LINE
  5
1C8
330
1F
100
AcDbEntity
  8
0
  6
Continuous
 62
     7
370
    25
100
AcDbLine
 10
210.5864162883
 20
46.8956535797
 30
0.0
 11
206.5864162883
 21
46.8956535797
 31
0.0
  0
LINE
  5
1C9
330
1F
100
AcDbEntity
  8
0
  6
Continuous
 62
     7
370
    25
100
AcDbLine
 10
214.5864162883
 20
46.8956535797
 30
0.0
 11
210.5864162883
 21
46.8956535797
 31
0.0
  0
LINE
  5
1CA
330
1F
100
AcDbEntity
  8
0
  6
Continuous
 62
     7
370
    25
100
AcDbLine
 10
202.0864162883
 20
62.5907423681
 30
0.0
 11
202.0864162883
 21
65.7335080105
 31
0.0
  0
LINE
  5
1CB
330
1F
100
AcDbEntity
  8
0
  6
Continuous
 62
     7
370
    25
100
AcDbLine
 10
219.0864162883
 20
62.5907423681
 30
0.0
 11
219.0864162883
 21
65.7335080105
 31
0.0
  0
LINE
  5
1CC
330
1F
100
AcDbEntity
  8
0
  6
Continuous
 62
     7
370
    25
100
AcDbLine
 10
207.0864162883
 20
97.4956535797
 30
0.0
 11
205.0864162883
 21
97.4956535797
 31
0.0
  0
LINE
  5
1CD
330
1F
100
AcDbEntity
  8
0
  6
Continuous
 62
     7
370
    25
100
AcDbLine
 10
216.0864162883
 20
97.4956535797
 30
0.0
 11
214.0864162883
 21
97.4956535797
 31
0.0
  0
SPLINE
  5
1CE
330
1F
100
AcDbEntity
  8
0
  6
Continuous
 62
     7
370
    25
100
AcDbSpline
210
0.0
220
0.0
230
1.0
 70
     8
 71
     3
 72
    18
 73
    14
 74
     0
 42
0.00000001
 43
0.00000001
 40
0.0
 40
0.0
 40
0.0
 40
0.0
 40
0.0468482616128918
 40
0.1374798842167751
 40
0.2589429285613984
 40
0.3806196605720601
 40
0.3961192399372785
 40
0.5263333916152385
 40
0.6565458844057411
 40
0.7575326626984138
 40
0.8583162899695422
 40
0.9376391951245244
 40
1.0
 40
1.0
 40
1.0
 40
1.0
 10
211.2008740753115
 20
79.855850787178
 30
0.0
 10
211.3435223051131
 20
79.84518067913784
 30
0.0
 10
211.7621346813609
 20
79.81386841337947
 30
0.0
 10
212.5158254132258
 20
79.64132542147779
 30
0.0
 10
213.4133512688612
 20
79.32654490975769
 30
0.0
 10
214.0231349611564
 20
79.01144716458487
 30
0.0
 10
214.598872631048
 20
78.66512244675464
 30
0.0
 10
215.1362451812478
 20
78.28456582519979
 30
0.0
 10
215.7021646696165
 20
77.78694038907042
 30
0.0
 10
216.1037447161362
 20
77.37370557658483
 30
0.0
 10
216.3430797928096
 20
77.1003338036135
 30
0.0
 10
216.4682288191963
 20
76.94864676825077
 30
0.0
 10
216.4755452884581
 20
76.93921673287768
 30
0.0
 10
216.4787655663004
 20
76.93506618800741
 30
0.0
  0
SPLINE
  5
1CF
330
1F
100
AcDbEntity
  8
0
  6
Continuous
 62
     7
370
    25
100
AcDbSpline
210
0.0
220
0.0
230
1.0
 70
     8
 71
     3
 72
    19
 73
    15
 74
     0
 42
0.00000001
 43
0.00000001
 40
0.0
 40
0.0
 40
0.0
 40
0.0
 40
0.0663389399261943
 40
0.1059253903440237
 40
0.1953099057486755
 40
0.2848606784750018
 40
0.4058539227372187
 40
0.52693339712631
 40
0.6283677103195434
 40
0.7297347462875277
 40
0.8191458470735202
 40
0.9084829714226771
 40
0.9868723793755738
 40
1.0
 40
1.0
 40
1.0
 40
1.0
 10
204.6883588049168
 20
76.9282220599225
 30
0.0
 10
204.693098647938
 20
76.93401947086876
 30
0.0
 10
204.7006668985424
 20
76.94327637214201
 30
0.0
 10
204.7819240661338
 20
77.04228436529807
 30
0.0
 10
204.9315926260109
 20
77.2191220280284
 30
0.0
 10
205.2399814714136
 20
77.5559327883607
 30
0.0
 10
205.6972253239422
 20
77.99652081367988
 30
0.0
 10
206.2955527643593
 20
78.47853959756729
 30
0.0
 10
206.9654372749098
 20
78.91446733506288
 30
0.0
 10
207.6555912917462
 20
79.2708181372136
 30
0.0
 10
208.3916779046236
 20
79.55766031411243
 30
0.0
 10
209.1244847987006
 20
79.74964313930924
 30
0.0
 10
209.6650461800234
 20
79.8493436363266
 30
0.0
 10
209.9460155774588
 20
79.86228545553007
 30
0.0
 10
209.9863191112813
 20
79.86414188919422
 30
0.0
  0
INSERT
  5
1DB
330
1F
100
AcDbEntity
  8
0
  6
Continuous
 62
     7
370
    18
100
AcDbBlockReference
  2
SW_CENTERMARKSYMBOL_0
 10
210.5864162883
 20
70.3956535797
 30
0.0
  0
LINE
  5
1DC
330
1F
100
AcDbEntity
  8
0
  6
Continuous
 62
     7
370
    18
100
AcDbLine
 10
205.9926662883
 20
57.8956535797
 30
0.0
 11
206.3221103075
 21
47.3534449673
 31
0.0
  0
LINE
  5
1DD
330
1F
100
AcDbEntity
  8
0
  6
Continuous
 62
     7
370
    18
100
AcDbLine
 10
214.8507222692
 20
47.3534449673
 30
0.0
 11
215.1801662883
 21
57.8956535797
 31
0.0
  0
LINE
  5
1DE
330
1F
100
AcDbEntity
  8
0
  6
Continuous
 62
     7
370
    25
100
AcDbLine
 10
146.7502263279
 20
137.6067604263
 30
0.0
 11
146.5502263279
 21
137.4067604263
 31
0.0
  0
LINE
  5
1DF
330
1F
100
AcDbEntity
  8
0
  6
Continuous
 62
     7
370
    25
100
AcDbLine
 10
146.5502263279
 20
121.8067604263
 30
0.0
 11
146.7502263279
 21
121.6067604263
 31
0.0
  0
LINE
  5
1E0
330
1F
100
AcDbEntity
  8
0
  6
Continuous
 62
     7
370
    25
100
AcDbLine
 10
149.5502263279
 20
137.6067604263
 30
0.0
 11
146.7502263279
 21
137.6067604263
 31
0.0
  0
LINE
  5
1E1
330
1F
100
AcDbEntity
  8
0
  6
Continuous
 62
     7
370
    25
100
AcDbLine
 10
146.7502263279
 20
121.6067604263
 30
0.0
 11
149.5502263279
 21
121.6067604263
 31
0.0
  0
ARC
  5
1E2
330
1F
100
AcDbEntity
  8
0
  6
Continuous
 62
     7
370
    25
100
AcDbCircle
 10
138.0602263279
 20
134.6167604263
 30
0.0
 40
0.9899999999999807
100
AcDbArc
 50
19.1995397339
 51
90.0
  0
ARC
  5
1E3
330
1F
100
AcDbEntity
  8
0
  6
Continuous
 62
     7
370
    25
100
AcDbCircle
 10
138.0602263279
 20
124.5967604263
 30
0.0
 40
0.9899999999999949
100
AcDbArc
 50
270.0
 51
340.8004602661
  0
ARC
  5
1E4
330
1F
100
AcDbEntity
  8
0
  6
Continuous
 62
     7
370
    25
100
AcDbCircle
 10
138.0402263279
 20
134.6167604263
 30
0.0
 40
0.9899999999999807
100
AcDbArc
 50
90.0
 51
180.0
  0
ARC
  5
1E5
330
1F
100
AcDbEntity
  8
0
  6
Continuous
 62
     7
370
    25
100
AcDbCircle
 10
138.0402263279
 20
124.5967604263
 30
0.0
 40
0.9899999999999949
100
AcDbArc
 50
180.0
 51
270.0
  0
LINE
  5
1E6
330
1F
100
AcDbEntity
  8
0
  6
Continuous
 62
     7
370
    25
100
AcDbLine
 10
138.0602263279
 20
135.6067604263
 30
0.0
 11
138.0402263279
 21
135.6067604263
 31
0.0
  0
LINE
  5
1E7
330
1F
100
AcDbEntity
  8
0
  6
Continuous
 62
     7
370
    25
100
AcDbLine
 10
138.0402263279
 20
123.6067604263
 30
0.0
 11
138.0602263279
 21
123.6067604263
 31
0.0
  0
ARC
  5
1E8
330
1F
100
AcDbEntity
  8
0
  6
Continuous
 62
     7
370
    25
100
AcDbCircle
 10
139.4673510559
 20
135.1067604263
 30
0.0
 40
0.5000000000000235
100
AcDbArc
 50
199.1995397339
 51
270.0
  0
ARC
  5
1E9
330
1F
100
AcDbEntity
  8
0
  6
Continuous
 62
     7
370
    25
100
AcDbCircle
 10
139.4673510559
 20
124.1067604263
 30
0.0
 40
0.5000000000000189
100
AcDbArc
 50
90.0
 51
160.8004602661
  0
LINE
  5
1EA
330
1F
100
AcDbEntity
  8
0
  6
Continuous
 62
     7
370
    25
100
AcDbLine
 10
146.5502263279
 20
134.6067604263
 30
0.0
 11
139.4673510559
 21
134.6067604263
 31
0.0
  0
LINE
  5
1EB
330
1F
100
AcDbEntity
  8
0
  6
Continuous
 62
     7
370
    25
100
AcDbLine
 10
139.4673510559
 20
124.6067604263
 30
0.0
 11
146.5502263279
 21
124.6067604263
 31
0.0
  0
LINE
  5
1EC
330
1F
100
AcDbEntity
  8
0
  6
Continuous
 62
     7
370
    25
100
AcDbLine
 10
173.3058887606
 20
121.1067604263
 30
0.0
 11
173.4502263279
 21
121.3567604263
 31
0.0
  0
LINE
  5
1ED
330
1F
100
AcDbEntity
  8
0
  6
Continuous
 62
     7
370
    25
100
AcDbLine
 10
173.4502263279
 20
137.8567604263
 30
0.0
 11
173.3058887606
 21
138.1067604263
 31
0.0
  0
LINE
  5
1EE
330
1F
100
AcDbEntity
  8
0
  6
Continuous
 62
     7
370
    25
100
AcDbLine
 10
149.5945638952
 20
138.1067604263
 30
0.0
 11
149.5502263279
 21
138.0299655071
 31
0.0
  0
LINE
  5
1EF
330
1F
100
AcDbEntity
  8
0
  6
Continuous
 62
     7
370
    25
100
AcDbLine
 10
149.5502263279
 20
121.1835553456
 30
0.0
 11
149.5945638952
 21
121.1067604263
 31
0.0
  0
SPLINE
  5
1F0
330
1F
100
AcDbEntity
  8
0
  6
Continuous
 62
     7
370
    25
100
AcDbSpline
210
0.0
220
0.0
230
1.0
 70
     8
 71
     3
 72
    15
 73
    11
 74
     0
 42
0.00000001
 43
0.00000001
 40
0.0
 40
0.0
 40
0.0
 40
0.0
 40
0.0090459071881971
 40
0.1032433785236817
 40
0.1542564497735191
 40
0.3133169026715104
 40
0.5243720399414403
 40
0.667806000850918
 40
0.9918332554187028
 40
1.0
 40
1.0
 40
1.0
 40
1.0
 10
156.2111409952864
 20
131.280673469822
 30
0.0
 10
156.2111466872531
 20
131.2806558240976
 30
0.0
 10
156.2112116512039
 20
131.280454428685
 30
0.0
 10
156.2132073376398
 20
131.2742648080188
 30
0.0
 10
156.2210243338563
 20
131.2500628761746
 30
0.0
 10
156.2381941576112
 20
131.197043884173
 30
0.0
 10
156.2647780541787
 20
131.1156729969764
 30
0.0
 10
156.3026073526674
 20
131.0010939249539
 30
0.0
 10
156.3308881326776
 20
130.9166687472348
 30
0.0
 10
156.3507192802089
 20
130.8581978892828
 30
0.0
 10
156.3512068143518
 20
130.8567604263437
 30
0.0
  0
ARC
  5
1F1
330
1F
100
AcDbEntity
  8
0
  6
Continuous
 62
     7
370
    25
100
AcDbCircle
 10
161.4502263279
 20
129.6067604263
 30
0.0
 40
5.500000000000029
100
AcDbArc
 50
17.7189318734
 51
162.2810681266
  0
SPLINE
  5
1F2
330
1F
100
AcDbEntity
  8
0
  6
Continuous
 62
     7
370
    25
100
AcDbSpline
210
0.0
220
0.0
230
1.0
 70
     8
 71
     3
 72
    15
 73
    11
 74
     0
 42
0.00000001
 43
0.00000001
 40
0.0
 40
0.0
 40
0.0
 40
0.0
 40
0.0081667445812973
 40
0.3321939991490804
 40
0.475627960058556
 40
0.6866830973284891
 40
0.8457435502264751
 40
0.8967566214763124
 40
0.9909540928118028
 40
1.0
 40
1.0
 40
1.0
 40
1.0
 10
166.5492458415374
 20
130.8567604263437
 30
0.0
 10
166.5497333756802
 20
130.8581978892828
 30
0.0
 10
166.5695645232115
 20
130.9166687472348
 30
0.0
 10
166.5978453032217
 20
131.0010939249539
 30
0.0
 10
166.6356746017103
 20
131.1156729969764
 30
0.0
 10
166.6622584982779
 20
131.197043884173
 30
0.0
 10
166.6794283220329
 20
131.2500628761746
 30
0.0
 10
166.6872453182493
 20
131.2742648080188
 30
0.0
 10
166.6892410046852
 20
131.280454428685
 30
0.0
 10
166.689305968636
 20
131.2806558240976
 30
0.0
 10
166.6893116606027
 20
131.280673469822
 30
0.0
  0
ARC
  5
1F3
330
1F
100
AcDbEntity
  8
0
  6
Continuous
 62
     7
370
    25
100
AcDbCircle
 10
161.4502263279
 20
129.6067604263
 30
0.0
 40
5.250000000000009
100
AcDbArc
 50
13.774146998
 51
166.225853002
  0
SPLINE
  5
1F4
330
1F
100
AcDbEntity
  8
0
  6
Continuous
 62
     7
370
    25
100
AcDbSpline
210
0.0
220
0.0
230
1.0
 70
     8
 71
     3
 72
    15
 73
    11
 74
     0
 42
0.00000001
 43
0.00000001
 40
0.0
 40
0.0
 40
0.0
 40
0.0
 40
0.0089557228015919
 40
0.0999003359608209
 40
0.1531632460581751
 40
0.3125636920784904
 40
0.5249666935695061
 40
0.6689893599351777
 40
0.991915253381045
 40
1.0
 40
1.0
 40
1.0
 40
1.0
 10
166.9274519029962
 20
131.1067604263437
 30
0.0
 10
166.9274361474176
 20
131.1067496419806
 30
0.0
 10
166.927260395261
 20
131.1066293433151
 30
0.0
 10
166.9218313792415
 20
131.1029108923969
 30
0.0
 10
166.9002958955342
 20
131.0881998513307
 30
0.0
 10
166.8525904672694
 20
131.0557509898721
 30
0.0
 10
166.7801995222775
 20
131.0071669495287
 30
0.0
 10
166.6782804102598
 20
130.9397964772604
 30
0.0
 10
166.6029253188048
 20
130.8909829125265
 30
0.0
 10
166.5505256730815
 20
130.857576362332
 30
0.0
 10
166.5492458415374
 20
130.8567604263437
 30
0.0
  0
ARC
  5
1F5
330
1F
100
AcDbEntity
  8
0
  6
Continuous
 62
     7
370
    25
100
AcDbCircle
 10
166.927451903
 20
131.3567604263
 30
0.0
 40
0.25
100
AcDbArc
 50
197.7189318734
 51
270.0
  0
SPLINE
  5
1F6
330
1F
100
AcDbEntity
  8
0
  6
Continuous
 62
     7
370
    25
100
AcDbSpline
210
0.0
220
0.0
230
1.0
 70
     8
 71
     3
 72
    15
 73
    11
 74
     0
 42
0.00000001
 43
0.00000001
 40
0.0
 40
0.0
 40
0.0
 40
0.0
 40
0.0080847466189582
 40
0.3310106400648243
 40
0.4750333064304948
 40
0.6874363079215142
 40
0.8468367539418303
 40
0.9000996640391847
 40
0.9910442771984082
 40
1.0
 40
1.0
 40
1.0
 40
1.0
 10
156.3512068143518
 20
130.8567604263437
 30
0.0
 10
156.3499269828076
 20
130.857576362332
 30
0.0
 10
156.2975273370844
 20
130.8909829125265
 30
0.0
 10
156.2221722456293
 20
130.9397964772603
 30
0.0
 10
156.1202531336116
 20
131.0071669495287
 30
0.0
 10
156.0478621886197
 20
131.0557509898721
 30
0.0
 10
156.0001567603549
 20
131.0881998513307
 30
0.0
 10
155.9786212766476
 20
131.1029108923969
 30
0.0
 10
155.9731922606281
 20
131.1066293433151
 30
0.0
 10
155.9730165084715
 20
131.1067496419806
 30
0.0
 10
155.9730007528929
 20
131.1067604263437
 30
0.0
  0
ARC
  5
1F7
330
1F
100
AcDbEntity
  8
0
  6
Continuous
 62
     7
370
    25
100
AcDbCircle
 10
155.9730007529
 20
131.3567604263
 30
0.0
 40
0.25
100
AcDbArc
 50
270.0
 51
342.2810681266
  0
SPLINE
  5
1F8
330
1F
100
AcDbEntity
  8
0
  6
Continuous
 62
     7
370
    25
100
AcDbSpline
210
0.0
220
0.0
230
1.0
 70
     8
 71
     3
 72
    15
 73
    11
 74
     0
 42
0.00000001
 43
0.00000001
 40
0.0
 40
0.0
 40
0.0
 40
0.0
 40
0.0081667445812695
 40
0.3321939991490083
 40
0.4756279600585602
 40
0.6866830973284899
 40
0.8457435502264811
 40
0.8967566214763185
 40
0.9909540928118029
 40
1.0
 40
1.0
 40
1.0
 40
1.0
 10
156.3512068143518
 20
128.3567604263437
 30
0.0
 10
156.3507192802089
 20
128.3553229634047
 30
0.0
 10
156.3308881326768
 20
128.296852105453
 30
0.0
 10
156.3026073526675
 20
128.2124269277335
 30
0.0
 10
156.2647780541787
 20
128.0978478557111
 30
0.0
 10
156.2381941576112
 20
128.0164769685145
 30
0.0
 10
156.2210243338562
 20
127.9634579765128
 30
0.0
 10
156.2132073376398
 20
127.9392560446687
 30
0.0
 10
156.2112116512039
 20
127.9330664240025
 30
0.0
 10
156.2111466872531
 20
127.9328650285899
 30
0.0
 10
156.2111409952864
 20
127.9328473828655
 30
0.0
  0
ARC
  5
1F9
330
1F
100
AcDbEntity
  8
0
  6
Continuous
 62
     7
370
    25
100
AcDbCircle
 10
161.4502263279
 20
129.6067604263
 30
0.0
 40
5.250000000000009
100
AcDbArc
 50
193.774146998
 51
346.225853002
  0
SPLINE
  5
1FA
330
1F
100
AcDbEntity
  8
0
  6
Continuous
 62
     7
370
    25
100
AcDbSpline
210
0.0
220
0.0
230
1.0
 70
     8
 71
     3
 72
    15
 73
    11
 74
     0
 42
0.00000001
 43
0.00000001
 40
0.0
 40
0.0
 40
0.0
 40
0.0
 40
0.0090459071881971
 40
0.1032433785236874
 40
0.1542564497735246
 40
0.313316902671511
 40
0.5243720399414428
 40
0.6678060008509903
 40
0.9918332554187292
 40
1.0
 40
1.0
 40
1.0
 40
1.0
 10
166.6893116606027
 20
127.9328473828655
 30
0.0
 10
166.689305968636
 20
127.9328650285899
 30
0.0
 10
166.6892410046852
 20
127.9330664240025
 30
0.0
 10
166.6872453182493
 20
127.9392560446687
 30
0.0
 10
166.6794283220329
 20
127.9634579765128
 30
0.0
 10
166.6622584982779
 20
128.0164769685145
 30
0.0
 10
166.6356746017104
 20
128.0978478557111
 30
0.0
 10
166.5978453032216
 20
128.2124269277335
 30
0.0
 10
166.5695645232123
 20
128.296852105453
 30
0.0
 10
166.5497333756802
 20
128.3553229634047
 30
0.0
 10
166.5492458415374
 20
128.3567604263437
 30
0.0
  0
ARC
  5
1FB
330
1F
100
AcDbEntity
  8
0
  6
Continuous
 62
     7
370
    25
100
AcDbCircle
 10
161.4502263279
 20
129.6067604263
 30
0.0
 40
5.50000000000002
100
AcDbArc
 50
197.7189318734
 51
342.2810681266
  0
ARC
  5
1FC
330
1F
100
AcDbEntity
  8
0
  6
Continuous
 62
     7
370
    25
100
AcDbCircle
 10
166.927451903
 20
127.8567604263
 30
0.0
 40
0.25
100
AcDbArc
 50
90.0
 51
162.2810681266
  0
SPLINE
  5
1FD
330
1F
100
AcDbEntity
  8
0
  6
Continuous
 62
     7
370
    25
100
AcDbSpline
210
0.0
220
0.0
230
1.0
 70
     8
 71
     3
 72
    15
 73
    11
 74
     0
 42
0.00000001
 43
0.00000001
 40
0.0
 40
0.0
 40
0.0
 40
0.0
 40
0.0080847466189818
 40
0.3310106400647567
 40
0.4750333064304972
 40
0.6874363079215137
 40
0.8468367539418253
 40
0.9000996640391794
 40
0.9910442771984082
 40
1.0
 40
1.0
 40
1.0
 40
1.0
 10
166.5492458415374
 20
128.3567604263437
 30
0.0
 10
166.5505256730815
 20
128.3559444903555
 30
0.0
 10
166.6029253188053
 20
128.3225379401618
 30
0.0
 10
166.6782804102597
 20
128.273724375427
 30
0.0
 10
166.7801995222775
 20
128.2063539031588
 30
0.0
 10
166.8525904672694
 20
128.1577698628153
 30
0.0
 10
166.9002958955342
 20
128.1253210013568
 30
0.0
 10
166.9218313792415
 20
128.1106099602905
 30
0.0
 10
166.9272603952611
 20
128.1068915093724
 30
0.0
 10
166.9274361474176
 20
128.1067712107069
 30
0.0
 10
166.9274519029962
 20
128.1067604263437
 30
0.0
  0
ARC
  5
1FE
330
1F
100
AcDbEntity
  8
0
  6
Continuous
 62
     7
370
    25
100
AcDbCircle
 10
155.9730007529
 20
127.8567604263
 30
0.0
 40
0.25
100
AcDbArc
 50
17.7189318734
 51
90.0
  0
SPLINE
  5
1FF
330
1F
100
AcDbEntity
  8
0
  6
Continuous
 62
     7
370
    25
100
AcDbSpline
210
0.0
220
0.0
230
1.0
 70
     8
 71
     3
 72
    15
 73
    11
 74
     0
 42
0.00000001
 43
0.00000001
 40
0.0
 40
0.0
 40
0.0
 40
0.0
 40
0.0089557228015919
 40
0.0999003359608148
 40
0.153163246058169
 40
0.3125636920784848
 40
0.5249666935694999
 40
0.6689893599352451
 40
0.9919152533810159
 40
1.0
 40
1.0
 40
1.0
 40
1.0
 10
155.9730007528929
 20
128.1067604263437
 30
0.0
 10
155.9730165084715
 20
128.1067712107069
 30
0.0
 10
155.9731922606281
 20
128.1068915093724
 30
0.0
 10
155.9786212766476
 20
128.1106099602905
 30
0.0
 10
156.0001567603549
 20
128.1253210013568
 30
0.0
 10
156.0478621886197
 20
128.1577698628153
 30
0.0
 10
156.1202531336116
 20
128.2063539031588
 30
0.0
 10
156.2221722456294
 20
128.273724375427
 30
0.0
 10
156.2975273370839
 20
128.3225379401617
 30
0.0
 10
156.3499269828076
 20
128.3559444903555
 30
0.0
 10
156.3512068143518
 20
128.3567604263437
 30
0.0
  0
LINE
  5
200
330
1F
100
AcDbEntity
  8
0
  6
Continuous
 62
     7
370
    25
100
AcDbLine
 10
156.4502263279
 20
129.0067604263
 30
0.0
 11
166.4502263279
 21
129.0067604263
 31
0.0
  0
LINE
  5
201
330
1F
100
AcDbEntity
  8
0
  6
Continuous
 62
     7
370
    25
100
AcDbLine
 10
156.4502263279
 20
130.2067604263
 30
0.0
 11
156.4502263279
 21
129.0067604263
 31
0.0
  0
LINE
  5
202
330
1F
100
AcDbEntity
  8
0
  6
Continuous
 62
     7
370
    25
100
AcDbLine
 10
166.4502263279
 20
130.2067604263
 30
0.0
 11
156.4502263279
 21
130.2067604263
 31
0.0
  0
LINE
  5
203
330
1F
100
AcDbEntity
  8
0
  6
Continuous
 62
     7
370
    25
100
AcDbLine
 10
166.4502263279
 20
129.0067604263
 30
0.0
 11
166.4502263279
 21
130.2067604263
 31
0.0
  0
LINE
  5
204
330
1F
100
AcDbEntity
  8
0
  6
Continuous
 62
     7
370
    25
100
AcDbLine
 10
155.7002263279
 20
128.3567604263
 30
0.0
 11
156.3512068144
 21
128.3567604263
 31
0.0
  0
LINE
  5
205
330
1F
100
AcDbEntity
  8
0
  6
Continuous
 62
     7
370
    25
100
AcDbLine
 10
155.7002263279
 20
130.8567604263
 30
0.0
 11
155.7002263279
 21
128.3567604263
 31
0.0
  0
LINE
  5
206
330
1F
100
AcDbEntity
  8
0
  6
Continuous
 62
     7
370
    25
100
AcDbLine
 10
156.3512068144
 20
130.8567604263
 30
0.0
 11
155.7002263279
 21
130.8567604263
 31
0.0
  0
LINE
  5
207
330
1F
100
AcDbEntity
  8
0
  6
Continuous
 62
     7
370
    25
100
AcDbLine
 10
167.2002263279
 20
130.8567604263
 30
0.0
 11
166.5492458415
 21
130.8567604263
 31
0.0
  0
LINE
  5
208
330
1F
100
AcDbEntity
  8
0
  6
Continuous
 62
     7
370
    25
100
AcDbLine
 10
167.2002263279
 20
128.3567604263
 30
0.0
 11
167.2002263279
 21
130.8567604263
 31
0.0
  0
LINE
  5
209
330
1F
100
AcDbEntity
  8
0
  6
Continuous
 62
     7
370
    25
100
AcDbLine
 10
166.5492458415
 20
128.3567604263
 30
0.0
 11
167.2002263279
 21
128.3567604263
 31
0.0
  0
ARC
  5
20A
330
1F
100
AcDbEntity
  8
0
  6
Continuous
 62
     7
370
    25
100
AcDbCircle
 10
155.7002263279
 20
130.8567604263
 30
0.0
 40
0.25
100
AcDbArc
 50
90.0
 51
180.0
  0
LINE
  5
20B
330
1F
100
AcDbEntity
  8
0
  6
Continuous
 62
     7
370
    25
100
AcDbLine
 10
155.7002263279
 20
131.1067604263
 30
0.0
 11
155.7002263279
 21
130.8567604263
 31
0.0
  0
LINE
  5
20C
330
1F
100
AcDbEntity
  8
0
  6
Continuous
 62
     7
370
    25
100
AcDbLine
 10
155.7002263279
 20
130.8567604263
 30
0.0
 11
155.4502263279
 21
130.8567604263
 31
0.0
  0
LINE
  5
20D
330
1F
100
AcDbEntity
  8
0
  6
Continuous
 62
     7
370
    25
100
AcDbLine
 10
155.7002263279
 20
131.1067604263
 30
0.0
 11
155.9730007529
 21
131.1067604263
 31
0.0
  0
LINE
  5
20E
330
1F
100
AcDbEntity
  8
0
  6
Continuous
 62
     7
370
    25
100
AcDbLine
 10
166.927451903
 20
131.1067604263
 30
0.0
 11
167.2002263279
 21
131.1067604263
 31
0.0
  0
LINE
  5
20F
330
1F
100
AcDbEntity
  8
0
  6
Continuous
 62
     7
370
    25
100
AcDbLine
 10
167.2002263279
 20
130.8567604263
 30
0.0
 11
167.2002263279
 21
131.1067604263
 31
0.0
  0
LINE
  5
210
330
1F
100
AcDbEntity
  8
0
  6
Continuous
 62
     7
370
    25
100
AcDbLine
 10
167.4502263279
 20
130.8567604263
 30
0.0
 11
167.2002263279
 21
130.8567604263
 31
0.0
  0
ARC
  5
211
330
1F
100
AcDbEntity
  8
0
  6
Continuous
 62
     7
370
    25
100
AcDbCircle
 10
167.2002263279
 20
130.8567604263
 30
0.0
 40
0.25
100
AcDbArc
 50
0.0
 51
90.0
  0
LINE
  5
212
330
1F
100
AcDbEntity
  8
0
  6
Continuous
 62
     7
370
    25
100
AcDbLine
 10
155.4502263279
 20
128.3567604263
 30
0.0
 11
155.7002263279
 21
128.3567604263
 31
0.0
  0
LINE
  5
213
330
1F
100
AcDbEntity
  8
0
  6
Continuous
 62
     7
370
    25
100
AcDbLine
 10
155.4502263279
 20
128.3567604263
 30
0.0
 11
155.4502263279
 21
130.8567604263
 31
0.0
  0
LINE
  5
214
330
1F
100
AcDbEntity
  8
0
  6
Continuous
 62
     7
370
    25
100
AcDbLine
 10
167.4502263279
 20
130.8567604263
 30
0.0
 11
167.4502263279
 21
128.3567604263
 31
0.0
  0
LINE
  5
215
330
1F
100
AcDbEntity
  8
0
  6
Continuous
 62
     7
370
    25
100
AcDbLine
 10
167.2002263279
 20
128.3567604263
 30
0.0
 11
167.4502263279
 21
128.3567604263
 31
0.0
  0
LINE
  5
216
330
1F
100
AcDbEntity
  8
0
  6
Continuous
 62
     7
370
    25
100
AcDbLine
 10
167.2002263279
 20
128.1067604263
 30
0.0
 11
167.2002263279
 21
128.3567604263
 31
0.0
  0
LINE
  5
217
330
1F
100
AcDbEntity
  8
0
  6
Continuous
 62
     7
370
    25
100
AcDbLine
 10
167.2002263279
 20
128.1067604263
 30
0.0
 11
166.927451903
 21
128.1067604263
 31
0.0
  0
ARC
  5
218
330
1F
100
AcDbEntity
  8
0
  6
Continuous
 62
     7
370
    25
100
AcDbCircle
 10
167.2002263279
 20
128.3567604263
 30
0.0
 40
0.25
100
AcDbArc
 50
270.0
 51
0.0
  0
LINE
  5
219
330
1F
100
AcDbEntity
  8
0
  6
Continuous
 62
     7
370
    25
100
AcDbLine
 10
155.7002263279
 20
128.3567604263
 30
0.0
 11
155.7002263279
 21
128.1067604263
 31
0.0
  0
LINE
  5
21A
330
1F
100
AcDbEntity
  8
0
  6
Continuous
 62
     7
370
    25
100
AcDbLine
 10
155.9730007529
 20
128.1067604263
 30
0.0
 11
155.7002263279
 21
128.1067604263
 31
0.0
  0
ARC
  5
21B
330
1F
100
AcDbEntity
  8
0
  6
Continuous
 62
     7
370
    25
100
AcDbCircle
 10
155.7002263279
 20
128.3567604263
 30
0.0
 40
0.25
100
AcDbArc
 50
180.0
 51
270.0
  0
LINE
  5
21C
330
1F
100
AcDbEntity
  8
0
  6
Continuous
 62
     7
370
    25
100
AcDbLine
 10
141.4502263279
 20
132.8784596904
 30
0.0
 11
139.2747894664
 21
133.1067604263
 31
0.0
  0
LINE
  5
21D
330
1F
100
AcDbEntity
  8
0
  6
Continuous
 62
     7
370
    25
100
AcDbLine
 10
141.4502263279
 20
126.3350611623
 30
0.0
 11
141.4502263279
 21
132.8784596904
 31
0.0
  0
LINE
  5
21E
330
1F
100
AcDbEntity
  8
0
  6
Continuous
 62
     7
370
    25
100
AcDbLine
 10
139.2747894664
 20
126.1067604263
 30
0.0
 11
141.4502263279
 21
126.3350611623
 31
0.0
  0
LINE
  5
21F
330
1F
100
AcDbEntity
  8
0
  6
Continuous
 62
     7
370
    25
100
AcDbLine
 10
121.4502263279
 20
126.1067604263
 30
0.0
 11
139.2747894664
 21
126.1067604263
 31
0.0
  0
LINE
  5
220
330
1F
100
AcDbEntity
  8
0
  6
Continuous
 62
     7
370
    25
100
AcDbLine
 10
139.2747894664
 20
133.1067604263
 30
0.0
 11
121.4502263279
 21
133.1067604263
 31
0.0
  0
LINE
  5
221
330
1F
100
AcDbEntity
  8
0
  6
Continuous
 62
     7
370
    25
100
AcDbLine
 10
121.4502263279
 20
133.1067604263
 30
0.0
 11
121.4502263279
 21
126.1067604263
 31
0.0
  0
LINE
  5
222
330
1F
100
AcDbEntity
  8
0
  6
Continuous
 62
     7
370
    25
100
AcDbLine
 10
156.2264241536
 20
131.3277749072
 30
0.0
 11
156.1298598363
 21
131.1683755869
 31
0.0
  0
LINE
  5
223
330
1F
100
AcDbEntity
  8
0
  6
Continuous
 62
     7
370
    25
100
AcDbLine
 10
156.1075824557
 20
128.061542759
 30
0.0
 11
156.2264241536
 21
127.8857459455
 31
0.0
  0
LINE
  5
224
330
1F
100
AcDbEntity
  8
0
  6
Continuous
 62
     7
370
    25
100
AcDbLine
 10
148.0336566743
 20
132.1875630619
 30
0.0
 11
148.0336566743
 21
127.0259577908
 31
0.0
  0
LINE
  5
225
330
1F
100
AcDbEntity
  8
0
  6
Continuous
 62
     7
370
    25
100
AcDbLine
 10
156.2264241536
 20
127.8857459455
 30
0.0
 11
148.0336566743
 21
127.0259577908
 31
0.0
  0
LINE
  5
226
330
1F
100
AcDbEntity
  8
0
  6
Continuous
 62
     7
370
    25
100
AcDbLine
 10
148.0336566743
 20
132.1875630619
 30
0.0
 11
156.2264241536
 21
131.3277749072
 31
0.0
  0
LINE
  5
227
330
1F
100
AcDbEntity
  8
0
  6
Continuous
 62
     7
370
    25
100
AcDbLine
 10
148.0336566743
 20
127.0259577908
 30
0.0
 11
141.4502263279
 21
126.3350611623
 31
0.0
  0
LINE
  5
228
330
1F
100
AcDbEntity
  8
0
  6
Continuous
 62
     7
370
    25
100
AcDbLine
 10
141.4502263279
 20
132.8784596904
 30
0.0
 11
148.0336566743
 21
132.1875630619
 31
0.0
  0
ARC
  5
229
330
1F
100
AcDbEntity
  8
0
  6
Continuous
 62
     7
370
    25
100
AcDbCircle
 10
161.4502263279
 20
129.6067604263
 30
0.0
 40
7.450000000000673
100
AcDbArc
 50
233.0863788866
 51
126.9136211134
  0
ARC
  5
22A
330
1F
100
AcDbEntity
  8
0
  6
Continuous
 62
     7
370
    25
100
AcDbCircle
 10
161.4502263279
 20
129.6067604263
 30
0.0
 40
7.207531252870779
100
AcDbArc
 50
195.3041237151
 51
238.9797515565
  0
ARC
  5
22B
330
1F
100
AcDbEntity
  8
0
  6
Continuous
 62
     7
370
    25
100
AcDbCircle
 10
161.4502263279
 20
129.6067604263
 30
0.0
 40
7.207531252872461
100
AcDbArc
 50
121.0202484435
 51
164.6958762849
  0
ARC
  5
22C
330
1F
100
AcDbEntity
  8
0
  6
Continuous
 62
     7
370
    25
100
AcDbCircle
 10
139.2747894664
 20
198.1067604263
 30
0.0
 40
65.0
100
AcDbArc
 50
270.0
 51
286.5000949923
  0
ARC
  5
22D
330
1F
100
AcDbEntity
  8
0
  6
Continuous
 62
     7
370
    25
100
AcDbCircle
 10
139.2747894664
 20
61.1067604263
 30
0.0
 40
65.0
100
AcDbArc
 50
73.4999050077
 51
90.0
  0
LINE
  5
22E
330
1F
100
AcDbEntity
  8
0
  6
Continuous
 62
     7
370
    25
100
AcDbLine
 10
146.7502263279
 20
123.3565481364
 30
0.0
 11
146.7502263279
 21
121.6067604263
 31
0.0
  0
LINE
  5
22F
330
1F
100
AcDbEntity
  8
0
  6
Continuous
 62
     7
370
    25
100
AcDbLine
 10
146.7502263279
 20
137.6067604263
 30
0.0
 11
146.7502263279
 21
133.5380540452
 31
0.0
  0
LINE
  5
230
330
1F
100
AcDbEntity
  8
0
  6
Continuous
 62
     7
370
    25
100
AcDbLine
 10
146.7502263279
 20
125.6754668074
 30
0.0
 11
146.7502263279
 21
123.3565481364
 31
0.0
  0
LINE
  5
231
330
1F
100
AcDbEntity
  8
0
  6
Continuous
 62
     7
370
    25
100
AcDbLine
 10
146.5502263279
 20
123.5128034437
 30
0.0
 11
146.5502263279
 21
125.698308004
 31
0.0
  0
LINE
  5
232
330
1F
100
AcDbEntity
  8
0
  6
Continuous
 62
     7
370
    25
100
AcDbLine
 10
146.5502263279
 20
133.5152128487
 30
0.0
 11
146.5502263279
 21
137.4067604263
 31
0.0
  0
LINE
  5
233
330
1F
100
AcDbEntity
  8
0
  6
Continuous
 62
     7
370
    25
100
AcDbLine
 10
146.5502263279
 20
121.8067604263
 30
0.0
 11
146.5502263279
 21
123.5128034437
 31
0.0
  0
LINE
  5
234
330
1F
100
AcDbEntity
  8
0
  6
Continuous
 62
     7
370
    25
100
AcDbLine
 10
137.0502263279
 20
125.6925649798
 30
0.0
 11
137.0502263279
 21
124.5967604263
 31
0.0
  0
LINE
  5
235
330
1F
100
AcDbEntity
  8
0
  6
Continuous
 62
     7
370
    25
100
AcDbLine
 10
137.0502263279
 20
134.6167604263
 30
0.0
 11
137.0502263279
 21
133.1067604263
 31
0.0
  0
LINE
  5
236
330
1F
100
AcDbEntity
  8
0
  6
Continuous
 62
     7
370
    25
100
AcDbLine
 10
137.0502263279
 20
126.1067604263
 30
0.0
 11
137.0502263279
 21
125.6925649798
 31
0.0
  0
SPLINE
  5
237
330
1F
100
AcDbEntity
  8
0
  6
Continuous
 62
     7
370
    25
100
AcDbSpline
210
0.0
220
0.0
230
1.0
 70
    24
 71
     3
 72
    10
 73
     6
 74
     0
 42
0.00000001
 43
0.00000001
 40
0.0
 40
0.0
 40
0.0
 40
0.0
 40
0.3696206477394096
 40
0.7422868690073858
 40
1.0
 40
1.0
 40
1.0
 40
1.0
 10
172.6281673553869
 20
121.1067604263437
 30
0.0
 10
172.7693701133083
 20
121.1067604263437
 30
0.0
 10
173.0529391014416
 20
121.1067604263437
 30
0.0
 10
173.2720775895016
 20
121.1067604263437
 30
0.0
 10
173.2944685569845
 20
121.1067604263437
 30
0.0
 10
173.3036224836086
 20
121.1067604263437
 30
0.0
  0
SPLINE
  5
238
330
1F
100
AcDbEntity
  8
0
  6
Continuous
 62
     7
370
    25
100
AcDbSpline
210
0.0
220
0.0
230
1.0
 70
     8
 71
     3
 72
    10
 73
     6
 74
     0
 42
0.00000001
 43
0.00000001
 40
0.0
 40
0.0
 40
0.0
 40
0.0
 40
0.5
 40
0.5
 40
1.0
 40
1.0
 40
1.0
 40
1.0
 10
172.6281673553869
 20
121.3567604263437
 30
0.0
 10
172.6044919609625
 20
121.2823800489664
 30
0.0
 10
172.5914008510779
 20
121.2180794101806
 30
0.0
 10
172.5913145297897
 20
121.1298637253977
 30
0.0
 10
172.6044834637335
 20
121.1067604263437
 30
0.0
 10
172.6281673553869
 20
121.1067604263437
 30
0.0
  0
SPLINE
  5
239
330
1F
100
AcDbEntity
  8
0
  6
Continuous
 62
     7
370
    25
100
AcDbSpline
210
0.0
220
0.0
230
1.0
 70
     8
 71
     3
 72
    16
 73
    12
 74
     0
 42
0.00000001
 43
0.00000001
 40
0.0
 40
0.0
 40
0.0
 40
0.0
 40
0.2500000000000001
 40
0.2500000000000001
 40
0.5000000000000001
 40
0.5000000000000001
 40
0.6250000000000001
 40
0.6250000000000001
 40
0.7500000000000002
 40
0.7500000000000002
 40
1.0
 40
1.0
 40
1.0
 40
1.0
 10
172.6281673553869
 20
129.3567604263437
 30
0.0
 10
172.8361828034927
 20
128.7032436463029
 30
0.0
 10
173.0063891084657
 20
128.0450232372129
 30
0.0
 10
173.2413251400333
 20
126.7154606538472
 30
0.0
 10
173.3053972716969
 20
126.0440366717766
 30
0.0
 10
173.3061302206179
 20
125.0250355847699
 30
0.0
 10
173.2904707405349
 20
124.6836948024537
 30
0.0
 10
173.229195613898
 20
124.0080962994833
 30
0.0
 10
173.1836393413988
 20
123.6724371495186
 30
0.0
 10
173.0071533086426
 20
122.6711715130189
 30
0.0
 10
172.8364968551569
 20
122.0112638544158
 30
0.0
 10
172.6281673553869
 20
121.3567604263437
 30
0.0
  0
SPLINE
  5
23A
330
1F
100
AcDbEntity
  8
0
  6
Continuous
 62
     7
370
    25
100
AcDbSpline
210
0.0
220
0.0
230
1.0
 70
     8
 71
     3
 72
    10
 73
     6
 74
     0
 42
0.00000001
 43
0.00000001
 40
0.0
 40
0.0
 40
0.0
 40
0.0
 40
0.5
 40
0.5
 40
1.0
 40
1.0
 40
1.0
 40
1.0
 10
172.6281673553869
 20
129.8567604263437
 30
0.0
 10
172.6044919609625
 20
129.7823800489664
 30
0.0
 10
172.5914008510779
 20
129.6952869608508
 30
0.0
 10
172.5913145297897
 20
129.5191285719748
 30
0.0
 10
172.6044834637335
 20
129.431167499247
 30
0.0
 10
172.6281673553869
 20
129.3567604263437
 30
0.0
  0
SPLINE
  5
23B
330
1F
100
AcDbEntity
  8
0
  6
Continuous
 62
     7
370
    25
100
AcDbSpline
210
0.0
220
0.0
230
1.0
 70
     8
 71
     3
 72
    16
 73
    12
 74
     0
 42
0.00000001
 43
0.00000001
 40
0.0
 40
0.0
 40
0.0
 40
0.0
 40
0.2499999999999997
 40
0.2499999999999997
 40
0.4999999999999993
 40
0.4999999999999993
 40
0.6249999999999993
 40
0.6249999999999993
 40
0.7499999999999996
 40
0.7499999999999996
 40
1.0
 40
1.0
 40
1.0
 40
1.0
 10
172.6281673553869
 20
137.8567604263437
 30
0.0
 10
172.8361828034927
 20
137.2032436463029
 30
0.0
 10
173.0063891084657
 20
136.5450232372129
 30
0.0
 10
173.2413251400333
 20
135.2154606538471
 30
0.0
 10
173.3053972716969
 20
134.5440366717766
 30
0.0
 10
173.3061302206179
 20
133.5250355847699
 30
0.0
 10
173.2904707405349
 20
133.1836948024537
 30
0.0
 10
173.229195613898
 20
132.5080962994833
 30
0.0
 10
173.1836393413988
 20
132.1724371495187
 30
0.0
 10
173.0071533086426
 20
131.1711715130189
 30
0.0
 10
172.8364968551569
 20
130.5112638544158
 30
0.0
 10
172.6281673553869
 20
129.8567604263437
 30
0.0
  0
SPLINE
  5
23C
330
1F
100
AcDbEntity
  8
0
  6
Continuous
 62
     7
370
    25
100
AcDbSpline
210
0.0
220
0.0
230
1.0
 70
     8
 71
     3
 72
    10
 73
     6
 74
     0
 42
0.00000001
 43
0.00000001
 40
0.0
 40
0.0
 40
0.0
 40
0.0
 40
0.5
 40
0.5
 40
1.0
 40
1.0
 40
1.0
 40
1.0
 10
172.6281673553869
 20
138.1067604263437
 30
0.0
 10
172.6044919609625
 20
138.1067604263437
 30
0.0
 10
172.5914008510779
 20
138.0839679770139
 30
0.0
 10
172.5913145297897
 20
137.9960252729209
 30
0.0
 10
172.6044834637335
 20
137.931167499247
 30
0.0
 10
172.6281673553869
 20
137.8567604263437
 30
0.0
  0
SPLINE
  5
23D
330
1F
100
AcDbEntity
  8
0
  6
Continuous
 62
     7
370
    25
100
AcDbSpline
210
0.0
220
0.0
230
1.0
 70
    24
 71
     3
 72
    10
 73
     6
 74
     0
 42
0.00000001
 43
0.00000001
 40
0.0
 40
0.0
 40
0.0
 40
0.0
 40
0.2577093523435597
 40
0.6270769306220254
 40
1.0
 40
1.0
 40
1.0
 40
1.0
 10
173.3022807394824
 20
138.1067604263437
 30
0.0
 10
173.2936772379763
 20
138.1067604263437
 30
0.0
 10
173.2727425793464
 20
138.1067604263437
 30
0.0
 10
173.0537734193555
 20
138.1067604263437
 30
0.0
 10
172.7704883448948
 20
138.1067604263437
 30
0.0
 10
172.6281673553869
 20
138.1067604263437
 30
0.0
  0
LINE
  5
23E
330
1F
100
AcDbEntity
  8
0
  6
Continuous
 62
     7
370
    25
100
AcDbLine
 10
173.4502263279
 20
137.8567604263
 30
0.0
 11
173.4502263279
 21
121.3567604263
 31
0.0
  0
SPLINE
  5
23F
330
1F
100
AcDbEntity
  8
0
  6
Continuous
 62
     7
370
    25
100
AcDbSpline
210
0.0
220
0.0
230
1.0
 70
     8
 71
     3
 72
    11
 73
     7
 74
     0
 42
0.00000001
 43
0.00000001
 40
0.0
 40
0.0
 40
0.0
 40
0.0
 40
0.2728922242471614
 40
0.5457173061692318
 40
0.8242036621894181
 40
1.0
 40
1.0
 40
1.0
 40
1.0
 10
150.2722853005021
 20
121.3567604263437
 30
0.0
 10
150.1677318715288
 20
121.7047145175952
 30
0.0
 10
149.9586507378781
 20
122.4005370895727
 30
0.0
 10
149.7404796460539
 20
123.4701386596695
 30
0.0
 10
149.6132907954025
 20
124.4232913376886
 30
0.0
 10
149.6094250508798
 20
125.0218566822114
 30
0.0
 10
149.6079291019053
 20
125.2534868916304
 30
0.0
  0
SPLINE
  5
240
330
1F
100
AcDbEntity
  8
0
  6
Continuous
 62
     7
370
    25
100
AcDbSpline
210
0.0
220
0.0
230
1.0
 70
     8
 71
     3
 72
    10
 73
     6
 74
     0
 42
0.00000001
 43
0.00000001
 40
0.0
 40
0.0
 40
0.0
 40
0.0
 40
0.5
 40
0.5
 40
1.0
 40
1.0
 40
1.0
 40
1.0
 10
150.2722853005021
 20
121.1067604263437
 30
0.0
 10
150.2959606949265
 20
121.1067604263437
 30
0.0
 10
150.3090518048112
 20
121.1295528756735
 30
0.0
 10
150.3091381260994
 20
121.2174955797666
 30
0.0
 10
150.2959691921556
 20
121.2823533534405
 30
0.0
 10
150.2722853005021
 20
121.3567604263437
 30
0.0
  0
SPLINE
  5
241
330
1F
100
AcDbEntity
  8
0
  6
Continuous
 62
     7
370
    25
100
AcDbSpline
210
0.0
220
0.0
230
1.0
 70
    24
 71
     3
 72
    10
 73
     6
 74
     0
 42
0.00000001
 43
0.00000001
 40
0.0
 40
0.0
 40
0.0
 40
0.0
 40
0.249451590581644
 40
0.6228784731851938
 40
1.0
 40
1.0
 40
1.0
 40
1.0
 10
149.5996876750111
 20
121.1067604263437
 30
0.0
 10
149.6070736765588
 20
121.1067604263437
 30
0.0
 10
149.6255164588087
 20
121.1067604263437
 30
0.0
 10
149.8424884848939
 20
121.1067604263437
 30
0.0
 10
150.1285503066761
 20
121.1067604263437
 30
0.0
 10
150.2722853005021
 20
121.1067604263437
 30
0.0
  0
SPLINE
  5
242
330
1F
100
AcDbEntity
  8
0
  6
Continuous
 62
     7
370
    25
100
AcDbSpline
210
0.0
220
0.0
230
1.0
 70
    24
 71
     3
 72
    10
 73
     6
 74
     0
 42
0.00000001
 43
0.00000001
 40
0.0
 40
0.0
 40
0.0
 40
0.0
 40
0.3736912241656335
 40
0.7505444045138879
 40
1.0
 40
1.0
 40
1.0
 40
1.0
 10
150.2722853005021
 20
138.1067604263437
 30
0.0
 10
150.1297091437104
 20
138.1067604263437
 30
0.0
 10
149.8433504342274
 20
138.1067604263437
 30
0.0
 10
149.6261833889032
 20
138.1067604263437
 30
0.0
 10
149.6063048093934
 20
138.1067604263437
 30
0.0
 10
149.5983872724207
 20
138.1067604263437
 30
0.0
  0
SPLINE
  5
243
330
1F
100
AcDbEntity
  8
0
  6
Continuous
 62
     7
370
    25
100
AcDbSpline
210
0.0
220
0.0
230
1.0
 70
     8
 71
     3
 72
    10
 73
     6
 74
     0
 42
0.00000001
 43
0.00000001
 40
0.0
 40
0.0
 40
0.0
 40
0.0
 40
0.5
 40
0.5
 40
1.0
 40
1.0
 40
1.0
 40
1.0
 10
150.2722853005021
 20
137.8567604263437
 30
0.0
 10
150.2959606949265
 20
137.9311408037211
 30
0.0
 10
150.3090518048112
 20
137.9954414425068
 30
0.0
 10
150.3091381260995
 20
138.0836571272898
 30
0.0
 10
150.2959691921556
 20
138.1067604263437
 30
0.0
 10
150.2722853005021
 20
138.1067604263437
 30
0.0
  0
SPLINE
  5
244
330
1F
100
AcDbEntity
  8
0
  6
Continuous
 62
     7
370
    25
100
AcDbSpline
210
0.0
220
0.0
230
1.0
 70
     8
 71
     3
 72
    10
 73
     6
 74
     0
 42
0.00000001
 43
0.00000001
 40
0.0
 40
0.0
 40
0.0
 40
0.0
 40
0.0492153451902603
 40
0.5206854070913425
 40
1.0
 40
1.0
 40
1.0
 40
1.0
 10
149.6031169683489
 20
133.9648686841436
 30
0.0
 10
149.6013126991615
 20
134.0295699440341
 30
0.0
 10
149.5822240057319
 20
134.7140922554222
 30
0.0
 10
149.7592164069854
 20
136.0299578168744
 30
0.0
 10
150.10032422282
 20
137.2444860331649
 30
0.0
 10
150.2722853005021
 20
137.8567604263437
 30
0.0
  0
LINE
  5
245
330
1F
100
AcDbEntity
  8
0
  6
Continuous
 62
     7
370
    25
100
AcDbLine
 10
149.5502263279
 20
121.1835553456
 30
0.0
 11
149.5502263279
 21
125.2894325217
 31
0.0
  0
LINE
  5
246
330
1F
100
AcDbEntity
  8
0
  6
Continuous
 62
     7
370
    25
100
AcDbLine
 10
149.5502263279
 20
133.924088331
 30
0.0
 11
149.5502263279
 21
138.0299655071
 31
0.0
  0
SPLINE
  5
247
330
1F
100
AcDbEntity
  8
0
  6
Continuous
 62
     7
370
    25
100
AcDbSpline
210
0.0
220
0.0
230
1.0
 70
     8
 71
     3
 72
    10
 73
     6
 74
     0
 42
0.00000001
 43
0.00000001
 40
0.0
 40
0.0
 40
0.0
 40
0.0
 40
0.0462065521438292
 40
0.5191685984145291
 40
1.0
 40
1.0
 40
1.0
 40
1.0
 10
167.4518750687562
 20
133.9772879538443
 30
0.0
 10
167.4525220764817
 20
134.0378500557087
 30
0.0
 10
167.4597917401633
 20
134.7183150565182
 30
0.0
 10
167.606169373541
 20
136.0299285097572
 30
0.0
 10
167.9530675754466
 20
137.2444762105397
 30
0.0
 10
168.1279477332047
 20
137.8567604263437
 30
0.0
  0
LINE
  5
248
330
1F
100
AcDbEntity
  8
0
  6
Continuous
 62
     7
370
    25
100
AcDbLine
 10
172.6281673554
 20
137.8567604263
 30
0.0
 11
168.1279477332
 21
137.8567604263
 31
0.0
  0
LINE
  5
249
330
1F
100
AcDbEntity
  8
0
  6
Continuous
 62
     7
370
    25
100
AcDbLine
 10
154.7725049227
 20
137.8567604263
 30
0.0
 11
150.2722853005
 21
137.8567604263
 31
0.0
  0
SPLINE
  5
24A
330
1F
100
AcDbEntity
  8
0
  6
Continuous
 62
     7
370
    25
100
AcDbSpline
210
0.0
220
0.0
230
1.0
 70
     8
 71
     3
 72
     9
 73
     5
 74
     0
 42
0.00000001
 43
0.00000001
 40
0.0
 40
0.0
 40
0.0
 40
0.0
 40
0.7349271183512944
 40
1.0
 40
1.0
 40
1.0
 40
1.0
 10
154.7725049226844
 20
137.8567604263438
 30
0.0
 10
154.9643738075691
 20
137.2063482663358
 30
0.0
 10
155.2254457970136
 20
136.321346007245
 30
0.0
 10
155.3341614349591
 20
135.4143283164286
 30
0.0
 10
155.3629790023896
 20
135.1739025234175
 30
0.0
  0
SPLINE
  5
24B
330
1F
100
AcDbEntity
  8
0
  6
Continuous
 62
     7
370
    25
100
AcDbSpline
210
0.0
220
0.0
230
1.0
 70
     8
 71
     3
 72
     9
 73
     5
 74
     0
 42
0.00000001
 43
0.00000001
 40
0.0
 40
0.0
 40
0.0
 40
0.0
 40
0.3107600758301498
 40
1.0
 40
1.0
 40
1.0
 40
1.0
 10
155.3368863322974
 20
124.0516363011167
 30
0.0
 10
155.3123140347676
 20
123.7678683515105
 30
0.0
 10
155.2332424311706
 20
122.85472676198
 30
0.0
 10
154.9604940181749
 20
121.9679573254996
 30
0.0
 10
154.7725049226844
 20
121.3567604263437
 30
0.0
  0
LINE
  5
24C
330
1F
100
AcDbEntity
  8
0
  6
Continuous
 62
     7
370
    25
100
AcDbLine
 10
150.2722853005
 20
121.3567604263
 30
0.0
 11
154.7725049227
 21
121.3567604263
 31
0.0
  0
LINE
  5
24D
330
1F
100
AcDbEntity
  8
0
  6
Continuous
 62
     7
370
    25
100
AcDbLine
 10
168.1279477332
 20
121.3567604263
 30
0.0
 11
172.6281673554
 21
121.3567604263
 31
0.0
  0
SPLINE
  5
24E
330
1F
100
AcDbEntity
  8
0
  6
Continuous
 62
     7
370
    25
100
AcDbSpline
210
0.0
220
0.0
230
1.0
 70
     8
 71
     3
 72
    10
 73
     6
 74
     0
 42
0.00000001
 43
0.00000001
 40
0.0
 40
0.0
 40
0.0
 40
0.0
 40
0.5071780628999478
 40
0.7652704560580089
 40
1.0
 40
1.0
 40
1.0
 40
1.0
 10
168.1279477332047
 20
121.3567604263437
 30
0.0
 10
167.9429669153278
 20
122.0077591155656
 30
0.0
 10
167.6638531972596
 20
122.9900375306561
 30
0.0
 10
167.4824684927615
 20
124.3037490401496
 30
0.0
 10
167.4635263289665
 20
124.9544878283385
 30
0.0
 10
167.4545042357231
 20
125.2644326734802
 30
0.0
  0
LINE
  5
24F
330
1F
100
AcDbEntity
  8
0
  6
Continuous
 62
     7
370
    25
100
AcDbLine
 10
167.4502263279
 20
125.190596933
 30
0.0
 11
167.4502263279
 21
122.1067604263
 31
0.0
  0
LINE
  5
250
330
1F
100
AcDbEntity
  8
0
  6
Continuous
 62
     7
370
    25
100
AcDbLine
 10
167.4502263279
 20
122.1067604263
 30
0.0
 11
155.4502263279
 21
122.1067604263
 31
0.0
  0
LINE
  5
251
330
1F
100
AcDbEntity
  8
0
  6
Continuous
 62
     7
370
    25
100
AcDbLine
 10
155.4502263279
 20
124.0619448224
 30
0.0
 11
155.4502263279
 21
122.1067604263
 31
0.0
  0
LINE
  5
252
330
1F
100
AcDbEntity
  8
0
  6
Continuous
 62
     7
370
    25
100
AcDbLine
 10
155.4502263279
 20
137.1067604263
 30
0.0
 11
155.4502263279
 21
135.1515760303
 31
0.0
  0
LINE
  5
253
330
1F
100
AcDbEntity
  8
0
  6
Continuous
 62
     7
370
    25
100
AcDbLine
 10
155.4502263279
 20
137.1067604263
 30
0.0
 11
167.4502263279
 21
137.1067604263
 31
0.0
  0
LINE
  5
254
330
1F
100
AcDbEntity
  8
0
  6
Continuous
 62
     7
370
    25
100
AcDbLine
 10
167.4502263279
 20
137.1067604263
 30
0.0
 11
167.4502263279
 21
134.0229239197
 31
0.0
  0
SPLINE
  5
255
330
1F
100
AcDbEntity
  8
0
  6
Continuous
 62
     7
370
    25
100
AcDbSpline
210
0.0
220
0.0
230
1.0
 70
     8
 71
     3
 72
     8
 73
     4
 74
     0
 42
0.00000001
 43
0.00000001
 40
0.0
 40
0.0
 40
0.0
 40
0.0
 40
1.0
 40
1.0
 40
1.0
 40
1.0
 10
154.9339902509654
 20
138.1067604263437
 30
0.0
 10
155.1076933271852
 20
137.7742490042082
 30
0.0
 10
155.2799955462478
 20
137.4409219043094
 30
0.0
 10
155.4502263279446
 20
137.1067604263437
 30
0.0
  0
SPLINE
  5
256
330
1F
100
AcDbEntity
  8
0
  6
Continuous
 62
     7
370
    25
100
AcDbSpline
210
0.0
220
0.0
230
1.0
 70
     8
 71
     3
 72
    10
 73
     6
 74
     0
 42
0.00000001
 43
0.00000001
 40
0.0
 40
0.0
 40
0.0
 40
0.0
 40
0.5
 40
0.5
 40
1.0
 40
1.0
 40
1.0
 40
1.0
 10
154.77250492269
 20
138.1067604263437
 30
0.0
 10
154.7488295282657
 20
138.1067604263437
 30
0.0
 10
154.7357384183754
 20
138.0839679770143
 30
0.0
 10
154.735652097087
 20
137.9960252729212
 30
0.0
 10
154.7488210310308
 20
137.9311674992472
 30
0.0
 10
154.7725049226844
 20
137.8567604263438
 30
0.0
  0
SPLINE
  5
257
330
1F
100
AcDbEntity
  8
0
  6
Continuous
 62
     7
370
    25
100
AcDbSpline
210
0.0
220
0.0
230
1.0
 70
    24
 71
     3
 72
     8
 73
     4
 74
     0
 42
0.00000001
 43
0.00000001
 40
0.0
 40
0.0
 40
0.0
 40
0.0
 40
1.0
 40
1.0
 40
1.0
 40
1.0
 10
154.9339902509654
 20
138.1067604263437
 30
0.0
 10
154.883091534043
 20
138.1067604263437
 30
0.0
 10
154.8291573977924
 20
138.1067604263437
 30
0.0
 10
154.7725049226847
 20
138.1067604263437
 30
0.0
  0
SPLINE
  5
258
330
1F
100
AcDbEntity
  8
0
  6
Continuous
 62
     7
370
    25
100
AcDbSpline
210
0.0
220
0.0
230
1.0
 70
     8
 71
     3
 72
     8
 73
     4
 74
     0
 42
0.00000001
 43
0.00000001
 40
0.0
 40
0.0
 40
0.0
 40
0.0
 40
1.0
 40
1.0
 40
1.0
 40
1.0
 10
167.4502263279445
 20
137.1067604263437
 30
0.0
 10
167.6205039352883
 20
137.4410138226291
 30
0.0
 10
167.792775683914
 20
137.774280312198
 30
0.0
 10
167.9664624049236
 20
138.1067604263435
 30
0.0
  0
SPLINE
  5
259
330
1F
100
AcDbEntity
  8
0
  6
Continuous
 62
     7
370
    25
100
AcDbSpline
210
0.0
220
0.0
230
1.0
 70
    24
 71
     3
 72
     8
 73
     4
 74
     0
 42
0.00000001
 43
0.00000001
 40
0.0
 40
0.0
 40
0.0
 40
0.0
 40
1.0
 40
1.0
 40
1.0
 40
1.0
 10
167.9664624049232
 20
138.1067604263437
 30
0.0
 10
168.0173586381784
 20
138.1067604263437
 30
0.0
 10
168.0712925931423
 20
138.1067604263437
 30
0.0
 10
168.1279477332047
 20
138.1067604263437
 30
0.0
  0
SPLINE
  5
25A
330
1F
100
AcDbEntity
  8
0
  6
Continuous
 62
     7
370
    25
100
AcDbSpline
210
0.0
220
0.0
230
1.0
 70
     8
 71
     3
 72
    10
 73
     6
 74
     0
 42
0.00000001
 43
0.00000001
 40
0.0
 40
0.0
 40
0.0
 40
0.0
 40
0.5
 40
0.5
 40
1.0
 40
1.0
 40
1.0
 40
1.0
 10
168.1279477332047
 20
137.8567604263437
 30
0.0
 10
168.1516231276291
 20
137.9311408037211
 30
0.0
 10
168.1647142375138
 20
137.9954414425068
 30
0.0
 10
168.1648005588021
 20
138.0836571272898
 30
0.0
 10
168.1516316248582
 20
138.1067604263437
 30
0.0
 10
168.1279477332047
 20
138.1067604263437
 30
0.0
  0
SPLINE
  5
25B
330
1F
100
AcDbEntity
  8
0
  6
Continuous
 62
     7
370
    25
100
AcDbSpline
210
0.0
220
0.0
230
1.0
 70
     8
 71
     3
 72
     8
 73
     4
 74
     0
 42
0.00000001
 43
0.00000001
 40
0.0
 40
0.0
 40
0.0
 40
0.0
 40
1.0
 40
1.0
 40
1.0
 40
1.0
 10
167.9664624049237
 20
121.1067604263437
 30
0.0
 10
167.792759328704
 20
121.4392718484792
 30
0.0
 10
167.6204571096413
 20
121.7725989483781
 30
0.0
 10
167.4502263279445
 20
122.1067604263437
 30
0.0
  0
SPLINE
  5
25C
330
1F
100
AcDbEntity
  8
0
  6
Continuous
 62
     7
370
    25
100
AcDbSpline
210
0.0
220
0.0
230
1.0
 70
     8
 71
     3
 72
    10
 73
     6
 74
     0
 42
0.00000001
 43
0.00000001
 40
0.0
 40
0.0
 40
0.0
 40
0.0
 40
0.5
 40
0.5
 40
1.0
 40
1.0
 40
1.0
 40
1.0
 10
168.1279477332048
 20
121.1067604263437
 30
0.0
 10
168.1516231276292
 20
121.1067604263437
 30
0.0
 10
168.1647142375138
 20
121.1295528756735
 30
0.0
 10
168.1648005588021
 20
121.2174955797666
 30
0.0
 10
168.1516316248582
 20
121.2823533534404
 30
0.0
 10
168.1279477332048
 20
121.3567604263437
 30
0.0
  0
SPLINE
  5
25D
330
1F
100
AcDbEntity
  8
0
  6
Continuous
 62
     7
370
    25
100
AcDbSpline
210
0.0
220
0.0
230
1.0
 70
    24
 71
     3
 72
     8
 73
     4
 74
     0
 42
0.00000001
 43
0.00000001
 40
0.0
 40
0.0
 40
0.0
 40
0.0
 40
1.0
 40
1.0
 40
1.0
 40
1.0
 10
167.9664624049237
 20
121.1067604263437
 30
0.0
 10
168.0173586381788
 20
121.1067604263437
 30
0.0
 10
168.0712925931425
 20
121.1067604263437
 30
0.0
 10
168.1279477332047
 20
121.1067604263437
 30
0.0
  0
SPLINE
  5
25E
330
1F
100
AcDbEntity
  8
0
  6
Continuous
 62
     7
370
    25
100
AcDbSpline
210
0.0
220
0.0
230
1.0
 70
     8
 71
     3
 72
     8
 73
     4
 74
     0
 42
0.00000001
 43
0.00000001
 40
0.0
 40
0.0
 40
0.0
 40
0.0
 40
1.0
 40
1.0
 40
1.0
 40
1.0
 10
155.4502263279446
 20
122.1067604263437
 30
0.0
 10
155.2799487206008
 20
121.7725070300583
 30
0.0
 10
155.1076769719751
 20
121.4392405404893
 30
0.0
 10
154.9339902509654
 20
121.1067604263437
 30
0.0
  0
SPLINE
  5
25F
330
1F
100
AcDbEntity
  8
0
  6
Continuous
 62
     7
370
    25
100
AcDbSpline
210
0.0
220
0.0
230
1.0
 70
    24
 71
     3
 72
     8
 73
     4
 74
     0
 42
0.00000001
 43
0.00000001
 40
0.0
 40
0.0
 40
0.0
 40
0.0
 40
1.0
 40
1.0
 40
1.0
 40
1.0
 10
154.9339902509654
 20
121.1067604263437
 30
0.0
 10
154.8830915340429
 20
121.1067604263437
 30
0.0
 10
154.8291573977921
 20
121.1067604263437
 30
0.0
 10
154.7725049226844
 20
121.1067604263437
 30
0.0
  0
SPLINE
  5
260
330
1F
100
AcDbEntity
  8
0
  6
Continuous
 62
     7
370
    25
100
AcDbSpline
210
0.0
220
0.0
230
1.0
 70
     8
 71
     3
 72
    10
 73
     6
 74
     0
 42
0.00000001
 43
0.00000001
 40
0.0
 40
0.0
 40
0.0
 40
0.0
 40
0.5
 40
0.5
 40
1.0
 40
1.0
 40
1.0
 40
1.0
 10
154.7725049226844
 20
121.3567604263437
 30
0.0
 10
154.74882952826
 20
121.2823800489664
 30
0.0
 10
154.7357384183753
 20
121.2180794101806
 30
0.0
 10
154.7356520970871
 20
121.1298637253977
 30
0.0
 10
154.7488210310309
 20
121.1067604263437
 30
0.0
 10
154.7725049226844
 20
121.1067604263437
 30
0.0
  0
LINE
  5
261
330
1F
100
AcDbEntity
  8
0
  6
Continuous
 62
     7
370
    25
100
AcDbLine
 10
168.1279477332
 20
138.1067604263
 30
0.0
 11
172.6281673554
 21
138.1067604263
 31
0.0
  0
LINE
  5
262
330
1F
100
AcDbEntity
  8
0
  6
Continuous
 62
     7
370
    25
100
AcDbLine
 10
150.2722853005
 20
138.1067604263
 30
0.0
 11
154.7725049227
 21
138.1067604263
 31
0.0
  0
LINE
  5
263
330
1F
100
AcDbEntity
  8
0
  6
Continuous
 62
     7
370
    25
100
AcDbLine
 10
172.6281673554
 20
121.1067604263
 30
0.0
 11
168.1279477332
 21
121.1067604263
 31
0.0
  0
LINE
  5
264
330
1F
100
AcDbEntity
  8
0
  6
Continuous
 62
     7
370
    25
100
AcDbLine
 10
154.7725049227
 20
121.1067604263
 30
0.0
 11
150.2722853005
 21
121.1067604263
 31
0.0
  0
LINE
  5
265
330
1F
100
AcDbEntity
  8
0
  6
Continuous
 62
     7
370
    25
100
AcDbLine
 10
167.9664624049
 20
138.1067604263
 30
0.0
 11
154.933990251
 21
138.1067604263
 31
0.0
  0
LINE
  5
266
330
1F
100
AcDbEntity
  8
0
  6
Continuous
 62
     7
370
    25
100
AcDbLine
 10
167.9664624049
 20
121.1067604263
 30
0.0
 11
154.933990251
 21
121.1067604263
 31
0.0
  0
LINE
  5
267
330
1F
100
AcDbEntity
  8
0
  6
Continuous
 62
     7
370
    25
100
AcDbLine
 10
138.9951615499
 20
125.4382044109
 30
0.0
 11
138.9951615499
 21
124.2711899565
 31
0.0
  0
LINE
  5
268
330
1F
100
AcDbEntity
  8
0
  6
Continuous
 62
     7
370
    25
100
AcDbLine
 10
138.9951615499
 20
134.9423308961
 30
0.0
 11
138.9951615499
 21
133.1067604263
 31
0.0
  0
LINE
  5
269
330
1F
100
AcDbEntity
  8
0
  6
Continuous
 62
     7
370
    25
100
AcDbLine
 10
138.9951615499
 20
126.1067604263
 30
0.0
 11
138.9951615499
 21
125.4382044109
 31
0.0
  0
LINE
  5
26A
330
1F
100
AcDbEntity
  8
0
  6
Continuous
 62
     7
370
    25
100
AcDbLine
 10
138.0602263279
 20
124.9191012089
 30
0.0
 11
138.0602263279
 21
123.6067604263
 31
0.0
  0
LINE
  5
26B
330
1F
100
AcDbEntity
  8
0
  6
Continuous
 62
     7
370
    25
100
AcDbLine
 10
138.0602263279
 20
135.6067604263
 30
0.0
 11
138.0602263279
 21
133.1067604263
 31
0.0
  0
LINE
  5
26C
330
1F
100
AcDbEntity
  8
0
  6
Continuous
 62
     7
370
    25
100
AcDbLine
 10
138.0602263279
 20
126.1067604263
 30
0.0
 11
138.0602263279
 21
124.9191012089
 31
0.0
  0
LINE
  5
26D
330
1F
100
AcDbEntity
  8
0
  6
Continuous
 62
     7
370
    25
100
AcDbLine
 10
138.0402263279
 20
124.9191012089
 30
0.0
 11
138.0402263279
 21
123.6067604263
 31
0.0
  0
LINE
  5
26E
330
1F
100
AcDbEntity
  8
0
  6
Continuous
 62
     7
370
    25
100
AcDbLine
 10
138.0402263279
 20
135.6067604263
 30
0.0
 11
138.0402263279
 21
133.1067604263
 31
0.0
  0
LINE
  5
26F
330
1F
100
AcDbEntity
  8
0
  6
Continuous
 62
     7
370
    25
100
AcDbLine
 10
138.0402263279
 20
126.1067604263
 30
0.0
 11
138.0402263279
 21
124.9191012089
 31
0.0
  0
LINE
  5
270
330
1F
100
AcDbEntity
  8
0
  6
Continuous
 62
     7
370
    25
100
AcDbLine
 10
139.4673510559
 20
125.7003777452
 30
0.0
 11
139.4673510559
 21
124.6067604263
 31
0.0
  0
LINE
  5
271
330
1F
100
AcDbEntity
  8
0
  6
Continuous
 62
     7
370
    25
100
AcDbLine
 10
139.4673510559
 20
134.6067604263
 30
0.0
 11
139.4673510559
 21
133.1070456575
 31
0.0
  0
LINE
  5
272
330
1F
100
AcDbEntity
  8
0
  6
Continuous
 62
     7
370
    25
100
AcDbLine
 10
139.4673510559
 20
126.1064751952
 30
0.0
 11
139.4673510559
 21
125.7003777452
 31
0.0
  0
LINE
  5
273
330
1F
100
AcDbEntity
  8
0
  6
Continuous
 62
     7
370
    25
100
AcDbLine
 10
172.6281673554
 20
129.3567604263
 30
0.0
 11
168.8960305155
 21
129.3567604263
 31
0.0
  0
LINE
  5
274
330
1F
100
AcDbEntity
  8
0
  6
Continuous
 62
     7
370
    25
100
AcDbLine
 10
168.8960305155
 20
129.8567604263
 30
0.0
 11
172.6281673554
 21
129.8567604263
 31
0.0
  0
INSERT
  5
280
330
1F
100
AcDbEntity
  8
0
  6
Continuous
 62
     7
370
    18
100
AcDbBlockReference
  2
SW_CENTERMARKSYMBOL_1
 10
161.4502263279
 20
129.6067604263
 30
0.0
  0
ENDSEC
  0
SECTION
  2
OBJECTS
  0
DICTIONARY
  5
C
330
0
100
AcDbDictionary
281
     1
  3
ACAD_GROUP
350
D
  3
ACAD_LAYOUT
350
1A
  3
ACAD_MLINESTYLE
350
17
  3
ACAD_PLOTSETTINGS
350
19
  3
ACAD_PLOTSTYLENAME
350
E
  3
ACAD_SCALELIST
350
47
  3
DWGPROPS
350
281
  0
DICTIONARY
  5
D
102
{ACAD_REACTORS
330
C
102
}
330
C
100
AcDbDictionary
281
     1
  0
DICTIONARY
  5
1A
102
{ACAD_REACTORS
330
C
102
}
330
C
100
AcDbDictionary
281
     1
  3
Layout1
350
1E
  3
Layout2
350
26
  3
Model
350
22
  0
DICTIONARY
  5
17
102
{ACAD_REACTORS
330
C
102
}
330
C
100
AcDbDictionary
281
     1
  3
Standard
350
18
  0
DICTIONARY
  5
19
102
{ACAD_REACTORS
330
C
102
}
330
C
100
AcDbDictionary
281
     1
  0
ACDBDICTIONARYWDFLT
  5
E
102
{ACAD_REACTORS
330
C
102
}
330
C
100
AcDbDictionary
281
     1
  3
Normal
350
F
100
AcDbDictionaryWithDefault
340
F
  0
DICTIONARY
  5
47
102
{ACAD_REACTORS
330
C
102
}
330
C
100
AcDbDictionary
281
     1
  3
A0
350
48
  3
A1
350
49
  3
A2
350
4A
  3
A3
350
4B
  3
A4
350
4C
  3
A5
350
4D
  3
A6
350
4E
  3
A7
350
4F
  3
A8
350
50
  3
A9
350
51
  3
B0
350
52
  3
B1
350
53
  3
B2
350
54
  3
B3
350
55
  3
B4
350
56
  3
B5
350
57
  3
B6
350
58
  0
XRECORD
  5
281
102
{ACAD_REACTORS
330
C
102
}
330
C
100
AcDbXrecord
280
     1
  1
DWGPROPS COOKIE
  2

  3

  4

  6

  7

  8
user28
  9

300
=
301
=
302
=
303
=
304
=
305
=
306
=
307
=
308
=
309
=
 40
0.0
 41
2460195.014763195
 42
2460195.014764144
  1

 90
        0
  0
LAYOUT
  5
1E
102
{ACAD_REACTORS
330
1A
102
}
330
1A
100
AcDbPlotSettings
  1

  2
none_device
  4

  6

 40
0.0
 41
0.0
 42
0.0
 43
0.0
 44
0.0
 45
0.0
 46
0.0
 47
0.0
 48
0.0
 49
0.0
140
0.0
141
0.0
142
1.0
143
1.0
 70
   688
 72
     1
 73
     0
 74
     5
  7

 75
    16
147
1.0
148
0.0
149
0.0
100
AcDbLayout
  1
Layout1
 70
     1
 71
     1
 10
0.0
 20
0.0
 11
420.0
 21
297.0
 12
0.0
 22
0.0
 32
0.0
 14
1.0000000000E+20
 24
1.0000000000E+20
 34
1.0000000000E+20
 15
-1.0000000000E+20
 25
-1.0000000000E+20
 35
-1.0000000000E+20
146
0.0
 13
0.0
 23
0.0
 33
0.0
 16
1.0
 26
0.0
 36
0.0
 17
0.0
 27
1.0
 37
0.0
 76
     0
330
1B
  0
LAYOUT
  5
26
102
{ACAD_REACTORS
330
1A
102
}
330
1A
100
AcDbPlotSettings
  1

  2
none_device
  4

  6

 40
0.0
 41
0.0
 42
0.0
 43
0.0
 44
0.0
 45
0.0
 46
0.0
 47
0.0
 48
0.0
 49
0.0
140
0.0
141
0.0
142
1.0
143
1.0
 70
   688
 72
     1
 73
     0
 74
     5
  7

 75
    16
147
1.0
148
0.0
149
0.0
100
AcDbLayout
  1
Layout2
 70
     1
 71
     2
 10
0.0
 20
0.0
 11
0.0
 21
0.0
 12
0.0
 22
0.0
 32
0.0
 14
0.0
 24
0.0
 34
0.0
 15
0.0
 25
0.0
 35
0.0
146
0.0
 13
0.0
 23
0.0
 33
0.0
 16
1.0
 26
0.0
 36
0.0
 17
0.0
 27
1.0
 37
0.0
 76
     0
330
23
  0
LAYOUT
  5
22
102
{ACAD_REACTORS
330
1A
102
}
330
1A
100
AcDbPlotSettings
  1

  2
none_device
  4
Letter_(8.50_x_11.00_Inches)
  6

 40
6.35
 41
6.35
 42
6.35000508
 43
6.35000508
 44
215.9
 45
279.4
 46
0.0
 47
0.0
 48
0.0
 49
0.0
140
0.0
141
0.0
142
1.0
143
1.0
 70
  1712
 72
     1
 73
     0
 74
     0
  7

 75
     0
147
1.0
148
0.0
149
0.0
100
AcDbLayout
  1
Model
 70
     1
 71
     0
 10
0.0
 20
0.0
 11
431.8
 21
279.4
 12
0.0
 22
0.0
 32
0.0
 14
0.0
 24
0.0
 34
0.0
 15
431.8
 25
279.4
 35
0.0
146
0.0
 13
0.0
 23
0.0
 33
0.0
 16
1.0
 26
0.0
 36
0.0
 17
0.0
 27
1.0
 37
0.0
 76
     0
330
1F
331
29
  0
MLINESTYLE
  5
18
102
{ACAD_REACTORS
330
17
102
}
330
17
100
AcDbMlineStyle
  2
Standard
 70
     0
  3

 62
   256
 51
90.0
 52
90.0
 71
     2
 49
0.5
 62
   256
  6
BYLAYER
 49
-0.5
 62
   256
  6
BYLAYER
  0
ACDBPLACEHOLDER
  5
F
102
{ACAD_REACTORS
330
E
102
}
330
E
  0
SCALE
  5
48
102
{ACAD_REACTORS
330
47
102
}
330
47
100
AcDbScale
 70
     0
300
1:1
140
1.0
141
1.0
290
     1
  0
SCALE
  5
49
102
{ACAD_REACTORS
330
47
102
}
330
47
100
AcDbScale
 70
     0
300
1:2
140
1.0
141
2.0
290
     0
  0
SCALE
  5
4A
102
{ACAD_REACTORS
330
47
102
}
330
47
100
AcDbScale
 70
     0
300
1:4
140
1.0
141
4.0
290
     0
  0
SCALE
  5
4B
102
{ACAD_REACTORS
330
47
102
}
330
47
100
AcDbScale
 70
     0
300
1:5
140
1.0
141
5.0
290
     0
  0
SCALE
  5
4C
102
{ACAD_REACTORS
330
47
102
}
330
47
100
AcDbScale
 70
     0
300
1:8
140
1.0
141
8.0
290
     0
  0
SCALE
  5
4D
102
{ACAD_REACTORS
330
47
102
}
330
47
100
AcDbScale
 70
     0
300
1:10
140
1.0
141
10.0
290
     0
  0
SCALE
  5
4E
102
{ACAD_REACTORS
330
47
102
}
330
47
100
AcDbScale
 70
     0
300
1:16
140
1.0
141
16.0
290
     0
  0
SCALE
  5
4F
102
{ACAD_REACTORS
330
47
102
}
330
47
100
AcDbScale
 70
     0
300
1:20
140
1.0
141
20.0
290
     0
  0
SCALE
  5
50
102
{ACAD_REACTORS
330
47
102
}
330
47
100
AcDbScale
 70
     0
300
1:30
140
1.0
141
30.0
290
     0
  0
SCALE
  5
51
102
{ACAD_REACTORS
330
47
102
}
330
47
100
AcDbScale
 70
     0
300
1:40
140
1.0
141
40.0
290
     0
  0
SCALE
  5
52
102
{ACAD_REACTORS
330
47
102
}
330
47
100
AcDbScale
 70
     0
300
1:50
140
1.0
141
50.0
290
     0
  0
SCALE
  5
53
102
{ACAD_REACTORS
330
47
102
}
330
47
100
AcDbScale
 70
     0
300
1:100
140
1.0
141
100.0
290
     0
  0
SCALE
  5
54
102
{ACAD_REACTORS
330
47
102
}
330
47
100
AcDbScale
 70
     0
300
2:1
140
2.0
141
1.0
290
     0
  0
SCALE
  5
55
102
{ACAD_REACTORS
330
47
102
}
330
47
100
AcDbScale
 70
     0
300
4:1
140
4.0
141
1.0
290
     0
  0
SCALE
  5
56
102
{ACAD_REACTORS
330
47
102
}
330
47
100
AcDbScale
 70
     0
300
8:1
140
8.0
141
1.0
290
     0
  0
SCALE
  5
57
102
{ACAD_REACTORS
330
47
102
}
330
47
100
AcDbScale
 70
     0
300
10:1
140
10.0
141
1.0
290
     0
  0
SCALE
  5
58
102
{ACAD_REACTORS
330
47
102
}
330
47
100
AcDbScale
 70
     0
300
100:1
140
100.0
141
1.0
290
     0
  0
ENDSEC
  0
EOF
