  0
SECTION
  2
HEADER
  9
$ACADVER
  1
AC1015
  9
$ACADMAINTVER
 70
     6
  9
$DWGCODEPAGE
  3
DOS932
  9
$INSBASE
 10
0.0
 20
0.0
 30
0.0
  9
$EXTMIN
 10
0.0
 20
0.0
 30
0.0
  9
$EXTMAX
 10
431.8
 20
279.4
 30
0.0
  9
$LIMMIN
 10
0.0
 20
0.0
  9
$LIMMAX
 10
431.8
 20
279.4
  9
$ORTHOMODE
 70
     0
  9
$REGENMODE
 70
     1
  9
$FILLMODE
 70
     1
  9
$QTEXTMODE
 70
     0
  9
$MIRRTEXT
 70
     1
  9
$LTSCALE
 40
1.0
  9
$ATTMODE
 70
     1
  9
$TEXTSIZE
 40
3.5
  9
$TRACEWID
 40
1.0
  9
$TEXTSTYLE
  7
Standard
  9
$CLAYER
  8
0
  9
$CELTYPE
  6
ByLayer
  9
$CECOLOR
 62
   256
  9
$CELTSCALE
 40
1.0
  9
$DISPSILH
 70
     0
  9
$DIMSCALE
 40
1.0
  9
$DIMASZ
 40
3.556
  9
$DIMEXO
 40
1.0
  9
$DIMDLI
 40
3.75
  9
$DIMRND
 40
0.0
  9
$DIMDLE
 40
0.0
  9
$DIMEXE
 40
1.0
  9
$DIMTP
 40
0.0
  9
$DIMTM
 40
0.0
  9
$DIMTXT
 40
3.5
  9
$DIMCEN
 40
2.5
  9
$DIMTSZ
 40
0.0
  9
$DIMTOL
 70
     0
  9
$DIMLIM
 70
     0
  9
$DIMTIH
 70
     1
  9
$DIMTOH
 70
     1
  9
$DIMSE1
 70
     0
  9
$DIMSE2
 70
     0
  9
$DIMTAD
 70
     1
  9
$DIMZIN
 70
     0
  9
$DIMBLK
  1

  9
$DIMASO
 70
     1
  9
$DIMSHO
 70
     1
  9
$DIMPOST
  1

  9
$DIMAPOST
  1

  9
$DIMALT
 70
     0
  9
$DIMALTD
 70
     3
  9
$DIMALTF
 40
0.0393700787
  9
$DIMLFAC
 40
1.0
  9
$DIMTOFL
 70
     1
  9
$DIMTVP
 40
0.0
  9
$DIMTIX
 70
     0
  9
$DIMSOXD
 70
     0
  9
$DIMSAH
 70
     0
  9
$DIMBLK1
  1

  9
$DIMBLK2
  1

  9
$DIMSTYLE
  2
ISO-25
  9
$DIMCLRD
 70
     0
  9
$DIMCLRE
 70
     0
  9
$DIMCLRT
 70
     0
  9
$DIMTFAC
 40
1.0
  9
$DIMGAP
 40
1.524
  9
$DIMJUST
 70
     0
  9
$DIMSD1
 70
     0
  9
$DIMSD2
 70
     0
  9
$DIMTOLJ
 70
     0
  9
$DIMTZIN
 70
     0
  9
$DIMALTZ
 70
     0
  9
$DIMALTTZ
 70
     0
  9
$DIMUPT
 70
     0
  9
$DIMDEC
 70
     3
  9
$DIMTDEC
 70
     3
  9
$DIMALTU
 70
     2
  9
$DIMALTTD
 70
     3
  9
$DIMTXSTY
  7
Standard
  9
$DIMAUNIT
 70
     0
  9
$DIMADEC
 70
     2
  9
$DIMALTRND
 40
0.0
  9
$DIMAZIN
 70
     0
  9
$DIMDSEP
 70
    44
  9
$DIMATFIT
 70
     3
  9
$DIMFRAC
 70
     0
  9
$DIMLDRBLK
  1

  9
$DIMLUNIT
 70
     2
  9
$DIMLWD
 70
    -2
  9
$DIMLWE
 70
    -2
  9
$DIMTMOVE
 70
     0
  9
$LUNITS
 70
     2
  9
$LUPREC
 70
     3
  9
$SKETCHINC
 40
1.0
  9
$FILLETRAD
 40
0.0
  9
$AUNITS
 70
     0
  9
$AUPREC
 70
     2
  9
$MENU
  1
.
  9
$ELEVATION
 40
0.0
  9
$PELEVATION
 40
0.0
  9
$THICKNESS
 40
0.0
  9
$LIMCHECK
 70
     0
  9
$CHAMFERA
 40
0.0
  9
$CHAMFERB
 40
0.0
  9
$CHAMFERC
 40
0.0
  9
$CHAMFERD
 40
0.0
  9
$SKPOLY
 70
     0
  9
$TDCREATE
 40
2460236.585286308
  9
$TDUCREATE
 40
2460236.210286308
  9
$TDUPDATE
 40
2460236.585286817
  9
$TDUUPDATE
 40
2460236.210286817
  9
$TDINDWG
 40
0.0000000116
  9
$TDUSRTIMER
 40
0.0000000116
  9
$USRTIMER
 70
     1
  9
$ANGBASE
 50
0.0
  9
$ANGDIR
 70
     0
  9
$PDMODE
 70
     0
  9
$PDSIZE
 40
-1.0
  9
$PLINEWID
 40
0.0
  9
$SPLFRAME
 70
     0
  9
$SPLINETYPE
 70
     6
  9
$SPLINESEGS
 70
     8
  9
$HANDSEED
  5
333
  9
$SURFTAB1
 70
     6
  9
$SURFTAB2
 70
     6
  9
$SURFTYPE
 70
     6
  9
$SURFU
 70
     6
  9
$SURFV
 70
     6
  9
$UCSBASE
  2

  9
$UCSNAME
  2

  9
$UCSORG
 10
0.0
 20
0.0
 30
0.0
  9
$UCSXDIR
 10
1.0
 20
0.0
 30
0.0
  9
$UCSYDIR
 10
0.0
 20
1.0
 30
0.0
  9
$UCSORTHOREF
  2

  9
$UCSORTHOVIEW
 70
     0
  9
$UCSORGTOP
 10
0.0
 20
0.0
 30
0.0
  9
$UCSORGBOTTOM
 10
0.0
 20
0.0
 30
0.0
  9
$UCSORGLEFT
 10
0.0
 20
0.0
 30
0.0
  9
$UCSORGRIGHT
 10
0.0
 20
0.0
 30
0.0
  9
$UCSORGFRONT
 10
0.0
 20
0.0
 30
0.0
  9
$UCSORGBACK
 10
0.0
 20
0.0
 30
0.0
  9
$PUCSBASE
  2

  9
$PUCSNAME
  2

  9
$PUCSORG
 10
0.0
 20
0.0
 30
0.0
  9
$PUCSXDIR
 10
1.0
 20
0.0
 30
0.0
  9
$PUCSYDIR
 10
0.0
 20
1.0
 30
0.0
  9
$PUCSORTHOREF
  2

  9
$PUCSORTHOVIEW
 70
     0
  9
$PUCSORGTOP
 10
0.0
 20
0.0
 30
0.0
  9
$PUCSORGBOTTOM
 10
0.0
 20
0.0
 30
0.0
  9
$PUCSORGLEFT
 10
0.0
 20
0.0
 30
0.0
  9
$PUCSORGRIGHT
 10
0.0
 20
0.0
 30
0.0
  9
$PUCSORGFRONT
 10
0.0
 20
0.0
 30
0.0
  9
$PUCSORGBACK
 10
0.0
 20
0.0
 30
0.0
  9
$USERI1
 70
     0
  9
$USERI2
 70
     0
  9
$USERI3
 70
     0
  9
$USERI4
 70
     0
  9
$USERI5
 70
     0
  9
$USERR1
 40
0.0
  9
$USERR2
 40
0.0
  9
$USERR3
 40
0.0
  9
$USERR4
 40
0.0
  9
$USERR5
 40
0.0
  9
$WORLDVIEW
 70
     1
  9
$SHADEDGE
 70
     3
  9
$SHADEDIF
 70
    70
  9
$TILEMODE
 70
     1
  9
$MAXACTVP
 70
    64
  9
$PINSBASE
 10
0.0
 20
0.0
 30
0.0
  9
$PLIMCHECK
 70
     0
  9
$PEXTMIN
 10
1.0000000000E+20
 20
1.0000000000E+20
 30
1.0000000000E+20
  9
$PEXTMAX
 10
-1.0000000000E+20
 20
-1.0000000000E+20
 30
-1.0000000000E+20
  9
$PLIMMIN
 10
0.0
 20
0.0
  9
$PLIMMAX
 10
420.0
 20
297.0
  9
$UNITMODE
 70
     0
  9
$VISRETAIN
 70
     1
  9
$PLINEGEN
 70
     0
  9
$PSLTSCALE
 70
     1
  9
$TREEDEPTH
 70
  3020
  9
$CMLSTYLE
  2
Standard
  9
$CMLJUST
 70
     0
  9
$CMLSCALE
 40
20.0
  9
$PROXYGRAPHICS
 70
     1
  9
$MEASUREMENT
 70
     1
  9
$CELWEIGHT
370
    -1
  9
$ENDCAPS
280
     0
  9
$JOINSTYLE
280
     0
  9
$LWDISPLAY
290
     1
  9
$INSUNITS
 70
     4
  9
$HYPERLINKBASE
  1

  9
$STYLESHEET
  1

  9
$XEDIT
290
     1
  9
$CEPSNTYPE
380
     0
  9
$PSTYLEMODE
290
     1
  9
$FINGERPRINTGUID
  2
{8018af21-e82b-49ab-b9f2-e377dea4ef97}
  9
$VERSIONGUID
  2
{FAEB1C32-E019-11D5-929B-00C0DF256EC4}
  9
$EXTNAMES
290
     1
  9
$PSVPSCALE
 40
0.0
  9
$OLESTARTUP
290
     0
  0
ENDSEC
  0
SECTION
  2
CLASSES
  0
CLASS
  1
ACDBDICTIONARYWDFLT
  2
AcDbDictionaryWithDefault
  3
ObjectDBX Classes
 90
        0
280
     0
281
     0
  0
CLASS
  1
VISUALSTYLE
  2
AcDbVisualStyle
  3
ObjectDBX Classes
 90
     4095
280
     0
281
     0
  0
CLASS
  1
MATERIAL
  2
AcDbMaterial
  3
ObjectDBX Classes
 90
     1153
280
     0
281
     0
  0
CLASS
  1
SCALE
  2
AcDbScale
  3
ObjectDBX Classes
 90
     1153
280
     0
281
     0
  0
CLASS
  1
TABLESTYLE
  2
AcDbTableStyle
  3
ObjectDBX Classes
 90
     4095
280
     0
281
     0
  0
CLASS
  1
MLEADERSTYLE
  2
AcDbMLeaderStyle
  3
ACDB_MLEADERSTYLE_CLASS
 90
     4095
280
     0
281
     0
  0
CLASS
  1
SUN
  2
AcDbSun
  3
SCENEOE
 90
     1153
280
     0
281
     0
  0
CLASS
  1
ACDBPLACEHOLDER
  2
AcDbPlaceHolder
  3
ObjectDBX Classes
 90
        0
280
     0
281
     0
  0
CLASS
  1
LAYOUT
  2
AcDbLayout
  3
ObjectDBX Classes
 90
        0
280
     0
281
     0
  0
ENDSEC
  0
SECTION
  2
TABLES
  0
TABLE
  2
VPORT
  5
8
330
0
100
AcDbSymbolTable
 70
     1
  0
VPORT
  5
29
330
8
100
AcDbSymbolTableRecord
100
AcDbViewportTableRecord
  2
*Active
 70
     0
 10
0.0
 20
0.0
 11
1.0
 21
1.0
 12
215.9
 22
139.7
 13
0.0
 23
0.0
 14
10.0
 24
10.0
 15
10.0
 25
10.0
 16
0.0
 26
0.0
 36
1.0
 17
0.0
 27
0.0
 37
0.0
 40
279.4
 41
1.5454545455
 42
50.0
 43
0.0
 44
0.0
 50
0.0
 51
0.0
 71
     0
 72
  2000
 73
     1
 74
     3
 75
     0
 76
     0
 77
     0
 78
     0
281
     0
 65
     1
110
0.0
120
0.0
130
0.0
111
1.0
121
0.0
131
0.0
112
0.0
122
1.0
132
0.0
 79
     0
146
0.0
  0
ENDTAB
  0
TABLE
  2
LTYPE
  5
5
330
0
100
AcDbSymbolTable
 70
     6
  0
LTYPE
  5
14
330
5
100
AcDbSymbolTableRecord
100
AcDbLinetypeTableRecord
  2
ByBlock
 70
     0
  3

 72
    65
 73
     0
 40
0.0
  0
LTYPE
  5
15
330
5
100
AcDbSymbolTableRecord
100
AcDbLinetypeTableRecord
  2
ByLayer
 70
     0
  3

 72
    65
 73
     0
 40
0.0
  0
LTYPE
  5
16
330
5
100
AcDbSymbolTableRecord
100
AcDbLinetypeTableRecord
  2
Continuous
 70
     0
  3
Solid line
 72
    65
 73
     0
 40
0.0
  0
LTYPE
  5
5E
330
5
100
AcDbSymbolTableRecord
100
AcDbLinetypeTableRecord
  2
HIDDEN
 70
     0
  3
Hidden __ __ __ __ __ __ __ __ __ __ __ __ __ __
 72
    65
 73
     2
 40
1.905
 49
1.27
 74
     0
 49
-0.635
 74
     0
  0
LTYPE
  5
5F
330
5
100
AcDbSymbolTableRecord
100
AcDbLinetypeTableRecord
  2
PHANTOM
 70
     0
  3
Phantom ______  __  __  ______  __  __  ______
 72
    65
 73
     6
 40
12.7
 49
6.35
 74
     0
 49
-1.27
 74
     0
 49
1.27
 74
     0
 49
-1.27
 74
     0
 49
1.27
 74
     0
 49
-1.27
 74
     0
  0
LTYPE
  5
60
330
5
100
AcDbSymbolTableRecord
100
AcDbLinetypeTableRecord
  2
CENTER
 70
     0
  3
Center ____ _ ____ _ ____ _ ____ _ ____ _ ____
 72
    65
 73
     4
 40
10.16
 49
6.35
 74
     0
 49
-1.27
 74
     0
 49
1.27
 74
     0
 49
-1.27
 74
     0
  0
LTYPE
  5
61
330
5
100
AcDbSymbolTableRecord
100
AcDbLinetypeTableRecord
  2
CENTERX2
 70
     0
  3
Center (2x) ________  __  ________  __  _____
 72
    65
 73
     4
 40
20.32
 49
12.7
 74
     0
 49
-2.54
 74
     0
 49
2.54
 74
     0
 49
-2.54
 74
     0
  0
LTYPE
  5
62
330
5
100
AcDbSymbolTableRecord
100
AcDbLinetypeTableRecord
  2
DOT2
 70
     0
  3
Dot (.5x) ........................................
 72
    65
 73
     2
 40
0.635
 49
0.0
 74
     0
 49
-0.635
 74
     0
  0
ENDTAB
  0
TABLE
  2
LAYER
  5
2
330
0
100
AcDbSymbolTable
 70
     1
  0
LAYER
  5
10
330
2
100
AcDbSymbolTableRecord
100
AcDbLayerTableRecord
  2
0
 70
     0
 62
     7
  6
Continuous
370
    -3
390
F
  0
ENDTAB
  0
TABLE
  2
STYLE
  5
3
330
0
100
AcDbSymbolTable
 70
     2
  0
STYLE
  5
11
330
3
100
AcDbSymbolTableRecord
100
AcDbTextStyleTableRecord
  2
Standard
 70
     0
 40
0.0
 41
1.0
 50
0.0
 71
     0
 42
3.5
  3
txt
  4
bigfont
  0
STYLE
  5
63
330
3
100
AcDbSymbolTableRecord
100
AcDbTextStyleTableRecord
  2
SLDTEXTSTYLE0
 70
     0
 40
0.0
 41
0.75
 50
0.0
 71
     0
 42
3.5
  3
TXT
  4
bigfont
  0
ENDTAB
  0
TABLE
  2
VIEW
  5
6
330
0
100
AcDbSymbolTable
 70
     0
  0
ENDTAB
  0
TABLE
  2
UCS
  5
7
330
0
100
AcDbSymbolTable
 70
     0
  0
ENDTAB
  0
TABLE
  2
APPID
  5
9
330
0
100
AcDbSymbolTable
 70
     1
  0
APPID
  5
12
330
9
100
AcDbSymbolTableRecord
100
AcDbRegAppTableRecord
  2
ACAD
 70
     0
  0
ENDTAB
  0
TABLE
  2
DIMSTYLE
  5
A
330
0
100
AcDbSymbolTable
 70
     1
100
AcDbDimStyleTable
  0
DIMSTYLE
105
27
330
A
100
AcDbSymbolTableRecord
100
AcDbDimStyleTableRecord
  2
ISO-25
 70
     0
 41
2.5
 42
0.625
 43
3.75
 44
1.25
 73
     0
 74
     0
 77
     1
 78
     8
140
2.5
141
2.5
143
0.0393700787
147
0.625
171
     3
172
     1
178
     0
271
     2
272
     2
274
     3
278
    44
283
     0
284
     8
340
11
  0
ENDTAB
  0
TABLE
  2
BLOCK_RECORD
  5
1
330
0
100
AcDbSymbolTable
 70
     3
  0
BLOCK_RECORD
  5
1F
330
1
100
AcDbSymbolTableRecord
100
AcDbBlockTableRecord
  2
*Model_Space
340
22
  0
BLOCK_RECORD
  5
1B
330
1
100
AcDbSymbolTableRecord
100
AcDbBlockTableRecord
  2
*Paper_Space
340
1E
  0
BLOCK_RECORD
  5
23
330
1
100
AcDbSymbolTableRecord
100
AcDbBlockTableRecord
  2
*Paper_Space0
340
26
  0
BLOCK_RECORD
  5
236
330
1
100
AcDbSymbolTableRecord
100
AcDbBlockTableRecord
  2
SW_CENTERMARKSYMBOL_0
340
0
102
{BLKREFS
331
241
102
}
  0
BLOCK_RECORD
  5
326
330
1
100
AcDbSymbolTableRecord
100
AcDbBlockTableRecord
  2
SW_CENTERMARKSYMBOL_1
340
0
102
{BLKREFS
331
331
102
}
  0
ENDTAB
  0
ENDSEC
  0
SECTION
  2
BLOCKS
  0
BLOCK
  5
20
330
1F
100
AcDbEntity
  8
0
100
AcDbBlockBegin
  2
*Model_Space
 70
     0
 10
0.0
 20
0.0
 30
0.0
  3
*Model_Space
  1

  0
ENDBLK
  5
21
330
1F
100
AcDbEntity
  8
0
100
AcDbBlockEnd
  0
BLOCK
  5
1C
330
1B
100
AcDbEntity
 67
     1
  8
0
100
AcDbBlockBegin
  2
*Paper_Space
 70
     0
 10
0.0
 20
0.0
 30
0.0
  3
*Paper_Space
  1

  0
ENDBLK
  5
1D
330
1B
100
AcDbEntity
 67
     1
  8
0
100
AcDbBlockEnd
  0
BLOCK
  5
24
330
23
100
AcDbEntity
  8
0
100
AcDbBlockBegin
  2
*Paper_Space0
 70
     0
 10
0.0
 20
0.0
 30
0.0
  3
*Paper_Space0
  1

  0
ENDBLK
  5
25
330
23
100
AcDbEntity
  8
0
100
AcDbBlockEnd
  0
BLOCK
  5
237
330
236
100
AcDbEntity
  8
0
100
AcDbBlockBegin
  2
SW_CENTERMARKSYMBOL_0
 70
     0
 10
0.0
 20
0.0
 30
0.0
  3
SW_CENTERMARKSYMBOL_0
  1

  0
LINE
  5
239
330
236
100
AcDbEntity
  8
0
  6
Continuous
 62
     0
370
    18
100
AcDbLine
 10
0.0
 20
0.0
 30
0.0
 11
0.0
 21
2.5
 31
0.0
  0
LINE
  5
23A
330
236
100
AcDbEntity
  8
0
  6
Continuous
 62
     0
370
    18
100
AcDbLine
 10
0.0
 20
0.0
 30
0.0
 11
-2.5
 21
0.0
 31
0.0
  0
LINE
  5
23B
330
236
100
AcDbEntity
  8
0
  6
Continuous
 62
     0
370
    18
100
AcDbLine
 10
0.0
 20
0.0
 30
0.0
 11
0.0
 21
-2.5
 31
0.0
  0
LINE
  5
23C
330
236
100
AcDbEntity
  8
0
  6
Continuous
 62
     0
370
    18
100
AcDbLine
 10
0.0
 20
0.0
 30
0.0
 11
2.5
 21
0.0
 31
0.0
  0
LINE
  5
23D
330
236
100
AcDbEntity
  8
0
  6
Continuous
 62
     0
370
    18
100
AcDbLine
 10
0.0
 20
5.0
 30
0.0
 11
0.0
 21
34.5248733397
 31
0.0
  0
LINE
  5
23E
330
236
100
AcDbEntity
  8
0
  6
Continuous
 62
     0
370
    18
100
AcDbLine
 10
-5.0
 20
0.0
 30
0.0
 11
-12.1139524998
 21
0.0
 31
0.0
  0
LINE
  5
23F
330
236
100
AcDbEntity
  8
0
  6
Continuous
 62
     0
370
    18
100
AcDbLine
 10
0.0
 20
-5.0
 30
0.0
 11
0.0
 21
-26.9032334165
 31
0.0
  0
LINE
  5
240
330
236
100
AcDbEntity
  8
0
  6
Continuous
 62
     0
370
    18
100
AcDbLine
 10
5.0
 20
0.0
 30
0.0
 11
12.2173638919
 21
0.0
 31
0.0
  0
ENDBLK
  5
238
330
236
100
AcDbEntity
  8
0
100
AcDbBlockEnd
  0
BLOCK
  5
327
330
326
100
AcDbEntity
  8
0
100
AcDbBlockBegin
  2
SW_CENTERMARKSYMBOL_1
 70
     0
 10
0.0
 20
0.0
 30
0.0
  3
SW_CENTERMARKSYMBOL_1
  1

  0
LINE
  5
329
330
326
100
AcDbEntity
  8
0
  6
Continuous
 62
     0
370
    18
100
AcDbLine
 10
0.0
 20
0.0
 30
0.0
 11
0.0
 21
2.5
 31
0.0
  0
LINE
  5
32A
330
326
100
AcDbEntity
  8
0
  6
Continuous
 62
     0
370
    18
100
AcDbLine
 10
0.0
 20
0.0
 30
0.0
 11
-2.5
 21
0.0
 31
0.0
  0
LINE
  5
32B
330
326
100
AcDbEntity
  8
0
  6
Continuous
 62
     0
370
    18
100
AcDbLine
 10
0.0
 20
0.0
 30
0.0
 11
0.0
 21
-2.5
 31
0.0
  0
LINE
  5
32C
330
326
100
AcDbEntity
  8
0
  6
Continuous
 62
     0
370
    18
100
AcDbLine
 10
0.0
 20
0.0
 30
0.0
 11
2.5
 21
0.0
 31
0.0
  0
LINE
  5
32D
330
326
100
AcDbEntity
  8
0
  6
Continuous
 62
     0
370
    18
100
AcDbLine
 10
0.0
 20
5.0
 30
0.0
 11
0.0
 21
10.6810682383
 31
0.0
  0
LINE
  5
32E
330
326
100
AcDbEntity
  8
0
  6
Continuous
 62
     0
370
    18
100
AcDbLine
 10
-5.0
 20
0.0
 30
0.0
 11
-36.7116922283
 21
0.0
 31
0.0
  0
LINE
  5
32F
330
326
100
AcDbEntity
  8
0
  6
Continuous
 62
     0
370
    18
100
AcDbLine
 10
0.0
 20
-5.0
 30
0.0
 11
0.0
 21
-11.5817638537
 31
0.0
  0
LINE
  5
330
330
326
100
AcDbEntity
  8
0
  6
Continuous
 62
     0
370
    18
100
AcDbLine
 10
5.0
 20
0.0
 30
0.0
 11
36.5803430844
 21
0.0
 31
0.0
  0
ENDBLK
  5
328
330
326
100
AcDbEntity
  8
0
100
AcDbBlockEnd
  0
ENDSEC
  0
SECTION
  2
ENTITIES
  0
MTEXT
  5
64
330
1F
100
AcDbEntity
  8
0
  6
Continuous
 62
     7
370
     0
100
AcDbMText
 10
71.2782267402
 20
92.8589370117
 30
0.0
 40
3.5
 41
0.0
 71
     1
 72
     1
  1
エースボール　アングル　BC-5310R
  7
SLDTEXTSTYLE0
 73
     1
 44
1.0
  0
LINE
  5
65
330
1F
100
AcDbEntity
  8
0
  6
Continuous
 62
     7
370
    25
100
AcDbLine
 10
94.9732621118
 20
38.9133763975
 30
0.0
 11
95.9232621118
 21
38.9133763975
 31
0.0
  0
LINE
  5
66
330
1F
100
AcDbEntity
  8
0
  6
Continuous
 62
     7
370
    25
100
AcDbLine
 10
95.9232621118
 20
55.4133763975
 30
0.0
 11
94.9732621118
 21
55.4133763975
 31
0.0
  0
ARC
  5
67
330
1F
100
AcDbEntity
  8
0
  6
Continuous
 62
     7
370
    25
100
AcDbCircle
 10
95.9232621118
 20
39.2133763975
 30
0.0
 40
0.3000000000000043
100
AcDbArc
 50
270.0
 51
0.0
  0
ARC
  5
68
330
1F
100
AcDbEntity
  8
0
  6
Continuous
 62
     7
370
    25
100
AcDbCircle
 10
95.9232621118
 20
55.1133763975
 30
0.0
 40
0.3000000000000043
100
AcDbArc
 50
0.0
 51
90.0
  0
LINE
  5
69
330
1F
100
AcDbEntity
  8
0
  6
Continuous
 62
     7
370
    25
100
AcDbLine
 10
93.2232621118
 20
39.4133763975
 30
0.0
 11
94.0232621118
 21
39.4133763975
 31
0.0
  0
LINE
  5
6A
330
1F
100
AcDbEntity
  8
0
  6
Continuous
 62
     7
370
    25
100
AcDbLine
 10
94.0232621118
 20
54.9133763975
 30
0.0
 11
93.2232621118
 21
54.9133763975
 31
0.0
  0
ARC
  5
6B
330
1F
100
AcDbEntity
  8
0
  6
Continuous
 62
     7
370
    25
100
AcDbCircle
 10
94.0232621118
 20
39.6133763975
 30
0.0
 40
0.1999999999999957
100
AcDbArc
 50
270.0
 51
0.0
  0
ARC
  5
6C
330
1F
100
AcDbEntity
  8
0
  6
Continuous
 62
     7
370
    25
100
AcDbCircle
 10
94.0232621118
 20
54.7133763975
 30
0.0
 40
0.1999999999999957
100
AcDbArc
 50
0.0
 51
90.0
  0
LINE
  5
6D
330
1F
100
AcDbEntity
  8
0
  6
Continuous
 62
     7
370
    25
100
AcDbLine
 10
94.2232621118
 20
40.7883763975
 30
0.0
 11
94.9732621118
 21
40.7883763975
 31
0.0
  0
LINE
  5
6E
330
1F
100
AcDbEntity
  8
0
  6
Continuous
 62
     7
370
    25
100
AcDbLine
 10
94.9732621118
 20
53.5383763975
 30
0.0
 11
94.2232621118
 21
53.5383763975
 31
0.0
  0
ARC
  5
6F
330
1F
100
AcDbEntity
  8
0
  6
Continuous
 62
     7
370
    25
100
AcDbCircle
 10
27.5232621118
 20
55.1133763975
 30
0.0
 40
0.3000000000000043
100
AcDbArc
 50
90.0
 51
180.0
  0
ARC
  5
70
330
1F
100
AcDbEntity
  8
0
  6
Continuous
 62
     7
370
    25
100
AcDbCircle
 10
27.5232621118
 20
39.2133763975
 30
0.0
 40
0.3000000000000043
100
AcDbArc
 50
180.0
 51
270.0
  0
LINE
  5
71
330
1F
100
AcDbEntity
  8
0
  6
Continuous
 62
     7
370
    25
100
AcDbLine
 10
28.4732621118
 20
55.4133763975
 30
0.0
 11
27.5232621118
 21
55.4133763975
 31
0.0
  0
LINE
  5
72
330
1F
100
AcDbEntity
  8
0
  6
Continuous
 62
     7
370
    25
100
AcDbLine
 10
27.5232621118
 20
38.9133763975
 30
0.0
 11
28.4732621118
 21
38.9133763975
 31
0.0
  0
LINE
  5
73
330
1F
100
AcDbEntity
  8
0
  6
Continuous
 62
     7
370
    25
100
AcDbLine
 10
30.2232621118
 20
54.9133763975
 30
0.0
 11
29.4232621118
 21
54.9133763975
 31
0.0
  0
LINE
  5
74
330
1F
100
AcDbEntity
  8
0
  6
Continuous
 62
     7
370
    25
100
AcDbLine
 10
29.4232621118
 20
39.4133763975
 30
0.0
 11
30.2232621118
 21
39.4133763975
 31
0.0
  0
ARC
  5
75
330
1F
100
AcDbEntity
  8
0
  6
Continuous
 62
     7
370
    25
100
AcDbCircle
 10
29.4232621118
 20
54.7133763975
 30
0.0
 40
0.1999999999999993
100
AcDbArc
 50
90.0
 51
180.0
  0
ARC
  5
76
330
1F
100
AcDbEntity
  8
0
  6
Continuous
 62
     7
370
    25
100
AcDbCircle
 10
29.4232621118
 20
39.6133763975
 30
0.0
 40
0.1999999999999993
100
AcDbArc
 50
180.0
 51
270.0
  0
LINE
  5
77
330
1F
100
AcDbEntity
  8
0
  6
Continuous
 62
     7
370
    25
100
AcDbLine
 10
29.2232621118
 20
53.5383763975
 30
0.0
 11
28.4732621118
 21
53.5383763975
 31
0.0
  0
LINE
  5
78
330
1F
100
AcDbEntity
  8
0
  6
Continuous
 62
     7
370
    25
100
AcDbLine
 10
28.4732621118
 20
40.7883763975
 30
0.0
 11
29.2232621118
 21
40.7883763975
 31
0.0
  0
LINE
  5
79
330
1F
100
AcDbEntity
  8
0
  6
Continuous
 62
     7
370
    25
100
AcDbLine
 10
30.4232621118
 20
56.9133763975
 30
0.0
 11
30.2232621118
 21
56.7133763975
 31
0.0
  0
LINE
  5
7A
330
1F
100
AcDbEntity
  8
0
  6
Continuous
 62
     7
370
    25
100
AcDbLine
 10
30.2232621118
 20
37.6133763975
 30
0.0
 11
30.4232621118
 21
37.4133763975
 31
0.0
  0
LINE
  5
7B
330
1F
100
AcDbEntity
  8
0
  6
Continuous
 62
     7
370
    25
100
AcDbLine
 10
50.2232621118
 20
56.9133763975
 30
0.0
 11
30.4232621118
 21
56.9133763975
 31
0.0
  0
LINE
  5
7C
330
1F
100
AcDbEntity
  8
0
  6
Continuous
 62
     7
370
    25
100
AcDbLine
 10
30.4232621118
 20
37.4133763975
 30
0.0
 11
50.2232621118
 21
37.4133763975
 31
0.0
  0
LINE
  5
7D
330
1F
100
AcDbEntity
  8
0
  6
Continuous
 62
     7
370
    25
100
AcDbLine
 10
93.0232621118
 20
37.4133763975
 30
0.0
 11
93.2232621118
 21
37.6133763975
 31
0.0
  0
LINE
  5
7E
330
1F
100
AcDbEntity
  8
0
  6
Continuous
 62
     7
370
    25
100
AcDbLine
 10
93.2232621118
 20
56.7133763975
 30
0.0
 11
93.0232621118
 21
56.9133763975
 31
0.0
  0
LINE
  5
7F
330
1F
100
AcDbEntity
  8
0
  6
Continuous
 62
     7
370
    25
100
AcDbLine
 10
73.2232621118
 20
37.4133763975
 30
0.0
 11
93.0232621118
 21
37.4133763975
 31
0.0
  0
LINE
  5
80
330
1F
100
AcDbEntity
  8
0
  6
Continuous
 62
     7
370
    25
100
AcDbLine
 10
93.0232621118
 20
56.9133763975
 30
0.0
 11
73.2232621118
 21
56.9133763975
 31
0.0
  0
LINE
  5
81
330
1F
100
AcDbEntity
  8
0
  6
Continuous
 62
     7
370
    25
100
AcDbLine
 10
53.1969496118
 20
36.1633763975
 30
0.0
 11
53.5225861172
 21
25.7430082235
 31
0.0
  0
LINE
  5
82
330
1F
100
AcDbEntity
  8
0
  6
Continuous
 62
     7
370
    25
100
AcDbLine
 10
69.9239381064
 20
25.7430082235
 30
0.0
 11
70.2495746118
 21
36.1633763975
 31
0.0
  0
LINE
  5
83
330
1F
100
AcDbEntity
  8
0
  6
Continuous
 62
     7
370
    25
100
AcDbLine
 10
53.5225861172
 20
25.7430082235
 30
0.0
 11
54.7232621118
 21
23.6633763975
 31
0.0
  0
LINE
  5
84
330
1F
100
AcDbEntity
  8
0
  6
Continuous
 62
     7
370
    25
100
AcDbLine
 10
68.7232621118
 20
23.6633763975
 30
0.0
 11
69.9239381064
 21
25.7430082235
 31
0.0
  0
SPLINE
  5
85
330
1F
100
AcDbEntity
  8
0
  6
Continuous
 62
     7
370
    25
100
AcDbSpline
210
0.0
220
0.0
230
1.0
 70
     8
 71
     3
 72
    10
 73
     6
 74
     0
 42
0.00000001
 43
0.00000001
 40
0.0
 40
0.0
 40
0.0
 40
0.0
 40
0.3208746168167801
 40
0.6909228595359943
 40
0.9999999999999999
 40
0.9999999999999999
 40
0.9999999999999999
 40
0.9999999999999999
 10
67.89033199408328
 20
55.95036086085493
 30
0.0
 10
67.83490546907012
 20
56.01373125103791
 30
0.0
 10
67.71555837475597
 20
56.15018346290029
 30
0.0
 10
67.61950084176206
 20
56.40120709447936
 30
0.0
 10
67.60985110532579
 20
56.57872648659105
 30
0.0
 10
67.60545940827276
 20
56.65951743837909
 30
0.0
  0
SPLINE
  5
86
330
1F
100
AcDbEntity
  8
0
  6
Continuous
 62
     7
370
    25
100
AcDbSpline
210
0.0
220
0.0
230
1.0
 70
     8
 71
     3
 72
    11
 73
     7
 74
     0
 42
0.00000001
 43
0.00000001
 40
0.0
 40
0.0
 40
0.0
 40
0.0
 40
0.0442325527273662
 40
0.390166447900161
 40
0.7594221954617486
 40
1.0
 40
1.0
 40
1.0
 40
1.0
 10
55.83251320424511
 20
56.66152868227209
 30
0.0
 10
55.83420178848363
 20
56.65009511081495
 30
0.0
 10
55.84909645030391
 20
56.54924187745673
 30
0.0
 10
55.79904952860996
 20
56.35125908826466
 30
0.0
 10
55.70597971154887
 20
56.11572420726943
 30
0.0
 10
55.59187280166712
 20
56.00282763162708
 30
0.0
 10
55.54685791232973
 20
55.95829021610706
 30
0.0
  0
LINE
  5
87
330
1F
100
AcDbEntity
  8
0
  6
Continuous
 62
     7
370
    25
100
AcDbLine
 10
67.6232621118
 20
56.6588455774
 30
0.0
 11
67.6232621118
 21
57.6633763975
 31
0.0
  0
LINE
  5
88
330
1F
100
AcDbEntity
  8
0
  6
Continuous
 62
     7
370
    25
100
AcDbLine
 10
55.8232621118
 20
57.6633763975
 30
0.0
 11
55.8232621118
 21
56.6633763975
 31
0.0
  0
LINE
  5
89
330
1F
100
AcDbEntity
  8
0
  6
Continuous
 62
     7
370
    25
100
AcDbLine
 10
55.5530952045
 20
55.9581141268
 30
0.0
 11
55.008730932
 21
56.9009807045
 31
0.0
  0
LINE
  5
8A
330
1F
100
AcDbEntity
  8
0
  6
Continuous
 62
     7
370
    25
100
AcDbLine
 10
72.508730932
 20
37.4257720905
 30
0.0
 11
73.2232621118
 21
38.6633763975
 31
0.0
  0
LINE
  5
8B
330
1F
100
AcDbEntity
  8
0
  6
Continuous
 62
     7
370
    25
100
AcDbLine
 10
68.4377932916
 20
56.9009807045
 30
0.0
 11
67.8934290191
 21
55.9581141268
 31
0.0
  0
LINE
  5
8C
330
1F
100
AcDbEntity
  8
0
  6
Continuous
 62
     7
370
    25
100
AcDbLine
 10
50.9377932916
 20
56.9009807045
 30
0.0
 11
50.2232621118
 21
55.6633763975
 31
0.0
  0
LINE
  5
8D
330
1F
100
AcDbEntity
  8
0
  6
Continuous
 62
     7
370
    25
100
AcDbLine
 10
73.2232621118
 20
55.6633763975
 30
0.0
 11
72.508730932
 21
56.9009807045
 31
0.0
  0
LINE
  5
8E
330
1F
100
AcDbEntity
  8
0
  6
Continuous
 62
     7
370
    25
100
AcDbLine
 10
50.2232621118
 20
38.6633763975
 30
0.0
 11
50.9377932916
 21
37.4257720905
 31
0.0
  0
LINE
  5
8F
330
1F
100
AcDbEntity
  8
0
  6
Continuous
 62
     7
370
    25
100
AcDbLine
 10
71.4608664188
 20
36.1633763975
 30
0.0
 11
71.4608664188
 21
37.4257720905
 31
0.0
  0
LINE
  5
90
330
1F
100
AcDbEntity
  8
0
  6
Continuous
 62
     7
370
    25
100
AcDbLine
 10
71.4608664188
 20
37.4257720905
 30
0.0
 11
72.5112913133
 21
37.4257720905
 31
0.0
  0
LINE
  5
91
330
1F
100
AcDbEntity
  8
0
  6
Continuous
 62
     7
370
    25
100
AcDbLine
 10
55.0112989874
 20
56.9009807045
 30
0.0
 11
50.9352329103
 21
56.9009807045
 31
0.0
  0
LINE
  5
92
330
1F
100
AcDbEntity
  8
0
  6
Continuous
 62
     7
370
    25
100
AcDbLine
 10
72.5112913133
 20
56.9009807045
 30
0.0
 11
68.4352252362
 21
56.9009807045
 31
0.0
  0
LINE
  5
93
330
1F
100
AcDbEntity
  8
0
  6
Continuous
 62
     7
370
    25
100
AcDbLine
 10
51.9856578048
 20
37.4257720905
 30
0.0
 11
51.9856578048
 21
36.1633763975
 31
0.0
  0
LINE
  5
94
330
1F
100
AcDbEntity
  8
0
  6
Continuous
 62
     7
370
    25
100
AcDbLine
 10
50.9352329103
 20
37.4257720905
 30
0.0
 11
51.9856578048
 21
37.4257720905
 31
0.0
  0
LINE
  5
95
330
1F
100
AcDbEntity
  8
0
  6
Continuous
 62
     7
370
    25
100
AcDbLine
 10
53.7269818564
 20
64.6112999738
 30
0.0
 11
54.1900923636
 21
58.1277528725
 31
0.0
  0
LINE
  5
96
330
1F
100
AcDbEntity
  8
0
  6
Continuous
 62
     7
370
    25
100
AcDbLine
 10
53.7232620122
 20
64.6633777923
 30
0.0
 11
53.7269818564
 21
64.6112999738
 31
0.0
  0
LINE
  5
97
330
1F
100
AcDbEntity
  8
0
  6
Continuous
 62
     7
370
    25
100
AcDbLine
 10
69.25643186
 20
58.1277528725
 30
0.0
 11
69.7232622114
 21
64.6633777923
 31
0.0
  0
ARC
  5
98
330
1F
100
AcDbEntity
  8
0
  6
Continuous
 62
     7
370
    25
100
AcDbCircle
 10
68.7577025101
 20
58.1633763975
 30
0.0
 40
0.5
100
AcDbArc
 50
270.0
 51
355.91438322
  0
ARC
  5
99
330
1F
100
AcDbEntity
  8
0
  6
Continuous
 62
     7
370
    25
100
AcDbCircle
 10
54.6888217135
 20
58.1633763975
 30
0.0
 40
0.5000000000000029
100
AcDbArc
 50
184.08561678
 51
270.0
  0
LINE
  5
9A
330
1F
100
AcDbEntity
  8
0
  6
Continuous
 62
     7
370
    25
100
AcDbLine
 10
67.6483752351
 20
74.1633763975
 30
0.0
 11
67.3074438956
 21
75.7673322429
 31
0.0
  0
LINE
  5
9B
330
1F
100
AcDbEntity
  8
0
  6
Continuous
 62
     7
370
    25
100
AcDbLine
 10
56.139080328
 20
75.7673322429
 30
0.0
 11
55.7981489885
 21
74.1633763975
 31
0.0
  0
ARC
  5
9C
330
1F
100
AcDbEntity
  8
0
  6
Continuous
 62
     7
370
    25
100
AcDbCircle
 10
56.6281541284
 20
75.6633763975
 30
0.0
 40
0.5000000000000052
100
AcDbArc
 50
90.0
 51
168.0
  0
ARC
  5
9D
330
1F
100
AcDbEntity
  8
0
  6
Continuous
 62
     7
370
    25
100
AcDbCircle
 10
66.8183700952
 20
75.6633763975
 30
0.0
 40
0.5000000000000062
100
AcDbArc
 50
12.0
 51
90.0
  0
ARC
  5
9E
330
1F
100
AcDbEntity
  8
0
  6
Continuous
 62
     7
370
    25
100
AcDbCircle
 10
61.7232621118
 20
56.1633763975
 30
0.0
 40
20.50000000000001
100
AcDbArc
 50
96.3582831464
 51
102.6803834918
  0
ARC
  5
9F
330
1F
100
AcDbEntity
  8
0
  6
Continuous
 62
     7
370
    25
100
AcDbCircle
 10
61.7232621118
 20
56.1633763975
 30
0.0
 40
20.5
100
AcDbArc
 50
77.3196165082
 51
83.6417168446
  0
ARC
  5
A0
330
1F
100
AcDbEntity
  8
0
  6
Continuous
 62
     7
370
    25
100
AcDbCircle
 10
61.7232621118
 20
56.1633763975
 30
0.0
 40
20.6
100
AcDbArc
 50
90.536198498
 51
93.3558231766
  0
ARC
  5
A1
330
1F
100
AcDbEntity
  8
0
  6
Continuous
 62
     7
370
    25
100
AcDbCircle
 10
61.7232621118
 20
56.1633763975
 30
0.0
 40
20.6
100
AcDbArc
 50
86.6441768145
 51
89.4577849952
  0
LINE
  5
A2
330
1F
100
AcDbEntity
  8
0
  6
Continuous
 62
     7
370
    25
100
AcDbLine
 10
94.9732621118
 20
38.9133763975
 30
0.0
 11
94.9732621118
 21
55.4133763975
 31
0.0
  0
LINE
  5
A3
330
1F
100
AcDbEntity
  8
0
  6
Continuous
 62
     7
370
    25
100
AcDbLine
 10
96.2232621118
 20
55.1133763975
 30
0.0
 11
96.2232621118
 21
39.2133763975
 31
0.0
  0
LINE
  5
A4
330
1F
100
AcDbEntity
  8
0
  6
Continuous
 62
     7
370
    25
100
AcDbLine
 10
94.2232621118
 20
54.7133763975
 30
0.0
 11
94.2232621118
 21
39.6133763975
 31
0.0
  0
LINE
  5
A5
330
1F
100
AcDbEntity
  8
0
  6
Continuous
 62
     7
370
    25
100
AcDbLine
 10
27.2232621118
 20
39.2133763975
 30
0.0
 11
27.2232621118
 21
55.1133763975
 31
0.0
  0
LINE
  5
A6
330
1F
100
AcDbEntity
  8
0
  6
Continuous
 62
     7
370
    25
100
AcDbLine
 10
28.4732621118
 20
55.4133763975
 30
0.0
 11
28.4732621118
 21
38.9133763975
 31
0.0
  0
LINE
  5
A7
330
1F
100
AcDbEntity
  8
0
  6
Continuous
 62
     7
370
    25
100
AcDbLine
 10
29.2232621118
 20
39.6133763975
 30
0.0
 11
29.2232621118
 21
54.7133763975
 31
0.0
  0
LINE
  5
A8
330
1F
100
AcDbEntity
  8
0
  6
Continuous
 62
     7
370
    25
100
AcDbLine
 10
30.2232621118
 20
41.1296896151
 30
0.0
 11
30.2232621118
 21
56.7133763975
 31
0.0
  0
LINE
  5
A9
330
1F
100
AcDbEntity
  8
0
  6
Continuous
 62
     7
370
    25
100
AcDbLine
 10
30.2232621118
 20
37.6133763975
 30
0.0
 11
30.2232621118
 21
41.1296896151
 31
0.0
  0
LINE
  5
AA
330
1F
100
AcDbEntity
  8
0
  6
Continuous
 62
     7
370
    25
100
AcDbLine
 10
30.4232621118
 20
41.0033296825
 30
0.0
 11
30.4232621118
 21
37.4133763975
 31
0.0
  0
LINE
  5
AB
330
1F
100
AcDbEntity
  8
0
  6
Continuous
 62
     7
370
    25
100
AcDbLine
 10
30.4232621118
 20
56.9133763975
 30
0.0
 11
30.4232621118
 21
41.0033296825
 31
0.0
  0
LINE
  5
AC
330
1F
100
AcDbEntity
  8
0
  6
Continuous
 62
     7
370
    25
100
AcDbLine
 10
50.2232621118
 20
41.0033296825
 30
0.0
 11
50.2232621118
 21
56.9133763975
 31
0.0
  0
LINE
  5
AD
330
1F
100
AcDbEntity
  8
0
  6
Continuous
 62
     7
370
    25
100
AcDbLine
 10
50.2232621118
 20
37.4133763975
 30
0.0
 11
50.2232621118
 21
41.0033296825
 31
0.0
  0
LINE
  5
AE
330
1F
100
AcDbEntity
  8
0
  6
Continuous
 62
     7
370
    25
100
AcDbLine
 10
93.2232621118
 20
55.8535056818
 30
0.0
 11
93.2232621118
 21
37.6133763975
 31
0.0
  0
LINE
  5
AF
330
1F
100
AcDbEntity
  8
0
  6
Continuous
 62
     7
370
    25
100
AcDbLine
 10
93.2232621118
 20
56.7133763975
 30
0.0
 11
93.2232621118
 21
55.8535056818
 31
0.0
  0
LINE
  5
B0
330
1F
100
AcDbEntity
  8
0
  6
Continuous
 62
     7
370
    25
100
AcDbLine
 10
93.0232621118
 20
56.0354979182
 30
0.0
 11
93.0232621118
 21
56.9133763975
 31
0.0
  0
LINE
  5
B1
330
1F
100
AcDbEntity
  8
0
  6
Continuous
 62
     7
370
    25
100
AcDbLine
 10
93.0232621118
 20
37.4133763975
 30
0.0
 11
93.0232621118
 21
56.0354979182
 31
0.0
  0
LINE
  5
B2
330
1F
100
AcDbEntity
  8
0
  6
Continuous
 62
     7
370
    25
100
AcDbLine
 10
73.2232621118
 20
56.0354979182
 30
0.0
 11
73.2232621118
 21
37.4133763975
 31
0.0
  0
LINE
  5
B3
330
1F
100
AcDbEntity
  8
0
  6
Continuous
 62
     7
370
    25
100
AcDbLine
 10
73.2232621118
 20
56.9133763975
 30
0.0
 11
73.2232621118
 21
56.0354979182
 31
0.0
  0
SPLINE
  5
B4
330
1F
100
AcDbEntity
  8
0
  6
Continuous
 62
     7
370
    25
100
AcDbSpline
210
0.0
220
0.0
230
1.0
 70
     8
 71
     3
 72
    22
 73
    18
 74
     0
 42
0.00000001
 43
0.00000001
 40
0.0
 40
0.0
 40
0.0
 40
0.0
 40
0.2500000000000008
 40
0.2500000000000008
 40
0.3750000000000012
 40
0.3750000000000012
 40
0.4375000000000006
 40
0.4375000000000006
 40
0.5
 40
0.5
 40
0.5624999999999994
 40
0.5624999999999994
 40
0.6249999999999988
 40
0.6249999999999988
 40
0.7499999999999992
 40
0.7499999999999992
 40
1.0
 40
1.0
 40
1.0
 40
1.0
 10
61.05393046929787
 20
36.16337639751553
 30
0.0
 10
61.12346761853522
 20
35.988694873932
 30
0.0
 10
61.20089272670857
 20
35.81593167458907
 30
0.0
 10
61.35031348182149
 20
35.57841461431416
 30
0.0
 10
61.40573642980766
 20
35.50212522074842
 30
0.0
 10
61.50935500631872
 20
35.40524918719543
 30
0.0
 10
61.54717514429313
 20
35.37636023658257
 30
0.0
 10
61.63188517219254
 20
35.33371727866058
 30
0.0
 10
61.67878985097373
 20
35.32091230557252
 30
0.0
 10
61.77311547507131
 20
35.32186774241167
 30
0.0
 10
61.82005152660549
 20
35.33570259033992
 30
0.0
 10
61.90390063934937
 20
35.37948421832001
 30
0.0
 10
61.941271098336
 20
35.4086196164255
 30
0.0
 10
62.044042794315
 20
35.50617977393827
 30
0.0
 10
62.09862511613903
 20
35.58183638380638
 30
0.0
 10
62.24765971451577
 20
35.8200172615717
 30
0.0
 10
62.32397533147819
 20
35.99100277022868
 30
0.0
 10
62.39259375430466
 20
36.16337639751551
 30
0.0
  0
LINE
  5
B5
330
1F
100
AcDbEntity
  8
0
  6
Continuous
 62
     7
370
    25
100
AcDbLine
 10
61.0539304693
 20
36.1633763975
 30
0.0
 11
57.1044599583
 21
36.1633763975
 31
0.0
  0
LINE
  5
B6
330
1F
100
AcDbEntity
  8
0
  6
Continuous
 62
     7
370
    25
100
AcDbLine
 10
57.1044599583
 20
39.1969798577
 30
0.0
 11
57.1044599583
 21
36.1633763975
 31
0.0
  0
SPLINE
  5
B7
330
1F
100
AcDbEntity
  8
0
  6
Continuous
 62
     7
370
    25
100
AcDbSpline
210
0.0
220
0.0
230
1.0
 70
     8
 71
     3
 72
     8
 73
     4
 74
     0
 42
0.00000001
 43
0.00000001
 40
0.0
 40
0.0
 40
0.0
 40
0.0
 40
1.0
 40
1.0
 40
1.0
 40
1.0
 10
57.10445995828421
 20
39.19697985766053
 30
0.0
 10
57.30964578082751
 20
39.25354082478475
 30
0.0
 10
57.51586898153482
 20
39.30748089619858
 30
0.0
 10
57.72326211180125
 20
39.35846518594155
 30
0.0
  0
LINE
  5
B8
330
1F
100
AcDbEntity
  8
0
  6
Continuous
 62
     7
370
    25
100
AcDbLine
 10
57.7232621118
 20
39.3584651859
 30
0.0
 11
57.7232621118
 21
43.1633763975
 31
0.0
  0
SPLINE
  5
B9
330
1F
100
AcDbEntity
  8
0
  6
Continuous
 62
     7
370
    25
100
AcDbSpline
210
0.0
220
0.0
230
1.0
 70
     8
 71
     3
 72
     8
 73
     4
 74
     0
 42
0.00000001
 43
0.00000001
 40
0.0
 40
0.0
 40
0.0
 40
0.0
 40
1.0
 40
1.0
 40
1.0
 40
1.0
 10
55.04554070654107
 20
42.54457424399849
 30
0.0
 10
55.1021040760093
 20
42.74976878150825
 30
0.0
 10
55.15604399883054
 20
42.95599243502541
 30
0.0
 10
55.20702603482207
 20
43.16337639751552
 30
0.0
  0
LINE
  5
BA
330
1F
100
AcDbEntity
  8
0
  6
Continuous
 62
     7
370
    25
100
AcDbLine
 10
50.9009835171
 20
42.544574244
 30
0.0
 11
55.0455407065
 21
42.544574244
 31
0.0
  0
SPLINE
  5
BB
330
1F
100
AcDbEntity
  8
0
  6
Continuous
 62
     7
370
    25
100
AcDbSpline
210
0.0
220
0.0
230
1.0
 70
     8
 71
     3
 72
    10
 73
     6
 74
     0
 42
0.00000001
 43
0.00000001
 40
0.0
 40
0.0
 40
0.0
 40
0.0
 40
0.5
 40
0.5
 40
1.0
 40
1.0
 40
1.0
 40
1.0
 10
50.90098351706143
 20
42.54457424399853
 30
0.0
 10
50.69217817783755
 20
43.30205590420407
 30
0.0
 10
50.52163133367839
 20
44.06452345264754
 30
0.0
 10
50.28684900629657
 20
45.60298758698691
 30
0.0
 10
50.22326211180124
 20
46.37911026542947
 30
0.0
 10
50.22326211180124
 20
47.16337639751553
 30
0.0
  0
SPLINE
  5
BC
330
1F
100
AcDbEntity
  8
0
  6
Continuous
 62
     7
370
    25
100
AcDbSpline
210
0.0
220
0.0
230
1.0
 70
     8
 71
     3
 72
    12
 73
     8
 74
     0
 42
0.00000001
 43
0.00000001
 40
0.0
 40
0.0
 40
0.0
 40
0.0
 40
0.25
 40
0.25
 40
0.5
 40
0.5
 40
1.0
 40
1.0
 40
1.0
 40
1.0
 10
50.22326211180124
 20
47.16337639751553
 30
0.0
 10
50.22326211180124
 20
47.55504832389046
 30
0.0
 10
50.23916791746942
 20
47.94995121541206
 30
0.0
 10
50.30101278836184
 20
48.73088724565935
 30
0.0
 10
50.34682612922804
 20
49.11829537759063
 30
0.0
 10
50.5236593031304
 20
50.2724250042506
 30
0.0
 10
50.69393756663404
 20
51.03107941318713
 30
0.0
 10
50.90098351706143
 20
51.78217855103254
 30
0.0
  0
LINE
  5
BD
330
1F
100
AcDbEntity
  8
0
  6
Continuous
 62
     7
370
    25
100
AcDbLine
 10
55.0455407065
 20
51.782178551
 30
0.0
 11
50.9009835171
 21
51.782178551
 31
0.0
  0
SPLINE
  5
BE
330
1F
100
AcDbEntity
  8
0
  6
Continuous
 62
     7
370
    25
100
AcDbSpline
210
0.0
220
0.0
230
1.0
 70
     8
 71
     3
 72
     8
 73
     4
 74
     0
 42
0.00000001
 43
0.00000001
 40
0.0
 40
0.0
 40
0.0
 40
0.0
 40
1.0
 40
1.0
 40
1.0
 40
1.0
 10
55.20702603482207
 20
51.16337639751553
 30
0.0
 10
55.15612731789955
 20
51.37042143594452
 30
0.0
 10
55.10219318164879
 20
51.57666076562116
 30
0.0
 10
55.04554070654105
 20
51.78217855103254
 30
0.0
  0
LINE
  5
BF
330
1F
100
AcDbEntity
  8
0
  6
Continuous
 62
     7
370
    25
100
AcDbLine
 10
68.2394981888
 20
51.1633763975
 30
0.0
 11
55.2070260348
 21
51.1633763975
 31
0.0
  0
SPLINE
  5
C0
330
1F
100
AcDbEntity
  8
0
  6
Continuous
 62
     7
370
    25
100
AcDbSpline
210
0.0
220
0.0
230
1.0
 70
     8
 71
     3
 72
     8
 73
     4
 74
     0
 42
0.00000001
 43
0.00000001
 40
0.0
 40
0.0
 40
0.0
 40
0.0
 40
1.0
 40
1.0
 40
1.0
 40
1.0
 10
68.23949818878043
 20
51.1633763975156
 30
0.0
 10
68.2903944220355
 20
51.37041133291935
 30
0.0
 10
68.34432837699916
 20
51.57665109798435
 30
0.0
 10
68.40098351706143
 20
51.78217855103255
 30
0.0
  0
LINE
  5
C1
330
1F
100
AcDbEntity
  8
0
  6
Continuous
 62
     7
370
    25
100
AcDbLine
 10
72.5455407065
 20
51.782178551
 30
0.0
 11
68.4009835171
 21
51.782178551
 31
0.0
  0
SPLINE
  5
C2
330
1F
100
AcDbEntity
  8
0
  6
Continuous
 62
     7
370
    25
100
AcDbSpline
210
0.0
220
0.0
230
1.0
 70
     8
 71
     3
 72
    12
 73
     8
 74
     0
 42
0.00000001
 43
0.00000001
 40
0.0
 40
0.0
 40
0.0
 40
0.0
 40
0.25
 40
0.25
 40
0.5
 40
0.5
 40
1.0
 40
1.0
 40
1.0
 40
1.0
 10
73.22326211180125
 20
47.16337639751553
 30
0.0
 10
73.22326211180125
 20
47.55504832389046
 30
0.0
 10
73.20735630613306
 20
47.94995121541206
 30
0.0
 10
73.14551143524065
 20
48.73088724565935
 30
0.0
 10
73.09969809437445
 20
49.11829537759063
 30
0.0
 10
72.92286492047208
 20
50.27242500425061
 30
0.0
 10
72.75258665696845
 20
51.03107941318714
 30
0.0
 10
72.54554070654105
 20
51.78217855103254
 30
0.0
  0
SPLINE
  5
C3
330
1F
100
AcDbEntity
  8
0
  6
Continuous
 62
     7
370
    25
100
AcDbSpline
210
0.0
220
0.0
230
1.0
 70
     8
 71
     3
 72
    10
 73
     6
 74
     0
 42
0.00000001
 43
0.00000001
 40
0.0
 40
0.0
 40
0.0
 40
0.0
 40
0.5
 40
0.5
 40
1.0
 40
1.0
 40
1.0
 40
1.0
 10
72.54554070654105
 20
42.54457424399853
 30
0.0
 10
72.75434604576493
 20
43.30205590420407
 30
0.0
 10
72.9248928899241
 20
44.06452345264754
 30
0.0
 10
73.15967521730592
 20
45.60298758698691
 30
0.0
 10
73.22326211180125
 20
46.37911026542947
 30
0.0
 10
73.22326211180125
 20
47.16337639751553
 30
0.0
  0
LINE
  5
C4
330
1F
100
AcDbEntity
  8
0
  6
Continuous
 62
     7
370
    25
100
AcDbLine
 10
68.4009835171
 20
42.544574244
 30
0.0
 11
72.5455407065
 21
42.544574244
 31
0.0
  0
SPLINE
  5
C5
330
1F
100
AcDbEntity
  8
0
  6
Continuous
 62
     7
370
    25
100
AcDbSpline
210
0.0
220
0.0
230
1.0
 70
     8
 71
     3
 72
     8
 73
     4
 74
     0
 42
0.00000001
 43
0.00000001
 40
0.0
 40
0.0
 40
0.0
 40
0.0
 40
1.0
 40
1.0
 40
1.0
 40
1.0
 10
68.40098351706142
 20
42.5445742439985
 30
0.0
 10
68.34442167362448
 20
42.74976324553531
 30
0.0
 10
68.2904816563681
 20
42.95598661160001
 30
0.0
 10
68.23949818878043
 20
43.16337639751547
 30
0.0
  0
LINE
  5
C6
330
1F
100
AcDbEntity
  8
0
  6
Continuous
 62
     7
370
    25
100
AcDbLine
 10
68.2394981888
 20
43.1633763975
 30
0.0
 11
65.7232621118
 21
43.1633763975
 31
0.0
  0
LINE
  5
C7
330
1F
100
AcDbEntity
  8
0
  6
Continuous
 62
     7
370
    25
100
AcDbLine
 10
65.7232621118
 20
39.3584651859
 30
0.0
 11
65.7232621118
 21
43.1633763975
 31
0.0
  0
SPLINE
  5
C8
330
1F
100
AcDbEntity
  8
0
  6
Continuous
 62
     7
370
    25
100
AcDbSpline
210
0.0
220
0.0
230
1.0
 70
     8
 71
     3
 72
     8
 73
     4
 74
     0
 42
0.00000001
 43
0.00000001
 40
0.0
 40
0.0
 40
0.0
 40
0.0
 40
1.0
 40
1.0
 40
1.0
 40
1.0
 10
65.72326211180123
 20
39.35846518594155
 30
0.0
 10
65.93029117513663
 20
39.30757039624072
 30
0.0
 10
66.13653119240598
 20
39.25363654687929
 30
0.0
 10
66.34206426531824
 20
39.19697985766052
 30
0.0
  0
LINE
  5
C9
330
1F
100
AcDbEntity
  8
0
  6
Continuous
 62
     7
370
    25
100
AcDbLine
 10
66.3420642653
 20
36.1633763975
 30
0.0
 11
66.3420642653
 21
39.1969798577
 31
0.0
  0
LINE
  5
CA
330
1F
100
AcDbEntity
  8
0
  6
Continuous
 62
     7
370
    25
100
AcDbLine
 10
66.3420642653
 20
36.1633763975
 30
0.0
 11
62.3925937543
 21
36.1633763975
 31
0.0
  0
LINE
  5
CB
330
1F
100
AcDbEntity
  8
0
  6
Continuous
 62
     7
370
    25
100
AcDbLine
 10
60.8215031978
 20
45.7410033799
 30
0.0
 11
60.7798528785
 21
45.7171984501
 31
0.0
  0
ELLIPSE
  5
CC
330
1F
100
AcDbEntity
  8
0
  6
Continuous
 62
     7
370
    25
100
AcDbEllipse
 10
60.431009699
 20
46.2718809213
 30
0.0
 11
0.678412947925267
 21
6.110667527536863E-13
 31
0.0
210
0.0
220
0.0
230
1.0
 40
0.9533039403
 41
3.470145824140272
 42
5.252469180536294
  0
LINE
  5
CD
330
1F
100
AcDbEntity
  8
0
  6
Continuous
 62
     7
370
    25
100
AcDbLine
 10
59.788884932
 20
46.0631968063
 30
0.0
 11
58.5292307271
 21
49.585641203
 31
0.0
  0
ELLIPSE
  5
CE
330
1F
100
AcDbEntity
  8
0
  6
Continuous
 62
     7
370
    25
100
AcDbEllipse
 10
57.9382481691
 20
49.3233019669
 30
0.0
 11
0.6519124952381574
 21
6.110667527536862E-13
 31
0.0
210
0.0
220
0.0
230
1.0
 40
0.9533023292
 41
0.4357905044354907
 42
2.705800116361506
  0
LINE
  5
CF
330
1F
100
AcDbEntity
  8
0
  6
Continuous
 62
     7
370
    25
100
AcDbLine
 10
57.3472661706
 20
49.5856423482
 30
0.0
 11
56.087901369
 21
46.0640189465
 31
0.0
  0
ELLIPSE
  5
D0
330
1F
100
AcDbEntity
  8
0
  6
Continuous
 62
     7
370
    25
100
AcDbEllipse
 10
55.445780185
 20
46.2727017802
 30
0.0
 11
-0.6784085062757867
 21
3.268496584496461E-13
 31
0.0
210
0.0
220
0.0
230
1.0
 40
0.9533122623
 41
1.047193771187958
 42
2.813042320199935
  0
LINE
  5
D1
330
1F
100
AcDbEntity
  8
0
  6
Continuous
 62
     7
370
    25
100
AcDbLine
 10
55.106573711
 20
45.7126139349
 30
0.0
 11
55.0549931405
 21
45.7410033799
 31
0.0
  0
LINE
  5
D2
330
1F
100
AcDbEntity
  8
0
  6
Continuous
 62
     7
370
    25
100
AcDbLine
 10
55.0549931405
 20
45.7410033799
 30
0.0
 11
55.8512618
 21
44.2228312785
 31
0.0
  0
ELLIPSE
  5
D3
330
1F
100
AcDbEntity
  8
0
  6
Continuous
 62
     7
370
    25
100
AcDbEllipse
 10
55.9271106734
 20
44.2589847935
 30
0.0
 11
0.08480161849065837
 21
-2.131628207280301E-14
 31
0.0
210
0.0
220
0.0
230
1.0
 40
0.9533039403
 41
3.605240262590937
 42
5.462183310215314
  0
ELLIPSE
  5
D4
330
1F
100
AcDbEntity
  8
0
  6
Continuous
 62
     7
370
    25
100
AcDbEllipse
 10
57.9382481691
 20
42.2001361729
 30
0.0
 11
2.866293551216209
 21
-1.485034317738610E-12
 31
0.0
210
0.0
220
0.0
230
1.0
 40
0.9533046568
 41
0.8210016221243785
 42
2.320591031466436
  0
ELLIPSE
  5
D5
330
1F
100
AcDbEntity
  8
0
  6
Continuous
 62
     7
370
    25
100
AcDbEllipse
 10
59.9493856649
 20
44.2589847935
 30
0.0
 11
0.08480161849060863
 21
0.0
 31
0.0
210
0.0
220
0.0
230
1.0
 40
0.9533039403
 41
3.962594650556406
 42
5.81953769817725
  0
LINE
  5
D6
330
1F
100
AcDbEntity
  8
0
  6
Continuous
 62
     7
370
    25
100
AcDbLine
 10
60.0252345383
 20
44.2228312785
 30
0.0
 11
60.8215031978
 21
45.7410033799
 31
0.0
  0
ARC
  5
D7
330
1F
100
AcDbEntity
  8
0
  6
Continuous
 62
     7
370
    25
100
AcDbCircle
 10
66.6161380639
 20
46.5864574042
 30
0.0
 40
0.8889999999999868
100
AcDbArc
 50
45.0
 51
159.0751675724
  0
LINE
  5
D8
330
1F
100
AcDbEntity
  8
0
  6
Continuous
 62
     7
370
    25
100
AcDbLine
 10
67.2447559924
 20
47.2150753327
 30
0.0
 11
67.711366378
 21
47.6816857183
 31
0.0
  0
ARC
  5
D9
330
1F
100
AcDbEntity
  8
0
  6
Continuous
 62
     7
370
    25
100
AcDbCircle
 10
66.6161380639
 20
46.5864574042
 30
0.0
 40
1.548886735692384
100
AcDbArc
 50
45.0
 51
315.0
  0
LINE
  5
DA
330
1F
100
AcDbEntity
  8
0
  6
Continuous
 62
     7
370
    25
100
AcDbLine
 10
67.711366378
 20
45.4912290901
 30
0.0
 11
67.2447559924
 21
45.9578394757
 31
0.0
  0
ARC
  5
DB
330
1F
100
AcDbEntity
  8
0
  6
Continuous
 62
     7
370
    25
100
AcDbCircle
 10
66.6161380639
 20
46.5864574042
 30
0.0
 40
0.8890000000000007
100
AcDbArc
 50
200.9248324276
 51
315.0
  0
LINE
  5
DC
330
1F
100
AcDbEntity
  8
0
  6
Continuous
 62
     7
370
    25
100
AcDbLine
 10
65.7857678151
 20
46.2689574042
 30
0.0
 11
67.711366378
 21
46.2689574042
 31
0.0
  0
LINE
  5
DD
330
1F
100
AcDbEntity
  8
0
  6
Continuous
 62
     7
370
    25
100
AcDbLine
 10
67.711366378
 20
46.2689574042
 30
0.0
 11
67.711366378
 21
46.9039574042
 31
0.0
  0
LINE
  5
DE
330
1F
100
AcDbEntity
  8
0
  6
Continuous
 62
     7
370
    25
100
AcDbLine
 10
67.711366378
 20
46.9039574042
 30
0.0
 11
65.7857678151
 21
46.9039574042
 31
0.0
  0
ARC
  5
DF
330
1F
100
AcDbEntity
  8
0
  6
Continuous
 62
     7
370
    25
100
AcDbCircle
 10
63.2739934675
 20
46.5864574042
 30
0.0
 40
0.8890000000000019
100
AcDbArc
 50
45.0
 51
315.0
  0
LINE
  5
E0
330
1F
100
AcDbEntity
  8
0
  6
Continuous
 62
     7
370
    25
100
AcDbLine
 10
63.902611396
 20
47.2150753327
 30
0.0
 11
64.3692217816
 21
47.6816857183
 31
0.0
  0
ARC
  5
E1
330
1F
100
AcDbEntity
  8
0
  6
Continuous
 62
     7
370
    25
100
AcDbCircle
 10
63.2739934675
 20
46.5864574042
 30
0.0
 40
1.548886735692404
100
AcDbArc
 50
45.0
 51
315.0
  0
LINE
  5
E2
330
1F
100
AcDbEntity
  8
0
  6
Continuous
 62
     7
370
    25
100
AcDbLine
 10
64.3692217816
 20
45.4912290901
 30
0.0
 11
63.902611396
 21
45.9578394757
 31
0.0
  0
LINE
  5
E3
330
1F
100
AcDbEntity
  8
0
  6
Continuous
 62
     7
370
    25
100
AcDbLine
 10
57.7232621118
 20
43.1633763975
 30
0.0
 11
55.2070260348
 21
43.1633763975
 31
0.0
  0
LINE
  5
E4
330
1F
100
AcDbEntity
  8
0
  6
Continuous
 62
     7
370
    25
100
AcDbLine
 10
55.7232621118
 20
54.5245923297
 30
0.0
 11
55.7232621118
 21
51.1633763975
 31
0.0
  0
SPLINE
  5
E5
330
1F
100
AcDbEntity
  8
0
  6
Continuous
 62
     7
370
    25
100
AcDbSpline
210
0.0
220
0.0
230
1.0
 70
     8
 71
     3
 72
    10
 73
     6
 74
     0
 42
0.00000001
 43
0.00000001
 40
0.0
 40
0.0
 40
0.0
 40
0.0
 40
0.5
 40
0.5
 40
1.0
 40
1.0
 40
1.0
 40
1.0
 10
55.04554070654105
 20
52.21519125292476
 30
0.0
 10
55.02186531211667
 20
52.17224772202353
 30
0.0
 10
55.00877420223203
 20
52.10880527739941
 30
0.0
 10
55.00868788094374
 20
51.95632644028044
 30
0.0
 10
55.02185681488758
 20
51.86809643817317
 30
0.0
 10
55.04554070654105
 20
51.78217855103254
 30
0.0
  0
SPLINE
  5
E6
330
1F
100
AcDbEntity
  8
0
  6
Continuous
 62
     7
370
    25
100
AcDbSpline
210
0.0
220
0.0
230
1.0
 70
     8
 71
     3
 72
    12
 73
     8
 74
     0
 42
0.00000001
 43
0.00000001
 40
0.0
 40
0.0
 40
0.0
 40
0.0
 40
0.2500000000000001
 40
0.2500000000000001
 40
0.5000000000000002
 40
0.5000000000000002
 40
1.0
 40
1.0
 40
1.0
 40
1.0
 10
55.72326211180125
 20
54.52459232968327
 30
0.0
 10
55.72326211180125
 20
54.32885006680375
 30
0.0
 10
55.7074191757123
 20
54.13218345761318
 30
0.0
 10
55.64591631547462
 20
53.74291523028491
 30
0.0
 10
55.60031267443093
 20
53.54951119733199
 30
0.0
 10
55.42386165694172
 20
52.97258214607523
 30
0.0
 10
55.25346428968986
 20
52.59233271287222
 30
0.0
 10
55.04554070654105
 20
52.21519125292476
 30
0.0
  0
SPLINE
  5
E7
330
1F
100
AcDbEntity
  8
0
  6
Continuous
 62
     7
370
    25
100
AcDbSpline
210
0.0
220
0.0
230
1.0
 70
     8
 71
     3
 72
     8
 73
     4
 74
     0
 42
0.00000001
 43
0.00000001
 40
0.0
 40
0.0
 40
0.0
 40
0.0
 40
1.0
 40
1.0
 40
1.0
 40
1.0
 10
67.84464560329741
 20
40.75325486419029
 30
0.0
 10
67.80353032765613
 20
40.88928525867984
 30
0.0
 10
67.76304134478829
 20
41.02598932331728
 30
0.0
 10
67.72326211180125
 20
41.16337639751553
 30
0.0
  0
LINE
  5
E8
330
1F
100
AcDbEntity
  8
0
  6
Continuous
 62
     7
370
    25
100
AcDbLine
 10
67.7232621118
 20
43.1633763975
 30
0.0
 11
67.7232621118
 21
41.1633763975
 31
0.0
  0
SPLINE
  5
E9
330
1F
100
AcDbEntity
  8
0
  6
Continuous
 62
     7
370
    25
100
AcDbSpline
210
0.0
220
0.0
230
1.0
 70
     8
 71
     3
 72
    10
 73
     6
 74
     0
 42
0.00000001
 43
0.00000001
 40
0.0
 40
0.0
 40
0.0
 40
0.0
 40
0.5
 40
0.5
 40
1.0
 40
1.0
 40
1.0
 40
1.0
 10
68.40098351705818
 20
42.11156154210631
 30
0.0
 10
68.42465891148251
 20
42.15450507300746
 30
0.0
 10
68.43775002137042
 20
42.21794751763126
 30
0.0
 10
68.43783634265878
 20
42.37042635475034
 30
0.0
 10
68.42466740871494
 20
42.45865635685777
 30
0.0
 10
68.40098351706143
 20
42.54457424399851
 30
0.0
  0
SPLINE
  5
EA
330
1F
100
AcDbEntity
  8
0
  6
Continuous
 62
     7
370
    25
100
AcDbSpline
210
0.0
220
0.0
230
1.0
 70
     8
 71
     3
 72
     8
 73
     4
 74
     0
 42
0.00000001
 43
0.00000001
 40
0.0
 40
0.0
 40
0.0
 40
0.0
 40
1.0
 40
1.0
 40
1.0
 40
1.0
 10
67.84464560329741
 20
40.75325486419029
 30
0.0
 10
67.96027821332646
 20
41.21180579624804
 30
0.0
 10
68.15416761814689
 20
41.6638753920063
 30
0.0
 10
68.40098351706129
 20
42.11156154210605
 30
0.0
  0
SPLINE
  5
EB
330
1F
100
AcDbEntity
  8
0
  6
Continuous
 62
     7
370
    25
100
AcDbSpline
210
0.0
220
0.0
230
1.0
 70
     8
 71
     3
 72
    10
 73
     6
 74
     0
 42
0.00000001
 43
0.00000001
 40
0.0
 40
0.0
 40
0.0
 40
0.0
 40
0.5
 40
0.5
 40
1.0
 40
1.0
 40
1.0
 40
1.0
 10
72.54554070654152
 20
42.11156154210634
 30
0.0
 10
72.75435063120777
 20
41.73281239471505
 30
0.0
 10
72.92488477095503
 20
41.35160711830374
 30
0.0
 10
73.15967057597395
 20
40.58237649711597
 30
0.0
 10
73.22326211180125
 20
40.19430879231764
 30
0.0
 10
73.22326211180125
 20
39.8021604653478
 30
0.0
  0
SPLINE
  5
EC
330
1F
100
AcDbEntity
  8
0
  6
Continuous
 62
     7
370
    25
100
AcDbSpline
210
0.0
220
0.0
230
1.0
 70
     8
 71
     3
 72
    10
 73
     6
 74
     0
 42
0.00000001
 43
0.00000001
 40
0.0
 40
0.0
 40
0.0
 40
0.0
 40
0.5
 40
0.5
 40
1.0
 40
1.0
 40
1.0
 40
1.0
 10
72.54554070654105
 20
42.11156154210631
 30
0.0
 10
72.5218684666295
 20
42.15449935120554
 30
0.0
 10
72.50877447669424
 20
42.21793994109773
 30
0.0
 10
72.5086876092328
 20
42.37042908660658
 30
0.0
 10
72.52185739899214
 20
42.4586584758099
 30
0.0
 10
72.54554070654105
 20
42.54457424399853
 30
0.0
  0
SPLINE
  5
ED
330
1F
100
AcDbEntity
  8
0
  6
Continuous
 62
     7
370
    25
100
AcDbSpline
210
0.0
220
0.0
230
1.0
 70
     8
 71
     3
 72
    10
 73
     6
 74
     0
 42
0.00000001
 43
0.00000001
 40
0.0
 40
0.0
 40
0.0
 40
0.0
 40
0.5
 40
0.5
 40
1.0
 40
1.0
 40
1.0
 40
1.0
 10
56.67144725639202
 20
39.19697985766053
 30
0.0
 10
56.71439078729325
 20
39.17330446323614
 30
0.0
 10
56.77783323191737
 20
39.1602133533515
 30
0.0
 10
56.93031206903633
 20
39.16012703206322
 30
0.0
 10
57.01854207114361
 20
39.17329596600705
 30
0.0
 10
57.10445995828422
 20
39.19697985766052
 30
0.0
  0
LINE
  5
EE
330
1F
100
AcDbEntity
  8
0
  6
Continuous
 62
     7
370
    25
100
AcDbLine
 10
56.6714472564
 20
36.1633763975
 30
0.0
 11
57.1044599583
 21
36.1633763975
 31
0.0
  0
LINE
  5
EF
330
1F
100
AcDbEntity
  8
0
  6
Continuous
 62
     7
370
    25
100
AcDbLine
 10
56.6714472564
 20
36.1633763975
 30
0.0
 11
56.6714472564
 21
39.1969798577
 31
0.0
  0
SPLINE
  5
F0
330
1F
100
AcDbEntity
  8
0
  6
Continuous
 62
     7
370
    25
100
AcDbSpline
210
0.0
220
0.0
230
1.0
 70
     8
 71
     3
 72
    10
 73
     6
 74
     0
 42
0.00000001
 43
0.00000001
 40
0.0
 40
0.0
 40
0.0
 40
0.0
 40
0.5
 40
0.5
 40
1.0
 40
1.0
 40
1.0
 40
1.0
 10
72.54554070654105
 20
51.78217855103254
 30
0.0
 10
72.5218668059851
 20
51.86806019353899
 30
0.0
 10
72.50877424880596
 20
51.95546939950442
 30
0.0
 10
72.50868783482369
 20
52.10811188457936
 30
0.0
 10
72.5218582264223
 20
52.17223486966173
 30
0.0
 10
72.54554070654105
 20
52.21519125292476
 30
0.0
  0
SPLINE
  5
F1
330
1F
100
AcDbEntity
  8
0
  6
Continuous
 62
     7
370
    25
100
AcDbSpline
210
0.0
220
0.0
230
1.0
 70
     8
 71
     3
 72
    12
 73
     8
 74
     0
 42
0.00000001
 43
0.00000001
 40
0.0
 40
0.0
 40
0.0
 40
0.0
 40
0.2500000000000001
 40
0.2500000000000001
 40
0.5000000000000002
 40
0.5000000000000002
 40
1.0
 40
1.0
 40
1.0
 40
1.0
 10
73.22326211180125
 20
54.52459232968327
 30
0.0
 10
73.22326211180123
 20
54.32958884967746
 30
0.0
 10
73.20751578177928
 20
54.13305419065306
 30
0.0
 10
73.14607075719385
 20
53.74363450304751
 30
0.0
 10
73.10048199794012
 20
53.55014980998725
 30
0.0
 10
72.92403099568352
 20
52.97296621123164
 30
0.0
 10
72.75357329372004
 20
52.59253042944869
 30
0.0
 10
72.54554070654119
 20
52.21519125292475
 30
0.0
  0
LINE
  5
F2
330
1F
100
AcDbEntity
  8
0
  6
Continuous
 62
     7
370
    25
100
AcDbLine
 10
53.5225861172
 20
25.7430082235
 30
0.0
 11
69.9239381064
 21
25.7430082235
 31
0.0
  0
SPLINE
  5
F3
330
1F
100
AcDbEntity
  8
0
  6
Continuous
 62
     7
370
    25
100
AcDbSpline
210
0.0
220
0.0
230
1.0
 70
     8
 71
     3
 72
    22
 73
    18
 74
     0
 42
0.00000001
 43
0.00000001
 40
0.0
 40
0.0
 40
0.0
 40
0.0
 40
0.249999999999998
 40
0.249999999999998
 40
0.3749999999999984
 40
0.3749999999999984
 40
0.4374999999999986
 40
0.4374999999999986
 40
0.4999999999999988
 40
0.4999999999999988
 40
0.5624999999999989
 40
0.5624999999999989
 40
0.6249999999999991
 40
0.6249999999999991
 40
0.7499999999999996
 40
0.7499999999999996
 40
1.0
 40
1.0
 40
1.0
 40
1.0
 10
54.69671200088521
 20
36.16337639751552
 30
0.0
 10
54.66197782550776
 20
35.98886769987993
 30
0.0
 10
54.62338537398897
 20
35.81652924298003
 30
0.0
 10
54.54865642894329
 20
35.57879380967294
 30
0.0
 10
54.52071350764963
 20
35.5020112402909
 30
0.0
 10
54.46923493098318
 20
35.40565684378132
 30
0.0
 10
54.4503792048762
 20
35.37688324331923
 30
0.0
 10
54.40890261127139
 20
35.33466967829026
 30
0.0
 10
54.38552399964625
 20
35.3212965803278
 30
0.0
 10
54.338118989244
 20
35.32145697492435
 30
0.0
 10
54.31470019388085
 20
35.33496166704376
 30
0.0
 10
54.27287118441258
 20
35.37795310978123
 30
0.0
 10
54.25395396924192
 20
35.40713774595199
 30
0.0
 10
54.20267199806238
 20
35.50377039641867
 30
0.0
 10
54.17485565578895
 20
35.58043164191481
 30
0.0
 10
54.10017597957017
 20
35.81864208194867
 30
0.0
 10
54.06203890143868
 20
35.98924768580427
 30
0.0
 10
54.0273803583817
 20
36.16337639751539
 30
0.0
  0
SPLINE
  5
F4
330
1F
100
AcDbEntity
  8
0
  6
Continuous
 62
     7
370
    25
100
AcDbSpline
210
0.0
220
0.0
230
1.0
 70
     8
 71
     3
 72
    22
 73
    18
 74
     0
 42
0.00000001
 43
0.00000001
 40
0.0
 40
0.0
 40
0.0
 40
0.0
 40
0.2500000000000014
 40
0.2500000000000014
 40
0.3750000000000015
 40
0.3750000000000015
 40
0.4375000000000009
 40
0.4375000000000009
 40
0.5000000000000003
 40
0.5000000000000003
 40
0.5624999999999998
 40
0.5624999999999998
 40
0.6249999999999992
 40
0.6249999999999992
 40
0.7499999999999989
 40
0.7499999999999989
 40
1.0
 40
1.0
 40
1.0
 40
1.0
 10
69.41914386522066
 20
36.16337639751553
 30
0.0
 10
69.38440968984321
 20
35.98886769987989
 30
0.0
 10
69.3458172383244
 20
35.81652924297995
 30
0.0
 10
69.2710882932787
 20
35.57879380967284
 30
0.0
 10
69.24314537198504
 20
35.50201124029078
 30
0.0
 10
69.19166679531854
 20
35.4056568437812
 30
0.0
 10
69.17281106921156
 20
35.37688324331907
 30
0.0
 10
69.13133447560669
 20
35.33466967829011
 30
0.0
 10
69.10795586398154
 20
35.32129658032774
 30
0.0
 10
69.06055085357924
 20
35.32145697492443
 30
0.0
 10
69.03713205821614
 20
35.33496166704386
 30
0.0
 10
68.99530304874791
 20
35.37795310978138
 30
0.0
 10
68.97638583357723
 20
35.40713774595218
 30
0.0
 10
68.92510386239775
 20
35.50377039641886
 30
0.0
 10
68.8972875201243
 20
35.5804316419151
 30
0.0
 10
68.8226078439056
 20
35.81864208194882
 30
0.0
 10
68.78447076577415
 20
35.98924768580434
 30
0.0
 10
68.74981222271715
 20
36.16337639751541
 30
0.0
  0
ELLIPSE
  5
F5
330
1F
100
AcDbEntity
  8
0
  6
Continuous
 62
     7
370
    25
100
AcDbEllipse
 10
57.6695011053
 20
46.6697862581
 30
0.0
 11
0.08480161849065837
 21
-1.421085471520200E-14
 31
0.0
210
0.0
220
0.0
230
1.0
 40
0.9533039403
 41
2.798568711308441
 42
4.712388980384862
  0
LINE
  5
F6
330
1F
100
AcDbEntity
  8
0
  6
Continuous
 62
     7
370
    25
100
AcDbLine
 10
57.8933140482
 20
47.507558887
 30
0.0
 11
57.589639867
 21
46.6969762701
 31
0.0
  0
ELLIPSE
  5
F7
330
1F
100
AcDbEntity
  8
0
  6
Continuous
 62
     7
370
    25
100
AcDbEllipse
 10
57.9731752865
 20
47.4803688751
 30
0.0
 11
0.08480161849065837
 21
7.105427357601002E-15
 31
0.0
210
0.0
220
0.0
230
1.0
 40
0.9533039403
 41
0.3430239404206329
 42
2.798568713169042
  0
LINE
  5
F8
330
1F
100
AcDbEntity
  8
0
  6
Continuous
 62
     7
370
    25
100
AcDbLine
 10
57.6695011053
 20
46.588944541
 30
0.0
 11
58.2768494641
 21
46.588944541
 31
0.0
  0
LINE
  5
F9
330
1F
100
AcDbEntity
  8
0
  6
Continuous
 62
     7
370
    25
100
AcDbLine
 10
58.3567107024
 20
46.6969762698
 30
0.0
 11
58.0530365248
 21
47.507558887
 31
0.0
  0
ELLIPSE
  5
FA
330
1F
100
AcDbEntity
  8
0
  6
Continuous
 62
     7
370
    25
100
AcDbEllipse
 10
58.2768494641
 20
46.6697862581
 30
0.0
 11
-0.08480161849066548
 21
-3.552713678800501E-14
 31
0.0
210
0.0
220
0.0
230
1.0
 40
0.9533039403
 41
1.570796326794497
 42
3.484616592149369
  0
SPLINE
  5
FB
330
1F
100
AcDbEntity
  8
0
  6
Continuous
 62
     7
370
    25
100
AcDbSpline
210
0.0
220
0.0
230
1.0
 70
     8
 71
     3
 72
    10
 73
     6
 74
     0
 42
0.00000001
 43
0.00000001
 40
0.0
 40
0.0
 40
0.0
 40
0.0
 40
0.5
 40
0.5
 40
1.0
 40
1.0
 40
1.0
 40
1.0
 10
50.90098351706096
 20
42.11156154210633
 30
0.0
 10
50.69217359239471
 20
41.73281239471505
 30
0.0
 10
50.52163945264746
 20
41.35160711830374
 30
0.0
 10
50.28685364762854
 20
40.58237649711597
 30
0.0
 10
50.22326211180125
 20
40.19430879231764
 30
0.0
 10
50.22326211180125
 20
39.8021604653478
 30
0.0
  0
SPLINE
  5
FC
330
1F
100
AcDbEntity
  8
0
  6
Continuous
 62
     7
370
    25
100
AcDbSpline
210
0.0
220
0.0
230
1.0
 70
     8
 71
     3
 72
    10
 73
     6
 74
     0
 42
0.00000001
 43
0.00000001
 40
0.0
 40
0.0
 40
0.0
 40
0.0
 40
0.5
 40
0.5
 40
1.0
 40
1.0
 40
1.0
 40
1.0
 10
50.90098351706143
 20
42.1115615421063
 30
0.0
 10
50.92465575697298
 20
42.15449935120553
 30
0.0
 10
50.93774974690825
 20
42.21793994109773
 30
0.0
 10
50.9378366143697
 20
42.37042908660658
 30
0.0
 10
50.92466682461035
 20
42.4586584758099
 30
0.0
 10
50.90098351706143
 20
42.54457424399853
 30
0.0
  0
SPLINE
  5
FD
330
1F
100
AcDbEntity
  8
0
  6
Continuous
 62
     7
370
    25
100
AcDbSpline
210
0.0
220
0.0
230
1.0
 70
     8
 71
     3
 72
    10
 73
     6
 74
     0
 42
0.00000001
 43
0.00000001
 40
0.0
 40
0.0
 40
0.0
 40
0.0
 40
0.5
 40
0.5
 40
1.0
 40
1.0
 40
1.0
 40
1.0
 10
68.40098351706145
 20
51.78217855103254
 30
0.0
 10
68.42465891148584
 20
51.86806561283499
 30
0.0
 10
68.43775002137046
 20
51.9554728218151
 30
0.0
 10
68.43783634265876
 20
52.10810926440883
 30
0.0
 10
68.42466740871492
 20
52.17223230935441
 30
0.0
 10
68.40098351706145
 20
52.21519125292473
 30
0.0
  0
LINE
  5
FE
330
1F
100
AcDbEntity
  8
0
  6
Continuous
 62
     7
370
    25
100
AcDbLine
 10
68.4009835171
 20
52.2151912529
 30
0.0
 11
72.5455407065
 21
52.2151912529
 31
0.0
  0
SPLINE
  5
FF
330
1F
100
AcDbEntity
  8
0
  6
Continuous
 62
     7
370
    25
100
AcDbSpline
210
0.0
220
0.0
230
1.0
 70
     8
 71
     3
 72
    10
 73
     6
 74
     0
 42
0.00000001
 43
0.00000001
 40
0.0
 40
0.0
 40
0.0
 40
0.0
 40
0.5
 40
0.5
 40
1.0
 40
1.0
 40
1.0
 40
1.0
 10
55.045540706541
 20
42.54457424399852
 30
0.0
 10
55.02186531211661
 20
42.45868718219607
 30
0.0
 10
55.00877420223202
 20
42.37127997321593
 30
0.0
 10
55.00868788094374
 20
42.2186435306222
 30
0.0
 10
55.02185681488758
 20
42.15452048567662
 30
0.0
 10
55.04554070654105
 20
42.11156154210631
 30
0.0
  0
LINE
  5
100
330
1F
100
AcDbEntity
  8
0
  6
Continuous
 62
     7
370
    25
100
AcDbLine
 10
55.0455407065
 20
42.1115615421
 30
0.0
 11
50.9009835171
 21
42.1115615421
 31
0.0
  0
LINE
  5
101
330
1F
100
AcDbEntity
  8
0
  6
Continuous
 62
     7
370
    25
100
AcDbLine
 10
55.7232621118
 20
43.1633763975
 30
0.0
 11
55.7232621118
 21
41.1633763975
 31
0.0
  0
SPLINE
  5
102
330
1F
100
AcDbEntity
  8
0
  6
Continuous
 62
     7
370
    25
100
AcDbSpline
210
0.0
220
0.0
230
1.0
 70
     8
 71
     3
 72
     8
 73
     4
 74
     0
 42
0.00000001
 43
0.00000001
 40
0.0
 40
0.0
 40
0.0
 40
0.0
 40
1.0
 40
1.0
 40
1.0
 40
1.0
 10
55.72326211180125
 20
41.16337639751553
 30
0.0
 10
55.68348345361107
 20
41.02599130851543
 30
0.0
 10
55.64299449078283
 20
40.88928722670365
 30
0.0
 10
55.60187862030508
 20
40.75325486419028
 30
0.0
  0
SPLINE
  5
103
330
1F
100
AcDbEntity
  8
0
  6
Continuous
 62
     7
370
    25
100
AcDbSpline
210
0.0
220
0.0
230
1.0
 70
     8
 71
     3
 72
     8
 73
     4
 74
     0
 42
0.00000001
 43
0.00000001
 40
0.0
 40
0.0
 40
0.0
 40
0.0
 40
1.0
 40
1.0
 40
1.0
 40
1.0
 10
55.04554070654105
 20
42.11156154210631
 30
0.0
 10
55.29271448742498
 20
41.66322624905498
 30
0.0
 10
55.48643615572897
 20
41.21105175831138
 30
0.0
 10
55.60187862030508
 20
40.75325486419028
 30
0.0
  0
LINE
  5
104
330
1F
100
AcDbEntity
  8
0
  6
Continuous
 62
     7
370
    25
100
AcDbLine
 10
67.7232621118
 20
54.5245923297
 30
0.0
 11
67.7232621118
 21
51.1633763975
 31
0.0
  0
SPLINE
  5
105
330
1F
100
AcDbEntity
  8
0
  6
Continuous
 62
     7
370
    25
100
AcDbSpline
210
0.0
220
0.0
230
1.0
 70
     8
 71
     3
 72
    10
 73
     6
 74
     0
 42
0.00000001
 43
0.00000001
 40
0.0
 40
0.0
 40
0.0
 40
0.0
 40
0.5
 40
0.5
 40
1.0
 40
1.0
 40
1.0
 40
1.0
 10
68.40098351706145
 20
52.21519125292474
 30
0.0
 10
68.19256276424402
 20
52.5932345023269
 30
0.0
 10
68.02209892896659
 20
52.97400400712274
 30
0.0
 10
67.7871164940282
 20
53.74315253268029
 30
0.0
 10
67.72326211180125
 20
54.13157926085553
 30
0.0
 10
67.72326211180125
 20
54.52459232968327
 30
0.0
  0
LINE
  5
106
330
1F
100
AcDbEntity
  8
0
  6
Continuous
 62
     7
370
    25
100
AcDbLine
 10
72.5455407065
 20
42.1115615421
 30
0.0
 11
68.4009835171
 21
42.1115615421
 31
0.0
  0
LINE
  5
107
330
1F
100
AcDbEntity
  8
0
  6
Continuous
 62
     7
370
    25
100
AcDbLine
 10
50.9009835171
 20
52.2151912529
 30
0.0
 11
55.0455407065
 21
52.2151912529
 31
0.0
  0
SPLINE
  5
108
330
1F
100
AcDbEntity
  8
0
  6
Continuous
 62
     7
370
    25
100
AcDbSpline
210
0.0
220
0.0
230
1.0
 70
     8
 71
     3
 72
    10
 73
     6
 74
     0
 42
0.00000001
 43
0.00000001
 40
0.0
 40
0.0
 40
0.0
 40
0.0
 40
0.5
 40
0.5
 40
1.0
 40
1.0
 40
1.0
 40
1.0
 10
50.90098351706143
 20
51.78217855103254
 30
0.0
 10
50.92465741761738
 20
51.86806019353899
 30
0.0
 10
50.93774997479652
 20
51.95546939950442
 30
0.0
 10
50.9378363887788
 20
52.10811188457936
 30
0.0
 10
50.92466599718018
 20
52.17223486966173
 30
0.0
 10
50.90098351706143
 20
52.21519125292476
 30
0.0
  0
SPLINE
  5
109
330
1F
100
AcDbEntity
  8
0
  6
Continuous
 62
     7
370
    25
100
AcDbSpline
210
0.0
220
0.0
230
1.0
 70
     8
 71
     3
 72
     8
 73
     4
 74
     0
 42
0.00000001
 43
0.00000001
 40
0.0
 40
0.0
 40
0.0
 40
0.0
 40
1.0
 40
1.0
 40
1.0
 40
1.0
 10
54.43388592718461
 20
39.8740002128868
 30
0.0
 10
54.74290306982638
 20
39.97500532071692
 30
0.0
 10
55.05822082614436
 20
40.07166210978286
 30
0.0
 10
55.38070015298738
 20
40.16337639751553
 30
0.0
  0
SPLINE
  5
10A
330
1F
100
AcDbEntity
  8
0
  6
Continuous
 62
     7
370
    25
100
AcDbSpline
210
0.0
220
0.0
230
1.0
 70
     8
 71
     3
 72
    12
 73
     8
 74
     0
 42
0.00000001
 43
0.00000001
 40
0.0
 40
0.0
 40
0.0
 40
0.0
 40
0.2500000000000002
 40
0.2500000000000002
 40
0.5000000000000004
 40
0.5000000000000004
 40
1.0
 40
1.0
 40
1.0
 40
1.0
 10
54.43388592717938
 20
39.87400021288067
 30
0.0
 10
54.62391210248259
 20
39.87029172702424
 30
0.0
 10
54.81412716516841
 20
39.85170922418656
 30
0.0
 10
55.19106392430081
 20
39.78684218722041
 30
0.0
 10
55.37838671556032
 20
39.74057663397015
 30
0.0
 10
55.9372966718744
 20
39.56485210366318
 30
0.0
 10
56.30583232998472
 20
39.39854869488643
 30
0.0
 10
56.67144725639202
 20
39.19697985766053
 30
0.0
  0
SPLINE
  5
10B
330
1F
100
AcDbEntity
  8
0
  6
Continuous
 62
     7
370
    25
100
AcDbSpline
210
0.0
220
0.0
230
1.0
 70
     8
 71
     3
 72
     8
 73
     4
 74
     0
 42
0.00000001
 43
0.00000001
 40
0.0
 40
0.0
 40
0.0
 40
0.0
 40
1.0
 40
1.0
 40
1.0
 40
1.0
 10
68.06582407061511
 20
40.16337639751553
 30
0.0
 10
68.3883033974644
 20
40.07166210978107
 30
0.0
 10
68.70362115378835
 20
39.97500532071317
 30
0.0
 10
69.01263829643587
 20
39.87400021288092
 30
0.0
  0
SPLINE
  5
10C
330
1F
100
AcDbEntity
  8
0
  6
Continuous
 62
     7
370
    25
100
AcDbSpline
210
0.0
220
0.0
230
1.0
 70
     8
 71
     3
 72
    10
 73
     6
 74
     0
 42
0.00000001
 43
0.00000001
 40
0.0
 40
0.0
 40
0.0
 40
0.0
 40
0.5
 40
0.5
 40
1.0
 40
1.0
 40
1.0
 40
1.0
 10
66.77507696721075
 20
39.19697985766068
 30
0.0
 10
67.14159491405128
 20
39.39904654321161
 30
0.0
 10
67.5106751395171
 20
39.56543931548225
 30
0.0
 10
68.2559274877445
 20
39.7994862893523
 30
0.0
 10
68.63214025969228
 20
39.86657454331113
 30
0.0
 10
69.01263829643587
 20
39.87400021288092
 30
0.0
  0
SPLINE
  5
10D
330
1F
100
AcDbEntity
  8
0
  6
Continuous
 62
     7
370
    25
100
AcDbSpline
210
0.0
220
0.0
230
1.0
 70
     8
 71
     3
 72
    10
 73
     6
 74
     0
 42
0.00000001
 43
0.00000001
 40
0.0
 40
0.0
 40
0.0
 40
0.0
 40
0.5
 40
0.5
 40
1.0
 40
1.0
 40
1.0
 40
1.0
 10
66.34206426531824
 20
39.19697985766051
 30
0.0
 10
66.4279513271208
 20
39.17330446323609
 30
0.0
 10
66.515358536101
 20
39.16021335335147
 30
0.0
 10
66.66799497869486
 20
39.16012703206325
 30
0.0
 10
66.73211802364062
 20
39.17329596600719
 30
0.0
 10
66.77507696721085
 20
39.19697985766074
 30
0.0
  0
LINE
  5
10E
330
1F
100
AcDbEntity
  8
0
  6
Continuous
 62
     7
370
    25
100
AcDbLine
 10
66.7750769672
 20
39.1969798577
 30
0.0
 11
66.7750769672
 21
36.1633763975
 31
0.0
  0
LINE
  5
10F
330
1F
100
AcDbEntity
  8
0
  6
Continuous
 62
     7
370
    25
100
AcDbLine
 10
66.3420642653
 20
36.1633763975
 30
0.0
 11
66.7750769672
 21
36.1633763975
 31
0.0
  0
SPLINE
  5
110
330
1F
100
AcDbEntity
  8
0
  6
Continuous
 62
     7
370
    25
100
AcDbSpline
210
0.0
220
0.0
230
1.0
 70
     8
 71
     3
 72
    12
 73
     8
 74
     0
 42
0.00000001
 43
0.00000001
 40
0.0
 40
0.0
 40
0.0
 40
0.0
 40
0.2499999999999998
 40
0.2499999999999998
 40
0.4999999999999996
 40
0.4999999999999996
 40
1.0
 40
1.0
 40
1.0
 40
1.0
 10
50.22326211180125
 20
54.52459232968327
 30
0.0
 10
50.22326211180124
 20
54.32958884967746
 30
0.0
 10
50.2390084418232
 20
54.13305419065306
 30
0.0
 10
50.30045346640863
 20
53.74363450304751
 30
0.0
 10
50.34604222566236
 20
53.55014980998725
 30
0.0
 10
50.52249322791896
 20
52.97296621123164
 30
0.0
 10
50.69295092988245
 20
52.59253042944869
 30
0.0
 10
50.90098351706129
 20
52.21519125292475
 30
0.0
  0
SPLINE
  5
111
330
1F
100
AcDbEntity
  8
0
  6
Continuous
 62
     7
370
    25
100
AcDbSpline
210
0.0
220
0.0
230
1.0
 70
     8
 71
     3
 72
    12
 73
     8
 74
     0
 42
0.00000001
 43
0.00000001
 40
0.0
 40
0.0
 40
0.0
 40
0.0
 40
0.2499999999999999
 40
0.2499999999999999
 40
0.4999999999999998
 40
0.4999999999999998
 40
1.0
 40
1.0
 40
1.0
 40
1.0
 10
67.72326211180125
 20
54.52459232968327
 30
0.0
 10
67.72326211180125
 20
54.72033459256278
 30
0.0
 10
67.7391050478902
 20
54.91700120175334
 30
0.0
 10
67.80060790812786
 20
55.30626942908162
 30
0.0
 10
67.84621154917156
 20
55.49967346203454
 30
0.0
 10
68.02266256666077
 20
56.0766025132913
 30
0.0
 10
68.19305993391262
 20
56.4568519464943
 30
0.0
 10
68.40098351706143
 20
56.83399340644177
 30
0.0
  0
LINE
  5
112
330
1F
100
AcDbEntity
  8
0
  6
Continuous
 62
     7
370
    25
100
AcDbLine
 10
72.5455407065
 20
56.8339934064
 30
0.0
 11
68.4009835171
 21
56.8339934064
 31
0.0
  0
SPLINE
  5
113
330
1F
100
AcDbEntity
  8
0
  6
Continuous
 62
     7
370
    25
100
AcDbSpline
210
0.0
220
0.0
230
1.0
 70
     8
 71
     3
 72
    10
 73
     6
 74
     0
 42
0.00000001
 43
0.00000001
 40
0.0
 40
0.0
 40
0.0
 40
0.0
 40
0.5
 40
0.5
 40
1.0
 40
1.0
 40
1.0
 40
1.0
 10
72.54554070654152
 20
56.8339934064418
 30
0.0
 10
72.75435063120777
 20
56.4552442590505
 30
0.0
 10
72.92488477095503
 20
56.0740389826392
 30
0.0
 10
73.15967057597395
 20
55.30480836145142
 30
0.0
 10
73.22326211180125
 20
54.9167406566531
 30
0.0
 10
73.22326211180125
 20
54.52459232968327
 30
0.0
  0
ELLIPSE
  5
114
330
1F
100
AcDbEntity
  8
0
  6
Continuous
 62
     7
370
    25
100
AcDbEllipse
 10
61.7232621118
 20
37.3484218213
 30
0.0
 11
8.500000000000007
 21
0.0
 31
0.0
210
0.0
220
0.0
230
1.0
 40
0.5773502692
 41
2.374833212873084
 42
2.530692279913057
  0
LINE
  5
115
330
1F
100
AcDbEntity
  8
0
  6
Continuous
 62
     7
370
    25
100
AcDbLine
 10
54.4338859272
 20
39.8740002129
 30
0.0
 11
52.0526451029
 21
37.4927593886
 31
0.0
  0
LINE
  5
116
330
1F
100
AcDbEntity
  8
0
  6
Continuous
 62
     7
370
    25
100
AcDbLine
 10
50.9009835171
 20
37.4927593886
 30
0.0
 11
52.0526451029
 21
37.4927593886
 31
0.0
  0
SPLINE
  5
117
330
1F
100
AcDbEntity
  8
0
  6
Continuous
 62
     7
370
    25
100
AcDbSpline
210
0.0
220
0.0
230
1.0
 70
     8
 71
     3
 72
    12
 73
     8
 74
     0
 42
0.00000001
 43
0.00000001
 40
0.0
 40
0.0
 40
0.0
 40
0.0
 40
0.2499999999999999
 40
0.2499999999999999
 40
0.5
 40
0.5
 40
1.0
 40
1.0
 40
1.0
 40
1.0
 10
50.22326211180125
 20
39.8021604653478
 30
0.0
 10
50.22326211180125
 20
39.60715698534201
 30
0.0
 10
50.2390084418232
 20
39.41062232631759
 30
0.0
 10
50.30045346640863
 20
39.02120263871205
 30
0.0
 10
50.34604222566236
 20
38.82771794565178
 30
0.0
 10
50.52249322791896
 20
38.25053434689618
 30
0.0
 10
50.69295092988245
 20
37.87009856511322
 30
0.0
 10
50.90098351706129
 20
37.49275938858928
 30
0.0
  0
SPLINE
  5
118
330
1F
100
AcDbEntity
  8
0
  6
Continuous
 62
     7
370
    25
100
AcDbSpline
210
0.0
220
0.0
230
1.0
 70
     8
 71
     3
 72
    12
 73
     8
 74
     0
 42
0.00000001
 43
0.00000001
 40
0.0
 40
0.0
 40
0.0
 40
0.0
 40
0.2499999999999999
 40
0.2499999999999999
 40
0.5
 40
0.5
 40
1.0
 40
1.0
 40
1.0
 40
1.0
 10
73.22326211180125
 20
39.8021604653478
 30
0.0
 10
73.22326211180125
 20
39.60715698534201
 30
0.0
 10
73.20751578177928
 20
39.4106223263176
 30
0.0
 10
73.14607075719385
 20
39.02120263871205
 30
0.0
 10
73.10048199794012
 20
38.82771794565179
 30
0.0
 10
72.92403099568354
 20
38.25053434689619
 30
0.0
 10
72.75357329372004
 20
37.87009856511322
 30
0.0
 10
72.54554070654119
 20
37.49275938858928
 30
0.0
  0
LINE
  5
119
330
1F
100
AcDbEntity
  8
0
  6
Continuous
 62
     7
370
    25
100
AcDbLine
 10
71.3938791207
 20
37.4927593886
 30
0.0
 11
72.5455407065
 21
37.4927593886
 31
0.0
  0
LINE
  5
11A
330
1F
100
AcDbEntity
  8
0
  6
Continuous
 62
     7
370
    25
100
AcDbLine
 10
71.3938791207
 20
37.4927593886
 30
0.0
 11
69.0126382964
 21
39.8740002129
 31
0.0
  0
ELLIPSE
  5
11B
330
1F
100
AcDbEntity
  8
0
  6
Continuous
 62
     7
370
    25
100
AcDbEllipse
 10
61.7232621118
 20
37.3484218213
 30
0.0
 11
8.500000000000007
 21
0.0
 31
0.0
210
0.0
220
0.0
230
1.0
 40
0.5773502692
 41
0.6109003736767357
 42
0.7667594407167092
  0
LINE
  5
11C
330
1F
100
AcDbEntity
  8
0
  6
Continuous
 62
     7
370
    25
100
AcDbLine
 10
54.0273803584
 20
36.1633763975
 30
0.0
 11
52.0526451029
 21
36.1633763975
 31
0.0
  0
LINE
  5
11D
330
1F
100
AcDbEntity
  8
0
  6
Continuous
 62
     7
370
    25
100
AcDbLine
 10
52.0526451029
 20
37.4927593886
 30
0.0
 11
52.0526451029
 21
36.1633763975
 31
0.0
  0
LINE
  5
11E
330
1F
100
AcDbEntity
  8
0
  6
Continuous
 62
     7
370
    25
100
AcDbLine
 10
56.6714472564
 20
36.1633763975
 30
0.0
 11
54.6967120009
 21
36.1633763975
 31
0.0
  0
SPLINE
  5
11F
330
1F
100
AcDbEntity
  8
0
  6
Continuous
 62
     7
370
    25
100
AcDbSpline
210
0.0
220
0.0
230
1.0
 70
     8
 71
     3
 72
    10
 73
     6
 74
     0
 42
0.00000001
 43
0.00000001
 40
0.0
 40
0.0
 40
0.0
 40
0.0
 40
0.5
 40
0.5
 40
1.0
 40
1.0
 40
1.0
 40
1.0
 10
55.04554070654104
 20
56.83399340644179
 30
0.0
 10
55.25396145935846
 20
56.45595015703963
 30
0.0
 10
55.4244252946359
 20
56.07518065224377
 30
0.0
 10
55.65940772957428
 20
55.30603212668623
 30
0.0
 10
55.72326211180125
 20
54.91760539851099
 30
0.0
 10
55.72326211180125
 20
54.52459232968327
 30
0.0
  0
SPLINE
  5
120
330
1F
100
AcDbEntity
  8
0
  6
Continuous
 62
     7
370
    25
100
AcDbSpline
210
0.0
220
0.0
230
1.0
 70
     8
 71
     3
 72
    10
 73
     6
 74
     0
 42
0.00000001
 43
0.00000001
 40
0.0
 40
0.0
 40
0.0
 40
0.0
 40
0.5
 40
0.5
 40
1.0
 40
1.0
 40
1.0
 40
1.0
 10
50.90098351706096
 20
56.8339934064418
 30
0.0
 10
50.69217359239471
 20
56.4552442590505
 30
0.0
 10
50.52163945264746
 20
56.0740389826392
 30
0.0
 10
50.28685364762854
 20
55.30480836145142
 30
0.0
 10
50.22326211180125
 20
54.9167406566531
 30
0.0
 10
50.22326211180125
 20
54.52459232968327
 30
0.0
  0
LINE
  5
121
330
1F
100
AcDbEntity
  8
0
  6
Continuous
 62
     7
370
    25
100
AcDbLine
 10
55.0455407065
 20
56.8339934064
 30
0.0
 11
50.9009835171
 21
56.8339934064
 31
0.0
  0
LINE
  5
122
330
1F
100
AcDbEntity
  8
0
  6
Continuous
 62
     7
370
    25
100
AcDbLine
 10
71.3938791207
 20
36.1633763975
 30
0.0
 11
71.3938791207
 21
37.4927593886
 31
0.0
  0
LINE
  5
123
330
1F
100
AcDbEntity
  8
0
  6
Continuous
 62
     7
370
    25
100
AcDbLine
 10
71.3938791207
 20
36.1633763975
 30
0.0
 11
69.4191438652
 21
36.1633763975
 31
0.0
  0
LINE
  5
124
330
1F
100
AcDbEntity
  8
0
  6
Continuous
 62
     7
370
    25
100
AcDbLine
 10
68.7498122227
 20
36.1633763975
 30
0.0
 11
66.7750769672
 21
36.1633763975
 31
0.0
  0
LINE
  5
125
330
1F
100
AcDbEntity
  8
0
  6
Continuous
 62
     7
370
    25
100
AcDbLine
 10
68.7232621118
 20
23.6633763975
 30
0.0
 11
54.7232621118
 21
23.6633763975
 31
0.0
  0
LINE
  5
126
330
1F
100
AcDbEntity
  8
0
  6
Continuous
 62
     7
370
    25
100
AcDbLine
 10
67.7232621118
 20
41.1633763975
 30
0.0
 11
65.7232621118
 21
43.1633763975
 31
0.0
  0
LINE
  5
127
330
1F
100
AcDbEntity
  8
0
  6
Continuous
 62
     7
370
    25
100
AcDbLine
 10
65.7232621118
 20
40.1633763975
 30
0.0
 11
68.6858831845
 21
40.1633763975
 31
0.0
  0
LINE
  5
128
330
1F
100
AcDbEntity
  8
0
  6
Continuous
 62
     7
370
    25
100
AcDbLine
 10
57.7232621118
 20
43.1633763975
 30
0.0
 11
55.7232621118
 21
41.1633763975
 31
0.0
  0
LINE
  5
129
330
1F
100
AcDbEntity
  8
0
  6
Continuous
 62
     7
370
    25
100
AcDbLine
 10
54.7606410391
 20
40.1633763975
 30
0.0
 11
57.7232621118
 21
40.1633763975
 31
0.0
  0
LINE
  5
12A
330
1F
100
AcDbEntity
  8
0
  6
Continuous
 62
     7
370
    25
100
AcDbLine
 10
55.7232621118
 20
55.0978308757
 30
0.0
 11
55.7232621118
 21
54.5245923297
 31
0.0
  0
SPLINE
  5
12B
330
1F
100
AcDbEntity
  8
0
  6
Continuous
 62
     7
370
    25
100
AcDbSpline
210
0.0
220
0.0
230
1.0
 70
     8
 71
     3
 72
    32
 73
    28
 74
     0
 42
0.00000001
 43
0.00000001
 40
0.0
 40
0.0
 40
0.0
 40
0.0
 40
0.0625000000000001
 40
0.0625000000000001
 40
0.1250000000000001
 40
0.1250000000000001
 40
0.1875000000000002
 40
0.1875000000000002
 40
0.2500000000000003
 40
0.2500000000000003
 40
0.3750000000000003
 40
0.3750000000000003
 40
0.4375000000000003
 40
0.4375000000000003
 40
0.5000000000000002
 40
0.5000000000000002
 40
0.5625000000000002
 40
0.5625000000000002
 40
0.6250000000000001
 40
0.6250000000000001
 40
0.7500000000000001
 40
0.7500000000000001
 40
0.8750000000000002
 40
0.8750000000000002
 40
0.9375000000000001
 40
0.9375000000000001
 40
1.0
 40
1.0
 40
1.0
 40
1.0
 10
67.72326211179278
 20
55.09783087573618
 30
0.0
 10
67.56640577587588
 20
55.00287389784049
 30
0.0
 10
67.39340734172023
 20
54.9001207232153
 30
0.0
 10
67.01670275509444
 20
54.68340952156704
 30
0.0
 10
66.81384997463775
 20
54.56999081107703
 30
0.0
 10
66.38786871183515
 20
54.34190067437886
 30
0.0
 10
66.16369075154714
 20
54.226593791927
 30
0.0
 10
65.69233965797075
 20
53.99827068955223
 30
0.0
 10
65.44365414260565
 20
53.88462067341847
 30
0.0
 10
64.67308165791401
 20
53.56155664218443
 30
0.0
 10
64.12744424783185
 20
53.36865811802093
 30
0.0
 10
63.24466449933549
 20
53.15706419274723
 30
0.0
 10
62.94602539946265
 20
53.10142180662949
 30
0.0
 10
62.33952379874689
 20
53.02575373726565
 30
0.0
 10
62.02937656008096
 20
53.00578049148933
 30
0.0
 10
61.40929107139719
 20
53.00611425774257
 30
0.0
 10
61.10272003392915
 20
53.02611322306536
 30
0.0
 10
60.49606528662096
 20
53.10215200926184
 30
0.0
 10
60.19369222199566
 20
53.15880510939338
 30
0.0
 10
59.3170559192427
 20
53.36958365943922
 30
0.0
 10
58.76900178726579
 20
53.56312949001098
 30
0.0
 10
57.73850452002251
 20
53.99574878328677
 30
0.0
 10
57.27094448474304
 20
54.2282254279772
 30
0.0
 10
56.63273088111511
 20
54.56996342889624
 30
0.0
 10
56.42952114292528
 20
54.68358094432463
 30
0.0
 10
56.05318421653084
 20
54.90008333668086
 30
0.0
 10
55.88020560803934
 20
55.00282113312526
 30
0.0
 10
55.72326211180125
 20
55.09783087574134
 30
0.0
  0
LINE
  5
12C
330
1F
100
AcDbEntity
  8
0
  6
Continuous
 62
     7
370
    25
100
AcDbLine
 10
67.7232621118
 20
55.0978308757
 30
0.0
 11
67.7232621118
 21
54.5245923297
 31
0.0
  0
SPLINE
  5
12D
330
1F
100
AcDbEntity
  8
0
  6
Continuous
 62
     7
370
    25
100
AcDbSpline
210
0.0
220
0.0
230
1.0
 70
     8
 71
     3
 72
    11
 73
     7
 74
     0
 42
0.00000001
 43
0.00000001
 40
0.0
 40
0.0
 40
0.0
 40
0.0
 40
0.0860363962994498
 40
0.3126240132839471
 40
0.544481681962628
 40
1.0
 40
1.0
 40
1.0
 40
1.0
 10
67.89660929926826
 20
55.95627799121665
 30
0.0
 10
67.89779811628837
 20
55.960291616755
 30
0.0
 10
67.90211783170965
 20
55.974875627448
 30
0.0
 10
67.87093832338991
 20
55.86831940334573
 30
0.0
 10
67.78851071448206
 20
55.58777147148677
 30
0.0
 10
67.74926795820701
 20
55.29310432769491
 30
0.0
 10
67.72326211180125
 20
55.09783087573421
 30
0.0
  0
SPLINE
  5
12E
330
1F
100
AcDbEntity
  8
0
  6
Continuous
 62
     7
370
    25
100
AcDbSpline
210
0.0
220
0.0
230
1.0
 70
     8
 71
     3
 72
    11
 73
     7
 74
     0
 42
0.00000001
 43
0.00000001
 40
0.0
 40
0.0
 40
0.0
 40
0.0
 40
0.317624688858501
 40
0.6359364860553339
 40
0.8656575744892168
 40
1.0
 40
1.0
 40
1.0
 40
1.0
 10
55.72326211180125
 20
55.09783087574124
 30
0.0
 10
55.7096233928612
 20
55.22909537512358
 30
0.0
 10
55.68231645073336
 20
55.49190833459789
 30
0.0
 10
55.5943112800684
 20
55.80355465108854
 30
0.0
 10
55.54974981232484
 20
55.95730490594909
 30
0.0
 10
55.55009906524472
 20
55.95578965489701
 30
0.0
 10
55.55022794243943
 20
55.95523051481899
 30
0.0
  0
SPLINE
  5
12F
330
1F
100
AcDbEntity
  8
0
  6
Continuous
 62
     7
370
    25
100
AcDbSpline
210
0.0
220
0.0
230
1.0
 70
     8
 71
     3
 72
    10
 73
     6
 74
     0
 42
0.00000001
 43
0.00000001
 40
0.0
 40
0.0
 40
0.0
 40
0.0
 40
0.1601790552921523
 40
0.7197651707804853
 40
1.0
 40
1.0
 40
1.0
 40
1.0
 10
55.01131127342414
 20
56.89627168519151
 30
0.0
 10
55.01054848333089
 20
56.89766391321788
 30
0.0
 10
55.00712088325716
 20
56.90391989494621
 30
0.0
 10
55.02162834805544
 20
56.87741263021829
 30
0.0
 10
55.03955790117327
 20
56.84485677507315
 30
0.0
 10
55.04554070654104
 20
56.83399340644179
 30
0.0
  0
SPLINE
  5
130
330
1F
100
AcDbEntity
  8
0
  6
Continuous
 62
     7
370
    25
100
AcDbSpline
210
0.0
220
0.0
230
1.0
 70
     8
 71
     3
 72
    10
 73
     6
 74
     0
 42
0.00000001
 43
0.00000001
 40
0.0
 40
0.0
 40
0.0
 40
0.0
 40
0.1593935212994637
 40
0.7189934545690476
 40
1.0
 40
1.0
 40
1.0
 40
1.0
 10
72.5113037169636
 20
37.43046730912283
 30
0.0
 10
72.51054218996615
 20
37.42907739029621
 30
0.0
 10
72.50710708845023
 20
37.42280773434929
 30
0.0
 10
72.52160171091673
 20
37.44929167617308
 30
0.0
 10
72.53954308140943
 20
37.48186908021995
 30
0.0
 10
72.54554070654105
 20
37.4927593885893
 30
0.0
  0
SPLINE
  5
131
330
1F
100
AcDbEntity
  8
0
  6
Continuous
 62
     7
370
    25
100
AcDbSpline
210
0.0
220
0.0
230
1.0
 70
     8
 71
     3
 72
     9
 73
     5
 74
     0
 42
0.00000001
 43
0.00000001
 40
0.0
 40
0.0
 40
0.0
 40
0.0
 40
0.5797912171256431
 40
1.0
 40
1.0
 40
1.0
 40
1.0
 10
68.40098351706143
 20
56.83399340644177
 30
0.0
 10
68.4133421204079
 20
56.85646705468289
 30
0.0
 10
68.43465773020232
 20
56.89522867710372
 30
0.0
 10
68.43504867270508
 20
56.89596308186193
 30
0.0
 10
68.43521295017835
 20
56.89627168519151
 30
0.0
  0
SPLINE
  5
132
330
1F
100
AcDbEntity
  8
0
  6
Continuous
 62
     7
370
    25
100
AcDbSpline
210
0.0
220
0.0
230
1.0
 70
     8
 71
     3
 72
     9
 73
     5
 74
     0
 42
0.00000001
 43
0.00000001
 40
0.0
 40
0.0
 40
0.0
 40
0.0
 40
0.5789479223839391
 40
1.0
 40
1.0
 40
1.0
 40
1.0
 10
50.90098351706143
 20
56.83399340644177
 30
0.0
 10
50.91332440737569
 20
56.85643477363413
 30
0.0
 10
50.93464047024961
 20
56.89519709805869
 30
0.0
 10
50.93504864416414
 20
56.89596300091804
 30
0.0
 10
50.93522050663888
 20
56.89628548590823
 30
0.0
  0
SPLINE
  5
133
330
1F
100
AcDbEntity
  8
0
  6
Continuous
 62
     7
370
    25
100
AcDbSpline
210
0.0
220
0.0
230
1.0
 70
     8
 71
     3
 72
     9
 73
     5
 74
     0
 42
0.00000001
 43
0.00000001
 40
0.0
 40
0.0
 40
0.0
 40
0.0
 40
0.5789479223839434
 40
1.0
 40
1.0
 40
1.0
 40
1.0
 10
72.54554070654105
 20
56.83399340644177
 30
0.0
 10
72.53319981622678
 20
56.85643477363413
 30
0.0
 10
72.51188375335288
 20
56.89519709805869
 30
0.0
 10
72.51147557943835
 20
56.89596300091805
 30
0.0
 10
72.5113037169636
 20
56.89628548590824
 30
0.0
  0
SPLINE
  5
134
330
1F
100
AcDbEntity
  8
0
  6
Continuous
 62
     7
370
    25
100
AcDbSpline
210
0.0
220
0.0
230
1.0
 70
     8
 71
     3
 72
    10
 73
     6
 74
     0
 42
0.00000001
 43
0.00000001
 40
0.0
 40
0.0
 40
0.0
 40
0.0
 40
0.1593935212994365
 40
0.7189934545690234
 40
1.0
 40
1.0
 40
1.0
 40
1.0
 10
50.93522050663888
 20
37.43046730912283
 30
0.0
 10
50.93598203363634
 20
37.42907739029621
 30
0.0
 10
50.93941713515226
 20
37.42280773434928
 30
0.0
 10
50.92492251268576
 20
37.44929167617307
 30
0.0
 10
50.90698114219305
 20
37.48186908021994
 30
0.0
 10
50.90098351706143
 20
37.49275938858929
 30
0.0
  0
LINE
  5
135
330
1F
100
AcDbEntity
  8
0
  6
Continuous
 62
     7
370
    25
100
AcDbLine
 10
71.4608664188
 20
37.4257720905
 30
0.0
 11
71.3938791207
 21
37.4927593886
 31
0.0
  0
LINE
  5
136
330
1F
100
AcDbEntity
  8
0
  6
Continuous
 62
     7
370
    25
100
AcDbLine
 10
71.3938791207
 20
36.1633763975
 30
0.0
 11
71.4608664188
 21
36.1633763975
 31
0.0
  0
LINE
  5
137
330
1F
100
AcDbEntity
  8
0
  6
Continuous
 62
     7
370
    25
100
AcDbLine
 10
52.0526451029
 20
37.4927593886
 30
0.0
 11
51.9856578048
 21
37.4257720905
 31
0.0
  0
LINE
  5
138
330
1F
100
AcDbEntity
  8
0
  6
Continuous
 62
     7
370
    25
100
AcDbLine
 10
51.9856578048
 20
36.1633763975
 30
0.0
 11
52.0526451029
 21
36.1633763975
 31
0.0
  0
LINE
  5
139
330
1F
100
AcDbEntity
  8
0
  6
Continuous
 62
     7
370
    25
100
AcDbLine
 10
66.8157130444
 20
74.1633763975
 30
0.0
 11
56.6308111792
 21
74.1633763975
 31
0.0
  0
SPLINE
  5
13A
330
1F
100
AcDbEntity
  8
0
  6
Continuous
 62
     7
370
    25
100
AcDbSpline
210
0.0
220
0.0
230
1.0
 70
     8
 71
     3
 72
    11
 73
     7
 74
     0
 42
0.00000001
 43
0.00000001
 40
0.0
 40
0.0
 40
0.0
 40
0.0
 40
0.2460416072901214
 40
0.4920717926348665
 40
0.7460790582811387
 40
1.0
 40
1.0
 40
1.0
 40
1.0
 10
68.68628932113863
 20
66.39655237323242
 30
0.0
 10
68.43670020244654
 20
67.00699494259999
 30
0.0
 10
67.93753355169325
 20
68.22785174286929
 30
0.0
 10
67.3843517379162
 20
70.14985334360212
 30
0.0
 10
66.97102244438682
 20
72.12915608143427
 30
0.0
 10
66.86747697842682
 20
73.48537979025535
 30
0.0
 10
66.8157130443786
 20
74.1633763975155
 30
0.0
  0
SPLINE
  5
13B
330
1F
100
AcDbEntity
  8
0
  6
Continuous
 62
     7
370
    25
100
AcDbSpline
210
0.0
220
0.0
230
1.0
 70
     8
 71
     3
 72
    13
 73
     9
 74
     0
 42
0.00000001
 43
0.00000001
 40
0.0
 40
0.0
 40
0.0
 40
0.0
 40
0.0164940201989931
 40
0.1958803672654719
 40
0.3763143282056556
 40
0.5827472646165619
 40
0.8280062032403761
 40
1.0
 40
1.0
 40
1.0
 40
1.0
 10
69.72326205569574
 20
64.6633762324438
 30
0.0
 10
69.7231574377491
 20
64.66351350774534
 30
0.0
 10
69.72191501161137
 20
64.66514376744902
 30
0.0
 10
69.6727319691013
 20
64.7306755286529
 30
0.0
 10
69.49965913622852
 20
64.96922215119055
 30
0.0
 10
69.23423192313713
 20
65.36406527848025
 30
0.0
 10
68.93772419561127
 20
65.85721078814252
 30
0.0
 10
68.75968006056488
 20
66.23912521514193
 30
0.0
 10
68.68628932113863
 20
66.39655237323242
 30
0.0
  0
LWPOLYLINE
  5
13C
330
1F
100
AcDbEntity
  8
0
  6
Continuous
 62
     7
370
    25
100
AcDbPolyline
 90
       28
 70
   128
 43
0.0
 10
69.7232620557
 20
64.6633762324
 10
69.6690409245
 20
64.6633762336
 10
69.5073871068
 20
64.6633762369
 10
69.2404862796
 20
64.6633762424
 10
68.8719471352
 20
64.66337625
 10
68.40675259
 20
64.6633762596
 10
67.8511924113
 20
64.6633762711
 10
67.2127781751
 20
64.6633762842
 10
66.5001417045
 20
64.6633762989
 10
65.7229183609
 20
64.663376315
 10
64.891616767
 20
64.6633763321
 10
64.0174767227
 20
64.6633763502
 10
63.1123172346
 20
64.6633763688
 10
62.1883767149
 20
64.6633763879
 10
61.2581475087
 20
64.6633764071
 10
60.334206989
 20
64.6633764262
 10
59.4290475009
 20
64.6633764448
 10
58.5549074566
 20
64.6633764629
 10
57.7236058627
 20
64.66337648
 10
56.9463825191
 20
64.6633764961
 10
56.2337460485
 20
64.6633765108
 10
55.5953318123
 20
64.6633765239
 10
55.0397716336
 20
64.6633765354
 10
54.5745770884
 20
64.663376545
 10
54.206037944
 20
64.6633765526
 10
53.9391371168
 20
64.6633765581
 10
53.7774832991
 20
64.6633765615
 10
53.7232621679
 20
64.6633762324
  0
SPLINE
  5
13D
330
1F
100
AcDbEntity
  8
0
  6
Continuous
 62
     7
370
    25
100
AcDbSpline
210
0.0
220
0.0
230
1.0
 70
     8
 71
     3
 72
    12
 73
     8
 74
     0
 42
0.00000001
 43
0.00000001
 40
0.0
 40
0.0
 40
0.0
 40
0.0
 40
0.0816308004991865
 40
0.3246136178761982
 40
0.594633131551972
 40
0.8003997370011066
 40
1.0
 40
1.0
 40
1.0
 40
1.0
 10
54.76023490246387
 20
66.39655237323244
 30
0.0
 10
54.72628848757724
 20
66.32129301901378
 30
0.0
 10
54.59129693435358
 20
66.02201613942232
 30
0.0
 10
54.31134021040005
 20
65.51769101958516
 30
0.0
 10
53.99261186811455
 20
65.03263134608942
 30
0.0
 10
53.76632408764403
 20
64.72046015257823
 30
0.0
 10
53.73746983317987
 20
64.68221025644208
 30
0.0
 10
53.72326216790684
 20
64.66337623244381
 30
0.0
  0
SPLINE
  5
13E
330
1F
100
AcDbEntity
  8
0
  6
Continuous
 62
     7
370
    25
100
AcDbSpline
210
0.0
220
0.0
230
1.0
 70
     8
 71
     3
 72
    11
 73
     7
 74
     0
 42
0.00000001
 43
0.00000001
 40
0.0
 40
0.0
 40
0.0
 40
0.0
 40
0.245690202179478
 40
0.4914572396993194
 40
0.745721602011922
 40
1.0
 40
1.0
 40
1.0
 40
1.0
 10
56.63081117922393
 20
74.16337639751552
 30
0.0
 10
56.58139410936672
 20
73.5073368260738
 30
0.0
 10
56.48254451532262
 20
72.19505251821705
 30
0.0
 10
56.0833538583965
 20
70.23574873526158
 30
0.0
 10
55.5326016651173
 20
68.2898191921926
 30
0.0
 10
55.01769522711891
 20
67.02765292472887
 30
0.0
 10
54.76023490246387
 20
66.39655237323244
 30
0.0
  0
LINE
  5
13F
330
1F
100
AcDbEntity
  8
0
  6
Continuous
 62
     7
370
    25
100
AcDbLine
 10
68.7577025101
 20
57.6633763975
 30
0.0
 11
54.6888217135
 21
57.6633763975
 31
0.0
  0
LINE
  5
140
330
1F
100
AcDbEntity
  8
0
  6
Continuous
 62
     7
370
    25
100
AcDbLine
 10
61.7232621118
 20
76.1633763975
 30
0.0
 11
66.8183700952
 21
76.1633763975
 31
0.0
  0
LINE
  5
141
330
1F
100
AcDbEntity
  8
0
  6
Continuous
 62
     7
370
    25
100
AcDbLine
 10
56.6281541284
 20
76.1633763975
 30
0.0
 11
61.7232621118
 21
76.1633763975
 31
0.0
  0
LINE
  5
142
330
1F
100
AcDbEntity
  8
0
  6
Continuous
 62
     7
370
    25
100
AcDbLine
 10
66.9328803424
 20
74.1633763975
 30
0.0
 11
66.8157130444
 21
74.1633763975
 31
0.0
  0
ARC
  5
143
330
1F
100
AcDbEntity
  8
0
  6
Continuous
 62
     7
370
    25
100
AcDbCircle
 10
68.9975050657
 20
75.57310146
 30
0.0
 40
2.500000000000005
100
AcDbArc
 50
214.3252481179
 51
328.221357821
  0
ARC
  5
144
330
1F
100
AcDbEntity
  8
0
  6
Continuous
 62
     7
370
    25
100
AcDbCircle
 10
76.2232621118
 20
71.0966703914
 30
0.0
 40
6.000000000000012
100
AcDbArc
 50
115.1026742168
 51
148.221357821
  0
LINE
  5
145
330
1F
100
AcDbEntity
  8
0
  6
Continuous
 62
     7
370
    25
100
AcDbLine
 10
73.6778119796
 20
76.5299643854
 30
0.0
 11
78.768712244
 21
76.5299643854
 31
0.0
  0
ARC
  5
146
330
1F
100
AcDbEntity
  8
0
  6
Continuous
 62
     7
370
    25
100
AcDbCircle
 10
76.2232621118
 20
71.0966703914
 30
0.0
 40
5.99999999999999
100
AcDbArc
 50
308.4313932617
 51
64.8973257832
  0
LINE
  5
147
330
1F
100
AcDbEntity
  8
0
  6
Continuous
 62
     7
370
    25
100
AcDbLine
 10
68.6862893211
 20
66.3965523732
 30
0.0
 11
79.952724622
 21
66.3965523732
 31
0.0
  0
LINE
  5
148
330
1F
100
AcDbEntity
  8
0
  6
Continuous
 62
     7
370
    25
100
AcDbLine
 10
43.4937996016
 20
66.3965523732
 30
0.0
 11
54.7602349025
 21
66.3965523732
 31
0.0
  0
ARC
  5
149
330
1F
100
AcDbEntity
  8
0
  6
Continuous
 62
     7
370
    25
100
AcDbCircle
 10
47.2232621118
 20
71.0966703914
 30
0.0
 40
5.999999999999997
100
AcDbArc
 50
115.1026742168
 51
231.5686067383
  0
LINE
  5
14A
330
1F
100
AcDbEntity
  8
0
  6
Continuous
 62
     7
370
    25
100
AcDbLine
 10
44.6778119796
 20
76.5299643854
 30
0.0
 11
49.768712244
 21
76.5299643854
 31
0.0
  0
ARC
  5
14B
330
1F
100
AcDbEntity
  8
0
  6
Continuous
 62
     7
370
    25
100
AcDbCircle
 10
47.2232621118
 20
71.0966703914
 30
0.0
 40
6.000000000000005
100
AcDbArc
 50
31.778642179
 51
64.8973257832
  0
ARC
  5
14C
330
1F
100
AcDbEntity
  8
0
  6
Continuous
 62
     7
370
    25
100
AcDbCircle
 10
54.4490191579
 20
75.57310146
 30
0.0
 40
2.500000000000008
100
AcDbArc
 50
211.778642179
 51
325.6747518821
  0
LINE
  5
14D
330
1F
100
AcDbEntity
  8
0
  6
Continuous
 62
     7
370
    25
100
AcDbLine
 10
56.6308111792
 20
74.1633763975
 30
0.0
 11
56.5136438812
 21
74.1633763975
 31
0.0
  0
ARC
  5
14E
330
1F
100
AcDbEntity
  8
0
  6
Continuous
 62
     7
370
    25
100
AcDbCircle
 10
46.9405373576
 20
77.7569571888
 30
0.0
 40
2.573992516659745
100
AcDbArc
 50
195.9542434294
 51
208.4693494853
  0
SPLINE
  5
14F
330
1F
100
AcDbEntity
  8
0
  6
Continuous
 62
     7
370
    25
100
AcDbSpline
210
0.0
220
0.0
230
1.0
 70
     8
 71
     3
 72
    11
 73
     7
 74
     0
 42
0.00000001
 43
0.00000001
 40
0.0
 40
0.0
 40
0.0
 40
0.0
 40
0.3703424215671235
 40
0.8081736631678963
 40
0.9944317652533821
 40
0.9999999999999999
 40
0.9999999999999999
 40
0.9999999999999999
 40
0.9999999999999999
 10
44.46569113524794
 20
77.04944489093887
 30
0.0
 10
44.79768510151612
 20
77.18566282765438
 30
0.0
 10
45.5221734783357
 20
77.48292218141327
 30
0.0
 10
46.45229922389377
 20
77.63699514483469
 30
0.0
 10
47.03913692343602
 20
77.66323392088798
 30
0.0
 10
47.21806818846598
 20
77.66337237844195
 30
0.0
 10
47.22326211180126
 20
77.66337639751552
 30
0.0
  0
SPLINE
  5
150
330
1F
100
AcDbEntity
  8
0
  6
Continuous
 62
     7
370
    25
100
AcDbSpline
210
0.0
220
0.0
230
1.0
 70
     8
 71
     3
 72
    17
 73
    13
 74
     0
 42
0.00000001
 43
0.00000001
 40
0.0
 40
0.0
 40
0.0
 40
0.0
 40
0.0051037386011219
 40
0.0335545146957463
 40
0.0512404508406915
 40
0.0783256082042153
 40
0.1200097101225738
 40
0.184942210837869
 40
0.2894088209386605
 40
0.6174789247950596
 40
0.8356014748448788
 40
1.0
 40
1.0
 40
1.0
 40
1.0
 10
47.22326211180126
 20
77.66337639751552
 30
0.0
 10
47.21874829487835
 20
77.66336990528902
 30
0.0
 10
47.18907221855255
 20
77.6633272221646
 30
0.0
 10
47.14375330149682
 20
77.66253034223233
 30
0.0
 10
47.07900502413047
 20
77.66010798555435
 30
0.0
 10
47.0025691714289
 20
77.65572476040644
 30
0.0
 10
46.88442096247854
 20
77.6453593244305
 30
0.0
 10
46.69808505145051
 20
77.62017263628822
 30
0.0
 10
46.26038727128096
 20
77.52821919805268
 30
0.0
 10
45.69233988133723
 20
77.29551861767256
 30
0.0
 10
45.09692020956801
 20
76.90258002918654
 30
0.0
 10
44.80379169369521
 20
76.64196889618725
 30
0.0
 10
44.6778119795982
 20
76.52996438537399
 30
0.0
  0
ARC
  5
151
330
1F
100
AcDbEntity
  8
0
  6
Continuous
 62
     7
370
    25
100
AcDbCircle
 10
75.9405373576
 20
77.7569571888
 30
0.0
 40
2.573992516660379
100
AcDbArc
 50
195.9542434294
 51
208.4693494853
  0
SPLINE
  5
152
330
1F
100
AcDbEntity
  8
0
  6
Continuous
 62
     7
370
    25
100
AcDbSpline
210
0.0
220
0.0
230
1.0
 70
     8
 71
     3
 72
    11
 73
     7
 74
     0
 42
0.00000001
 43
0.00000001
 40
0.0
 40
0.0
 40
0.0
 40
0.0
 40
0.3703424215671228
 40
0.808173663167896
 40
0.9944317652533816
 40
1.0
 40
1.0
 40
1.0
 40
1.0
 10
73.46569113524795
 20
77.04944489093882
 30
0.0
 10
73.79768510151614
 20
77.18566282765434
 30
0.0
 10
74.52217347833572
 20
77.48292218141323
 30
0.0
 10
75.45229922389368
 20
77.63699514483461
 30
0.0
 10
76.03913692343612
 20
77.66323392088796
 30
0.0
 10
76.21806818846598
 20
77.66337237844189
 30
0.0
 10
76.22326211180128
 20
77.66337639751549
 30
0.0
  0
SPLINE
  5
153
330
1F
100
AcDbEntity
  8
0
  6
Continuous
 62
     7
370
    25
100
AcDbSpline
210
0.0
220
0.0
230
1.0
 70
     8
 71
     3
 72
    17
 73
    13
 74
     0
 42
0.00000001
 43
0.00000001
 40
0.0
 40
0.0
 40
0.0
 40
0.0
 40
0.0051037386011221
 40
0.0335545146957983
 40
0.0512404508407057
 40
0.0783256082042157
 40
0.1200097101225869
 40
0.1849422108378776
 40
0.2894088209386601
 40
0.6174789247950605
 40
0.835601474844878
 40
1.0
 40
1.0
 40
1.0
 40
1.0
 10
76.22326211180128
 20
77.66337639751549
 30
0.0
 10
76.21874829487837
 20
77.66336990528897
 30
0.0
 10
76.18907221855251
 20
77.66332722216455
 30
0.0
 10
76.1437533014968
 20
77.66253034223226
 30
0.0
 10
76.07900502413041
 20
77.6601079855543
 30
0.0
 10
76.00256917142889
 20
77.65572476040639
 30
0.0
 10
75.88442096247853
 20
77.64535932443047
 30
0.0
 10
75.69808505145049
 20
77.62017263628815
 30
0.0
 10
75.26038727128095
 20
77.52821919805267
 30
0.0
 10
74.69233988133722
 20
77.29551861767247
 30
0.0
 10
74.09692020956803
 20
76.9025800291865
 30
0.0
 10
73.80379169369522
 20
76.6419688961872
 30
0.0
 10
73.6778119795982
 20
76.52996438537394
 30
0.0
  0
SPLINE
  5
154
330
1F
100
AcDbEntity
  8
0
  6
Continuous
 62
     7
370
    25
100
AcDbSpline
210
0.0
220
0.0
230
1.0
 70
     8
 71
     3
 72
    17
 73
    13
 74
     0
 42
0.00000001
 43
0.00000001
 40
0.0
 40
0.0
 40
0.0
 40
0.0
 40
0.1643985251551227
 40
0.3825210752049391
 40
0.7105911790613395
 40
0.8150577891621213
 40
0.8799902898774139
 40
0.9216743917957922
 40
0.9487595491592885
 40
0.9664454853042478
 40
0.9948962613988783
 40
1.0
 40
1.0
 40
1.0
 40
1.0
 10
78.76871224400433
 20
76.52996438537393
 30
0.0
 10
78.64273252990732
 20
76.64196889618718
 30
0.0
 10
78.34960401403451
 20
76.90258002918648
 30
0.0
 10
77.7541843422653
 20
77.29551861767249
 30
0.0
 10
77.1861369523216
 20
77.52821919805265
 30
0.0
 10
76.74843917215205
 20
77.62017263628815
 30
0.0
 10
76.56210326112402
 20
77.64535932443047
 30
0.0
 10
76.44395505217366
 20
77.65572476040639
 30
0.0
 10
76.36751919947211
 20
77.6601079855543
 30
0.0
 10
76.30277092210572
 20
77.66253034223229
 30
0.0
 10
76.2574520050503
 20
77.66332722216455
 30
0.0
 10
76.22777592872423
 20
77.66336990528899
 30
0.0
 10
76.22326211180128
 20
77.66337639751549
 30
0.0
  0
SPLINE
  5
155
330
1F
100
AcDbEntity
  8
0
  6
Continuous
 62
     7
370
    25
100
AcDbSpline
210
0.0
220
0.0
230
1.0
 70
     8
 71
     3
 72
    17
 73
    13
 74
     0
 42
0.00000001
 43
0.00000001
 40
0.0
 40
0.0
 40
0.0
 40
0.0
 40
0.1643985251551219
 40
0.3825210752049406
 40
0.7105911790613395
 40
0.8150577891621317
 40
0.8799902898774276
 40
0.9216743917957885
 40
0.9487595491592796
 40
0.9664454853042046
 40
0.9948962613988783
 40
1.0
 40
1.0
 40
1.0
 40
1.0
 10
49.76871224400433
 20
76.52996438537399
 30
0.0
 10
49.64273252990732
 20
76.64196889618724
 30
0.0
 10
49.3496040140345
 20
76.90258002918654
 30
0.0
 10
48.7541843422653
 20
77.29551861767254
 30
0.0
 10
48.18613695232159
 20
77.5282191980527
 30
0.0
 10
47.74843917215202
 20
77.62017263628822
 30
0.0
 10
47.56210326112399
 20
77.6453593244305
 30
0.0
 10
47.44395505217366
 20
77.65572476040644
 30
0.0
 10
47.36751919947213
 20
77.66010798555435
 30
0.0
 10
47.30277092210577
 20
77.6625303422323
 30
0.0
 10
47.25745200505003
 20
77.6633272221646
 30
0.0
 10
47.22777592872418
 20
77.66336990528902
 30
0.0
 10
47.22326211180126
 20
77.66337639751552
 30
0.0
  0
ARC
  5
156
330
1F
100
AcDbEntity
  8
0
  6
Continuous
 62
     7
370
    25
100
AcDbCircle
 10
76.505986866
 20
77.7569571888
 30
0.0
 40
2.57399251666028
100
AcDbArc
 50
331.5306505147
 51
344.0457565706
  0
SPLINE
  5
157
330
1F
100
AcDbEntity
  8
0
  6
Continuous
 62
     7
370
    25
100
AcDbSpline
210
0.0
220
0.0
230
1.0
 70
     8
 71
     3
 72
    11
 73
     7
 74
     0
 42
0.00000001
 43
0.00000001
 40
0.0
 40
0.0
 40
0.0
 40
0.0
 40
0.0055682347466183
 40
0.1918263368321046
 40
0.6296575784328777
 40
1.0
 40
1.0
 40
1.0
 40
1.0
 10
76.22326211180128
 20
77.66337639751549
 30
0.0
 10
76.22845603513656
 20
77.6633723784419
 30
0.0
 10
76.40738730016642
 20
77.66323392088786
 30
0.0
 10
76.99422499970886
 20
77.63699514483471
 30
0.0
 10
77.92435074526682
 20
77.48292218141323
 30
0.0
 10
78.64883912208641
 20
77.18566282765433
 30
0.0
 10
78.9808330883546
 20
77.04944489093882
 30
0.0
  0
SPLINE
  5
158
330
1F
100
AcDbEntity
  8
0
  6
Continuous
 62
     7
370
    25
100
AcDbSpline
210
0.0
220
0.0
230
1.0
 70
     8
 71
     3
 72
    11
 73
     7
 74
     0
 42
0.00000001
 43
0.00000001
 40
0.0
 40
0.0
 40
0.0
 40
0.0
 40
0.0055682347466179
 40
0.1918263368321036
 40
0.6296575784328761
 40
1.0
 40
1.0
 40
1.0
 40
1.0
 10
47.22326211180126
 20
77.66337639751552
 30
0.0
 10
47.22845603513656
 20
77.66337237844193
 30
0.0
 10
47.40738730016643
 20
77.663233920888
 30
0.0
 10
47.99422499970885
 20
77.63699514483466
 30
0.0
 10
48.92435074526681
 20
77.48292218141329
 30
0.0
 10
49.6488391220864
 20
77.18566282765438
 30
0.0
 10
49.98083308835459
 20
77.04944489093886
 30
0.0
  0
ARC
  5
159
330
1F
100
AcDbEntity
  8
0
  6
Continuous
 62
     7
370
    25
100
AcDbCircle
 10
47.505986866
 20
77.7569571888
 30
0.0
 40
2.573992516659418
100
AcDbArc
 50
331.5306505147
 51
344.0457565706
  0
ARC
  5
15A
330
1F
100
AcDbEntity
  8
0
  6
Continuous
 62
     7
370
    25
100
AcDbCircle
 10
47.2232621118
 20
71.1633763975
 30
0.0
 40
6.500000000000001
100
AcDbArc
 50
31.778642179
 51
64.8973257832
  0
ARC
  5
15B
330
1F
100
AcDbEntity
  8
0
  6
Continuous
 62
     7
370
    25
100
AcDbCircle
 10
51.7862050761
 20
75.3875989629
 30
0.0
 40
1.252349853183165
100
AcDbArc
 50
295.4209982681
 51
320.2340472941
  0
ARC
  5
15C
330
1F
100
AcDbEntity
  8
0
  6
Continuous
 62
     7
370
    25
100
AcDbCircle
 10
76.2232621118
 20
71.1633763975
 30
0.0
 40
6.500000000000004
100
AcDbArc
 50
308.4313932617
 51
64.8973257832
  0
ARC
  5
15D
330
1F
100
AcDbEntity
  8
0
  6
Continuous
 62
     7
370
    25
100
AcDbCircle
 10
81.0533053993
 20
67.1380049929
 30
0.0
 40
1.327038068258293
100
AcDbArc
 50
213.9678392762
 51
233.4763769747
  0
ARC
  5
15E
330
1F
100
AcDbEntity
  8
0
  6
Continuous
 62
     7
370
    25
100
AcDbCircle
 10
71.6603191475
 20
75.3875989629
 30
0.0
 40
1.252349853183715
100
AcDbArc
 50
219.7659527059
 51
244.5790017319
  0
ARC
  5
15F
330
1F
100
AcDbEntity
  8
0
  6
Continuous
 62
     7
370
    25
100
AcDbCircle
 10
76.2232621118
 20
71.1633763975
 30
0.0
 40
6.499999999999995
100
AcDbArc
 50
115.1026742168
 51
148.221357821
  0
ARC
  5
160
330
1F
100
AcDbEntity
  8
0
  6
Continuous
 62
     7
370
    25
100
AcDbCircle
 10
42.3932188243
 20
67.1380049929
 30
0.0
 40
1.327038068258151
100
AcDbArc
 50
306.5236230253
 51
326.0321607238
  0
ARC
  5
161
330
1F
100
AcDbEntity
  8
0
  6
Continuous
 62
     7
370
    25
100
AcDbCircle
 10
47.2232621118
 20
71.1633763975
 30
0.0
 40
6.500000000000004
100
AcDbArc
 50
115.1026742168
 51
231.5686067383
  0
ARC
  5
162
330
1F
100
AcDbEntity
  8
0
  6
Continuous
 62
     7
370
    25
100
AcDbCircle
 10
68.9975050657
 20
75.6398074661
 30
0.0
 40
2.000000000000011
100
AcDbArc
 50
227.5796275115
 51
328.221357821
  0
SPLINE
  5
163
330
1F
100
AcDbEntity
  8
0
  6
Continuous
 62
     7
370
    25
100
AcDbSpline
210
0.0
220
0.0
230
1.0
 70
    24
 71
     3
 72
    12
 73
     8
 74
     0
 42
0.00000001
 43
0.00000001
 40
0.0
 40
0.0
 40
0.0
 40
0.0
 40
0.2571943124574416
 40
0.524550343975796
 40
0.7385170215182983
 40
0.8882338470637771
 40
1.0
 40
1.0
 40
1.0
 40
1.0
 10
66.93288034240774
 20
74.1633763975155
 30
0.0
 10
67.01757861992887
 20
74.1633763975155
 30
0.0
 10
67.19032159462128
 20
74.1633763975155
 30
0.0
 10
67.40954662338612
 20
74.1633763975155
 30
0.0
 10
67.5589263987655
 20
74.16337639751549
 30
0.0
 10
67.63632291535956
 20
74.16337639751549
 30
0.0
 10
67.64476627452338
 20
74.16337639751549
 30
0.0
 10
67.6483752351413
 20
74.1633763975155
 30
0.0
  0
ARC
  5
164
330
1F
100
AcDbEntity
  8
0
  6
Continuous
 62
     7
370
    25
100
AcDbCircle
 10
54.4490191579
 20
75.6398074661
 30
0.0
 40
2.000000000000002
100
AcDbArc
 50
211.778642179
 51
312.4203724885
  0
SPLINE
  5
165
330
1F
100
AcDbEntity
  8
0
  6
Continuous
 62
     7
370
    25
100
AcDbSpline
210
0.0
220
0.0
230
1.0
 70
    24
 71
     3
 72
    12
 73
     8
 74
     0
 42
0.00000001
 43
0.00000001
 40
0.0
 40
0.0
 40
0.0
 40
0.0
 40
0.144300502635625
 40
0.2873275205918761
 40
0.5201185386439748
 40
0.7602843466484799
 40
1.0
 40
1.0
 40
1.0
 40
1.0
 10
55.79814898846122
 20
74.16337639751552
 30
0.0
 10
55.80413324848572
 20
74.16337639751553
 30
0.0
 10
55.81604895608209
 20
74.16337639751552
 30
0.0
 10
55.90943417827846
 20
74.16337639751552
 30
0.0
 10
56.06219212168013
 20
74.16337639751552
 30
0.0
 10
56.2766580368684
 20
74.16337639751552
 30
0.0
 10
56.43469801642316
 20
74.16337639751552
 30
0.0
 10
56.51364388119479
 20
74.16337639751552
 30
0.0
  0
SPLINE
  5
166
330
1F
100
AcDbEntity
  8
0
  6
Continuous
 62
     7
370
    25
100
AcDbSpline
210
0.0
220
0.0
230
1.0
 70
     8
 71
     3
 72
    15
 73
    11
 74
     0
 42
0.00000001
 43
0.00000001
 40
0.0
 40
0.0
 40
0.0
 40
0.0
 40
0.1525119975281642
 40
0.3103908680493851
 40
0.5397217434700959
 40
0.7785238912153802
 40
0.9076867233570571
 40
0.9610458274988164
 40
0.9967059666277489
 40
1.0
 40
1.0
 40
1.0
 40
1.0
 10
43.49379960161617
 20
66.39655237323247
 30
0.0
 10
43.66237844522805
 20
66.22911645574254
 30
0.0
 10
44.00546839520911
 20
65.88835257739426
 30
0.0
 10
44.65429991091859
 20
65.40951839337531
 30
0.0
 10
45.43972870282377
 20
64.99031932337704
 30
0.0
 10
46.21279006017717
 20
64.7574160371587
 30
0.0
 10
46.7622918244257
 20
64.6819697507277
 30
0.0
 10
47.04737468754926
 20
64.66568491814049
 30
0.0
 10
47.16803968755386
 20
64.66342799271865
 30
0.0
 10
47.2189564968146
 20
64.66338042032119
 30
0.0
 10
47.22326211180124
 20
64.66337639751555
 30
0.0
  0
SPLINE
  5
167
330
1F
100
AcDbEntity
  8
0
  6
Continuous
 62
     7
370
    25
100
AcDbSpline
210
0.0
220
0.0
230
1.0
 70
     8
 71
     3
 72
    14
 73
    10
 74
     0
 42
0.00000001
 43
0.00000001
 40
0.0
 40
0.0
 40
0.0
 40
0.0
 40
0.0034863124123955
 40
0.0203208135699722
 40
0.2238589767031065
 40
0.4593718547945684
 40
0.694592235489442
 40
0.8474054947372491
 40
1.0
 40
1.0
 40
1.0
 40
1.0
 10
47.22326211180124
 20
64.66337639751555
 30
0.0
 10
47.2183813833348
 20
64.66337990263267
 30
0.0
 10
47.18993287915037
 20
64.66340033305407
 30
0.0
 10
46.87654980455714
 20
64.66586217977716
 30
0.0
 10
46.23794800681533
 20
64.71616782823553
 30
0.0
 10
45.3023345802766
 20
64.92605709508236
 30
0.0
 10
44.45611939014417
 20
65.26180645310583
 30
0.0
 10
43.74723411113581
 20
65.65271040494588
 30
0.0
 10
43.37099558050006
 20
65.93202474153317
 30
0.0
 10
43.18301105910075
 20
66.07158187778555
 30
0.0
  0
SPLINE
  5
168
330
1F
100
AcDbEntity
  8
0
  6
Continuous
 62
     7
370
    25
100
AcDbSpline
210
0.0
220
0.0
230
1.0
 70
     8
 71
     3
 72
    15
 73
    11
 74
     0
 42
0.00000001
 43
0.00000001
 40
0.0
 40
0.0
 40
0.0
 40
0.0
 40
0.0032941481656678
 40
0.0389555300109776
 40
0.0923164936584506
 40
0.2214838269818524
 40
0.4557558860746467
 40
0.6896123828215199
 40
0.8449486292273379
 40
1.0
 40
1.0
 40
1.0
 40
1.0
 10
76.22326211180125
 20
64.6633763975155
 30
0.0
 10
76.22756772586546
 20
64.66338042156973
 30
0.0
 10
76.27848452421776
 20
64.66342800873264
 30
0.0
 10
76.39915041547948
 20
64.66568372777029
 30
0.0
 10
76.68422456311939
 20
64.68198035742613
 30
0.0
 10
77.22791923466079
 20
64.75646263322183
 30
0.0
 10
78.0002012748328
 20
64.9889222748288
 30
0.0
 10
78.78390079744455
 20
65.40344484047795
 30
0.0
 10
79.43757845853585
 20
65.88638335533345
 30
0.0
 10
79.7811143339379
 20
66.2266001182673
 30
0.0
 10
79.95272462198632
 20
66.39655237323241
 30
0.0
  0
SPLINE
  5
169
330
1F
100
AcDbEntity
  8
0
  6
Continuous
 62
     7
370
    25
100
AcDbSpline
210
0.0
220
0.0
230
1.0
 70
     8
 71
     3
 72
    14
 73
    10
 74
     0
 42
0.00000001
 43
0.00000001
 40
0.0
 40
0.0
 40
0.0
 40
0.0
 40
0.1525945052627503
 40
0.3054077645105588
 40
0.5406281452054326
 40
0.7761410232968945
 40
0.9796791864300268
 40
0.9965136875876045
 40
1.0
 40
1.0
 40
1.0
 40
1.0
 10
80.26351316450176
 20
66.0715818777855
 30
0.0
 10
80.07552864310246
 20
65.93202474153311
 30
0.0
 10
79.69929011246668
 20
65.65271040494584
 30
0.0
 10
78.99040483345833
 20
65.26180645310578
 30
0.0
 10
78.1441896433259
 20
64.9260570950823
 30
0.0
 10
77.20857621678718
 20
64.71616782823547
 30
0.0
 10
76.56997441904534
 20
64.66586217977714
 30
0.0
 10
76.25659134445213
 20
64.66340033305403
 30
0.0
 10
76.22814284026771
 20
64.66337990263263
 30
0.0
 10
76.22326211180125
 20
64.6633763975155
 30
0.0
  0
SPLINE
  5
16A
330
1F
100
AcDbEntity
  8
0
  6
Continuous
 62
     7
370
    25
100
AcDbSpline
210
0.0
220
0.0
230
1.0
 70
     8
 71
     3
 72
    16
 73
    12
 74
     0
 42
0.00000001
 43
0.00000001
 40
0.0
 40
0.0
 40
0.0
 40
0.0
 40
0.0093770372722067
 40
0.1449784074793551
 40
0.278252279246638
 40
0.4010913490990482
 40
0.5131542856948397
 40
0.6266888454485822
 40
0.7537408321063422
 40
0.8891748694388528
 40
1.0
 40
1.0
 40
1.0
 40
1.0
 10
50.74579453572626
 20
65.70061470379349
 30
0.0
 10
50.75762227275393
 20
65.70812953228344
 30
0.0
 10
50.94049095809443
 20
65.82431632298565
 30
0.0
 10
51.34560919421209
 20
65.99475110199317
 30
0.0
 10
51.96341577851187
 20
66.04570227888482
 30
0.0
 10
52.53057430351151
 20
65.91970681905882
 30
0.0
 10
53.00472259592954
 20
65.6648563118619
 30
0.0
 10
53.37595387170577
 20
65.31800017234494
 30
0.0
 10
53.61085954913541
 20
64.95450535285721
 30
0.0
 10
53.70953842317844
 20
64.70583546731163
 30
0.0
 10
53.71900284928686
 20
64.67655393381044
 30
0.0
 10
53.72326216790684
 20
64.66337623244381
 30
0.0
  0
SPLINE
  5
16B
330
1F
100
AcDbEntity
  8
0
  6
Continuous
 62
     7
370
    25
100
AcDbSpline
210
0.0
220
0.0
230
1.0
 70
     8
 71
     3
 72
    12
 73
     8
 74
     0
 42
0.00000001
 43
0.00000001
 40
0.0
 40
0.0
 40
0.0
 40
0.0
 40
0.0039142694629097
 40
0.2613995162853427
 40
0.5232483696209405
 40
0.758964717915055
 40
1.0
 40
1.0
 40
1.0
 40
1.0
 10
47.22326211180124
 20
64.66337639751555
 30
0.0
 10
47.2279622425979
 20
64.66337980377038
 30
0.0
 10
47.54184250259713
 20
64.66360727747214
 30
0.0
 10
48.17096165113864
 20
64.7093711326297
 30
0.0
 10
49.07038423162894
 20
64.91065142845467
 30
0.0
 10
49.93824493710828
 20
65.22745315431352
 30
0.0
 10
50.47461663888738
 20
65.54172544909929
 30
0.0
 10
50.74579453572626
 20
65.70061470379349
 30
0.0
  0
SPLINE
  5
16C
330
1F
100
AcDbEntity
  8
0
  6
Continuous
 62
     7
370
    25
100
AcDbSpline
210
0.0
220
0.0
230
1.0
 70
     8
 71
     3
 72
    16
 73
    12
 74
     0
 42
0.00000001
 43
0.00000001
 40
0.0
 40
0.0
 40
0.0
 40
0.0
 40
0.0400879241033624
 40
0.1620524644868242
 40
0.273689418946181
 40
0.3878458116547636
 40
0.5157289207825614
 40
0.651286669717973
 40
0.784517668940776
 40
0.9073172229945055
 40
1.0
 40
1.0
 40
1.0
 40
1.0
 10
69.72326205569574
 20
64.6633762324438
 30
0.0
 10
69.72388507036267
 20
64.66517749992956
 30
0.0
 10
69.72640356101653
 20
64.67245899034836
 30
0.0
 10
69.76192881993944
 20
64.77755104703141
 30
0.0
 10
69.884230593188
 20
65.0384190508181
 30
0.0
 10
70.13182508287989
 20
65.38939104917121
 30
0.0
 10
70.5571099295216
 20
65.75200244899106
 30
0.0
 10
71.1326497805985
 20
65.9949896421048
 30
0.0
 10
71.74942570546872
 20
66.04451727997902
 30
0.0
 10
72.29209713962322
 20
65.93002715831601
 30
0.0
 10
72.57783063682933
 20
65.76961207827992
 30
0.0
 10
72.70072968787625
 20
65.7006147037935
 30
0.0
  0
SPLINE
  5
16D
330
1F
100
AcDbEntity
  8
0
  6
Continuous
 62
     7
370
    25
100
AcDbSpline
210
0.0
220
0.0
230
1.0
 70
     8
 71
     3
 72
    12
 73
     8
 74
     0
 42
0.00000001
 43
0.00000001
 40
0.0
 40
0.0
 40
0.0
 40
0.0
 40
0.2353653050919988
 40
0.4767533333124099
 40
0.7341407436541078
 40
0.9960857492732753
 40
1.0
 40
1.0
 40
1.0
 40
1.0
 10
72.70072968787625
 20
65.7006147037935
 30
0.0
 10
72.96542820557136
 20
65.54520799558969
 30
0.0
 10
73.50159856672407
 20
65.23041790311485
 30
0.0
 10
74.36417107161218
 20
64.91406958970579
 30
0.0
 10
75.27015402685949
 20
64.71015347811462
 30
0.0
 10
75.89932517254196
 20
64.66361114635048
 30
0.0
 10
76.21856198237168
 20
64.66337980357937
 30
0.0
 10
76.22326211180125
 20
64.6633763975155
 30
0.0
  0
ARC
  5
16E
330
1F
100
AcDbEntity
  8
0
  6
Continuous
 62
     7
370
    25
100
AcDbCircle
 10
59.5490873645
 20
72.1072014336
 30
0.0
 40
4.408657033483682
100
AcDbArc
 50
83.0838156236
 51
91.2490959636
  0
SPLINE
  5
16F
330
1F
100
AcDbEntity
  8
0
  6
Continuous
 62
     7
370
    25
100
AcDbSpline
210
0.0
220
0.0
230
1.0
 70
     8
 71
     3
 72
    15
 73
    11
 74
     0
 42
0.00000001
 43
0.00000001
 40
0.0
 40
0.0
 40
0.0
 40
0.0
 40
0.1246337044934918
 40
0.2519069547896618
 40
0.3765407248366567
 40
0.4994048858686675
 40
0.6264509366402855
 40
0.7526069675388761
 40
0.8746808545492513
 40
1.0
 40
1.0
 40
1.0
 40
1.0
 10
60.18519424852883
 20
76.49008790816353
 30
0.0
 10
60.18117996503273
 20
76.48945154386563
 30
0.0
 10
60.17306638183088
 20
76.48816533807509
 30
0.0
 10
60.15862829691938
 20
76.48645561217751
 30
0.0
 10
60.1434950884878
 20
76.48501205370526
 30
0.0
 10
60.12813246222226
 20
76.48390721270137
 30
0.0
 10
60.11320157987784
 20
76.48317386485496
 30
0.0
 10
60.09969924016264
 20
76.48290247852634
 30
0.0
 10
60.08801321418619
 20
76.48304876120764
 30
0.0
 10
60.0826716013329
 20
76.48353299547358
 30
0.0
 10
60.07996575973564
 20
76.48377828865667
 30
0.0
  0
SPLINE
  5
170
330
1F
100
AcDbEntity
  8
0
  6
Continuous
 62
     7
370
    25
100
AcDbSpline
210
0.0
220
0.0
230
1.0
 70
     8
 71
     3
 72
    11
 73
     7
 74
     0
 42
0.00000001
 43
0.00000001
 40
0.0
 40
0.0
 40
0.0
 40
0.0
 40
0.2506254296333131
 40
0.5000000000003831
 40
0.7493745703670927
 40
0.9999999999999999
 40
0.9999999999999999
 40
0.9999999999999999
 40
0.9999999999999999
 10
63.26132997825773
 20
76.4900879079226
 30
0.0
 10
63.03161047865223
 20
76.52144596271042
 30
0.0
 10
62.57331799823279
 20
76.58400556576773
 30
0.0
 10
61.72326211340133
 20
76.61004962567635
 30
0.0
 10
60.87320622856393
 20
76.58400556590108
 30
0.0
 10
60.41491374813772
 20
76.52144596291544
 30
0.0
 10
60.18519424852884
 20
76.49008790816353
 30
0.0
  0
SPLINE
  5
171
330
1F
100
AcDbEntity
  8
0
  6
Continuous
 62
     7
370
    25
100
AcDbSpline
210
0.0
220
0.0
230
1.0
 70
     8
 71
     3
 72
    15
 73
    11
 74
     0
 42
0.00000001
 43
0.00000001
 40
0.0
 40
0.0
 40
0.0
 40
0.0
 40
0.1253187789994372
 40
0.24739230904866
 40
0.3734477209264261
 40
0.5005937091734357
 40
0.6235467583552716
 40
0.7480937818221125
 40
0.8753666599534706
 40
1.0
 40
1.0
 40
1.0
 40
1.0
 10
63.36655846705089
 20
76.48377828839918
 30
0.0
 10
63.36385262912331
 20
76.48353299431699
 30
0.0
 10
63.35851102351432
 20
76.48304875827608
 30
0.0
 10
63.34682807992066
 20
76.48290252804966
 30
0.0
 10
63.33332666028707
 20
76.48317369387617
 30
0.0
 10
63.31839232999403
 20
76.48390717081305
 30
0.0
 10
63.30302523478871
 20
76.48501208339108
 30
0.0
 10
63.28789274002211
 20
76.48645607637901
 30
0.0
 10
63.27345781482465
 20
76.48816532005509
 30
0.0
 10
63.26534425178054
 20
76.4894515377399
 30
0.0
 10
63.26132997825773
 20
76.4900879079226
 30
0.0
  0
ARC
  5
172
330
1F
100
AcDbEntity
  8
0
  6
Continuous
 62
     7
370
    25
100
AcDbCircle
 10
63.8974368616
 20
72.1072014334
 30
0.0
 40
4.408657033329606
100
AcDbArc
 50
88.7509040274
 51
96.9161843676
  0
LINE
  5
173
330
1F
100
AcDbEntity
  8
0
  6
Continuous
 62
     7
370
    25
100
AcDbLine
 10
60.0799657597
 20
76.4837782887
 30
0.0
 11
60.0799657597
 21
76.584657773
 31
0.0
  0
SPLINE
  5
174
330
1F
100
AcDbEntity
  8
0
  6
Continuous
 62
     7
370
    25
100
AcDbSpline
210
0.0
220
0.0
230
1.0
 70
     8
 71
     3
 72
    15
 73
    11
 74
     0
 42
0.00000001
 43
0.00000001
 40
0.0
 40
0.0
 40
0.0
 40
0.0
 40
0.1253191957979133
 40
0.2473928354984057
 40
0.3734492416489694
 40
0.5005950046079951
 40
0.623548439177759
 40
0.7480947836179459
 40
0.875367145815387
 40
1.0
 40
1.0
 40
1.0
 40
1.0
 10
60.07996575973564
 20
76.58465777301917
 30
0.0
 10
60.08267155606807
 20
76.5844136938855
 30
0.0
 10
60.08801307316526
 20
76.58393185685658
 30
0.0
 10
60.09969564575433
 20
76.58378634030306
 30
0.0
 10
60.1131966257416
 20
76.58405613465861
 30
0.0
 10
60.12813065459166
 20
76.58478594522433
 30
0.0
 10
60.14349766578071
 20
76.58588536201655
 30
0.0
 10
60.15863040221893
 20
76.58732221729494
 30
0.0
 10
60.1730658320006
 20
76.58902305287792
 30
0.0
 10
60.18117978282984
 20
76.59030297679523
 30
0.0
 10
60.18519424852882
 20
76.59093623311777
 30
0.0
  0
LINE
  5
175
330
1F
100
AcDbEntity
  8
0
  6
Continuous
 62
     7
370
    25
100
AcDbLine
 10
60.1851942485
 20
76.4900879082
 30
0.0
 11
60.1851942485
 21
76.5909362331
 31
0.0
  0
ARC
  5
176
330
1F
100
AcDbEntity
  8
0
  6
Continuous
 62
     7
370
    25
100
AcDbCircle
 10
60.754346508
 20
61.1734608201
 30
0.0
 40
15.49681492841586
100
AcDbArc
 50
94.6954834628
 51
94.8171561263
  0
SPLINE
  5
177
330
1F
100
AcDbEntity
  8
0
  6
Continuous
 62
     7
370
    25
100
AcDbSpline
210
0.0
220
0.0
230
1.0
 70
     8
 71
     3
 72
    15
 73
    11
 74
     0
 42
0.00000001
 43
0.00000001
 40
0.0
 40
0.0
 40
0.0
 40
0.0
 40
0.1241930067305289
 40
0.24965566548923
 40
0.3743703853151211
 40
0.4998404796364203
 40
0.6240146704162364
 40
0.7475381382242062
 40
0.8745858500551824
 40
1.0
 40
1.0
 40
1.0
 40
1.0
 10
60.2660678119318
 20
76.69974926847199
 30
0.0
 10
60.2505074168221
 20
76.69735358812433
 30
0.0
 10
60.21922754931057
 20
76.69253773586948
 30
0.0
 10
60.14179118982221
 20
76.68293343614654
 30
0.0
 10
60.04843718608329
 20
76.6722303898403
 30
0.0
 10
59.94121158006231
 20
76.66080813230013
 30
0.0
 10
59.82682566934139
 20
76.64921202923405
 30
0.0
 10
59.70915490645606
 20
76.63792742200864
 30
0.0
 10
59.59227118123085
 20
76.62721719575524
 30
0.0
 10
59.52112233033612
 20
76.62123683430002
 30
0.0
 10
59.48577809025269
 20
76.61826600162458
 30
0.0
  0
ARC
  5
178
330
1F
100
AcDbEntity
  8
0
  6
Continuous
 62
     7
370
    25
100
AcDbCircle
 10
60.6563104426
 20
74.3644524483
 30
0.0
 40
2.367678303582454
100
AcDbArc
 50
93.3632881502
 51
99.4868245016
  0
ARC
  5
179
330
1F
100
AcDbEntity
  8
0
  6
Continuous
 62
     7
370
    25
100
AcDbCircle
 10
62.7902174676
 20
74.364493699
 30
0.0
 40
2.367636907656199
100
AcDbArc
 50
80.5187694298
 51
86.636742268
  0
SPLINE
  5
17A
330
1F
100
AcDbEntity
  8
0
  6
Continuous
 62
     7
370
    25
100
AcDbSpline
210
0.0
220
0.0
230
1.0
 70
     8
 71
     3
 72
    15
 73
    11
 74
     0
 42
0.00000001
 43
0.00000001
 40
0.0
 40
0.0
 40
0.0
 40
0.0
 40
0.1253320172137759
 40
0.2522975129251759
 40
0.3758847553984062
 40
0.5001929511416487
 40
0.6255758307380153
 40
0.7502289462456482
 40
0.8757444935777827
 40
1.0
 40
1.0
 40
1.0
 40
1.0
 10
63.95292704106676
 20
76.61894736366652
 30
0.0
 10
63.91767612443878
 20
76.62192695580633
 30
0.0
 10
63.84671485858438
 20
76.62792497373596
 30
0.0
 10
63.73072796779601
 20
76.63858534605988
 30
0.0
 10
63.61413160155563
 20
76.64979446727097
 30
0.0
 10
63.50101099497415
 20
76.66128489449952
 30
0.0
 10
63.3951352806347
 20
76.67258265521187
 30
0.0
 10
63.30302619601555
 20
76.68315766880883
 30
0.0
 10
63.22659453214715
 20
76.69264873083739
 30
0.0
 10
63.19562962464786
 20
76.697416112395
 30
0.0
 10
63.18022527652661
 20
76.69978777796972
 30
0.0
  0
ARC
  5
17B
330
1F
100
AcDbEntity
  8
0
  6
Continuous
 62
     7
370
    25
100
AcDbCircle
 10
62.6530123927
 20
60.8932840025
 30
0.0
 40
15.77929866130298
100
AcDbArc
 50
85.1265666158
 51
85.2745602135
  0
ARC
  5
17C
330
1F
100
AcDbEntity
  8
0
  6
Continuous
 62
     7
370
    25
100
AcDbCircle
 10
63.8974345382
 20
72.1862804266
 30
0.0
 40
4.430299389724845
100
AcDbArc
 50
88.7569768639
 51
96.8822041625
  0
SPLINE
  5
17D
330
1F
100
AcDbEntity
  8
0
  6
Continuous
 62
     7
370
    25
100
AcDbSpline
210
0.0
220
0.0
230
1.0
 70
     8
 71
     3
 72
    15
 73
    11
 74
     0
 42
0.00000001
 43
0.00000001
 40
0.0
 40
0.0
 40
0.0
 40
0.0
 40
0.124633218643854
 40
0.2519059530189772
 40
0.3765391000744918
 40
0.4994035903146518
 40
0.6264494152300148
 40
0.7526064410610419
 40
0.874680437736327
 40
1.0
 40
1.0
 40
1.0
 40
1.0
 10
63.26132997825773
 20
76.59093623287802
 30
0.0
 10
63.26534445392587
 20
76.59030298241093
 30
0.0
 10
63.27345842490456
 20
76.5890230703285
 30
0.0
 10
63.28789701674109
 20
76.58732175462424
 30
0.0
 10
63.30303046667418
 20
76.5858853318375
 30
0.0
 10
63.31839300895595
 20
76.58478598629307
 30
0.0
 10
63.33332358779263
 20
76.58405630427562
 30
0.0
 10
63.34682548782195
 20
76.58378629051666
 30
0.0
 10
63.35851114270835
 20
76.58393185926344
 30
0.0
 10
63.36385266704914
 20
76.5844136945247
 30
0.0
 10
63.36655846705089
 20
76.58465777276297
 30
0.0
  0
SPLINE
  5
17E
330
1F
100
AcDbEntity
  8
0
  6
Continuous
 62
     7
370
    25
100
AcDbSpline
210
0.0
220
0.0
230
1.0
 70
     8
 71
     3
 72
    11
 73
     7
 74
     0
 42
0.00000001
 43
0.00000001
 40
0.0
 40
0.0
 40
0.0
 40
0.0
 40
0.2506252605986011
 40
0.4999999999996214
 40
0.7493747394010042
 40
1.0
 40
1.0
 40
1.0
 40
1.0
 10
60.18519424852884
 20
76.59093623311777
 30
0.0
 10
60.41492194270216
 20
76.62214065598641
 30
0.0
 10
60.87323108046514
 20
76.68439380396136
 30
0.0
 10
61.72326211340126
 20
76.71030838975956
 30
0.0
 10
62.57329314633149
 20
76.68439380382866
 30
0.0
 10
63.03160228408777
 20
76.6221406557824
 30
0.0
 10
63.26132997825773
 20
76.59093623287802
 30
0.0
  0
ARC
  5
17F
330
1F
100
AcDbEntity
  8
0
  6
Continuous
 62
     7
370
    25
100
AcDbCircle
 10
59.5490896879
 20
72.1862804267
 30
0.0
 40
4.430299389875813
100
AcDbArc
 50
83.1177958287
 51
91.2430231272
  0
SPLINE
  5
180
330
1F
100
AcDbEntity
  8
0
  6
Continuous
 62
     7
370
    25
100
AcDbSpline
210
0.0
220
0.0
230
1.0
 70
     8
 71
     3
 72
    15
 73
    11
 74
     0
 42
0.00000001
 43
0.00000001
 40
0.0
 40
0.0
 40
0.0
 40
0.0
 40
0.1233867499278388
 40
0.2487396502211602
 40
0.3739317114754985
 40
0.4999973617625658
 40
0.62595913305136
 40
0.7512551380600302
 40
0.8765613478174265
 40
1.0
 40
1.0
 40
1.0
 40
1.0
 10
61.66037924699518
 20
76.76326929481999
 30
0.0
 10
61.66325744818705
 20
76.76326995389213
 30
0.0
 10
61.66905971429869
 20
76.76327128253865
 30
0.0
 10
61.68458911901944
 20
76.7632752321658
 30
0.0
 10
61.70294370089288
 20
76.76327701451515
 30
0.0
 10
61.72325651737579
 20
76.76327856809313
 30
0.0
 10
61.7435749350909
 20
76.76327701395819
 30
0.0
 10
61.76192780425501
 20
76.76327523707762
 30
0.0
 10
61.77746590865052
 20
76.76327126955948
 30
0.0
 10
61.7832664706818
 20
76.76326994976351
 30
0.0
 10
61.78614497660735
 20
76.76326929481999
 30
0.0
  0
ARC
  5
181
330
1F
100
AcDbEntity
  8
0
  6
Continuous
 62
     7
370
    25
100
AcDbCircle
 10
61.6612736747
 20
74.218919882
 30
0.0
 40
2.544349570043972
100
AcDbArc
 50
90.0201414662
 51
95.4127462175
  0
SPLINE
  5
182
330
1F
100
AcDbEntity
  8
0
  6
Continuous
 62
     7
370
    25
100
AcDbSpline
210
0.0
220
0.0
230
1.0
 70
     8
 71
     3
 72
    15
 73
    11
 74
     0
 42
0.00000001
 43
0.00000001
 40
0.0
 40
0.0
 40
0.0
 40
0.0
 40
0.126158522421064
 40
0.2513121451548799
 40
0.3762846848783791
 40
0.4993062783340876
 40
0.6261594278645742
 40
0.7521171342021308
 40
0.8758196922692789
 40
1.0
 40
1.0
 40
1.0
 40
1.0
 10
61.4841485861235
 20
76.75002616340927
 30
0.0
 10
61.47891748963482
 20
76.74997523765879
 30
0.0
 10
61.46849696429217
 20
76.74987379180043
 30
0.0
 10
61.45371041377777
 20
76.7498696101632
 30
0.0
 10
61.44052006115227
 20
76.7499689489838
 30
0.0
 10
61.429649486311
 20
76.75018949118687
 30
0.0
 10
61.42164189898246
 20
76.75051335858835
 30
0.0
 10
61.41747527194977
 20
76.75093322843584
 30
0.0
 10
61.41685422043815
 20
76.75141194550156
 30
0.0
 10
61.41979333279291
 20
76.75175323474711
 30
0.0
 10
61.42126572127565
 20
76.75192420825674
 30
0.0
  0
ARC
  5
183
330
1F
100
AcDbEntity
  8
0
  6
Continuous
 62
     7
370
    25
100
AcDbCircle
 10
61.7232621118
 20
56.1633763975
 30
0.0
 40
20.58803836847347
100
AcDbArc
 50
89.3345405821
 51
90.66545941
  0
SPLINE
  5
184
330
1F
100
AcDbEntity
  8
0
  6
Continuous
 62
     7
370
    25
100
AcDbSpline
210
0.0
220
0.0
230
1.0
 70
     8
 71
     3
 72
    15
 73
    11
 74
     0
 42
0.00000001
 43
0.00000001
 40
0.0
 40
0.0
 40
0.0
 40
0.0
 40
0.1241186784437702
 40
0.2478474916628989
 40
0.3736574149478946
 40
0.5005082335853298
 40
0.6234527658309923
 40
0.7484986612277523
 40
0.8736976492452767
 40
1.0
 40
1.0
 40
1.0
 40
1.0
 10
62.02525850505285
 20
76.75192420822344
 30
0.0
 10
62.02672957766167
 20
76.75175332794494
 30
0.0
 10
62.02966710214005
 20
76.75141210413457
 30
0.0
 10
62.02905036763995
 20
76.75093356784708
 30
0.0
 10
62.02488840604534
 20
76.75051377797517
 30
0.0
 10
62.01688965824696
 20
76.75018999012877
 30
0.0
 10
62.00602356671013
 20
76.74996929192308
 30
0.0
 10
61.99283584888551
 20
76.74986970001291
 30
0.0
 10
61.9780414023103
 20
76.74987361441151
 30
0.0
 10
61.96761281140297
 20
76.74997516521692
 30
0.0
 10
61.96237564028856
 20
76.75002616337665
 30
0.0
  0
ARC
  5
185
330
1F
100
AcDbEntity
  8
0
  6
Continuous
 62
     7
370
    25
100
AcDbCircle
 10
61.7852505489
 20
74.2189198297
 30
0.0
 40
2.544349622299646
100
AcDbArc
 50
84.5872538302
 51
89.9798585321
  0
LINE
  5
186
330
1F
100
AcDbEntity
  8
0
  6
Continuous
 62
     7
370
    25
100
AcDbLine
 10
63.2613299783
 20
76.4900879079
 30
0.0
 11
63.2613299783
 21
76.5909362329
 31
0.0
  0
LINE
  5
187
330
1F
100
AcDbEntity
  8
0
  6
Continuous
 62
     7
370
    25
100
AcDbLine
 10
63.3665584671
 20
76.4837782884
 30
0.0
 11
63.3665584671
 21
76.5846577728
 31
0.0
  0
LINE
  5
188
330
1F
100
AcDbEntity
  8
0
  6
Continuous
 62
     7
370
    25
100
AcDbLine
 10
59.4529825632
 20
76.514810843
 30
0.0
 11
59.4529825632
 21
76.6155372611
 31
0.0
  0
LINE
  5
189
330
1F
100
AcDbEntity
  8
0
  6
Continuous
 62
     7
370
    25
100
AcDbLine
 10
63.9935416635
 20
76.5148108427
 30
0.0
 11
63.9935416635
 21
76.6155372607
 31
0.0
  0
LINE
  5
18A
330
1F
100
AcDbEntity
  8
0
  6
Continuous
 62
     7
370
    25
100
AcDbLine
 10
95.9232621118
 20
38.9133763975
 30
0.0
 11
95.9232621118
 21
55.4133763975
 31
0.0
  0
LINE
  5
18B
330
1F
100
AcDbEntity
  8
0
  6
Continuous
 62
     7
370
    25
100
AcDbLine
 10
94.0232621118
 20
39.4133763975
 30
0.0
 11
94.0232621118
 21
54.9133763975
 31
0.0
  0
LINE
  5
18C
330
1F
100
AcDbEntity
  8
0
  6
Continuous
 62
     7
370
    25
100
AcDbLine
 10
27.5232621118
 20
55.4133763975
 30
0.0
 11
27.5232621118
 21
38.9133763975
 31
0.0
  0
LINE
  5
18D
330
1F
100
AcDbEntity
  8
0
  6
Continuous
 62
     7
370
    25
100
AcDbLine
 10
29.4232621118
 20
54.9133763975
 30
0.0
 11
29.4232621118
 21
39.4133763975
 31
0.0
  0
SPLINE
  5
18E
330
1F
100
AcDbEntity
  8
0
  6
Continuous
 62
     7
370
    25
100
AcDbSpline
210
0.0
220
0.0
230
1.0
 70
     8
 71
     3
 72
    30
 73
    26
 74
     0
 42
0.00000001
 43
0.00000001
 40
0.0
 40
0.0
 40
0.0
 40
0.0
 40
0.0110313853082058
 40
0.0532781727086327
 40
0.0955520990021309
 40
0.1522069357631414
 40
0.2089614443206441
 40
0.2161910189088563
 40
0.2769276943898116
 40
0.3376635961045684
 40
0.3847675483401027
 40
0.431776743458149
 40
0.468775867489767
 40
0.5057362514960442
 40
0.5426545565168653
 40
0.5796219393323876
 40
0.6291575216018938
 40
0.678784856458883
 40
0.7318209990455337
 40
0.7848484581464678
 40
0.8294878117504961
 40
0.8740923649080639
 40
0.9165731334522408
 40
0.9590188931837379
 40
1.0
 40
1.0
 40
1.0
 40
1.0
 10
55.82326211180124
 20
56.66337639751553
 30
0.0
 10
55.82408615914748
 20
56.66267856561782
 30
0.0
 10
55.82806605247969
 20
56.65930825379124
 30
0.0
 10
55.89884776140889
 20
56.5989586101859
 30
0.0
 10
56.12013649150817
 20
56.41342851452797
 30
0.0
 10
56.51069950690468
 20
56.09288256958634
 30
0.0
 10
56.91394159299089
 20
55.779205666046
 30
0.0
 10
57.38075583207977
 20
55.43281637815608
 30
0.0
 10
57.91638366615781
 20
55.05239143115264
 30
0.0
 10
58.73213404416036
 20
54.55436788089202
 30
0.0
 10
59.57369384992465
 20
54.14225000781805
 30
0.0
 10
60.35710076855197
 20
53.86525089160353
 30
0.0
 10
61.13008564565479
 20
53.71383373913999
 30
0.0
 10
61.86067594993708
 20
53.6756842686102
 30
0.0
 10
62.58539841236855
 20
53.75501616502816
 30
0.0
 10
63.35876800218683
 20
53.94751934837277
 30
0.0
 10
64.14916297038492
 20
54.26467894082518
 30
0.0
 10
64.9459669292872
 20
54.68995698133441
 30
0.0
 10
65.67333637136151
 20
55.15241966760412
 30
0.0
 10
66.28753384128052
 20
55.59282596489098
 30
0.0
 10
66.78101857474792
 20
55.97130757264291
 30
0.0
 10
67.1559933410514
 20
56.27299932808201
 30
0.0
 10
67.42651581798023
 20
56.49687104771279
 30
0.0
 10
67.59768114654115
 20
56.64165103511974
 30
0.0
 10
67.61309284888775
 20
56.6546667762977
 30
0.0
 10
67.62066341513605
 20
56.66106039386455
 30
0.0
  0
LINE
  5
18F
330
1F
100
AcDbEntity
  8
0
  6
Continuous
 62
     7
370
    25
100
AcDbLine
 10
54.1900923636
 20
58.1277528725
 30
0.0
 11
69.25643186
 21
58.1277528725
 31
0.0
  0
LINE
  5
190
330
1F
100
AcDbEntity
  8
0
  6
Continuous
 62
     7
370
    25
100
AcDbLine
 10
61.7232621118
 20
75.7673322429
 30
0.0
 11
56.139080328
 21
75.7673322429
 31
0.0
  0
LINE
  5
191
330
1F
100
AcDbEntity
  8
0
  6
Continuous
 62
     7
370
    25
100
AcDbLine
 10
67.3074438956
 20
75.7673322429
 30
0.0
 11
61.7232621118
 21
75.7673322429
 31
0.0
  0
LINE
  5
192
330
1F
100
AcDbEntity
  8
0
  6
Continuous
 62
     7
370
    25
100
AcDbLine
 10
61.660379247
 20
76.7513187329
 30
0.0
 11
61.660379247
 21
76.7632692948
 31
0.0
  0
LINE
  5
193
330
1F
100
AcDbEntity
  8
0
  6
Continuous
 62
     7
370
    25
100
AcDbLine
 10
61.7861449766
 20
76.7513187329
 30
0.0
 11
61.7861449766
 21
76.7632692948
 31
0.0
  0
LINE
  5
194
330
1F
100
AcDbEntity
  8
0
  6
Continuous
 62
     7
370
    18
100
AcDbLine
 10
53.8732621118
 20
35.6633763975
 30
0.0
 11
54.2210807482
 21
24.533180034
 31
0.0
  0
LINE
  5
195
330
1F
100
AcDbEntity
  8
0
  6
Continuous
 62
     7
370
    18
100
AcDbLine
 10
69.2254434754
 20
24.533180034
 30
0.0
 11
69.5732621118
 21
35.6633763975
 31
0.0
  0
LINE
  5
196
330
1F
100
AcDbEntity
  8
0
  6
Continuous
 62
     7
370
    25
100
AcDbLine
 10
69.2976691101
 20
35.6633763975
 30
0.0
 11
68.8712869779
 21
35.6633763975
 31
0.0
  0
LINE
  5
197
330
1F
100
AcDbEntity
  8
0
  6
Continuous
 62
     7
370
    25
100
AcDbLine
 10
54.5752372457
 20
35.6633763975
 30
0.0
 11
54.1488551135
 21
35.6633763975
 31
0.0
  0
LINE
  5
198
330
1F
100
AcDbEntity
  8
0
  6
Continuous
 62
     7
370
    25
100
AcDbLine
 10
62.149644244
 20
35.6633763975
 30
0.0
 11
61.2968799796
 21
35.6633763975
 31
0.0
  0
LINE
  5
199
330
1F
100
AcDbEntity
  8
0
  6
CENTERX2
 62
     7
370
    18
100
AcDbLine
 10
61.7232621118
 20
79.7091273239
 30
0.0
 11
61.7232621118
 21
20.4717949808
 31
0.0
  0
LINE
  5
19A
330
1F
100
AcDbEntity
  8
0
  6
CENTERX2
 62
     7
370
    18
100
AcDbLine
 10
23.9578158151
 20
47.1633763975
 30
0.0
 11
100.2967017292
 21
47.1633763975
 31
0.0
  0
LINE
  5
19B
330
1F
100
AcDbEntity
  8
0
  6
Continuous
 62
     7
370
    25
100
AcDbLine
 10
122.1834157399
 20
35.3213763975
 30
0.0
 11
122.4827397453
 21
25.7430082235
 31
0.0
  0
LINE
  5
19C
330
1F
100
AcDbEntity
  8
0
  6
Continuous
 62
     7
370
    25
100
AcDbLine
 10
138.8840917344
 20
25.7430082235
 30
0.0
 11
139.1834157399
 21
35.3213763975
 31
0.0
  0
LINE
  5
19D
330
1F
100
AcDbEntity
  8
0
  6
Continuous
 62
     7
370
    25
100
AcDbLine
 10
122.4827397453
 20
25.7430082235
 30
0.0
 11
123.6834157399
 21
23.6633763975
 31
0.0
  0
LINE
  5
19E
330
1F
100
AcDbEntity
  8
0
  6
Continuous
 62
     7
370
    25
100
AcDbLine
 10
137.6834157399
 20
23.6633763975
 30
0.0
 11
138.8840917344
 21
25.7430082235
 31
0.0
  0
LINE
  5
19F
330
1F
100
AcDbEntity
  8
0
  6
Continuous
 62
     7
370
    25
100
AcDbLine
 10
136.5834157399
 20
54.9256247831
 30
0.0
 11
136.5834157399
 21
57.6633763975
 31
0.0
  0
LINE
  5
1A0
330
1F
100
AcDbEntity
  8
0
  6
Continuous
 62
     7
370
    25
100
AcDbLine
 10
124.7834157399
 20
57.6633763975
 30
0.0
 11
124.7834157399
 21
54.9256247831
 31
0.0
  0
LINE
  5
1A1
330
1F
100
AcDbEntity
  8
0
  6
Continuous
 62
     7
370
    25
100
AcDbLine
 10
130.6822249125
 20
64.6633763975
 30
0.0
 11
130.6846065672
 21
64.6633763975
 31
0.0
  0
LINE
  5
1A2
330
1F
100
AcDbEntity
  8
0
  6
Continuous
 62
     7
370
    25
100
AcDbLine
 10
133.0397803843
 20
77.6633763975
 30
0.0
 11
128.3270510954
 21
77.6633763975
 31
0.0
  0
ARC
  5
1A3
330
1F
100
AcDbEntity
  8
0
  6
Continuous
 62
     7
370
    25
100
AcDbCircle
 10
104.7676206934
 20
73.5529370083
 30
0.0
 40
20.00000000000001
100
AcDbArc
 50
333.6100518522
 51
1.749051671
  0
ARC
  5
1A4
330
1F
100
AcDbEntity
  8
0
  6
Continuous
 62
     7
370
    25
100
AcDbCircle
 10
156.5992107863
 20
73.5529370083
 30
0.0
 40
19.99999999999999
100
AcDbArc
 50
178.250948329
 51
206.3899481478
  0
LINE
  5
1A5
330
1F
100
AcDbEntity
  8
0
  6
Continuous
 62
     7
370
    25
100
AcDbLine
 10
122.6834157517
 20
64.6633762324
 30
0.0
 11
123.1502459916
 21
58.1277528725
 31
0.0
  0
LINE
  5
1A6
330
1F
100
AcDbEntity
  8
0
  6
Continuous
 62
     7
370
    25
100
AcDbLine
 10
138.2165854881
 20
58.1277528725
 30
0.0
 11
138.6834157281
 21
64.6633762324
 31
0.0
  0
ARC
  5
1A7
330
1F
100
AcDbEntity
  8
0
  6
Continuous
 62
     7
370
    25
100
AcDbCircle
 10
137.7178561382
 20
58.1633763975
 30
0.0
 40
0.50000000000001
100
AcDbArc
 50
270.0
 51
355.91438322
  0
ARC
  5
1A8
330
1F
100
AcDbEntity
  8
0
  6
Continuous
 62
     7
370
    25
100
AcDbCircle
 10
123.6489753416
 20
58.1633763975
 30
0.0
 40
0.50000000000001
100
AcDbArc
 50
184.08561678
 51
270.0
  0
LINE
  5
1A9
330
1F
100
AcDbEntity
  8
0
  6
Continuous
 62
     7
370
    25
100
AcDbLine
 10
136.6085288632
 20
74.1633763975
 30
0.0
 11
136.2675975236
 21
75.7673322429
 31
0.0
  0
LINE
  5
1AA
330
1F
100
AcDbEntity
  8
0
  6
Continuous
 62
     7
370
    25
100
AcDbLine
 10
125.0992339561
 20
75.7673322429
 30
0.0
 11
124.7583026165
 21
74.1633763975
 31
0.0
  0
ARC
  5
1AB
330
1F
100
AcDbEntity
  8
0
  6
Continuous
 62
     7
370
    25
100
AcDbCircle
 10
125.5883077565
 20
75.6633763975
 30
0.0
 40
0.5000000000000201
100
AcDbArc
 50
90.0
 51
168.0
  0
ARC
  5
1AC
330
1F
100
AcDbEntity
  8
0
  6
Continuous
 62
     7
370
    25
100
AcDbCircle
 10
135.7785237233
 20
75.6633763975
 30
0.0
 40
0.5000000000000261
100
AcDbArc
 50
12.0
 51
90.0
  0
ARC
  5
1AD
330
1F
100
AcDbEntity
  8
0
  6
Continuous
 62
     7
370
    25
100
AcDbCircle
 10
130.6834157399
 20
56.1633763975
 30
0.0
 40
20.5
100
AcDbArc
 50
99.3449833975
 51
102.6803834918
  0
ARC
  5
1AE
330
1F
100
AcDbEntity
  8
0
  6
Continuous
 62
     7
370
    25
100
AcDbCircle
 10
130.6834157399
 20
56.1633763975
 30
0.0
 40
20.5
100
AcDbArc
 50
77.3196165082
 51
80.6550166025
  0
CIRCLE
  5
1AF
330
1F
100
AcDbEntity
  8
0
  6
Continuous
 62
     7
370
    25
100
AcDbCircle
 10
130.6834157399
 20
47.1633763975
 30
0.0
 40
8.249999999999996
  0
CIRCLE
  5
1B0
330
1F
100
AcDbEntity
  8
0
  6
Continuous
 62
     7
370
    25
100
AcDbCircle
 10
130.6834157399
 20
47.1633763975
 30
0.0
 40
7.949999999999989
  0
CIRCLE
  5
1B1
330
1F
100
AcDbEntity
  8
0
  6
Continuous
 62
     7
370
    25
100
AcDbCircle
 10
130.6834157399
 20
47.1633763975
 30
0.0
 40
5.324999999999998
  0
CIRCLE
  5
1B2
330
1F
100
AcDbEntity
  8
0
  6
Continuous
 62
     7
370
    25
100
AcDbCircle
 10
130.6834157399
 20
47.1633763975
 30
0.0
 40
5.124999999999996
  0
ARC
  5
1B3
330
1F
100
AcDbEntity
  8
0
  6
Continuous
 62
     7
370
    25
100
AcDbCircle
 10
130.6834157399
 20
47.1633763975
 30
0.0
 40
4.499999999999983
100
AcDbArc
 50
172.4761076295
 51
196.1066305561
  0
LINE
  5
1B4
330
1F
100
AcDbEntity
  8
0
  6
Continuous
 62
     7
370
    25
100
AcDbLine
 10
125.8170185271
 20
45.7248836421
 30
0.0
 11
126.3600539902
 21
45.9149601281
 31
0.0
  0
SPLINE
  5
1B5
330
1F
100
AcDbEntity
  8
0
  6
Continuous
 62
     7
370
    25
100
AcDbSpline
210
0.0
220
0.0
230
1.0
 70
    24
 71
     3
 72
     9
 73
     5
 74
     0
 42
0.00000001
 43
0.00000001
 40
0.0
 40
0.0
 40
0.0
 40
0.0
 40
0.7642597250497204
 40
1.0
 40
1.0
 40
1.0
 40
1.0
 10
125.626322930469
 20
47.86528205158073
 30
0.0
 10
125.7780865152782
 20
47.83658234632068
 30
0.0
 10
125.9766624441608
 20
47.79903005314159
 30
0.0
 10
126.1753261480982
 20
47.76146116099902
 30
0.0
 10
126.222159184287
 20
47.75260466003575
 30
0.0
  0
LINE
  5
1B6
330
1F
100
AcDbEntity
  8
0
  6
Continuous
 62
     7
370
    25
100
AcDbLine
 10
125.9464781947
 20
45.2404530975
 30
0.0
 11
126.5252400987
 21
45.4430347637
 31
0.0
  0
ARC
  5
1B7
330
1F
100
AcDbEntity
  8
0
  6
Continuous
 62
     7
370
    25
100
AcDbCircle
 10
130.6834157399
 20
47.1633763975
 30
0.0
 40
4.499999999999999
100
AcDbArc
 50
202.4761076295
 51
226.1066305561
  0
LINE
  5
1B8
330
1F
100
AcDbEntity
  8
0
  6
Continuous
 62
     7
370
    25
100
AcDbLine
 10
127.1886152451
 20
43.4848443876
 30
0.0
 11
127.5634827696
 21
43.9205353189
 31
0.0
  0
LINE
  5
1B9
330
1F
100
AcDbEntity
  8
0
  6
Continuous
 62
     7
370
    25
100
AcDbLine
 10
126.6714294127
 20
50.2854810617
 30
0.0
 11
127.1144683612
 21
49.9042913193
 31
0.0
  0
ARC
  5
1BA
330
1F
100
AcDbEntity
  8
0
  6
Continuous
 62
     7
370
    25
100
AcDbCircle
 10
130.6834157399
 20
47.1633763975
 30
0.0
 40
4.499999999999996
100
AcDbArc
 50
142.4761076295
 51
166.1066305561
  0
SPLINE
  5
1BB
330
1F
100
AcDbEntity
  8
0
  6
Continuous
 62
     7
370
    25
100
AcDbSpline
210
0.0
220
0.0
230
1.0
 70
    24
 71
     3
 72
     9
 73
     5
 74
     0
 42
0.00000001
 43
0.00000001
 40
0.0
 40
0.0
 40
0.0
 40
0.0
 40
0.756714819401302
 40
1.0
 40
1.0
 40
1.0
 40
1.0
 10
125.7377073935293
 20
48.35308028407122
 30
0.0
 10
125.8833127846322
 20
48.32554514239557
 30
0.0
 10
126.0757305718485
 20
48.2891574029597
 30
0.0
 10
126.2682334119869
 20
48.25275357933732
 30
0.0
 10
126.3150665002158
 20
48.24389706853287
 30
0.0
  0
ARC
  5
1BC
330
1F
100
AcDbEntity
  8
0
  6
Continuous
 62
     7
370
    25
100
AcDbCircle
 10
130.6834157399
 20
47.1633763975
 30
0.0
 40
4.49999999999999
100
AcDbArc
 50
112.4761076295
 51
136.1066305561
  0
LINE
  5
1BD
330
1F
100
AcDbEntity
  8
0
  6
Continuous
 62
     7
370
    25
100
AcDbLine
 10
128.7733205233
 20
51.8636649895
 30
0.0
 11
128.963074106
 21
51.3215520387
 31
0.0
  0
LINE
  5
1BE
330
1F
100
AcDbEntity
  8
0
  6
Continuous
 62
     7
370
    25
100
AcDbLine
 10
126.9768514584
 20
50.6822957973
 30
0.0
 11
127.4405746612
 21
50.2833093678
 31
0.0
  0
ARC
  5
1BF
330
1F
100
AcDbEntity
  8
0
  6
Continuous
 62
     7
370
    25
100
AcDbCircle
 10
130.6834157399
 20
47.1633763975
 30
0.0
 40
4.499999999999998
100
AcDbArc
 50
232.4761076295
 51
256.1066305561
  0
SPLINE
  5
1C0
330
1F
100
AcDbEntity
  8
0
  6
Continuous
 62
     7
370
    25
100
AcDbSpline
210
0.0
220
0.0
230
1.0
 70
    24
 71
     3
 72
    10
 73
     6
 74
     0
 42
0.00000001
 43
0.00000001
 40
0.0
 40
0.0
 40
0.0
 40
0.0
 40
0.0729795361521452
 40
0.6559349137774824
 40
1.0
 40
1.0
 40
1.0
 40
1.0
 10
129.4941817270537
 20
42.22015273609335
 30
0.0
 10
129.496825641721
 20
42.23413371478985
 30
0.0
 10
129.5205889599161
 20
42.35979376333668
 30
0.0
 10
129.5568306934008
 20
42.55143947340551
 30
0.0
 10
129.590426086478
 20
42.72909137750291
 30
0.0
 10
129.6028950688431
 20
42.79502715787086
 30
0.0
  0
LINE
  5
1C1
330
1F
100
AcDbEntity
  8
0
  6
Continuous
 62
     7
370
    25
100
AcDbLine
 10
127.5585736543
 20
43.1482084939
 30
0.0
 11
127.9425008181
 21
43.5944290188
 31
0.0
  0
LINE
  5
1C2
330
1F
100
AcDbEntity
  8
0
  6
Continuous
 62
     7
370
    25
100
AcDbLine
 10
131.3796578892
 20
52.1905206842
 30
0.0
 11
131.2726440024
 21
51.6246329531
 31
0.0
  0
ARC
  5
1C3
330
1F
100
AcDbEntity
  8
0
  6
Continuous
 62
     7
370
    25
100
AcDbCircle
 10
130.6834157399
 20
47.1633763975
 30
0.0
 40
4.500000000000002
100
AcDbArc
 50
82.4761076295
 51
106.1066305561
  0
LINE
  5
1C4
330
1F
100
AcDbEntity
  8
0
  6
Continuous
 62
     7
370
    25
100
AcDbLine
 10
129.2341989061
 20
52.0604115654
 30
0.0
 11
129.4349994705
 21
51.4867381472
 31
0.0
  0
SPLINE
  5
1C5
330
1F
100
AcDbEntity
  8
0
  6
Continuous
 62
     7
370
    25
100
AcDbSpline
210
0.0
220
0.0
230
1.0
 70
    24
 71
     3
 72
    10
 73
     6
 74
     0
 42
0.00000001
 43
0.00000001
 40
0.0
 40
0.0
 40
0.0
 40
0.0
 40
0.0585147645120232
 40
0.6505662912975757
 40
1.0
 40
1.0
 40
1.0
 40
1.0
 10
129.9871439633638
 20
42.13607544307312
 30
0.0
 10
129.9892312819545
 20
42.14711315057161
 30
0.0
 10
130.012438059348
 20
42.2698302202139
 30
0.0
 10
130.0481231284361
 20
42.45853229781026
 30
0.0
 10
130.0817185021587
 20
42.63618409956043
 30
0.0
 10
130.0941874773402
 20
42.70211984194205
 30
0.0
  0
ARC
  5
1C6
330
1F
100
AcDbEntity
  8
0
  6
Continuous
 62
     7
370
    25
100
AcDbCircle
 10
130.6834157399
 20
47.1633763975
 30
0.0
 40
4.500000000000004
100
AcDbArc
 50
262.4761076295
 51
286.1066305561
  0
LINE
  5
1C7
330
1F
100
AcDbEntity
  8
0
  6
Continuous
 62
     7
370
    25
100
AcDbLine
 10
132.1324342505
 20
42.2669078251
 30
0.0
 11
131.9318320093
 21
42.8400146479
 31
0.0
  0
ARC
  5
1C8
330
1F
100
AcDbEntity
  8
0
  6
Continuous
 62
     7
370
    25
100
AcDbCircle
 10
130.6834157399
 20
47.1633763975
 30
0.0
 40
4.50000000000001
100
AcDbArc
 50
292.4761076295
 51
316.1066305561
  0
LINE
  5
1C9
330
1F
100
AcDbEntity
  8
0
  6
Continuous
 62
     7
370
    25
100
AcDbLine
 10
134.3904709966
 20
43.6440345636
 30
0.0
 11
133.9262568185
 21
44.0434434273
 31
0.0
  0
LINE
  5
1CA
330
1F
100
AcDbEntity
  8
0
  6
Continuous
 62
     7
370
    25
100
AcDbLine
 10
132.5934818767
 20
42.4631708842
 30
0.0
 11
132.4037573737
 21
43.0052007563
 31
0.0
  0
ARC
  5
1CB
330
1F
100
AcDbEntity
  8
0
  6
Continuous
 62
     7
370
    25
100
AcDbCircle
 10
130.6834157399
 20
47.1633763975
 30
0.0
 40
4.500000000000004
100
AcDbArc
 50
52.4761076295
 51
76.1066305561
  0
LINE
  5
1CC
330
1F
100
AcDbEntity
  8
0
  6
Continuous
 62
     7
370
    25
100
AcDbLine
 10
133.8085198052
 20
51.1788487879
 30
0.0
 11
133.4243306616
 21
50.7323237762
 31
0.0
  0
LINE
  5
1CD
330
1F
100
AcDbEntity
  8
0
  6
Continuous
 62
     7
370
    25
100
AcDbLine
 10
131.8727149298
 20
52.1069447148
 30
0.0
 11
131.7639364109
 21
51.5317256372
 31
0.0
  0
LINE
  5
1CE
330
1F
100
AcDbEntity
  8
0
  6
Continuous
 62
     7
370
    25
100
AcDbLine
 10
135.4209687074
 20
49.0865151113
 30
0.0
 11
134.841591381
 21
48.8837180313
 31
0.0
  0
ARC
  5
1CF
330
1F
100
AcDbEntity
  8
0
  6
Continuous
 62
     7
370
    25
100
AcDbCircle
 10
130.6834157399
 20
47.1633763975
 30
0.0
 40
4.50000000000002
100
AcDbArc
 50
22.4761076295
 51
46.1066305561
  0
LINE
  5
1D0
330
1F
100
AcDbEntity
  8
0
  6
Continuous
 62
     7
370
    25
100
AcDbLine
 10
134.178145297
 20
50.84182596
 30
0.0
 11
133.8033487101
 21
50.4062174761
 31
0.0
  0
ARC
  5
1D1
330
1F
100
AcDbEntity
  8
0
  6
Continuous
 62
     7
370
    25
100
AcDbCircle
 10
130.6834157399
 20
47.1633763975
 30
0.0
 40
4.500000000000027
100
AcDbArc
 50
352.4761076295
 51
16.1066305561
  0
LINE
  5
1D2
330
1F
100
AcDbEntity
  8
0
  6
Continuous
 62
     7
370
    25
100
AcDbLine
 10
135.5499441819
 20
48.6019150865
 30
0.0
 11
135.0067774895
 21
48.4117926669
 31
0.0
  0
LINE
  5
1D3
330
1F
100
AcDbEntity
  8
0
  6
Continuous
 62
     7
370
    25
100
AcDbLine
 10
135.7399246935
 20
46.4615811552
 30
0.0
 11
135.1446722954
 21
46.574148135
 31
0.0
  0
LINE
  5
1D4
330
1F
100
AcDbEntity
  8
0
  6
Continuous
 62
     7
370
    25
100
AcDbLine
 10
134.6951456546
 20
44.04149235
 30
0.0
 11
134.2523631185
 21
44.4224614758
 31
0.0
  0
ARC
  5
1D5
330
1F
100
AcDbEntity
  8
0
  6
Continuous
 62
     7
370
    25
100
AcDbCircle
 10
130.6834157399
 20
47.1633763975
 30
0.0
 40
4.500000000000008
100
AcDbArc
 50
322.4761076295
 51
346.1066305561
  0
LINE
  5
1D6
330
1F
100
AcDbEntity
  8
0
  6
Continuous
 62
     7
370
    25
100
AcDbLine
 10
135.6295074918
 20
45.9736000059
 30
0.0
 11
135.0517649795
 21
46.0828557265
 31
0.0
  0
LWPOLYLINE
  5
1D7
330
1F
100
AcDbEntity
  8
0
  6
Continuous
 62
     7
370
    25
100
AcDbPolyline
 90
        3
 70
   128
 43
0.0
 10
133.6867752766
 20
51.0387987993
 10
133.8648488251
 20
50.8939997802
 10
134.066992883
 20
50.7116820516
  0
LINE
  5
1D8
330
1F
100
AcDbEntity
  8
0
  6
Continuous
 62
     7
370
    25
100
AcDbLine
 10
135.222656647
 20
49.0165788382
 30
0.0
 11
135.3884576154
 21
48.5423790258
 31
0.0
  0
LWPOLYLINE
  5
1D9
330
1F
100
AcDbEntity
  8
0
  6
Continuous
 62
     7
370
    25
100
AcDbPolyline
 90
        3
 70
   128
 43
0.0
 10
135.5414445764
 20
46.5010901131
 10
135.5251869117
 20
46.3911593179
 10
135.4473344168
 20
46.0040032314
  0
LWPOLYLINE
  5
1DA
330
1F
100
AcDbEntity
  8
0
  6
Continuous
 62
     7
370
    25
100
AcDbPolyline
 90
        3
 70
   128
 43
0.0
 10
134.5606989328
 20
44.1624194934
 10
134.2953578585
 20
43.8478158974
 10
134.2308993633
 20
43.7789374129
  0
LINE
  5
1DB
330
1F
100
AcDbEntity
  8
0
  6
Continuous
 62
     7
370
    25
100
AcDbLine
 10
132.5396556897
 20
42.6253767779
 30
0.0
 11
132.0656125197
 21
42.4592718748
 31
0.0
  0
LWPOLYLINE
  5
1DC
330
1F
100
AcDbEntity
  8
0
  6
Continuous
 62
     7
370
    25
100
AcDbPolyline
 90
        3
 70
   128
 43
0.0
 10
130.0197667371
 20
42.3055335326
 10
129.7348825678
 20
42.3530383511
 10
129.5269328879
 20
42.3987552466
  0
LINE
  5
1DD
330
1F
100
AcDbEntity
  8
0
  6
Continuous
 62
     7
370
    25
100
AcDbLine
 10
127.6789107459
 20
43.2888419687
 30
0.0
 11
127.2979795005
 21
43.6168444622
 31
0.0
  0
LWPOLYLINE
  5
1DE
330
1F
100
AcDbEntity
  8
0
  6
Continuous
 62
     7
370
    25
100
AcDbPolyline
 90
        3
 70
   128
 43
0.0
 10
126.145364441
 20
45.3072627943
 10
126.0832152339
 20
45.4671386182
 10
125.9780772143
 20
45.7853863182
  0
LWPOLYLINE
  5
1DF
330
1F
100
AcDbEntity
  8
0
  6
Continuous
 62
     7
370
    25
100
AcDbPolyline
 90
        3
 70
   128
 43
0.0
 10
125.8251171626
 20
47.8236810494
 10
125.9109292687
 20
48.2869600312
 10
125.9187687321
 20
48.3197527163
  0
LWPOLYLINE
  5
1E0
330
1F
100
AcDbEntity
  8
0
  6
Continuous
 62
     7
370
    25
100
AcDbPolyline
 90
        3
 70
   128
 43
0.0
 10
126.8071022318
 20
50.1655857317
 10
126.8390888762
 20
50.2064370713
 10
127.1344284462
 20
50.5462385715
  0
LWPOLYLINE
  5
1E1
330
1F
100
AcDbEntity
  8
0
  6
Continuous
 62
     7
370
    25
100
AcDbPolyline
 90
        3
 70
   128
 43
0.0
 10
128.8295467261
 20
51.7023451106
 10
129.1563182373
 20
51.8224579075
 10
129.3030375664
 20
51.8680148956
  0
LINE
  5
1E2
330
1F
100
AcDbEntity
  8
0
  6
Continuous
 62
     7
370
    25
100
AcDbLine
 10
131.3475565196
 20
52.0211520535
 30
0.0
 11
131.8390993825
 21
51.9281914639
 31
0.0
  0
LWPOLYLINE
  5
1E3
330
1F
100
AcDbEntity
  8
0
  6
Continuous
 62
     7
370
    25
100
AcDbPolyline
 90
        3
 70
   128
 43
0.0
 10
133.6196499648
 20
50.9605501592
 10
133.8359860238
 20
50.7829482789
 10
133.9998745198
 20
50.6334053831
  0
LINE
  5
1E4
330
1F
100
AcDbEntity
  8
0
  6
Continuous
 62
     7
370
    25
100
AcDbLine
 10
135.1253465152
 20
48.9825110783
 30
0.0
 11
135.2912462065
 21
48.5079575185
 31
0.0
  0
LWPOLYLINE
  5
1E5
330
1F
100
AcDbEntity
  8
0
  6
Continuous
 62
     7
370
    25
100
AcDbPolyline
 90
        3
 70
   128
 43
0.0
 10
135.4402753762
 20
46.5212810771
 10
135.394342082
 20
46.2429563851
 10
135.3460431098
 20
46.0232421908
  0
LINE
  5
1E6
330
1F
100
AcDbEntity
  8
0
  6
Continuous
 62
     7
370
    25
100
AcDbLine
 10
134.4824746994
 20
44.229581752
 30
0.0
 11
134.154017627
 21
43.8475171513
 31
0.0
  0
LWPOLYLINE
  5
1E7
330
1F
100
AcDbEntity
  8
0
  6
Continuous
 62
     7
370
    25
100
AcDbPolyline
 90
        3
 70
   128
 43
0.0
 10
132.504704827
 20
42.7223285413
 10
132.241771798
 20
42.6233845037
 10
132.0311270372
 20
42.5564604813
  0
LINE
  5
1E8
330
1F
100
AcDbEntity
  8
0
  6
Continuous
 62
     7
370
    25
100
AcDbLine
 10
130.0380837887
 20
42.4069547727
 30
0.0
 11
129.544875424
 21
42.5003595684
 31
0.0
  0
LWPOLYLINE
  5
1E9
330
1F
100
AcDbEntity
  8
0
  6
Continuous
 62
     7
370
    25
100
AcDbPolyline
 90
        3
 70
   128
 43
0.0
 10
127.7473760307
 20
43.366052231
 10
127.5308454559
 20
43.5438045161
 10
127.3646346921
 20
43.6955683929
  0
LINE
  5
1EA
330
1F
100
AcDbEntity
  8
0
  6
Continuous
 62
     7
370
    25
100
AcDbLine
 10
126.2432040844
 20
45.3400496427
 30
0.0
 11
126.0758346987
 21
45.8179407991
 31
0.0
  0
LWPOLYLINE
  5
1EB
330
1F
100
AcDbEntity
  8
0
  6
Continuous
 62
     7
370
    25
100
AcDbPolyline
 90
        3
 70
   128
 43
0.0
 10
125.9265737934
 20
47.8056027564
 10
125.9724893978
 20
48.0837964099
 10
126.0197494716
 20
48.2992535643
  0
LINE
  5
1EC
330
1F
100
AcDbEntity
  8
0
  6
Continuous
 62
     7
370
    25
100
AcDbLine
 10
126.8864694842
 20
50.0999048125
 30
0.0
 11
127.213665682
 21
50.4801269965
 31
0.0
  0
LWPOLYLINE
  5
1ED
330
1F
100
AcDbEntity
  8
0
  6
Continuous
 62
     7
370
    25
100
AcDbPolyline
 90
        3
 70
   128
 43
0.0
 10
128.8641925805
 20
51.6052709366
 10
129.1250596817
 20
51.7033682913
 10
129.3391348375
 20
51.7712944584
  0
LINE
  5
1EE
330
1F
100
AcDbEntity
  8
0
  6
Continuous
 62
     7
370
    25
100
AcDbLine
 10
131.3250362329
 20
51.9203001033
 30
0.0
 11
131.8199211353
 21
51.8268896103
 31
0.0
  0
LWPOLYLINE
  5
1EF
330
1F
100
AcDbEntity
  8
0
  6
Continuous
 62
     7
370
    25
100
AcDbPolyline
 90
        3
 70
   128
 43
0.0
 10
133.6867752766
 20
51.0387987993
 10
133.8648488251
 20
50.8939997802
 10
134.066992883
 20
50.7116820516
  0
LWPOLYLINE
  5
1F0
330
1F
100
AcDbEntity
  8
0
  6
Continuous
 62
     7
370
    25
100
AcDbPolyline
 90
        3
 70
   128
 43
0.0
 10
135.5414445764
 20
46.5010901131
 10
135.5251869117
 20
46.3911593179
 10
135.4473344168
 20
46.0040032314
  0
LWPOLYLINE
  5
1F1
330
1F
100
AcDbEntity
  8
0
  6
Continuous
 62
     7
370
    25
100
AcDbPolyline
 90
        3
 70
   128
 43
0.0
 10
134.5606989328
 20
44.1624194934
 10
134.2953578585
 20
43.8478158974
 10
134.2308993633
 20
43.7789374129
  0
LWPOLYLINE
  5
1F2
330
1F
100
AcDbEntity
  8
0
  6
Continuous
 62
     7
370
    25
100
AcDbPolyline
 90
        3
 70
   128
 43
0.0
 10
130.0197667371
 20
42.3055335326
 10
129.7348825678
 20
42.3530383511
 10
129.5269328879
 20
42.3987552466
  0
LWPOLYLINE
  5
1F3
330
1F
100
AcDbEntity
  8
0
  6
Continuous
 62
     7
370
    25
100
AcDbPolyline
 90
        3
 70
   128
 43
0.0
 10
126.145364441
 20
45.3072627943
 10
126.0832152339
 20
45.4671386182
 10
125.9780772143
 20
45.7853863182
  0
LWPOLYLINE
  5
1F4
330
1F
100
AcDbEntity
  8
0
  6
Continuous
 62
     7
370
    25
100
AcDbPolyline
 90
        3
 70
   128
 43
0.0
 10
125.8251171626
 20
47.8236810494
 10
125.9109292687
 20
48.2869600312
 10
125.9187687321
 20
48.3197527163
  0
LWPOLYLINE
  5
1F5
330
1F
100
AcDbEntity
  8
0
  6
Continuous
 62
     7
370
    25
100
AcDbPolyline
 90
        3
 70
   128
 43
0.0
 10
126.8071022318
 20
50.1655857317
 10
126.8390888762
 20
50.2064370713
 10
127.1344284462
 20
50.5462385715
  0
LWPOLYLINE
  5
1F6
330
1F
100
AcDbEntity
  8
0
  6
Continuous
 62
     7
370
    25
100
AcDbPolyline
 90
        3
 70
   128
 43
0.0
 10
128.8295467261
 20
51.7023451106
 10
129.1563182373
 20
51.8224579075
 10
129.3030375664
 20
51.8680148956
  0
CIRCLE
  5
1F7
330
1F
100
AcDbEntity
  8
0
  6
Continuous
 62
     7
370
    25
100
AcDbCircle
 10
130.6834157399
 20
47.1633763975
 30
0.0
 40
9.550000000000013
  0
CIRCLE
  5
1F8
330
1F
100
AcDbEntity
  8
0
  6
Continuous
 62
     7
370
    25
100
AcDbCircle
 10
130.6834157399
 20
47.1633763975
 30
0.0
 40
9.750000000000027
  0
CIRCLE
  5
1F9
330
1F
100
AcDbEntity
  8
0
  6
Continuous
 62
     7
370
    25
100
AcDbCircle
 10
130.6834157399
 20
47.1633763975
 30
0.0
 40
2.999999999999984
  0
LINE
  5
1FA
330
1F
100
AcDbEntity
  8
0
  6
Continuous
 62
     7
370
    25
100
AcDbLine
 10
130.4334157399
 20
36.1633763975
 30
0.0
 11
130.9334157399
 21
36.1633763975
 31
0.0
  0
SPLINE
  5
1FB
330
1F
100
AcDbEntity
  8
0
  6
Continuous
 62
     7
370
    25
100
AcDbSpline
210
0.0
220
0.0
230
1.0
 70
     8
 71
     3
 72
    22
 73
    18
 74
     0
 42
0.00000001
 43
0.00000001
 40
0.0
 40
0.0
 40
0.0
 40
0.0
 40
0.2500000000000013
 40
0.2500000000000013
 40
0.3750000000000018
 40
0.3750000000000018
 40
0.4375000000000018
 40
0.4375000000000018
 40
0.5000000000000019
 40
0.5000000000000019
 40
0.562500000000002
 40
0.562500000000002
 40
0.6250000000000021
 40
0.6250000000000021
 40
0.7500000000000014
 40
0.7500000000000014
 40
1.0
 40
1.0
 40
1.0
 40
1.0
 10
127.0130739458251
 20
36.16337639751552
 30
0.0
 10
126.9529125893124
 20
35.98886769987994
 30
0.0
 10
126.8860685024932
 20
35.81652924298006
 30
0.0
 10
126.7566341728781
 20
35.57879380967299
 30
0.0
 10
126.7082356134855
 20
35.50201124029095
 30
0.0
 10
126.619072103198
 20
35.40565684378138
 30
0.0
 10
126.586413027567
 20
35.37688324331927
 30
0.0
 10
126.5145734601186
 20
35.3346696782903
 30
0.0
 10
126.4740805169735
 20
35.32129658032779
 30
0.0
 10
126.3919726304235
 20
35.32145697492434
 30
0.0
 10
126.3514100870024
 20
35.33496166704378
 30
0.0
 10
126.2789601173731
 20
35.37795310978124
 30
0.0
 10
126.2461945395598
 20
35.40713774595199
 30
0.0
 10
126.1573715599645
 20
35.50377039641867
 30
0.0
 10
126.1091922418662
 20
35.58043164191483
 30
0.0
 10
125.9798432483625
 20
35.81864208194868
 30
0.0
 10
125.9137878913866
 20
35.98924768580427
 30
0.0
 10
125.8537575338955
 20
36.16337639751539
 30
0.0
  0
LINE
  5
1FC
330
1F
100
AcDbEntity
  8
0
  6
Continuous
 62
     7
370
    25
100
AcDbLine
 10
125.8537575339
 20
36.1633763975
 30
0.0
 11
122.4334157399
 21
36.1633763975
 31
0.0
  0
LINE
  5
1FD
330
1F
100
AcDbEntity
  8
0
  6
Continuous
 62
     7
370
    25
100
AcDbLine
 10
122.4334157399
 20
39.1969798577
 30
0.0
 11
122.4334157399
 21
36.1633763975
 31
0.0
  0
SPLINE
  5
1FE
330
1F
100
AcDbEntity
  8
0
  6
Continuous
 62
     7
370
    25
100
AcDbSpline
210
0.0
220
0.0
230
1.0
 70
     8
 71
     3
 72
     9
 73
     5
 74
     0
 42
0.00000001
 43
0.00000001
 40
0.0
 40
0.0
 40
0.0
 40
0.0
 40
0.9259728772382235
 40
1.0
 40
1.0
 40
1.0
 40
1.0
 10
122.4334157398609
 20
39.19697985766068
 30
0.0
 10
123.0619756607618
 20
39.40275483765232
 30
0.0
 10
123.7407859546178
 20
39.62498054755149
 30
0.0
 10
124.4402609435027
 20
39.69002397017109
 30
0.0
 10
124.4920410643736
 20
39.69483894760219
 30
0.0
  0
LINE
  5
1FF
330
1F
100
AcDbEntity
  8
0
  6
Continuous
 62
     7
370
    25
100
AcDbLine
 10
130.4334157399
 20
36.1633763975
 30
0.0
 11
127.0130739458
 21
36.1633763975
 31
0.0
  0
SPLINE
  5
200
330
1F
100
AcDbEntity
  8
0
  6
Continuous
 62
     7
370
    25
100
AcDbSpline
210
0.0
220
0.0
230
1.0
 70
     8
 71
     3
 72
    22
 73
    18
 74
     0
 42
0.00000001
 43
0.00000001
 40
0.0
 40
0.0
 40
0.0
 40
0.0
 40
0.249999999999998
 40
0.249999999999998
 40
0.3749999999999984
 40
0.3749999999999984
 40
0.4374999999999986
 40
0.4374999999999986
 40
0.4999999999999988
 40
0.4999999999999988
 40
0.5624999999999989
 40
0.5624999999999989
 40
0.6249999999999991
 40
0.6249999999999991
 40
0.7499999999999996
 40
0.7499999999999996
 40
1.0
 40
1.0
 40
1.0
 40
1.0
 10
135.5130739458251
 20
36.16337639751552
 30
0.0
 10
135.4529125893124
 20
35.98886769987993
 30
0.0
 10
135.3860685024932
 20
35.81652924298003
 30
0.0
 10
135.2566341728781
 20
35.57879380967294
 30
0.0
 10
135.2082356134856
 20
35.5020112402909
 30
0.0
 10
135.1190721031979
 20
35.40565684378132
 30
0.0
 10
135.0864130275671
 20
35.37688324331923
 30
0.0
 10
135.0145734601186
 20
35.33466967829026
 30
0.0
 10
134.9740805169735
 20
35.3212965803278
 30
0.0
 10
134.8919726304235
 20
35.32145697492435
 30
0.0
 10
134.8514100870024
 20
35.33496166704376
 30
0.0
 10
134.7789601173731
 20
35.37795310978123
 30
0.0
 10
134.7461945395598
 20
35.40713774595199
 30
0.0
 10
134.6573715599645
 20
35.50377039641867
 30
0.0
 10
134.6091922418662
 20
35.58043164191481
 30
0.0
 10
134.4798432483625
 20
35.81864208194867
 30
0.0
 10
134.4137878913866
 20
35.98924768580427
 30
0.0
 10
134.3537575338955
 20
36.16337639751539
 30
0.0
  0
SPLINE
  5
201
330
1F
100
AcDbEntity
  8
0
  6
Continuous
 62
     7
370
    25
100
AcDbSpline
210
0.0
220
0.0
230
1.0
 70
     8
 71
     3
 72
     9
 73
     5
 74
     0
 42
0.00000001
 43
0.00000001
 40
0.0
 40
0.0
 40
0.0
 40
0.0
 40
0.0818158870351308
 40
1.0
 40
1.0
 40
1.0
 40
1.0
 10
136.9195569732734
 20
39.6872057466873
 30
0.0
 10
136.9755144558127
 20
39.68144177534365
 30
0.0
 10
137.6594584252197
 20
39.61099126074885
 30
0.0
 10
138.3236059937613
 20
39.39515619033509
 30
0.0
 10
138.9334157398605
 20
39.19697985766053
 30
0.0
  0
LINE
  5
202
330
1F
100
AcDbEntity
  8
0
  6
Continuous
 62
     7
370
    25
100
AcDbLine
 10
138.9334157399
 20
36.1633763975
 30
0.0
 11
138.9334157399
 21
39.1969798577
 31
0.0
  0
LINE
  5
203
330
1F
100
AcDbEntity
  8
0
  6
Continuous
 62
     7
370
    25
100
AcDbLine
 10
138.9334157399
 20
36.1633763975
 30
0.0
 11
135.5130739458
 21
36.1633763975
 31
0.0
  0
LINE
  5
204
330
1F
100
AcDbEntity
  8
0
  6
Continuous
 62
     7
370
    25
100
AcDbLine
 10
134.3537575339
 20
36.1633763975
 30
0.0
 11
130.9334157399
 21
36.1633763975
 31
0.0
  0
LINE
  5
205
330
1F
100
AcDbEntity
  8
0
  6
Continuous
 62
     7
370
    25
100
AcDbLine
 10
122.4827397453
 20
25.7430082235
 30
0.0
 11
138.8840917344
 21
25.7430082235
 31
0.0
  0
SPLINE
  5
206
330
1F
100
AcDbEntity
  8
0
  6
Continuous
 62
     7
370
    25
100
AcDbSpline
210
0.0
220
0.0
230
1.0
 70
    24
 71
     3
 72
    13
 73
     9
 74
     0
 42
0.00000001
 43
0.00000001
 40
0.0
 40
0.0
 40
0.0
 40
0.0
 40
0.0601425415329374
 40
0.1403351752777922
 40
0.2722521157607374
 40
0.6331308153834342
 40
0.9919502411655508
 40
1.0
 40
1.0
 40
1.0
 40
1.0
 10
139.1834157398605
 20
35.32486507762248
 30
0.0
 10
139.1834157398605
 20
35.32504801026429
 30
0.0
 10
139.1834157398605
 20
35.32547486093766
 30
0.0
 10
139.1834157398605
 20
35.36921307763826
 30
0.0
 10
139.1834157398605
 20
35.50643991250592
 30
0.0
 10
139.1834157398605
 20
35.78464217872413
 30
0.0
 10
139.1834157398604
 20
36.03278209569637
 30
0.0
 10
139.1834157398605
 20
36.16057245108081
 30
0.0
 10
139.1834157398605
 20
36.16337639751553
 30
0.0
  0
SPLINE
  5
207
330
1F
100
AcDbEntity
  8
0
  6
Continuous
 62
     7
370
    25
100
AcDbSpline
210
0.0
220
0.0
230
1.0
 70
    24
 71
     3
 72
    13
 73
     9
 74
     0
 42
0.00000001
 43
0.00000001
 40
0.0
 40
0.0
 40
0.0
 40
0.0
 40
0.0080497588344489
 40
0.3668691846165467
 40
0.7277478842392245
 40
0.8596648247221628
 40
0.9398574584670134
 40
1.0
 40
1.0
 40
1.0
 40
1.0
 10
122.1834157398604
 20
36.16337639751553
 30
0.0
 10
122.1834157398604
 20
36.16057245108081
 30
0.0
 10
122.1834157398605
 20
36.03278209569638
 30
0.0
 10
122.1834157398604
 20
35.78464217872413
 30
0.0
 10
122.1834157398604
 20
35.5064399125059
 30
0.0
 10
122.1834157398605
 20
35.36921307763826
 30
0.0
 10
122.1834157398604
 20
35.32547486093766
 30
0.0
 10
122.1834157398604
 20
35.32504801026428
 30
0.0
 10
122.1834157398604
 20
35.32486507762248
 30
0.0
  0
LINE
  5
208
330
1F
100
AcDbEntity
  8
0
  6
Continuous
 62
     7
370
    25
100
AcDbLine
 10
130.6834157399
 20
23.6633763975
 30
0.0
 11
123.6834157399
 21
23.6633763975
 31
0.0
  0
LINE
  5
209
330
1F
100
AcDbEntity
  8
0
  6
Continuous
 62
     7
370
    25
100
AcDbLine
 10
137.6834157399
 20
23.6633763975
 30
0.0
 11
130.6834157399
 21
23.6633763975
 31
0.0
  0
SPLINE
  5
20A
330
1F
100
AcDbEntity
  8
0
  6
Continuous
 62
     7
370
    25
100
AcDbSpline
210
0.0
220
0.0
230
1.0
 70
     8
 71
     3
 72
     8
 73
     4
 74
     0
 42
0.00000001
 43
0.00000001
 40
0.0
 40
0.0
 40
0.0
 40
0.0
 40
1.0
 40
1.0
 40
1.0
 40
1.0
 10
123.755212509585
 20
40.16337639751553
 30
0.0
 10
123.2287916483757
 20
39.90016596691093
 30
0.0
 10
122.705247191662
 20
39.63106853852422
 30
0.0
 10
122.1834157398604
 20
39.35846518594156
 30
0.0
  0
SPLINE
  5
20B
330
1F
100
AcDbEntity
  8
0
  6
Continuous
 62
     7
370
    25
100
AcDbSpline
210
0.0
220
0.0
230
1.0
 70
     8
 71
     3
 72
    10
 73
     6
 74
     0
 42
0.00000001
 43
0.00000001
 40
0.0
 40
0.0
 40
0.0
 40
0.0
 40
0.5
 40
0.5
 40
1.0
 40
1.0
 40
1.0
 40
1.0
 10
122.1834157398604
 20
39.19697985766047
 30
0.0
 10
122.1834157398604
 20
39.17330446323605
 30
0.0
 10
122.2062081891903
 20
39.16021335335147
 30
0.0
 10
122.2941508932835
 20
39.16012703206325
 30
0.0
 10
122.3590086669577
 20
39.17329596600719
 30
0.0
 10
122.4334157398611
 20
39.19697985766074
 30
0.0
  0
SPLINE
  5
20C
330
1F
100
AcDbEntity
  8
0
  6
Continuous
 62
     7
370
    25
100
AcDbSpline
210
0.0
220
0.0
230
1.0
 70
    24
 71
     3
 72
     8
 73
     4
 74
     0
 42
0.00000001
 43
0.00000001
 40
0.0
 40
0.0
 40
0.0
 40
0.0
 40
1.0
 40
1.0
 40
1.0
 40
1.0
 10
122.1834157398604
 20
39.19697985766053
 30
0.0
 10
122.1834157398604
 20
39.25354082478475
 30
0.0
 10
122.1834157398604
 20
39.30748089619858
 30
0.0
 10
122.1834157398604
 20
39.35846518594155
 30
0.0
  0
SPLINE
  5
20D
330
1F
100
AcDbEntity
  8
0
  6
Continuous
 62
     7
370
    25
100
AcDbSpline
210
0.0
220
0.0
230
1.0
 70
     8
 71
     3
 72
     8
 73
     4
 74
     0
 42
0.00000001
 43
0.00000001
 40
0.0
 40
0.0
 40
0.0
 40
0.0
 40
1.0
 40
1.0
 40
1.0
 40
1.0
 10
139.1834157398605
 20
39.35846518594155
 30
0.0
 10
138.6616095885586
 20
39.63105532161089
 30
0.0
 10
138.1379561197024
 20
39.90020782273229
 30
0.0
 10
137.611618970136
 20
40.16337639751553
 30
0.0
  0
SPLINE
  5
20E
330
1F
100
AcDbEntity
  8
0
  6
Continuous
 62
     7
370
    25
100
AcDbSpline
210
0.0
220
0.0
230
1.0
 70
     8
 71
     3
 72
    10
 73
     6
 74
     0
 42
0.00000001
 43
0.00000001
 40
0.0
 40
0.0
 40
0.0
 40
0.0
 40
0.5
 40
0.5
 40
1.0
 40
1.0
 40
1.0
 40
1.0
 10
138.9334157398605
 20
39.19697985766053
 30
0.0
 10
139.0077961172378
 20
39.17330446323614
 30
0.0
 10
139.0720967560236
 20
39.1602133533515
 30
0.0
 10
139.1603124408065
 20
39.16012703206322
 30
0.0
 10
139.1834157398605
 20
39.17329596600705
 30
0.0
 10
139.1834157398605
 20
39.19697985766052
 30
0.0
  0
SPLINE
  5
20F
330
1F
100
AcDbEntity
  8
0
  6
Continuous
 62
     7
370
    25
100
AcDbSpline
210
0.0
220
0.0
230
1.0
 70
    24
 71
     3
 72
     8
 73
     4
 74
     0
 42
0.00000001
 43
0.00000001
 40
0.0
 40
0.0
 40
0.0
 40
0.0
 40
1.0
 40
1.0
 40
1.0
 40
1.0
 10
139.1834157398605
 20
39.19697985766053
 30
0.0
 10
139.1834157398605
 20
39.25354082478475
 30
0.0
 10
139.1834157398605
 20
39.30748089619858
 30
0.0
 10
139.1834157398605
 20
39.35846518594155
 30
0.0
  0
LINE
  5
210
330
1F
100
AcDbEntity
  8
0
  6
Continuous
 62
     7
370
    25
100
AcDbLine
 10
123.1834157399
 20
40.9334085003
 30
0.0
 11
123.1834157399
 21
40.1633763975
 31
0.0
  0
LINE
  5
211
330
1F
100
AcDbEntity
  8
0
  6
Continuous
 62
     7
370
    25
100
AcDbLine
 10
123.1834157399
 20
40.1633763975
 30
0.0
 11
123.8964797596
 21
40.1633763975
 31
0.0
  0
LINE
  5
212
330
1F
100
AcDbEntity
  8
0
  6
Continuous
 62
     7
370
    25
100
AcDbLine
 10
138.1834157399
 20
40.1633763975
 30
0.0
 11
138.1834157399
 21
40.9334085003
 31
0.0
  0
LINE
  5
213
330
1F
100
AcDbEntity
  8
0
  6
Continuous
 62
     7
370
    25
100
AcDbLine
 10
137.4703517201
 20
40.1633763975
 30
0.0
 11
138.1834157399
 21
40.1633763975
 31
0.0
  0
LINE
  5
214
330
1F
100
AcDbEntity
  8
0
  6
Continuous
 62
     7
370
    25
100
AcDbLine
 10
122.1834157399
 20
36.1633763975
 30
0.0
 11
122.4334157399
 21
36.1633763975
 31
0.0
  0
LINE
  5
215
330
1F
100
AcDbEntity
  8
0
  6
Continuous
 62
     7
370
    25
100
AcDbLine
 10
122.1834157399
 20
36.1633763975
 30
0.0
 11
122.1834157399
 21
39.1969798577
 31
0.0
  0
LINE
  5
216
330
1F
100
AcDbEntity
  8
0
  6
Continuous
 62
     7
370
    25
100
AcDbLine
 10
138.9334157399
 20
36.1633763975
 30
0.0
 11
139.1834157399
 21
36.1633763975
 31
0.0
  0
LINE
  5
217
330
1F
100
AcDbEntity
  8
0
  6
Continuous
 62
     7
370
    25
100
AcDbLine
 10
139.1834157399
 20
39.1969798577
 30
0.0
 11
139.1834157399
 21
36.1633763975
 31
0.0
  0
LINE
  5
218
330
1F
100
AcDbEntity
  8
0
  6
Continuous
 62
     7
370
    25
100
AcDbLine
 10
122.1834157399
 20
39.3584651859
 30
0.0
 11
122.1834157399
 21
42.3871331039
 31
0.0
  0
LINE
  5
219
330
1F
100
AcDbEntity
  8
0
  6
Continuous
 62
     7
370
    25
100
AcDbLine
 10
139.1834157399
 20
39.3584651859
 30
0.0
 11
139.1834157399
 21
42.3871331039
 31
0.0
  0
SPLINE
  5
21A
330
1F
100
AcDbEntity
  8
0
  6
Continuous
 62
     7
370
    25
100
AcDbSpline
210
0.0
220
0.0
230
1.0
 70
     8
 71
     3
 72
    11
 73
     7
 74
     0
 42
0.00000001
 43
0.00000001
 40
0.0
 40
0.0
 40
0.0
 40
0.0
 40
0.0055682347466184
 40
0.191826336832104
 40
0.6296575784328784
 40
1.0
 40
1.0
 40
1.0
 40
1.0
 10
128.3270510954255
 20
77.66337639751555
 30
0.0
 10
128.3256668773496
 20
77.66337237844196
 30
0.0
 10
128.2779804030983
 20
77.66323392088799
 30
0.0
 10
128.1240102202599
 20
77.63699514483473
 30
0.0
 10
127.8784351454953
 20
77.4829221814133
 30
0.0
 10
127.8462633596851
 20
77.1856628276544
 30
0.0
 10
127.8315207646141
 20
77.04944489093889
 30
0.0
  0
SPLINE
  5
21B
330
1F
100
AcDbEntity
  8
0
  6
Continuous
 62
     7
370
    25
100
AcDbSpline
210
0.0
220
0.0
230
1.0
 70
     8
 71
     3
 72
    11
 73
     7
 74
     0
 42
0.00000001
 43
0.00000001
 40
0.0
 40
0.0
 40
0.0
 40
0.0
 40
0.3703424215671235
 40
0.8081736631678963
 40
0.9944317652533821
 40
0.9999999999999999
 40
0.9999999999999999
 40
0.9999999999999999
 40
0.9999999999999999
 10
133.5353107151069
 20
77.04944489093887
 30
0.0
 10
133.5205681200359
 20
77.18566282765438
 30
0.0
 10
133.4883963342256
 20
77.48292218141327
 30
0.0
 10
133.2428212594615
 20
77.63699514483469
 30
0.0
 10
133.0888510766224
 20
77.66323392088798
 30
0.0
 10
133.0411646023714
 20
77.66337237844195
 30
0.0
 10
133.0397803842955
 20
77.66337639751552
 30
0.0
  0
LINE
  5
21C
330
1F
100
AcDbEntity
  8
0
  6
Continuous
 62
     7
370
    25
100
AcDbLine
 10
132.1711975596
 20
66.0715818778
 30
0.0
 11
133.5353107151
 21
77.0494448909
 31
0.0
  0
SPLINE
  5
21D
330
1F
100
AcDbEntity
  8
0
  6
Continuous
 62
     7
370
    25
100
AcDbSpline
210
0.0
220
0.0
230
1.0
 70
     8
 71
     3
 72
    14
 73
    10
 74
     0
 42
0.00000001
 43
0.00000001
 40
0.0
 40
0.0
 40
0.0
 40
0.0
 40
0.0034863238848208
 40
0.0203208804397725
 40
0.2238597133569325
 40
0.4563556157495303
 40
0.6945924899112476
 40
0.8457249965626086
 40
1.0
 40
1.0
 40
1.0
 40
1.0
 10
130.684606567192
 20
64.66337639751555
 30
0.0
 10
130.6868592085928
 20
64.66337990386448
 30
0.0
 10
130.6999892728357
 20
64.66340034146567
 30
0.0
 10
130.8446254560921
 20
64.66586088421889
 30
0.0
 10
131.136644715278
 20
64.71590414902664
 30
0.0
 10
131.5480291288163
 20
64.92450678621647
 30
0.0
 10
131.8699863586007
 20
65.25888310134526
 30
0.0
 10
132.086414322312
 20
65.65108469191651
 30
0.0
 10
132.1427432811988
 20
65.93045794357771
 30
0.0
 10
132.1711975596263
 20
66.07158187778555
 30
0.0
  0
SPLINE
  5
21E
330
1F
100
AcDbEntity
  8
0
  6
Continuous
 62
     7
370
    25
100
AcDbSpline
210
0.0
220
0.0
230
1.0
 70
     8
 71
     3
 72
    14
 73
    10
 74
     0
 42
0.00000001
 43
0.00000001
 40
0.0
 40
0.0
 40
0.0
 40
0.0
 40
0.1509076573000543
 40
0.3054080403738428
 40
0.5376023347316407
 40
0.776141640482817
 40
0.9796792424551188
 40
0.9965136971994736
 40
1.0
 40
1.0
 40
1.0
 40
1.0
 10
129.1956339200946
 20
66.07158187778556
 30
0.0
 10
129.223283057864
 20
65.93342249582193
 30
0.0
 10
129.2792395887337
 20
65.65381450998674
 30
0.0
 10
129.4927136859409
 20
65.26504539997121
 30
0.0
 10
129.8151577528584
 20
64.92706300043181
 30
0.0
 10
130.2263055720965
 20
64.71656532712849
 30
0.0
 10
130.5222057166901
 20
64.66586100948341
 30
0.0
 10
130.6668422088778
 20
64.66340034065239
 30
0.0
 10
130.6799722714199
 20
64.66337990374538
 30
0.0
 10
130.6822249125289
 20
64.66337639751555
 30
0.0
  0
LINE
  5
21F
330
1F
100
AcDbEntity
  8
0
  6
Continuous
 62
     7
370
    25
100
AcDbLine
 10
127.8315207646
 20
77.0494448909
 30
0.0
 11
129.1956339201
 21
66.0715818778
 31
0.0
  0
LINE
  5
220
330
1F
100
AcDbEntity
  8
0
  6
Continuous
 62
     7
370
    25
100
AcDbLine
 10
128.7001035893
 20
66.3965523732
 30
0.0
 11
127.3359904338
 21
76.5299643854
 31
0.0
  0
ARC
  5
221
330
1F
100
AcDbEntity
  8
0
  6
Continuous
 62
     7
370
    25
100
AcDbCircle
 10
127.8189574182
 20
76.5653465844
 30
0.0
 40
0.4842613014163183
100
AcDbArc
 50
88.5133904064
 51
184.1900080067
  0
ARC
  5
222
330
1F
100
AcDbEntity
  8
0
  6
Continuous
 62
     7
370
    25
100
AcDbCircle
 10
129.1278174769
 20
66.5084614201
 30
0.0
 40
0.4421117555841313
100
AcDbArc
 50
194.6624451414
 51
278.823554246
  0
LINE
  5
223
330
1F
100
AcDbEntity
  8
0
  6
Continuous
 62
     7
370
    25
100
AcDbLine
 10
134.0308410459
 20
76.5299643854
 30
0.0
 11
132.6667278904
 21
66.3965523732
 31
0.0
  0
ARC
  5
224
330
1F
100
AcDbEntity
  8
0
  6
Continuous
 62
     7
370
    25
100
AcDbCircle
 10
132.2390140028
 20
66.5084614201
 30
0.0
 40
0.4421117555840817
100
AcDbArc
 50
261.176445754
 51
345.3375548586
  0
ARC
  5
225
330
1F
100
AcDbEntity
  8
0
  6
Continuous
 62
     7
370
    25
100
AcDbCircle
 10
133.5478740615
 20
76.5653465844
 30
0.0
 40
0.4842613014162925
100
AcDbArc
 50
355.8099919933
 51
91.4866095936
  0
SPLINE
  5
226
330
1F
100
AcDbEntity
  8
0
  6
Continuous
 62
     7
370
    25
100
AcDbSpline
210
0.0
220
0.0
230
1.0
 70
     8
 71
     3
 72
    15
 73
    11
 74
     0
 42
0.00000001
 43
0.00000001
 40
0.0
 40
0.0
 40
0.0
 40
0.0
 40
0.0032941481656695
 40
0.0389555300109693
 40
0.092316493658448
 40
0.2214838269818533
 40
0.455755886074648
 40
0.6896123828215215
 40
0.844948629227338
 40
1.0
 40
1.0
 40
1.0
 40
1.0
 10
130.6822249125289
 20
64.66337639751555
 30
0.0
 10
130.6793545012751
 20
64.66338042156977
 30
0.0
 10
130.645409946836
 20
64.66342800873268
 30
0.0
 10
130.564972792577
 20
64.66568372777031
 30
0.0
 10
130.3752342791392
 20
64.68198035742618
 30
0.0
 10
130.0165793055545
 20
64.75646263322186
 30
0.0
 10
129.5257464874037
 20
64.98892227482887
 30
0.0
 10
129.0957076904585
 20
65.403444840478
 30
0.0
 10
128.8105217238523
 20
65.88638335533354
 30
0.0
 10
128.7368871067072
 20
66.22660011826737
 30
0.0
 10
128.7001035892832
 20
66.39655237323248
 30
0.0
  0
SPLINE
  5
227
330
1F
100
AcDbEntity
  8
0
  6
Continuous
 62
     7
370
    25
100
AcDbSpline
210
0.0
220
0.0
230
1.0
 70
     8
 71
     3
 72
    15
 73
    11
 74
     0
 42
0.00000001
 43
0.00000001
 40
0.0
 40
0.0
 40
0.0
 40
0.0
 40
0.1525119975281642
 40
0.3103908680493851
 40
0.5397217434700959
 40
0.7785238912153802
 40
0.9076867233570571
 40
0.9610458274988164
 40
0.9967059666277489
 40
1.0
 40
1.0
 40
1.0
 40
1.0
 10
132.6667278904377
 20
66.39655237323247
 30
0.0
 10
132.6307597355699
 20
66.22911645574254
 30
0.0
 10
132.5575577121715
 20
65.88835257739426
 30
0.0
 10
132.2752496887003
 20
65.40951839337531
 30
0.0
 10
131.8444198690173
 20
64.99031932337704
 30
0.0
 10
131.3542003073009
 20
64.7574160371587
 30
0.0
 10
130.991594008677
 20
64.6819697507277
 30
0.0
 10
130.8018590453663
 20
64.66568491814049
 30
0.0
 10
130.7214215280643
 20
64.66342799271865
 30
0.0
 10
130.6874769780699
 20
64.66338042032119
 30
0.0
 10
130.684606567192
 20
64.66337639751555
 30
0.0
  0
SPLINE
  5
228
330
1F
100
AcDbEntity
  8
0
  6
Continuous
 62
     7
370
    25
100
AcDbSpline
210
0.0
220
0.0
230
1.0
 70
     8
 71
     3
 72
    17
 73
    13
 74
     0
 42
0.00000001
 43
0.00000001
 40
0.0
 40
0.0
 40
0.0
 40
0.0
 40
0.1643985251551214
 40
0.3825210752049382
 40
0.7105911790613386
 40
0.8150577891621212
 40
0.8799902898774312
 40
0.9216743917957982
 40
0.948759549159293
 40
0.9664454853042715
 40
0.9948962613988915
 40
1.0
 40
1.0
 40
1.0
 40
1.0
 10
127.3359904338026
 20
76.52996438537402
 30
0.0
 10
127.3327751134265
 20
76.64196889618728
 30
0.0
 10
127.3252937336133
 20
76.90258002918657
 30
0.0
 10
127.5086509486309
 20
77.29551861767256
 30
0.0
 10
127.7846490835054
 20
77.52821919805272
 30
0.0
 10
128.0265140875577
 20
77.62017263628823
 30
0.0
 10
128.1321357557418
 20
77.64535932443053
 30
0.0
 10
128.1998328185722
 20
77.65572476040647
 30
0.0
 10
128.2438196678955
 20
77.66010798555438
 30
0.0
 10
128.2811502922068
 20
77.66253034223234
 30
0.0
 10
128.307311550708
 20
77.66332722216463
 30
0.0
 10
128.3244450419246
 20
77.66336990528904
 30
0.0
 10
128.3270510954255
 20
77.66337639751555
 30
0.0
  0
SPLINE
  5
229
330
1F
100
AcDbEntity
  8
0
  6
Continuous
 62
     7
370
    25
100
AcDbSpline
210
0.0
220
0.0
230
1.0
 70
     8
 71
     3
 72
    17
 73
    13
 74
     0
 42
0.00000001
 43
0.00000001
 40
0.0
 40
0.0
 40
0.0
 40
0.0
 40
0.0051037386011219
 40
0.0335545146957463
 40
0.0512404508406915
 40
0.0783256082042153
 40
0.1200097101225738
 40
0.184942210837869
 40
0.2894088209386605
 40
0.6174789247950596
 40
0.8356014748448788
 40
1.0
 40
1.0
 40
1.0
 40
1.0
 10
133.0397803842955
 20
77.66337639751552
 30
0.0
 10
133.0423864377965
 20
77.66336990528902
 30
0.0
 10
133.0595199290135
 20
77.6633272221646
 30
0.0
 10
133.0856811875142
 20
77.66253034223233
 30
0.0
 10
133.1230118118256
 20
77.66010798555435
 30
0.0
 10
133.1669986611488
 20
77.65572476040644
 30
0.0
 10
133.2346957239793
 20
77.6453593244305
 30
0.0
 10
133.3403173921633
 20
77.62017263628822
 30
0.0
 10
133.5821823962156
 20
77.52821919805268
 30
0.0
 10
133.8581805310901
 20
77.29551861767256
 30
0.0
 10
134.0415377461077
 20
76.90258002918654
 30
0.0
 10
134.0340563662945
 20
76.64196889618725
 30
0.0
 10
134.0308410459184
 20
76.52996438537399
 30
0.0
  0
LWPOLYLINE
  5
22A
330
1F
100
AcDbEntity
  8
0
  6
Continuous
 62
     7
370
    25
100
AcDbPolyline
 90
       15
 70
   128
 43
0.0
 10
130.6822249126
 20
64.6633762324
 10
129.7535772696
 20
64.6633762336
 10
128.8375017164
 20
64.6633762369
 10
127.9463842581
 20
64.6633762424
 10
127.0922734486
 20
64.66337625
 10
126.2867174846
 20
64.6633762596
 10
125.5406080665
 20
64.6633762711
 10
124.8640331342
 20
64.6633762842
 10
124.2661404709
 20
64.6633762989
 10
123.7550140187
 20
64.663376315
 10
123.3375645775
 20
64.6633763321
 10
123.0194363662
 20
64.6633763502
 10
122.8049307087
 20
64.6633763688
 10
122.6969478769
 20
64.6633763879
 10
122.6834157399
 20
64.6633763975
  0
LINE
  5
22B
330
1F
100
AcDbEntity
  8
0
  6
Continuous
 62
     7
370
    25
100
AcDbLine
 10
127.654569586
 20
74.1633763975
 30
0.0
 11
124.7583026165
 21
74.1633763975
 31
0.0
  0
LINE
  5
22C
330
1F
100
AcDbEntity
  8
0
  6
Continuous
 62
     7
370
    25
100
AcDbLine
 10
136.6085288632
 20
74.1633763975
 30
0.0
 11
133.7122618937
 21
74.1633763975
 31
0.0
  0
LWPOLYLINE
  5
22D
330
1F
100
AcDbEntity
  8
0
  6
Continuous
 62
     7
370
    25
100
AcDbPolyline
 90
       15
 70
   128
 43
0.0
 10
138.6834157399
 20
64.6633763975
 10
138.6698836028
 20
64.6633764071
 10
138.561900771
 20
64.6633764262
 10
138.3473951135
 20
64.6633764448
 10
138.0292669022
 20
64.6633764629
 10
137.611817461
 20
64.66337648
 10
137.1006910088
 20
64.6633764961
 10
136.5027983455
 20
64.6633765108
 10
135.8262234132
 20
64.6633765239
 10
135.0801139951
 20
64.6633765354
 10
134.2745580312
 20
64.663376545
 10
133.4204472216
 20
64.6633765526
 10
132.5293297633
 20
64.6633765581
 10
131.6132542101
 20
64.6633765615
 10
130.6846065671
 20
64.6633762324
  0
LINE
  5
22E
330
1F
100
AcDbEntity
  8
0
  6
Continuous
 62
     7
370
    25
100
AcDbLine
 10
137.7178561069
 20
57.6633763975
 30
0.0
 11
123.6489753416
 21
57.6633763975
 31
0.0
  0
LINE
  5
22F
330
1F
100
AcDbEntity
  8
0
  6
Continuous
 62
     7
370
    25
100
AcDbLine
 10
125.5885749311
 20
76.1633763975
 30
0.0
 11
127.3853388168
 21
76.1633763975
 31
0.0
  0
LINE
  5
230
330
1F
100
AcDbEntity
  8
0
  6
Continuous
 62
     7
370
    25
100
AcDbLine
 10
133.9814926629
 20
76.1633763975
 30
0.0
 11
135.7785237233
 21
76.1633763975
 31
0.0
  0
LINE
  5
231
330
1F
100
AcDbEntity
  8
0
  6
Continuous
 62
     7
370
    25
100
AcDbLine
 10
130.9334157399
 20
37.4165820527
 30
0.0
 11
130.9334157399
 21
36.1633763975
 31
0.0
  0
LINE
  5
232
330
1F
100
AcDbEntity
  8
0
  6
Continuous
 62
     7
370
    25
100
AcDbLine
 10
130.4334157399
 20
36.1633763975
 30
0.0
 11
130.4334157399
 21
37.4165820527
 31
0.0
  0
LINE
  5
233
330
1F
100
AcDbEntity
  8
0
  6
Continuous
 62
     7
370
    25
100
AcDbLine
 10
123.1502459916
 20
58.1277528725
 30
0.0
 11
138.2165854881
 21
58.1277528725
 31
0.0
  0
LINE
  5
234
330
1F
100
AcDbEntity
  8
0
  6
Continuous
 62
     7
370
    25
100
AcDbLine
 10
136.2675975236
 20
75.7673322429
 30
0.0
 11
133.9281790267
 21
75.7673322429
 31
0.0
  0
LINE
  5
235
330
1F
100
AcDbEntity
  8
0
  6
Continuous
 62
     7
370
    25
100
AcDbLine
 10
127.438652453
 20
75.7673322429
 30
0.0
 11
125.0992339561
 21
75.7673322429
 31
0.0
  0
INSERT
  5
241
330
1F
100
AcDbEntity
  8
0
  6
Continuous
 62
     7
370
    18
100
AcDbBlockReference
  2
SW_CENTERMARKSYMBOL_0
 10
130.6834157399
 20
47.1633763975
 30
0.0
  0
LINE
  5
242
330
1F
100
AcDbEntity
  8
0
  6
Continuous
 62
     7
370
    18
100
AcDbLine
 10
122.8334157399
 20
35.6633763975
 30
0.0
 11
123.1812343762
 21
24.533180034
 31
0.0
  0
LINE
  5
243
330
1F
100
AcDbEntity
  8
0
  6
Continuous
 62
     7
370
    18
100
AcDbLine
 10
138.1855971035
 20
24.533180034
 30
0.0
 11
138.5334157399
 21
35.6633763975
 31
0.0
  0
LINE
  5
244
330
1F
100
AcDbEntity
  8
0
  6
Continuous
 62
     7
370
    25
100
AcDbLine
 10
126.8026734981
 20
35.6633763975
 30
0.0
 11
126.0641579817
 21
35.6633763975
 31
0.0
  0
LINE
  5
245
330
1F
100
AcDbEntity
  8
0
  6
Continuous
 62
     7
370
    25
100
AcDbLine
 10
135.3026734981
 20
35.6633763975
 30
0.0
 11
134.5641579817
 21
35.6633763975
 31
0.0
  0
ARC
  5
246
330
1F
100
AcDbEntity
  8
0
  6
Continuous
 62
     7
370
    25
100
AcDbCircle
 10
95.9232621118
 20
102.9281038087
 30
0.0
 40
0.3000000000000114
100
AcDbArc
 50
270.0
 51
0.0
  0
ARC
  5
247
330
1F
100
AcDbEntity
  8
0
  6
Continuous
 62
     7
370
    25
100
AcDbCircle
 10
95.9232621118
 20
118.8281038087
 30
0.0
 40
0.3000000000000114
100
AcDbArc
 50
0.0
 51
90.0
  0
LINE
  5
248
330
1F
100
AcDbEntity
  8
0
  6
Continuous
 62
     7
370
    25
100
AcDbLine
 10
94.9732621118
 20
102.6281038087
 30
0.0
 11
95.9232621118
 21
102.6281038087
 31
0.0
  0
LINE
  5
249
330
1F
100
AcDbEntity
  8
0
  6
Continuous
 62
     7
370
    25
100
AcDbLine
 10
95.9232621118
 20
119.1281038087
 30
0.0
 11
94.9732621118
 21
119.1281038087
 31
0.0
  0
LINE
  5
24A
330
1F
100
AcDbEntity
  8
0
  6
Continuous
 62
     7
370
    25
100
AcDbLine
 10
93.2232621118
 20
103.1281038087
 30
0.0
 11
94.0232621118
 21
103.1281038087
 31
0.0
  0
LINE
  5
24B
330
1F
100
AcDbEntity
  8
0
  6
Continuous
 62
     7
370
    25
100
AcDbLine
 10
94.0232621118
 20
118.6281038087
 30
0.0
 11
93.2232621118
 21
118.6281038087
 31
0.0
  0
ARC
  5
24C
330
1F
100
AcDbEntity
  8
0
  6
Continuous
 62
     7
370
    25
100
AcDbCircle
 10
94.0232621118
 20
103.3281038087
 30
0.0
 40
0.2000000000000028
100
AcDbArc
 50
270.0
 51
0.0
  0
ARC
  5
24D
330
1F
100
AcDbEntity
  8
0
  6
Continuous
 62
     7
370
    25
100
AcDbCircle
 10
94.0232621118
 20
118.4281038087
 30
0.0
 40
0.2000000000000028
100
AcDbArc
 50
0.0
 51
90.0
  0
LINE
  5
24E
330
1F
100
AcDbEntity
  8
0
  6
Continuous
 62
     7
370
    25
100
AcDbLine
 10
94.2232621118
 20
104.5031038087
 30
0.0
 11
94.9732621118
 21
104.5031038087
 31
0.0
  0
LINE
  5
24F
330
1F
100
AcDbEntity
  8
0
  6
Continuous
 62
     7
370
    25
100
AcDbLine
 10
94.9732621118
 20
117.2531038087
 30
0.0
 11
94.2232621118
 21
117.2531038087
 31
0.0
  0
LINE
  5
250
330
1F
100
AcDbEntity
  8
0
  6
Continuous
 62
     7
370
    25
100
AcDbLine
 10
28.4732621118
 20
119.1281038087
 30
0.0
 11
27.5232621118
 21
119.1281038087
 31
0.0
  0
LINE
  5
251
330
1F
100
AcDbEntity
  8
0
  6
Continuous
 62
     7
370
    25
100
AcDbLine
 10
27.5232621118
 20
102.6281038087
 30
0.0
 11
28.4732621118
 21
102.6281038087
 31
0.0
  0
ARC
  5
252
330
1F
100
AcDbEntity
  8
0
  6
Continuous
 62
     7
370
    25
100
AcDbCircle
 10
27.5232621118
 20
118.8281038087
 30
0.0
 40
0.3000000000000007
100
AcDbArc
 50
90.0
 51
180.0
  0
ARC
  5
253
330
1F
100
AcDbEntity
  8
0
  6
Continuous
 62
     7
370
    25
100
AcDbCircle
 10
27.5232621118
 20
102.9281038087
 30
0.0
 40
0.3000000000000114
100
AcDbArc
 50
180.0
 51
270.0
  0
LINE
  5
254
330
1F
100
AcDbEntity
  8
0
  6
Continuous
 62
     7
370
    25
100
AcDbLine
 10
30.2232621118
 20
118.6281038087
 30
0.0
 11
29.4232621118
 21
118.6281038087
 31
0.0
  0
LINE
  5
255
330
1F
100
AcDbEntity
  8
0
  6
Continuous
 62
     7
370
    25
100
AcDbLine
 10
29.4232621118
 20
103.1281038087
 30
0.0
 11
30.2232621118
 21
103.1281038087
 31
0.0
  0
ARC
  5
256
330
1F
100
AcDbEntity
  8
0
  6
Continuous
 62
     7
370
    25
100
AcDbCircle
 10
29.4232621118
 20
118.4281038087
 30
0.0
 40
0.2000000000000028
100
AcDbArc
 50
90.0
 51
180.0
  0
ARC
  5
257
330
1F
100
AcDbEntity
  8
0
  6
Continuous
 62
     7
370
    25
100
AcDbCircle
 10
29.4232621118
 20
103.3281038087
 30
0.0
 40
0.2000000000000028
100
AcDbArc
 50
180.0
 51
270.0
  0
LINE
  5
258
330
1F
100
AcDbEntity
  8
0
  6
Continuous
 62
     7
370
    25
100
AcDbLine
 10
29.2232621118
 20
117.2531038087
 30
0.0
 11
28.4732621118
 21
117.2531038087
 31
0.0
  0
LINE
  5
259
330
1F
100
AcDbEntity
  8
0
  6
Continuous
 62
     7
370
    25
100
AcDbLine
 10
28.4732621118
 20
104.5031038087
 30
0.0
 11
29.2232621118
 21
104.5031038087
 31
0.0
  0
LINE
  5
25A
330
1F
100
AcDbEntity
  8
0
  6
Continuous
 62
     7
370
    25
100
AcDbLine
 10
30.4232621118
 20
120.6281038087
 30
0.0
 11
30.2232621118
 21
120.4281038087
 31
0.0
  0
LINE
  5
25B
330
1F
100
AcDbEntity
  8
0
  6
Continuous
 62
     7
370
    25
100
AcDbLine
 10
30.2232621118
 20
101.3281038087
 30
0.0
 11
30.4232621118
 21
101.1281038087
 31
0.0
  0
LINE
  5
25C
330
1F
100
AcDbEntity
  8
0
  6
Continuous
 62
     7
370
    25
100
AcDbLine
 10
50.2232621118
 20
120.6281038087
 30
0.0
 11
30.4232621118
 21
120.6281038087
 31
0.0
  0
LINE
  5
25D
330
1F
100
AcDbEntity
  8
0
  6
Continuous
 62
     7
370
    25
100
AcDbLine
 10
30.4232621118
 20
101.1281038087
 30
0.0
 11
50.2232621118
 21
101.1281038087
 31
0.0
  0
LINE
  5
25E
330
1F
100
AcDbEntity
  8
0
  6
Continuous
 62
     7
370
    25
100
AcDbLine
 10
73.2232621118
 20
101.1281038087
 30
0.0
 11
93.0232621118
 21
101.1281038087
 31
0.0
  0
LINE
  5
25F
330
1F
100
AcDbEntity
  8
0
  6
Continuous
 62
     7
370
    25
100
AcDbLine
 10
93.0232621118
 20
120.6281038087
 30
0.0
 11
73.2232621118
 21
120.6281038087
 31
0.0
  0
LINE
  5
260
330
1F
100
AcDbEntity
  8
0
  6
Continuous
 62
     7
370
    25
100
AcDbLine
 10
93.0232621118
 20
101.1281038087
 30
0.0
 11
93.2232621118
 21
101.3281038087
 31
0.0
  0
LINE
  5
261
330
1F
100
AcDbEntity
  8
0
  6
Continuous
 62
     7
370
    25
100
AcDbLine
 10
93.2232621118
 20
120.4281038087
 30
0.0
 11
93.0232621118
 21
120.6281038087
 31
0.0
  0
LINE
  5
262
330
1F
100
AcDbEntity
  8
0
  6
Continuous
 62
     7
370
    25
100
AcDbLine
 10
44.8355531463
 20
114.2275806091
 30
0.0
 11
44.6470549385
 21
114.2242025093
 31
0.0
  0
LINE
  5
263
330
1F
100
AcDbEntity
  8
0
  6
Continuous
 62
     7
370
    25
100
AcDbLine
 10
40.7232621118
 20
112.9985938232
 30
0.0
 11
40.7232621118
 21
108.7576137942
 31
0.0
  0
LINE
  5
264
330
1F
100
AcDbEntity
  8
0
  6
Continuous
 62
     7
370
    25
100
AcDbLine
 10
49.6128919434
 20
114.2344684532
 30
0.0
 11
44.8336322802
 21
114.2344684532
 31
0.0
  0
LINE
  5
265
330
1F
100
AcDbEntity
  8
0
  6
Continuous
 62
     7
370
    25
100
AcDbLine
 10
49.7993691994
 20
114.2249501254
 30
0.0
 11
49.610721555
 21
114.228868588
 31
0.0
  0
LINE
  5
266
330
1F
100
AcDbEntity
  8
0
  6
Continuous
 62
     7
370
    25
100
AcDbLine
 10
44.6471550242
 20
107.531257492
 30
0.0
 11
44.8358026686
 21
107.5273390294
 31
0.0
  0
LINE
  5
267
330
1F
100
AcDbEntity
  8
0
  6
Continuous
 62
     7
370
    25
100
AcDbLine
 10
73.8355531463
 20
114.2275806091
 30
0.0
 11
73.6470549385
 21
114.2242025093
 31
0.0
  0
LINE
  5
268
330
1F
100
AcDbEntity
  8
0
  6
Continuous
 62
     7
370
    25
100
AcDbLine
 10
44.8336322802
 20
107.5217391643
 30
0.0
 11
49.6128919434
 21
107.5217391643
 31
0.0
  0
LINE
  5
269
330
1F
100
AcDbEntity
  8
0
  6
Continuous
 62
     7
370
    25
100
AcDbLine
 10
49.6109710773
 20
107.5286270084
 30
0.0
 11
49.7992776745
 21
107.5320016743
 31
0.0
  0
LINE
  5
26A
330
1F
100
AcDbEntity
  8
0
  6
Continuous
 62
     7
370
    25
100
AcDbLine
 10
82.7232621118
 20
108.7576137942
 30
0.0
 11
82.7232621118
 21
112.9985938232
 31
0.0
  0
LINE
  5
26B
330
1F
100
AcDbEntity
  8
0
  6
Continuous
 62
     7
370
    25
100
AcDbLine
 10
78.7995442243
 20
114.2249464899
 30
0.0
 11
78.610721555
 21
114.228868588
 31
0.0
  0
LINE
  5
26C
330
1F
100
AcDbEntity
  8
0
  6
Continuous
 62
     7
370
    25
100
AcDbLine
 10
78.6128919434
 20
114.2344684532
 30
0.0
 11
73.8336322802
 21
114.2344684532
 31
0.0
  0
LINE
  5
26D
330
1F
100
AcDbEntity
  8
0
  6
Continuous
 62
     7
370
    25
100
AcDbLine
 10
73.6471550242
 20
107.531257492
 30
0.0
 11
73.8358026686
 21
107.5273390294
 31
0.0
  0
LINE
  5
26E
330
1F
100
AcDbEntity
  8
0
  6
Continuous
 62
     7
370
    25
100
AcDbLine
 10
78.6109710773
 20
107.5286270084
 30
0.0
 11
78.7994692851
 21
107.5320051082
 31
0.0
  0
LINE
  5
26F
330
1F
100
AcDbEntity
  8
0
  6
Continuous
 62
     7
370
    25
100
AcDbLine
 10
73.8336322802
 20
107.5217391643
 30
0.0
 11
78.6128919434
 21
107.5217391643
 31
0.0
  0
SPLINE
  5
270
330
1F
100
AcDbEntity
  8
0
  6
Continuous
 62
     7
370
    25
100
AcDbSpline
210
0.0
220
0.0
230
1.0
 70
     8
 71
     3
 72
    19
 73
    15
 74
     0
 42
0.00000001
 43
0.00000001
 40
0.0
 40
0.0
 40
0.0
 40
0.0
 40
0.0558062671405469
 40
0.162475034118317
 40
0.2696263038100142
 40
0.3775411697781539
 40
0.4866551289101824
 40
0.5978695032304807
 40
0.7134145263221164
 40
0.814973490971502
 40
0.8763336222749281
 40
0.9326000999564275
 40
0.986226953931949
 40
1.0
 40
1.0
 40
1.0
 40
1.0
 10
44.64634144398883
 20
114.2290074065224
 30
0.0
 10
44.52686571430763
 20
114.22108064543
 30
0.0
 10
44.17902264486569
 20
114.1980025783075
 30
0.0
 10
43.63524656207715
 20
114.1509612005433
 30
0.0
 10
43.03949967381878
 20
114.0847284791801
 30
0.0
 10
42.50333417003311
 20
114.0077598652483
 30
0.0
 10
42.03128533917548
 20
113.9201330353459
 30
0.0
 10
41.62489881982224
 20
113.8201011180161
 30
0.0
 10
41.30107293634655
 20
113.7082280541598
 30
0.0
 10
41.07168769143908
 20
113.5893141692911
 30
0.0
 10
40.89746629168267
 20
113.44625878713
 30
0.0
 10
40.78058018693684
 20
113.2773778571005
 30
0.0
 10
40.71460403446658
 20
113.10494501356
 30
0.0
 10
40.72922074676016
 20
113.0105035953777
 30
0.0
 10
40.73220764513319
 20
112.9912046646298
 30
0.0
  0
SPLINE
  5
271
330
1F
100
AcDbEntity
  8
0
  6
Continuous
 62
     7
370
    25
100
AcDbSpline
210
0.0
220
0.0
230
1.0
 70
     8
 71
     3
 72
    12
 73
     8
 74
     0
 42
0.00000001
 43
0.00000001
 40
0.0
 40
0.0
 40
0.0
 40
0.0
 40
0.1145293575172033
 40
0.3397557910412387
 40
0.5607176774277424
 40
0.7788651519203219
 40
0.9999999999999999
 40
0.9999999999999999
 40
0.9999999999999999
 40
0.9999999999999999
 10
52.4299655517968
 20
113.9125541806735
 30
0.0
 10
52.35387957949422
 20
113.9283720982072
 30
0.0
 10
52.12816758505712
 20
113.9752965654425
 30
0.0
 10
51.69908233563586
 20
114.045228719291
 30
0.0
 10
51.12408691221906
 20
114.1182544924034
 30
0.0
 10
50.49372584185339
 20
114.1809605759842
 30
0.0
 10
50.03240953948688
 20
114.2129193502999
 30
0.0
 10
49.80018277961376
 20
114.2290074065224
 30
0.0
  0
SPLINE
  5
272
330
1F
100
AcDbEntity
  8
0
  6
Continuous
 62
     7
370
    25
100
AcDbSpline
210
0.0
220
0.0
230
1.0
 70
     8
 71
     3
 72
    19
 73
    15
 74
     0
 42
0.00000001
 43
0.00000001
 40
0.0
 40
0.0
 40
0.0
 40
0.0
 40
0.0404650043984571
 40
0.0944756659807269
 40
0.1505329781382898
 40
0.2179614919881164
 40
0.3112329716722994
 40
0.4253479846599362
 40
0.5329523951362859
 40
0.6462440111098677
 40
0.7563734183944744
 40
0.8648874084314991
 40
0.9724779311472841
 40
1.0
 40
1.0
 40
1.0
 40
1.0
 10
40.73392689728414
 20
108.750536012923
 30
0.0
 10
40.73543480913536
 20
108.6921763860804
 30
0.0
 10
40.73895540621673
 20
108.555921251692
 30
0.0
 10
40.84093886575506
 20
108.3810114491013
 30
0.0
 10
40.97387183659065
 20
108.2405061358956
 30
0.0
 10
41.14720708179229
 20
108.1243282855595
 30
0.0
 10
41.38369198462117
 20
108.0160670443678
 30
0.0
 10
41.70869821100071
 20
107.9130847577679
 30
0.0
 10
42.12861785005857
 20
107.8159658354257
 30
0.0
 10
42.61850317822925
 20
107.7300360820023
 30
0.0
 10
43.18176468990265
 20
107.6539698139646
 30
0.0
 10
43.79831842363885
 20
107.589727334461
 30
0.0
 10
44.2980289877186
 20
107.5497481236072
 30
0.0
 10
44.58739780074016
 20
107.5310159117223
 30
0.0
 10
44.64634144398877
 20
107.527200210911
 30
0.0
  0
SPLINE
  5
273
330
1F
100
AcDbEntity
  8
0
  6
Continuous
 62
     7
370
    25
100
AcDbSpline
210
0.0
220
0.0
230
1.0
 70
     8
 71
     3
 72
    13
 73
     9
 74
     0
 42
0.00000001
 43
0.00000001
 40
0.0
 40
0.0
 40
0.0
 40
0.0
 40
0.1129049638260979
 40
0.3287128630835477
 40
0.5454969421546748
 40
0.7638258980718622
 40
0.9759417598410842
 40
1.0
 40
1.0
 40
1.0
 40
1.0
 10
73.64634144398876
 20
114.2290074065224
 30
0.0
 10
73.5268652771678
 20
114.2210807008652
 30
0.0
 10
73.17902093503189
 20
114.1980027951374
 30
0.0
 10
72.63526118716348
 20
114.1509593458861
 30
0.0
 10
72.03944554342272
 20
114.0847353436406
 30
0.0
 10
71.51059740819524
 20
114.008748214011
 30
0.0
 10
71.18591707103197
 20
113.9489899287682
 30
0.0
 10
71.03221569970947
 20
113.9159226320005
 30
0.0
 10
71.01655867180573
 20
113.9125541806735
 30
0.0
  0
SPLINE
  5
274
330
1F
100
AcDbEntity
  8
0
  6
Continuous
 62
     7
370
    25
100
AcDbSpline
210
0.0
220
0.0
230
1.0
 70
     8
 71
     3
 72
    13
 73
     9
 74
     0
 42
0.00000001
 43
0.00000001
 40
0.0
 40
0.0
 40
0.0
 40
0.0
 40
0.1129049638260979
 40
0.3287128630835208
 40
0.5454969421546569
 40
0.7638258980718383
 40
0.975941759841058
 40
0.9999999999999999
 40
0.9999999999999999
 40
0.9999999999999999
 40
0.9999999999999999
 10
49.80018277961376
 20
107.527200210911
 30
0.0
 10
49.91965894643474
 20
107.5351269165682
 30
0.0
 10
50.26750328857064
 20
107.558204822296
 30
0.0
 10
50.81126303643901
 20
107.6052482715473
 30
0.0
 10
51.40707868017977
 20
107.6714722737928
 30
0.0
 10
51.93592681540723
 20
107.7474594034224
 30
0.0
 10
52.26060715257056
 20
107.8072176886652
 30
0.0
 10
52.41430852389305
 20
107.840284985433
 30
0.0
 10
52.42996555179681
 20
107.84365343676
 30
0.0
  0
SPLINE
  5
275
330
1F
100
AcDbEntity
  8
0
  6
Continuous
 62
     7
370
    25
100
AcDbSpline
210
0.0
220
0.0
230
1.0
 70
     8
 71
     3
 72
    19
 73
    15
 74
     0
 42
0.00000001
 43
0.00000001
 40
0.0
 40
0.0
 40
0.0
 40
0.0
 40
0.0404650043984494
 40
0.0944756659807143
 40
0.1505329781382731
 40
0.2179614919880919
 40
0.3112329716722653
 40
0.4253479846599044
 40
0.5329523951362553
 40
0.6462440111098443
 40
0.7563734183944475
 40
0.8648874084314743
 40
0.9724779311472591
 40
1.0
 40
1.0
 40
1.0
 40
1.0
 10
82.71259732631839
 20
113.0056716045105
 30
0.0
 10
82.71108941446717
 20
113.0640312313531
 30
0.0
 10
82.70756881738578
 20
113.2002863657415
 30
0.0
 10
82.60558535784746
 20
113.3751961683321
 30
0.0
 10
82.4726523870119
 20
113.5157014815379
 30
0.0
 10
82.29931714181026
 20
113.6318793318739
 30
0.0
 10
82.06283223898144
 20
113.7401405730656
 30
0.0
 10
81.7378260126019
 20
113.8431228596655
 30
0.0
 10
81.31790637354405
 20
113.9402417820077
 30
0.0
 10
80.8280210453734
 20
114.0261715354311
 30
0.0
 10
80.2647595337
 20
114.1022378034688
 30
0.0
 10
79.64820579996382
 20
114.1664802829724
 30
0.0
 10
79.14849523588403
 20
114.2064594938262
 30
0.0
 10
78.85912642286242
 20
114.2251917057111
 30
0.0
 10
78.80018277961376
 20
114.2290074065224
 30
0.0
  0
SPLINE
  5
276
330
1F
100
AcDbEntity
  8
0
  6
Continuous
 62
     7
370
    25
100
AcDbSpline
210
0.0
220
0.0
230
1.0
 70
     8
 71
     3
 72
    12
 73
     8
 74
     0
 42
0.00000001
 43
0.00000001
 40
0.0
 40
0.0
 40
0.0
 40
0.0
 40
0.1145293575172036
 40
0.3397557910412529
 40
0.5607176774277466
 40
0.7788651519203341
 40
1.0
 40
1.0
 40
1.0
 40
1.0
 10
71.01655867180571
 20
107.84365343676
 30
0.0
 10
71.0926446441083
 20
107.8278355192262
 30
0.0
 10
71.31835663854541
 20
107.7809110519909
 30
0.0
 10
71.74744188796666
 20
107.7109788981424
 30
0.0
 10
72.32243731138351
 20
107.63795312503
 30
0.0
 10
72.95279838174916
 20
107.5752470414492
 30
0.0
 10
73.41411468411566
 20
107.5432882671335
 30
0.0
 10
73.64634144398876
 20
107.527200210911
 30
0.0
  0
SPLINE
  5
277
330
1F
100
AcDbEntity
  8
0
  6
Continuous
 62
     7
370
    25
100
AcDbSpline
210
0.0
220
0.0
230
1.0
 70
     8
 71
     3
 72
    19
 73
    15
 74
     0
 42
0.00000001
 43
0.00000001
 40
0.0
 40
0.0
 40
0.0
 40
0.0
 40
0.055806267140547
 40
0.1624750341183172
 40
0.2696263038100143
 40
0.3775411697781545
 40
0.4866551289101833
 40
0.5978695032304792
 40
0.7134145263221227
 40
0.8149734909715017
 40
0.8763336222749323
 40
0.9326000999564349
 40
0.9862269539319605
 40
1.0
 40
1.0
 40
1.0
 40
1.0
 10
78.8001827796137
 20
107.527200210911
 30
0.0
 10
78.91965850929492
 20
107.5351269720034
 30
0.0
 10
79.26750157873686
 20
107.5582050391259
 30
0.0
 10
79.8112776615254
 20
107.6052464168901
 30
0.0
 10
80.40702454978376
 20
107.6714791382533
 30
0.0
 10
80.94319005356944
 20
107.7484477521851
 30
0.0
 10
81.41523888442705
 20
107.8360745820875
 30
0.0
 10
81.8216254037803
 20
107.9361064994174
 30
0.0
 10
82.14545128725601
 20
108.0479795632737
 30
0.0
 10
82.37483653216347
 20
108.1668934481424
 30
0.0
 10
82.54905793191988
 20
108.3099488303034
 30
0.0
 10
82.66594403666572
 20
108.478829760333
 30
0.0
 10
82.73192018913595
 20
108.6512626038735
 30
0.0
 10
82.71730347684236
 20
108.7457040220558
 30
0.0
 10
82.71431657846934
 20
108.7650029528037
 30
0.0
  0
LINE
  5
278
330
1F
100
AcDbEntity
  8
0
  6
Continuous
 62
     7
370
    25
100
AcDbLine
 10
52.4905922935
 20
113.9017845717
 30
0.0
 11
52.4299655518
 21
113.9125541807
 31
0.0
  0
LINE
  5
279
330
1F
100
AcDbEntity
  8
0
  6
Continuous
 62
     7
370
    25
100
AcDbLine
 10
71.0165586718
 20
113.9125541807
 30
0.0
 11
70.9659757722
 21
113.9027276479
 31
0.0
  0
LINE
  5
27A
330
1F
100
AcDbEntity
  8
0
  6
Continuous
 62
     7
370
    25
100
AcDbLine
 10
52.4299655518
 20
107.8436534368
 30
0.0
 11
52.4805484514
 21
107.8534799696
 31
0.0
  0
LINE
  5
27B
330
1F
100
AcDbEntity
  8
0
  6
Continuous
 62
     7
370
    25
100
AcDbLine
 10
70.9559319301
 20
107.8544230457
 30
0.0
 11
71.0165586718
 21
107.8436534368
 31
0.0
  0
LINE
  5
27C
330
1F
100
AcDbEntity
  8
0
  6
Continuous
 62
     7
370
    25
100
AcDbLine
 10
96.2232621118
 20
116.4186164387
 30
0.0
 11
96.2232621118
 21
102.9281038087
 31
0.0
  0
LINE
  5
27D
330
1F
100
AcDbEntity
  8
0
  6
Continuous
 62
     7
370
    25
100
AcDbLine
 10
96.2232621118
 20
118.8281038087
 30
0.0
 11
96.2232621118
 21
116.4186164387
 31
0.0
  0
LINE
  5
27E
330
1F
100
AcDbEntity
  8
0
  6
Continuous
 62
     7
370
    25
100
AcDbLine
 10
94.9732621118
 20
116.627692387
 30
0.0
 11
94.9732621118
 21
119.1281038087
 31
0.0
  0
LINE
  5
27F
330
1F
100
AcDbEntity
  8
0
  6
Continuous
 62
     7
370
    25
100
AcDbLine
 10
94.9732621118
 20
102.6281038087
 30
0.0
 11
94.9732621118
 21
116.627692387
 31
0.0
  0
LINE
  5
280
330
1F
100
AcDbEntity
  8
0
  6
Continuous
 62
     7
370
    25
100
AcDbLine
 10
94.2232621118
 20
116.1398485077
 30
0.0
 11
94.2232621118
 21
103.3281038087
 31
0.0
  0
LINE
  5
281
330
1F
100
AcDbEntity
  8
0
  6
Continuous
 62
     7
370
    25
100
AcDbLine
 10
94.2232621118
 20
118.4281038087
 30
0.0
 11
94.2232621118
 21
116.1398485077
 31
0.0
  0
LINE
  5
282
330
1F
100
AcDbEntity
  8
0
  6
Continuous
 62
     7
370
    25
100
AcDbLine
 10
28.4732621118
 20
119.1281038087
 30
0.0
 11
28.4732621118
 21
102.6281038087
 31
0.0
  0
LINE
  5
283
330
1F
100
AcDbEntity
  8
0
  6
Continuous
 62
     7
370
    25
100
AcDbLine
 10
27.2232621118
 20
102.9281038087
 30
0.0
 11
27.2232621118
 21
118.8281038087
 31
0.0
  0
LINE
  5
284
330
1F
100
AcDbEntity
  8
0
  6
Continuous
 62
     7
370
    25
100
AcDbLine
 10
29.2232621118
 20
103.3281038087
 30
0.0
 11
29.2232621118
 21
118.4281038087
 31
0.0
  0
LINE
  5
285
330
1F
100
AcDbEntity
  8
0
  6
Continuous
 62
     7
370
    25
100
AcDbLine
 10
30.2232621118
 20
101.3281038087
 30
0.0
 11
30.2232621118
 21
120.4281038087
 31
0.0
  0
LINE
  5
286
330
1F
100
AcDbEntity
  8
0
  6
Continuous
 62
     7
370
    25
100
AcDbLine
 10
30.4232621118
 20
120.6281038087
 30
0.0
 11
30.4232621118
 21
101.1281038087
 31
0.0
  0
LINE
  5
287
330
1F
100
AcDbEntity
  8
0
  6
Continuous
 62
     7
370
    25
100
AcDbLine
 10
50.2232621118
 20
101.1281038087
 30
0.0
 11
50.2232621118
 21
107.5469987372
 31
0.0
  0
LINE
  5
288
330
1F
100
AcDbEntity
  8
0
  6
Continuous
 62
     7
370
    25
100
AcDbLine
 10
50.2232621118
 20
114.2146547362
 30
0.0
 11
50.2232621118
 21
120.6281038087
 31
0.0
  0
LINE
  5
289
330
1F
100
AcDbEntity
  8
0
  6
Continuous
 62
     7
370
    25
100
AcDbLine
 10
93.0232621118
 20
106.8348427829
 30
0.0
 11
93.0232621118
 21
120.6281038087
 31
0.0
  0
LINE
  5
28A
330
1F
100
AcDbEntity
  8
0
  6
Continuous
 62
     7
370
    25
100
AcDbLine
 10
93.0232621118
 20
101.1281038087
 30
0.0
 11
93.0232621118
 21
106.8348427829
 31
0.0
  0
LINE
  5
28B
330
1F
100
AcDbEntity
  8
0
  6
Continuous
 62
     7
370
    25
100
AcDbLine
 10
73.2232621118
 20
106.8348427829
 30
0.0
 11
73.2232621118
 21
101.1281038087
 31
0.0
  0
LINE
  5
28C
330
1F
100
AcDbEntity
  8
0
  6
Continuous
 62
     7
370
    25
100
AcDbLine
 10
73.2232621118
 20
120.6281038087
 30
0.0
 11
73.2232621118
 21
114.2167264221
 31
0.0
  0
LINE
  5
28D
330
1F
100
AcDbEntity
  8
0
  6
Continuous
 62
     7
370
    25
100
AcDbLine
 10
73.2232621118
 20
107.5562775361
 30
0.0
 11
73.2232621118
 21
106.8348427829
 31
0.0
  0
LINE
  5
28E
330
1F
100
AcDbEntity
  8
0
  6
Continuous
 62
     7
370
    25
100
AcDbLine
 10
93.2232621118
 20
106.9177814706
 30
0.0
 11
93.2232621118
 21
101.3281038087
 31
0.0
  0
LINE
  5
28F
330
1F
100
AcDbEntity
  8
0
  6
Continuous
 62
     7
370
    25
100
AcDbLine
 10
93.2232621118
 20
120.4281038087
 30
0.0
 11
93.2232621118
 21
106.9177814706
 31
0.0
  0
SPLINE
  5
290
330
1F
100
AcDbEntity
  8
0
  6
Continuous
 62
     7
370
    25
100
AcDbSpline
210
0.0
220
0.0
230
1.0
 70
     8
 71
     3
 72
     9
 73
     5
 74
     0
 42
0.00000001
 43
0.00000001
 40
0.0
 40
0.0
 40
0.0
 40
0.0
 40
0.5312617800205044
 40
1.0
 40
1.0
 40
1.0
 40
1.0
 10
73.22326211180125
 20
115.1281038087168
 30
0.0
 10
73.22386625237506
 20
114.9619250553442
 30
0.0
 10
73.22500343294506
 20
114.6491249262513
 30
0.0
 10
73.18000127603847
 20
114.3388144523239
 30
0.0
 10
73.15890704511484
 20
114.1933600731341
 30
0.0
  0
LINE
  5
291
330
1F
100
AcDbEntity
  8
0
  6
Continuous
 62
     7
370
    25
100
AcDbLine
 10
73.138463318
 20
107.5647606734
 30
0.0
 11
73.2232621118
 21
106.6281038087
 31
0.0
  0
SPLINE
  5
292
330
1F
100
AcDbEntity
  8
0
  6
Continuous
 62
     7
370
    25
100
AcDbSpline
210
0.0
220
0.0
230
1.0
 70
     8
 71
     3
 72
     9
 73
     5
 74
     0
 42
0.00000001
 43
0.00000001
 40
0.0
 40
0.0
 40
0.0
 40
0.0
 40
0.5310311353569854
 40
1.0
 40
1.0
 40
1.0
 40
1.0
 10
50.22326211180124
 20
115.1281038087168
 30
0.0
 10
50.2226598557532
 20
114.9619251570323
 30
0.0
 10
50.22152573007216
 20
114.6489893598257
 30
0.0
 10
50.26655098173214
 20
114.3385442991254
 30
0.0
 10
50.2876664228834
 20
114.1929552314748
 30
0.0
  0
LINE
  5
293
330
1F
100
AcDbEntity
  8
0
  6
Continuous
 62
     7
370
    25
100
AcDbLine
 10
50.3080460028
 20
107.5645960627
 30
0.0
 11
50.2232621118
 21
106.6281038087
 31
0.0
  0
SPLINE
  5
294
330
1F
100
AcDbEntity
  8
0
  6
Continuous
 62
     7
370
    25
100
AcDbSpline
210
0.0
220
0.0
230
1.0
 70
     8
 71
     3
 72
     9
 73
     5
 74
     0
 42
0.00000001
 43
0.00000001
 40
0.0
 40
0.0
 40
0.0
 40
0.0
 40
0.4013971108776656
 40
1.0
 40
1.0
 40
1.0
 40
1.0
 10
67.79157121861013
 20
116.0196807637094
 30
0.0
 10
67.82541170607718
 20
116.4420796484265
 30
0.0
 10
67.90971846003723
 20
117.4944013350313
 30
0.0
 10
68.21702746114501
 20
118.5163577475975
 30
0.0
 10
68.40098351706143
 20
119.1281038087168
 30
0.0
  0
LINE
  5
295
330
1F
100
AcDbEntity
  8
0
  6
Continuous
 62
     7
370
    25
100
AcDbLine
 10
72.5455407065
 20
119.1281038087
 30
0.0
 11
68.4009835171
 21
119.1281038087
 31
0.0
  0
SPLINE
  5
296
330
1F
100
AcDbEntity
  8
0
  6
Continuous
 62
     7
370
    25
100
AcDbSpline
210
0.0
220
0.0
230
1.0
 70
     8
 71
     3
 72
    10
 73
     6
 74
     0
 42
0.00000001
 43
0.00000001
 40
0.0
 40
0.0
 40
0.0
 40
0.0
 40
0.5
 40
0.5
 40
1.0
 40
1.0
 40
1.0
 40
1.0
 10
72.54554070654152
 20
119.1281038087168
 30
0.0
 10
72.75435063120777
 20
118.4720910421117
 30
0.0
 10
72.92488477095503
 20
117.811824135254
 30
0.0
 10
73.15967057597395
 20
116.479477616619
 30
0.0
 10
73.22326211180125
 20
115.8073246351317
 30
0.0
 10
73.22326211180125
 20
115.1281038087168
 30
0.0
  0
SPLINE
  5
297
330
1F
100
AcDbEntity
  8
0
  6
Continuous
 62
     7
370
    25
100
AcDbSpline
210
0.0
220
0.0
230
1.0
 70
     8
 71
     3
 72
     9
 73
     5
 74
     0
 42
0.00000001
 43
0.00000001
 40
0.0
 40
0.0
 40
0.0
 40
0.0
 40
0.6422632486154352
 40
1.0
 40
1.0
 40
1.0
 40
1.0
 10
55.04554070654104
 20
119.1281038087168
 30
0.0
 10
55.24337544493289
 20
118.4779886380527
 30
0.0
 10
55.55140293804937
 20
117.4657632428343
 30
0.0
 10
55.61655178110227
 20
116.4225515890963
 30
0.0
 10
55.63985791657249
 20
116.0493564410816
 30
0.0
  0
SPLINE
  5
298
330
1F
100
AcDbEntity
  8
0
  6
Continuous
 62
     7
370
    25
100
AcDbSpline
210
0.0
220
0.0
230
1.0
 70
     8
 71
     3
 72
    10
 73
     6
 74
     0
 42
0.00000001
 43
0.00000001
 40
0.0
 40
0.0
 40
0.0
 40
0.0
 40
0.5
 40
0.5
 40
1.0
 40
1.0
 40
1.0
 40
1.0
 10
50.90098351706096
 20
119.1281038087168
 30
0.0
 10
50.69217359239471
 20
118.4720910421117
 30
0.0
 10
50.52163945264746
 20
117.811824135254
 30
0.0
 10
50.28685364762854
 20
116.479477616619
 30
0.0
 10
50.22326211180125
 20
115.8073246351317
 30
0.0
 10
50.22326211180125
 20
115.1281038087168
 30
0.0
  0
LINE
  5
299
330
1F
100
AcDbEntity
  8
0
  6
Continuous
 62
     7
370
    25
100
AcDbLine
 10
55.0455407065
 20
119.1281038087
 30
0.0
 11
50.9009835171
 21
119.1281038087
 31
0.0
  0
SPLINE
  5
29A
330
1F
100
AcDbEntity
  8
0
  6
Continuous
 62
     7
370
    25
100
AcDbSpline
210
0.0
220
0.0
230
1.0
 70
     8
 71
     3
 72
     9
 73
     5
 74
     0
 42
0.00000001
 43
0.00000001
 40
0.0
 40
0.0
 40
0.0
 40
0.0
 40
0.4013971108776493
 40
1.0
 40
1.0
 40
1.0
 40
1.0
 10
55.65495300499236
 20
105.736526853724
 30
0.0
 10
55.62111251752531
 20
105.314127969007
 30
0.0
 10
55.53680576356526
 20
104.2618062824022
 30
0.0
 10
55.22949676245747
 20
103.239849869836
 30
0.0
 10
55.04554070654105
 20
102.6281038087168
 30
0.0
  0
LINE
  5
29B
330
1F
100
AcDbEntity
  8
0
  6
Continuous
 62
     7
370
    25
100
AcDbLine
 10
50.9009835171
 20
102.6281038087
 30
0.0
 11
55.0455407065
 21
102.6281038087
 31
0.0
  0
SPLINE
  5
29C
330
1F
100
AcDbEntity
  8
0
  6
Continuous
 62
     7
370
    25
100
AcDbSpline
210
0.0
220
0.0
230
1.0
 70
     8
 71
     3
 72
    12
 73
     8
 74
     0
 42
0.00000001
 43
0.00000001
 40
0.0
 40
0.0
 40
0.0
 40
0.0
 40
0.2499999999999998
 40
0.2499999999999998
 40
0.4999999999999996
 40
0.4999999999999996
 40
1.0
 40
1.0
 40
1.0
 40
1.0
 10
50.22326211180125
 20
106.6281038087168
 30
0.0
 10
50.22326211180124
 20
106.290347873694
 30
0.0
 10
50.2390084418232
 20
105.9499398588155
 30
0.0
 10
50.30045346640863
 20
105.2754451744151
 30
0.0
 10
50.34604222566236
 20
104.9403198555478
 30
0.0
 10
50.52249322791896
 20
103.9406085372077
 30
0.0
 10
50.69295092988245
 20
103.2816744341424
 30
0.0
 10
50.90098351706129
 20
102.6281038087167
 30
0.0
  0
SPLINE
  5
29D
330
1F
100
AcDbEntity
  8
0
  6
Continuous
 62
     7
370
    25
100
AcDbSpline
210
0.0
220
0.0
230
1.0
 70
     8
 71
     3
 72
    12
 73
     8
 74
     0
 42
0.00000001
 43
0.00000001
 40
0.0
 40
0.0
 40
0.0
 40
0.0
 40
0.2500000000000001
 40
0.2500000000000001
 40
0.5000000000000002
 40
0.5000000000000002
 40
1.0
 40
1.0
 40
1.0
 40
1.0
 10
73.22326211180125
 20
106.6281038087168
 30
0.0
 10
73.22326211180123
 20
106.290347873694
 30
0.0
 10
73.20751578177928
 20
105.9499398588155
 30
0.0
 10
73.14607075719385
 20
105.2754451744151
 30
0.0
 10
73.10048199794012
 20
104.9403198555478
 30
0.0
 10
72.92403099568352
 20
103.9406085372077
 30
0.0
 10
72.75357329372004
 20
103.2816744341424
 30
0.0
 10
72.54554070654119
 20
102.6281038087167
 30
0.0
  0
LINE
  5
29E
330
1F
100
AcDbEntity
  8
0
  6
Continuous
 62
     7
370
    25
100
AcDbLine
 10
68.4009835171
 20
102.6281038087
 30
0.0
 11
72.5455407065
 21
102.6281038087
 31
0.0
  0
SPLINE
  5
29F
330
1F
100
AcDbEntity
  8
0
  6
Continuous
 62
     7
370
    25
100
AcDbSpline
210
0.0
220
0.0
230
1.0
 70
     8
 71
     3
 72
     9
 73
     5
 74
     0
 42
0.00000001
 43
0.00000001
 40
0.0
 40
0.0
 40
0.0
 40
0.0
 40
0.6422632486154563
 40
1.0
 40
1.0
 40
1.0
 40
1.0
 10
68.40098351706145
 20
102.6281038087167
 30
0.0
 10
68.20314877866959
 20
103.2782189793808
 30
0.0
 10
67.89512128555313
 20
104.2904443745992
 30
0.0
 10
67.82997244250022
 20
105.3336560283371
 30
0.0
 10
67.80666630703001
 20
105.7068511763518
 30
0.0
  0
LINE
  5
2A0
330
1F
100
AcDbEntity
  8
0
  6
Continuous
 62
     7
370
    25
100
AcDbLine
 10
67.7232621118
 20
105.5866011866
 30
0.0
 11
67.7232621118
 21
103.3781038087
 31
0.0
  0
LINE
  5
2A1
330
1F
100
AcDbEntity
  8
0
  6
Continuous
 62
     7
370
    25
100
AcDbLine
 10
67.7232621118
 20
103.3781038087
 30
0.0
 11
64.5071442932
 21
103.3781038087
 31
0.0
  0
LINE
  5
2A2
330
1F
100
AcDbEntity
  8
0
  6
Continuous
 62
     7
370
    25
100
AcDbLine
 10
58.9393799304
 20
103.3781038087
 30
0.0
 11
55.7232621118
 21
103.3781038087
 31
0.0
  0
LINE
  5
2A3
330
1F
100
AcDbEntity
  8
0
  6
Continuous
 62
     7
370
    25
100
AcDbLine
 10
55.7232621118
 20
105.5866011866
 30
0.0
 11
55.7232621118
 21
103.3781038087
 31
0.0
  0
LINE
  5
2A4
330
1F
100
AcDbEntity
  8
0
  6
Continuous
 62
     7
370
    25
100
AcDbLine
 10
55.7232621118
 20
118.3781038087
 30
0.0
 11
55.7232621118
 21
116.1696064308
 31
0.0
  0
LINE
  5
2A5
330
1F
100
AcDbEntity
  8
0
  6
Continuous
 62
     7
370
    25
100
AcDbLine
 10
55.7232621118
 20
118.3781038087
 30
0.0
 11
58.9393799304
 21
118.3781038087
 31
0.0
  0
LINE
  5
2A6
330
1F
100
AcDbEntity
  8
0
  6
Continuous
 62
     7
370
    25
100
AcDbLine
 10
64.5071442932
 20
118.3781038087
 30
0.0
 11
67.7232621118
 21
118.3781038087
 31
0.0
  0
LINE
  5
2A7
330
1F
100
AcDbEntity
  8
0
  6
Continuous
 62
     7
370
    25
100
AcDbLine
 10
67.7232621118
 20
118.3781038087
 30
0.0
 11
67.7232621118
 21
116.1696064308
 31
0.0
  0
SPLINE
  5
2A8
330
1F
100
AcDbEntity
  8
0
  6
Continuous
 62
     7
370
    25
100
AcDbSpline
210
0.0
220
0.0
230
1.0
 70
     8
 71
     3
 72
     8
 73
     4
 74
     0
 42
0.00000001
 43
0.00000001
 40
0.0
 40
0.0
 40
0.0
 40
0.0
 40
1.0
 40
1.0
 40
1.0
 40
1.0
 10
55.20702603482207
 20
119.3781038087168
 30
0.0
 10
55.38072911104184
 20
119.0455923865813
 30
0.0
 10
55.55303133010455
 20
118.7122652866824
 30
0.0
 10
55.72326211180125
 20
118.3781038087168
 30
0.0
  0
SPLINE
  5
2A9
330
1F
100
AcDbEntity
  8
0
  6
Continuous
 62
     7
370
    25
100
AcDbSpline
210
0.0
220
0.0
230
1.0
 70
     8
 71
     3
 72
    10
 73
     6
 74
     0
 42
0.00000001
 43
0.00000001
 40
0.0
 40
0.0
 40
0.0
 40
0.0
 40
0.5
 40
0.5
 40
1.0
 40
1.0
 40
1.0
 40
1.0
 10
55.0455407065467
 20
119.3781038087168
 30
0.0
 10
55.02186531212239
 20
119.3781038087168
 30
0.0
 10
55.00877420223208
 20
119.3553113593873
 30
0.0
 10
55.00868788094368
 20
119.2673686552942
 30
0.0
 10
55.02185681488752
 20
119.2025108816202
 30
0.0
 10
55.04554070654103
 20
119.1281038087168
 30
0.0
  0
SPLINE
  5
2AA
330
1F
100
AcDbEntity
  8
0
  6
Continuous
 62
     7
370
    25
100
AcDbSpline
210
0.0
220
0.0
230
1.0
 70
    24
 71
     3
 72
     8
 73
     4
 74
     0
 42
0.00000001
 43
0.00000001
 40
0.0
 40
0.0
 40
0.0
 40
0.0
 40
1.0
 40
1.0
 40
1.0
 40
1.0
 10
55.20702603482206
 20
119.3781038087168
 30
0.0
 10
55.15612731789966
 20
119.3781038087168
 30
0.0
 10
55.10219318164903
 20
119.3781038087168
 30
0.0
 10
55.04554070654143
 20
119.3781038087168
 30
0.0
  0
SPLINE
  5
2AB
330
1F
100
AcDbEntity
  8
0
  6
Continuous
 62
     7
370
    25
100
AcDbSpline
210
0.0
220
0.0
230
1.0
 70
     8
 71
     3
 72
     8
 73
     4
 74
     0
 42
0.00000001
 43
0.00000001
 40
0.0
 40
0.0
 40
0.0
 40
0.0
 40
1.0
 40
1.0
 40
1.0
 40
1.0
 10
67.72326211180125
 20
118.3781038087168
 30
0.0
 10
67.89353971914497
 20
118.7123572050021
 30
0.0
 10
68.06581146777063
 20
119.045623694571
 30
0.0
 10
68.2394981887803
 20
119.3781038087165
 30
0.0
  0
SPLINE
  5
2AC
330
1F
100
AcDbEntity
  8
0
  6
Continuous
 62
     7
370
    25
100
AcDbSpline
210
0.0
220
0.0
230
1.0
 70
    24
 71
     3
 72
     8
 73
     4
 74
     0
 42
0.00000001
 43
0.00000001
 40
0.0
 40
0.0
 40
0.0
 40
0.0
 40
1.0
 40
1.0
 40
1.0
 40
1.0
 10
68.23949818877989
 20
119.3781038087168
 30
0.0
 10
68.29039442203512
 20
119.3781038087168
 30
0.0
 10
68.34432837699896
 20
119.3781038087168
 30
0.0
 10
68.40098351706143
 20
119.3781038087168
 30
0.0
  0
SPLINE
  5
2AD
330
1F
100
AcDbEntity
  8
0
  6
Continuous
 62
     7
370
    25
100
AcDbSpline
210
0.0
220
0.0
230
1.0
 70
     8
 71
     3
 72
    10
 73
     6
 74
     0
 42
0.00000001
 43
0.00000001
 40
0.0
 40
0.0
 40
0.0
 40
0.0
 40
0.5
 40
0.5
 40
1.0
 40
1.0
 40
1.0
 40
1.0
 10
68.40098351706143
 20
119.1281038087168
 30
0.0
 10
68.42465891148582
 20
119.2024841860941
 30
0.0
 10
68.43775002137046
 20
119.2667848248799
 30
0.0
 10
68.43783634265874
 20
119.3550005096628
 30
0.0
 10
68.42466740871491
 20
119.3781038087168
 30
0.0
 10
68.40098351706143
 20
119.3781038087168
 30
0.0
  0
SPLINE
  5
2AE
330
1F
100
AcDbEntity
  8
0
  6
Continuous
 62
     7
370
    25
100
AcDbSpline
210
0.0
220
0.0
230
1.0
 70
    24
 71
     3
 72
    12
 73
     8
 74
     0
 42
0.00000001
 43
0.00000001
 40
0.0
 40
0.0
 40
0.0
 40
0.0
 40
0.25
 40
0.25
 40
0.5
 40
0.5
 40
1.0
 40
1.0
 40
1.0
 40
1.0
 10
50.22326211180124
 20
119.3781038087168
 30
0.0
 10
50.22326211180124
 20
119.3781038087168
 30
0.0
 10
50.23916791746942
 20
119.3781038087168
 30
0.0
 10
50.30101278836184
 20
119.3781038087168
 30
0.0
 10
50.34682612922804
 20
119.3781038087168
 30
0.0
 10
50.52365930313041
 20
119.3781038087168
 30
0.0
 10
50.69393756663404
 20
119.3781038087168
 30
0.0
 10
50.90098351706143
 20
119.3781038087168
 30
0.0
  0
SPLINE
  5
2AF
330
1F
100
AcDbEntity
  8
0
  6
Continuous
 62
     7
370
    25
100
AcDbSpline
210
0.0
220
0.0
230
1.0
 70
     8
 71
     3
 72
    10
 73
     6
 74
     0
 42
0.00000001
 43
0.00000001
 40
0.0
 40
0.0
 40
0.0
 40
0.0
 40
0.5
 40
0.5
 40
1.0
 40
1.0
 40
1.0
 40
1.0
 10
50.90098351706143
 20
119.1281038087168
 30
0.0
 10
50.924655756973
 20
119.2024742756423
 30
0.0
 10
50.93774974690825
 20
119.2667798719302
 30
0.0
 10
50.9378366143697
 20
119.355002659736
 30
0.0
 10
50.92466682461034
 20
119.3781038087168
 30
0.0
 10
50.90098351706143
 20
119.3781038087168
 30
0.0
  0
SPLINE
  5
2B0
330
1F
100
AcDbEntity
  8
0
  6
Continuous
 62
     7
370
    25
100
AcDbSpline
210
0.0
220
0.0
230
1.0
 70
     8
 71
     3
 72
    10
 73
     6
 74
     0
 42
0.00000001
 43
0.00000001
 40
0.0
 40
0.0
 40
0.0
 40
0.0
 40
0.5
 40
0.5
 40
1.0
 40
1.0
 40
1.0
 40
1.0
 10
72.54554070654105
 20
119.1281038087168
 30
0.0
 10
72.52186846662948
 20
119.2024742756423
 30
0.0
 10
72.50877447669424
 20
119.2667798719302
 30
0.0
 10
72.5086876092328
 20
119.355002659736
 30
0.0
 10
72.52185739899214
 20
119.3781038087168
 30
0.0
 10
72.54554070654105
 20
119.3781038087168
 30
0.0
  0
SPLINE
  5
2B1
330
1F
100
AcDbEntity
  8
0
  6
Continuous
 62
     7
370
    25
100
AcDbSpline
210
0.0
220
0.0
230
1.0
 70
    24
 71
     3
 72
    12
 73
     8
 74
     0
 42
0.00000001
 43
0.00000001
 40
0.0
 40
0.0
 40
0.0
 40
0.0
 40
0.25
 40
0.25
 40
0.5
 40
0.5
 40
1.0
 40
1.0
 40
1.0
 40
1.0
 10
73.22326211180125
 20
119.3781038087168
 30
0.0
 10
73.22326211180125
 20
119.3781038087168
 30
0.0
 10
73.20735630613306
 20
119.3781038087168
 30
0.0
 10
73.14551143524065
 20
119.3781038087168
 30
0.0
 10
73.09969809437445
 20
119.3781038087168
 30
0.0
 10
72.92286492047208
 20
119.3781038087168
 30
0.0
 10
72.75258665696845
 20
119.3781038087168
 30
0.0
 10
72.54554070654105
 20
119.3781038087168
 30
0.0
  0
SPLINE
  5
2B2
330
1F
100
AcDbEntity
  8
0
  6
Continuous
 62
     7
370
    25
100
AcDbSpline
210
0.0
220
0.0
230
1.0
 70
     8
 71
     3
 72
     8
 73
     4
 74
     0
 42
0.00000001
 43
0.00000001
 40
0.0
 40
0.0
 40
0.0
 40
0.0
 40
1.0
 40
1.0
 40
1.0
 40
1.0
 10
68.23949818878042
 20
102.3781038087168
 30
0.0
 10
68.06579511256065
 20
102.7106152308523
 30
0.0
 10
67.89349289349794
 20
103.0439423307511
 30
0.0
 10
67.72326211180125
 20
103.3781038087168
 30
0.0
  0
SPLINE
  5
2B3
330
1F
100
AcDbEntity
  8
0
  6
Continuous
 62
     7
370
    25
100
AcDbSpline
210
0.0
220
0.0
230
1.0
 70
     8
 71
     3
 72
    10
 73
     6
 74
     0
 42
0.00000001
 43
0.00000001
 40
0.0
 40
0.0
 40
0.0
 40
0.0
 40
0.5
 40
0.5
 40
1.0
 40
1.0
 40
1.0
 40
1.0
 10
68.40098351706145
 20
102.3781038087168
 30
0.0
 10
68.42465891148584
 20
102.3781038087168
 30
0.0
 10
68.43775002137046
 20
102.4008962580465
 30
0.0
 10
68.43783634265876
 20
102.4888389621396
 30
0.0
 10
68.42466740871492
 20
102.5536967358134
 30
0.0
 10
68.40098351706145
 20
102.6281038087167
 30
0.0
  0
SPLINE
  5
2B4
330
1F
100
AcDbEntity
  8
0
  6
Continuous
 62
     7
370
    25
100
AcDbSpline
210
0.0
220
0.0
230
1.0
 70
    24
 71
     3
 72
     8
 73
     4
 74
     0
 42
0.00000001
 43
0.00000001
 40
0.0
 40
0.0
 40
0.0
 40
0.0
 40
1.0
 40
1.0
 40
1.0
 40
1.0
 10
68.23949818878043
 20
102.3781038087168
 30
0.0
 10
68.2903944220355
 20
102.3781038087168
 30
0.0
 10
68.34432837699916
 20
102.3781038087168
 30
0.0
 10
68.40098351706143
 20
102.3781038087168
 30
0.0
  0
SPLINE
  5
2B5
330
1F
100
AcDbEntity
  8
0
  6
Continuous
 62
     7
370
    25
100
AcDbSpline
210
0.0
220
0.0
230
1.0
 70
     8
 71
     3
 72
     8
 73
     4
 74
     0
 42
0.00000001
 43
0.00000001
 40
0.0
 40
0.0
 40
0.0
 40
0.0
 40
1.0
 40
1.0
 40
1.0
 40
1.0
 10
55.72326211180125
 20
103.3781038087168
 30
0.0
 10
55.55298450445749
 20
103.0438504124314
 30
0.0
 10
55.38071275583177
 20
102.7105839228623
 30
0.0
 10
55.20702603482207
 20
102.3781038087168
 30
0.0
  0
SPLINE
  5
2B6
330
1F
100
AcDbEntity
  8
0
  6
Continuous
 62
     7
370
    25
100
AcDbSpline
210
0.0
220
0.0
230
1.0
 70
    24
 71
     3
 72
     8
 73
     4
 74
     0
 42
0.00000001
 43
0.00000001
 40
0.0
 40
0.0
 40
0.0
 40
0.0
 40
1.0
 40
1.0
 40
1.0
 40
1.0
 10
55.20702603482207
 20
102.3781038087168
 30
0.0
 10
55.15612731789955
 20
102.3781038087168
 30
0.0
 10
55.10219318164879
 20
102.3781038087168
 30
0.0
 10
55.04554070654105
 20
102.3781038087168
 30
0.0
  0
SPLINE
  5
2B7
330
1F
100
AcDbEntity
  8
0
  6
Continuous
 62
     7
370
    25
100
AcDbSpline
210
0.0
220
0.0
230
1.0
 70
     8
 71
     3
 72
    10
 73
     6
 74
     0
 42
0.00000001
 43
0.00000001
 40
0.0
 40
0.0
 40
0.0
 40
0.0
 40
0.5
 40
0.5
 40
1.0
 40
1.0
 40
1.0
 40
1.0
 10
55.04554070654105
 20
102.6281038087168
 30
0.0
 10
55.02186531211667
 20
102.5537234313394
 30
0.0
 10
55.00877420223203
 20
102.4894227925537
 30
0.0
 10
55.00868788094374
 20
102.4012071077707
 30
0.0
 10
55.02185681488758
 20
102.3781038087168
 30
0.0
 10
55.04554070654105
 20
102.3781038087168
 30
0.0
  0
SPLINE
  5
2B8
330
1F
100
AcDbEntity
  8
0
  6
Continuous
 62
     7
370
    25
100
AcDbSpline
210
0.0
220
0.0
230
1.0
 70
    24
 71
     3
 72
    12
 73
     8
 74
     0
 42
0.00000001
 43
0.00000001
 40
0.0
 40
0.0
 40
0.0
 40
0.0
 40
0.25
 40
0.25
 40
0.5
 40
0.5
 40
1.0
 40
1.0
 40
1.0
 40
1.0
 10
73.22326211180125
 20
102.3781038087168
 30
0.0
 10
73.22326211180125
 20
102.3781038087168
 30
0.0
 10
73.20735630613306
 20
102.3781038087168
 30
0.0
 10
73.14551143524065
 20
102.3781038087168
 30
0.0
 10
73.09969809437445
 20
102.3781038087168
 30
0.0
 10
72.92286492047208
 20
102.3781038087168
 30
0.0
 10
72.75258665696845
 20
102.3781038087168
 30
0.0
 10
72.54554070654105
 20
102.3781038087168
 30
0.0
  0
SPLINE
  5
2B9
330
1F
100
AcDbEntity
  8
0
  6
Continuous
 62
     7
370
    25
100
AcDbSpline
210
0.0
220
0.0
230
1.0
 70
     8
 71
     3
 72
    10
 73
     6
 74
     0
 42
0.00000001
 43
0.00000001
 40
0.0
 40
0.0
 40
0.0
 40
0.0
 40
0.5
 40
0.5
 40
1.0
 40
1.0
 40
1.0
 40
1.0
 10
72.54554070654105
 20
102.3781038087168
 30
0.0
 10
72.5218668059851
 20
102.3781038087168
 30
0.0
 10
72.50877424880596
 20
102.4008943803642
 30
0.0
 10
72.50868783482369
 20
102.488840377663
 30
0.0
 10
72.5218582264223
 20
102.5537011703958
 30
0.0
 10
72.54554070654105
 20
102.6281038087168
 30
0.0
  0
SPLINE
  5
2BA
330
1F
100
AcDbEntity
  8
0
  6
Continuous
 62
     7
370
    25
100
AcDbSpline
210
0.0
220
0.0
230
1.0
 70
    24
 71
     3
 72
    12
 73
     8
 74
     0
 42
0.00000001
 43
0.00000001
 40
0.0
 40
0.0
 40
0.0
 40
0.0
 40
0.25
 40
0.25
 40
0.5
 40
0.5
 40
1.0
 40
1.0
 40
1.0
 40
1.0
 10
50.22326211180124
 20
102.3781038087168
 30
0.0
 10
50.22326211180124
 20
102.3781038087168
 30
0.0
 10
50.23916791746942
 20
102.3781038087168
 30
0.0
 10
50.30101278836184
 20
102.3781038087168
 30
0.0
 10
50.34682612922804
 20
102.3781038087168
 30
0.0
 10
50.5236593031304
 20
102.3781038087168
 30
0.0
 10
50.69393756663404
 20
102.3781038087168
 30
0.0
 10
50.90098351706143
 20
102.3781038087168
 30
0.0
  0
SPLINE
  5
2BB
330
1F
100
AcDbEntity
  8
0
  6
Continuous
 62
     7
370
    25
100
AcDbSpline
210
0.0
220
0.0
230
1.0
 70
     8
 71
     3
 72
    10
 73
     6
 74
     0
 42
0.00000001
 43
0.00000001
 40
0.0
 40
0.0
 40
0.0
 40
0.0
 40
0.5
 40
0.5
 40
1.0
 40
1.0
 40
1.0
 40
1.0
 10
50.90098351706143
 20
102.3781038087168
 30
0.0
 10
50.92465741761738
 20
102.3781038087168
 30
0.0
 10
50.93774997479652
 20
102.4008943803642
 30
0.0
 10
50.9378363887788
 20
102.488840377663
 30
0.0
 10
50.92466599718018
 20
102.5537011703958
 30
0.0
 10
50.90098351706143
 20
102.6281038087168
 30
0.0
  0
LINE
  5
2BC
330
1F
100
AcDbEntity
  8
0
  6
Continuous
 62
     7
370
    25
100
AcDbLine
 10
68.4009835171
 20
119.3781038087
 30
0.0
 11
72.5455407065
 21
119.3781038087
 31
0.0
  0
LINE
  5
2BD
330
1F
100
AcDbEntity
  8
0
  6
Continuous
 62
     7
370
    25
100
AcDbLine
 10
50.9009835171
 20
119.3781038087
 30
0.0
 11
55.0455407065
 21
119.3781038087
 31
0.0
  0
LINE
  5
2BE
330
1F
100
AcDbEntity
  8
0
  6
Continuous
 62
     7
370
    25
100
AcDbLine
 10
55.0455407065
 20
102.3781038087
 30
0.0
 11
50.9009835171
 21
102.3781038087
 31
0.0
  0
LINE
  5
2BF
330
1F
100
AcDbEntity
  8
0
  6
Continuous
 62
     7
370
    25
100
AcDbLine
 10
72.5455407065
 20
102.3781038087
 30
0.0
 11
68.4009835171
 21
102.3781038087
 31
0.0
  0
LINE
  5
2C0
330
1F
100
AcDbEntity
  8
0
  6
Continuous
 62
     7
370
    25
100
AcDbLine
 10
68.2394981888
 20
119.3781038087
 30
0.0
 11
55.2070260348
 21
119.3781038087
 31
0.0
  0
LINE
  5
2C1
330
1F
100
AcDbEntity
  8
0
  6
Continuous
 62
     7
370
    25
100
AcDbLine
 10
68.2394981888
 20
102.3781038087
 30
0.0
 11
55.2070260348
 21
102.3781038087
 31
0.0
  0
LINE
  5
2C2
330
1F
100
AcDbEntity
  8
0
  6
Continuous
 62
     7
370
    25
100
AcDbLine
 10
44.646555564
 20
114.2290206532
 30
0.0
 11
44.6778119796
 21
114.2255291148
 31
0.0
  0
SPLINE
  5
2C3
330
1F
100
AcDbEntity
  8
0
  6
Continuous
 62
     7
370
    25
100
AcDbSpline
210
0.0
220
0.0
230
1.0
 70
     8
 71
     3
 72
    11
 73
     7
 74
     0
 42
0.00000001
 43
0.00000001
 40
0.0
 40
0.0
 40
0.0
 40
0.0
 40
0.0055682347466184
 40
0.191826336832104
 40
0.6296575784328784
 40
1.0
 40
1.0
 40
1.0
 40
1.0
 10
47.22326211180126
 20
113.2344684531517
 30
0.0
 10
47.21806818846597
 20
113.2358526712276
 30
0.0
 10
47.03913692343617
 20
113.2835391454789
 30
0.0
 10
46.4522992238936
 20
113.4375093283173
 30
0.0
 10
45.52217347833574
 20
113.6830844030819
 30
0.0
 10
44.79768510151614
 20
113.7152561888922
 30
0.0
 10
44.46569113524795
 20
113.7299987839631
 30
0.0
  0
SPLINE
  5
2C4
330
1F
100
AcDbEntity
  8
0
  6
Continuous
 62
     7
370
    25
100
AcDbSpline
210
0.0
220
0.0
230
1.0
 70
     8
 71
     3
 72
    11
 73
     7
 74
     0
 42
0.00000001
 43
0.00000001
 40
0.0
 40
0.0
 40
0.0
 40
0.0
 40
0.3703424215671242
 40
0.8081736631678934
 40
0.9944317652533823
 40
0.9999999999999999
 40
0.9999999999999999
 40
0.9999999999999999
 40
0.9999999999999999
 10
49.98083308835459
 20
113.7299987839631
 30
0.0
 10
49.64883912208639
 20
113.7152561888922
 30
0.0
 10
48.92435074526679
 20
113.6830844030819
 30
0.0
 10
47.99422499970894
 20
113.4375093283172
 30
0.0
 10
47.40738730016636
 20
113.283539145479
 30
0.0
 10
47.22845603513655
 20
113.2358526712276
 30
0.0
 10
47.22326211180126
 20
113.2344684531517
 30
0.0
  0
ELLIPSE
  5
2C5
330
1F
100
AcDbEntity
  8
0
  6
Continuous
 62
     7
370
    25
100
AcDbEllipse
 10
47.2232621118
 20
112.9985938232
 30
0.0
 11
6.5
 21
0.0
 31
0.0
210
0.0
220
0.0
230
1.0
 40
0.124260355
 41
0.5546419378370165
 42
1.132672010655787
  0
LINE
  5
2C6
330
1F
100
AcDbEntity
  8
0
  6
Continuous
 62
     7
370
    25
100
AcDbLine
 10
52.7488410294
 20
113.4239560515
 30
0.0
 11
52.7488410294
 21
108.332251566
 31
0.0
  0
ELLIPSE
  5
2C7
330
1F
100
AcDbEntity
  8
0
  6
Continuous
 62
     7
370
    25
100
AcDbEllipse
 10
47.2232621118
 20
108.7576137942
 30
0.0
 11
6.5
 21
-1.421085471520200E-14
 31
0.0
210
0.0
220
0.0
230
1.0
 40
0.124260355
 41
5.150513296523815
 42
5.728543369342637
  0
SPLINE
  5
2C8
330
1F
100
AcDbEntity
  8
0
  6
Continuous
 62
     7
370
    25
100
AcDbSpline
210
0.0
220
0.0
230
1.0
 70
     8
 71
     3
 72
    11
 73
     7
 74
     0
 42
0.00000001
 43
0.00000001
 40
0.0
 40
0.0
 40
0.0
 40
0.0
 40
0.0055682347466179
 40
0.1918263368321036
 40
0.6296575784328761
 40
1.0
 40
1.0
 40
1.0
 40
1.0
 10
47.22326211180126
 20
108.5217391642817
 30
0.0
 10
47.22845603513656
 20
108.5203549462058
 30
0.0
 10
47.40738730016643
 20
108.4726684719548
 30
0.0
 10
47.99422499970885
 20
108.3186982891157
 30
0.0
 10
48.92435074526681
 20
108.0731232143516
 30
0.0
 10
49.6488391220864
 20
108.0409514285413
 30
0.0
 10
49.98083308835459
 20
108.0262088334703
 30
0.0
  0
SPLINE
  5
2C9
330
1F
100
AcDbEntity
  8
0
  6
Continuous
 62
     7
370
    25
100
AcDbSpline
210
0.0
220
0.0
230
1.0
 70
     8
 71
     3
 72
    11
 73
     7
 74
     0
 42
0.00000001
 43
0.00000001
 40
0.0
 40
0.0
 40
0.0
 40
0.0
 40
0.3703424215671235
 40
0.8081736631678963
 40
0.9944317652533821
 40
0.9999999999999999
 40
0.9999999999999999
 40
0.9999999999999999
 40
0.9999999999999999
 10
44.46569113524794
 20
108.0262088334703
 30
0.0
 10
44.79768510151612
 20
108.0409514285413
 30
0.0
 10
45.5221734783357
 20
108.0731232143516
 30
0.0
 10
46.45229922389377
 20
108.3186982891157
 30
0.0
 10
47.03913692343602
 20
108.4726684719548
 30
0.0
 10
47.21806818846598
 20
108.5203549462058
 30
0.0
 10
47.22326211180126
 20
108.5217391642817
 30
0.0
  0
LINE
  5
2CA
330
1F
100
AcDbEntity
  8
0
  6
Continuous
 62
     7
370
    25
100
AcDbLine
 10
49.768712244
 20
114.2255291148
 30
0.0
 11
49.7998533433
 21
114.2290275744
 31
0.0
  0
LINE
  5
2CB
330
1F
100
AcDbEntity
  8
0
  6
Continuous
 62
     7
370
    25
100
AcDbLine
 10
44.6778119796
 20
107.5306785027
 30
0.0
 11
44.6466708803
 21
107.5271800431
 31
0.0
  0
LINE
  5
2CC
330
1F
100
AcDbEntity
  8
0
  6
Continuous
 62
     7
370
    25
100
AcDbLine
 10
73.646555564
 20
114.2290206532
 30
0.0
 11
73.6778119796
 21
114.2255291148
 31
0.0
  0
SPLINE
  5
2CD
330
1F
100
AcDbEntity
  8
0
  6
Continuous
 62
     7
370
    25
100
AcDbSpline
210
0.0
220
0.0
230
1.0
 70
     8
 71
     3
 72
    11
 73
     7
 74
     0
 42
0.00000001
 43
0.00000001
 40
0.0
 40
0.0
 40
0.0
 40
0.0
 40
0.0055682347466183
 40
0.1918263368321041
 40
0.6296575784328773
 40
1.0
 40
1.0
 40
1.0
 40
1.0
 10
76.22326211180128
 20
113.2344684531517
 30
0.0
 10
76.21806818846598
 20
113.2358526712276
 30
0.0
 10
76.03913692343619
 20
113.2835391454789
 30
0.0
 10
75.45229922389359
 20
113.4375093283173
 30
0.0
 10
74.52217347833574
 20
113.6830844030819
 30
0.0
 10
73.79768510151615
 20
113.7152561888922
 30
0.0
 10
73.46569113524795
 20
113.7299987839631
 30
0.0
  0
LINE
  5
2CE
330
1F
100
AcDbEntity
  8
0
  6
Continuous
 62
     7
370
    25
100
AcDbLine
 10
49.768712244
 20
107.5306785027
 30
0.0
 11
49.7998061974
 21
107.5271772564
 31
0.0
  0
SPLINE
  5
2CF
330
1F
100
AcDbEntity
  8
0
  6
Continuous
 62
     7
370
    25
100
AcDbSpline
210
0.0
220
0.0
230
1.0
 70
     8
 71
     3
 72
    11
 73
     7
 74
     0
 42
0.00000001
 43
0.00000001
 40
0.0
 40
0.0
 40
0.0
 40
0.0
 40
0.0055682347466183
 40
0.1918263368321046
 40
0.6296575784328777
 40
1.0
 40
1.0
 40
1.0
 40
1.0
 10
76.22326211180128
 20
108.5217391642817
 30
0.0
 10
76.22845603513656
 20
108.5203549462058
 30
0.0
 10
76.40738730016642
 20
108.4726684719547
 30
0.0
 10
76.99422499970886
 20
108.3186982891158
 30
0.0
 10
77.92435074526682
 20
108.0731232143516
 30
0.0
 10
78.64883912208641
 20
108.0409514285413
 30
0.0
 10
78.9808330883546
 20
108.0262088334703
 30
0.0
  0
SPLINE
  5
2D0
330
1F
100
AcDbEntity
  8
0
  6
Continuous
 62
     7
370
    25
100
AcDbSpline
210
0.0
220
0.0
230
1.0
 70
     8
 71
     3
 72
    11
 73
     7
 74
     0
 42
0.00000001
 43
0.00000001
 40
0.0
 40
0.0
 40
0.0
 40
0.0
 40
0.3703424215671228
 40
0.808173663167896
 40
0.9944317652533816
 40
1.0
 40
1.0
 40
1.0
 40
1.0
 10
73.46569113524795
 20
108.0262088334703
 30
0.0
 10
73.79768510151614
 20
108.0409514285413
 30
0.0
 10
74.52217347833572
 20
108.0731232143516
 30
0.0
 10
75.45229922389368
 20
108.3186982891158
 30
0.0
 10
76.03913692343612
 20
108.4726684719547
 30
0.0
 10
76.21806818846598
 20
108.5203549462058
 30
0.0
 10
76.22326211180128
 20
108.5217391642817
 30
0.0
  0
ELLIPSE
  5
2D1
330
1F
100
AcDbEntity
  8
0
  6
Continuous
 62
     7
370
    25
100
AcDbEllipse
 10
76.2232621118
 20
108.7576137942
 30
0.0
 11
6.5
 21
-1.421085471520200E-14
 31
0.0
210
0.0
220
0.0
230
1.0
 40
0.124260355
 41
3.696234591426932
 42
4.274264664245618
  0
LINE
  5
2D2
330
1F
100
AcDbEntity
  8
0
  6
Continuous
 62
     7
370
    25
100
AcDbLine
 10
70.6976831942
 20
113.4239560515
 30
0.0
 11
70.6976831942
 21
108.332251566
 31
0.0
  0
ELLIPSE
  5
2D3
330
1F
100
AcDbEntity
  8
0
  6
Continuous
 62
     7
370
    25
100
AcDbEllipse
 10
76.2232621118
 20
112.9985938232
 30
0.0
 11
6.5
 21
0.0
 31
0.0
210
0.0
220
0.0
230
1.0
 40
0.124260355
 41
2.008920642934003
 42
2.586950715752777
  0
SPLINE
  5
2D4
330
1F
100
AcDbEntity
  8
0
  6
Continuous
 62
     7
370
    25
100
AcDbSpline
210
0.0
220
0.0
230
1.0
 70
     8
 71
     3
 72
    11
 73
     7
 74
     0
 42
0.00000001
 43
0.00000001
 40
0.0
 40
0.0
 40
0.0
 40
0.0
 40
0.3703424215671224
 40
0.8081736631678954
 40
0.9944317652533818
 40
1.0
 40
1.0
 40
1.0
 40
1.0
 10
78.9808330883546
 20
113.7299987839631
 30
0.0
 10
78.6488391220864
 20
113.7152561888922
 30
0.0
 10
77.92435074526679
 20
113.6830844030819
 30
0.0
 10
76.99422499970898
 20
113.4375093283173
 30
0.0
 10
76.40738730016633
 20
113.2835391454789
 30
0.0
 10
76.22845603513656
 20
113.2358526712276
 30
0.0
 10
76.22326211180128
 20
113.2344684531517
 30
0.0
  0
LINE
  5
2D5
330
1F
100
AcDbEntity
  8
0
  6
Continuous
 62
     7
370
    25
100
AcDbLine
 10
73.6778119796
 20
107.5306785027
 30
0.0
 11
73.6466708803
 21
107.5271800431
 31
0.0
  0
LINE
  5
2D6
330
1F
100
AcDbEntity
  8
0
  6
Continuous
 62
     7
370
    25
100
AcDbLine
 10
78.7999686596
 20
107.5271869642
 30
0.0
 11
78.768712244
 21
107.5306785027
 31
0.0
  0
CIRCLE
  5
2D7
330
1F
100
AcDbEntity
  8
0
  6
Continuous
 62
     7
370
    25
100
AcDbCircle
 10
61.7232621118
 20
110.8781038087
 30
0.0
 40
5.584181783769409
  0
CIRCLE
  5
2D8
330
1F
100
AcDbEntity
  8
0
  6
Continuous
 62
     7
370
    25
100
AcDbCircle
 10
61.7232621118
 20
110.8781038087
 30
0.0
 40
5.095107983402499
  0
CIRCLE
  5
2D9
330
1F
100
AcDbEntity
  8
0
  6
Continuous
 62
     7
370
    25
100
AcDbCircle
 10
61.7232621118
 20
110.8781038087
 30
0.0
 40
4.500000000000028
  0
ARC
  5
2DA
330
1F
100
AcDbEntity
  8
0
  6
Continuous
 62
     7
370
    25
100
AcDbCircle
 10
61.7232621118
 20
110.8781038087
 30
0.0
 40
5.925113123340041
100
AcDbArc
 50
210.7429878176
 51
329.2570121825
  0
ARC
  5
2DB
330
1F
100
AcDbEntity
  8
0
  6
Continuous
 62
     7
370
    25
100
AcDbCircle
 10
61.7232621118
 20
110.8781038087
 30
0.0
 40
5.92511312334004
100
AcDbArc
 50
180.0
 51
210.7429878176
  0
ARC
  5
2DC
330
1F
100
AcDbEntity
  8
0
  6
Continuous
 62
     7
370
    25
100
AcDbCircle
 10
61.7232621118
 20
110.8781038087
 30
0.0
 40
5.925113123340042
100
AcDbArc
 50
149.2570121824
 51
180.0
  0
ARC
  5
2DD
330
1F
100
AcDbEntity
  8
0
  6
Continuous
 62
     7
370
    25
100
AcDbCircle
 10
61.7232621118
 20
110.8781038087
 30
0.0
 40
5.925113123340048
100
AcDbArc
 50
30.7429878175
 51
149.2570121824
  0
ARC
  5
2DE
330
1F
100
AcDbEntity
  8
0
  6
Continuous
 62
     7
370
    25
100
AcDbCircle
 10
61.7232621118
 20
110.8781038087
 30
0.0
 40
5.925113123340048
100
AcDbArc
 50
0.0
 51
30.7429878175
  0
ARC
  5
2DF
330
1F
100
AcDbEntity
  8
0
  6
Continuous
 62
     7
370
    25
100
AcDbCircle
 10
61.7232621118
 20
110.8781038087
 30
0.0
 40
5.925113123340041
100
AcDbArc
 50
329.2570121825
 51
0.0
  0
LINE
  5
2E0
330
1F
100
AcDbEntity
  8
0
  6
Continuous
 62
     7
370
    25
100
AcDbLine
 10
55.7981489885
 20
110.8781038087
 30
0.0
 11
55.7981489885
 21
108.4034552244
 31
0.0
  0
ELLIPSE
  5
2E1
330
1F
100
AcDbEntity
  8
0
  6
Continuous
 62
     7
370
    25
100
AcDbEllipse
 10
54.4490191579
 20
108.1550173042
 30
0.0
 11
2.0
 21
0.0
 31
0.0
210
0.0
220
0.0
230
1.0
 40
0.1682692308
 41
0.8304211569479206
 42
2.586950715752778
  0
ELLIPSE
  5
2E2
330
1F
100
AcDbEntity
  8
0
  6
Continuous
 62
     7
370
    25
100
AcDbEllipse
 10
54.4490191579
 20
113.6011903132
 30
0.0
 11
2.0
 21
0.0
 31
0.0
210
0.0
220
0.0
230
1.0
 40
0.1682692308
 41
3.696234591426869
 42
5.452764150231733
  0
LINE
  5
2E3
330
1F
100
AcDbEntity
  8
0
  6
Continuous
 62
     7
370
    25
100
AcDbLine
 10
55.7981489885
 20
113.3527523931
 30
0.0
 11
55.7981489885
 21
110.8781038087
 31
0.0
  0
SPLINE
  5
2E4
330
1F
100
AcDbEntity
  8
0
  6
Continuous
 62
     7
370
    25
100
AcDbSpline
210
0.0
220
0.0
230
1.0
 70
     8
 71
     3
 72
    12
 73
     8
 74
     0
 42
0.00000001
 43
0.00000001
 40
0.0
 40
0.0
 40
0.0
 40
0.0
 40
0.2571943124574413
 40
0.5245503439757948
 40
0.7385170215182973
 40
0.8882338470637767
 40
1.0
 40
1.0
 40
1.0
 40
1.0
 10
56.51364388119479
 20
113.9069499625629
 30
0.0
 10
56.42894560367365
 20
113.89833468832
 30
0.0
 10
56.25620262898125
 20
113.8807637512943
 30
0.0
 10
56.0369776002164
 20
113.7622533455665
 30
0.0
 10
55.88759782483703
 20
113.6162652008874
 30
0.0
 10
55.81020130824297
 20
113.4756827378979
 30
0.0
 10
55.80175794907915
 20
113.3895627981291
 30
0.0
 10
55.79814898846122
 20
113.3527523930505
 30
0.0
  0
ELLIPSE
  5
2E5
330
1F
100
AcDbEntity
  8
0
  6
Continuous
 62
     7
370
    25
100
AcDbEllipse
 10
54.4490191579
 20
114.096720644
 30
0.0
 11
2.5
 21
0.0
 31
0.0
210
0.0
220
0.0
230
1.0
 40
0.1346153846
 41
3.775877127463584
 42
5.6840967109578
  0
ELLIPSE
  5
2E6
330
1F
100
AcDbEntity
  8
0
  6
Continuous
 62
     7
370
    25
100
AcDbEllipse
 10
68.9975050657
 20
113.6011903132
 30
0.0
 11
2.0
 21
0.0
 31
0.0
210
0.0
220
0.0
230
1.0
 40
0.1682692308
 41
3.972013810537719
 42
5.728543369342628
  0
SPLINE
  5
2E7
330
1F
100
AcDbEntity
  8
0
  6
Continuous
 62
     7
370
    25
100
AcDbSpline
210
0.0
220
0.0
230
1.0
 70
     8
 71
     3
 72
    12
 73
     8
 74
     0
 42
0.00000001
 43
0.00000001
 40
0.0
 40
0.0
 40
0.0
 40
0.0
 40
0.1443005026356244
 40
0.2873275205918753
 40
0.5201185386439743
 40
0.7602843466484757
 40
1.0
 40
1.0
 40
1.0
 40
1.0
 10
67.6483752351413
 20
113.3527523930505
 30
0.0
 10
67.6423909751168
 20
113.4003238434965
 30
0.0
 10
67.63047526752044
 20
113.4950469155437
 30
0.0
 10
67.53709004532406
 20
113.6431038788699
 30
0.0
 10
67.3843321019224
 20
113.7786034754082
 30
0.0
 10
67.16986618673413
 20
113.8844991565129
 30
0.0
 10
67.01182620717938
 20
113.8994710420245
 30
0.0
 10
66.93288034240774
 20
113.9069499625629
 30
0.0
  0
ELLIPSE
  5
2E8
330
1F
100
AcDbEntity
  8
0
  6
Continuous
 62
     7
370
    25
100
AcDbEllipse
 10
68.9975050657
 20
114.096720644
 30
0.0
 11
2.5
 21
0.0
 31
0.0
210
0.0
220
0.0
230
1.0
 40
0.1346153846
 41
3.740681249811725
 42
5.650122396196063
  0
ELLIPSE
  5
2E9
330
1F
100
AcDbEntity
  8
0
  6
Continuous
 62
     7
370
    25
100
AcDbEllipse
 10
68.9975050657
 20
108.1550173042
 30
0.0
 11
2.0
 21
0.0
 31
0.0
210
0.0
220
0.0
230
1.0
 40
0.1682692308
 41
0.5546419378370192
 42
2.311171496641878
  0
LINE
  5
2EA
330
1F
100
AcDbEntity
  8
0
  6
Continuous
 62
     7
370
    25
100
AcDbLine
 10
67.6483752351
 20
110.8781038087
 30
0.0
 11
67.6483752351
 21
108.4034552244
 31
0.0
  0
LINE
  5
2EB
330
1F
100
AcDbEntity
  8
0
  6
Continuous
 62
     7
370
    25
100
AcDbLine
 10
67.6483752351
 20
113.3527523931
 30
0.0
 11
67.6483752351
 21
110.8781038087
 31
0.0
  0
SPLINE
  5
2EC
330
1F
100
AcDbEntity
  8
0
  6
Continuous
 62
     7
370
    25
100
AcDbSpline
210
0.0
220
0.0
230
1.0
 70
     8
 71
     3
 72
    12
 73
     8
 74
     0
 42
0.00000001
 43
0.00000001
 40
0.0
 40
0.0
 40
0.0
 40
0.0
 40
0.144300502635625
 40
0.2873275205918761
 40
0.5201185386439748
 40
0.7602843466484799
 40
1.0
 40
1.0
 40
1.0
 40
1.0
 10
55.79814898846122
 20
108.4034552243829
 30
0.0
 10
55.80413324848572
 20
108.3558837739369
 30
0.0
 10
55.81604895608209
 20
108.2611607018897
 30
0.0
 10
55.90943417827846
 20
108.1131037385636
 30
0.0
 10
56.06219212168013
 20
107.9776041420252
 30
0.0
 10
56.2766580368684
 20
107.8717084609205
 30
0.0
 10
56.43469801642316
 20
107.8567365754089
 30
0.0
 10
56.51364388119479
 20
107.8492576548706
 30
0.0
  0
ELLIPSE
  5
2ED
330
1F
100
AcDbEntity
  8
0
  6
Continuous
 62
     7
370
    25
100
AcDbEllipse
 10
54.4490191579
 20
107.6594869734
 30
0.0
 11
2.5
 21
0.0
 31
0.0
210
0.0
220
0.0
230
1.0
 40
0.1346153846
 41
0.5990885962219329
 42
2.508529742606164
  0
SPLINE
  5
2EE
330
1F
100
AcDbEntity
  8
0
  6
Continuous
 62
     7
370
    25
100
AcDbSpline
210
0.0
220
0.0
230
1.0
 70
     8
 71
     3
 72
    12
 73
     8
 74
     0
 42
0.00000001
 43
0.00000001
 40
0.0
 40
0.0
 40
0.0
 40
0.0
 40
0.2571943124574416
 40
0.524550343975796
 40
0.7385170215182983
 40
0.8882338470637771
 40
1.0
 40
1.0
 40
1.0
 40
1.0
 10
66.93288034240774
 20
107.8492576548706
 30
0.0
 10
67.01757861992887
 20
107.8578729291135
 30
0.0
 10
67.19032159462128
 20
107.8754438661392
 30
0.0
 10
67.40954662338612
 20
107.993954271867
 30
0.0
 10
67.5589263987655
 20
108.139942416546
 30
0.0
 10
67.63632291535956
 20
108.2805248795355
 30
0.0
 10
67.64476627452338
 20
108.3666448193044
 30
0.0
 10
67.6483752351413
 20
108.4034552243829
 30
0.0
  0
ELLIPSE
  5
2EF
330
1F
100
AcDbEntity
  8
0
  6
Continuous
 62
     7
370
    25
100
AcDbEllipse
 10
68.9975050657
 20
107.6594869734
 30
0.0
 11
2.5
 21
0.0
 31
0.0
210
0.0
220
0.0
230
1.0
 40
0.1346153846
 41
0.6342844738737662
 42
2.542504057367903
  0
ARC
  5
2F0
330
1F
100
AcDbEntity
  8
0
  6
Continuous
 62
     7
370
    25
100
AcDbCircle
 10
61.7232621118
 20
110.8781038087
 30
0.0
 40
7.99999999999998
100
AcDbArc
 50
21.1234840263
 51
158.8765159737
  0
LINE
  5
2F1
330
1F
100
AcDbEntity
  8
0
  6
Continuous
 62
     7
370
    25
100
AcDbLine
 10
56.5136438812
 20
113.9069499626
 30
0.0
 11
56.6308111792
 21
113.9069499626
 31
0.0
  0
LINE
  5
2F2
330
1F
100
AcDbEntity
  8
0
  6
Continuous
 62
     7
370
    25
100
AcDbLine
 10
66.8157130444
 20
113.9069499626
 30
0.0
 11
66.9328803424
 21
113.9069499626
 31
0.0
  0
ARC
  5
2F3
330
1F
100
AcDbEntity
  8
0
  6
Continuous
 62
     7
370
    25
100
AcDbCircle
 10
61.7232621118
 20
110.8781038087
 30
0.0
 40
7.999999999999987
100
AcDbArc
 50
201.1234840263
 51
338.8765159737
  0
LINE
  5
2F4
330
1F
100
AcDbEntity
  8
0
  6
Continuous
 62
     7
370
    25
100
AcDbLine
 10
56.6308111792
 20
107.8492576549
 30
0.0
 11
56.5136438812
 21
107.8492576549
 31
0.0
  0
LINE
  5
2F5
330
1F
100
AcDbEntity
  8
0
  6
Continuous
 62
     7
370
    25
100
AcDbLine
 10
66.9328803424
 20
107.8492576549
 30
0.0
 11
66.8157130444
 21
107.8492576549
 31
0.0
  0
LINE
  5
2F6
330
1F
100
AcDbEntity
  8
0
  6
Continuous
 62
     7
370
    25
100
AcDbLine
 10
59.4857780903
 20
109.9028312637
 30
0.0
 11
59.4529825632
 21
109.921575303
 31
0.0
  0
SPLINE
  5
2F7
330
1F
100
AcDbEntity
  8
0
  6
Continuous
 62
     7
370
    25
100
AcDbSpline
210
0.0
220
0.0
230
1.0
 70
     8
 71
     3
 72
    15
 73
    11
 74
     0
 42
0.00000001
 43
0.00000001
 40
0.0
 40
0.0
 40
0.0
 40
0.0
 40
0.1241930067305289
 40
0.24965566548923
 40
0.3743703853151211
 40
0.4998404796364203
 40
0.6240146704162364
 40
0.7475381382242062
 40
0.8745858500551824
 40
1.0
 40
1.0
 40
1.0
 40
1.0
 10
60.2660678119318
 20
110.1752709143025
 30
0.0
 10
60.2505074168221
 20
110.1394237115586
 30
0.0
 10
60.21922754931057
 20
110.0673628323468
 30
0.0
 10
60.14179118982221
 20
109.9774873190039
 30
0.0
 10
60.04843718608329
 20
109.9051635412095
 30
0.0
 10
59.94121158006231
 20
109.856236122705
 30
0.0
 10
59.82682566934139
 20
109.8299080692502
 30
0.0
 10
59.70915490645606
 20
109.8290489752476
 30
0.0
 10
59.59227118123085
 20
109.8504317358772
 30
0.0
 10
59.52112233033612
 20
109.885440262338
 30
0.0
 10
59.48577809025269
 20
109.9028312637194
 30
0.0
  0
LINE
  5
2F8
330
1F
100
AcDbEntity
  8
0
  6
Continuous
 62
     7
370
    25
100
AcDbLine
 10
61.2579218566
 20
112.9488501302
 30
0.0
 11
60.2660678119
 21
110.1752709143
 31
0.0
  0
SPLINE
  5
2F9
330
1F
100
AcDbEntity
  8
0
  6
Continuous
 62
     7
370
    25
100
AcDbSpline
210
0.0
220
0.0
230
1.0
 70
     8
 71
     3
 72
    15
 73
    11
 74
     0
 42
0.00000001
 43
0.00000001
 40
0.0
 40
0.0
 40
0.0
 40
0.0
 40
0.1233025178081761
 40
0.2485158700387114
 40
0.3756924668130948
 40
0.4999990880429331
 40
0.6243057092728395
 40
0.7514823060473043
 40
0.8766757256079957
 40
1.0
 40
1.0
 40
1.0
 40
1.0
 10
62.18860237015293
 20
112.9488501302159
 30
0.0
 10
62.16445139819058
 20
112.9894952661516
 30
0.0
 10
62.11577518365583
 20
113.0714154207395
 30
0.0
 10
62.00042452545073
 20
113.1612343765519
 30
0.0
 10
61.86726490318885
 20
113.2188085247131
 30
0.0
 10
61.72326225982007
 20
113.2379672203832
 30
0.0
 10
61.57925873112158
 20
113.2188091174981
 30
0.0
 10
61.44610885815607
 20
113.1612350037596
 30
0.0
 10
61.33074650062164
 20
113.0714294416129
 30
0.0
 10
61.28207471495046
 20
112.9895045100881
 30
0.0
 10
61.25792185663364
 20
112.948850130216
 30
0.0
  0
LINE
  5
2FA
330
1F
100
AcDbEntity
  8
0
  6
Continuous
 62
     7
370
    25
100
AcDbLine
 10
63.1802252765
 20
110.1759172599
 30
0.0
 11
62.1886023702
 21
112.9488501302
 31
0.0
  0
SPLINE
  5
2FB
330
1F
100
AcDbEntity
  8
0
  6
Continuous
 62
     7
370
    25
100
AcDbSpline
210
0.0
220
0.0
230
1.0
 70
     8
 71
     3
 72
    15
 73
    11
 74
     0
 42
0.00000001
 43
0.00000001
 40
0.0
 40
0.0
 40
0.0
 40
0.0
 40
0.1253320172137759
 40
0.2522975129251759
 40
0.3758847553984062
 40
0.5001929511416487
 40
0.6255758307380153
 40
0.7502289462456482
 40
0.8757444935777827
 40
1.0
 40
1.0
 40
1.0
 40
1.0
 10
63.95292704106676
 20
109.8992214092615
 30
0.0
 10
63.91767612443878
 20
109.8825471007788
 30
0.0
 10
63.84671485858438
 20
109.8489811640495
 30
0.0
 10
63.73072796779601
 20
109.8291995477953
 30
0.0
 10
63.61413160155563
 20
109.8312723281419
 30
0.0
 10
63.50101099497415
 20
109.8583503544925
 30
0.0
 10
63.3951352806347
 20
109.9075631701997
 30
0.0
 10
63.30302619601555
 20
109.9796489340736
 30
0.0
 10
63.22659453214715
 20
110.068936455573
 30
0.0
 10
63.19562962464786
 20
110.1403771260101
 30
0.0
 10
63.18022527652661
 20
110.1759172598681
 30
0.0
  0
LINE
  5
2FC
330
1F
100
AcDbEntity
  8
0
  6
Continuous
 62
     7
370
    25
100
AcDbLine
 10
63.9935416635
 20
109.921575303
 30
0.0
 11
63.9529270411
 21
109.8992214093
 31
0.0
  0
LINE
  5
2FD
330
1F
100
AcDbEntity
  8
0
  6
Continuous
 62
     7
370
    25
100
AcDbLine
 10
63.3665584671
 20
108.7261641995
 30
0.0
 11
63.9935416635
 21
109.921575303
 31
0.0
  0
SPLINE
  5
2FE
330
1F
100
AcDbEntity
  8
0
  6
Continuous
 62
     7
370
    25
100
AcDbSpline
210
0.0
220
0.0
230
1.0
 70
     8
 71
     3
 72
    15
 73
    11
 74
     0
 42
0.00000001
 43
0.00000001
 40
0.0
 40
0.0
 40
0.0
 40
0.0
 40
0.124633218643854
 40
0.2519059530189772
 40
0.3765391000744918
 40
0.4994035903146518
 40
0.6264494152300148
 40
0.7526064410610419
 40
0.874680437736327
 40
1.0
 40
1.0
 40
1.0
 40
1.0
 10
63.26132997825773
 20
108.708047032764
 30
0.0
 10
63.26534445392587
 20
108.7049417979114
 30
0.0
 10
63.27345842490456
 20
108.6986655647096
 30
0.0
 10
63.28789701674109
 20
108.6930525512297
 30
0.0
 10
63.30303046667418
 20
108.6905161986029
 30
0.0
 10
63.31839300895595
 20
108.6914016021708
 30
0.0
 10
63.33332358779263
 20
108.6955326726864
 30
0.0
 10
63.34682548782195
 20
108.7030233726323
 30
0.0
 10
63.35851114270835
 20
108.7131619545466
 30
0.0
 10
63.36385266704914
 20
108.7217923768895
 30
0.0
 10
63.36655846705089
 20
108.7261641994817
 30
0.0
  0
SPLINE
  5
2FF
330
1F
100
AcDbEntity
  8
0
  6
Continuous
 62
     7
370
    25
100
AcDbSpline
210
0.0
220
0.0
230
1.0
 70
     8
 71
     3
 72
    11
 73
     7
 74
     0
 42
0.00000001
 43
0.00000001
 40
0.0
 40
0.0
 40
0.0
 40
0.0
 40
0.2506252605986011
 40
0.4999999999996214
 40
0.7493747394010042
 40
1.0
 40
1.0
 40
1.0
 40
1.0
 10
60.18519424852884
 20
108.708047032764
 30
0.0
 10
60.41492194270216
 20
108.870901324725
 30
0.0
 10
60.87323108046514
 20
109.1957973299638
 30
0.0
 10
61.72326211340126
 20
109.329529276901
 30
0.0
 10
62.57329314633149
 20
109.1957973299587
 30
0.0
 10
63.03160228408777
 20
108.8709013247233
 30
0.0
 10
63.26132997825773
 20
108.708047032764
 30
0.0
  0
SPLINE
  5
300
330
1F
100
AcDbEntity
  8
0
  6
Continuous
 62
     7
370
    25
100
AcDbSpline
210
0.0
220
0.0
230
1.0
 70
     8
 71
     3
 72
    15
 73
    11
 74
     0
 42
0.00000001
 43
0.00000001
 40
0.0
 40
0.0
 40
0.0
 40
0.0
 40
0.1253191957979133
 40
0.2473928354984057
 40
0.3734492416489694
 40
0.5005950046079951
 40
0.623548439177759
 40
0.7480947836179459
 40
0.875367145815387
 40
1.0
 40
1.0
 40
1.0
 40
1.0
 10
60.07996575973564
 20
108.7261641994817
 30
0.0
 10
60.08267155606807
 20
108.7217923711978
 30
0.0
 10
60.08801307316526
 20
108.713161937619
 30
0.0
 10
60.09969564575433
 20
108.7030261601192
 30
0.0
 10
60.1131966257416
 20
108.6955340442456
 30
0.0
 10
60.12813065459166
 20
108.6914015989534
 30
0.0
 10
60.14349766578071
 20
108.6905136571799
 30
0.0
 10
60.15863040221893
 20
108.6930545994374
 30
0.0
 10
60.1730658320006
 20
108.6986653777046
 30
0.0
 10
60.18117978282984
 20
108.7049417360134
 30
0.0
 10
60.18519424852882
 20
108.708047032764
 30
0.0
  0
LINE
  5
301
330
1F
100
AcDbEntity
  8
0
  6
Continuous
 62
     7
370
    25
100
AcDbLine
 10
59.4529825632
 20
109.921575303
 30
0.0
 11
60.0799657597
 21
108.7261641995
 31
0.0
  0
SPLINE
  5
302
330
1F
100
AcDbEntity
  8
0
  6
Continuous
 62
     7
370
    25
100
AcDbSpline
210
0.0
220
0.0
230
1.0
 70
     8
 71
     3
 72
    15
 73
    11
 74
     0
 42
0.00000001
 43
0.00000001
 40
0.0
 40
0.0
 40
0.0
 40
0.0
 40
0.1233867499278388
 40
0.2487396502211602
 40
0.3739317114754985
 40
0.4999973617625658
 40
0.62595913305136
 40
0.7512551380600302
 40
0.8765613478174265
 40
1.0
 40
1.0
 40
1.0
 40
1.0
 10
61.66037924699518
 20
110.8995132668595
 30
0.0
 10
61.66325744818705
 20
110.9055280629425
 30
0.0
 10
61.66905971429869
 20
110.9176535000312
 30
0.0
 10
61.68458911901944
 20
110.9310447603812
 30
0.0
 10
61.70294370089288
 20
110.9399224719612
 30
0.0
 10
61.72325651737579
 20
110.9426791352576
 30
0.0
 10
61.7435749350909
 20
110.939924454057
 30
0.0
 10
61.76192780425501
 20
110.9310487557675
 30
0.0
 10
61.77746590865052
 20
110.9176583885138
 30
0.0
 10
61.7832664706818
 20
110.9055312909678
 30
0.0
 10
61.78614497660735
 20
110.8995132668595
 30
0.0
  0
LINE
  5
303
330
1F
100
AcDbEntity
  8
0
  6
Continuous
 62
     7
370
    25
100
AcDbLine
 10
61.4212657213
 20
110.2612592376
 30
0.0
 11
61.660379247
 21
110.8995132669
 31
0.0
  0
SPLINE
  5
304
330
1F
100
AcDbEntity
  8
0
  6
Continuous
 62
     7
370
    25
100
AcDbSpline
210
0.0
220
0.0
230
1.0
 70
     8
 71
     3
 72
    15
 73
    11
 74
     0
 42
0.00000001
 43
0.00000001
 40
0.0
 40
0.0
 40
0.0
 40
0.0
 40
0.126158522421064
 40
0.2513121451548799
 40
0.3762846848783791
 40
0.4993062783340876
 40
0.6261594278645742
 40
0.7521171342021308
 40
0.8758196922692789
 40
1.0
 40
1.0
 40
1.0
 40
1.0
 10
61.4841485861235
 20
110.1761948842369
 30
0.0
 10
61.47891748963482
 20
110.1765171908293
 30
0.0
 10
61.46849696429217
 20
110.1771592367218
 30
0.0
 10
61.45371041377777
 20
110.182607477097
 30
0.0
 10
61.44052006115227
 20
110.1908300796826
 30
0.0
 10
61.429649486311
 20
110.2020866859952
 30
0.0
 10
61.42164189898246
 20
110.2156074313363
 30
0.0
 10
61.41747527194977
 20
110.2307443189131
 30
0.0
 10
61.41685422043815
 20
110.2464334504842
 30
0.0
 10
61.41979333279291
 20
110.2563109628429
 30
0.0
 10
61.42126572127565
 20
110.2612592375869
 30
0.0
  0
LINE
  5
305
330
1F
100
AcDbEntity
  8
0
  6
Continuous
 62
     7
370
    25
100
AcDbLine
 10
61.9623756403
 20
110.1761948842
 30
0.0
 11
61.4841485861
 21
110.1761948842
 31
0.0
  0
SPLINE
  5
306
330
1F
100
AcDbEntity
  8
0
  6
Continuous
 62
     7
370
    25
100
AcDbSpline
210
0.0
220
0.0
230
1.0
 70
     8
 71
     3
 72
    15
 73
    11
 74
     0
 42
0.00000001
 43
0.00000001
 40
0.0
 40
0.0
 40
0.0
 40
0.0
 40
0.1241186784437702
 40
0.2478474916628989
 40
0.3736574149478946
 40
0.5005082335853298
 40
0.6234527658309923
 40
0.7484986612277523
 40
0.8736976492452767
 40
1.0
 40
1.0
 40
1.0
 40
1.0
 10
62.02525850505285
 20
110.26125923781
 30
0.0
 10
62.02672957766167
 20
110.2563133921519
 30
0.0
 10
62.02966710214005
 20
110.2464372360737
 30
0.0
 10
62.02905036763995
 20
110.230755840448
 30
0.0
 10
62.02488840604534
 20
110.2156233083677
 30
0.0
 10
62.01688965824696
 20
110.2021084007533
 30
0.0
 10
62.00602356671013
 20
110.1908483395573
 30
0.0
 10
61.99283584888551
 20
110.1826186271238
 30
0.0
 10
61.9780414023103
 20
110.1771590567388
 30
0.0
 10
61.96761281140297
 20
110.1765172136818
 30
0.0
 10
61.96237564028856
 20
110.1761948842369
 30
0.0
  0
LINE
  5
307
330
1F
100
AcDbEntity
  8
0
  6
Continuous
 62
     7
370
    25
100
AcDbLine
 10
61.7861449766
 20
110.8995132669
 30
0.0
 11
62.0252585051
 21
110.2612592378
 31
0.0
  0
LINE
  5
308
330
1F
100
AcDbEntity
  8
0
  6
Continuous
 62
     7
370
    25
100
AcDbLine
 10
95.9232621118
 20
116.627692387
 30
0.0
 11
95.9232621118
 21
119.1281038087
 31
0.0
  0
LINE
  5
309
330
1F
100
AcDbEntity
  8
0
  6
Continuous
 62
     7
370
    25
100
AcDbLine
 10
95.9232621118
 20
102.6281038087
 30
0.0
 11
95.9232621118
 21
116.627692387
 31
0.0
  0
LINE
  5
30A
330
1F
100
AcDbEntity
  8
0
  6
Continuous
 62
     7
370
    25
100
AcDbLine
 10
94.0232621118
 20
116.2792324732
 30
0.0
 11
94.0232621118
 21
118.6281038087
 31
0.0
  0
LINE
  5
30B
330
1F
100
AcDbEntity
  8
0
  6
Continuous
 62
     7
370
    25
100
AcDbLine
 10
94.0232621118
 20
103.1281038087
 30
0.0
 11
94.0232621118
 21
116.2792324732
 31
0.0
  0
LINE
  5
30C
330
1F
100
AcDbEntity
  8
0
  6
Continuous
 62
     7
370
    25
100
AcDbLine
 10
27.5232621118
 20
119.1281038087
 30
0.0
 11
27.5232621118
 21
102.6281038087
 31
0.0
  0
LINE
  5
30D
330
1F
100
AcDbEntity
  8
0
  6
Continuous
 62
     7
370
    25
100
AcDbLine
 10
29.4232621118
 20
118.6281038087
 30
0.0
 11
29.4232621118
 21
103.1281038087
 31
0.0
  0
LWPOLYLINE
  5
30E
330
1F
100
AcDbEntity
  8
0
  6
Continuous
 62
     7
370
    25
100
AcDbPolyline
 90
        9
 70
   128
 43
0.0
 10
44.4656911352
 20
113.729998784
 10
44.4649981716
 20
113.8347854872
 10
44.4737883346
 20
113.9349028243
 10
44.4916699288
 20
114.0258894992
 10
44.5178461382
 20
114.1036910844
 10
44.5511505334
 20
114.1648406888
 10
44.5900990479
 20
114.2066134449
 10
44.6329561099
 20
114.2271479304
 10
44.646555564
 20
114.2290206532
  0
SPLINE
  5
30F
330
1F
100
AcDbEntity
  8
0
  6
Continuous
 62
     7
370
    25
100
AcDbSpline
210
0.0
220
0.0
230
1.0
 70
     8
 71
     3
 72
    17
 73
    13
 74
     0
 42
0.00000001
 43
0.00000001
 40
0.0
 40
0.0
 40
0.0
 40
0.0
 40
0.1035809827196162
 40
0.3375791359644345
 40
0.6895271505997875
 40
0.8015971490192386
 40
0.8712556288484915
 40
0.9159736227759373
 40
0.9450301178607213
 40
0.9640032886556967
 40
0.9945247962348187
 40
1.0
 40
1.0
 40
1.0
 40
1.0
 10
44.83587038191561
 20
114.2214157685973
 30
0.0
 10
44.91013269216758
 20
114.2222472143496
 30
0.0
 10
45.15215980825937
 20
114.2249569659979
 30
0.0
 10
45.69324151751385
 20
114.0493736798652
 30
0.0
 10
46.26030395259068
 20
113.777193424788
 30
0.0
 10
46.69809194603526
 20
113.5349787362459
 30
0.0
 10
46.8844200555791
 20
113.429387308157
 30
0.0
 10
47.00256929423713
 20
113.361686253976
 30
0.0
 10
47.07900500784194
 20
113.3176999438192
 30
0.0
 10
47.14375330776626
 20
113.280369232069
 30
0.0
 10
47.1890722182891
 20
113.2542079988896
 30
0.0
 10
47.21874829484359
 20
113.2370745067873
 30
0.0
 10
47.22326211180126
 20
113.2344684531517
 30
0.0
  0
ELLIPSE
  5
310
330
1F
100
AcDbEntity
  8
0
  6
Continuous
 62
     7
370
    25
100
AcDbEllipse
 10
47.2232621118
 20
108.7576137942
 30
0.0
 11
6.5
 21
-1.421085471520200E-14
 31
0.0
210
0.0
220
0.0
230
1.0
 40
0.124260355
 41
3.141592653589924
 42
4.274264664245617
  0
ELLIPSE
  5
311
330
1F
100
AcDbEntity
  8
0
  6
Continuous
 62
     7
370
    25
100
AcDbEllipse
 10
47.2232621118
 20
112.9985938232
 30
0.0
 11
6.5
 21
0.0
 31
0.0
210
0.0
220
0.0
230
1.0
 40
0.124260355
 41
2.008920642934003
 42
3.141592653589792
  0
SPLINE
  5
312
330
1F
100
AcDbEntity
  8
0
  6
Continuous
 62
     7
370
    25
100
AcDbSpline
210
0.0
220
0.0
230
1.0
 70
     8
 71
     3
 72
    17
 73
    13
 74
     0
 42
0.00000001
 43
0.00000001
 40
0.0
 40
0.0
 40
0.0
 40
0.0
 40
0.0054695668067973
 40
0.035959651177744
 40
0.0549132882751458
 40
0.0839398684452499
 40
0.1286118232695732
 40
0.1981985866899308
 40
0.3101532042132132
 40
0.6617388731904087
 40
0.8954961152457425
 40
1.0
 40
1.0
 40
1.0
 40
1.0
 10
47.22326211180126
 20
113.2344684531517
 30
0.0
 10
47.22777592875835
 20
113.237074506785
 30
0.0
 10
47.25745200530886
 20
113.2542079988719
 30
0.0
 10
47.30277091594547
 20
113.2803692324923
 30
0.0
 10
47.36751921547696
 20
113.3176999427197
 30
0.0
 10
47.44395493150417
 20
113.3616862622662
 30
0.0
 10
47.56210415222951
 20
113.4293872469365
 30
0.0
 10
47.74843239763872
 20
113.5349792016665
 30
0.0
 10
48.18621881998983
 20
113.7771878003398
 30
0.0
 10
48.75329840837509
 20
114.0494345450317
 30
0.0
 10
49.29514505519406
 20
114.2251105204612
 30
0.0
 10
49.53789553825219
 20
114.2223323222523
 30
0.0
 10
49.61289194338102
 20
114.2214740134417
 30
0.0
  0
LWPOLYLINE
  5
313
330
1F
100
AcDbEntity
  8
0
  6
Continuous
 62
     7
370
    25
100
AcDbPolyline
 90
        9
 70
   128
 43
0.0
 10
49.7998533433
 20
114.2290275744
 10
49.8135681137
 20
114.2271479304
 10
49.8564251757
 20
114.2066134449
 10
49.8953736902
 20
114.1648406888
 10
49.9286780854
 20
114.1036910844
 10
49.9548542948
 20
114.0258894992
 10
49.972735889
 20
113.9349028243
 10
49.981526052
 20
113.8347854872
 10
49.9808330884
 20
113.729998784
  0
LWPOLYLINE
  5
314
330
1F
100
AcDbEntity
  8
0
  6
Continuous
 62
     7
370
    25
100
AcDbPolyline
 90
        9
 70
   128
 43
0.0
 10
44.6466708803
 20
107.5271800431
 10
44.6329561099
 20
107.5290596871
 10
44.5900990479
 20
107.5495941726
 10
44.5511505334
 20
107.5913669286
 10
44.5178461382
 20
107.652516533
 10
44.4916699288
 20
107.7303181183
 10
44.4737883346
 20
107.8213047932
 10
44.4649981716
 20
107.9214221303
 10
44.4656911352
 20
108.0262088335
  0
SPLINE
  5
315
330
1F
100
AcDbEntity
  8
0
  6
Continuous
 62
     7
370
    25
100
AcDbSpline
210
0.0
220
0.0
230
1.0
 70
     8
 71
     3
 72
    17
 73
    13
 74
     0
 42
0.00000001
 43
0.00000001
 40
0.0
 40
0.0
 40
0.0
 40
0.0
 40
0.0054760991866892
 40
0.0360025982903469
 40
0.0549788719807516
 40
0.0840401190001697
 40
0.1287654261628087
 40
0.1984352980246953
 40
0.3105236245082215
 40
0.6625291971506309
 40
0.8965656187384907
 40
0.9999999999999999
 40
0.9999999999999999
 40
0.9999999999999999
 40
0.9999999999999999
 10
47.22326211180126
 20
108.5217391642817
 30
0.0
 10
47.21874829484351
 20
108.5191331106457
 30
0.0
 10
47.18907221828861
 20
108.5019996185406
 30
0.0
 10
47.1437533077836
 20
108.4758383854318
 30
0.0
 10
47.07900500779677
 20
108.438507673439
 30
0.0
 10
47.00256929457775
 20
108.3945213647778
 30
0.0
 10
46.88442005306362
 20
108.3268202995259
 30
0.0
 10
46.69809196515882
 20
108.2212289553142
 30
0.0
 10
46.26030372148901
 20
107.9790132968496
 30
0.0
 10
45.69324401838902
 20
107.7068436314548
 30
0.0
 10
45.15228365862696
 20
107.5312749946117
 30
0.0
 10
44.91037131036829
 20
107.5339738837369
 30
0.0
 10
44.83622547656464
 20
107.5348010898963
 30
0.0
  0
LWPOLYLINE
  5
316
330
1F
100
AcDbEntity
  8
0
  6
Continuous
 62
     7
370
    25
100
AcDbPolyline
 90
        9
 70
   128
 43
0.0
 10
73.4656911352
 20
113.729998784
 10
73.4649981716
 20
113.8347854872
 10
73.4737883346
 20
113.9349028243
 10
73.4916699288
 20
114.0258894992
 10
73.5178461382
 20
114.1036910844
 10
73.5511505334
 20
114.1648406888
 10
73.5900990479
 20
114.2066134449
 10
73.6329561099
 20
114.2271479304
 10
73.646555564
 20
114.2290206532
  0
SPLINE
  5
317
330
1F
100
AcDbEntity
  8
0
  6
Continuous
 62
     7
370
    25
100
AcDbSpline
210
0.0
220
0.0
230
1.0
 70
     8
 71
     3
 72
    17
 73
    13
 74
     0
 42
0.00000001
 43
0.00000001
 40
0.0
 40
0.0
 40
0.0
 40
0.0
 40
0.103580982719615
 40
0.3375791359644335
 40
0.6895271505997875
 40
0.8015971490192394
 40
0.8712556288484823
 40
0.9159736227759248
 40
0.9450301178607082
 40
0.9640032886556797
 40
0.9945247962348184
 40
0.9999999999999999
 40
0.9999999999999999
 40
0.9999999999999999
 40
0.9999999999999999
 10
73.83587038191563
 20
114.2214157685973
 30
0.0
 10
73.9101326921676
 20
114.2222472143496
 30
0.0
 10
74.15215980825937
 20
114.2249569659979
 30
0.0
 10
74.69324151751385
 20
114.0493736798652
 30
0.0
 10
75.2603039525907
 20
113.777193424788
 30
0.0
 10
75.69809194603525
 20
113.5349787362459
 30
0.0
 10
75.88442005557907
 20
113.429387308157
 30
0.0
 10
76.00256929423713
 20
113.3616862539761
 30
0.0
 10
76.07900500784189
 20
113.3176999438192
 30
0.0
 10
76.14375330776622
 20
113.280369232069
 30
0.0
 10
76.18907221828913
 20
113.2542079988896
 30
0.0
 10
76.21874829484358
 20
113.2370745067873
 30
0.0
 10
76.22326211180128
 20
113.2344684531517
 30
0.0
  0
SPLINE
  5
318
330
1F
100
AcDbEntity
  8
0
  6
Continuous
 62
     7
370
    25
100
AcDbSpline
210
0.0
220
0.0
230
1.0
 70
     8
 71
     3
 72
    17
 73
    13
 74
     0
 42
0.00000001
 43
0.00000001
 40
0.0
 40
0.0
 40
0.0
 40
0.0
 40
0.1045038847542501
 40
0.3382611268095852
 40
0.6898467957867895
 40
0.8018014133100752
 40
0.8713881767304411
 40
0.9160601315547547
 40
0.9450867117248397
 40
0.9640403488222429
 40
0.9945304331931886
 40
1.0
 40
1.0
 40
1.0
 40
1.0
 10
49.612891943381
 20
107.5347336039917
 30
0.0
 10
49.53789553825219
 20
107.5338752951811
 30
0.0
 10
49.29514505519406
 20
107.5310970969722
 30
0.0
 10
48.75329840837507
 20
107.7067730724017
 30
0.0
 10
48.18621881998983
 20
107.9790198170936
 30
0.0
 10
47.7484323976387
 20
108.2212284157669
 30
0.0
 10
47.56210415222948
 20
108.3268203704969
 30
0.0
 10
47.44395493150419
 20
108.3945213551672
 30
0.0
 10
47.36751921547696
 20
108.4385076747137
 30
0.0
 10
47.30277091594558
 20
108.4758383849411
 30
0.0
 10
47.25745200530867
 20
108.5019996185612
 30
0.0
 10
47.22777592875833
 20
108.5191331106484
 30
0.0
 10
47.22326211180126
 20
108.5217391642817
 30
0.0
  0
LWPOLYLINE
  5
319
330
1F
100
AcDbEntity
  8
0
  6
Continuous
 62
     7
370
    25
100
AcDbPolyline
 90
        9
 70
   128
 43
0.0
 10
49.7998061974
 20
107.5271772564
 10
49.8135681137
 20
107.5290596871
 10
49.8564251757
 20
107.5495941726
 10
49.8953736902
 20
107.5913669286
 10
49.9286780854
 20
107.652516533
 10
49.9548542948
 20
107.7303181183
 10
49.972735889
 20
107.8213047932
 10
49.981526052
 20
107.9214221303
 10
49.9808330884
 20
108.0262088335
  0
ELLIPSE
  5
31A
330
1F
100
AcDbEntity
  8
0
  6
Continuous
 62
     7
370
    25
100
AcDbEllipse
 10
76.2232621118
 20
108.7576137942
 30
0.0
 11
6.5
 21
-1.421085471520200E-14
 31
0.0
210
0.0
220
0.0
230
1.0
 40
0.124260355
 41
5.150513296523815
 42
6.283185307179586
  0
ELLIPSE
  5
31B
330
1F
100
AcDbEntity
  8
0
  6
Continuous
 62
     7
370
    25
100
AcDbEllipse
 10
76.2232621118
 20
112.9985938232
 30
0.0
 11
6.5
 21
0.0
 31
0.0
210
0.0
220
0.0
230
1.0
 40
0.124260355
 41
0.0
 42
1.132672010655786
  0
LWPOLYLINE
  5
31C
330
1F
100
AcDbEntity
  8
0
  6
Continuous
 62
     7
370
    25
100
AcDbPolyline
 90
        9
 70
   128
 43
0.0
 10
78.9808330884
 20
113.729998784
 10
78.981526052
 20
113.8347854872
 10
78.972735889
 20
113.9349028243
 10
78.9548542948
 20
114.0258894992
 10
78.9286780854
 20
114.1036910844
 10
78.8953736902
 20
114.1648406888
 10
78.8564251757
 20
114.2066134449
 10
78.8135681137
 20
114.2271479304
 10
78.7999863606
 20
114.2290195776
  0
SPLINE
  5
31D
330
1F
100
AcDbEntity
  8
0
  6
Continuous
 62
     7
370
    25
100
AcDbSpline
210
0.0
220
0.0
230
1.0
 70
     8
 71
     3
 72
    17
 73
    13
 74
     0
 42
0.00000001
 43
0.00000001
 40
0.0
 40
0.0
 40
0.0
 40
0.0
 40
0.0054760991866753
 40
0.0360025982903448
 40
0.0549788719807812
 40
0.0840401190001676
 40
0.1287654261628127
 40
0.198435298024705
 40
0.3105236245082224
 40
0.6625291971506346
 40
0.8965656187384907
 40
1.0
 40
1.0
 40
1.0
 40
1.0
 10
76.22326211180128
 20
113.2344684531517
 30
0.0
 10
76.22777592875906
 20
113.2370745067877
 30
0.0
 10
76.25745200531415
 20
113.2542079988924
 30
0.0
 10
76.30277091581893
 20
113.2803692320016
 30
0.0
 10
76.36751921580583
 20
113.3176999439943
 30
0.0
 10
76.44395492902477
 20
113.3616862526557
 30
0.0
 10
76.56210417053892
 20
113.4293873179075
 30
0.0
 10
76.74843225844373
 20
113.5349786621192
 30
0.0
 10
77.18622050211351
 20
113.7771943205839
 30
0.0
 10
77.75328020521353
 20
114.0493639859786
 30
0.0
 10
78.29424056497558
 20
114.2249326228217
 30
0.0
 10
78.53615291323423
 20
114.2222337336965
 30
0.0
 10
78.6102987470379
 20
114.2214065275371
 30
0.0
  0
LWPOLYLINE
  5
31E
330
1F
100
AcDbEntity
  8
0
  6
Continuous
 62
     7
370
    25
100
AcDbPolyline
 90
        9
 70
   128
 43
0.0
 10
73.6466708803
 20
107.5271800431
 10
73.6329561099
 20
107.5290596871
 10
73.5900990479
 20
107.5495941726
 10
73.5511505334
 20
107.5913669286
 10
73.5178461382
 20
107.652516533
 10
73.4916699288
 20
107.7303181183
 10
73.4737883346
 20
107.8213047932
 10
73.4649981716
 20
107.9214221303
 10
73.4656911352
 20
108.0262088335
  0
SPLINE
  5
31F
330
1F
100
AcDbEntity
  8
0
  6
Continuous
 62
     7
370
    25
100
AcDbSpline
210
0.0
220
0.0
230
1.0
 70
     8
 71
     3
 72
    17
 73
    13
 74
     0
 42
0.00000001
 43
0.00000001
 40
0.0
 40
0.0
 40
0.0
 40
0.0
 40
0.0054760991866895
 40
0.0360025982904029
 40
0.0549788719807672
 40
0.0840401190001706
 40
0.1287654261628235
 40
0.1984352980247056
 40
0.310523624508223
 40
0.6625291971506359
 40
0.8965656187384954
 40
1.0
 40
1.0
 40
1.0
 40
1.0
 10
76.22326211180128
 20
108.5217391642817
 30
0.0
 10
76.21874829484351
 20
108.5191331106457
 30
0.0
 10
76.18907221828854
 20
108.5019996185406
 30
0.0
 10
76.14375330778357
 20
108.4758383854317
 30
0.0
 10
76.07900500779672
 20
108.438507673439
 30
0.0
 10
76.00256929457774
 20
108.3945213647777
 30
0.0
 10
75.88442005306361
 20
108.3268202995259
 30
0.0
 10
75.69809196515881
 20
108.2212289553142
 30
0.0
 10
75.260303721489
 20
107.9790132968496
 30
0.0
 10
74.69324401838902
 20
107.7068436314548
 30
0.0
 10
74.15228365862697
 20
107.5312749946117
 30
0.0
 10
73.9103713103683
 20
107.5339738837369
 30
0.0
 10
73.83622547656465
 20
107.5348010898963
 30
0.0
  0
LWPOLYLINE
  5
320
330
1F
100
AcDbEntity
  8
0
  6
Continuous
 62
     7
370
    25
100
AcDbPolyline
 90
        9
 70
   128
 43
0.0
 10
78.9808330884
 20
108.0262088335
 10
78.981526052
 20
107.9214221303
 10
78.972735889
 20
107.8213047932
 10
78.9548542948
 20
107.7303181183
 10
78.9286780854
 20
107.652516533
 10
78.8953736902
 20
107.5913669286
 10
78.8564251757
 20
107.5495941726
 10
78.8135681137
 20
107.5290596871
 10
78.7999686596
 20
107.5271869642
  0
SPLINE
  5
321
330
1F
100
AcDbEntity
  8
0
  6
Continuous
 62
     7
370
    25
100
AcDbSpline
210
0.0
220
0.0
230
1.0
 70
     8
 71
     3
 72
    17
 73
    13
 74
     0
 42
0.00000001
 43
0.00000001
 40
0.0
 40
0.0
 40
0.0
 40
0.0
 40
0.1035809827196062
 40
0.337579135964427
 40
0.6895271505997845
 40
0.8015971490192362
 40
0.8712556288484714
 40
0.9159736227759298
 40
0.9450301178607158
 40
0.9640032886556708
 40
0.9945247962348045
 40
1.0
 40
1.0
 40
1.0
 40
1.0
 10
78.6106538416869
 20
107.5347918488361
 30
0.0
 10
78.53639153143493
 20
107.5339604030838
 30
0.0
 10
78.29436441534315
 20
107.5312506514355
 30
0.0
 10
77.7532827060887
 20
107.7068339375682
 30
0.0
 10
77.18622027101186
 20
107.9790141926454
 30
0.0
 10
76.74843227756729
 20
108.2212288811875
 30
0.0
 10
76.56210416802345
 20
108.3268203092764
 30
0.0
 10
76.44395492936545
 20
108.3945213634574
 30
0.0
 10
76.36751921576061
 20
108.4385076736142
 30
0.0
 10
76.30277091583633
 20
108.4758383853643
 30
0.0
 10
76.25745200531352
 20
108.5019996185439
 30
0.0
 10
76.22777592875899
 20
108.5191331106461
 30
0.0
 10
76.22326211180128
 20
108.5217391642817
 30
0.0
  0
ARC
  5
322
330
1F
100
AcDbEntity
  8
0
  6
Continuous
 62
     7
370
    25
100
AcDbCircle
 10
52.3105081679
 20
113.4862406001
 30
0.0
 40
0.4427358833940487
100
AcDbArc
 50
351.9127424633
 51
74.3423335262
  0
ARC
  5
323
330
1F
100
AcDbEntity
  8
0
  6
Continuous
 62
     7
370
    25
100
AcDbCircle
 10
71.148140663
 20
113.4782625387
 30
0.0
 40
0.4537192146554163
100
AcDbArc
 50
106.7489665238
 51
186.8743180768
  0
ARC
  5
324
330
1F
100
AcDbEntity
  8
0
  6
Continuous
 62
     7
370
    25
100
AcDbCircle
 10
52.2983835606
 20
108.2779450787
 30
0.0
 40
0.4537192146553827
100
AcDbArc
 50
286.7489665238
 51
6.8743180768
  0
ARC
  5
325
330
1F
100
AcDbEntity
  8
0
  6
Continuous
 62
     7
370
    25
100
AcDbCircle
 10
71.1360160557
 20
108.2699670173
 30
0.0
 40
0.4427358833940481
100
AcDbArc
 50
171.9127424633
 51
254.3423335262
  0
INSERT
  5
331
330
1F
100
AcDbEntity
  8
0
  6
Continuous
 62
     7
370
    18
100
AcDbBlockReference
  2
SW_CENTERMARKSYMBOL_1
 10
61.7232621118
 20
110.8781038087
 30
0.0
  0
ENDSEC
  0
SECTION
  2
OBJECTS
  0
DICTIONARY
  5
C
330
0
100
AcDbDictionary
281
     1
  3
ACAD_GROUP
350
D
  3
ACAD_LAYOUT
350
1A
  3
ACAD_MLINESTYLE
350
17
  3
ACAD_PLOTSETTINGS
350
19
  3
ACAD_PLOTSTYLENAME
350
E
  3
ACAD_SCALELIST
350
47
  3
DWGPROPS
350
332
  0
DICTIONARY
  5
D
102
{ACAD_REACTORS
330
C
102
}
330
C
100
AcDbDictionary
281
     1
  0
DICTIONARY
  5
1A
102
{ACAD_REACTORS
330
C
102
}
330
C
100
AcDbDictionary
281
     1
  3
Layout1
350
1E
  3
Layout2
350
26
  3
Model
350
22
  0
DICTIONARY
  5
17
102
{ACAD_REACTORS
330
C
102
}
330
C
100
AcDbDictionary
281
     1
  3
Standard
350
18
  0
DICTIONARY
  5
19
102
{ACAD_REACTORS
330
C
102
}
330
C
100
AcDbDictionary
281
     1
  0
ACDBDICTIONARYWDFLT
  5
E
102
{ACAD_REACTORS
330
C
102
}
330
C
100
AcDbDictionary
281
     1
  3
Normal
350
F
100
AcDbDictionaryWithDefault
340
F
  0
DICTIONARY
  5
47
102
{ACAD_REACTORS
330
C
102
}
330
C
100
AcDbDictionary
281
     1
  3
A0
350
48
  3
A1
350
49
  3
A2
350
4A
  3
A3
350
4B
  3
A4
350
4C
  3
A5
350
4D
  3
A6
350
4E
  3
A7
350
4F
  3
A8
350
50
  3
A9
350
51
  3
B0
350
52
  3
B1
350
53
  3
B2
350
54
  3
B3
350
55
  3
B4
350
56
  3
B5
350
57
  3
B6
350
58
  0
XRECORD
  5
332
102
{ACAD_REACTORS
330
C
102
}
330
C
100
AcDbXrecord
280
     1
  1
DWGPROPS COOKIE
  2

  3

  4

  6

  7

  8
user52
  9

300
=
301
=
302
=
303
=
304
=
305
=
306
=
307
=
308
=
309
=
 40
0.0
 41
2460236.210286308
 42
2460236.210286817
  1

 90
        0
  0
LAYOUT
  5
1E
102
{ACAD_REACTORS
330
1A
102
}
330
1A
100
AcDbPlotSettings
  1

  2
none_device
  4

  6

 40
0.0
 41
0.0
 42
0.0
 43
0.0
 44
0.0
 45
0.0
 46
0.0
 47
0.0
 48
0.0
 49
0.0
140
0.0
141
0.0
142
1.0
143
1.0
 70
   688
 72
     1
 73
     0
 74
     5
  7

 75
    16
147
1.0
148
0.0
149
0.0
100
AcDbLayout
  1
Layout1
 70
     1
 71
     1
 10
0.0
 20
0.0
 11
420.0
 21
297.0
 12
0.0
 22
0.0
 32
0.0
 14
1.0000000000E+20
 24
1.0000000000E+20
 34
1.0000000000E+20
 15
-1.0000000000E+20
 25
-1.0000000000E+20
 35
-1.0000000000E+20
146
0.0
 13
0.0
 23
0.0
 33
0.0
 16
1.0
 26
0.0
 36
0.0
 17
0.0
 27
1.0
 37
0.0
 76
     0
330
1B
  0
LAYOUT
  5
26
102
{ACAD_REACTORS
330
1A
102
}
330
1A
100
AcDbPlotSettings
  1

  2
none_device
  4

  6

 40
0.0
 41
0.0
 42
0.0
 43
0.0
 44
0.0
 45
0.0
 46
0.0
 47
0.0
 48
0.0
 49
0.0
140
0.0
141
0.0
142
1.0
143
1.0
 70
   688
 72
     1
 73
     0
 74
     5
  7

 75
    16
147
1.0
148
0.0
149
0.0
100
AcDbLayout
  1
Layout2
 70
     1
 71
     2
 10
0.0
 20
0.0
 11
0.0
 21
0.0
 12
0.0
 22
0.0
 32
0.0
 14
0.0
 24
0.0
 34
0.0
 15
0.0
 25
0.0
 35
0.0
146
0.0
 13
0.0
 23
0.0
 33
0.0
 16
1.0
 26
0.0
 36
0.0
 17
0.0
 27
1.0
 37
0.0
 76
     0
330
23
  0
LAYOUT
  5
22
102
{ACAD_REACTORS
330
1A
102
}
330
1A
100
AcDbPlotSettings
  1

  2
none_device
  4
Letter_(8.50_x_11.00_Inches)
  6

 40
6.35
 41
6.35
 42
6.35000508
 43
6.35000508
 44
215.9
 45
279.4
 46
0.0
 47
0.0
 48
0.0
 49
0.0
140
0.0
141
0.0
142
1.0
143
1.0
 70
  1712
 72
     1
 73
     0
 74
     0
  7

 75
     0
147
1.0
148
0.0
149
0.0
100
AcDbLayout
  1
Model
 70
     1
 71
     0
 10
0.0
 20
0.0
 11
431.8
 21
279.4
 12
0.0
 22
0.0
 32
0.0
 14
0.0
 24
0.0
 34
0.0
 15
431.8
 25
279.4
 35
0.0
146
0.0
 13
0.0
 23
0.0
 33
0.0
 16
1.0
 26
0.0
 36
0.0
 17
0.0
 27
1.0
 37
0.0
 76
     0
330
1F
331
29
  0
MLINESTYLE
  5
18
102
{ACAD_REACTORS
330
17
102
}
330
17
100
AcDbMlineStyle
  2
Standard
 70
     0
  3

 62
   256
 51
90.0
 52
90.0
 71
     2
 49
0.5
 62
   256
  6
BYLAYER
 49
-0.5
 62
   256
  6
BYLAYER
  0
ACDBPLACEHOLDER
  5
F
102
{ACAD_REACTORS
330
E
102
}
330
E
  0
SCALE
  5
48
102
{ACAD_REACTORS
330
47
102
}
330
47
100
AcDbScale
 70
     0
300
1:1
140
1.0
141
1.0
290
     1
  0
SCALE
  5
49
102
{ACAD_REACTORS
330
47
102
}
330
47
100
AcDbScale
 70
     0
300
1:2
140
1.0
141
2.0
290
     0
  0
SCALE
  5
4A
102
{ACAD_REACTORS
330
47
102
}
330
47
100
AcDbScale
 70
     0
300
1:4
140
1.0
141
4.0
290
     0
  0
SCALE
  5
4B
102
{ACAD_REACTORS
330
47
102
}
330
47
100
AcDbScale
 70
     0
300
1:5
140
1.0
141
5.0
290
     0
  0
SCALE
  5
4C
102
{ACAD_REACTORS
330
47
102
}
330
47
100
AcDbScale
 70
     0
300
1:8
140
1.0
141
8.0
290
     0
  0
SCALE
  5
4D
102
{ACAD_REACTORS
330
47
102
}
330
47
100
AcDbScale
 70
     0
300
1:10
140
1.0
141
10.0
290
     0
  0
SCALE
  5
4E
102
{ACAD_REACTORS
330
47
102
}
330
47
100
AcDbScale
 70
     0
300
1:16
140
1.0
141
16.0
290
     0
  0
SCALE
  5
4F
102
{ACAD_REACTORS
330
47
102
}
330
47
100
AcDbScale
 70
     0
300
1:20
140
1.0
141
20.0
290
     0
  0
SCALE
  5
50
102
{ACAD_REACTORS
330
47
102
}
330
47
100
AcDbScale
 70
     0
300
1:30
140
1.0
141
30.0
290
     0
  0
SCALE
  5
51
102
{ACAD_REACTORS
330
47
102
}
330
47
100
AcDbScale
 70
     0
300
1:40
140
1.0
141
40.0
290
     0
  0
SCALE
  5
52
102
{ACAD_REACTORS
330
47
102
}
330
47
100
AcDbScale
 70
     0
300
1:50
140
1.0
141
50.0
290
     0
  0
SCALE
  5
53
102
{ACAD_REACTORS
330
47
102
}
330
47
100
AcDbScale
 70
     0
300
1:100
140
1.0
141
100.0
290
     0
  0
SCALE
  5
54
102
{ACAD_REACTORS
330
47
102
}
330
47
100
AcDbScale
 70
     0
300
2:1
140
2.0
141
1.0
290
     0
  0
SCALE
  5
55
102
{ACAD_REACTORS
330
47
102
}
330
47
100
AcDbScale
 70
     0
300
4:1
140
4.0
141
1.0
290
     0
  0
SCALE
  5
56
102
{ACAD_REACTORS
330
47
102
}
330
47
100
AcDbScale
 70
     0
300
8:1
140
8.0
141
1.0
290
     0
  0
SCALE
  5
57
102
{ACAD_REACTORS
330
47
102
}
330
47
100
AcDbScale
 70
     0
300
10:1
140
10.0
141
1.0
290
     0
  0
SCALE
  5
58
102
{ACAD_REACTORS
330
47
102
}
330
47
100
AcDbScale
 70
     0
300
100:1
140
100.0
141
1.0
290
     0
  0
ENDSEC
  0
EOF
