  0
SECTION
  2
HEADER
  9
$ACADVER
  1
AC1015
  9
$ACADMAINTVER
 70
     6
  9
$DWGCODEPAGE
  3
DOS932
  9
$INSBASE
 10
0.0
 20
0.0
 30
0.0
  9
$EXTMIN
 10
0.0
 20
0.0
 30
0.0
  9
$EXTMAX
 10
431.8
 20
279.4
 30
0.0
  9
$LIMMIN
 10
0.0
 20
0.0
  9
$LIMMAX
 10
431.8
 20
279.4
  9
$ORTHOMODE
 70
     0
  9
$REGENMODE
 70
     1
  9
$FILLMODE
 70
     1
  9
$QTEXTMODE
 70
     0
  9
$MIRRTEXT
 70
     1
  9
$LTSCALE
 40
1.0
  9
$ATTMODE
 70
     1
  9
$TEXTSIZE
 40
3.5
  9
$TRACEWID
 40
1.0
  9
$TEXTSTYLE
  7
Standard
  9
$CLAYER
  8
0
  9
$CELTYPE
  6
ByLayer
  9
$CECOLOR
 62
   256
  9
$CELTSCALE
 40
1.0
  9
$DISPSILH
 70
     0
  9
$DIMSCALE
 40
1.0
  9
$DIMASZ
 40
3.556
  9
$DIMEXO
 40
1.0
  9
$DIMDLI
 40
3.75
  9
$DIMRND
 40
0.0
  9
$DIMDLE
 40
0.0
  9
$DIMEXE
 40
1.0
  9
$DIMTP
 40
0.0
  9
$DIMTM
 40
0.0
  9
$DIMTXT
 40
3.5
  9
$DIMCEN
 40
2.5
  9
$DIMTSZ
 40
0.0
  9
$DIMTOL
 70
     0
  9
$DIMLIM
 70
     0
  9
$DIMTIH
 70
     1
  9
$DIMTOH
 70
     1
  9
$DIMSE1
 70
     0
  9
$DIMSE2
 70
     0
  9
$DIMTAD
 70
     1
  9
$DIMZIN
 70
     0
  9
$DIMBLK
  1

  9
$DIMASO
 70
     1
  9
$DIMSHO
 70
     1
  9
$DIMPOST
  1

  9
$DIMAPOST
  1

  9
$DIMALT
 70
     0
  9
$DIMALTD
 70
     3
  9
$DIMALTF
 40
0.0393700787
  9
$DIMLFAC
 40
1.0
  9
$DIMTOFL
 70
     1
  9
$DIMTVP
 40
0.0
  9
$DIMTIX
 70
     0
  9
$DIMSOXD
 70
     0
  9
$DIMSAH
 70
     0
  9
$DIMBLK1
  1

  9
$DIMBLK2
  1

  9
$DIMSTYLE
  2
ISO-25
  9
$DIMCLRD
 70
     0
  9
$DIMCLRE
 70
     0
  9
$DIMCLRT
 70
     0
  9
$DIMTFAC
 40
1.0
  9
$DIMGAP
 40
1.524
  9
$DIMJUST
 70
     0
  9
$DIMSD1
 70
     0
  9
$DIMSD2
 70
     0
  9
$DIMTOLJ
 70
     0
  9
$DIMTZIN
 70
     0
  9
$DIMALTZ
 70
     0
  9
$DIMALTTZ
 70
     0
  9
$DIMUPT
 70
     0
  9
$DIMDEC
 70
     3
  9
$DIMTDEC
 70
     3
  9
$DIMALTU
 70
     2
  9
$DIMALTTD
 70
     3
  9
$DIMTXSTY
  7
Standard
  9
$DIMAUNIT
 70
     0
  9
$DIMADEC
 70
     2
  9
$DIMALTRND
 40
0.0
  9
$DIMAZIN
 70
     0
  9
$DIMDSEP
 70
    44
  9
$DIMATFIT
 70
     3
  9
$DIMFRAC
 70
     0
  9
$DIMLDRBLK
  1

  9
$DIMLUNIT
 70
     2
  9
$DIMLWD
 70
    -2
  9
$DIMLWE
 70
    -2
  9
$DIMTMOVE
 70
     0
  9
$LUNITS
 70
     2
  9
$LUPREC
 70
     3
  9
$SKETCHINC
 40
1.0
  9
$FILLETRAD
 40
0.0
  9
$AUNITS
 70
     0
  9
$AUPREC
 70
     2
  9
$MENU
  1
.
  9
$ELEVATION
 40
0.0
  9
$PELEVATION
 40
0.0
  9
$THICKNESS
 40
0.0
  9
$LIMCHECK
 70
     0
  9
$CHAMFERA
 40
0.0
  9
$CHAMFERB
 40
0.0
  9
$CHAMFERC
 40
0.0
  9
$CHAMFERD
 40
0.0
  9
$SKPOLY
 70
     0
  9
$TDCREATE
 40
2460236.500206574
  9
$TDUCREATE
 40
2460236.125206574
  9
$TDUPDATE
 40
2460236.500207129
  9
$TDUUPDATE
 40
2460236.125207129
  9
$TDINDWG
 40
0.0000000116
  9
$TDUSRTIMER
 40
0.0000000116
  9
$USRTIMER
 70
     1
  9
$ANGBASE
 50
0.0
  9
$ANGDIR
 70
     0
  9
$PDMODE
 70
     0
  9
$PDSIZE
 40
-1.0
  9
$PLINEWID
 40
0.0
  9
$SPLFRAME
 70
     0
  9
$SPLINETYPE
 70
     6
  9
$SPLINESEGS
 70
     8
  9
$HANDSEED
  5
35F
  9
$SURFTAB1
 70
     6
  9
$SURFTAB2
 70
     6
  9
$SURFTYPE
 70
     6
  9
$SURFU
 70
     6
  9
$SURFV
 70
     6
  9
$UCSBASE
  2

  9
$UCSNAME
  2

  9
$UCSORG
 10
0.0
 20
0.0
 30
0.0
  9
$UCSXDIR
 10
1.0
 20
0.0
 30
0.0
  9
$UCSYDIR
 10
0.0
 20
1.0
 30
0.0
  9
$UCSORTHOREF
  2

  9
$UCSORTHOVIEW
 70
     0
  9
$UCSORGTOP
 10
0.0
 20
0.0
 30
0.0
  9
$UCSORGBOTTOM
 10
0.0
 20
0.0
 30
0.0
  9
$UCSORGLEFT
 10
0.0
 20
0.0
 30
0.0
  9
$UCSORGRIGHT
 10
0.0
 20
0.0
 30
0.0
  9
$UCSORGFRONT
 10
0.0
 20
0.0
 30
0.0
  9
$UCSORGBACK
 10
0.0
 20
0.0
 30
0.0
  9
$PUCSBASE
  2

  9
$PUCSNAME
  2

  9
$PUCSORG
 10
0.0
 20
0.0
 30
0.0
  9
$PUCSXDIR
 10
1.0
 20
0.0
 30
0.0
  9
$PUCSYDIR
 10
0.0
 20
1.0
 30
0.0
  9
$PUCSORTHOREF
  2

  9
$PUCSORTHOVIEW
 70
     0
  9
$PUCSORGTOP
 10
0.0
 20
0.0
 30
0.0
  9
$PUCSORGBOTTOM
 10
0.0
 20
0.0
 30
0.0
  9
$PUCSORGLEFT
 10
0.0
 20
0.0
 30
0.0
  9
$PUCSORGRIGHT
 10
0.0
 20
0.0
 30
0.0
  9
$PUCSORGFRONT
 10
0.0
 20
0.0
 30
0.0
  9
$PUCSORGBACK
 10
0.0
 20
0.0
 30
0.0
  9
$USERI1
 70
     0
  9
$USERI2
 70
     0
  9
$USERI3
 70
     0
  9
$USERI4
 70
     0
  9
$USERI5
 70
     0
  9
$USERR1
 40
0.0
  9
$USERR2
 40
0.0
  9
$USERR3
 40
0.0
  9
$USERR4
 40
0.0
  9
$USERR5
 40
0.0
  9
$WORLDVIEW
 70
     1
  9
$SHADEDGE
 70
     3
  9
$SHADEDIF
 70
    70
  9
$TILEMODE
 70
     1
  9
$MAXACTVP
 70
    64
  9
$PINSBASE
 10
0.0
 20
0.0
 30
0.0
  9
$PLIMCHECK
 70
     0
  9
$PEXTMIN
 10
1.0000000000E+20
 20
1.0000000000E+20
 30
1.0000000000E+20
  9
$PEXTMAX
 10
-1.0000000000E+20
 20
-1.0000000000E+20
 30
-1.0000000000E+20
  9
$PLIMMIN
 10
0.0
 20
0.0
  9
$PLIMMAX
 10
420.0
 20
297.0
  9
$UNITMODE
 70
     0
  9
$VISRETAIN
 70
     1
  9
$PLINEGEN
 70
     0
  9
$PSLTSCALE
 70
     1
  9
$TREEDEPTH
 70
  3020
  9
$CMLSTYLE
  2
Standard
  9
$CMLJUST
 70
     0
  9
$CMLSCALE
 40
20.0
  9
$PROXYGRAPHICS
 70
     1
  9
$MEASUREMENT
 70
     1
  9
$CELWEIGHT
370
    -1
  9
$ENDCAPS
280
     0
  9
$JOINSTYLE
280
     0
  9
$LWDISPLAY
290
     1
  9
$INSUNITS
 70
     4
  9
$HYPERLINKBASE
  1

  9
$STYLESHEET
  1

  9
$XEDIT
290
     1
  9
$CEPSNTYPE
380
     0
  9
$PSTYLEMODE
290
     1
  9
$FINGERPRINTGUID
  2
{43758efa-6577-44e1-a919-3bc662761eac}
  9
$VERSIONGUID
  2
{FAEB1C32-E019-11D5-929B-00C0DF256EC4}
  9
$EXTNAMES
290
     1
  9
$PSVPSCALE
 40
0.0
  9
$OLESTARTUP
290
     0
  0
ENDSEC
  0
SECTION
  2
CLASSES
  0
CLASS
  1
ACDBDICTIONARYWDFLT
  2
AcDbDictionaryWithDefault
  3
ObjectDBX Classes
 90
        0
280
     0
281
     0
  0
CLASS
  1
VISUALSTYLE
  2
AcDbVisualStyle
  3
ObjectDBX Classes
 90
     4095
280
     0
281
     0
  0
CLASS
  1
MATERIAL
  2
AcDbMaterial
  3
ObjectDBX Classes
 90
     1153
280
     0
281
     0
  0
CLASS
  1
SCALE
  2
AcDbScale
  3
ObjectDBX Classes
 90
     1153
280
     0
281
     0
  0
CLASS
  1
TABLESTYLE
  2
AcDbTableStyle
  3
ObjectDBX Classes
 90
     4095
280
     0
281
     0
  0
CLASS
  1
MLEADERSTYLE
  2
AcDbMLeaderStyle
  3
ACDB_MLEADERSTYLE_CLASS
 90
     4095
280
     0
281
     0
  0
CLASS
  1
SUN
  2
AcDbSun
  3
SCENEOE
 90
     1153
280
     0
281
     0
  0
CLASS
  1
ACDBPLACEHOLDER
  2
AcDbPlaceHolder
  3
ObjectDBX Classes
 90
        0
280
     0
281
     0
  0
CLASS
  1
LAYOUT
  2
AcDbLayout
  3
ObjectDBX Classes
 90
        0
280
     0
281
     0
  0
ENDSEC
  0
SECTION
  2
TABLES
  0
TABLE
  2
VPORT
  5
8
330
0
100
AcDbSymbolTable
 70
     1
  0
VPORT
  5
29
330
8
100
AcDbSymbolTableRecord
100
AcDbViewportTableRecord
  2
*Active
 70
     0
 10
0.0
 20
0.0
 11
1.0
 21
1.0
 12
215.9
 22
139.7
 13
0.0
 23
0.0
 14
10.0
 24
10.0
 15
10.0
 25
10.0
 16
0.0
 26
0.0
 36
1.0
 17
0.0
 27
0.0
 37
0.0
 40
279.4
 41
1.5454545455
 42
50.0
 43
0.0
 44
0.0
 50
0.0
 51
0.0
 71
     0
 72
  2000
 73
     1
 74
     3
 75
     0
 76
     0
 77
     0
 78
     0
281
     0
 65
     1
110
0.0
120
0.0
130
0.0
111
1.0
121
0.0
131
0.0
112
0.0
122
1.0
132
0.0
 79
     0
146
0.0
  0
ENDTAB
  0
TABLE
  2
LTYPE
  5
5
330
0
100
AcDbSymbolTable
 70
     6
  0
LTYPE
  5
14
330
5
100
AcDbSymbolTableRecord
100
AcDbLinetypeTableRecord
  2
ByBlock
 70
     0
  3

 72
    65
 73
     0
 40
0.0
  0
LTYPE
  5
15
330
5
100
AcDbSymbolTableRecord
100
AcDbLinetypeTableRecord
  2
ByLayer
 70
     0
  3

 72
    65
 73
     0
 40
0.0
  0
LTYPE
  5
16
330
5
100
AcDbSymbolTableRecord
100
AcDbLinetypeTableRecord
  2
Continuous
 70
     0
  3
Solid line
 72
    65
 73
     0
 40
0.0
  0
LTYPE
  5
5E
330
5
100
AcDbSymbolTableRecord
100
AcDbLinetypeTableRecord
  2
HIDDEN
 70
     0
  3
Hidden __ __ __ __ __ __ __ __ __ __ __ __ __ __
 72
    65
 73
     2
 40
1.905
 49
1.27
 74
     0
 49
-0.635
 74
     0
  0
LTYPE
  5
5F
330
5
100
AcDbSymbolTableRecord
100
AcDbLinetypeTableRecord
  2
PHANTOM
 70
     0
  3
Phantom ______  __  __  ______  __  __  ______
 72
    65
 73
     6
 40
12.7
 49
6.35
 74
     0
 49
-1.27
 74
     0
 49
1.27
 74
     0
 49
-1.27
 74
     0
 49
1.27
 74
     0
 49
-1.27
 74
     0
  0
LTYPE
  5
60
330
5
100
AcDbSymbolTableRecord
100
AcDbLinetypeTableRecord
  2
CENTER
 70
     0
  3
Center ____ _ ____ _ ____ _ ____ _ ____ _ ____
 72
    65
 73
     4
 40
10.16
 49
6.35
 74
     0
 49
-1.27
 74
     0
 49
1.27
 74
     0
 49
-1.27
 74
     0
  0
LTYPE
  5
61
330
5
100
AcDbSymbolTableRecord
100
AcDbLinetypeTableRecord
  2
CENTERX2
 70
     0
  3
Center (2x) ________  __  ________  __  _____
 72
    65
 73
     4
 40
20.32
 49
12.7
 74
     0
 49
-2.54
 74
     0
 49
2.54
 74
     0
 49
-2.54
 74
     0
  0
LTYPE
  5
62
330
5
100
AcDbSymbolTableRecord
100
AcDbLinetypeTableRecord
  2
DOT2
 70
     0
  3
Dot (.5x) ........................................
 72
    65
 73
     2
 40
0.635
 49
0.0
 74
     0
 49
-0.635
 74
     0
  0
ENDTAB
  0
TABLE
  2
LAYER
  5
2
330
0
100
AcDbSymbolTable
 70
     1
  0
LAYER
  5
10
330
2
100
AcDbSymbolTableRecord
100
AcDbLayerTableRecord
  2
0
 70
     0
 62
     7
  6
Continuous
370
    -3
390
F
  0
ENDTAB
  0
TABLE
  2
STYLE
  5
3
330
0
100
AcDbSymbolTable
 70
     2
  0
STYLE
  5
11
330
3
100
AcDbSymbolTableRecord
100
AcDbTextStyleTableRecord
  2
Standard
 70
     0
 40
0.0
 41
1.0
 50
0.0
 71
     0
 42
3.5
  3
txt
  4
bigfont
  0
STYLE
  5
350
330
3
100
AcDbSymbolTableRecord
100
AcDbTextStyleTableRecord
  2
SLDTEXTSTYLE0
 70
     0
 40
0.0
 41
0.75
 50
0.0
 71
     0
 42
3.5
  3
TXT
  4
bigfont
  0
ENDTAB
  0
TABLE
  2
VIEW
  5
6
330
0
100
AcDbSymbolTable
 70
     0
  0
ENDTAB
  0
TABLE
  2
UCS
  5
7
330
0
100
AcDbSymbolTable
 70
     0
  0
ENDTAB
  0
TABLE
  2
APPID
  5
9
330
0
100
AcDbSymbolTable
 70
     1
  0
APPID
  5
12
330
9
100
AcDbSymbolTableRecord
100
AcDbRegAppTableRecord
  2
ACAD
 70
     0
  0
ENDTAB
  0
TABLE
  2
DIMSTYLE
  5
A
330
0
100
AcDbSymbolTable
 70
     1
100
AcDbDimStyleTable
  0
DIMSTYLE
105
27
330
A
100
AcDbSymbolTableRecord
100
AcDbDimStyleTableRecord
  2
ISO-25
 70
     0
 41
2.5
 42
0.625
 43
3.75
 44
1.25
 73
     0
 74
     0
 77
     1
 78
     8
140
2.5
141
2.5
143
0.0393700787
147
0.625
171
     3
172
     1
178
     0
271
     2
272
     2
274
     3
278
    44
283
     0
284
     8
340
11
  0
ENDTAB
  0
TABLE
  2
BLOCK_RECORD
  5
1
330
0
100
AcDbSymbolTable
 70
     3
  0
BLOCK_RECORD
  5
1F
330
1
100
AcDbSymbolTableRecord
100
AcDbBlockTableRecord
  2
*Model_Space
340
22
  0
BLOCK_RECORD
  5
1B
330
1
100
AcDbSymbolTableRecord
100
AcDbBlockTableRecord
  2
*Paper_Space
340
1E
  0
BLOCK_RECORD
  5
23
330
1
100
AcDbSymbolTableRecord
100
AcDbBlockTableRecord
  2
*Paper_Space0
340
26
  0
BLOCK_RECORD
  5
252
330
1
100
AcDbSymbolTableRecord
100
AcDbBlockTableRecord
  2
SW_CENTERMARKSYMBOL_0
340
0
102
{BLKREFS
331
25D
102
}
  0
BLOCK_RECORD
  5
352
330
1
100
AcDbSymbolTableRecord
100
AcDbBlockTableRecord
  2
SW_CENTERMARKSYMBOL_1
340
0
102
{BLKREFS
331
35D
102
}
  0
ENDTAB
  0
ENDSEC
  0
SECTION
  2
BLOCKS
  0
BLOCK
  5
20
330
1F
100
AcDbEntity
  8
0
100
AcDbBlockBegin
  2
*Model_Space
 70
     0
 10
0.0
 20
0.0
 30
0.0
  3
*Model_Space
  1

  0
ENDBLK
  5
21
330
1F
100
AcDbEntity
  8
0
100
AcDbBlockEnd
  0
BLOCK
  5
1C
330
1B
100
AcDbEntity
 67
     1
  8
0
100
AcDbBlockBegin
  2
*Paper_Space
 70
     0
 10
0.0
 20
0.0
 30
0.0
  3
*Paper_Space
  1

  0
ENDBLK
  5
1D
330
1B
100
AcDbEntity
 67
     1
  8
0
100
AcDbBlockEnd
  0
BLOCK
  5
24
330
23
100
AcDbEntity
  8
0
100
AcDbBlockBegin
  2
*Paper_Space0
 70
     0
 10
0.0
 20
0.0
 30
0.0
  3
*Paper_Space0
  1

  0
ENDBLK
  5
25
330
23
100
AcDbEntity
  8
0
100
AcDbBlockEnd
  0
BLOCK
  5
253
330
252
100
AcDbEntity
  8
0
100
AcDbBlockBegin
  2
SW_CENTERMARKSYMBOL_0
 70
     0
 10
0.0
 20
0.0
 30
0.0
  3
SW_CENTERMARKSYMBOL_0
  1

  0
LINE
  5
255
330
252
100
AcDbEntity
  8
0
  6
Continuous
 62
     0
370
    18
100
AcDbLine
 10
0.0
 20
0.0
 30
0.0
 11
0.0
 21
2.5
 31
0.0
  0
LINE
  5
256
330
252
100
AcDbEntity
  8
0
  6
Continuous
 62
     0
370
    18
100
AcDbLine
 10
0.0
 20
0.0
 30
0.0
 11
-2.5
 21
0.0
 31
0.0
  0
LINE
  5
257
330
252
100
AcDbEntity
  8
0
  6
Continuous
 62
     0
370
    18
100
AcDbLine
 10
0.0
 20
0.0
 30
0.0
 11
0.0
 21
-2.5
 31
0.0
  0
LINE
  5
258
330
252
100
AcDbEntity
  8
0
  6
Continuous
 62
     0
370
    18
100
AcDbLine
 10
0.0
 20
0.0
 30
0.0
 11
2.5
 21
0.0
 31
0.0
  0
LINE
  5
259
330
252
100
AcDbEntity
  8
0
  6
Continuous
 62
     0
370
    18
100
AcDbLine
 10
0.0
 20
5.0
 30
0.0
 11
0.0
 21
32.661789626
 31
0.0
  0
LINE
  5
25A
330
252
100
AcDbEntity
  8
0
  6
Continuous
 62
     0
370
    18
100
AcDbLine
 10
-5.0
 20
0.0
 30
0.0
 11
-10.5
 21
0.0
 31
0.0
  0
LINE
  5
25B
330
252
100
AcDbEntity
  8
0
  6
Continuous
 62
     0
370
    18
100
AcDbLine
 10
0.0
 20
-5.0
 30
0.0
 11
0.0
 21
-25.7635114422
 31
0.0
  0
LINE
  5
25C
330
252
100
AcDbEntity
  8
0
  6
Continuous
 62
     0
370
    18
100
AcDbLine
 10
5.0
 20
0.0
 30
0.0
 11
10.5
 21
0.0
 31
0.0
  0
ENDBLK
  5
254
330
252
100
AcDbEntity
  8
0
100
AcDbBlockEnd
  0
BLOCK
  5
353
330
352
100
AcDbEntity
  8
0
100
AcDbBlockBegin
  2
SW_CENTERMARKSYMBOL_1
 70
     0
 10
0.0
 20
0.0
 30
0.0
  3
SW_CENTERMARKSYMBOL_1
  1

  0
LINE
  5
355
330
352
100
AcDbEntity
  8
0
  6
Continuous
 62
     0
370
    18
100
AcDbLine
 10
0.0
 20
0.0
 30
0.0
 11
0.0
 21
2.5
 31
0.0
  0
LINE
  5
356
330
352
100
AcDbEntity
  8
0
  6
Continuous
 62
     0
370
    18
100
AcDbLine
 10
0.0
 20
0.0
 30
0.0
 11
-2.5
 21
0.0
 31
0.0
  0
LINE
  5
357
330
352
100
AcDbEntity
  8
0
  6
Continuous
 62
     0
370
    18
100
AcDbLine
 10
0.0
 20
0.0
 30
0.0
 11
0.0
 21
-2.5
 31
0.0
  0
LINE
  5
358
330
352
100
AcDbEntity
  8
0
  6
Continuous
 62
     0
370
    18
100
AcDbLine
 10
0.0
 20
0.0
 30
0.0
 11
2.5
 21
0.0
 31
0.0
  0
LINE
  5
359
330
352
100
AcDbEntity
  8
0
  6
Continuous
 62
     0
370
    18
100
AcDbLine
 10
0.0
 20
5.0
 30
0.0
 11
0.0
 21
10.8447016175
 31
0.0
  0
LINE
  5
35A
330
352
100
AcDbEntity
  8
0
  6
Continuous
 62
     0
370
    18
100
AcDbLine
 10
-5.0
 20
0.0
 30
0.0
 11
-33.263501485
 21
0.0
 31
0.0
  0
LINE
  5
35B
330
352
100
AcDbEntity
  8
0
  6
Continuous
 62
     0
370
    18
100
AcDbLine
 10
0.0
 20
-5.0
 30
0.0
 11
0.0
 21
-10.2317153357
 31
0.0
  0
LINE
  5
35C
330
352
100
AcDbEntity
  8
0
  6
Continuous
 62
     0
370
    18
100
AcDbLine
 10
5.0
 20
0.0
 30
0.0
 11
32.750847329
 21
0.0
 31
0.0
  0
ENDBLK
  5
354
330
352
100
AcDbEntity
  8
0
100
AcDbBlockEnd
  0
ENDSEC
  0
SECTION
  2
ENTITIES
  0
LINE
  5
63
330
1F
100
AcDbEntity
  8
0
  6
Continuous
 62
     7
370
    25
100
AcDbLine
 10
22.1950313118
 20
46.5587763539
 30
0.0
 11
21.2450313118
 21
46.5587763539
 31
0.0
  0
LINE
  5
64
330
1F
100
AcDbEntity
  8
0
  6
Continuous
 62
     7
370
    25
100
AcDbLine
 10
21.2450313118
 20
33.0587763539
 30
0.0
 11
22.1950313118
 21
33.0587763539
 31
0.0
  0
ARC
  5
65
330
1F
100
AcDbEntity
  8
0
  6
Continuous
 62
     7
370
    25
100
AcDbCircle
 10
21.2450313118
 20
46.2587763539
 30
0.0
 40
0.3000000000000043
100
AcDbArc
 50
90.0
 51
180.0
  0
ARC
  5
66
330
1F
100
AcDbEntity
  8
0
  6
Continuous
 62
     7
370
    25
100
AcDbCircle
 10
21.2450313118
 20
33.3587763539
 30
0.0
 40
0.3000000000000043
100
AcDbArc
 50
180.0
 51
270.0
  0
LINE
  5
67
330
1F
100
AcDbEntity
  8
0
  6
Continuous
 62
     7
370
    25
100
AcDbLine
 10
24.4450313118
 20
45.8087763539
 30
0.0
 11
23.6450313118
 21
45.8087763539
 31
0.0
  0
LINE
  5
68
330
1F
100
AcDbEntity
  8
0
  6
Continuous
 62
     7
370
    25
100
AcDbLine
 10
23.6450313118
 20
33.8087763539
 30
0.0
 11
24.4450313118
 21
33.8087763539
 31
0.0
  0
ARC
  5
69
330
1F
100
AcDbEntity
  8
0
  6
Continuous
 62
     7
370
    25
100
AcDbCircle
 10
23.6450313118
 20
45.6087763539
 30
0.0
 40
0.2000000000000028
100
AcDbArc
 50
90.0
 51
180.0
  0
ARC
  5
6A
330
1F
100
AcDbEntity
  8
0
  6
Continuous
 62
     7
370
    25
100
AcDbCircle
 10
23.6450313118
 20
34.0087763539
 30
0.0
 40
0.2000000000000028
100
AcDbArc
 50
180.0
 51
270.0
  0
LINE
  5
6B
330
1F
100
AcDbEntity
  8
0
  6
Continuous
 62
     7
370
    25
100
AcDbLine
 10
23.4450313118
 20
45.1587763539
 30
0.0
 11
22.1950313118
 21
45.1587763539
 31
0.0
  0
LINE
  5
6C
330
1F
100
AcDbEntity
  8
0
  6
Continuous
 62
     7
370
    25
100
AcDbLine
 10
22.1950313118
 20
34.4587763539
 30
0.0
 11
23.4450313118
 21
34.4587763539
 31
0.0
  0
LINE
  5
6D
330
1F
100
AcDbEntity
  8
0
  6
Continuous
 62
     7
370
    25
100
AcDbLine
 10
81.6950313118
 20
33.0587763539
 30
0.0
 11
82.6450313118
 21
33.0587763539
 31
0.0
  0
LINE
  5
6E
330
1F
100
AcDbEntity
  8
0
  6
Continuous
 62
     7
370
    25
100
AcDbLine
 10
82.6450313118
 20
46.5587763539
 30
0.0
 11
81.6950313118
 21
46.5587763539
 31
0.0
  0
ARC
  5
6F
330
1F
100
AcDbEntity
  8
0
  6
Continuous
 62
     7
370
    25
100
AcDbCircle
 10
82.6450313118
 20
33.3587763539
 30
0.0
 40
0.2999999999999972
100
AcDbArc
 50
270.0
 51
0.0
  0
ARC
  5
70
330
1F
100
AcDbEntity
  8
0
  6
Continuous
 62
     7
370
    25
100
AcDbCircle
 10
82.6450313118
 20
46.2587763539
 30
0.0
 40
0.3000000000000043
100
AcDbArc
 50
0.0
 51
90.0
  0
LINE
  5
71
330
1F
100
AcDbEntity
  8
0
  6
Continuous
 62
     7
370
    25
100
AcDbLine
 10
79.4450313118
 20
33.8087763539
 30
0.0
 11
80.2450313118
 21
33.8087763539
 31
0.0
  0
LINE
  5
72
330
1F
100
AcDbEntity
  8
0
  6
Continuous
 62
     7
370
    25
100
AcDbLine
 10
80.2450313118
 20
45.8087763539
 30
0.0
 11
79.4450313118
 21
45.8087763539
 31
0.0
  0
ARC
  5
73
330
1F
100
AcDbEntity
  8
0
  6
Continuous
 62
     7
370
    25
100
AcDbCircle
 10
80.2450313118
 20
34.0087763539
 30
0.0
 40
0.2000000000000028
100
AcDbArc
 50
270.0
 51
0.0
  0
ARC
  5
74
330
1F
100
AcDbEntity
  8
0
  6
Continuous
 62
     7
370
    25
100
AcDbCircle
 10
80.2450313118
 20
45.6087763539
 30
0.0
 40
0.2000000000000099
100
AcDbArc
 50
0.0
 51
90.0
  0
LINE
  5
75
330
1F
100
AcDbEntity
  8
0
  6
Continuous
 62
     7
370
    25
100
AcDbLine
 10
80.4450313118
 20
34.4587763539
 30
0.0
 11
81.6950313118
 21
34.4587763539
 31
0.0
  0
LINE
  5
76
330
1F
100
AcDbEntity
  8
0
  6
Continuous
 62
     7
370
    25
100
AcDbLine
 10
81.6950313118
 20
45.1587763539
 30
0.0
 11
80.4450313118
 21
45.1587763539
 31
0.0
  0
LINE
  5
77
330
1F
100
AcDbEntity
  8
0
  6
Continuous
 62
     7
370
    25
100
AcDbLine
 10
66.2450313118
 20
31.8087763539
 30
0.0
 11
66.4450313118
 21
32.0087763539
 31
0.0
  0
LINE
  5
78
330
1F
100
AcDbEntity
  8
0
  6
Continuous
 62
     7
370
    25
100
AcDbLine
 10
66.4450313118
 20
47.6087763539
 30
0.0
 11
66.2450313118
 21
47.8087763539
 31
0.0
  0
LINE
  5
79
330
1F
100
AcDbEntity
  8
0
  6
Continuous
 62
     7
370
    25
100
AcDbLine
 10
63.4450313118
 20
31.8087763539
 30
0.0
 11
66.2450313118
 21
31.8087763539
 31
0.0
  0
LINE
  5
7A
330
1F
100
AcDbEntity
  8
0
  6
Continuous
 62
     7
370
    25
100
AcDbLine
 10
66.2450313118
 20
47.8087763539
 30
0.0
 11
63.4450313118
 21
47.8087763539
 31
0.0
  0
LINE
  5
7B
330
1F
100
AcDbEntity
  8
0
  6
Continuous
 62
     7
370
    25
100
AcDbLine
 10
79.2450313118
 20
32.3087763539
 30
0.0
 11
79.4450313118
 21
32.5087763539
 31
0.0
  0
LINE
  5
7C
330
1F
100
AcDbEntity
  8
0
  6
Continuous
 62
     7
370
    25
100
AcDbLine
 10
79.4450313118
 20
47.1087763539
 30
0.0
 11
79.2450313118
 21
47.3087763539
 31
0.0
  0
LINE
  5
7D
330
1F
100
AcDbEntity
  8
0
  6
Continuous
 62
     7
370
    25
100
AcDbLine
 10
66.4450313118
 20
32.3087763539
 30
0.0
 11
79.2450313118
 21
32.3087763539
 31
0.0
  0
LINE
  5
7E
330
1F
100
AcDbEntity
  8
0
  6
Continuous
 62
     7
370
    25
100
AcDbLine
 10
79.2450313118
 20
47.3087763539
 30
0.0
 11
66.4450313118
 21
47.3087763539
 31
0.0
  0
LINE
  5
7F
330
1F
100
AcDbEntity
  8
0
  6
Continuous
 62
     7
370
    25
100
AcDbLine
 10
40.4450313118
 20
47.8087763539
 30
0.0
 11
37.6450313118
 21
47.8087763539
 31
0.0
  0
LINE
  5
80
330
1F
100
AcDbEntity
  8
0
  6
Continuous
 62
     7
370
    25
100
AcDbLine
 10
37.6450313118
 20
31.8087763539
 30
0.0
 11
40.4450313118
 21
31.8087763539
 31
0.0
  0
LINE
  5
81
330
1F
100
AcDbEntity
  8
0
  6
Continuous
 62
     7
370
    25
100
AcDbLine
 10
37.6450313118
 20
47.8087763539
 30
0.0
 11
37.4450313118
 21
47.6087763539
 31
0.0
  0
LINE
  5
82
330
1F
100
AcDbEntity
  8
0
  6
Continuous
 62
     7
370
    25
100
AcDbLine
 10
37.4450313118
 20
32.0087763539
 30
0.0
 11
37.6450313118
 21
31.8087763539
 31
0.0
  0
LINE
  5
83
330
1F
100
AcDbEntity
  8
0
  6
Continuous
 62
     7
370
    25
100
AcDbLine
 10
37.4450313118
 20
47.3087763539
 30
0.0
 11
24.6450313118
 21
47.3087763539
 31
0.0
  0
LINE
  5
84
330
1F
100
AcDbEntity
  8
0
  6
Continuous
 62
     7
370
    25
100
AcDbLine
 10
24.6450313118
 20
32.3087763539
 30
0.0
 11
37.4450313118
 21
32.3087763539
 31
0.0
  0
LINE
  5
85
330
1F
100
AcDbEntity
  8
0
  6
Continuous
 62
     7
370
    25
100
AcDbLine
 10
24.6450313118
 20
47.3087763539
 30
0.0
 11
24.4450313118
 21
47.1087763539
 31
0.0
  0
LINE
  5
86
330
1F
100
AcDbEntity
  8
0
  6
Continuous
 62
     7
370
    25
100
AcDbLine
 10
24.4450313118
 20
32.5087763539
 30
0.0
 11
24.6450313118
 21
32.3087763539
 31
0.0
  0
LINE
  5
87
330
1F
100
AcDbEntity
  8
0
  6
Continuous
 62
     7
370
    25
100
AcDbLine
 10
45.1949688118
 20
27.8087763539
 30
0.0
 11
45.4890691976
 21
18.3975640077
 31
0.0
  0
LINE
  5
88
330
1F
100
AcDbEntity
  8
0
  6
Continuous
 62
     7
370
    25
100
AcDbLine
 10
58.400993426
 20
18.3975640077
 30
0.0
 11
58.6950938118
 21
27.8087763539
 31
0.0
  0
SPLINE
  5
89
330
1F
100
AcDbEntity
  8
0
  6
Continuous
 62
     7
370
    25
100
AcDbSpline
210
0.0
220
0.0
230
1.0
 70
     8
 71
     3
 72
    11
 73
     7
 74
     0
 42
0.00000001
 43
0.00000001
 40
0.0
 40
0.0
 40
0.0
 40
0.0
 40
0.2422588032813147
 40
0.609605787970798
 40
0.9245568869881539
 40
0.9999999999999999
 40
0.9999999999999999
 40
0.9999999999999999
 40
0.9999999999999999
 10
58.115009982153
 20
48.59775661783687
 30
0.0
 10
58.07050161646429
 20
48.64372551761337
 30
0.0
 10
57.95850338577274
 20
48.75939895028472
 30
0.0
 10
57.86461828281278
 20
48.9879231641805
 30
0.0
 10
57.82044246041679
 20
49.18531247268157
 30
0.0
 10
57.82958297169159
 20
49.28750212552159
 30
0.0
 10
57.83134936218572
 20
49.307250127132
 30
0.0
  0
SPLINE
  5
8A
330
1F
100
AcDbEntity
  8
0
  6
Continuous
 62
     7
370
    25
100
AcDbSpline
210
0.0
220
0.0
230
1.0
 70
     8
 71
     3
 72
    11
 73
     7
 74
     0
 42
0.00000001
 43
0.00000001
 40
0.0
 40
0.0
 40
0.0
 40
0.0
 40
0.1416801189937902
 40
0.4852642307078187
 40
0.8418183269765321
 40
1.0
 40
1.0
 40
1.0
 40
1.0
 10
46.05161813769073
 20
49.30838080302299
 30
0.0
 10
46.05382746546156
 20
49.27126600016175
 30
0.0
 10
46.06139456625669
 20
49.14414522706924
 30
0.0
 10
45.99930327242394
 20
48.92919767964343
 30
0.0
 10
45.90017331658814
 20
48.72227727792713
 30
0.0
 10
45.80041300470056
 20
48.63095789496606
 30
0.0
 10
45.76975600750485
 20
48.60289485051101
 30
0.0
  0
LINE
  5
8B
330
1F
100
AcDbEntity
  8
0
  6
Continuous
 62
     7
370
    25
100
AcDbLine
 10
45.4890691976
 20
18.3975640077
 30
0.0
 11
46.6950313118
 21
16.3087763539
 31
0.0
  0
LINE
  5
8C
330
1F
100
AcDbEntity
  8
0
  6
Continuous
 62
     7
370
    25
100
AcDbLine
 10
57.1950313118
 20
16.3087763539
 30
0.0
 11
58.400993426
 21
18.3975640077
 31
0.0
  0
LINE
  5
8D
330
1F
100
AcDbEntity
  8
0
  6
Continuous
 62
     7
370
    25
100
AcDbLine
 10
57.8450313118
 20
49.3042455339
 30
0.0
 11
57.8450313118
 21
50.3087763539
 31
0.0
  0
LINE
  5
8E
330
1F
100
AcDbEntity
  8
0
  6
Continuous
 62
     7
370
    25
100
AcDbLine
 10
46.0450313118
 20
50.3087763539
 30
0.0
 11
46.0450313118
 21
49.3087763539
 31
0.0
  0
LINE
  5
8F
330
1F
100
AcDbEntity
  8
0
  6
Continuous
 62
     7
370
    25
100
AcDbLine
 10
45.7748644045
 20
48.6035140832
 30
0.0
 11
45.230500132
 21
49.546380661
 31
0.0
  0
LINE
  5
90
330
1F
100
AcDbEntity
  8
0
  6
Continuous
 62
     7
370
    25
100
AcDbLine
 10
62.730500132
 20
30.0711720469
 30
0.0
 11
63.4450313118
 21
31.3087763539
 31
0.0
  0
LINE
  5
91
330
1F
100
AcDbEntity
  8
0
  6
Continuous
 62
     7
370
    25
100
AcDbLine
 10
41.1595624916
 20
49.546380661
 30
0.0
 11
40.4450313118
 21
48.3087763539
 31
0.0
  0
LINE
  5
92
330
1F
100
AcDbEntity
  8
0
  6
Continuous
 62
     7
370
    25
100
AcDbLine
 10
58.6595624916
 20
49.546380661
 30
0.0
 11
58.1151982191
 21
48.6035140832
 31
0.0
  0
LINE
  5
93
330
1F
100
AcDbEntity
  8
0
  6
Continuous
 62
     7
370
    25
100
AcDbLine
 10
63.4450313118
 20
48.3087763539
 30
0.0
 11
62.730500132
 21
49.546380661
 31
0.0
  0
LINE
  5
94
330
1F
100
AcDbEntity
  8
0
  6
Continuous
 62
     7
370
    25
100
AcDbLine
 10
40.4450313118
 20
31.3087763539
 30
0.0
 11
41.1595624916
 21
30.0711720469
 31
0.0
  0
LINE
  5
95
330
1F
100
AcDbEntity
  8
0
  6
Continuous
 62
     7
370
    25
100
AcDbLine
 10
61.6826356188
 20
27.8087763539
 30
0.0
 11
61.6826356188
 21
30.0711720469
 31
0.0
  0
LINE
  5
96
330
1F
100
AcDbEntity
  8
0
  6
Continuous
 62
     7
370
    25
100
AcDbLine
 10
61.6826356188
 20
30.0711720469
 30
0.0
 11
62.7330605133
 21
30.0711720469
 31
0.0
  0
LINE
  5
97
330
1F
100
AcDbEntity
  8
0
  6
Continuous
 62
     7
370
    25
100
AcDbLine
 10
45.2330681874
 20
49.546380661
 30
0.0
 11
41.1570021103
 21
49.546380661
 31
0.0
  0
LINE
  5
98
330
1F
100
AcDbEntity
  8
0
  6
Continuous
 62
     7
370
    25
100
AcDbLine
 10
62.7330605133
 20
49.546380661
 30
0.0
 11
58.6569944361
 21
49.546380661
 31
0.0
  0
LINE
  5
99
330
1F
100
AcDbEntity
  8
0
  6
Continuous
 62
     7
370
    25
100
AcDbLine
 10
41.1570021103
 20
30.0711720469
 30
0.0
 11
42.2074270048
 21
30.0711720469
 31
0.0
  0
LINE
  5
9A
330
1F
100
AcDbEntity
  8
0
  6
Continuous
 62
     7
370
    25
100
AcDbLine
 10
42.2074270048
 20
30.0711720469
 30
0.0
 11
42.2074270048
 21
27.8087763539
 31
0.0
  0
LINE
  5
9B
330
1F
100
AcDbEntity
  8
0
  6
Continuous
 62
     7
370
    25
100
AcDbLine
 10
43.9484776312
 20
57.2605278817
 30
0.0
 11
44.4118615636
 21
50.7731528289
 31
0.0
  0
LINE
  5
9C
330
1F
100
AcDbEntity
  8
0
  6
Continuous
 62
     7
370
    25
100
AcDbLine
 10
43.9450312122
 20
57.3087777487
 30
0.0
 11
43.9484776312
 21
57.2605278817
 31
0.0
  0
LINE
  5
9D
330
1F
100
AcDbEntity
  8
0
  6
Continuous
 62
     7
370
    25
100
AcDbLine
 10
59.47820106
 20
50.7731528289
 30
0.0
 11
59.9450314114
 21
57.3087777487
 31
0.0
  0
ARC
  5
9E
330
1F
100
AcDbEntity
  8
0
  6
Continuous
 62
     7
370
    25
100
AcDbCircle
 10
58.9794717101
 20
50.8087763539
 30
0.0
 40
0.5000000000000029
100
AcDbArc
 50
270.0
 51
355.91438322
  0
ARC
  5
9F
330
1F
100
AcDbEntity
  8
0
  6
Continuous
 62
     7
370
    25
100
AcDbCircle
 10
44.9105909135
 20
50.8087763539
 30
0.0
 40
0.5
100
AcDbArc
 50
184.08561678
 51
270.0
  0
LINE
  5
A0
330
1F
100
AcDbEntity
  8
0
  6
Continuous
 62
     7
370
    25
100
AcDbLine
 10
57.8701444351
 20
66.8087763539
 30
0.0
 11
57.5292130956
 21
68.4127321994
 31
0.0
  0
LINE
  5
A1
330
1F
100
AcDbEntity
  8
0
  6
Continuous
 62
     7
370
    25
100
AcDbLine
 10
46.360849528
 20
68.4127321994
 30
0.0
 11
46.0199181885
 21
66.8087763539
 31
0.0
  0
ARC
  5
A2
330
1F
100
AcDbEntity
  8
0
  6
Continuous
 62
     7
370
    25
100
AcDbCircle
 10
46.8499233284
 20
68.3087763539
 30
0.0
 40
0.5000000000000022
100
AcDbArc
 50
90.0
 51
168.0
  0
ARC
  5
A3
330
1F
100
AcDbEntity
  8
0
  6
Continuous
 62
     7
370
    25
100
AcDbCircle
 10
57.0401392952
 20
68.3087763539
 30
0.0
 40
0.5000000000000022
100
AcDbArc
 50
12.0
 51
90.0
  0
ARC
  5
A4
330
1F
100
AcDbEntity
  8
0
  6
Continuous
 62
     7
370
    25
100
AcDbCircle
 10
51.9450313118
 20
48.8087763539
 30
0.0
 40
20.5
100
AcDbArc
 50
96.3582831464
 51
102.6803834918
  0
ARC
  5
A5
330
1F
100
AcDbEntity
  8
0
  6
Continuous
 62
     7
370
    25
100
AcDbCircle
 10
51.9450313118
 20
48.8087763539
 30
0.0
 40
20.5
100
AcDbArc
 50
77.3196165082
 51
83.6417168446
  0
ARC
  5
A6
330
1F
100
AcDbEntity
  8
0
  6
Continuous
 62
     7
370
    25
100
AcDbCircle
 10
51.9450313118
 20
48.8087763539
 30
0.0
 40
20.6
100
AcDbArc
 50
90.4760979079
 51
93.3558231766
  0
ARC
  5
A7
330
1F
100
AcDbEntity
  8
0
  6
Continuous
 62
     7
370
    25
100
AcDbCircle
 10
51.9450313118
 20
48.8087763539
 30
0.0
 40
20.60000000000001
100
AcDbArc
 50
86.6441768145
 51
89.5214493703
  0
LINE
  5
A8
330
1F
100
AcDbEntity
  8
0
  6
Continuous
 62
     7
370
    25
100
AcDbLine
 10
22.1950313118
 20
46.5587763539
 30
0.0
 11
22.1950313118
 21
33.0587763539
 31
0.0
  0
LINE
  5
A9
330
1F
100
AcDbEntity
  8
0
  6
Continuous
 62
     7
370
    25
100
AcDbLine
 10
20.9450313118
 20
33.3587763539
 30
0.0
 11
20.9450313118
 21
46.2587763539
 31
0.0
  0
LINE
  5
AA
330
1F
100
AcDbEntity
  8
0
  6
Continuous
 62
     7
370
    25
100
AcDbLine
 10
23.4450313118
 20
34.0087763539
 30
0.0
 11
23.4450313118
 21
45.6087763539
 31
0.0
  0
LINE
  5
AB
330
1F
100
AcDbEntity
  8
0
  6
Continuous
 62
     7
370
    25
100
AcDbLine
 10
81.6950313118
 20
33.0587763539
 30
0.0
 11
81.6950313118
 21
46.5587763539
 31
0.0
  0
LINE
  5
AC
330
1F
100
AcDbEntity
  8
0
  6
Continuous
 62
     7
370
    25
100
AcDbLine
 10
82.9450313118
 20
46.2587763539
 30
0.0
 11
82.9450313118
 21
33.3587763539
 31
0.0
  0
LINE
  5
AD
330
1F
100
AcDbEntity
  8
0
  6
Continuous
 62
     7
370
    25
100
AcDbLine
 10
80.4450313118
 20
45.6087763539
 30
0.0
 11
80.4450313118
 21
34.0087763539
 31
0.0
  0
LINE
  5
AE
330
1F
100
AcDbEntity
  8
0
  6
Continuous
 62
     7
370
    25
100
AcDbLine
 10
66.4450313118
 20
47.6087763539
 30
0.0
 11
66.4450313118
 21
32.0087763539
 31
0.0
  0
LINE
  5
AF
330
1F
100
AcDbEntity
  8
0
  6
Continuous
 62
     7
370
    25
100
AcDbLine
 10
66.2450313118
 20
31.8087763539
 30
0.0
 11
66.2450313118
 21
47.8087763539
 31
0.0
  0
LINE
  5
B0
330
1F
100
AcDbEntity
  8
0
  6
Continuous
 62
     7
370
    25
100
AcDbLine
 10
79.4450313118
 20
47.1087763539
 30
0.0
 11
79.4450313118
 21
32.5087763539
 31
0.0
  0
LINE
  5
B1
330
1F
100
AcDbEntity
  8
0
  6
Continuous
 62
     7
370
    25
100
AcDbLine
 10
79.2450313118
 20
32.3087763539
 30
0.0
 11
79.2450313118
 21
47.3087763539
 31
0.0
  0
LINE
  5
B2
330
1F
100
AcDbEntity
  8
0
  6
Continuous
 62
     7
370
    25
100
AcDbLine
 10
37.6450313118
 20
32.0277695641
 30
0.0
 11
37.6450313118
 21
31.8087763539
 31
0.0
  0
LINE
  5
B3
330
1F
100
AcDbEntity
  8
0
  6
Continuous
 62
     7
370
    25
100
AcDbLine
 10
37.6450313118
 20
47.8087763539
 30
0.0
 11
37.6450313118
 21
32.0277695641
 31
0.0
  0
LINE
  5
B4
330
1F
100
AcDbEntity
  8
0
  6
Continuous
 62
     7
370
    25
100
AcDbLine
 10
37.4450313118
 20
32.2222947338
 30
0.0
 11
37.4450313118
 21
47.6087763539
 31
0.0
  0
LINE
  5
B5
330
1F
100
AcDbEntity
  8
0
  6
Continuous
 62
     7
370
    25
100
AcDbLine
 10
37.4450313118
 20
32.0087763539
 30
0.0
 11
37.4450313118
 21
32.2222947338
 31
0.0
  0
LINE
  5
B6
330
1F
100
AcDbEntity
  8
0
  6
Continuous
 62
     7
370
    25
100
AcDbLine
 10
24.6450313118
 20
32.5140824884
 30
0.0
 11
24.6450313118
 21
32.3087763539
 31
0.0
  0
LINE
  5
B7
330
1F
100
AcDbEntity
  8
0
  6
Continuous
 62
     7
370
    25
100
AcDbLine
 10
24.6450313118
 20
47.3087763539
 30
0.0
 11
24.6450313118
 21
32.5140824884
 31
0.0
  0
LINE
  5
B8
330
1F
100
AcDbEntity
  8
0
  6
Continuous
 62
     7
370
    25
100
AcDbLine
 10
24.4450313118
 20
32.7086076582
 30
0.0
 11
24.4450313118
 21
47.1087763539
 31
0.0
  0
LINE
  5
B9
330
1F
100
AcDbEntity
  8
0
  6
Continuous
 62
     7
370
    25
100
AcDbLine
 10
24.4450313118
 20
32.5087763539
 30
0.0
 11
24.4450313118
 21
32.7086076582
 31
0.0
  0
SPLINE
  5
BA
330
1F
100
AcDbEntity
  8
0
  6
Continuous
 62
     7
370
    25
100
AcDbSpline
210
0.0
220
0.0
230
1.0
 70
     8
 71
     3
 72
     8
 73
     4
 74
     0
 42
0.00000001
 43
0.00000001
 40
0.0
 40
0.0
 40
0.0
 40
0.0
 40
1.0
 40
1.0
 40
1.0
 40
1.0
 10
47.32622915827788
 20
31.84237981408721
 30
0.0
 10
47.53141498082117
 20
31.89894078121142
 30
0.0
 10
47.73763818152848
 20
31.95288085262526
 30
0.0
 10
47.94503131179491
 20
32.00386514236822
 30
0.0
  0
LINE
  5
BB
330
1F
100
AcDbEntity
  8
0
  6
Continuous
 62
     7
370
    25
100
AcDbLine
 10
47.9450313118
 20
35.8087763539
 30
0.0
 11
45.4287952348
 21
35.8087763539
 31
0.0
  0
SPLINE
  5
BC
330
1F
100
AcDbEntity
  8
0
  6
Continuous
 62
     7
370
    25
100
AcDbSpline
210
0.0
220
0.0
230
1.0
 70
     8
 71
     3
 72
     8
 73
     4
 74
     0
 42
0.00000001
 43
0.00000001
 40
0.0
 40
0.0
 40
0.0
 40
0.0
 40
1.0
 40
1.0
 40
1.0
 40
1.0
 10
45.26730990653473
 20
35.18997420042516
 30
0.0
 10
45.32387327600296
 20
35.39516873793492
 30
0.0
 10
45.37781319882421
 20
35.60139239145209
 30
0.0
 10
45.42879523481573
 20
35.80877635394219
 30
0.0
  0
LINE
  5
BD
330
1F
100
AcDbEntity
  8
0
  6
Continuous
 62
     7
370
    25
100
AcDbLine
 10
41.1227527171
 20
35.1899742004
 30
0.0
 11
45.2673099065
 21
35.1899742004
 31
0.0
  0
SPLINE
  5
BE
330
1F
100
AcDbEntity
  8
0
  6
Continuous
 62
     7
370
    25
100
AcDbSpline
210
0.0
220
0.0
230
1.0
 70
     8
 71
     3
 72
    10
 73
     6
 74
     0
 42
0.00000001
 43
0.00000001
 40
0.0
 40
0.0
 40
0.0
 40
0.0
 40
0.5
 40
0.5
 40
1.0
 40
1.0
 40
1.0
 40
1.0
 10
41.12275271705509
 20
35.1899742004252
 30
0.0
 10
40.91394737783121
 20
35.94745586063075
 30
0.0
 10
40.74340053367205
 20
36.70992340907421
 30
0.0
 10
40.50861820629023
 20
38.24838754341358
 30
0.0
 10
40.4450313117949
 20
39.02451022185614
 30
0.0
 10
40.4450313117949
 20
39.8087763539422
 30
0.0
  0
SPLINE
  5
BF
330
1F
100
AcDbEntity
  8
0
  6
Continuous
 62
     7
370
    25
100
AcDbSpline
210
0.0
220
0.0
230
1.0
 70
     8
 71
     3
 72
    12
 73
     8
 74
     0
 42
0.00000001
 43
0.00000001
 40
0.0
 40
0.0
 40
0.0
 40
0.0
 40
0.25
 40
0.25
 40
0.5
 40
0.5
 40
1.0
 40
1.0
 40
1.0
 40
1.0
 10
40.4450313117949
 20
39.8087763539422
 30
0.0
 10
40.4450313117949
 20
40.20044828031713
 30
0.0
 10
40.46093711746308
 20
40.59535117183873
 30
0.0
 10
40.5227819883555
 20
41.37628720208602
 30
0.0
 10
40.56859532922171
 20
41.7636953340173
 30
0.0
 10
40.74542850312406
 20
42.91782496067727
 30
0.0
 10
40.9157067666277
 20
43.6764793696138
 30
0.0
 10
41.12275271705509
 20
44.42757850745921
 30
0.0
  0
LINE
  5
C0
330
1F
100
AcDbEntity
  8
0
  6
Continuous
 62
     7
370
    25
100
AcDbLine
 10
45.2673099065
 20
44.4275785075
 30
0.0
 11
41.1227527171
 21
44.4275785075
 31
0.0
  0
SPLINE
  5
C1
330
1F
100
AcDbEntity
  8
0
  6
Continuous
 62
     7
370
    25
100
AcDbSpline
210
0.0
220
0.0
230
1.0
 70
     8
 71
     3
 72
     8
 73
     4
 74
     0
 42
0.00000001
 43
0.00000001
 40
0.0
 40
0.0
 40
0.0
 40
0.0
 40
1.0
 40
1.0
 40
1.0
 40
1.0
 10
45.42879523481573
 20
43.8087763539422
 30
0.0
 10
45.37789651789321
 20
44.01582139237119
 30
0.0
 10
45.32396238164245
 20
44.22206072204783
 30
0.0
 10
45.26730990653471
 20
44.42757850745922
 30
0.0
  0
SPLINE
  5
C2
330
1F
100
AcDbEntity
  8
0
  6
Continuous
 62
     7
370
    25
100
AcDbSpline
210
0.0
220
0.0
230
1.0
 70
     8
 71
     3
 72
     8
 73
     4
 74
     0
 42
0.00000001
 43
0.00000001
 40
0.0
 40
0.0
 40
0.0
 40
0.0
 40
1.0
 40
1.0
 40
1.0
 40
1.0
 10
58.4612673887741
 20
43.80877635394227
 30
0.0
 10
58.51216362202917
 20
44.01581128934603
 30
0.0
 10
58.56609757699282
 20
44.22205105441103
 30
0.0
 10
58.62275271705509
 20
44.42757850745922
 30
0.0
  0
LINE
  5
C3
330
1F
100
AcDbEntity
  8
0
  6
Continuous
 62
     7
370
    25
100
AcDbLine
 10
62.7673099065
 20
44.4275785075
 30
0.0
 11
58.6227527171
 21
44.4275785075
 31
0.0
  0
SPLINE
  5
C4
330
1F
100
AcDbEntity
  8
0
  6
Continuous
 62
     7
370
    25
100
AcDbSpline
210
0.0
220
0.0
230
1.0
 70
     8
 71
     3
 72
    12
 73
     8
 74
     0
 42
0.00000001
 43
0.00000001
 40
0.0
 40
0.0
 40
0.0
 40
0.0
 40
0.2500000000000001
 40
0.2500000000000001
 40
0.5000000000000001
 40
0.5000000000000001
 40
1.0
 40
1.0
 40
1.0
 40
1.0
 10
63.44503131179491
 20
39.8087763539422
 30
0.0
 10
63.44503131179491
 20
40.20044828031713
 30
0.0
 10
63.42912550612672
 20
40.59535117183873
 30
0.0
 10
63.36728063523431
 20
41.37628720208603
 30
0.0
 10
63.32146729436811
 20
41.76369533401731
 30
0.0
 10
63.14463412046574
 20
42.91782496067728
 30
0.0
 10
62.97435585696211
 20
43.6764793696138
 30
0.0
 10
62.76730990653471
 20
44.42757850745921
 30
0.0
  0
SPLINE
  5
C5
330
1F
100
AcDbEntity
  8
0
  6
Continuous
 62
     7
370
    25
100
AcDbSpline
210
0.0
220
0.0
230
1.0
 70
     8
 71
     3
 72
    10
 73
     6
 74
     0
 42
0.00000001
 43
0.00000001
 40
0.0
 40
0.0
 40
0.0
 40
0.0
 40
0.5
 40
0.5
 40
1.0
 40
1.0
 40
1.0
 40
1.0
 10
62.76730990653471
 20
35.1899742004252
 30
0.0
 10
62.97611524575861
 20
35.94745586063075
 30
0.0
 10
63.14666208991776
 20
36.70992340907421
 30
0.0
 10
63.38144441729958
 20
38.24838754341359
 30
0.0
 10
63.44503131179491
 20
39.02451022185614
 30
0.0
 10
63.44503131179491
 20
39.8087763539422
 30
0.0
  0
LINE
  5
C6
330
1F
100
AcDbEntity
  8
0
  6
Continuous
 62
     7
370
    25
100
AcDbLine
 10
58.6227527171
 20
35.1899742004
 30
0.0
 11
62.7673099065
 21
35.1899742004
 31
0.0
  0
SPLINE
  5
C7
330
1F
100
AcDbEntity
  8
0
  6
Continuous
 62
     7
370
    25
100
AcDbSpline
210
0.0
220
0.0
230
1.0
 70
     8
 71
     3
 72
     8
 73
     4
 74
     0
 42
0.00000001
 43
0.00000001
 40
0.0
 40
0.0
 40
0.0
 40
0.0
 40
1.0
 40
1.0
 40
1.0
 40
1.0
 10
58.62275271705509
 20
35.18997420042517
 30
0.0
 10
58.56619087361814
 20
35.39516320196199
 30
0.0
 10
58.51225085636176
 20
35.60138656802668
 30
0.0
 10
58.4612673887741
 20
35.80877635394214
 30
0.0
  0
SPLINE
  5
C8
330
1F
100
AcDbEntity
  8
0
  6
Continuous
 62
     7
370
    25
100
AcDbSpline
210
0.0
220
0.0
230
1.0
 70
     8
 71
     3
 72
     8
 73
     4
 74
     0
 42
0.00000001
 43
0.00000001
 40
0.0
 40
0.0
 40
0.0
 40
0.0
 40
1.0
 40
1.0
 40
1.0
 40
1.0
 10
55.94503131179491
 20
32.00386514236822
 30
0.0
 10
56.1520603751303
 20
31.95297035266739
 30
0.0
 10
56.35830039239964
 20
31.89903650330596
 30
0.0
 10
56.56383346531192
 20
31.8423798140872
 30
0.0
  0
LINE
  5
C9
330
1F
100
AcDbEntity
  8
0
  6
Continuous
 62
     7
370
    25
100
AcDbLine
 10
56.5638334653
 20
27.8087763539
 30
0.0
 11
56.5638334653
 21
31.8423798141
 31
0.0
  0
LINE
  5
CA
330
1F
100
AcDbEntity
  8
0
  6
Continuous
 62
     7
370
    25
100
AcDbLine
 10
47.3262291583
 20
27.8087763539
 30
0.0
 11
56.5638334653
 21
27.8087763539
 31
0.0
  0
LINE
  5
CB
330
1F
100
AcDbEntity
  8
0
  6
Continuous
 62
     7
370
    25
100
AcDbLine
 10
47.3262291583
 20
31.8423798141
 30
0.0
 11
47.3262291583
 21
27.8087763539
 31
0.0
  0
ARC
  5
CC
330
1F
100
AcDbEntity
  8
0
  6
Continuous
 62
     7
370
    25
100
AcDbCircle
 10
53.4957626675
 20
39.2318573606
 30
0.0
 40
0.8890000000000019
100
AcDbArc
 50
45.0
 51
315.0
  0
LINE
  5
CD
330
1F
100
AcDbEntity
  8
0
  6
Continuous
 62
     7
370
    25
100
AcDbLine
 10
54.124380596
 20
39.8604752891
 30
0.0
 11
54.5909909816
 21
40.3270856747
 31
0.0
  0
ARC
  5
CE
330
1F
100
AcDbEntity
  8
0
  6
Continuous
 62
     7
370
    25
100
AcDbCircle
 10
53.4957626675
 20
39.2318573606
 30
0.0
 40
1.548886735692404
100
AcDbArc
 50
45.0
 51
315.0
  0
LINE
  5
CF
330
1F
100
AcDbEntity
  8
0
  6
Continuous
 62
     7
370
    25
100
AcDbLine
 10
54.5909909816
 20
38.1366290465
 30
0.0
 11
54.124380596
 21
38.6032394322
 31
0.0
  0
ARC
  5
D0
330
1F
100
AcDbEntity
  8
0
  6
Continuous
 62
     7
370
    25
100
AcDbCircle
 10
56.8379072639
 20
39.2318573606
 30
0.0
 40
0.8889999999999919
100
AcDbArc
 50
45.0
 51
159.0751675724
  0
LINE
  5
D1
330
1F
100
AcDbEntity
  8
0
  6
Continuous
 62
     7
370
    25
100
AcDbLine
 10
57.4665251923
 20
39.8604752891
 30
0.0
 11
57.933135578
 21
40.3270856747
 31
0.0
  0
ARC
  5
D2
330
1F
100
AcDbEntity
  8
0
  6
Continuous
 62
     7
370
    25
100
AcDbCircle
 10
56.8379072639
 20
39.2318573606
 30
0.0
 40
1.548886735692384
100
AcDbArc
 50
45.0
 51
315.0
  0
LINE
  5
D3
330
1F
100
AcDbEntity
  8
0
  6
Continuous
 62
     7
370
    25
100
AcDbLine
 10
57.933135578
 20
38.1366290465
 30
0.0
 11
57.4665251923
 21
38.6032394322
 31
0.0
  0
ARC
  5
D4
330
1F
100
AcDbEntity
  8
0
  6
Continuous
 62
     7
370
    25
100
AcDbCircle
 10
56.8379072639
 20
39.2318573606
 30
0.0
 40
0.8890000000000007
100
AcDbArc
 50
200.9248324276
 51
315.0
  0
LINE
  5
D5
330
1F
100
AcDbEntity
  8
0
  6
Continuous
 62
     7
370
    25
100
AcDbLine
 10
56.0075370151
 20
38.9143573606
 30
0.0
 11
57.933135578
 21
38.9143573606
 31
0.0
  0
LINE
  5
D6
330
1F
100
AcDbEntity
  8
0
  6
Continuous
 62
     7
370
    25
100
AcDbLine
 10
57.933135578
 20
38.9143573606
 30
0.0
 11
57.933135578
 21
39.5493573606
 31
0.0
  0
LINE
  5
D7
330
1F
100
AcDbEntity
  8
0
  6
Continuous
 62
     7
370
    25
100
AcDbLine
 10
57.933135578
 20
39.5493573606
 30
0.0
 11
56.0075370151
 21
39.5493573606
 31
0.0
  0
LINE
  5
D8
330
1F
100
AcDbEntity
  8
0
  6
Continuous
 62
     7
370
    25
100
AcDbLine
 10
51.0432723978
 20
38.3864033363
 30
0.0
 11
51.0016220785
 21
38.3625984065
 31
0.0
  0
ELLIPSE
  5
D9
330
1F
100
AcDbEntity
  8
0
  6
Continuous
 62
     7
370
    25
100
AcDbEllipse
 10
50.652778899
 20
38.9172808777
 30
0.0
 11
0.678412947925267
 21
6.110667527536863E-13
 31
0.0
210
0.0
220
0.0
230
1.0
 40
0.9533039403
 41
3.470145824140275
 42
5.252469180536294
  0
LINE
  5
DA
330
1F
100
AcDbEntity
  8
0
  6
Continuous
 62
     7
370
    25
100
AcDbLine
 10
50.010654132
 20
38.7085967627
 30
0.0
 11
48.7509999271
 21
42.2310411594
 31
0.0
  0
ELLIPSE
  5
DB
330
1F
100
AcDbEntity
  8
0
  6
Continuous
 62
     7
370
    25
100
AcDbEllipse
 10
48.1600173691
 20
41.9687019233
 30
0.0
 11
0.6519124952381503
 21
6.110667527536862E-13
 31
0.0
210
0.0
220
0.0
230
1.0
 40
0.9533023292
 41
0.4357905044354864
 42
2.705800116361515
  0
LINE
  5
DC
330
1F
100
AcDbEntity
  8
0
  6
Continuous
 62
     7
370
    25
100
AcDbLine
 10
47.5690353706
 20
42.2310423046
 30
0.0
 11
46.309670569
 21
38.7094189029
 31
0.0
  0
ELLIPSE
  5
DD
330
1F
100
AcDbEntity
  8
0
  6
Continuous
 62
     7
370
    25
100
AcDbEllipse
 10
45.667549385
 20
38.9181017366
 30
0.0
 11
-0.6784085062757796
 21
3.268496584496460E-13
 31
0.0
210
0.0
220
0.0
230
1.0
 40
0.9533122623
 41
1.047193771187954
 42
2.813042320199938
  0
LINE
  5
DE
330
1F
100
AcDbEntity
  8
0
  6
Continuous
 62
     7
370
    25
100
AcDbLine
 10
45.328342911
 20
38.3580138913
 30
0.0
 11
45.2767623405
 21
38.3864033363
 31
0.0
  0
LINE
  5
DF
330
1F
100
AcDbEntity
  8
0
  6
Continuous
 62
     7
370
    25
100
AcDbLine
 10
45.2767623405
 20
38.3864033363
 30
0.0
 11
46.073031
 21
36.8682312349
 31
0.0
  0
ELLIPSE
  5
E0
330
1F
100
AcDbEntity
  8
0
  6
Continuous
 62
     7
370
    25
100
AcDbEllipse
 10
46.1488798734
 20
36.9043847499
 30
0.0
 11
0.08480161849065126
 21
-2.131628207280301E-14
 31
0.0
210
0.0
220
0.0
230
1.0
 40
0.9533039403
 41
3.605240262590904
 42
5.462183310215356
  0
ELLIPSE
  5
E1
330
1F
100
AcDbEntity
  8
0
  6
Continuous
 62
     7
370
    25
100
AcDbEllipse
 10
48.1600173691
 20
34.8455361293
 30
0.0
 11
2.866293551216202
 21
-1.485034317738609E-12
 31
0.0
210
0.0
220
0.0
230
1.0
 40
0.9533046568
 41
0.8210016221243778
 42
2.320591031466439
  0
ELLIPSE
  5
E2
330
1F
100
AcDbEntity
  8
0
  6
Continuous
 62
     7
370
    25
100
AcDbEllipse
 10
50.1711548649
 20
36.9043847499
 30
0.0
 11
0.08480161849060863
 21
0.0
 31
0.0
210
0.0
220
0.0
230
1.0
 40
0.9533039403
 41
3.962594650556345
 42
5.81953769817725
  0
LINE
  5
E3
330
1F
100
AcDbEntity
  8
0
  6
Continuous
 62
     7
370
    25
100
AcDbLine
 10
50.2470037383
 20
36.8682312349
 30
0.0
 11
51.0432723978
 21
38.3864033363
 31
0.0
  0
LINE
  5
E4
330
1F
100
AcDbEntity
  8
0
  6
Continuous
 62
     7
370
    25
100
AcDbLine
 10
58.4612673888
 20
43.8087763539
 30
0.0
 11
45.4287952348
 21
43.8087763539
 31
0.0
  0
LINE
  5
E5
330
1F
100
AcDbEntity
  8
0
  6
Continuous
 62
     7
370
    25
100
AcDbLine
 10
58.4612673888
 20
35.8087763539
 30
0.0
 11
55.9450313118
 21
35.8087763539
 31
0.0
  0
LINE
  5
E6
330
1F
100
AcDbEntity
  8
0
  6
Continuous
 62
     7
370
    25
100
AcDbLine
 10
47.9450313118
 20
32.0038651424
 30
0.0
 11
47.9450313118
 21
35.8087763539
 31
0.0
  0
LINE
  5
E7
330
1F
100
AcDbEntity
  8
0
  6
Continuous
 62
     7
370
    25
100
AcDbLine
 10
55.9450313118
 20
32.0038651424
 30
0.0
 11
55.9450313118
 21
35.8087763539
 31
0.0
  0
LINE
  5
E8
330
1F
100
AcDbEntity
  8
0
  6
Continuous
 62
     7
370
    25
100
AcDbLine
 10
45.9450313118
 20
47.1699922861
 30
0.0
 11
45.9450313118
 21
43.8087763539
 31
0.0
  0
SPLINE
  5
E9
330
1F
100
AcDbEntity
  8
0
  6
Continuous
 62
     7
370
    25
100
AcDbSpline
210
0.0
220
0.0
230
1.0
 70
     8
 71
     3
 72
    10
 73
     6
 74
     0
 42
0.00000001
 43
0.00000001
 40
0.0
 40
0.0
 40
0.0
 40
0.0
 40
0.5
 40
0.5
 40
1.0
 40
1.0
 40
1.0
 40
1.0
 10
45.26730990653471
 20
44.86059120935143
 30
0.0
 10
45.24363451211033
 20
44.8176476784502
 30
0.0
 10
45.23054340222569
 20
44.75420523382608
 30
0.0
 10
45.23045708093741
 20
44.60172639670711
 30
0.0
 10
45.24362601488124
 20
44.51349639459984
 30
0.0
 10
45.26730990653471
 20
44.42757850745922
 30
0.0
  0
SPLINE
  5
EA
330
1F
100
AcDbEntity
  8
0
  6
Continuous
 62
     7
370
    25
100
AcDbSpline
210
0.0
220
0.0
230
1.0
 70
     8
 71
     3
 72
    12
 73
     8
 74
     0
 42
0.00000001
 43
0.00000001
 40
0.0
 40
0.0
 40
0.0
 40
0.0
 40
0.2500000000000001
 40
0.2500000000000001
 40
0.5000000000000002
 40
0.5000000000000002
 40
1.0
 40
1.0
 40
1.0
 40
1.0
 10
45.94503131179491
 20
47.16999228610994
 30
0.0
 10
45.94503131179491
 20
46.97425002323042
 30
0.0
 10
45.92918837570596
 20
46.77758341403985
 30
0.0
 10
45.86768551546828
 20
46.38831518671157
 30
0.0
 10
45.8220818744246
 20
46.19491115375866
 30
0.0
 10
45.64563085693538
 20
45.6179821025019
 30
0.0
 10
45.47523348968352
 20
45.23773266929889
 30
0.0
 10
45.26730990653471
 20
44.86059120935143
 30
0.0
  0
SPLINE
  5
EB
330
1F
100
AcDbEntity
  8
0
  6
Continuous
 62
     7
370
    25
100
AcDbSpline
210
0.0
220
0.0
230
1.0
 70
     8
 71
     3
 72
    10
 73
     6
 74
     0
 42
0.00000001
 43
0.00000001
 40
0.0
 40
0.0
 40
0.0
 40
0.0
 40
0.5
 40
0.5
 40
1.0
 40
1.0
 40
1.0
 40
1.0
 10
45.26730990653466
 20
35.18997420042519
 30
0.0
 10
45.24363451211027
 20
35.10408713862274
 30
0.0
 10
45.23054340222568
 20
35.01667992964261
 30
0.0
 10
45.23045708093741
 20
34.86404348704887
 30
0.0
 10
45.24362601488124
 20
34.79992044210329
 30
0.0
 10
45.26730990653471
 20
34.75696149853298
 30
0.0
  0
LINE
  5
EC
330
1F
100
AcDbEntity
  8
0
  6
Continuous
 62
     7
370
    25
100
AcDbLine
 10
45.2673099065
 20
34.7569614985
 30
0.0
 11
41.1227527171
 21
34.7569614985
 31
0.0
  0
SPLINE
  5
ED
330
1F
100
AcDbEntity
  8
0
  6
Continuous
 62
     7
370
    25
100
AcDbSpline
210
0.0
220
0.0
230
1.0
 70
     8
 71
     3
 72
    10
 73
     6
 74
     0
 42
0.00000001
 43
0.00000001
 40
0.0
 40
0.0
 40
0.0
 40
0.0
 40
0.5
 40
0.5
 40
1.0
 40
1.0
 40
1.0
 40
1.0
 10
41.12275271705509
 20
35.1899742004252
 30
0.0
 10
41.14642661761105
 20
35.10409255791874
 30
0.0
 10
41.15951917479019
 20
35.0166833519533
 30
0.0
 10
41.15960558877247
 20
34.86404086687838
 30
0.0
 10
41.14643519717385
 20
34.79991788179601
 30
0.0
 10
41.1227527170551
 20
34.75696149853298
 30
0.0
  0
SPLINE
  5
EE
330
1F
100
AcDbEntity
  8
0
  6
Continuous
 62
     7
370
    25
100
AcDbSpline
210
0.0
220
0.0
230
1.0
 70
     8
 71
     3
 72
    10
 73
     6
 74
     0
 42
0.00000001
 43
0.00000001
 40
0.0
 40
0.0
 40
0.0
 40
0.0
 40
0.5
 40
0.5
 40
1.0
 40
1.0
 40
1.0
 40
1.0
 10
41.12275271705509
 20
44.86059120935143
 30
0.0
 10
41.14642495696666
 20
44.8176534002522
 30
0.0
 10
41.15951894690192
 20
44.75421281035999
 30
0.0
 10
41.15960581436336
 20
44.60172366485116
 30
0.0
 10
41.14643602460401
 20
44.51349427564784
 30
0.0
 10
41.12275271705509
 20
44.42757850745921
 30
0.0
  0
LINE
  5
EF
330
1F
100
AcDbEntity
  8
0
  6
Continuous
 62
     7
370
    25
100
AcDbLine
 10
41.1227527171
 20
44.8605912094
 30
0.0
 11
45.2673099065
 21
44.8605912094
 31
0.0
  0
LINE
  5
F0
330
1F
100
AcDbEntity
  8
0
  6
Continuous
 62
     7
370
    25
100
AcDbLine
 10
62.7673099065
 20
34.7569614985
 30
0.0
 11
58.6227527171
 21
34.7569614985
 31
0.0
  0
SPLINE
  5
F1
330
1F
100
AcDbEntity
  8
0
  6
Continuous
 62
     7
370
    25
100
AcDbSpline
210
0.0
220
0.0
230
1.0
 70
     8
 71
     3
 72
    10
 73
     6
 74
     0
 42
0.00000001
 43
0.00000001
 40
0.0
 40
0.0
 40
0.0
 40
0.0
 40
0.5
 40
0.5
 40
1.0
 40
1.0
 40
1.0
 40
1.0
 10
58.62275271705183
 20
34.75696149853298
 30
0.0
 10
58.64642811147618
 20
34.79990502943414
 30
0.0
 10
58.65951922136409
 20
34.86334747405792
 30
0.0
 10
58.65960554265245
 20
35.01582631117702
 30
0.0
 10
58.6464366087086
 20
35.10405631328443
 30
0.0
 10
58.6227527170551
 20
35.18997420042518
 30
0.0
  0
SPLINE
  5
F2
330
1F
100
AcDbEntity
  8
0
  6
Continuous
 62
     7
370
    25
100
AcDbSpline
210
0.0
220
0.0
230
1.0
 70
     8
 71
     3
 72
    10
 73
     6
 74
     0
 42
0.00000001
 43
0.00000001
 40
0.0
 40
0.0
 40
0.0
 40
0.0
 40
0.5
 40
0.5
 40
1.0
 40
1.0
 40
1.0
 40
1.0
 10
62.76730990653471
 20
35.1899742004252
 30
0.0
 10
62.74363600597876
 20
35.10409255791874
 30
0.0
 10
62.73054344879962
 20
35.0166833519533
 30
0.0
 10
62.73045703481735
 20
34.86404086687838
 30
0.0
 10
62.74362742641597
 20
34.79991788179601
 30
0.0
 10
62.76730990653471
 20
34.75696149853298
 30
0.0
  0
SPLINE
  5
F3
330
1F
100
AcDbEntity
  8
0
  6
Continuous
 62
     7
370
    25
100
AcDbSpline
210
0.0
220
0.0
230
1.0
 70
     8
 71
     3
 72
    10
 73
     6
 74
     0
 42
0.00000001
 43
0.00000001
 40
0.0
 40
0.0
 40
0.0
 40
0.0
 40
0.5
 40
0.5
 40
1.0
 40
1.0
 40
1.0
 40
1.0
 10
58.62275271705511
 20
44.42757850745922
 30
0.0
 10
58.6464281114795
 20
44.51346556926166
 30
0.0
 10
58.65951922136412
 20
44.60087277824177
 30
0.0
 10
58.65960554265241
 20
44.7535092208355
 30
0.0
 10
58.64643660870857
 20
44.81763226578108
 30
0.0
 10
58.62275271705511
 20
44.8605912093514
 30
0.0
  0
LINE
  5
F4
330
1F
100
AcDbEntity
  8
0
  6
Continuous
 62
     7
370
    25
100
AcDbLine
 10
58.6227527171
 20
44.8605912094
 30
0.0
 11
62.7673099065
 21
44.8605912094
 31
0.0
  0
SPLINE
  5
F5
330
1F
100
AcDbEntity
  8
0
  6
Continuous
 62
     7
370
    25
100
AcDbSpline
210
0.0
220
0.0
230
1.0
 70
     8
 71
     3
 72
    10
 73
     6
 74
     0
 42
0.00000001
 43
0.00000001
 40
0.0
 40
0.0
 40
0.0
 40
0.0
 40
0.5
 40
0.5
 40
1.0
 40
1.0
 40
1.0
 40
1.0
 10
62.76730990653471
 20
44.86059120935143
 30
0.0
 10
62.74363766662315
 20
44.8176534002522
 30
0.0
 10
62.7305436766879
 20
44.75421281035999
 30
0.0
 10
62.73045680922645
 20
44.60172366485116
 30
0.0
 10
62.7436265989858
 20
44.51349427564784
 30
0.0
 10
62.76730990653471
 20
44.42757850745922
 30
0.0
  0
SPLINE
  5
F6
330
1F
100
AcDbEntity
  8
0
  6
Continuous
 62
     7
370
    25
100
AcDbSpline
210
0.0
220
0.0
230
1.0
 70
     8
 71
     3
 72
    10
 73
     6
 74
     0
 42
0.00000001
 43
0.00000001
 40
0.0
 40
0.0
 40
0.0
 40
0.0
 40
0.5
 40
0.5
 40
1.0
 40
1.0
 40
1.0
 40
1.0
 10
56.56383346531191
 20
31.84237981408718
 30
0.0
 10
56.64972052711446
 20
31.81870441966277
 30
0.0
 10
56.73712773609467
 20
31.80561330977815
 30
0.0
 10
56.88976417868853
 20
31.80552698848992
 30
0.0
 10
56.95388722363429
 20
31.81869592243386
 30
0.0
 10
56.99684616720452
 20
31.84237981408741
 30
0.0
  0
LINE
  5
F7
330
1F
100
AcDbEntity
  8
0
  6
Continuous
 62
     7
370
    25
100
AcDbLine
 10
56.9968461672
 20
31.8423798141
 30
0.0
 11
56.9968461672
 21
27.8087763539
 31
0.0
  0
LINE
  5
F8
330
1F
100
AcDbEntity
  8
0
  6
Continuous
 62
     7
370
    25
100
AcDbLine
 10
56.9968461672
 20
27.8087763539
 30
0.0
 11
56.5638334653
 21
27.8087763539
 31
0.0
  0
SPLINE
  5
F9
330
1F
100
AcDbEntity
  8
0
  6
Continuous
 62
     7
370
    25
100
AcDbSpline
210
0.0
220
0.0
230
1.0
 70
     8
 71
     3
 72
     8
 73
     4
 74
     0
 42
0.00000001
 43
0.00000001
 40
0.0
 40
0.0
 40
0.0
 40
0.0
 40
1.0
 40
1.0
 40
1.0
 40
1.0
 10
44.65565512717828
 20
32.51940016931347
 30
0.0
 10
44.96467226982004
 20
32.62040527714359
 30
0.0
 10
45.27999002613802
 20
32.71706206620953
 30
0.0
 10
45.60246935298104
 20
32.80877635394221
 30
0.0
  0
SPLINE
  5
FA
330
1F
100
AcDbEntity
  8
0
  6
Continuous
 62
     7
370
    25
100
AcDbSpline
210
0.0
220
0.0
230
1.0
 70
     8
 71
     3
 72
    10
 73
     6
 74
     0
 42
0.00000001
 43
0.00000001
 40
0.0
 40
0.0
 40
0.0
 40
0.0
 40
0.5
 40
0.5
 40
1.0
 40
1.0
 40
1.0
 40
1.0
 10
46.89321645638568
 20
31.84237981408721
 30
0.0
 10
46.93615998728691
 20
31.81870441966282
 30
0.0
 10
46.99960243191103
 20
31.80561330977817
 30
0.0
 10
47.15208126902999
 20
31.80552698848989
 30
0.0
 10
47.24031127113727
 20
31.81869592243373
 30
0.0
 10
47.32622915827789
 20
31.8423798140872
 30
0.0
  0
SPLINE
  5
FB
330
1F
100
AcDbEntity
  8
0
  6
Continuous
 62
     7
370
    25
100
AcDbSpline
210
0.0
220
0.0
230
1.0
 70
     8
 71
     3
 72
    12
 73
     8
 74
     0
 42
0.00000001
 43
0.00000001
 40
0.0
 40
0.0
 40
0.0
 40
0.0
 40
0.2500000000000002
 40
0.2500000000000002
 40
0.5000000000000004
 40
0.5000000000000004
 40
1.0
 40
1.0
 40
1.0
 40
1.0
 10
44.65565512717304
 20
32.51940016930734
 30
0.0
 10
44.84568130247626
 20
32.51569168345091
 30
0.0
 10
45.03589636516207
 20
32.49710918061323
 30
0.0
 10
45.41283312429448
 20
32.43224214364708
 30
0.0
 10
45.60015591555398
 20
32.38597659039682
 30
0.0
 10
46.15906587186807
 20
32.21025206008986
 30
0.0
 10
46.52760152997839
 20
32.0439486513131
 30
0.0
 10
46.89321645638568
 20
31.84237981408721
 30
0.0
  0
SPLINE
  5
FC
330
1F
100
AcDbEntity
  8
0
  6
Continuous
 62
     7
370
    25
100
AcDbSpline
210
0.0
220
0.0
230
1.0
 70
     8
 71
     3
 72
     8
 73
     4
 74
     0
 42
0.00000001
 43
0.00000001
 40
0.0
 40
0.0
 40
0.0
 40
0.0
 40
1.0
 40
1.0
 40
1.0
 40
1.0
 10
58.28759327060877
 20
32.80877635394221
 30
0.0
 10
58.61007259745805
 20
32.71706206620775
 30
0.0
 10
58.92539035378201
 20
32.62040527713985
 30
0.0
 10
59.23440749642952
 20
32.51940016930759
 30
0.0
  0
SPLINE
  5
FD
330
1F
100
AcDbEntity
  8
0
  6
Continuous
 62
     7
370
    25
100
AcDbSpline
210
0.0
220
0.0
230
1.0
 70
     8
 71
     3
 72
    10
 73
     6
 74
     0
 42
0.00000001
 43
0.00000001
 40
0.0
 40
0.0
 40
0.0
 40
0.0
 40
0.5
 40
0.5
 40
1.0
 40
1.0
 40
1.0
 40
1.0
 10
56.99684616720441
 20
31.84237981408735
 30
0.0
 10
57.36336411404495
 20
32.04444649963828
 30
0.0
 10
57.73244433951077
 20
32.21083927190892
 30
0.0
 10
58.47769668773817
 20
32.44488624577897
 30
0.0
 10
58.85390945968594
 20
32.5119744997378
 30
0.0
 10
59.23440749642952
 20
32.51940016930759
 30
0.0
  0
LINE
  5
FE
330
1F
100
AcDbEntity
  8
0
  6
Continuous
 62
     7
370
    25
100
AcDbLine
 10
40.4450313118
 20
39.8087763539
 30
0.0
 11
40.4450313118
 21
47.1699922861
 31
0.0
  0
SPLINE
  5
FF
330
1F
100
AcDbEntity
  8
0
  6
Continuous
 62
     7
370
    25
100
AcDbSpline
210
0.0
220
0.0
230
1.0
 70
     8
 71
     3
 72
    10
 73
     6
 74
     0
 42
0.00000001
 43
0.00000001
 40
0.0
 40
0.0
 40
0.0
 40
0.0
 40
0.5
 40
0.5
 40
1.0
 40
1.0
 40
1.0
 40
1.0
 10
41.12275271705463
 20
44.8605912093514
 30
0.0
 10
40.91394279238837
 20
45.23934035674269
 30
0.0
 10
40.74340865264111
 20
45.62054563315399
 30
0.0
 10
40.50862284762221
 20
46.38977625434177
 30
0.0
 10
40.4450313117949
 20
46.77784395914009
 30
0.0
 10
40.4450313117949
 20
47.16999228610994
 30
0.0
  0
ELLIPSE
  5
100
330
1F
100
AcDbEntity
  8
0
  6
Continuous
 62
     7
370
    25
100
AcDbEllipse
 10
48.4986186641
 20
39.3151862145
 30
0.0
 11
-0.08480161849066548
 21
-4.263256414560601E-14
 31
0.0
210
0.0
220
0.0
230
1.0
 40
0.9533039403
 41
1.570796326794417
 42
3.484616592149282
  0
LINE
  5
101
330
1F
100
AcDbEntity
  8
0
  6
Continuous
 62
     7
370
    25
100
AcDbLine
 10
47.8912703053
 20
39.2343444975
 30
0.0
 11
48.4986186641
 21
39.2343444975
 31
0.0
  0
ELLIPSE
  5
102
330
1F
100
AcDbEntity
  8
0
  6
Continuous
 62
     7
370
    25
100
AcDbEllipse
 10
47.8912703053
 20
39.3151862145
 30
0.0
 11
0.08480161849065837
 21
-1.421085471520200E-14
 31
0.0
210
0.0
220
0.0
230
1.0
 40
0.9533039403
 41
2.798568711308441
 42
4.712388980384862
  0
LINE
  5
103
330
1F
100
AcDbEntity
  8
0
  6
Continuous
 62
     7
370
    25
100
AcDbLine
 10
48.5784799024
 20
39.3423762262
 30
0.0
 11
48.2748057248
 21
40.1529588434
 31
0.0
  0
LINE
  5
104
330
1F
100
AcDbEntity
  8
0
  6
Continuous
 62
     7
370
    25
100
AcDbLine
 10
48.1150832482
 20
40.1529588434
 30
0.0
 11
47.811409067
 21
39.3423762265
 31
0.0
  0
ELLIPSE
  5
105
330
1F
100
AcDbEntity
  8
0
  6
Continuous
 62
     7
370
    25
100
AcDbEllipse
 10
48.1949444865
 20
40.1257688316
 30
0.0
 11
0.08480161849065837
 21
7.105427357601002E-15
 31
0.0
210
0.0
220
0.0
230
1.0
 40
0.9533039403
 41
0.343023940420522
 42
2.798568713169097
  0
LINE
  5
106
330
1F
100
AcDbEntity
  8
0
  6
Continuous
 62
     7
370
    25
100
AcDbLine
 10
45.9450313118
 20
35.8087763539
 30
0.0
 11
45.9450313118
 21
33.8087763539
 31
0.0
  0
SPLINE
  5
107
330
1F
100
AcDbEntity
  8
0
  6
Continuous
 62
     7
370
    25
100
AcDbSpline
210
0.0
220
0.0
230
1.0
 70
     8
 71
     3
 72
     8
 73
     4
 74
     0
 42
0.00000001
 43
0.00000001
 40
0.0
 40
0.0
 40
0.0
 40
0.0
 40
1.0
 40
1.0
 40
1.0
 40
1.0
 10
45.94503131179491
 20
33.8087763539422
 30
0.0
 10
45.90525265360473
 20
33.67139126494209
 30
0.0
 10
45.86476369077649
 20
33.53468718313032
 30
0.0
 10
45.82364782029874
 20
33.39865482061695
 30
0.0
  0
SPLINE
  5
108
330
1F
100
AcDbEntity
  8
0
  6
Continuous
 62
     7
370
    25
100
AcDbSpline
210
0.0
220
0.0
230
1.0
 70
     8
 71
     3
 72
     8
 73
     4
 74
     0
 42
0.00000001
 43
0.00000001
 40
0.0
 40
0.0
 40
0.0
 40
0.0
 40
1.0
 40
1.0
 40
1.0
 40
1.0
 10
45.26730990653471
 20
34.75696149853298
 30
0.0
 10
45.51448368741865
 20
34.30862620548165
 30
0.0
 10
45.70820535572263
 20
33.85645171473806
 30
0.0
 10
45.82364782029874
 20
33.39865482061695
 30
0.0
  0
LINE
  5
109
330
1F
100
AcDbEntity
  8
0
  6
Continuous
 62
     7
370
    25
100
AcDbLine
 10
63.4450313118
 20
32.4475604218
 30
0.0
 11
63.4450313118
 21
39.8087763539
 31
0.0
  0
SPLINE
  5
10A
330
1F
100
AcDbEntity
  8
0
  6
Continuous
 62
     7
370
    25
100
AcDbSpline
210
0.0
220
0.0
230
1.0
 70
     8
 71
     3
 72
    12
 73
     8
 74
     0
 42
0.00000001
 43
0.00000001
 40
0.0
 40
0.0
 40
0.0
 40
0.0
 40
0.2499999999999998
 40
0.2499999999999998
 40
0.4999999999999996
 40
0.4999999999999996
 40
1.0
 40
1.0
 40
1.0
 40
1.0
 10
63.44503131179491
 20
32.44756042177448
 30
0.0
 10
63.44503131179491
 20
32.64256390178027
 30
0.0
 10
63.42928498177294
 20
32.83909856080468
 30
0.0
 10
63.36783995718752
 20
33.22851824841023
 30
0.0
 10
63.32225119793379
 20
33.42200294147049
 30
0.0
 10
63.14580019567718
 20
33.99918654022608
 30
0.0
 10
62.9753424937137
 20
34.37962232200905
 30
0.0
 10
62.76730990653486
 20
34.75696149853299
 30
0.0
  0
LINE
  5
10B
330
1F
100
AcDbEntity
  8
0
  6
Continuous
 62
     7
370
    25
100
AcDbLine
 10
57.9450313118
 20
47.1699922861
 30
0.0
 11
57.9450313118
 21
43.8087763539
 31
0.0
  0
SPLINE
  5
10C
330
1F
100
AcDbEntity
  8
0
  6
Continuous
 62
     7
370
    25
100
AcDbSpline
210
0.0
220
0.0
230
1.0
 70
     8
 71
     3
 72
    10
 73
     6
 74
     0
 42
0.00000001
 43
0.00000001
 40
0.0
 40
0.0
 40
0.0
 40
0.0
 40
0.5
 40
0.5
 40
1.0
 40
1.0
 40
1.0
 40
1.0
 10
58.62275271705511
 20
44.86059120935141
 30
0.0
 10
58.41433196423768
 20
45.23863445875357
 30
0.0
 10
58.24386812896026
 20
45.61940396354942
 30
0.0
 10
58.00888569402186
 20
46.38855248910696
 30
0.0
 10
57.94503131179491
 20
46.7769792172822
 30
0.0
 10
57.94503131179491
 20
47.16999228610994
 30
0.0
  0
LINE
  5
10D
330
1F
100
AcDbEntity
  8
0
  6
Continuous
 62
     7
370
    25
100
AcDbLine
 10
40.4450313118
 20
32.4475604218
 30
0.0
 11
40.4450313118
 21
39.8087763539
 31
0.0
  0
SPLINE
  5
10E
330
1F
100
AcDbEntity
  8
0
  6
Continuous
 62
     7
370
    25
100
AcDbSpline
210
0.0
220
0.0
230
1.0
 70
     8
 71
     3
 72
    12
 73
     8
 74
     0
 42
0.00000001
 43
0.00000001
 40
0.0
 40
0.0
 40
0.0
 40
0.0
 40
0.2499999999999999
 40
0.2499999999999999
 40
0.4999999999999998
 40
0.4999999999999998
 40
1.0
 40
1.0
 40
1.0
 40
1.0
 10
40.44503131179491
 20
32.44756042177447
 30
0.0
 10
40.44503131179491
 20
32.64256390178027
 30
0.0
 10
40.46077764181687
 20
32.83909856080468
 30
0.0
 10
40.5222226664023
 20
33.22851824841023
 30
0.0
 10
40.56781142565602
 20
33.42200294147049
 30
0.0
 10
40.74426242791262
 20
33.99918654022608
 30
0.0
 10
40.91472012987611
 20
34.37962232200905
 30
0.0
 10
41.12275271705496
 20
34.75696149853299
 30
0.0
  0
LINE
  5
10F
330
1F
100
AcDbEntity
  8
0
  6
Continuous
 62
     7
370
    25
100
AcDbLine
 10
46.8932164564
 20
27.8087763539
 30
0.0
 11
46.8932164564
 21
31.8423798141
 31
0.0
  0
LINE
  5
110
330
1F
100
AcDbEntity
  8
0
  6
Continuous
 62
     7
370
    25
100
AcDbLine
 10
47.3262291583
 20
27.8087763539
 30
0.0
 11
46.8932164564
 21
27.8087763539
 31
0.0
  0
SPLINE
  5
111
330
1F
100
AcDbEntity
  8
0
  6
Continuous
 62
     7
370
    25
100
AcDbSpline
210
0.0
220
0.0
230
1.0
 70
     8
 71
     3
 72
     8
 73
     4
 74
     0
 42
0.00000001
 43
0.00000001
 40
0.0
 40
0.0
 40
0.0
 40
0.0
 40
1.0
 40
1.0
 40
1.0
 40
1.0
 10
58.06641480329107
 20
33.39865482061696
 30
0.0
 10
58.0252995276498
 20
33.53468521510651
 30
0.0
 10
57.98481054478195
 20
33.67138927974395
 30
0.0
 10
57.94503131179491
 20
33.8087763539422
 30
0.0
  0
LINE
  5
112
330
1F
100
AcDbEntity
  8
0
  6
Continuous
 62
     7
370
    25
100
AcDbLine
 10
57.9450313118
 20
35.8087763539
 30
0.0
 11
57.9450313118
 21
33.8087763539
 31
0.0
  0
SPLINE
  5
113
330
1F
100
AcDbEntity
  8
0
  6
Continuous
 62
     7
370
    25
100
AcDbSpline
210
0.0
220
0.0
230
1.0
 70
     8
 71
     3
 72
     8
 73
     4
 74
     0
 42
0.00000001
 43
0.00000001
 40
0.0
 40
0.0
 40
0.0
 40
0.0
 40
1.0
 40
1.0
 40
1.0
 40
1.0
 10
58.06641480329107
 20
33.39865482061696
 30
0.0
 10
58.18204741332013
 20
33.85720575267472
 30
0.0
 10
58.37593681814054
 20
34.30927534843297
 30
0.0
 10
58.62275271705495
 20
34.75696149853272
 30
0.0
  0
SPLINE
  5
114
330
1F
100
AcDbEntity
  8
0
  6
Continuous
 62
     7
370
    25
100
AcDbSpline
210
0.0
220
0.0
230
1.0
 70
     8
 71
     3
 72
    10
 73
     6
 74
     0
 42
0.00000001
 43
0.00000001
 40
0.0
 40
0.0
 40
0.0
 40
0.0
 40
0.5
 40
0.5
 40
1.0
 40
1.0
 40
1.0
 40
1.0
 10
62.76730990653517
 20
44.8605912093514
 30
0.0
 10
62.97611983120144
 20
45.23934035674269
 30
0.0
 10
63.14665397094869
 20
45.62054563315399
 30
0.0
 10
63.38143977596761
 20
46.38977625434178
 30
0.0
 10
63.44503131179491
 20
46.7778439591401
 30
0.0
 10
63.44503131179491
 20
47.16999228610994
 30
0.0
  0
LINE
  5
115
330
1F
100
AcDbEntity
  8
0
  6
Continuous
 62
     7
370
    25
100
AcDbLine
 10
63.4450313118
 20
39.8087763539
 30
0.0
 11
63.4450313118
 21
47.1699922861
 31
0.0
  0
SPLINE
  5
116
330
1F
100
AcDbEntity
  8
0
  6
Continuous
 62
     7
370
    25
100
AcDbSpline
210
0.0
220
0.0
230
1.0
 70
     8
 71
     3
 72
    12
 73
     8
 74
     0
 42
0.00000001
 43
0.00000001
 40
0.0
 40
0.0
 40
0.0
 40
0.0
 40
0.2499999999999999
 40
0.2499999999999999
 40
0.4999999999999998
 40
0.4999999999999998
 40
1.0
 40
1.0
 40
1.0
 40
1.0
 10
57.94503131179491
 20
47.16999228610994
 30
0.0
 10
57.94503131179491
 20
47.36573454898945
 30
0.0
 10
57.96087424788386
 20
47.56240115818001
 30
0.0
 10
58.02237710812152
 20
47.95166938550829
 30
0.0
 10
58.06798074916522
 20
48.14507341846121
 30
0.0
 10
58.24443176665444
 20
48.72200246971797
 30
0.0
 10
58.4148291339063
 20
49.10225190292098
 30
0.0
 10
58.62275271705509
 20
49.47939336286844
 30
0.0
  0
LINE
  5
117
330
1F
100
AcDbEntity
  8
0
  6
Continuous
 62
     7
370
    25
100
AcDbLine
 10
62.7673099065
 20
49.4793933629
 30
0.0
 11
58.6227527171
 21
49.4793933629
 31
0.0
  0
SPLINE
  5
118
330
1F
100
AcDbEntity
  8
0
  6
Continuous
 62
     7
370
    25
100
AcDbSpline
210
0.0
220
0.0
230
1.0
 70
     8
 71
     3
 72
    12
 73
     8
 74
     0
 42
0.00000001
 43
0.00000001
 40
0.0
 40
0.0
 40
0.0
 40
0.0
 40
0.2500000000000002
 40
0.2500000000000002
 40
0.5
 40
0.5
 40
1.0
 40
1.0
 40
1.0
 40
1.0
 10
63.44503131179491
 20
47.16999228610994
 30
0.0
 10
63.44503131179489
 20
47.36499576611573
 30
0.0
 10
63.42928498177294
 20
47.56153042514014
 30
0.0
 10
63.36783995718752
 20
47.95095011274569
 30
0.0
 10
63.32225119793379
 20
48.14443480580595
 30
0.0
 10
63.1458001956772
 20
48.72161840456155
 30
0.0
 10
62.9753424937137
 20
49.10205418634452
 30
0.0
 10
62.76730990653486
 20
49.47939336286846
 30
0.0
  0
ELLIPSE
  5
119
330
1F
100
AcDbEntity
  8
0
  6
Continuous
 62
     7
370
    25
100
AcDbEllipse
 10
51.9450313118
 20
29.9938217777
 30
0.0
 11
8.5
 21
0.0
 31
0.0
210
0.0
220
0.0
230
1.0
 40
0.5773502692
 41
2.374833212873085
 42
2.530692279913057
  0
LINE
  5
11A
330
1F
100
AcDbEntity
  8
0
  6
Continuous
 62
     7
370
    25
100
AcDbLine
 10
44.6556551272
 20
32.5194001693
 30
0.0
 11
42.2744143029
 21
30.138159345
 31
0.0
  0
LINE
  5
11B
330
1F
100
AcDbEntity
  8
0
  6
Continuous
 62
     7
370
    25
100
AcDbLine
 10
41.1227527171
 20
30.138159345
 30
0.0
 11
42.2744143029
 21
30.138159345
 31
0.0
  0
SPLINE
  5
11C
330
1F
100
AcDbEntity
  8
0
  6
Continuous
 62
     7
370
    25
100
AcDbSpline
210
0.0
220
0.0
230
1.0
 70
     8
 71
     3
 72
    10
 73
     6
 74
     0
 42
0.00000001
 43
0.00000001
 40
0.0
 40
0.0
 40
0.0
 40
0.0
 40
0.5
 40
0.5
 40
1.0
 40
1.0
 40
1.0
 40
1.0
 10
41.12275271705463
 20
30.13815934501594
 30
0.0
 10
40.91394279238837
 20
30.51690849240723
 30
0.0
 10
40.74340865264111
 20
30.89811376881853
 30
0.0
 10
40.50862284762221
 20
31.66734439000631
 30
0.0
 10
40.44503131179491
 20
32.05541209480463
 30
0.0
 10
40.44503131179491
 20
32.44756042177447
 30
0.0
  0
LINE
  5
11D
330
1F
100
AcDbEntity
  8
0
  6
Continuous
 62
     7
370
    25
100
AcDbLine
 10
61.6156483207
 20
30.138159345
 30
0.0
 11
59.2344074964
 21
32.5194001693
 31
0.0
  0
ELLIPSE
  5
11E
330
1F
100
AcDbEntity
  8
0
  6
Continuous
 62
     7
370
    25
100
AcDbEllipse
 10
51.9450313118
 20
29.9938217777
 30
0.0
 11
8.5
 21
0.0
 31
0.0
210
0.0
220
0.0
230
1.0
 40
0.5773502692
 41
0.6109003736767352
 42
0.7667594407167094
  0
SPLINE
  5
11F
330
1F
100
AcDbEntity
  8
0
  6
Continuous
 62
     7
370
    25
100
AcDbSpline
210
0.0
220
0.0
230
1.0
 70
     8
 71
     3
 72
    10
 73
     6
 74
     0
 42
0.00000001
 43
0.00000001
 40
0.0
 40
0.0
 40
0.0
 40
0.0
 40
0.5000000000000001
 40
0.5000000000000001
 40
1.0
 40
1.0
 40
1.0
 40
1.0
 10
62.76730990653517
 20
30.13815934501594
 30
0.0
 10
62.97611983120144
 20
30.51690849240723
 30
0.0
 10
63.14665397094869
 20
30.89811376881853
 30
0.0
 10
63.38143977596761
 20
31.66734439000631
 30
0.0
 10
63.44503131179491
 20
32.05541209480464
 30
0.0
 10
63.44503131179491
 20
32.44756042177448
 30
0.0
  0
LINE
  5
120
330
1F
100
AcDbEntity
  8
0
  6
Continuous
 62
     7
370
    25
100
AcDbLine
 10
61.6156483207
 20
30.138159345
 30
0.0
 11
62.7673099065
 21
30.138159345
 31
0.0
  0
SPLINE
  5
121
330
1F
100
AcDbEntity
  8
0
  6
Continuous
 62
     7
370
    25
100
AcDbSpline
210
0.0
220
0.0
230
1.0
 70
     8
 71
     3
 72
    12
 73
     8
 74
     0
 42
0.00000001
 43
0.00000001
 40
0.0
 40
0.0
 40
0.0
 40
0.0
 40
0.2499999999999999
 40
0.2499999999999999
 40
0.5
 40
0.5
 40
1.0
 40
1.0
 40
1.0
 40
1.0
 10
40.4450313117949
 20
47.16999228610994
 30
0.0
 10
40.44503131179491
 20
47.36499576611573
 30
0.0
 10
40.46077764181687
 20
47.56153042514013
 30
0.0
 10
40.52222266640229
 20
47.95095011274569
 30
0.0
 10
40.56781142565602
 20
48.14443480580595
 30
0.0
 10
40.74426242791262
 20
48.72161840456155
 30
0.0
 10
40.91472012987611
 20
49.10205418634452
 30
0.0
 10
41.12275271705496
 20
49.47939336286845
 30
0.0
  0
LINE
  5
122
330
1F
100
AcDbEntity
  8
0
  6
Continuous
 62
     7
370
    25
100
AcDbLine
 10
45.2673099065
 20
49.4793933629
 30
0.0
 11
41.1227527171
 21
49.4793933629
 31
0.0
  0
SPLINE
  5
123
330
1F
100
AcDbEntity
  8
0
  6
Continuous
 62
     7
370
    25
100
AcDbSpline
210
0.0
220
0.0
230
1.0
 70
     8
 71
     3
 72
    10
 73
     6
 74
     0
 42
0.00000001
 43
0.00000001
 40
0.0
 40
0.0
 40
0.0
 40
0.0
 40
0.5
 40
0.5
 40
1.0
 40
1.0
 40
1.0
 40
1.0
 10
45.2673099065347
 20
49.47939336286846
 30
0.0
 10
45.47573065935213
 20
49.1013501134663
 30
0.0
 10
45.64619449462956
 20
48.72058060867045
 30
0.0
 10
45.88117692956794
 20
47.95143208311291
 30
0.0
 10
45.94503131179491
 20
47.56300535493767
 30
0.0
 10
45.94503131179491
 20
47.16999228610994
 30
0.0
  0
LINE
  5
124
330
1F
100
AcDbEntity
  8
0
  6
Continuous
 62
     7
370
    25
100
AcDbLine
 10
61.6156483207
 20
27.8087763539
 30
0.0
 11
61.6156483207
 21
30.138159345
 31
0.0
  0
LINE
  5
125
330
1F
100
AcDbEntity
  8
0
  6
Continuous
 62
     7
370
    25
100
AcDbLine
 10
56.9968461672
 20
27.8087763539
 30
0.0
 11
61.6156483207
 21
27.8087763539
 31
0.0
  0
LINE
  5
126
330
1F
100
AcDbEntity
  8
0
  6
Continuous
 62
     7
370
    25
100
AcDbLine
 10
42.2744143029
 20
30.138159345
 30
0.0
 11
42.2744143029
 21
27.8087763539
 31
0.0
  0
LINE
  5
127
330
1F
100
AcDbEntity
  8
0
  6
Continuous
 62
     7
370
    25
100
AcDbLine
 10
42.2744143029
 20
27.8087763539
 30
0.0
 11
46.8932164564
 21
27.8087763539
 31
0.0
  0
LINE
  5
128
330
1F
100
AcDbEntity
  8
0
  6
Continuous
 62
     7
370
    25
100
AcDbLine
 10
47.9450313118
 20
35.8087763539
 30
0.0
 11
45.9450313118
 21
33.8087763539
 31
0.0
  0
LINE
  5
129
330
1F
100
AcDbEntity
  8
0
  6
Continuous
 62
     7
370
    25
100
AcDbLine
 10
44.9824102391
 20
32.8087763539
 30
0.0
 11
47.9450313118
 21
32.8087763539
 31
0.0
  0
LINE
  5
12A
330
1F
100
AcDbEntity
  8
0
  6
Continuous
 62
     7
370
    25
100
AcDbLine
 10
57.9450313118
 20
33.8087763539
 30
0.0
 11
55.9450313118
 21
35.8087763539
 31
0.0
  0
LINE
  5
12B
330
1F
100
AcDbEntity
  8
0
  6
Continuous
 62
     7
370
    25
100
AcDbLine
 10
55.9450313118
 20
32.8087763539
 30
0.0
 11
58.9076523845
 21
32.8087763539
 31
0.0
  0
LINE
  5
12C
330
1F
100
AcDbEntity
  8
0
  6
Continuous
 62
     7
370
    25
100
AcDbLine
 10
45.9450313118
 20
47.7432308322
 30
0.0
 11
45.9450313118
 21
47.1699922861
 31
0.0
  0
SPLINE
  5
12D
330
1F
100
AcDbEntity
  8
0
  6
Continuous
 62
     7
370
    25
100
AcDbSpline
210
0.0
220
0.0
230
1.0
 70
     8
 71
     3
 72
    32
 73
    28
 74
     0
 42
0.00000001
 43
0.00000001
 40
0.0
 40
0.0
 40
0.0
 40
0.0
 40
0.0625000000000001
 40
0.0625000000000001
 40
0.1250000000000001
 40
0.1250000000000001
 40
0.1875000000000002
 40
0.1875000000000002
 40
0.2500000000000003
 40
0.2500000000000003
 40
0.3750000000000003
 40
0.3750000000000003
 40
0.4375000000000003
 40
0.4375000000000003
 40
0.5000000000000002
 40
0.5000000000000002
 40
0.5625000000000002
 40
0.5625000000000002
 40
0.6250000000000001
 40
0.6250000000000001
 40
0.7500000000000001
 40
0.7500000000000001
 40
0.8750000000000002
 40
0.8750000000000002
 40
0.9375000000000001
 40
0.9375000000000001
 40
1.0
 40
1.0
 40
1.0
 40
1.0
 10
57.94503131178643
 20
47.74323083216285
 30
0.0
 10
57.78817497586954
 20
47.64827385426716
 30
0.0
 10
57.61517654171391
 20
47.54552067964197
 30
0.0
 10
57.2384719550881
 20
47.32880947799371
 30
0.0
 10
57.03561917463141
 20
47.2153907675037
 30
0.0
 10
56.60963791182882
 20
46.98730063080553
 30
0.0
 10
56.3854599515408
 20
46.87199374835367
 30
0.0
 10
55.91410885796441
 20
46.6436706459789
 30
0.0
 10
55.66542334259932
 20
46.53002062984515
 30
0.0
 10
54.89485085790767
 20
46.20695659861111
 30
0.0
 10
54.3492134478255
 20
46.0140580744476
 30
0.0
 10
53.46643369932917
 20
45.80246414917389
 30
0.0
 10
53.16779459945631
 20
45.74682176305616
 30
0.0
 10
52.56129299874055
 20
45.67115369369232
 30
0.0
 10
52.25114576007463
 20
45.651180447916
 30
0.0
 10
51.63106027139085
 20
45.65151421416925
 30
0.0
 10
51.32448923392281
 20
45.67151317949203
 30
0.0
 10
50.71783448661463
 20
45.74755196568851
 30
0.0
 10
50.41546142198932
 20
45.80420506582005
 30
0.0
 10
49.53882511923636
 20
46.01498361586589
 30
0.0
 10
48.99077098725945
 20
46.20852944643765
 30
0.0
 10
47.96027372001617
 20
46.64114873971344
 30
0.0
 10
47.49271368473671
 20
46.87362538440387
 30
0.0
 10
46.85450008110877
 20
47.21536338532292
 30
0.0
 10
46.65129034291894
 20
47.3289809007513
 30
0.0
 10
46.2749534165245
 20
47.54548329310754
 30
0.0
 10
46.10197480803301
 20
47.64822108955193
 30
0.0
 10
45.94503131179491
 20
47.74323083216801
 30
0.0
  0
LINE
  5
12E
330
1F
100
AcDbEntity
  8
0
  6
Continuous
 62
     7
370
    25
100
AcDbLine
 10
57.9450313118
 20
47.7432308322
 30
0.0
 11
57.9450313118
 21
47.1699922861
 31
0.0
  0
LINE
  5
12F
330
1F
100
AcDbEntity
  8
0
  6
Continuous
 62
     7
370
    25
100
AcDbLine
 10
45.4890691976
 20
18.3975640077
 30
0.0
 11
58.400993426
 21
18.3975640077
 31
0.0
  0
SPLINE
  5
130
330
1F
100
AcDbEntity
  8
0
  6
Continuous
 62
     7
370
    25
100
AcDbSpline
210
0.0
220
0.0
230
1.0
 70
     8
 71
     3
 72
    11
 73
     7
 74
     0
 42
0.00000001
 43
0.00000001
 40
0.0
 40
0.0
 40
0.0
 40
0.0
 40
0.0860363962994498
 40
0.3126240132839471
 40
0.544481681962628
 40
1.0
 40
1.0
 40
1.0
 40
1.0
 10
58.11837849926193
 20
48.60167794764332
 30
0.0
 10
58.11956731628203
 20
48.60569157318167
 30
0.0
 10
58.1238870317033
 20
48.62027558387467
 30
0.0
 10
58.09270752338356
 20
48.5137193597724
 30
0.0
 10
58.01027991447571
 20
48.23317142791345
 30
0.0
 10
57.97103715820068
 20
47.93850428412158
 30
0.0
 10
57.94503131179491
 20
47.74323083216088
 30
0.0
  0
SPLINE
  5
131
330
1F
100
AcDbEntity
  8
0
  6
Continuous
 62
     7
370
    25
100
AcDbSpline
210
0.0
220
0.0
230
1.0
 70
     8
 71
     3
 72
    11
 73
     7
 74
     0
 42
0.00000001
 43
0.00000001
 40
0.0
 40
0.0
 40
0.0
 40
0.0
 40
0.3176280345212448
 40
0.6359431846183975
 40
0.8656666927926656
 40
1.0
 40
1.0
 40
1.0
 40
1.0
 10
45.94503131179491
 20
47.74323083216792
 30
0.0
 10
45.93139258206859
 20
47.87449536890479
 30
0.0
 10
45.90408561834487
 20
48.13730840316901
 30
0.0
 10
45.8160805948558
 20
48.44895420996664
 30
0.0
 10
45.77151945171652
 20
48.60270334951768
 30
0.0
 10
45.77186855431996
 20
48.60118862788046
 30
0.0
 10
45.7719973696732
 20
48.60062971081469
 30
0.0
  0
LINE
  5
132
330
1F
100
AcDbEntity
  8
0
  6
Continuous
 62
     7
370
    25
100
AcDbLine
 10
57.1950313118
 20
16.3087763539
 30
0.0
 11
46.6950313118
 21
16.3087763539
 31
0.0
  0
SPLINE
  5
133
330
1F
100
AcDbEntity
  8
0
  6
Continuous
 62
     7
370
    25
100
AcDbSpline
210
0.0
220
0.0
230
1.0
 70
     8
 71
     3
 72
    10
 73
     6
 74
     0
 42
0.00000001
 43
0.00000001
 40
0.0
 40
0.0
 40
0.0
 40
0.0
 40
0.1601790552921523
 40
0.7197651707804853
 40
1.0
 40
1.0
 40
1.0
 40
1.0
 10
45.2330804734178
 20
49.54167164161819
 30
0.0
 10
45.23231768332456
 20
49.54306386964456
 30
0.0
 10
45.22889008325082
 20
49.54931985137289
 30
0.0
 10
45.2433975480491
 20
49.52281258664497
 30
0.0
 10
45.26132710116694
 20
49.49025673149981
 30
0.0
 10
45.2673099065347
 20
49.47939336286846
 30
0.0
  0
SPLINE
  5
134
330
1F
100
AcDbEntity
  8
0
  6
Continuous
 62
     7
370
    25
100
AcDbSpline
210
0.0
220
0.0
230
1.0
 70
     8
 71
     3
 72
     9
 73
     5
 74
     0
 42
0.00000001
 43
0.00000001
 40
0.0
 40
0.0
 40
0.0
 40
0.0
 40
0.5789479223839301
 40
1.0
 40
1.0
 40
1.0
 40
1.0
 10
62.76730990653471
 20
30.13815934501597
 30
0.0
 10
62.75496901622045
 20
30.1157179778236
 30
0.0
 10
62.73365295334654
 20
30.07695565339905
 30
0.0
 10
62.73324477943201
 20
30.07618975053969
 30
0.0
 10
62.73307291695726
 20
30.0758672655495
 30
0.0
  0
LINE
  5
135
330
1F
100
AcDbEntity
  8
0
  6
Continuous
 62
     7
370
    25
100
AcDbLine
 10
63.4450313118
 20
31.3087763539
 30
0.0
 11
63.4450313118
 21
32.4475604218
 31
0.0
  0
SPLINE
  5
136
330
1F
100
AcDbEntity
  8
0
  6
Continuous
 62
     7
370
    25
100
AcDbSpline
210
0.0
220
0.0
230
1.0
 70
     8
 71
     3
 72
    10
 73
     6
 74
     0
 42
0.00000001
 43
0.00000001
 40
0.0
 40
0.0
 40
0.0
 40
0.0
 40
0.1593935212994522
 40
0.7189934545690309
 40
1.0
 40
1.0
 40
1.0
 40
1.0
 10
41.15698970663255
 20
49.5416854423349
 30
0.0
 10
41.15775123362999
 20
49.54307536116151
 30
0.0
 10
41.16118633514592
 20
49.54934501710845
 30
0.0
 10
41.14669171267943
 20
49.52286107528465
 30
0.0
 10
41.12875034218671
 20
49.49028367123778
 30
0.0
 10
41.12275271705509
 20
49.47939336286844
 30
0.0
  0
LINE
  5
137
330
1F
100
AcDbEntity
  8
0
  6
Continuous
 62
     7
370
    25
100
AcDbLine
 10
40.4450313118
 20
47.1699922861
 30
0.0
 11
40.4450313118
 21
48.3087763539
 31
0.0
  0
SPLINE
  5
138
330
1F
100
AcDbEntity
  8
0
  6
Continuous
 62
     7
370
    25
100
AcDbSpline
210
0.0
220
0.0
230
1.0
 70
     8
 71
     3
 72
     9
 73
     5
 74
     0
 42
0.00000001
 43
0.00000001
 40
0.0
 40
0.0
 40
0.0
 40
0.0
 40
0.5797912171256431
 40
1.0
 40
1.0
 40
1.0
 40
1.0
 10
58.62275271705509
 20
49.47939336286844
 30
0.0
 10
58.63511132040157
 20
49.50186701110957
 30
0.0
 10
58.65642693019597
 20
49.54062863353039
 30
0.0
 10
58.65681787269875
 20
49.5413630382886
 30
0.0
 10
58.65698215017201
 20
49.54167164161819
 30
0.0
  0
SPLINE
  5
139
330
1F
100
AcDbEntity
  8
0
  6
Continuous
 62
     7
370
    25
100
AcDbSpline
210
0.0
220
0.0
230
1.0
 70
     8
 71
     3
 72
    10
 73
     6
 74
     0
 42
0.00000001
 43
0.00000001
 40
0.0
 40
0.0
 40
0.0
 40
0.0
 40
0.1593935212994524
 40
0.7189934545690356
 40
1.0
 40
1.0
 40
1.0
 40
1.0
 10
62.73307291695726
 20
49.54168544233491
 30
0.0
 10
62.73231138995981
 20
49.54307536116151
 30
0.0
 10
62.72887628844389
 20
49.54934501710845
 30
0.0
 10
62.74337091091039
 20
49.52286107528466
 30
0.0
 10
62.76131228140309
 20
49.49028367123778
 30
0.0
 10
62.76730990653471
 20
49.47939336286844
 30
0.0
  0
LINE
  5
13A
330
1F
100
AcDbEntity
  8
0
  6
Continuous
 62
     7
370
    25
100
AcDbLine
 10
63.4450313118
 20
47.1699922861
 30
0.0
 11
63.4450313118
 21
48.3087763539
 31
0.0
  0
SPLINE
  5
13B
330
1F
100
AcDbEntity
  8
0
  6
Continuous
 62
     7
370
    25
100
AcDbSpline
210
0.0
220
0.0
230
1.0
 70
     8
 71
     3
 72
     9
 73
     5
 74
     0
 42
0.00000001
 43
0.00000001
 40
0.0
 40
0.0
 40
0.0
 40
0.0
 40
0.5789479223839474
 40
0.9999999999999999
 40
0.9999999999999999
 40
0.9999999999999999
 40
0.9999999999999999
 10
41.12275271705509
 20
30.13815934501596
 30
0.0
 10
41.13509360736936
 20
30.1157179778236
 30
0.0
 10
41.15640967024327
 20
30.07695565339904
 30
0.0
 10
41.15681784415781
 20
30.07618975053968
 30
0.0
 10
41.15698970663255
 20
30.0758672655495
 30
0.0
  0
LINE
  5
13C
330
1F
100
AcDbEntity
  8
0
  6
Continuous
 62
     7
370
    25
100
AcDbLine
 10
40.4450313118
 20
31.3087763539
 30
0.0
 11
40.4450313118
 21
32.4475604218
 31
0.0
  0
LINE
  5
13D
330
1F
100
AcDbEntity
  8
0
  6
Continuous
 62
     7
370
    25
100
AcDbLine
 10
61.6826356188
 20
30.0711720469
 30
0.0
 11
61.6156483207
 21
30.138159345
 31
0.0
  0
LINE
  5
13E
330
1F
100
AcDbEntity
  8
0
  6
Continuous
 62
     7
370
    25
100
AcDbLine
 10
61.6826356188
 20
27.8087763539
 30
0.0
 11
61.6156483207
 21
27.8087763539
 31
0.0
  0
LINE
  5
13F
330
1F
100
AcDbEntity
  8
0
  6
Continuous
 62
     7
370
    25
100
AcDbLine
 10
42.2744143029
 20
30.138159345
 30
0.0
 11
42.2074270048
 21
30.0711720469
 31
0.0
  0
LINE
  5
140
330
1F
100
AcDbEntity
  8
0
  6
Continuous
 62
     7
370
    25
100
AcDbLine
 10
42.2744143029
 20
27.8087763539
 30
0.0
 11
42.2074270048
 21
27.8087763539
 31
0.0
  0
LINE
  5
141
330
1F
100
AcDbEntity
  8
0
  6
Continuous
 62
     7
370
    25
100
AcDbLine
 10
57.0374822444
 20
66.8087763539
 30
0.0
 11
46.8525803792
 21
66.8087763539
 31
0.0
  0
SPLINE
  5
142
330
1F
100
AcDbEntity
  8
0
  6
Continuous
 62
     7
370
    25
100
AcDbSpline
210
0.0
220
0.0
230
1.0
 70
     8
 71
     3
 72
    11
 73
     7
 74
     0
 42
0.00000001
 43
0.00000001
 40
0.0
 40
0.0
 40
0.0
 40
0.0
 40
0.2460416072901215
 40
0.4920717926348666
 40
0.7460790582811393
 40
1.0
 40
1.0
 40
1.0
 40
1.0
 10
58.90805852113228
 20
59.04195232965911
 30
0.0
 10
58.6584694024402
 20
59.65239489902668
 30
0.0
 10
58.15930275168689
 20
60.87325169929598
 30
0.0
 10
57.60612093790986
 20
62.79525330002882
 30
0.0
 10
57.19279164438047
 20
64.77455603786099
 30
0.0
 10
57.08924617842046
 20
66.13077974668205
 30
0.0
 10
57.03748224437223
 20
66.8087763539422
 30
0.0
  0
SPLINE
  5
143
330
1F
100
AcDbEntity
  8
0
  6
Continuous
 62
     7
370
    25
100
AcDbSpline
210
0.0
220
0.0
230
1.0
 70
     8
 71
     3
 72
    13
 73
     9
 74
     0
 42
0.00000001
 43
0.00000001
 40
0.0
 40
0.0
 40
0.0
 40
0.0
 40
0.0164940201989931
 40
0.1958803672654719
 40
0.3763143282056555
 40
0.5827472646165622
 40
0.8280062032403762
 40
1.0
 40
1.0
 40
1.0
 40
1.0
 10
59.9450312556894
 20
57.30877618887048
 30
0.0
 10
59.94492663774275
 20
57.30891346417202
 30
0.0
 10
59.94368421160503
 20
57.31054372387572
 30
0.0
 10
59.89450116909497
 20
57.37607548507959
 30
0.0
 10
59.72142833622217
 20
57.61462210761723
 30
0.0
 10
59.45600112313079
 20
58.00946523490694
 30
0.0
 10
59.15949339560493
 20
58.50261074456921
 30
0.0
 10
58.98144926055853
 20
58.88452517156861
 30
0.0
 10
58.90805852113228
 20
59.04195232965912
 30
0.0
  0
LWPOLYLINE
  5
144
330
1F
100
AcDbEntity
  8
0
  6
Continuous
 62
     7
370
    25
100
AcDbPolyline
 90
       29
 70
   128
 43
0.0
 10
59.9450312557
 20
57.3087761889
 10
59.8946051406
 20
57.3087761899
 10
59.7442274483
 20
57.308776193
 10
59.4957889077
 20
57.3087761981
 10
59.152413186
 20
57.3087762052
 10
58.7184176147
 20
57.3087762142
 10
58.1992589065
 20
57.3087762249
 10
57.6014645476
 20
57.3087762372
 10
56.9325507256
 20
57.308776251
 10
56.2009278273
 20
57.3087762661
 10
55.4157946933
 20
57.3087762823
 10
54.5870229593
 20
57.3087762994
 10
53.7250329373
 20
57.3087763172
 10
52.8406626
 20
57.3087763354
 10
51.9450313118
 20
57.3087763539
 10
51.0494000236
 20
57.3087763724
 10
50.1650296863
 20
57.3087763906
 10
49.3030396643
 20
57.3087764084
 10
48.4742679302
 20
57.3087764255
 10
47.6891347963
 20
57.3087764417
 10
46.957511898
 20
57.3087764568
 10
46.288598076
 20
57.3087764706
 10
45.690803717
 20
57.308776483
 10
45.1716450089
 20
57.3087764937
 10
44.7376494376
 20
57.3087765026
 10
44.3942737159
 20
57.3087765097
 10
44.1458351752
 20
57.3087765149
 10
43.995457483
 20
57.308776518
 10
43.9450313679
 20
57.3087761889
  0
SPLINE
  5
145
330
1F
100
AcDbEntity
  8
0
  6
Continuous
 62
     7
370
    25
100
AcDbSpline
210
0.0
220
0.0
230
1.0
 70
     8
 71
     3
 72
    12
 73
     8
 74
     0
 42
0.00000001
 43
0.00000001
 40
0.0
 40
0.0
 40
0.0
 40
0.0
 40
0.0816308004991864
 40
0.3246136178761986
 40
0.5946331315519718
 40
0.8003997370011067
 40
1.0
 40
1.0
 40
1.0
 40
1.0
 10
44.98200410245753
 20
59.04195232965911
 30
0.0
 10
44.94805768757089
 20
58.96669297544044
 30
0.0
 10
44.81306613434723
 20
58.66741609584898
 30
0.0
 10
44.53310941039369
 20
58.16309097601184
 30
0.0
 10
44.2143810681082
 20
57.67803130251609
 30
0.0
 10
43.98809328763768
 20
57.36586010900488
 30
0.0
 10
43.95923903317352
 20
57.32761021286874
 30
0.0
 10
43.9450313679005
 20
57.30877618887048
 30
0.0
  0
SPLINE
  5
146
330
1F
100
AcDbEntity
  8
0
  6
Continuous
 62
     7
370
    25
100
AcDbSpline
210
0.0
220
0.0
230
1.0
 70
     8
 71
     3
 72
    11
 73
     7
 74
     0
 42
0.00000001
 43
0.00000001
 40
0.0
 40
0.0
 40
0.0
 40
0.0
 40
0.2456902021794779
 40
0.49145723969932
 40
0.7457216020119218
 40
1.0
 40
1.0
 40
1.0
 40
1.0
 10
46.85258037921757
 20
66.8087763539422
 30
0.0
 10
46.80316330936036
 20
66.15273678250047
 30
0.0
 10
46.70431371531625
 20
64.84045247464373
 30
0.0
 10
46.30512305839015
 20
62.88114869168826
 30
0.0
 10
45.75437086511095
 20
60.93521914861925
 30
0.0
 10
45.23946442711256
 20
59.67305288115553
 30
0.0
 10
44.98200410245753
 20
59.04195232965911
 30
0.0
  0
LINE
  5
147
330
1F
100
AcDbEntity
  8
0
  6
Continuous
 62
     7
370
    25
100
AcDbLine
 10
58.9794717101
 20
50.3087763539
 30
0.0
 11
44.9105909135
 21
50.3087763539
 31
0.0
  0
LINE
  5
148
330
1F
100
AcDbEntity
  8
0
  6
Continuous
 62
     7
370
    25
100
AcDbLine
 10
51.9450313118
 20
68.8087763539
 30
0.0
 11
57.0401392952
 21
68.8087763539
 31
0.0
  0
LINE
  5
149
330
1F
100
AcDbEntity
  8
0
  6
Continuous
 62
     7
370
    25
100
AcDbLine
 10
46.8499233284
 20
68.8087763539
 30
0.0
 11
51.9450313118
 21
68.8087763539
 31
0.0
  0
LINE
  5
14A
330
1F
100
AcDbEntity
  8
0
  6
Continuous
 62
     7
370
    25
100
AcDbLine
 10
57.1546495424
 20
66.8087763539
 30
0.0
 11
57.0374822444
 21
66.8087763539
 31
0.0
  0
ARC
  5
14B
330
1F
100
AcDbEntity
  8
0
  6
Continuous
 62
     7
370
    25
100
AcDbCircle
 10
59.2192742657
 20
68.2185014164
 30
0.0
 40
2.500000000000013
100
AcDbArc
 50
214.3252481179
 51
328.221357821
  0
ARC
  5
14C
330
1F
100
AcDbEntity
  8
0
  6
Continuous
 62
     7
370
    25
100
AcDbCircle
 10
66.4450313118
 20
63.7420703479
 30
0.0
 40
5.999999999999996
100
AcDbArc
 50
115.1026742168
 51
148.221357821
  0
LINE
  5
14D
330
1F
100
AcDbEntity
  8
0
  6
Continuous
 62
     7
370
    25
100
AcDbLine
 10
63.8995811796
 20
69.1753643418
 30
0.0
 11
68.990481444
 21
69.1753643418
 31
0.0
  0
ARC
  5
14E
330
1F
100
AcDbEntity
  8
0
  6
Continuous
 62
     7
370
    25
100
AcDbCircle
 10
66.4450313118
 20
63.7420703479
 30
0.0
 40
6.00000000000002
100
AcDbArc
 50
308.4313932617
 51
64.8973257832
  0
LINE
  5
14F
330
1F
100
AcDbEntity
  8
0
  6
Continuous
 62
     7
370
    25
100
AcDbLine
 10
58.9080585211
 20
59.0419523297
 30
0.0
 11
70.174493822
 21
59.0419523297
 31
0.0
  0
LINE
  5
150
330
1F
100
AcDbEntity
  8
0
  6
Continuous
 62
     7
370
    25
100
AcDbLine
 10
33.7155688016
 20
59.0419523297
 30
0.0
 11
44.9820041025
 21
59.0419523297
 31
0.0
  0
ARC
  5
151
330
1F
100
AcDbEntity
  8
0
  6
Continuous
 62
     7
370
    25
100
AcDbCircle
 10
37.4450313118
 20
63.7420703479
 30
0.0
 40
6.000000000000012
100
AcDbArc
 50
115.1026742168
 51
231.5686067383
  0
LINE
  5
152
330
1F
100
AcDbEntity
  8
0
  6
Continuous
 62
     7
370
    25
100
AcDbLine
 10
34.8995811796
 20
69.1753643418
 30
0.0
 11
39.990481444
 21
69.1753643418
 31
0.0
  0
ARC
  5
153
330
1F
100
AcDbEntity
  8
0
  6
Continuous
 62
     7
370
    25
100
AcDbCircle
 10
37.4450313118
 20
63.7420703479
 30
0.0
 40
6.000000000000001
100
AcDbArc
 50
31.778642179
 51
64.8973257832
  0
ARC
  5
154
330
1F
100
AcDbEntity
  8
0
  6
Continuous
 62
     7
370
    25
100
AcDbCircle
 10
44.6707883578
 20
68.2185014164
 30
0.0
 40
2.500000000000008
100
AcDbArc
 50
211.778642179
 51
325.6747518821
  0
LINE
  5
155
330
1F
100
AcDbEntity
  8
0
  6
Continuous
 62
     7
370
    25
100
AcDbLine
 10
46.8525803792
 20
66.8087763539
 30
0.0
 11
46.7354130812
 21
66.8087763539
 31
0.0
  0
SPLINE
  5
156
330
1F
100
AcDbEntity
  8
0
  6
Continuous
 62
     7
370
    25
100
AcDbSpline
210
0.0
220
0.0
230
1.0
 70
     8
 71
     3
 72
    17
 73
    13
 74
     0
 42
0.00000001
 43
0.00000001
 40
0.0
 40
0.0
 40
0.0
 40
0.0
 40
0.0051037386011219
 40
0.0335545146957463
 40
0.0512404508406915
 40
0.0783256082042153
 40
0.1200097101225738
 40
0.184942210837869
 40
0.2894088209386605
 40
0.6174789247950602
 40
0.8356014748448779
 40
1.0
 40
1.0
 40
1.0
 40
1.0
 10
37.4450313117949
 20
70.30877635394219
 30
0.0
 10
37.44051749487199
 20
70.30876986171569
 30
0.0
 10
37.4108414185462
 20
70.30872717859125
 30
0.0
 10
37.36552250149047
 20
70.30793029865897
 30
0.0
 10
37.3007742241241
 20
70.30550794198102
 30
0.0
 10
37.22433837142253
 20
70.3011247168331
 30
0.0
 10
37.10619016247217
 20
70.29075928085719
 30
0.0
 10
36.91985425144416
 20
70.26557259271486
 30
0.0
 10
36.48215647127458
 20
70.17361915447938
 30
0.0
 10
35.91410908133086
 20
69.9409185740992
 30
0.0
 10
35.31868940956166
 20
69.54797998561318
 30
0.0
 10
35.02556089368884
 20
69.28736885261391
 30
0.0
 10
34.89958117959184
 20
69.17536434180066
 30
0.0
  0
SPLINE
  5
157
330
1F
100
AcDbEntity
  8
0
  6
Continuous
 62
     7
370
    25
100
AcDbSpline
210
0.0
220
0.0
230
1.0
 70
     8
 71
     3
 72
    17
 73
    13
 74
     0
 42
0.00000001
 43
0.00000001
 40
0.0
 40
0.0
 40
0.0
 40
0.0
 40
0.164398525155122
 40
0.3825210752049397
 40
0.7105911790613394
 40
0.8150577891621317
 40
0.8799902898774276
 40
0.9216743917957886
 40
0.9487595491592797
 40
0.9664454853042047
 40
0.9948962613988785
 40
1.0
 40
1.0
 40
1.0
 40
1.0
 10
39.99048144399796
 20
69.17536434180066
 30
0.0
 10
39.86450172990096
 20
69.28736885261391
 30
0.0
 10
39.57137321402815
 20
69.54797998561321
 30
0.0
 10
38.97595354225894
 20
69.9409185740992
 30
0.0
 10
38.40790615231522
 20
70.17361915447935
 30
0.0
 10
37.97020837214566
 20
70.26557259271488
 30
0.0
 10
37.78387246111762
 20
70.29075928085719
 30
0.0
 10
37.6657242521673
 20
70.30112471683309
 30
0.0
 10
37.58928839946578
 20
70.30550794198102
 30
0.0
 10
37.5245401220994
 20
70.30793029865899
 30
0.0
 10
37.47922120504369
 20
70.30872717859125
 30
0.0
 10
37.44954512871782
 20
70.30876986171569
 30
0.0
 10
37.4450313117949
 20
70.30877635394219
 30
0.0
  0
ARC
  5
158
330
1F
100
AcDbEntity
  8
0
  6
Continuous
 62
     7
370
    25
100
AcDbCircle
 10
66.1623065576
 20
70.4023571452
 30
0.0
 40
2.573992516658592
100
AcDbArc
 50
195.9542434294
 51
208.4693494853
  0
SPLINE
  5
159
330
1F
100
AcDbEntity
  8
0
  6
Continuous
 62
     7
370
    25
100
AcDbSpline
210
0.0
220
0.0
230
1.0
 70
     8
 71
     3
 72
    12
 73
     8
 74
     0
 42
0.00000001
 43
0.00000001
 40
0.0
 40
0.0
 40
0.0
 40
0.0
 40
0.1835541808817691
 40
0.3708656504822927
 40
0.8083330658171444
 40
0.9944363923102544
 40
0.9999999999999999
 40
0.9999999999999999
 40
0.9999999999999999
 40
0.9999999999999999
 10
63.68746033524159
 20
69.69484484736553
 30
0.0
 10
63.85010152269448
 20
69.7663533662501
 30
0.0
 10
64.17871310479067
 20
69.91083415793655
 30
0.0
 10
64.91774233635259
 20
70.14771057122358
 30
0.0
 10
65.67364238910994
 20
70.2837807907558
 30
0.0
 10
66.26090743236684
 20
70.30862961996203
 30
0.0
 10
66.43983742538296
 20
70.30877221477442
 30
0.0
 10
66.4450313117949
 20
70.30877635394219
 30
0.0
  0
SPLINE
  5
15A
330
1F
100
AcDbEntity
  8
0
  6
Continuous
 62
     7
370
    25
100
AcDbSpline
210
0.0
220
0.0
230
1.0
 70
     8
 71
     3
 72
    17
 73
    13
 74
     0
 42
0.00000001
 43
0.00000001
 40
0.0
 40
0.0
 40
0.0
 40
0.0
 40
0.0051037386011221
 40
0.0335545146957983
 40
0.0512404508407057
 40
0.0783256082042157
 40
0.1200097101225869
 40
0.1849422108378776
 40
0.2894088209386603
 40
0.6174789247950605
 40
0.835601474844878
 40
1.0
 40
1.0
 40
1.0
 40
1.0
 10
66.4450313117949
 20
70.30877635394219
 30
0.0
 10
66.440517494872
 20
70.30876986171569
 30
0.0
 10
66.41084141854614
 20
70.30872717859125
 30
0.0
 10
66.36552250149045
 20
70.30793029865897
 30
0.0
 10
66.30077422412404
 20
70.305507941981
 30
0.0
 10
66.22433837142252
 20
70.3011247168331
 30
0.0
 10
66.10619016247217
 20
70.29075928085717
 30
0.0
 10
65.91985425144414
 20
70.26557259271486
 30
0.0
 10
65.48215647127459
 20
70.17361915447937
 30
0.0
 10
64.91410908133086
 20
69.9409185740992
 30
0.0
 10
64.31868940956166
 20
69.5479799856132
 30
0.0
 10
64.02556089368885
 20
69.28736885261391
 30
0.0
 10
63.89958117959184
 20
69.17536434180066
 30
0.0
  0
SPLINE
  5
15B
330
1F
100
AcDbEntity
  8
0
  6
Continuous
 62
     7
370
    25
100
AcDbSpline
210
0.0
220
0.0
230
1.0
 70
     8
 71
     3
 72
    12
 73
     8
 74
     0
 42
0.00000001
 43
0.00000001
 40
0.0
 40
0.0
 40
0.0
 40
0.0
 40
0.0055634992845842
 40
0.1916631996124148
 40
0.6291220910311054
 40
0.8147446662968201
 40
0.9999999999999999
 40
0.9999999999999999
 40
0.9999999999999999
 40
0.9999999999999999
 10
37.4450313117949
 20
70.30877635394219
 30
0.0
 10
37.45022520003663
 20
70.30877221627615
 30
0.0
 10
37.62915525608911
 20
70.30862967319797
 30
0.0
 10
38.21639912177694
 20
70.28376346341209
 30
0.0
 10
38.97088524861555
 20
70.14810495937604
 30
0.0
 10
39.70964179690525
 20
69.91122540907978
 30
0.0
 10
40.03839063305143
 20
69.76692407243513
 30
0.0
 10
40.20260228834822
 20
69.69484484736553
 30
0.0
  0
ARC
  5
15C
330
1F
100
AcDbEntity
  8
0
  6
Continuous
 62
     7
370
    25
100
AcDbCircle
 10
37.727756066
 20
70.4023571452
 30
0.0
 40
2.573992516658745
100
AcDbArc
 50
331.5306505147
 51
344.0457565706
  0
ARC
  5
15D
330
1F
100
AcDbEntity
  8
0
  6
Continuous
 62
     7
370
    25
100
AcDbCircle
 10
66.727756066
 20
70.4023571452
 30
0.0
 40
2.573992516659652
100
AcDbArc
 50
331.5306505147
 51
344.0457565706
  0
SPLINE
  5
15E
330
1F
100
AcDbEntity
  8
0
  6
Continuous
 62
     7
370
    25
100
AcDbSpline
210
0.0
220
0.0
230
1.0
 70
     8
 71
     3
 72
    17
 73
    13
 74
     0
 42
0.00000001
 43
0.00000001
 40
0.0
 40
0.0
 40
0.0
 40
0.0
 40
0.1643985251551221
 40
0.3825210752049389
 40
0.7105911790613392
 40
0.8150577891621212
 40
0.8799902898774138
 40
0.9216743917957921
 40
0.9487595491592884
 40
0.9664454853042477
 40
0.9948962613988782
 40
1.0
 40
1.0
 40
1.0
 40
1.0
 10
68.99048144399796
 20
69.17536434180066
 30
0.0
 10
68.86450172990097
 20
69.28736885261391
 30
0.0
 10
68.57137321402814
 20
69.5479799856132
 30
0.0
 10
67.97595354225894
 20
69.9409185740992
 30
0.0
 10
67.40790615231523
 20
70.17361915447938
 30
0.0
 10
66.97020837214568
 20
70.26557259271485
 30
0.0
 10
66.78387246111765
 20
70.29075928085719
 30
0.0
 10
66.6657242521673
 20
70.3011247168331
 30
0.0
 10
66.58928839946574
 20
70.30550794198102
 30
0.0
 10
66.52454012209935
 20
70.30793029865899
 30
0.0
 10
66.47922120504394
 20
70.30872717859127
 30
0.0
 10
66.44954512871787
 20
70.30876986171569
 30
0.0
 10
66.4450313117949
 20
70.30877635394219
 30
0.0
  0
SPLINE
  5
15F
330
1F
100
AcDbEntity
  8
0
  6
Continuous
 62
     7
370
    25
100
AcDbSpline
210
0.0
220
0.0
230
1.0
 70
     8
 71
     3
 72
    12
 73
     8
 74
     0
 42
0.00000001
 43
0.00000001
 40
0.0
 40
0.0
 40
0.0
 40
0.0
 40
0.0055634992845846
 40
0.191663199612416
 40
0.6291220910311065
 40
0.8147446662968212
 40
0.9999999999999999
 40
0.9999999999999999
 40
0.9999999999999999
 40
0.9999999999999999
 10
66.4450313117949
 20
70.30877635394219
 30
0.0
 10
66.45022520003664
 20
70.30877221627615
 30
0.0
 10
66.62915525608909
 20
70.30862967319794
 30
0.0
 10
67.216399121777
 20
70.28376346341211
 30
0.0
 10
67.97088524861556
 20
70.14810495937604
 30
0.0
 10
68.70964179690525
 20
69.91122540907978
 30
0.0
 10
69.03839063305145
 20
69.76692407243513
 30
0.0
 10
69.20260228834823
 20
69.69484484736553
 30
0.0
  0
ARC
  5
160
330
1F
100
AcDbEntity
  8
0
  6
Continuous
 62
     7
370
    25
100
AcDbCircle
 10
37.1623065576
 20
70.4023571452
 30
0.0
 40
2.573992516658612
100
AcDbArc
 50
195.9542434294
 51
208.4693494853
  0
SPLINE
  5
161
330
1F
100
AcDbEntity
  8
0
  6
Continuous
 62
     7
370
    25
100
AcDbSpline
210
0.0
220
0.0
230
1.0
 70
     8
 71
     3
 72
    12
 73
     8
 74
     0
 42
0.00000001
 43
0.00000001
 40
0.0
 40
0.0
 40
0.0
 40
0.0
 40
0.1835541808817692
 40
0.370865650482293
 40
0.8083330658171449
 40
0.994436392310255
 40
1.0
 40
1.0
 40
1.0
 40
1.0
 10
34.68746033524158
 20
69.69484484736553
 30
0.0
 10
34.85010152269448
 20
69.76635336625012
 30
0.0
 10
35.17871310479067
 20
69.91083415793656
 30
0.0
 10
35.91774233635257
 20
70.14771057122354
 30
0.0
 10
36.67364238911001
 20
70.28378079075598
 30
0.0
 10
37.26090743236676
 20
70.30862961996188
 30
0.0
 10
37.43983742538296
 20
70.30877221477444
 30
0.0
 10
37.4450313117949
 20
70.30877635394219
 30
0.0
  0
ARC
  5
162
330
1F
100
AcDbEntity
  8
0
  6
Continuous
 62
     7
370
    25
100
AcDbCircle
 10
37.4450313118
 20
63.8087763539
 30
0.0
 40
6.499999999999999
100
AcDbArc
 50
31.778642179
 51
64.8973257832
  0
ARC
  5
163
330
1F
100
AcDbEntity
  8
0
  6
Continuous
 62
     7
370
    25
100
AcDbCircle
 10
42.0079742761
 20
68.0329989194
 30
0.0
 40
1.252349853183887
100
AcDbArc
 50
295.4209982681
 51
320.2340472941
  0
ARC
  5
164
330
1F
100
AcDbEntity
  8
0
  6
Continuous
 62
     7
370
    25
100
AcDbCircle
 10
32.6149880243
 20
59.7834049493
 30
0.0
 40
1.327038068258338
100
AcDbArc
 50
306.5236230253
 51
326.0321607238
  0
ARC
  5
165
330
1F
100
AcDbEntity
  8
0
  6
Continuous
 62
     7
370
    25
100
AcDbCircle
 10
37.4450313118
 20
63.8087763539
 30
0.0
 40
6.499999999999998
100
AcDbArc
 50
115.1026742168
 51
231.5686067383
  0
ARC
  5
166
330
1F
100
AcDbEntity
  8
0
  6
Continuous
 62
     7
370
    25
100
AcDbCircle
 10
66.4450313118
 20
63.8087763539
 30
0.0
 40
6.500000000000002
100
AcDbArc
 50
308.4313932617
 51
64.8973257832
  0
ARC
  5
167
330
1F
100
AcDbEntity
  8
0
  6
Continuous
 62
     7
370
    25
100
AcDbCircle
 10
71.2750745993
 20
59.7834049493
 30
0.0
 40
1.327038068258097
100
AcDbArc
 50
213.9678392762
 51
233.4763769747
  0
ARC
  5
168
330
1F
100
AcDbEntity
  8
0
  6
Continuous
 62
     7
370
    25
100
AcDbCircle
 10
61.8820883475
 20
68.0329989194
 30
0.0
 40
1.252349853183362
100
AcDbArc
 50
219.7659527059
 51
244.5790017319
  0
ARC
  5
169
330
1F
100
AcDbEntity
  8
0
  6
Continuous
 62
     7
370
    25
100
AcDbCircle
 10
66.4450313118
 20
63.8087763539
 30
0.0
 40
6.499999999999995
100
AcDbArc
 50
115.1026742168
 51
148.221357821
  0
ARC
  5
16A
330
1F
100
AcDbEntity
  8
0
  6
Continuous
 62
     7
370
    25
100
AcDbCircle
 10
59.2192742657
 20
68.2852074225
 30
0.0
 40
2.000000000000006
100
AcDbArc
 50
227.5796275115
 51
328.221357821
  0
SPLINE
  5
16B
330
1F
100
AcDbEntity
  8
0
  6
Continuous
 62
     7
370
    25
100
AcDbSpline
210
0.0
220
0.0
230
1.0
 70
    24
 71
     3
 72
    12
 73
     8
 74
     0
 42
0.00000001
 43
0.00000001
 40
0.0
 40
0.0
 40
0.0
 40
0.0
 40
0.2571943124574416
 40
0.524550343975796
 40
0.7385170215182983
 40
0.8882338470637771
 40
1.0
 40
1.0
 40
1.0
 40
1.0
 10
57.15464954240138
 20
66.80877635394219
 30
0.0
 10
57.23934781992251
 20
66.80877635394219
 30
0.0
 10
57.41209079461492
 20
66.80877635394219
 30
0.0
 10
57.63131582337977
 20
66.8087763539422
 30
0.0
 10
57.78069559875913
 20
66.80877635394219
 30
0.0
 10
57.85809211535319
 20
66.80877635394219
 30
0.0
 10
57.86653547451702
 20
66.80877635394219
 30
0.0
 10
57.87014443513495
 20
66.80877635394219
 30
0.0
  0
ARC
  5
16C
330
1F
100
AcDbEntity
  8
0
  6
Continuous
 62
     7
370
    25
100
AcDbCircle
 10
44.6707883578
 20
68.2852074225
 30
0.0
 40
2.000000000000001
100
AcDbArc
 50
211.778642179
 51
312.4203724885
  0
SPLINE
  5
16D
330
1F
100
AcDbEntity
  8
0
  6
Continuous
 62
     7
370
    25
100
AcDbSpline
210
0.0
220
0.0
230
1.0
 70
    24
 71
     3
 72
    12
 73
     8
 74
     0
 42
0.00000001
 43
0.00000001
 40
0.0
 40
0.0
 40
0.0
 40
0.0
 40
0.144300502635625
 40
0.2873275205918761
 40
0.5201185386439748
 40
0.7602843466484799
 40
1.0
 40
1.0
 40
1.0
 40
1.0
 10
46.01991818845486
 20
66.80877635394219
 30
0.0
 10
46.02590244847936
 20
66.8087763539422
 30
0.0
 10
46.03781815607573
 20
66.8087763539422
 30
0.0
 10
46.1312033782721
 20
66.80877635394219
 30
0.0
 10
46.28396132167378
 20
66.80877635394219
 30
0.0
 10
46.49842723686204
 20
66.80877635394219
 30
0.0
 10
46.65646721641679
 20
66.80877635394219
 30
0.0
 10
46.73541308118843
 20
66.80877635394219
 30
0.0
  0
SPLINE
  5
16E
330
1F
100
AcDbEntity
  8
0
  6
Continuous
 62
     7
370
    25
100
AcDbSpline
210
0.0
220
0.0
230
1.0
 70
     8
 71
     3
 72
    16
 73
    12
 74
     0
 42
0.00000001
 43
0.00000001
 40
0.0
 40
0.0
 40
0.0
 40
0.0
 40
0.0093770372722067
 40
0.1449784074793553
 40
0.2782522792466382
 40
0.4010913490990482
 40
0.5131542856948399
 40
0.6266888454485823
 40
0.7537408321063427
 40
0.8891748694388529
 40
1.0
 40
1.0
 40
1.0
 40
1.0
 10
40.96756373571991
 20
58.34601466022016
 30
0.0
 10
40.97939147274759
 20
58.3535294887101
 30
0.0
 10
41.1622601580881
 20
58.46971627941227
 30
0.0
 10
41.56737839420573
 20
58.64015105841985
 30
0.0
 10
42.18518497850553
 20
58.69110223531148
 30
0.0
 10
42.75234350350517
 20
58.5651067754855
 30
0.0
 10
43.2264917959232
 20
58.31025626828855
 30
0.0
 10
43.59772307169942
 20
57.9634001287716
 30
0.0
 10
43.83262874912906
 20
57.59990530928388
 30
0.0
 10
43.9313076231721
 20
57.35123542373829
 30
0.0
 10
43.94077204928051
 20
57.32195389023711
 30
0.0
 10
43.9450313679005
 20
57.30877618887048
 30
0.0
  0
SPLINE
  5
16F
330
1F
100
AcDbEntity
  8
0
  6
Continuous
 62
     7
370
    25
100
AcDbSpline
210
0.0
220
0.0
230
1.0
 70
     8
 71
     3
 72
    15
 73
    11
 74
     0
 42
0.00000001
 43
0.00000001
 40
0.0
 40
0.0
 40
0.0
 40
0.0
 40
0.1525119975281636
 40
0.3103908680493853
 40
0.5397217434700959
 40
0.7785238912153802
 40
0.9076867233570571
 40
0.9610458274988164
 40
0.9967059666277488
 40
1.0
 40
1.0
 40
1.0
 40
1.0
 10
33.71556880160983
 20
59.04195232965911
 30
0.0
 10
33.8841476452217
 20
58.87451641216919
 30
0.0
 10
34.22723759520277
 20
58.53375253382091
 30
0.0
 10
34.87606911091224
 20
58.05491834980196
 30
0.0
 10
35.66149790281742
 20
57.63571927980369
 30
0.0
 10
36.43455926017082
 20
57.40281599358537
 30
0.0
 10
36.98406102441935
 20
57.32736970715434
 30
0.0
 10
37.26914388754291
 20
57.31108487456715
 30
0.0
 10
37.38980888754752
 20
57.3088279491453
 30
0.0
 10
37.44072569680826
 20
57.30878037674784
 30
0.0
 10
37.4450313117949
 20
57.3087763539422
 30
0.0
  0
SPLINE
  5
170
330
1F
100
AcDbEntity
  8
0
  6
Continuous
 62
     7
370
    25
100
AcDbSpline
210
0.0
220
0.0
230
1.0
 70
     8
 71
     3
 72
    12
 73
     8
 74
     0
 42
0.00000001
 43
0.00000001
 40
0.0
 40
0.0
 40
0.0
 40
0.0
 40
0.0039142694629097
 40
0.2613995162853428
 40
0.5232483696209407
 40
0.758964717915055
 40
1.0
 40
1.0
 40
1.0
 40
1.0
 10
37.4450313117949
 20
57.3087763539422
 30
0.0
 10
37.44973144259156
 20
57.30877976019703
 30
0.0
 10
37.76361170259079
 20
57.30900723389889
 30
0.0
 10
38.3927308511323
 20
57.35477108905631
 30
0.0
 10
39.29215343162259
 20
57.55605138488136
 30
0.0
 10
40.16001413710193
 20
57.87285311074019
 30
0.0
 10
40.69638583888102
 20
58.18712540552595
 30
0.0
 10
40.96756373571991
 20
58.34601466022016
 30
0.0
  0
SPLINE
  5
171
330
1F
100
AcDbEntity
  8
0
  6
Continuous
 62
     7
370
    25
100
AcDbSpline
210
0.0
220
0.0
230
1.0
 70
     8
 71
     3
 72
    16
 73
    12
 74
     0
 42
0.00000001
 43
0.00000001
 40
0.0
 40
0.0
 40
0.0
 40
0.0
 40
0.0400879241033624
 40
0.1620524644868242
 40
0.2736894189461807
 40
0.3878458116547636
 40
0.5157289207825608
 40
0.651286669717973
 40
0.784517668940776
 40
0.9073172229945056
 40
1.0
 40
1.0
 40
1.0
 40
1.0
 10
59.9450312556894
 20
57.30877618887048
 30
0.0
 10
59.94565427035633
 20
57.31057745635625
 30
0.0
 10
59.94817276101018
 20
57.31785894677505
 30
0.0
 10
59.98369801993309
 20
57.42295100345811
 30
0.0
 10
60.10599979318165
 20
57.68381900724479
 30
0.0
 10
60.35359428287353
 20
58.03479100559791
 30
0.0
 10
60.77887912951527
 20
58.39740240541776
 30
0.0
 10
61.35441898059214
 20
58.64038959853151
 30
0.0
 10
61.97119490546236
 20
58.68991723640572
 30
0.0
 10
62.51386633961689
 20
58.5754271147427
 30
0.0
 10
62.799599836823
 20
58.41501203470663
 30
0.0
 10
62.9224988878699
 20
58.3460146602202
 30
0.0
  0
SPLINE
  5
172
330
1F
100
AcDbEntity
  8
0
  6
Continuous
 62
     7
370
    25
100
AcDbSpline
210
0.0
220
0.0
230
1.0
 70
     8
 71
     3
 72
    15
 73
    11
 74
     0
 42
0.00000001
 43
0.00000001
 40
0.0
 40
0.0
 40
0.0
 40
0.0
 40
0.0032940745595593
 40
0.0389546595689614
 40
0.0923144308921413
 40
0.2214788780354806
 40
0.4512478393974725
 40
0.6896098766067238
 40
0.8424208092306287
 40
0.9999999999999999
 40
0.9999999999999999
 40
0.9999999999999999
 40
0.9999999999999999
 10
66.4450313117949
 20
57.3087763539422
 30
0.0
 10
66.44933692652496
 20
57.30878037662195
 30
0.0
 10
66.50025373275136
 20
57.30882794753074
 30
0.0
 10
66.62091898067267
 20
57.31108499458358
 30
0.0
 10
66.90599941945197
 20
57.3273686377573
 30
0.0
 10
67.44374688852263
 20
57.40121193637807
 30
0.0
 10
68.2167177849168
 20
57.63090832840664
 30
0.0
 10
68.99683768354816
 20
58.04358574159233
 30
0.0
 10
69.65675971640034
 20
58.52869772107255
 30
0.0
 10
70.00015734537376
 20
58.86912423296128
 30
0.0
 10
70.17449382198
 20
59.04195232965911
 30
0.0
  0
SPLINE
  5
173
330
1F
100
AcDbEntity
  8
0
  6
Continuous
 62
     7
370
    25
100
AcDbSpline
210
0.0
220
0.0
230
1.0
 70
     8
 71
     3
 72
    12
 73
     8
 74
     0
 42
0.00000001
 43
0.00000001
 40
0.0
 40
0.0
 40
0.0
 40
0.0
 40
0.2353653050919987
 40
0.4767533333124098
 40
0.7341407436541076
 40
0.9960857492732753
 40
1.0
 40
1.0
 40
1.0
 40
1.0
 10
62.9224988878699
 20
58.3460146602202
 30
0.0
 10
63.18719740556502
 20
58.19060795201639
 30
0.0
 10
63.72336776671772
 20
57.87581785954156
 30
0.0
 10
64.58594027160586
 20
57.55946954613249
 30
0.0
 10
65.49192322685306
 20
57.35555343454132
 30
0.0
 10
66.12109437253582
 20
57.30901110277715
 30
0.0
 10
66.44033118236536
 20
57.30877976000608
 30
0.0
 10
66.4450313117949
 20
57.3087763539422
 30
0.0
  0
SPLINE
  5
174
330
1F
100
AcDbEntity
  8
0
  6
Continuous
 62
     7
370
    25
100
AcDbSpline
210
0.0
220
0.0
230
1.0
 70
     8
 71
     3
 72
    14
 73
    10
 74
     0
 42
0.00000001
 43
0.00000001
 40
0.0
 40
0.0
 40
0.0
 40
0.0
 40
0.1525945052627499
 40
0.3054077645105583
 40
0.5406281452054325
 40
0.7761410232968943
 40
0.9796791864300268
 40
0.9965136875876045
 40
0.9999999999999999
 40
0.9999999999999999
 40
0.9999999999999999
 40
0.9999999999999999
 10
70.4852823644954
 20
58.7169818342122
 30
0.0
 10
70.2972978430961
 20
58.57742469795983
 30
0.0
 10
69.92105931246034
 20
58.29811036137253
 30
0.0
 10
69.212174033452
 20
57.90720640953249
 30
0.0
 10
68.36595884331956
 20
57.571457051509
 30
0.0
 10
67.43034541678084
 20
57.36156778466218
 30
0.0
 10
66.79174361903898
 20
57.31126213620383
 30
0.0
 10
66.47836054444579
 20
57.30880028948072
 30
0.0
 10
66.44991204026135
 20
57.30877985905933
 30
0.0
 10
66.4450313117949
 20
57.3087763539422
 30
0.0
  0
SPLINE
  5
175
330
1F
100
AcDbEntity
  8
0
  6
Continuous
 62
     7
370
    25
100
AcDbSpline
210
0.0
220
0.0
230
1.0
 70
     8
 71
     3
 72
    14
 73
    10
 74
     0
 42
0.00000001
 43
0.00000001
 40
0.0
 40
0.0
 40
0.0
 40
0.0
 40
0.0034863124123955
 40
0.0203208135699722
 40
0.2238589767031064
 40
0.4593718547945684
 40
0.6945922354894416
 40
0.8474054947372496
 40
0.9999999999999999
 40
0.9999999999999999
 40
0.9999999999999999
 40
0.9999999999999999
 10
37.4450313117949
 20
57.3087763539422
 30
0.0
 10
37.44015058332846
 20
57.30877985905933
 30
0.0
 10
37.41170207914401
 20
57.30880028948073
 30
0.0
 10
37.09831900455084
 20
57.31126213620385
 30
0.0
 10
36.45971720680896
 20
57.36156778466217
 30
0.0
 10
35.52410378027027
 20
57.571457051509
 30
0.0
 10
34.6778885901378
 20
57.9072064095325
 30
0.0
 10
33.96900331112948
 20
58.29811036137253
 30
0.0
 10
33.59276478049371
 20
58.57742469795982
 30
0.0
 10
33.40478025909441
 20
58.7169818342122
 30
0.0
  0
ARC
  5
176
330
1F
100
AcDbEntity
  8
0
  6
Continuous
 62
     7
370
    25
100
AcDbCircle
 10
49.7708565645
 20
64.75260139
 30
0.0
 40
4.408657033480292
100
AcDbArc
 50
83.0838156236
 51
91.2490959636
  0
SPLINE
  5
177
330
1F
100
AcDbEntity
  8
0
  6
Continuous
 62
     7
370
    25
100
AcDbSpline
210
0.0
220
0.0
230
1.0
 70
     8
 71
     3
 72
    15
 73
    11
 74
     0
 42
0.00000001
 43
0.00000001
 40
0.0
 40
0.0
 40
0.0
 40
0.0
 40
0.1246337044934918
 40
0.2519069547896618
 40
0.3765407248366567
 40
0.4994048858686675
 40
0.6264509366402855
 40
0.7526069675388761
 40
0.8746808545492513
 40
1.0
 40
1.0
 40
1.0
 40
1.0
 10
50.40696344852247
 20
69.13548786459022
 30
0.0
 10
50.40294916502638
 20
69.13485150029231
 30
0.0
 10
50.39483558182452
 20
69.13356529450178
 30
0.0
 10
50.38039749691302
 20
69.1318555686042
 30
0.0
 10
50.36526428848145
 20
69.13041201013195
 30
0.0
 10
50.3499016622159
 20
69.12930716912804
 30
0.0
 10
50.33497077987148
 20
69.12857382128165
 30
0.0
 10
50.32146844015627
 20
69.12830243495301
 30
0.0
 10
50.30978241417983
 20
69.12844871763433
 30
0.0
 10
50.30444080132653
 20
69.12893295190027
 30
0.0
 10
50.30173495972928
 20
69.12917824508335
 30
0.0
  0
SPLINE
  5
178
330
1F
100
AcDbEntity
  8
0
  6
Continuous
 62
     7
370
    25
100
AcDbSpline
210
0.0
220
0.0
230
1.0
 70
     8
 71
     3
 72
    11
 73
     7
 74
     0
 42
0.00000001
 43
0.00000001
 40
0.0
 40
0.0
 40
0.0
 40
0.0
 40
0.250625429633313
 40
0.5000000000003831
 40
0.7493745703670929
 40
1.0
 40
1.0
 40
1.0
 40
1.0
 10
53.48309917825138
 20
69.13548786434929
 30
0.0
 10
53.25337967864587
 20
69.16684591913712
 30
0.0
 10
52.79508719822643
 20
69.22940552219441
 30
0.0
 10
51.94503131339497
 20
69.25544958210303
 30
0.0
 10
51.09497542855757
 20
69.22940552232778
 30
0.0
 10
50.63668294813135
 20
69.16684591934212
 30
0.0
 10
50.40696344852248
 20
69.13548786459022
 30
0.0
  0
SPLINE
  5
179
330
1F
100
AcDbEntity
  8
0
  6
Continuous
 62
     7
370
    25
100
AcDbSpline
210
0.0
220
0.0
230
1.0
 70
     8
 71
     3
 72
    15
 73
    11
 74
     0
 42
0.00000001
 43
0.00000001
 40
0.0
 40
0.0
 40
0.0
 40
0.0
 40
0.1253187789994368
 40
0.2473923090486592
 40
0.3734477209264249
 40
0.500593709173434
 40
0.6235467583552695
 40
0.7480937818221101
 40
0.8753666599534677
 40
1.0
 40
1.0
 40
1.0
 40
1.0
 10
53.58832766704452
 20
69.12917824482587
 30
0.0
 10
53.58562182911695
 20
69.12893295074367
 30
0.0
 10
53.58028022350796
 20
69.12844871470277
 30
0.0
 10
53.5685972799143
 20
69.12830248447635
 30
0.0
 10
53.55509586028071
 20
69.12857365030287
 30
0.0
 10
53.54016152998767
 20
69.12930712723971
 30
0.0
 10
53.52479443478235
 20
69.13041203981776
 30
0.0
 10
53.50966194001576
 20
69.13185603280571
 30
0.0
 10
53.49522701481828
 20
69.13356527648178
 30
0.0
 10
53.48711345177419
 20
69.1348514941666
 30
0.0
 10
53.48309917825137
 20
69.13548786434929
 30
0.0
  0
ARC
  5
17A
330
1F
100
AcDbEntity
  8
0
  6
Continuous
 62
     7
370
    25
100
AcDbCircle
 10
54.1192060616
 20
64.7526013898
 30
0.0
 40
4.408657033327935
100
AcDbArc
 50
88.7509040274
 51
96.9161843676
  0
LINE
  5
17B
330
1F
100
AcDbEntity
  8
0
  6
Continuous
 62
     7
370
    25
100
AcDbLine
 10
50.3017349597
 20
69.1291782451
 30
0.0
 11
50.3017349597
 21
69.2300577294
 31
0.0
  0
SPLINE
  5
17C
330
1F
100
AcDbEntity
  8
0
  6
Continuous
 62
     7
370
    25
100
AcDbSpline
210
0.0
220
0.0
230
1.0
 70
     8
 71
     3
 72
    15
 73
    11
 74
     0
 42
0.00000001
 43
0.00000001
 40
0.0
 40
0.0
 40
0.0
 40
0.0
 40
0.1253191957979138
 40
0.2473928354984065
 40
0.3734492416489706
 40
0.5005950046079967
 40
0.6235484391777611
 40
0.7480947836179483
 40
0.8753671458153899
 40
1.0
 40
1.0
 40
1.0
 40
1.0
 10
50.30173495972928
 20
69.23005772944587
 30
0.0
 10
50.3044407560617
 20
69.22981365031218
 30
0.0
 10
50.30978227315889
 20
69.22933181328325
 30
0.0
 10
50.32146484574797
 20
69.22918629672975
 30
0.0
 10
50.33496582573524
 20
69.2294560910853
 30
0.0
 10
50.3498998545853
 20
69.230185901651
 30
0.0
 10
50.36526686577434
 20
69.23128531844321
 30
0.0
 10
50.38039960221256
 20
69.23272217372164
 30
0.0
 10
50.39483503199425
 20
69.2344230093046
 30
0.0
 10
50.40294898282348
 20
69.23570293322192
 30
0.0
 10
50.40696344852247
 20
69.23633618954445
 30
0.0
  0
LINE
  5
17D
330
1F
100
AcDbEntity
  8
0
  6
Continuous
 62
     7
370
    25
100
AcDbLine
 10
50.4069634485
 20
69.1354878646
 30
0.0
 11
50.4069634485
 21
69.2363361895
 31
0.0
  0
ARC
  5
17E
330
1F
100
AcDbEntity
  8
0
  6
Continuous
 62
     7
370
    25
100
AcDbCircle
 10
50.9761157062
 20
53.8188607976
 30
0.0
 40
15.49681490730611
100
AcDbArc
 50
94.6954834627
 51
94.8171561264
  0
SPLINE
  5
17F
330
1F
100
AcDbEntity
  8
0
  6
Continuous
 62
     7
370
    25
100
AcDbSpline
210
0.0
220
0.0
230
1.0
 70
     8
 71
     3
 72
    15
 73
    11
 74
     0
 42
0.00000001
 43
0.00000001
 40
0.0
 40
0.0
 40
0.0
 40
0.0
 40
0.1241930067305288
 40
0.2496556654892299
 40
0.3743703853151211
 40
0.4998404796364204
 40
0.6240146704162364
 40
0.7475381382242064
 40
0.8745858500551822
 40
1.0
 40
1.0
 40
1.0
 40
1.0
 10
50.48783701192544
 20
69.34514922489868
 30
0.0
 10
50.47227661681573
 20
69.34275354455099
 30
0.0
 10
50.44099674930422
 20
69.33793769229618
 30
0.0
 10
50.36356038981584
 20
69.32833339257321
 30
0.0
 10
50.27020638607694
 20
69.31763034626698
 30
0.0
 10
50.16298078005595
 20
69.30620808872682
 30
0.0
 10
50.04859486933502
 20
69.29461198566072
 30
0.0
 10
49.93092410644969
 20
69.28332737843533
 30
0.0
 10
49.81404038122449
 20
69.27261715218192
 30
0.0
 10
49.74289153032976
 20
69.26663679072671
 30
0.0
 10
49.70754729024633
 20
69.26366595805126
 30
0.0
  0
ARC
  5
180
330
1F
100
AcDbEntity
  8
0
  6
Continuous
 62
     7
370
    25
100
AcDbCircle
 10
50.8780796426
 20
67.0098524047
 30
0.0
 40
2.367678303596152
100
AcDbArc
 50
93.3632881502
 51
99.4868245016
  0
ARC
  5
181
330
1F
100
AcDbEntity
  8
0
  6
Continuous
 62
     7
370
    25
100
AcDbCircle
 10
53.0119866676
 20
67.0098936555
 30
0.0
 40
2.367636907563438
100
AcDbArc
 50
80.5187694297
 51
86.6367422681
  0
SPLINE
  5
182
330
1F
100
AcDbEntity
  8
0
  6
Continuous
 62
     7
370
    25
100
AcDbSpline
210
0.0
220
0.0
230
1.0
 70
     8
 71
     3
 72
    15
 73
    11
 74
     0
 42
0.00000001
 43
0.00000001
 40
0.0
 40
0.0
 40
0.0
 40
0.0
 40
0.1253320172137758
 40
0.2522975129251762
 40
0.3758847553984062
 40
0.5001929511416486
 40
0.6255758307380151
 40
0.7502289462456482
 40
0.8757444935777826
 40
1.0
 40
1.0
 40
1.0
 40
1.0
 10
54.17469624106041
 20
69.26434732009321
 30
0.0
 10
54.13944532443242
 20
69.26732691223302
 30
0.0
 10
54.06848405857802
 20
69.27332493016264
 30
0.0
 10
53.95249716778964
 20
69.28398530248657
 30
0.0
 10
53.83590080154927
 20
69.29519442369767
 30
0.0
 10
53.72278019496779
 20
69.3066848509262
 30
0.0
 10
53.61690448062834
 20
69.31798261163856
 30
0.0
 10
53.52479539600919
 20
69.32855762523552
 30
0.0
 10
53.44836373214079
 20
69.33804868726409
 30
0.0
 10
53.4173988246415
 20
69.3428160688217
 30
0.0
 10
53.40199447652026
 20
69.3451877343964
 30
0.0
  0
ARC
  5
183
330
1F
100
AcDbEntity
  8
0
  6
Continuous
 62
     7
370
    25
100
AcDbCircle
 10
52.8747815927
 20
53.5386839585
 30
0.0
 40
15.77929866173102
100
AcDbArc
 50
85.1265666158
 51
85.2745602135
  0
ARC
  5
184
330
1F
100
AcDbEntity
  8
0
  6
Continuous
 62
     7
370
    25
100
AcDbCircle
 10
54.1192037382
 20
64.831680383
 30
0.0
 40
4.430299389721482
100
AcDbArc
 50
88.7569768639
 51
96.8822041625
  0
SPLINE
  5
185
330
1F
100
AcDbEntity
  8
0
  6
Continuous
 62
     7
370
    25
100
AcDbSpline
210
0.0
220
0.0
230
1.0
 70
     8
 71
     3
 72
    15
 73
    11
 74
     0
 42
0.00000001
 43
0.00000001
 40
0.0
 40
0.0
 40
0.0
 40
0.0
 40
0.124633218643854
 40
0.2519059530189772
 40
0.3765391000744918
 40
0.4994035903146518
 40
0.6264494152300148
 40
0.7526064410610419
 40
0.874680437736327
 40
1.0
 40
1.0
 40
1.0
 40
1.0
 10
53.48309917825136
 20
69.23633618930472
 30
0.0
 10
53.48711365391951
 20
69.23570293883762
 30
0.0
 10
53.49522762489819
 20
69.23442302675518
 30
0.0
 10
53.50966621673473
 20
69.23272171105094
 30
0.0
 10
53.52479966666782
 20
69.23128528826419
 30
0.0
 10
53.54016220894959
 20
69.23018594271976
 30
0.0
 10
53.55509278778627
 20
69.22945626070232
 30
0.0
 10
53.56859468781558
 20
69.22918624694334
 30
0.0
 10
53.58028034270199
 20
69.22933181569013
 30
0.0
 10
53.58562186704278
 20
69.22981365095139
 30
0.0
 10
53.58832766704452
 20
69.23005772918965
 30
0.0
  0
SPLINE
  5
186
330
1F
100
AcDbEntity
  8
0
  6
Continuous
 62
     7
370
    25
100
AcDbSpline
210
0.0
220
0.0
230
1.0
 70
     8
 71
     3
 72
    11
 73
     7
 74
     0
 42
0.00000001
 43
0.00000001
 40
0.0
 40
0.0
 40
0.0
 40
0.0
 40
0.2506252605986011
 40
0.4999999999996215
 40
0.7493747394010042
 40
1.0
 40
1.0
 40
1.0
 40
1.0
 10
50.40696344852248
 20
69.23633618954445
 30
0.0
 10
50.63669114269579
 20
69.26754061241309
 30
0.0
 10
51.09500028045878
 20
69.32979376038803
 30
0.0
 10
51.9450313133949
 20
69.35570834618625
 30
0.0
 10
52.79506234632512
 20
69.32979376025533
 30
0.0
 10
53.25337148408141
 20
69.26754061220909
 30
0.0
 10
53.48309917825137
 20
69.23633618930472
 30
0.0
  0
ARC
  5
187
330
1F
100
AcDbEntity
  8
0
  6
Continuous
 62
     7
370
    25
100
AcDbCircle
 10
49.7708588879
 20
64.8316803832
 30
0.0
 40
4.430299389884317
100
AcDbArc
 50
83.1177958287
 51
91.2430231272
  0
SPLINE
  5
188
330
1F
100
AcDbEntity
  8
0
  6
Continuous
 62
     7
370
    25
100
AcDbSpline
210
0.0
220
0.0
230
1.0
 70
     8
 71
     3
 72
    15
 73
    11
 74
     0
 42
0.00000001
 43
0.00000001
 40
0.0
 40
0.0
 40
0.0
 40
0.0
 40
0.1233867499278388
 40
0.2487396502211602
 40
0.3739317114754985
 40
0.4999973617625659
 40
0.6259591330513601
 40
0.7512551380600303
 40
0.8765613478174267
 40
1.0
 40
1.0
 40
1.0
 40
1.0
 10
51.88214844698882
 20
69.40866925124668
 30
0.0
 10
51.88502664818069
 20
69.40866991031882
 30
0.0
 10
51.89082891429233
 20
69.40867123896533
 30
0.0
 10
51.90635831901307
 20
69.40867518859245
 30
0.0
 10
51.92471290088653
 20
69.40867697094185
 30
0.0
 10
51.94502571736943
 20
69.40867852451981
 30
0.0
 10
51.96534413508454
 20
69.40867697038487
 30
0.0
 10
51.98369700424865
 20
69.40867519350431
 30
0.0
 10
51.99923510864416
 20
69.40867122598615
 30
0.0
 10
52.00503567067545
 20
69.4086699061902
 30
0.0
 10
52.00791417660098
 20
69.40866925124668
 30
0.0
  0
ARC
  5
189
330
1F
100
AcDbEntity
  8
0
  6
Continuous
 62
     7
370
    25
100
AcDbCircle
 10
51.8830428746
 20
66.8643198384
 30
0.0
 40
2.544349570059448
100
AcDbArc
 50
90.0201414662
 51
95.4127462174
  0
SPLINE
  5
18A
330
1F
100
AcDbEntity
  8
0
  6
Continuous
 62
     7
370
    25
100
AcDbSpline
210
0.0
220
0.0
230
1.0
 70
     8
 71
     3
 72
    15
 73
    11
 74
     0
 42
0.00000001
 43
0.00000001
 40
0.0
 40
0.0
 40
0.0
 40
0.0
 40
0.1261585224210642
 40
0.25131214515488
 40
0.3762846848783792
 40
0.4993062783340877
 40
0.6261594278645743
 40
0.7521171342021308
 40
0.8758196922692789
 40
1.0
 40
1.0
 40
1.0
 40
1.0
 10
51.70591778611713
 20
69.39542611983596
 30
0.0
 10
51.70068668962847
 20
69.39537519408547
 30
0.0
 10
51.69026616428581
 20
69.39527374822714
 30
0.0
 10
51.67547961377142
 20
69.39526956658986
 30
0.0
 10
51.66228926114591
 20
69.3953689054105
 30
0.0
 10
51.65141868630464
 20
69.39558944761355
 30
0.0
 10
51.6434110989761
 20
69.39591331501505
 30
0.0
 10
51.63924447194341
 20
69.3963331848625
 30
0.0
 10
51.6386234204318
 20
69.39681190192825
 30
0.0
 10
51.64156253278655
 20
69.3971531911738
 30
0.0
 10
51.6430349212693
 20
69.39732416468341
 30
0.0
  0
ARC
  5
18B
330
1F
100
AcDbEntity
  8
0
  6
Continuous
 62
     7
370
    25
100
AcDbCircle
 10
51.9450313118
 20
48.8087763539
 30
0.0
 40
20.58803836847347
100
AcDbArc
 50
89.3345405821
 51
90.66545941
  0
SPLINE
  5
18C
330
1F
100
AcDbEntity
  8
0
  6
Continuous
 62
     7
370
    25
100
AcDbSpline
210
0.0
220
0.0
230
1.0
 70
     8
 71
     3
 72
    15
 73
    11
 74
     0
 42
0.00000001
 43
0.00000001
 40
0.0
 40
0.0
 40
0.0
 40
0.0
 40
0.1241186784437694
 40
0.2478474916628982
 40
0.3736574149478942
 40
0.5005082335853296
 40
0.6234527658309922
 40
0.7484986612277523
 40
0.8736976492452769
 40
1.0
 40
1.0
 40
1.0
 40
1.0
 10
52.24702770504648
 20
69.39732416465012
 30
0.0
 10
52.24849877765531
 20
69.39715328437163
 30
0.0
 10
52.25143630213368
 20
69.39681206056125
 30
0.0
 10
52.2508195676336
 20
69.39633352427376
 30
0.0
 10
52.24665760603898
 20
69.39591373440187
 30
0.0
 10
52.2386588582406
 20
69.39558994655543
 30
0.0
 10
52.22779276670377
 20
69.39536924834977
 30
0.0
 10
52.21460504887915
 20
69.39526965643958
 30
0.0
 10
52.19981060230393
 20
69.39527357083819
 30
0.0
 10
52.1893820113966
 20
69.39537512164361
 30
0.0
 10
52.18414484028219
 20
69.39542611980332
 30
0.0
  0
ARC
  5
18D
330
1F
100
AcDbEntity
  8
0
  6
Continuous
 62
     7
370
    25
100
AcDbCircle
 10
52.0070197488
 20
66.8643197862
 30
0.0
 40
2.544349622300512
100
AcDbArc
 50
84.5872538302
 51
89.9798585321
  0
LINE
  5
18E
330
1F
100
AcDbEntity
  8
0
  6
Continuous
 62
     7
370
    25
100
AcDbLine
 10
53.4830991783
 20
69.1354878643
 30
0.0
 11
53.4830991783
 21
69.2363361893
 31
0.0
  0
LINE
  5
18F
330
1F
100
AcDbEntity
  8
0
  6
Continuous
 62
     7
370
    25
100
AcDbLine
 10
53.588327667
 20
69.1291782448
 30
0.0
 11
53.588327667
 21
69.2300577292
 31
0.0
  0
LINE
  5
190
330
1F
100
AcDbEntity
  8
0
  6
Continuous
 62
     7
370
    25
100
AcDbLine
 10
49.6747517632
 20
69.1602107994
 30
0.0
 11
49.6747517632
 21
69.2609372175
 31
0.0
  0
LINE
  5
191
330
1F
100
AcDbEntity
  8
0
  6
Continuous
 62
     7
370
    25
100
AcDbLine
 10
54.2153108635
 20
69.1602107991
 30
0.0
 11
54.2153108635
 21
69.2609372172
 31
0.0
  0
LINE
  5
192
330
1F
100
AcDbEntity
  8
0
  6
Continuous
 62
     7
370
    25
100
AcDbLine
 10
21.2450313118
 20
46.5587763539
 30
0.0
 11
21.2450313118
 21
33.0587763539
 31
0.0
  0
LINE
  5
193
330
1F
100
AcDbEntity
  8
0
  6
Continuous
 62
     7
370
    25
100
AcDbLine
 10
23.6450313118
 20
45.8087763539
 30
0.0
 11
23.6450313118
 21
33.8087763539
 31
0.0
  0
LINE
  5
194
330
1F
100
AcDbEntity
  8
0
  6
Continuous
 62
     7
370
    25
100
AcDbLine
 10
82.6450313118
 20
33.0587763539
 30
0.0
 11
82.6450313118
 21
46.5587763539
 31
0.0
  0
LINE
  5
195
330
1F
100
AcDbEntity
  8
0
  6
Continuous
 62
     7
370
    25
100
AcDbLine
 10
80.2450313118
 20
33.8087763539
 30
0.0
 11
80.2450313118
 21
45.8087763539
 31
0.0
  0
SPLINE
  5
196
330
1F
100
AcDbEntity
  8
0
  6
Continuous
 62
     7
370
    25
100
AcDbSpline
210
0.0
220
0.0
230
1.0
 70
     8
 71
     3
 72
    30
 73
    26
 74
     0
 42
0.00000001
 43
0.00000001
 40
0.0
 40
0.0
 40
0.0
 40
0.0
 40
0.0110312892805203
 40
0.0532777089246683
 40
0.0955512672256448
 40
0.1522056108089906
 40
0.2089596253211904
 40
0.216189136976299
 40
0.2769252837473773
 40
0.3376606567589926
 40
0.3847641989568587
 40
0.431772984862093
 40
0.4687717868180927
 40
0.5057318490859815
 40
0.5426498327347099
 40
0.5796168937509195
 40
0.6291520448155334
 40
0.6787789476689284
 40
0.7318146285784755
 40
0.7848416260778952
 40
0.8294805910984695
 40
0.8740847559755193
 40
0.9165651547266225
 40
0.959010544969796
 40
1.0
 40
1.0
 40
1.0
 40
1.0
 10
46.0450313117949
 20
49.30877635394221
 30
0.0
 10
46.04585535914114
 20
49.3080785220445
 30
0.0
 10
46.04983525247335
 20
49.30470821021791
 30
0.0
 10
46.12061696140257
 20
49.24435856661256
 30
0.0
 10
46.34190569150183
 20
49.05882847095464
 30
0.0
 10
46.73246870689833
 20
48.738282526013
 30
0.0
 10
47.13571079298455
 20
48.42460562247267
 30
0.0
 10
47.60252503207344
 20
48.07821633458275
 30
0.0
 10
48.13815286615148
 20
47.69779138757932
 30
0.0
 10
48.95390324415398
 20
47.19976783731866
 30
0.0
 10
49.79546304991843
 20
46.78764996424482
 30
0.0
 10
50.57886996854523
 20
46.51065084802986
 30
0.0
 10
51.3518548456496
 20
46.35923369556763
 30
0.0
 10
52.08244514992641
 20
46.3210842250332
 30
0.0
 10
52.80716761237838
 20
46.40041612146852
 30
0.0
 10
53.5805372021114
 20
46.59291930474098
 30
0.0
 10
54.37093217073604
 20
46.91007889755429
 30
0.0
 10
55.16773612791835
 20
47.33535693660833
 30
0.0
 10
55.8951055768258
 20
47.79781962865924
 30
0.0
 10
56.5093030222697
 20
48.23822590523881
 30
0.0
 10
57.00278783327467
 20
48.61670757859182
 30
0.0
 10
57.37776232594414
 20
48.91839910252142
 30
0.0
 10
57.64828577836829
 20
49.14227164747512
 30
0.0
 10
57.81945938182363
 20
49.28705863345691
 30
0.0
 10
57.8348710802554
 20
49.30007436888004
 30
0.0
 10
57.84244246266448
 20
49.30646867452132
 30
0.0
  0
LINE
  5
197
330
1F
100
AcDbEntity
  8
0
  6
Continuous
 62
     7
370
    25
100
AcDbLine
 10
44.4118615636
 20
50.7731528289
 30
0.0
 11
59.47820106
 21
50.7731528289
 31
0.0
  0
LINE
  5
198
330
1F
100
AcDbEntity
  8
0
  6
Continuous
 62
     7
370
    25
100
AcDbLine
 10
51.9450313118
 20
68.4127321994
 30
0.0
 11
46.360849528
 21
68.4127321994
 31
0.0
  0
LINE
  5
199
330
1F
100
AcDbEntity
  8
0
  6
Continuous
 62
     7
370
    25
100
AcDbLine
 10
57.5292130956
 20
68.4127321994
 30
0.0
 11
51.9450313118
 21
68.4127321994
 31
0.0
  0
LINE
  5
19A
330
1F
100
AcDbEntity
  8
0
  6
Continuous
 62
     7
370
    25
100
AcDbLine
 10
51.882148447
 20
69.3967186894
 30
0.0
 11
51.882148447
 21
69.4086692512
 31
0.0
  0
LINE
  5
19B
330
1F
100
AcDbEntity
  8
0
  6
Continuous
 62
     7
370
    25
100
AcDbLine
 10
52.0079141766
 20
69.3967186894
 30
0.0
 11
52.0079141766
 21
69.4086692512
 31
0.0
  0
LINE
  5
19C
330
1F
100
AcDbEntity
  8
0
  6
Continuous
 62
     7
370
    18
100
AcDbLine
 10
45.8787813118
 20
27.3087763539
 30
0.0
 11
46.195493008
 21
17.1740020765
 31
0.0
  0
LINE
  5
19D
330
1F
100
AcDbEntity
  8
0
  6
Continuous
 62
     7
370
    18
100
AcDbLine
 10
57.6945696156
 20
17.1740020765
 30
0.0
 11
58.0112813118
 21
27.3087763539
 31
0.0
  0
LINE
  5
19E
330
1F
100
AcDbEntity
  8
0
  6
CENTERX2
 62
     7
370
    18
100
AcDbLine
 10
51.9450313118
 20
70.9374240389
 30
0.0
 11
51.9450313118
 21
13.0395740119
 31
0.0
  0
LINE
  5
19F
330
1F
100
AcDbEntity
  8
0
  6
CENTERX2
 62
     7
370
    18
100
AcDbLine
 10
85.7347998568
 20
39.8087763539
 30
0.0
 11
17.684722655
 21
39.8087763539
 31
0.0
  0
LINE
  5
1A0
330
1F
100
AcDbEntity
  8
0
  6
Continuous
 62
     7
370
    25
100
AcDbLine
 10
116.6740601678
 20
27.8087763539
 30
0.0
 11
116.9681605537
 21
18.3975640077
 31
0.0
  0
LINE
  5
1A1
330
1F
100
AcDbEntity
  8
0
  6
Continuous
 62
     7
370
    25
100
AcDbLine
 10
129.880084782
 20
18.3975640077
 30
0.0
 11
130.1741851678
 21
27.8087763539
 31
0.0
  0
LINE
  5
1A2
330
1F
100
AcDbEntity
  8
0
  6
Continuous
 62
     7
370
    25
100
AcDbLine
 10
116.9681605537
 20
18.3975640077
 30
0.0
 11
118.1741226678
 21
16.3087763539
 31
0.0
  0
LINE
  5
1A3
330
1F
100
AcDbEntity
  8
0
  6
Continuous
 62
     7
370
    25
100
AcDbLine
 10
128.6741226678
 20
16.3087763539
 30
0.0
 11
129.880084782
 21
18.3975640077
 31
0.0
  0
LINE
  5
1A4
330
1F
100
AcDbEntity
  8
0
  6
Continuous
 62
     7
370
    25
100
AcDbLine
 10
129.3241226678
 20
46.3473050179
 30
0.0
 11
129.3241226678
 21
50.3087763539
 31
0.0
  0
LINE
  5
1A5
330
1F
100
AcDbEntity
  8
0
  6
Continuous
 62
     7
370
    25
100
AcDbLine
 10
117.5241226678
 20
50.3087763539
 30
0.0
 11
117.5241226678
 21
46.3420026071
 31
0.0
  0
LINE
  5
1A6
330
1F
100
AcDbEntity
  8
0
  6
Continuous
 62
     7
370
    25
100
AcDbLine
 10
123.4229318405
 20
57.3087763539
 30
0.0
 11
123.4253134952
 21
57.3087763539
 31
0.0
  0
LINE
  5
1A7
330
1F
100
AcDbEntity
  8
0
  6
Continuous
 62
     7
370
    25
100
AcDbLine
 10
125.7804873123
 20
70.3087763539
 30
0.0
 11
121.0677580234
 21
70.3087763539
 31
0.0
  0
ARC
  5
1A8
330
1F
100
AcDbEntity
  8
0
  6
Continuous
 62
     7
370
    25
100
AcDbCircle
 10
97.5083276214
 20
66.1983369647
 30
0.0
 40
19.99999999999999
100
AcDbArc
 50
333.6100518522
 51
1.749051671
  0
ARC
  5
1A9
330
1F
100
AcDbEntity
  8
0
  6
Continuous
 62
     7
370
    25
100
AcDbCircle
 10
149.3399177143
 20
66.1983369647
 30
0.0
 40
20.0
100
AcDbArc
 50
178.250948329
 51
206.3899481478
  0
LINE
  5
1AA
330
1F
100
AcDbEntity
  8
0
  6
Continuous
 62
     7
370
    25
100
AcDbLine
 10
115.4241226796
 20
57.3087761889
 30
0.0
 11
115.8909529196
 21
50.7731528289
 31
0.0
  0
LINE
  5
1AB
330
1F
100
AcDbEntity
  8
0
  6
Continuous
 62
     7
370
    25
100
AcDbLine
 10
130.9572924161
 20
50.7731528289
 30
0.0
 11
131.424122656
 21
57.3087761889
 31
0.0
  0
ARC
  5
1AC
330
1F
100
AcDbEntity
  8
0
  6
Continuous
 62
     7
370
    25
100
AcDbCircle
 10
130.4585630661
 20
50.8087763539
 30
0.0
 40
0.50000000000001
100
AcDbArc
 50
270.0
 51
355.91438322
  0
ARC
  5
1AD
330
1F
100
AcDbEntity
  8
0
  6
Continuous
 62
     7
370
    25
100
AcDbCircle
 10
116.3896822695
 20
50.8087763539
 30
0.0
 40
0.50000000000001
100
AcDbArc
 50
184.08561678
 51
270.0
  0
LINE
  5
1AE
330
1F
100
AcDbEntity
  8
0
  6
Continuous
 62
     7
370
    25
100
AcDbLine
 10
129.3492357912
 20
66.8087763539
 30
0.0
 11
129.0083044516
 21
68.4127321994
 31
0.0
  0
LINE
  5
1AF
330
1F
100
AcDbEntity
  8
0
  6
Continuous
 62
     7
370
    25
100
AcDbLine
 10
117.8399408841
 20
68.4127321994
 30
0.0
 11
117.4990095445
 21
66.8087763539
 31
0.0
  0
ARC
  5
1B0
330
1F
100
AcDbEntity
  8
0
  6
Continuous
 62
     7
370
    25
100
AcDbCircle
 10
118.3290146844
 20
68.3087763539
 30
0.0
 40
0.5
100
AcDbArc
 50
90.0
 51
168.0
  0
ARC
  5
1B1
330
1F
100
AcDbEntity
  8
0
  6
Continuous
 62
     7
370
    25
100
AcDbCircle
 10
128.5192306512
 20
68.3087763539
 30
0.0
 40
0.5000000000000231
100
AcDbArc
 50
12.0
 51
90.0
  0
ARC
  5
1B2
330
1F
100
AcDbEntity
  8
0
  6
Continuous
 62
     7
370
    25
100
AcDbCircle
 10
123.4241226678
 20
48.8087763539
 30
0.0
 40
20.5
100
AcDbArc
 50
99.3449833975
 51
102.6803834918
  0
ARC
  5
1B3
330
1F
100
AcDbEntity
  8
0
  6
Continuous
 62
     7
370
    25
100
AcDbCircle
 10
123.4241226678
 20
48.8087763539
 30
0.0
 40
20.5
100
AcDbArc
 50
77.3196165082
 51
80.6550166025
  0
CIRCLE
  5
1B4
330
1F
100
AcDbEntity
  8
0
  6
Continuous
 62
     7
370
    25
100
AcDbCircle
 10
123.4241226678
 20
39.8087763539
 30
0.0
 40
6.749999999999993
  0
CIRCLE
  5
1B5
330
1F
100
AcDbEntity
  8
0
  6
Continuous
 62
     7
370
    25
100
AcDbCircle
 10
123.4241226678
 20
39.8087763539
 30
0.0
 40
6.449999999999996
  0
CIRCLE
  5
1B6
330
1F
100
AcDbEntity
  8
0
  6
Continuous
 62
     7
370
    25
100
AcDbCircle
 10
123.4241226678
 20
39.8087763539
 30
0.0
 40
4.299999999999994
  0
CIRCLE
  5
1B7
330
1F
100
AcDbEntity
  8
0
  6
Continuous
 62
     7
370
    25
100
AcDbCircle
 10
123.4241226678
 20
39.8087763539
 30
0.0
 40
4.099999999999988
  0
LINE
  5
1B8
330
1F
100
AcDbEntity
  8
0
  6
Continuous
 62
     7
370
    25
100
AcDbLine
 10
119.499117741
 20
40.8278008013
 30
0.0
 11
120.0279771373
 21
40.6550597197
 31
0.0
  0
ARC
  5
1B9
330
1F
100
AcDbEntity
  8
0
  6
Continuous
 62
     7
370
    25
100
AcDbCircle
 10
123.4241226678
 20
39.8087763539
 30
0.0
 40
3.499999999999998
100
AcDbArc
 50
166.0074784331
 51
187.8153909168
  0
LINE
  5
1BA
330
1F
100
AcDbEntity
  8
0
  6
Continuous
 62
     7
370
    25
100
AcDbLine
 10
119.3793531198
 20
39.2110681176
 30
0.0
 11
119.956632948
 21
39.3328403886
 31
0.0
  0
ARC
  5
1BB
330
1F
100
AcDbEntity
  8
0
  6
Continuous
 62
     7
370
    25
100
AcDbCircle
 10
123.4241226678
 20
39.8087763539
 30
0.0
 40
3.499999999999999
100
AcDbArc
 50
136.0074784331
 51
157.8153909168
  0
LINE
  5
1BC
330
1F
100
AcDbEntity
  8
0
  6
Continuous
 62
     7
370
    25
100
AcDbLine
 10
119.6447616237
 20
41.3062251325
 30
0.0
 11
120.1832205005
 21
41.1303485773
 31
0.0
  0
SPLINE
  5
1BD
330
1F
100
AcDbEntity
  8
0
  6
Continuous
 62
     7
370
    25
100
AcDbSpline
210
0.0
220
0.0
230
1.0
 70
    24
 71
     3
 72
     9
 73
     5
 74
     0
 42
0.00000001
 43
0.00000001
 40
0.0
 40
0.0
 40
0.0
 40
0.0
 40
0.7309622441140579
 40
1.0
 40
1.0
 40
1.0
 40
1.0
 10
120.5282868557492
 20
42.66068049653806
 30
0.0
 10
120.6203114217361
 20
42.55815861098726
 30
0.0
 10
120.7462065233338
 20
42.41790254936939
 30
0.0
 10
120.8722150066991
 20
42.27752017243034
 30
0.0
 10
120.9061160462863
 20
42.23975201277272
 30
0.0
  0
ARC
  5
1BE
330
1F
100
AcDbEntity
  8
0
  6
Continuous
 62
     7
370
    25
100
AcDbCircle
 10
123.4241226678
 20
39.8087763539
 30
0.0
 40
3.500000000000006
100
AcDbArc
 50
196.0074784331
 51
217.8153909168
  0
SPLINE
  5
1BF
330
1F
100
AcDbEntity
  8
0
  6
Continuous
 62
     7
370
    25
100
AcDbSpline
210
0.0
220
0.0
230
1.0
 70
    24
 71
     3
 72
     9
 73
     5
 74
     0
 42
0.00000001
 43
0.00000001
 40
0.0
 40
0.0
 40
0.0
 40
0.0
 40
0.2172150854409815
 40
1.0
 40
1.0
 40
1.0
 40
1.0
 10
120.2476945386061
 20
37.29352693326432
 30
0.0
 10
120.2774716531842
 20
37.32025513896081
 30
0.0
 10
120.4145575029892
 20
37.44330462993987
 30
0.0
 10
120.5517579923989
 20
37.56645702245858
 30
0.0
 10
120.659156465779
 20
37.66285885751408
 30
0.0
  0
LINE
  5
1C0
330
1F
100
AcDbEntity
  8
0
  6
Continuous
 62
     7
370
    25
100
AcDbLine
 10
119.5147373883
 20
38.7286232654
 30
0.0
 11
120.0598326805
 21
38.8436064822
 31
0.0
  0
LINE
  5
1C1
330
1F
100
AcDbEntity
  8
0
  6
Continuous
 62
     7
370
    25
100
AcDbLine
 10
122.3419209802
 20
43.7278733263
 30
0.0
 11
122.4589527961
 21
43.1730663412
 31
0.0
  0
ARC
  5
1C2
330
1F
100
AcDbEntity
  8
0
  6
Continuous
 62
     7
370
    25
100
AcDbCircle
 10
123.4241226678
 20
39.8087763539
 30
0.0
 40
3.500000000000004
100
AcDbArc
 50
106.0074784331
 51
127.8153909168
  0
SPLINE
  5
1C3
330
1F
100
AcDbEntity
  8
0
  6
Continuous
 62
     7
370
    25
100
AcDbSpline
210
0.0
220
0.0
230
1.0
 70
    24
 71
     3
 72
     9
 73
     5
 74
     0
 42
0.00000001
 43
0.00000001
 40
0.0
 40
0.0
 40
0.0
 40
0.0
 40
0.7248370313652533
 40
1.0
 40
1.0
 40
1.0
 40
1.0
 10
120.9087852174037
 20
42.9853025545569
 30
0.0
 10
120.9980074835699
 20
42.88590262952189
 30
0.0
 10
121.121100347628
 20
42.74876845903424
 30
0.0
 10
121.2443040695407
 20
42.61151078504351
 30
0.0
 10
121.278205171409
 20
42.57374255600031
 30
0.0
  0
SPLINE
  5
1C4
330
1F
100
AcDbEntity
  8
0
  6
Continuous
 62
     7
370
    25
100
AcDbSpline
210
0.0
220
0.0
230
1.0
 70
    24
 71
     3
 72
     9
 73
     5
 74
     0
 42
0.00000001
 43
0.00000001
 40
0.0
 40
0.0
 40
0.0
 40
0.0
 40
0.2202353061834398
 40
1.0
 40
1.0
 40
1.0
 40
1.0
 10
120.5800920835882
 20
36.92000791859792
 30
0.0
 10
120.6104001399154
 20
36.94721270238069
 30
0.0
 10
120.7480168411264
 20
37.07073869035333
 30
0.0
 10
120.8857486259696
 20
37.19436797842864
 30
0.0
 10
120.9931470090066
 20
37.29076973239143
 30
0.0
  0
ARC
  5
1C5
330
1F
100
AcDbEntity
  8
0
  6
Continuous
 62
     7
370
    25
100
AcDbCircle
 10
123.4241226678
 20
39.8087763539
 30
0.0
 40
3.499999999999999
100
AcDbArc
 50
226.0074784331
 51
247.8153909168
  0
LINE
  5
1C6
330
1F
100
AcDbEntity
  8
0
  6
Continuous
 62
     7
370
    25
100
AcDbLine
 10
121.9208258576
 20
36.0115111349
 30
0.0
 11
122.1025504445
 21
36.5678741866
 31
0.0
  0
ARC
  5
1C7
330
1F
100
AcDbEntity
  8
0
  6
Continuous
 62
     7
370
    25
100
AcDbCircle
 10
123.4241226678
 20
39.8087763539
 30
0.0
 40
3.499999999999994
100
AcDbArc
 50
256.0074784331
 51
277.8153909168
  0
LINE
  5
1C8
330
1F
100
AcDbEntity
  8
0
  6
Continuous
 62
     7
370
    25
100
AcDbLine
 10
124.0146572526
 20
35.7980145837
 30
0.0
 11
123.9000586331
 21
36.3412866341
 31
0.0
  0
LINE
  5
1C9
330
1F
100
AcDbEntity
  8
0
  6
Continuous
 62
     7
370
    25
100
AcDbLine
 10
122.4040160322
 20
35.880458229
 30
0.0
 11
122.5778393021
 21
36.4126308234
 31
0.0
  0
ARC
  5
1CA
330
1F
100
AcDbEntity
  8
0
  6
Continuous
 62
     7
370
    25
100
AcDbCircle
 10
123.4241226678
 20
39.8087763539
 30
0.0
 40
3.500000000000005
100
AcDbArc
 50
76.0074784331
 51
97.8153909168
  0
LINE
  5
1CB
330
1F
100
AcDbEntity
  8
0
  6
Continuous
 62
     7
370
    25
100
AcDbLine
 10
124.4421035725
 20
43.7305863987
 30
0.0
 11
124.2704060336
 21
43.2049218845
 31
0.0
  0
LINE
  5
1CC
330
1F
100
AcDbEntity
  8
0
  6
Continuous
 62
     7
370
    25
100
AcDbLine
 10
122.8297736263
 20
43.8376211319
 30
0.0
 11
122.9481867025
 21
43.2762660737
 31
0.0
  0
ARC
  5
1CD
330
1F
100
AcDbEntity
  8
0
  6
Continuous
 62
     7
370
    25
100
AcDbCircle
 10
123.4241226678
 20
39.8087763539
 30
0.0
 40
3.500000000000001
100
AcDbArc
 50
286.0074784331
 51
307.8153909168
  0
LINE
  5
1CE
330
1F
100
AcDbEntity
  8
0
  6
Continuous
 62
     7
370
    25
100
AcDbLine
 10
125.941331634
 20
36.6301651522
 30
0.0
 11
125.5700401643
 21
37.0438101519
 31
0.0
  0
LINE
  5
1CF
330
1F
100
AcDbEntity
  8
0
  6
Continuous
 62
     7
370
    25
100
AcDbLine
 10
124.5129921031
 20
35.8580699174
 30
0.0
 11
124.3892925396
 21
36.4444863666
 31
0.0
  0
LINE
  5
1D0
330
1F
100
AcDbEntity
  8
0
  6
Continuous
 62
     7
370
    25
100
AcDbLine
 10
126.2814700561
 20
42.7094980723
 30
0.0
 11
125.8550983267
 21
42.3267829755
 31
0.0
  0
ARC
  5
1D1
330
1F
100
AcDbEntity
  8
0
  6
Continuous
 62
     7
370
    25
100
AcDbCircle
 10
123.4241226678
 20
39.8087763539
 30
0.0
 40
3.500000000000004
100
AcDbArc
 50
46.0074784331
 51
67.8153909168
  0
LINE
  5
1D2
330
1F
100
AcDbEntity
  8
0
  6
Continuous
 62
     7
370
    25
100
AcDbLine
 10
124.9257130219
 20
43.6008171331
 30
0.0
 11
124.7456948912
 21
43.0496785213
 31
0.0
  0
ARC
  5
1D3
330
1F
100
AcDbEntity
  8
0
  6
Continuous
 62
     7
370
    25
100
AcDbCircle
 10
123.4241226678
 20
39.8087763539
 30
0.0
 40
3.500000000000004
100
AcDbArc
 50
316.0074784331
 51
337.8153909168
  0
LINE
  5
1D4
330
1F
100
AcDbEntity
  8
0
  6
Continuous
 62
     7
370
    25
100
AcDbLine
 10
127.2331884207
 20
38.3016251412
 30
0.0
 11
126.6650248352
 21
38.4872041306
 31
0.0
  0
LINE
  5
1D5
330
1F
100
AcDbEntity
  8
0
  6
Continuous
 62
     7
370
    25
100
AcDbLine
 10
126.3173609378
 20
36.9597660573
 30
0.0
 11
125.9421292894
 21
37.3778006951
 31
0.0
  0
LINE
  5
1D6
330
1F
100
AcDbEntity
  8
0
  6
Continuous
 62
     7
370
    25
100
AcDbLine
 10
127.3470261936
 20
38.7904382862
 30
0.0
 11
126.8202681984
 21
38.9624929882
 31
0.0
  0
ARC
  5
1D7
330
1F
100
AcDbEntity
  8
0
  6
Continuous
 62
     7
370
    25
100
AcDbCircle
 10
123.4241226678
 20
39.8087763539
 30
0.0
 40
3.500000000000013
100
AcDbArc
 50
346.0074784331
 51
7.8153909168
  0
LINE
  5
1D8
330
1F
100
AcDbEntity
  8
0
  6
Continuous
 62
     7
370
    25
100
AcDbLine
 10
127.441662342
 20
40.4007406799
 30
0.0
 11
126.8916123876
 21
40.2847123192
 31
0.0
  0
ARC
  5
1D9
330
1F
100
AcDbEntity
  8
0
  6
Continuous
 62
     7
370
    25
100
AcDbCircle
 10
123.4241226678
 20
39.8087763539
 30
0.0
 40
3.500000000000006
100
AcDbArc
 50
16.0074784331
 51
37.8153909168
  0
LINE
  5
1DA
330
1F
100
AcDbEntity
  8
0
  6
Continuous
 62
     7
370
    25
100
AcDbLine
 10
126.6013765104
 20
42.3247669423
 30
0.0
 11
126.1890888699
 21
41.9546938504
 31
0.0
  0
LINE
  5
1DB
330
1F
100
AcDbEntity
  8
0
  6
Continuous
 62
     7
370
    25
100
AcDbLine
 10
127.356687973
 20
40.8938190718
 30
0.0
 11
126.7884126551
 21
40.7739462257
 31
0.0
  0
LWPOLYLINE
  5
1DC
330
1F
100
AcDbEntity
  8
0
  6
Continuous
 62
     7
370
    25
100
AcDbPolyline
 90
        3
 70
   128
 43
0.0
 10
127.1835945488
 20
40.8573507042
 10
127.2725798967
 20
40.4587870836
 10
127.2870799771
 20
40.3661790975
  0
LWPOLYLINE
  5
1DD
330
1F
100
AcDbEntity
  8
0
  6
Continuous
 62
     7
370
    25
100
AcDbPolyline
 90
        3
 70
   128
 43
0.0
 10
127.2050092491
 20
38.8402549802
 10
127.1338373588
 20
38.5958650204
 10
127.0473451046
 20
38.35777802
  0
LWPOLYLINE
  5
1DE
330
1F
100
AcDbEntity
  8
0
  6
Continuous
 62
     7
370
    25
100
AcDbPolyline
 90
        3
 70
   128
 43
0.0
 10
126.2142681827
 20
37.0796327158
 10
126.1452438921
 20
37.0108063265
 10
125.8400909398
 20
36.74344859
  0
LINE
  5
1DF
330
1F
100
AcDbEntity
  8
0
  6
Continuous
 62
     7
370
    25
100
AcDbLine
 10
124.4725992126
 20
36.0492771949
 30
0.0
 11
123.9813430843
 21
35.9457927404
 31
0.0
  0
LWPOLYLINE
  5
1E0
330
1F
100
AcDbEntity
  8
0
  6
Continuous
 62
     7
370
    25
100
AcDbPolyline
 90
        3
 70
   128
 43
0.0
 10
122.4558197698
 20
36.0278338142
 10
122.062819858
 20
36.1509092635
 10
121.9731627133
 20
36.1855385475
  0
LWPOLYLINE
  5
1E1
330
1F
100
AcDbEntity
  8
0
  6
Continuous
 62
     7
370
    25
100
AcDbPolyline
 90
        3
 70
   128
 43
0.0
 10
120.6948661899
 20
37.0187412164
 10
120.5188532949
 20
37.2025248576
 10
120.3588063126
 20
37.392793607
  0
LWPOLYLINE
  5
1E2
330
1F
100
AcDbEntity
  8
0
  6
Continuous
 62
     7
370
    25
100
AcDbPolyline
 90
        3
 70
   128
 43
0.0
 10
119.6645998307
 20
38.7603847151
 10
119.6404489329
 20
38.8512012607
 10
119.5611128317
 20
39.251737758
  0
LINE
  5
1E3
330
1F
100
AcDbEntity
  8
0
  6
Continuous
 62
     7
370
    25
100
AcDbLine
 10
119.6431313296
 20
40.776888688
 30
0.0
 11
119.8008612805
 21
41.2596774224
 31
0.0
  0
LWPOLYLINE
  5
1E4
330
1F
100
AcDbEntity
  8
0
  6
Continuous
 62
     7
370
    25
100
AcDbPolyline
 90
        3
 70
   128
 43
0.0
 10
120.6342026508
 20
42.5381505112
 10
120.9369682488
 20
42.8166327147
 10
121.0081409644
 20
42.8740935317
  0
LWPOLYLINE
  5
1E5
330
1F
100
AcDbEntity
  8
0
  6
Continuous
 62
     7
370
    25
100
AcDbPolyline
 90
        3
 70
   128
 43
0.0
 10
122.3758020595
 20
43.5683189982
 10
122.6196773498
 20
43.6279391839
 10
122.8672643954
 20
43.6718121881
  0
LWPOLYLINE
  5
1E6
330
1F
100
AcDbEntity
  8
0
  6
Continuous
 62
     7
370
    25
100
AcDbPolyline
 90
        3
 70
   128
 43
0.0
 10
124.3920712911
 20
43.5898096061
 10
124.4866751785
 20
43.5643214746
 10
124.8749433565
 20
43.4320699276
  0
LINE
  5
1E7
330
1F
100
AcDbEntity
  8
0
  6
Continuous
 62
     7
370
    25
100
AcDbLine
 10
126.1536637854
 20
42.5985330242
 30
0.0
 11
126.5296872625
 21
42.1727995222
 31
0.0
  0
LWPOLYLINE
  5
1E8
330
1F
100
AcDbEntity
  8
0
  6
Continuous
 62
     7
370
    25
100
AcDbPolyline
 90
        3
 70
   128
 43
0.0
 10
127.0826628374
 20
40.8359490891
 10
127.1710527309
 20
40.441638979
 10
127.1861512858
 20
40.3446314444
  0
LWPOLYLINE
  5
1E9
330
1F
100
AcDbEntity
  8
0
  6
Continuous
 62
     7
370
    25
100
AcDbPolyline
 90
        3
 70
   128
 43
0.0
 10
127.1070742697
 20
38.8728984249
 10
127.0359703965
 20
38.6278631544
 10
126.9492716791
 20
38.3898597079
  0
LWPOLYLINE
  5
1EA
330
1F
100
AcDbEntity
  8
0
  6
Continuous
 62
     7
370
    25
100
AcDbPolyline
 90
        3
 70
   128
 43
0.0
 10
126.1449171673
 20
37.1559896509
 10
126.0734572749
 20
37.0846203122
 10
125.7711319393
 20
36.8202068835
  0
LINE
  5
1EB
330
1F
100
AcDbEntity
  8
0
  6
Continuous
 62
     7
370
    25
100
AcDbLine
 10
124.4510314381
 20
36.1501620838
 30
0.0
 11
123.9590570418
 21
36.0466167061
 31
0.0
  0
LWPOLYLINE
  5
1EC
330
1F
100
AcDbEntity
  8
0
  6
Continuous
 62
     7
370
    25
100
AcDbPolyline
 90
        3
 70
   128
 43
0.0
 10
122.4887499809
 20
36.1256964014
 10
122.0987327467
 20
36.2474084206
 10
122.0059316063
 20
36.2833353726
  0
LWPOLYLINE
  5
1ED
330
1F
100
AcDbEntity
  8
0
  6
Continuous
 62
     7
370
    25
100
AcDbPolyline
 90
        3
 70
   128
 43
0.0
 10
120.7706541934
 20
37.0886467513
 10
120.595497973
 20
37.2712810661
 10
120.4352869663
 20
37.4621061281
  0
LWPOLYLINE
  5
1EE
330
1F
100
AcDbEntity
  8
0
  6
Continuous
 62
     7
370
    25
100
AcDbPolyline
 90
        3
 70
   128
 43
0.0
 10
119.7655706168
 20
38.7816459386
 10
119.7402670283
 20
38.876463302
 10
119.661853761
 20
39.274610956
  0
LINE
  5
1EF
330
1F
100
AcDbEntity
  8
0
  6
Continuous
 62
     7
370
    25
100
AcDbLine
 10
119.741056092
 20
40.7442017107
 30
0.0
 11
119.8980987234
 21
41.2255173828
 31
0.0
  0
LWPOLYLINE
  5
1F0
330
1F
100
AcDbEntity
  8
0
  6
Continuous
 62
     7
370
    25
100
AcDbPolyline
 90
        3
 70
   128
 43
0.0
 10
120.70463225
 20
42.4628999131
 10
121.0025825259
 20
42.7372816623
 10
121.0780363157
 20
42.798070389
  0
LWPOLYLINE
  5
1F1
330
1F
100
AcDbEntity
  8
0
  6
Continuous
 62
     7
370
    25
100
AcDbPolyline
 90
        3
 70
   128
 43
0.0
 10
122.395006936
 20
43.4667704505
 10
122.640899634
 20
43.5271848414
 10
122.8904371228
 20
43.5711133589
  0
LWPOLYLINE
  5
1F2
330
1F
100
AcDbEntity
  8
0
  6
Continuous
 62
     7
370
    25
100
AcDbPolyline
 90
        3
 70
   128
 43
0.0
 10
124.3600194796
 20
43.4917231575
 10
124.4586437003
 20
43.4652454477
 10
124.8389566372
 20
43.3355659478
  0
LINE
  5
1F3
330
1F
100
AcDbEntity
  8
0
  6
Continuous
 62
     7
370
    25
100
AcDbLine
 10
126.07834668
 20
42.5281687296
 30
0.0
 11
126.4477585433
 21
42.1104336031
 31
0.0
  0
LWPOLYLINE
  5
1F4
330
1F
100
AcDbEntity
  8
0
  6
Continuous
 62
     7
370
    25
100
AcDbPolyline
 90
        3
 70
   128
 43
0.0
 10
127.1835945488
 20
40.8573507042
 10
127.2725798967
 20
40.4587870836
 10
127.2870799771
 20
40.3661790975
  0
LWPOLYLINE
  5
1F5
330
1F
100
AcDbEntity
  8
0
  6
Continuous
 62
     7
370
    25
100
AcDbPolyline
 90
        3
 70
   128
 43
0.0
 10
127.2050092491
 20
38.8402549802
 10
127.1338373588
 20
38.5958650204
 10
127.0473451046
 20
38.35777802
  0
LWPOLYLINE
  5
1F6
330
1F
100
AcDbEntity
  8
0
  6
Continuous
 62
     7
370
    25
100
AcDbPolyline
 90
        3
 70
   128
 43
0.0
 10
126.2142681827
 20
37.0796327158
 10
126.1452438921
 20
37.0108063265
 10
125.8400909398
 20
36.74344859
  0
LWPOLYLINE
  5
1F7
330
1F
100
AcDbEntity
  8
0
  6
Continuous
 62
     7
370
    25
100
AcDbPolyline
 90
        3
 70
   128
 43
0.0
 10
122.4558197698
 20
36.0278338142
 10
122.062819858
 20
36.1509092635
 10
121.9731627133
 20
36.1855385475
  0
LWPOLYLINE
  5
1F8
330
1F
100
AcDbEntity
  8
0
  6
Continuous
 62
     7
370
    25
100
AcDbPolyline
 90
        3
 70
   128
 43
0.0
 10
120.6948661899
 20
37.0187412164
 10
120.5188532949
 20
37.2025248576
 10
120.3588063126
 20
37.392793607
  0
LWPOLYLINE
  5
1F9
330
1F
100
AcDbEntity
  8
0
  6
Continuous
 62
     7
370
    25
100
AcDbPolyline
 90
        3
 70
   128
 43
0.0
 10
119.6645998307
 20
38.7603847151
 10
119.6404489329
 20
38.8512012607
 10
119.5611128317
 20
39.251737758
  0
LWPOLYLINE
  5
1FA
330
1F
100
AcDbEntity
  8
0
  6
Continuous
 62
     7
370
    25
100
AcDbPolyline
 90
        3
 70
   128
 43
0.0
 10
120.6342026508
 20
42.5381505112
 10
120.9369682488
 20
42.8166327147
 10
121.0081409644
 20
42.8740935317
  0
LWPOLYLINE
  5
1FB
330
1F
100
AcDbEntity
  8
0
  6
Continuous
 62
     7
370
    25
100
AcDbPolyline
 90
        3
 70
   128
 43
0.0
 10
122.3758020595
 20
43.5683189982
 10
122.6196773498
 20
43.6279391839
 10
122.8672643954
 20
43.6718121881
  0
LWPOLYLINE
  5
1FC
330
1F
100
AcDbEntity
  8
0
  6
Continuous
 62
     7
370
    25
100
AcDbPolyline
 90
        3
 70
   128
 43
0.0
 10
124.3920712911
 20
43.5898096061
 10
124.4866751785
 20
43.5643214746
 10
124.8749433565
 20
43.4320699276
  0
CIRCLE
  5
1FD
330
1F
100
AcDbEntity
  8
0
  6
Continuous
 62
     7
370
    25
100
AcDbCircle
 10
123.4241226678
 20
39.8087763539
 30
0.0
 40
7.30000000000002
  0
CIRCLE
  5
1FE
330
1F
100
AcDbEntity
  8
0
  6
Continuous
 62
     7
370
    25
100
AcDbCircle
 10
123.4241226678
 20
39.8087763539
 30
0.0
 40
7.499999999999999
  0
CIRCLE
  5
1FF
330
1F
100
AcDbEntity
  8
0
  6
Continuous
 62
     7
370
    25
100
AcDbCircle
 10
123.4241226678
 20
39.8087763539
 30
0.0
 40
7.799999999999997
  0
CIRCLE
  5
200
330
1F
100
AcDbEntity
  8
0
  6
Continuous
 62
     7
370
    25
100
AcDbCircle
 10
123.4241226678
 20
39.8087763539
 30
0.0
 40
7.999999999999996
  0
CIRCLE
  5
201
330
1F
100
AcDbEntity
  8
0
  6
Continuous
 62
     7
370
    25
100
AcDbCircle
 10
123.4241226678
 20
39.8087763539
 30
0.0
 40
2.999999999999988
  0
SPLINE
  5
202
330
1F
100
AcDbEntity
  8
0
  6
Continuous
 62
     7
370
    25
100
AcDbSpline
210
0.0
220
0.0
230
1.0
 70
     8
 71
     3
 72
    10
 73
     6
 74
     0
 42
0.00000001
 43
0.00000001
 40
0.0
 40
0.0
 40
0.0
 40
0.0
 40
0.5
 40
0.5
 40
1.0
 40
1.0
 40
1.0
 40
1.0
 10
115.1741226678371
 20
34.75696149853297
 30
0.0
 10
115.0997522009116
 20
34.79989930763221
 30
0.0
 10
115.0354466046237
 20
34.8633398975244
 30
0.0
 10
114.9472238168179
 20
35.01582904303326
 30
0.0
 10
114.9241226678371
 20
35.10405843223656
 30
0.0
 10
114.9241226678371
 20
35.1899742004252
 30
0.0
  0
SPLINE
  5
203
330
1F
100
AcDbEntity
  8
0
  6
Continuous
 62
     7
370
    25
100
AcDbSpline
210
0.0
220
0.0
230
1.0
 70
    24
 71
     3
 72
    10
 73
     6
 74
     0
 42
0.00000001
 43
0.00000001
 40
0.0
 40
0.0
 40
0.0
 40
0.0
 40
0.4999999999999999
 40
0.4999999999999999
 40
1.0
 40
1.0
 40
1.0
 40
1.0
 10
114.9241226678371
 20
35.1899742004252
 30
0.0
 10
114.9241226678371
 20
35.94745586063075
 30
0.0
 10
114.9241226678371
 20
36.70992340907421
 30
0.0
 10
114.9241226678371
 20
38.24838754341358
 30
0.0
 10
114.9241226678371
 20
39.02451022185614
 30
0.0
 10
114.9241226678371
 20
39.8087763539422
 30
0.0
  0
ARC
  5
204
330
1F
100
AcDbEntity
  8
0
  6
Continuous
 62
     7
370
    25
100
AcDbCircle
 10
123.4241226678
 20
39.8087763539
 30
0.0
 40
8.5
100
AcDbArc
 50
180.0
 51
240.0
  0
SPLINE
  5
205
330
1F
100
AcDbEntity
  8
0
  6
Continuous
 62
     7
370
    25
100
AcDbSpline
210
0.0
220
0.0
230
1.0
 70
    24
 71
     3
 72
    10
 73
     6
 74
     0
 42
0.00000001
 43
0.00000001
 40
0.0
 40
0.0
 40
0.0
 40
0.0
 40
0.5
 40
0.5
 40
1.0
 40
1.0
 40
1.0
 40
1.0
 10
115.1741226678371
 20
34.75696149853301
 30
0.0
 10
115.8301354344422
 20
34.37821235114172
 30
0.0
 10
116.4904023412999
 20
33.99700707473041
 30
0.0
 10
117.8227488599349
 20
33.22777645354263
 30
0.0
 10
118.4949018414222
 20
32.83970874874431
 30
0.0
 10
119.1741226678371
 20
32.44756042177448
 30
0.0
  0
ARC
  5
206
330
1F
100
AcDbEntity
  8
0
  6
Continuous
 62
     7
370
    25
100
AcDbCircle
 10
123.4241226678
 20
39.8087763539
 30
0.0
 40
8.500000000000004
100
AcDbArc
 50
240.0
 51
300.0
  0
ARC
  5
207
330
1F
100
AcDbEntity
  8
0
  6
Continuous
 62
     7
370
    25
100
AcDbCircle
 10
123.4241226678
 20
39.8087763539
 30
0.0
 40
8.500000000000009
100
AcDbArc
 50
120.0
 51
180.0
  0
ARC
  5
208
330
1F
100
AcDbEntity
  8
0
  6
Continuous
 62
     7
370
    25
100
AcDbCircle
 10
123.4241226678
 20
39.8087763539
 30
0.0
 40
8.500000000000014
100
AcDbArc
 50
60.0
 51
120.0
  0
ARC
  5
209
330
1F
100
AcDbEntity
  8
0
  6
Continuous
 62
     7
370
    25
100
AcDbCircle
 10
123.4241226678
 20
39.8087763539
 30
0.0
 40
8.500000000000014
100
AcDbArc
 50
0.0
 51
60.0
  0
ARC
  5
20A
330
1F
100
AcDbEntity
  8
0
  6
Continuous
 62
     7
370
    25
100
AcDbCircle
 10
123.4241226678
 20
39.8087763539
 30
0.0
 40
8.500000000000004
100
AcDbArc
 50
300.0
 51
0.0
  0
SPLINE
  5
20B
330
1F
100
AcDbEntity
  8
0
  6
Continuous
 62
     7
370
    25
100
AcDbSpline
210
0.0
220
0.0
230
1.0
 70
     8
 71
     3
 72
    10
 73
     6
 74
     0
 42
0.00000001
 43
0.00000001
 40
0.0
 40
0.0
 40
0.0
 40
0.0
 40
0.5
 40
0.5
 40
1.0
 40
1.0
 40
1.0
 40
1.0
 10
114.9241226678371
 20
44.42757850745922
 30
0.0
 10
114.9241226678371
 20
44.51346014996563
 30
0.0
 10
114.9469132394845
 20
44.60086935593107
 30
0.0
 10
115.0348592367834
 20
44.75351184100605
 30
0.0
 10
115.0997200295161
 20
44.8176348260884
 30
0.0
 10
115.1741226678371
 20
44.86059120935143
 30
0.0
  0
SPLINE
  5
20C
330
1F
100
AcDbEntity
  8
0
  6
Continuous
 62
     7
370
    25
100
AcDbSpline
210
0.0
220
0.0
230
1.0
 70
    24
 71
     3
 72
    12
 73
     8
 74
     0
 42
0.00000001
 43
0.00000001
 40
0.0
 40
0.0
 40
0.0
 40
0.0
 40
0.2500000000000001
 40
0.2500000000000001
 40
0.5000000000000002
 40
0.5000000000000002
 40
1.0
 40
1.0
 40
1.0
 40
1.0
 10
119.1741226678371
 20
47.16999228610994
 30
0.0
 10
118.8363667328143
 20
46.97498880610414
 30
0.0
 10
118.4959587179358
 20
46.77845414707974
 30
0.0
 10
117.8214640335354
 20
46.38903445947418
 30
0.0
 10
117.4863387146682
 20
46.19554976641392
 30
0.0
 10
116.486627396328
 20
45.61836616765832
 30
0.0
 10
115.8276932932628
 20
45.23793038587535
 30
0.0
 10
115.1741226678371
 20
44.86059120935143
 30
0.0
  0
SPLINE
  5
20D
330
1F
100
AcDbEntity
  8
0
  6
Continuous
 62
     7
370
    25
100
AcDbSpline
210
0.0
220
0.0
230
1.0
 70
    24
 71
     3
 72
    12
 73
     8
 74
     0
 42
0.00000001
 43
0.00000001
 40
0.0
 40
0.0
 40
0.0
 40
0.0
 40
0.25
 40
0.25
 40
0.5
 40
0.5
 40
1.0
 40
1.0
 40
1.0
 40
1.0
 10
114.9241226678371
 20
39.8087763539422
 30
0.0
 10
114.9241226678371
 20
40.20044828031713
 30
0.0
 10
114.9241226678371
 20
40.59535117183873
 30
0.0
 10
114.9241226678371
 20
41.37628720208603
 30
0.0
 10
114.9241226678371
 20
41.76369533401731
 30
0.0
 10
114.9241226678371
 20
42.91782496067728
 30
0.0
 10
114.9241226678371
 20
43.67647936961381
 30
0.0
 10
114.9241226678371
 20
44.42757850745922
 30
0.0
  0
SPLINE
  5
20E
330
1F
100
AcDbEntity
  8
0
  6
Continuous
 62
     7
370
    25
100
AcDbSpline
210
0.0
220
0.0
230
1.0
 70
    24
 71
     3
 72
    10
 73
     6
 74
     0
 42
0.00000001
 43
0.00000001
 40
0.0
 40
0.0
 40
0.0
 40
0.0
 40
0.5
 40
0.5
 40
1.0
 40
1.0
 40
1.0
 40
1.0
 10
123.6741226678371
 20
30.13815934501594
 30
0.0
 10
124.3301354344422
 20
30.51690849240723
 30
0.0
 10
124.9904023412999
 20
30.89811376881853
 30
0.0
 10
126.3227488599349
 20
31.66734439000631
 30
0.0
 10
126.9949018414222
 20
32.05541209480463
 30
0.0
 10
127.6741226678371
 20
32.44756042177447
 30
0.0
  0
SPLINE
  5
20F
330
1F
100
AcDbEntity
  8
0
  6
Continuous
 62
     7
370
    25
100
AcDbSpline
210
0.0
220
0.0
230
1.0
 70
     8
 71
     3
 72
    10
 73
     6
 74
     0
 42
0.00000001
 43
0.00000001
 40
0.0
 40
0.0
 40
0.0
 40
0.0
 40
0.5
 40
0.5
 40
1.0
 40
1.0
 40
1.0
 40
1.0
 10
123.6741226678371
 20
30.13815934501596
 30
0.0
 10
123.5997479138471
 20
30.09521906077892
 30
0.0
 10
123.5126541822812
 20
30.0712512762031
 30
0.0
 10
123.3364883537367
 20
30.07109322009758
 30
0.0
 10
123.2485273298464
 20
30.09520179337595
 30
0.0
 10
123.1741226678371
 20
30.13815934501596
 30
0.0
  0
SPLINE
  5
210
330
1F
100
AcDbEntity
  8
0
  6
Continuous
 62
     7
370
    25
100
AcDbSpline
210
0.0
220
0.0
230
1.0
 70
    24
 71
     3
 72
    12
 73
     8
 74
     0
 42
0.00000001
 43
0.00000001
 40
0.0
 40
0.0
 40
0.0
 40
0.0
 40
0.25
 40
0.25
 40
0.5000000000000002
 40
0.5000000000000002
 40
1.0
 40
1.0
 40
1.0
 40
1.0
 10
119.1741226678371
 20
32.44756042177448
 30
0.0
 10
119.5118786028599
 20
32.25255694176868
 30
0.0
 10
119.8522866177384
 20
32.05602228274427
 30
0.0
 10
120.5267813021388
 20
31.66660259513872
 30
0.0
 10
120.861906621006
 20
31.47311790207846
 30
0.0
 10
121.8616179393462
 20
30.89593430332286
 30
0.0
 10
122.5205520424115
 20
30.5154985215399
 30
0.0
 10
123.1741226678371
 20
30.13815934501596
 30
0.0
  0
SPLINE
  5
211
330
1F
100
AcDbEntity
  8
0
  6
Continuous
 62
     7
370
    25
100
AcDbSpline
210
0.0
220
0.0
230
1.0
 70
     8
 71
     3
 72
    10
 73
     6
 74
     0
 42
0.00000001
 43
0.00000001
 40
0.0
 40
0.0
 40
0.0
 40
0.0
 40
0.5
 40
0.5
 40
1.0
 40
1.0
 40
1.0
 40
1.0
 10
123.1741226678371
 20
49.47939336286844
 30
0.0
 10
123.2484974218271
 20
49.52233364710548
 30
0.0
 10
123.335591153393
 20
49.5463014316813
 30
0.0
 10
123.5117569819376
 20
49.54645948778683
 30
0.0
 10
123.5997180058279
 20
49.52235091450845
 30
0.0
 10
123.6741226678371
 20
49.47939336286844
 30
0.0
  0
SPLINE
  5
212
330
1F
100
AcDbEntity
  8
0
  6
Continuous
 62
     7
370
    25
100
AcDbSpline
210
0.0
220
0.0
230
1.0
 70
    24
 71
     3
 72
    12
 73
     8
 74
     0
 42
0.00000001
 43
0.00000001
 40
0.0
 40
0.0
 40
0.0
 40
0.0
 40
0.2499999999999999
 40
0.2499999999999999
 40
0.5
 40
0.5
 40
1.0
 40
1.0
 40
1.0
 40
1.0
 10
127.6741226678371
 20
47.16999228610994
 30
0.0
 10
127.3363667328143
 20
47.36499576611573
 30
0.0
 10
126.9959587179358
 20
47.56153042514013
 30
0.0
 10
126.3214640335354
 20
47.95095011274569
 30
0.0
 10
125.9863387146682
 20
48.14443480580595
 30
0.0
 10
124.986627396328
 20
48.72161840456155
 30
0.0
 10
124.3276932932628
 20
49.10205418634452
 30
0.0
 10
123.6741226678371
 20
49.47939336286845
 30
0.0
  0
SPLINE
  5
213
330
1F
100
AcDbEntity
  8
0
  6
Continuous
 62
     7
370
    25
100
AcDbSpline
210
0.0
220
0.0
230
1.0
 70
    24
 71
     3
 72
    10
 73
     6
 74
     0
 42
0.00000001
 43
0.00000001
 40
0.0
 40
0.0
 40
0.0
 40
0.0
 40
0.5
 40
0.5
 40
1.0
 40
1.0
 40
1.0
 40
1.0
 10
123.1741226678372
 20
49.47939336286847
 30
0.0
 10
122.5181099012321
 20
49.10064421547717
 30
0.0
 10
121.8578429943744
 20
48.71943893906587
 30
0.0
 10
120.5254964757393
 20
47.95020831787809
 30
0.0
 10
119.853343494252
 20
47.56214061307977
 30
0.0
 10
119.1741226678371
 20
47.16999228610994
 30
0.0
  0
SPLINE
  5
214
330
1F
100
AcDbEntity
  8
0
  6
Continuous
 62
     7
370
    25
100
AcDbSpline
210
0.0
220
0.0
230
1.0
 70
    24
 71
     3
 72
    10
 73
     6
 74
     0
 42
0.00000001
 43
0.00000001
 40
0.0
 40
0.0
 40
0.0
 40
0.0
 40
0.5
 40
0.5
 40
1.0
 40
1.0
 40
1.0
 40
1.0
 10
131.9241226678371
 20
35.1899742004252
 30
0.0
 10
131.9241226678371
 20
35.94745586063075
 30
0.0
 10
131.9241226678371
 20
36.70992340907421
 30
0.0
 10
131.9241226678371
 20
38.24838754341358
 30
0.0
 10
131.9241226678371
 20
39.02451022185614
 30
0.0
 10
131.9241226678371
 20
39.8087763539422
 30
0.0
  0
SPLINE
  5
215
330
1F
100
AcDbEntity
  8
0
  6
Continuous
 62
     7
370
    25
100
AcDbSpline
210
0.0
220
0.0
230
1.0
 70
     8
 71
     3
 72
    10
 73
     6
 74
     0
 42
0.00000001
 43
0.00000001
 40
0.0
 40
0.0
 40
0.0
 40
0.0
 40
0.5
 40
0.5
 40
1.0
 40
1.0
 40
1.0
 40
1.0
 10
131.9241226678371
 20
35.1899742004252
 30
0.0
 10
131.9241226678371
 20
35.10409255791874
 30
0.0
 10
131.9013320961897
 20
35.0166833519533
 30
0.0
 10
131.8133860988909
 20
34.86404086687838
 30
0.0
 10
131.7485253061581
 20
34.79991788179601
 30
0.0
 10
131.6741226678371
 20
34.75696149853298
 30
0.0
  0
SPLINE
  5
216
330
1F
100
AcDbEntity
  8
0
  6
Continuous
 62
     7
370
    25
100
AcDbSpline
210
0.0
220
0.0
230
1.0
 70
    24
 71
     3
 72
    12
 73
     8
 74
     0
 42
0.00000001
 43
0.00000001
 40
0.0
 40
0.0
 40
0.0
 40
0.0
 40
0.2499999999999999
 40
0.2499999999999999
 40
0.4999999999999998
 40
0.4999999999999998
 40
1.0
 40
1.0
 40
1.0
 40
1.0
 10
127.6741226678371
 20
32.44756042177447
 30
0.0
 10
128.0118786028599
 20
32.64256390178027
 30
0.0
 10
128.3522866177384
 20
32.83909856080468
 30
0.0
 10
129.0267813021388
 20
33.22851824841023
 30
0.0
 10
129.3619066210061
 20
33.42200294147049
 30
0.0
 10
130.3616179393462
 20
33.99918654022608
 30
0.0
 10
131.0205520424115
 20
34.37962232200905
 30
0.0
 10
131.6741226678371
 20
34.75696149853299
 30
0.0
  0
SPLINE
  5
217
330
1F
100
AcDbEntity
  8
0
  6
Continuous
 62
     7
370
    25
100
AcDbSpline
210
0.0
220
0.0
230
1.0
 70
     8
 71
     3
 72
    10
 73
     6
 74
     0
 42
0.00000001
 43
0.00000001
 40
0.0
 40
0.0
 40
0.0
 40
0.0
 40
0.5
 40
0.5
 40
1.0
 40
1.0
 40
1.0
 40
1.0
 10
131.6741226678371
 20
44.86059120935143
 30
0.0
 10
131.7484931347627
 20
44.8176534002522
 30
0.0
 10
131.8127987310505
 20
44.75421281035999
 30
0.0
 10
131.9010215188564
 20
44.60172366485116
 30
0.0
 10
131.9241226678371
 20
44.51349427564784
 30
0.0
 10
131.9241226678371
 20
44.42757850745921
 30
0.0
  0
SPLINE
  5
218
330
1F
100
AcDbEntity
  8
0
  6
Continuous
 62
     7
370
    25
100
AcDbSpline
210
0.0
220
0.0
230
1.0
 70
    24
 71
     3
 72
    12
 73
     8
 74
     0
 42
0.00000001
 43
0.00000001
 40
0.0
 40
0.0
 40
0.0
 40
0.0
 40
0.25
 40
0.25
 40
0.5
 40
0.5
 40
1.0
 40
1.0
 40
1.0
 40
1.0
 10
131.9241226678371
 20
39.8087763539422
 30
0.0
 10
131.9241226678371
 20
40.20044828031713
 30
0.0
 10
131.9241226678371
 20
40.59535117183873
 30
0.0
 10
131.9241226678371
 20
41.37628720208602
 30
0.0
 10
131.9241226678371
 20
41.7636953340173
 30
0.0
 10
131.9241226678371
 20
42.91782496067727
 30
0.0
 10
131.9241226678371
 20
43.6764793696138
 30
0.0
 10
131.9241226678371
 20
44.42757850745921
 30
0.0
  0
SPLINE
  5
219
330
1F
100
AcDbEntity
  8
0
  6
Continuous
 62
     7
370
    25
100
AcDbSpline
210
0.0
220
0.0
230
1.0
 70
    24
 71
     3
 72
    10
 73
     6
 74
     0
 42
0.00000001
 43
0.00000001
 40
0.0
 40
0.0
 40
0.0
 40
0.0
 40
0.5
 40
0.5
 40
1.0
 40
1.0
 40
1.0
 40
1.0
 10
131.6741226678372
 20
44.8605912093514
 30
0.0
 10
131.0181099012321
 20
45.23934035674269
 30
0.0
 10
130.3578429943744
 20
45.62054563315399
 30
0.0
 10
129.0254964757393
 20
46.38977625434177
 30
0.0
 10
128.353343494252
 20
46.77784395914009
 30
0.0
 10
127.6741226678371
 20
47.16999228610994
 30
0.0
  0
LINE
  5
21A
330
1F
100
AcDbEntity
  8
0
  6
Continuous
 62
     7
370
    25
100
AcDbLine
 10
123.1741226678
 20
27.8087763539
 30
0.0
 11
123.1741226678
 21
30.138159345
 31
0.0
  0
LINE
  5
21B
330
1F
100
AcDbEntity
  8
0
  6
Continuous
 62
     7
370
    25
100
AcDbLine
 10
123.6741226678
 20
30.138159345
 30
0.0
 11
123.6741226678
 21
27.8087763539
 31
0.0
  0
LINE
  5
21C
330
1F
100
AcDbEntity
  8
0
  6
Continuous
 62
     7
370
    25
100
AcDbLine
 10
123.6741226678
 20
27.8087763539
 30
0.0
 11
123.1741226678
 21
27.8087763539
 31
0.0
  0
SPLINE
  5
21D
330
1F
100
AcDbEntity
  8
0
  6
Continuous
 62
     7
370
    25
100
AcDbSpline
210
0.0
220
0.0
230
1.0
 70
     8
 71
     3
 72
    10
 73
     6
 74
     0
 42
0.00000001
 43
0.00000001
 40
0.0
 40
0.0
 40
0.0
 40
0.0
 40
0.5
 40
0.5
 40
1.0
 40
1.0
 40
1.0
 40
1.0
 10
115.1741226678376
 20
31.84237981408735
 30
0.0
 10
115.8089503736512
 20
32.04444649963828
 30
0.0
 10
116.448216076227
 20
32.21083927190892
 30
0.0
 10
117.7390310078169
 20
32.44488624577897
 30
0.0
 10
118.3906506432867
 20
32.5119744997378
 30
0.0
 10
119.0496925751068
 20
32.51940016930759
 30
0.0
  0
LINE
  5
21E
330
1F
100
AcDbEntity
  8
0
  6
Continuous
 62
     7
370
    25
100
AcDbLine
 10
115.1741226678
 20
31.8423798141
 30
0.0
 11
115.1741226678
 21
27.8087763539
 31
0.0
  0
LINE
  5
21F
330
1F
100
AcDbEntity
  8
0
  6
Continuous
 62
     7
370
    25
100
AcDbLine
 10
115.1741226678
 20
27.8087763539
 30
0.0
 11
123.1741226678
 21
27.8087763539
 31
0.0
  0
SPLINE
  5
220
330
1F
100
AcDbEntity
  8
0
  6
Continuous
 62
     7
370
    25
100
AcDbSpline
210
0.0
220
0.0
230
1.0
 70
     8
 71
     3
 72
    12
 73
     8
 74
     0
 42
0.00000001
 43
0.00000001
 40
0.0
 40
0.0
 40
0.0
 40
0.0
 40
0.2500000000000002
 40
0.2500000000000002
 40
0.5000000000000004
 40
0.5000000000000004
 40
1.0
 40
1.0
 40
1.0
 40
1.0
 10
127.7985527605895
 20
32.51940016930734
 30
0.0
 10
128.1276877509827
 20
32.51569168345091
 30
0.0
 10
128.4571499039194
 20
32.49710918061323
 30
0.0
 10
129.110023521977
 20
32.43224214364708
 30
0.0
 10
129.4344761138541
 20
32.38597659039682
 30
0.0
 10
130.4025365550462
 20
32.21025206008986
 30
0.0
 10
131.0408590392941
 20
32.0439486513131
 30
0.0
 10
131.6741226678371
 20
31.84237981408721
 30
0.0
  0
LINE
  5
221
330
1F
100
AcDbEntity
  8
0
  6
Continuous
 62
     7
370
    25
100
AcDbLine
 10
131.6741226678
 20
27.8087763539
 30
0.0
 11
131.6741226678
 21
31.8423798141
 31
0.0
  0
LINE
  5
222
330
1F
100
AcDbEntity
  8
0
  6
Continuous
 62
     7
370
    25
100
AcDbLine
 10
123.6741226678
 20
27.8087763539
 30
0.0
 11
131.6741226678
 21
27.8087763539
 31
0.0
  0
SPLINE
  5
223
330
1F
100
AcDbEntity
  8
0
  6
Continuous
 62
     7
370
    25
100
AcDbSpline
210
0.0
220
0.0
230
1.0
 70
     8
 71
     3
 72
     8
 73
     4
 74
     0
 42
0.00000001
 43
0.00000001
 40
0.0
 40
0.0
 40
0.0
 40
0.0
 40
1.0
 40
1.0
 40
1.0
 40
1.0
 10
116.4959194375616
 20
32.80877635394221
 30
0.0
 10
115.9694985763524
 20
32.5455659233376
 30
0.0
 10
115.4459541196387
 20
32.27646849495089
 30
0.0
 10
114.9241226678371
 20
32.00386514236823
 30
0.0
  0
SPLINE
  5
224
330
1F
100
AcDbEntity
  8
0
  6
Continuous
 62
     7
370
    25
100
AcDbSpline
210
0.0
220
0.0
230
1.0
 70
     8
 71
     3
 72
    10
 73
     6
 74
     0
 42
0.00000001
 43
0.00000001
 40
0.0
 40
0.0
 40
0.0
 40
0.0
 40
0.5
 40
0.5
 40
1.0
 40
1.0
 40
1.0
 40
1.0
 10
114.9241226678371
 20
31.84237981408714
 30
0.0
 10
114.9241226678371
 20
31.81870441966272
 30
0.0
 10
114.946915117167
 20
31.80561330977815
 30
0.0
 10
115.0348578212602
 20
31.80552698848992
 30
0.0
 10
115.0997155949344
 20
31.81869592243386
 30
0.0
 10
115.1741226678378
 20
31.84237981408741
 30
0.0
  0
SPLINE
  5
225
330
1F
100
AcDbEntity
  8
0
  6
Continuous
 62
     7
370
    25
100
AcDbSpline
210
0.0
220
0.0
230
1.0
 70
    24
 71
     3
 72
     8
 73
     4
 74
     0
 42
0.00000001
 43
0.00000001
 40
0.0
 40
0.0
 40
0.0
 40
0.0
 40
1.0
 40
1.0
 40
1.0
 40
1.0
 10
114.9241226678371
 20
31.84237981408721
 30
0.0
 10
114.9241226678371
 20
31.89894078121142
 30
0.0
 10
114.9241226678371
 20
31.95288085262526
 30
0.0
 10
114.9241226678371
 20
32.00386514236822
 30
0.0
  0
SPLINE
  5
226
330
1F
100
AcDbEntity
  8
0
  6
Continuous
 62
     7
370
    25
100
AcDbSpline
210
0.0
220
0.0
230
1.0
 70
     8
 71
     3
 72
     8
 73
     4
 74
     0
 42
0.00000001
 43
0.00000001
 40
0.0
 40
0.0
 40
0.0
 40
0.0
 40
1.0
 40
1.0
 40
1.0
 40
1.0
 10
131.9241226678371
 20
32.00386514236822
 30
0.0
 10
131.4023165165353
 20
32.27645527803757
 30
0.0
 10
130.8786630476791
 20
32.54560777915896
 30
0.0
 10
130.3523258981126
 20
32.8087763539422
 30
0.0
  0
SPLINE
  5
227
330
1F
100
AcDbEntity
  8
0
  6
Continuous
 62
     7
370
    25
100
AcDbSpline
210
0.0
220
0.0
230
1.0
 70
     8
 71
     3
 72
    10
 73
     6
 74
     0
 42
0.00000001
 43
0.00000001
 40
0.0
 40
0.0
 40
0.0
 40
0.0
 40
0.5
 40
0.5
 40
1.0
 40
1.0
 40
1.0
 40
1.0
 10
131.6741226678371
 20
31.84237981408721
 30
0.0
 10
131.7485030452144
 20
31.81870441966282
 30
0.0
 10
131.8128036840002
 20
31.80561330977817
 30
0.0
 10
131.9010193687832
 20
31.80552698848989
 30
0.0
 10
131.9241226678371
 20
31.81869592243373
 30
0.0
 10
131.9241226678371
 20
31.8423798140872
 30
0.0
  0
SPLINE
  5
228
330
1F
100
AcDbEntity
  8
0
  6
Continuous
 62
     7
370
    25
100
AcDbSpline
210
0.0
220
0.0
230
1.0
 70
    24
 71
     3
 72
     8
 73
     4
 74
     0
 42
0.00000001
 43
0.00000001
 40
0.0
 40
0.0
 40
0.0
 40
0.0
 40
1.0
 40
1.0
 40
1.0
 40
1.0
 10
131.9241226678371
 20
31.84237981408721
 30
0.0
 10
131.9241226678371
 20
31.89894078121142
 30
0.0
 10
131.9241226678371
 20
31.95288085262526
 30
0.0
 10
131.9241226678371
 20
32.00386514236822
 30
0.0
  0
LINE
  5
229
330
1F
100
AcDbEntity
  8
0
  6
Continuous
 62
     7
370
    25
100
AcDbLine
 10
115.9241226678
 20
34.3239487966
 30
0.0
 11
115.9241226678
 21
32.8087763539
 31
0.0
  0
LINE
  5
22A
330
1F
100
AcDbEntity
  8
0
  6
Continuous
 62
     7
370
    25
100
AcDbLine
 10
115.9241226678
 20
32.8087763539
 30
0.0
 11
118.5484783208
 21
32.8087763539
 31
0.0
  0
LINE
  5
22B
330
1F
100
AcDbEntity
  8
0
  6
Continuous
 62
     7
370
    25
100
AcDbLine
 10
130.9241226678
 20
32.8087763539
 30
0.0
 11
130.9241226678
 21
34.3239487966
 31
0.0
  0
LINE
  5
22C
330
1F
100
AcDbEntity
  8
0
  6
Continuous
 62
     7
370
    25
100
AcDbLine
 10
128.2997670149
 20
32.8087763539
 30
0.0
 11
130.9241226678
 21
32.8087763539
 31
0.0
  0
LINE
  5
22D
330
1F
100
AcDbEntity
  8
0
  6
Continuous
 62
     7
370
    25
100
AcDbLine
 10
116.9681605537
 20
18.3975640077
 30
0.0
 11
129.880084782
 21
18.3975640077
 31
0.0
  0
LINE
  5
22E
330
1F
100
AcDbEntity
  8
0
  6
Continuous
 62
     7
370
    25
100
AcDbLine
 10
123.4241226678
 20
16.3087763539
 30
0.0
 11
118.1741226678
 21
16.3087763539
 31
0.0
  0
LINE
  5
22F
330
1F
100
AcDbEntity
  8
0
  6
Continuous
 62
     7
370
    25
100
AcDbLine
 10
128.6741226678
 20
16.3087763539
 30
0.0
 11
123.4241226678
 21
16.3087763539
 31
0.0
  0
LINE
  5
230
330
1F
100
AcDbEntity
  8
0
  6
Continuous
 62
     7
370
    25
100
AcDbLine
 10
115.1741226678
 20
27.8087763539
 30
0.0
 11
114.9241226678
 21
27.8087763539
 31
0.0
  0
LINE
  5
231
330
1F
100
AcDbEntity
  8
0
  6
Continuous
 62
     7
370
    25
100
AcDbLine
 10
114.9241226678
 20
27.8087763539
 30
0.0
 11
114.9241226678
 21
31.8423798141
 31
0.0
  0
LINE
  5
232
330
1F
100
AcDbEntity
  8
0
  6
Continuous
 62
     7
370
    25
100
AcDbLine
 10
131.9241226678
 20
27.8087763539
 30
0.0
 11
131.6741226678
 21
27.8087763539
 31
0.0
  0
LINE
  5
233
330
1F
100
AcDbEntity
  8
0
  6
Continuous
 62
     7
370
    25
100
AcDbLine
 10
131.9241226678
 20
31.8423798141
 30
0.0
 11
131.9241226678
 21
27.8087763539
 31
0.0
  0
LINE
  5
234
330
1F
100
AcDbEntity
  8
0
  6
Continuous
 62
     7
370
    25
100
AcDbLine
 10
114.9241226678
 20
32.0038651424
 30
0.0
 11
114.9241226678
 21
35.1416029706
 31
0.0
  0
LINE
  5
235
330
1F
100
AcDbEntity
  8
0
  6
Continuous
 62
     7
370
    25
100
AcDbLine
 10
131.9241226678
 20
32.0038651424
 30
0.0
 11
131.9241226678
 21
35.1416029706
 31
0.0
  0
SPLINE
  5
236
330
1F
100
AcDbEntity
  8
0
  6
Continuous
 62
     7
370
    25
100
AcDbSpline
210
0.0
220
0.0
230
1.0
 70
     8
 71
     3
 72
    12
 73
     8
 74
     0
 42
0.00000001
 43
0.00000001
 40
0.0
 40
0.0
 40
0.0
 40
0.0
 40
0.0055636252767551
 40
0.1916675400573889
 40
0.629136338261788
 40
0.8130584464103863
 40
1.0
 40
1.0
 40
1.0
 40
1.0
 10
121.0677580234021
 20
70.30877635394219
 30
0.0
 10
121.0663740282305
 20
70.30877221457345
 30
0.0
 10
121.0186952330585
 20
70.30862961283712
 30
0.0
 10
120.8621451988409
 20
70.28378310973244
 30
0.0
 10
120.6816642782875
 20
70.14826452302256
 30
0.0
 10
120.5708478749177
 20
69.91197436692126
 30
0.0
 10
120.5717652636775
 20
69.7676131338579
 30
0.0
 10
120.5722276925907
 20
69.69484484736553
 30
0.0
  0
SPLINE
  5
237
330
1F
100
AcDbEntity
  8
0
  6
Continuous
 62
     7
370
    25
100
AcDbSpline
210
0.0
220
0.0
230
1.0
 70
     8
 71
     3
 72
    12
 73
     8
 74
     0
 42
0.00000001
 43
0.00000001
 40
0.0
 40
0.0
 40
0.0
 40
0.0
 40
0.1835541808817692
 40
0.370865650482293
 40
0.8083330658171449
 40
0.994436392310255
 40
1.0
 40
1.0
 40
1.0
 40
1.0
 10
126.2760176430835
 20
69.69484484736553
 30
0.0
 10
126.2766007105071
 20
69.76635336625012
 30
0.0
 10
126.2777787805367
 20
69.91083415793656
 30
0.0
 10
126.1673357389868
 20
70.14771057122354
 30
0.0
 10
125.9861006011574
 20
70.28378079075598
 30
0.0
 10
125.8295501011888
 20
70.30862961996188
 30
0.0
 10
125.7818713074034
 20
70.30877221477444
 30
0.0
 10
125.7804873122721
 20
70.30877635394219
 30
0.0
  0
LINE
  5
238
330
1F
100
AcDbEntity
  8
0
  6
Continuous
 62
     7
370
    25
100
AcDbLine
 10
124.9119044876
 20
58.7169818342
 30
0.0
 11
126.2760176431
 21
69.6948448474
 31
0.0
  0
SPLINE
  5
239
330
1F
100
AcDbEntity
  8
0
  6
Continuous
 62
     7
370
    25
100
AcDbSpline
210
0.0
220
0.0
230
1.0
 70
     8
 71
     3
 72
    14
 73
    10
 74
     0
 42
0.00000001
 43
0.00000001
 40
0.0
 40
0.0
 40
0.0
 40
0.0
 40
0.0034863238848208
 40
0.0203208804397725
 40
0.2238597133569324
 40
0.4563556157495303
 40
0.6945924899112474
 40
0.845724996562609
 40
1.0
 40
1.0
 40
1.0
 40
1.0
 10
123.4253134951687
 20
57.3087763539422
 30
0.0
 10
123.4275661365695
 20
57.30877986029112
 30
0.0
 10
123.4406962008124
 20
57.30880029789232
 30
0.0
 10
123.5853323840687
 20
57.31126084064555
 30
0.0
 10
123.8773516432546
 20
57.3613041054533
 30
0.0
 10
124.2887360567929
 20
57.56990674264313
 30
0.0
 10
124.6106932865774
 20
57.9042830577719
 30
0.0
 10
124.8271212502886
 20
58.29648464834317
 30
0.0
 10
124.8834502091755
 20
58.57585790000436
 30
0.0
 10
124.911904487603
 20
58.7169818342122
 30
0.0
  0
SPLINE
  5
23A
330
1F
100
AcDbEntity
  8
0
  6
Continuous
 62
     7
370
    25
100
AcDbSpline
210
0.0
220
0.0
230
1.0
 70
     8
 71
     3
 72
    14
 73
    10
 74
     0
 42
0.00000001
 43
0.00000001
 40
0.0
 40
0.0
 40
0.0
 40
0.0
 40
0.1509076573000542
 40
0.3054080403738433
 40
0.5376023347316409
 40
0.7761416404828171
 40
0.9796792424551188
 40
0.9965136971994736
 40
1.0
 40
1.0
 40
1.0
 40
1.0
 10
121.9363408480713
 20
58.7169818342122
 30
0.0
 10
121.9639899858407
 20
58.57882245224857
 30
0.0
 10
122.0199465167103
 20
58.2992144664134
 30
0.0
 10
122.2334206139176
 20
57.91044535639786
 30
0.0
 10
122.5558646808351
 20
57.57246295685846
 30
0.0
 10
122.9670125000731
 20
57.36196528355512
 30
0.0
 10
123.2629126446668
 20
57.31126096591011
 30
0.0
 10
123.4075491368545
 20
57.30880029707904
 30
0.0
 10
123.4206791993966
 20
57.30877986017202
 30
0.0
 10
123.4229318405056
 20
57.3087763539422
 30
0.0
  0
LINE
  5
23B
330
1F
100
AcDbEntity
  8
0
  6
Continuous
 62
     7
370
    25
100
AcDbLine
 10
120.5722276926
 20
69.6948448474
 30
0.0
 11
121.9363408481
 21
58.7169818342
 31
0.0
  0
LINE
  5
23C
330
1F
100
AcDbEntity
  8
0
  6
Continuous
 62
     7
370
    25
100
AcDbLine
 10
121.4408105173
 20
59.0419523297
 30
0.0
 11
120.0766973618
 21
69.1753643418
 31
0.0
  0
ARC
  5
23D
330
1F
100
AcDbEntity
  8
0
  6
Continuous
 62
     7
370
    25
100
AcDbCircle
 10
120.5596643462
 20
69.2107465408
 30
0.0
 40
0.4842613014163201
100
AcDbArc
 50
88.5133904064
 51
184.1900080067
  0
ARC
  5
23E
330
1F
100
AcDbEntity
  8
0
  6
Continuous
 62
     7
370
    25
100
AcDbCircle
 10
121.8685244049
 20
59.1538613765
 30
0.0
 40
0.4421117555840633
100
AcDbArc
 50
194.6624451414
 51
278.823554246
  0
LINE
  5
23F
330
1F
100
AcDbEntity
  8
0
  6
Continuous
 62
     7
370
    25
100
AcDbLine
 10
126.7715479739
 20
69.1753643418
 30
0.0
 11
125.4074348184
 21
59.0419523297
 31
0.0
  0
ARC
  5
240
330
1F
100
AcDbEntity
  8
0
  6
Continuous
 62
     7
370
    25
100
AcDbCircle
 10
124.9797209308
 20
59.1538613765
 30
0.0
 40
0.4421117555841391
100
AcDbArc
 50
261.1764457541
 51
345.3375548586
  0
ARC
  5
241
330
1F
100
AcDbEntity
  8
0
  6
Continuous
 62
     7
370
    25
100
AcDbCircle
 10
126.2885809895
 20
69.2107465408
 30
0.0
 40
0.4842613014163304
100
AcDbArc
 50
355.8099919933
 51
91.4866095936
  0
SPLINE
  5
242
330
1F
100
AcDbEntity
  8
0
  6
Continuous
 62
     7
370
    25
100
AcDbSpline
210
0.0
220
0.0
230
1.0
 70
     8
 71
     3
 72
    15
 73
    11
 74
     0
 42
0.00000001
 43
0.00000001
 40
0.0
 40
0.0
 40
0.0
 40
0.0
 40
0.0032941481656695
 40
0.0389555300109693
 40
0.092316493658448
 40
0.2214838269818534
 40
0.4557558860746482
 40
0.6896123828215218
 40
0.8449486292273385
 40
1.0
 40
1.0
 40
1.0
 40
1.0
 10
123.4229318405056
 20
57.3087763539422
 30
0.0
 10
123.4200614292518
 20
57.30878037799643
 30
0.0
 10
123.3861168748127
 20
57.30882796515931
 30
0.0
 10
123.3056797205537
 20
57.31108368419699
 30
0.0
 10
123.1159412071159
 20
57.32738031385281
 30
0.0
 10
122.7572862335312
 20
57.40186258964853
 30
0.0
 10
122.2664534153804
 20
57.63432223125551
 30
0.0
 10
121.8364146184351
 20
58.04884479690465
 30
0.0
 10
121.5512286518289
 20
58.53178331176017
 30
0.0
 10
121.4775940346838
 20
58.87200007469401
 30
0.0
 10
121.4408105172598
 20
59.04195232965911
 30
0.0
  0
SPLINE
  5
243
330
1F
100
AcDbEntity
  8
0
  6
Continuous
 62
     7
370
    25
100
AcDbSpline
210
0.0
220
0.0
230
1.0
 70
     8
 71
     3
 72
    15
 73
    11
 74
     0
 42
0.00000001
 43
0.00000001
 40
0.0
 40
0.0
 40
0.0
 40
0.0
 40
0.1525119975281636
 40
0.3103908680493853
 40
0.5397217434700959
 40
0.7785238912153802
 40
0.9076867233570571
 40
0.9610458274988164
 40
0.9967059666277488
 40
1.0
 40
1.0
 40
1.0
 40
1.0
 10
125.4074348184144
 20
59.04195232965911
 30
0.0
 10
125.3714666635465
 20
58.87451641216919
 30
0.0
 10
125.2982646401481
 20
58.53375253382091
 30
0.0
 10
125.0159566166769
 20
58.05491834980196
 30
0.0
 10
124.585126796994
 20
57.63571927980369
 30
0.0
 10
124.0949072352775
 20
57.40281599358537
 30
0.0
 10
123.7323009366536
 20
57.32736970715434
 30
0.0
 10
123.542565973343
 20
57.31108487456715
 30
0.0
 10
123.4621284560409
 20
57.3088279491453
 30
0.0
 10
123.4281839060466
 20
57.30878037674784
 30
0.0
 10
123.4253134951687
 20
57.3087763539422
 30
0.0
  0
SPLINE
  5
244
330
1F
100
AcDbEntity
  8
0
  6
Continuous
 62
     7
370
    25
100
AcDbSpline
210
0.0
220
0.0
230
1.0
 70
     8
 71
     3
 72
    17
 73
    13
 74
     0
 42
0.00000001
 43
0.00000001
 40
0.0
 40
0.0
 40
0.0
 40
0.0
 40
0.164398525155122
 40
0.3825210752049383
 40
0.7105911790613387
 40
0.8150577891621212
 40
0.8799902898774311
 40
0.9216743917957981
 40
0.948759549159293
 40
0.9664454853042714
 40
0.9948962613988914
 40
0.9999999999999999
 40
0.9999999999999999
 40
0.9999999999999999
 40
0.9999999999999999
 10
120.0766973617793
 20
69.17536434180066
 30
0.0
 10
120.0734820414031
 20
69.2873688526139
 30
0.0
 10
120.06600066159
 20
69.5479799856132
 30
0.0
 10
120.2493578766075
 20
69.94091857409923
 30
0.0
 10
120.525356011482
 20
70.17361915447934
 30
0.0
 10
120.7672210155343
 20
70.26557259271488
 30
0.0
 10
120.8728426837184
 20
70.29075928085717
 30
0.0
 10
120.9405397465489
 20
70.30112471683312
 30
0.0
 10
120.9845265958721
 20
70.30550794198102
 30
0.0
 10
121.0218572201834
 20
70.30793029865899
 30
0.0
 10
121.0480184786846
 20
70.30872717859127
 30
0.0
 10
121.0651519699012
 20
70.30876986171569
 30
0.0
 10
121.0677580234021
 20
70.30877635394219
 30
0.0
  0
SPLINE
  5
245
330
1F
100
AcDbEntity
  8
0
  6
Continuous
 62
     7
370
    25
100
AcDbSpline
210
0.0
220
0.0
230
1.0
 70
     8
 71
     3
 72
    17
 73
    13
 74
     0
 42
0.00000001
 43
0.00000001
 40
0.0
 40
0.0
 40
0.0
 40
0.0
 40
0.0051037386011219
 40
0.0335545146957463
 40
0.0512404508406915
 40
0.0783256082042153
 40
0.1200097101225738
 40
0.184942210837869
 40
0.2894088209386605
 40
0.6174789247950602
 40
0.8356014748448779
 40
1.0
 40
1.0
 40
1.0
 40
1.0
 10
125.7804873122721
 20
70.30877635394219
 30
0.0
 10
125.7830933657731
 20
70.30876986171569
 30
0.0
 10
125.8002268569901
 20
70.30872717859125
 30
0.0
 10
125.8263881154908
 20
70.30793029865897
 30
0.0
 10
125.8637187398022
 20
70.30550794198102
 30
0.0
 10
125.9077055891254
 20
70.3011247168331
 30
0.0
 10
125.9754026519559
 20
70.29075928085719
 30
0.0
 10
126.0810243201399
 20
70.26557259271486
 30
0.0
 10
126.3228893241922
 20
70.17361915447938
 30
0.0
 10
126.5988874590667
 20
69.9409185740992
 30
0.0
 10
126.7822446740843
 20
69.54797998561318
 30
0.0
 10
126.7747632942711
 20
69.28736885261391
 30
0.0
 10
126.771547973895
 20
69.17536434180066
 30
0.0
  0
LWPOLYLINE
  5
246
330
1F
100
AcDbEntity
  8
0
  6
Continuous
 62
     7
370
    25
100
AcDbPolyline
 90
       15
 70
   128
 43
0.0
 10
123.4229318406
 20
57.3087761889
 10
122.5273080486
 20
57.3087761899
 10
121.6429600857
 20
57.308776193
 10
120.7810070351
 20
57.3087761981
 10
119.9522864045
 20
57.3087762052
 10
119.1672178636
 20
57.3087762142
 10
118.4356722357
 20
57.3087762249
 10
117.76684739
 20
57.3087762372
 10
117.1691525945
 20
57.308776251
 10
116.6501027852
 20
57.3087762661
 10
116.2162240788
 20
57.3087762823
 10
115.8729717188
 20
57.3087762994
 10
115.6246614856
 20
57.3087763172
 10
115.4744154332
 20
57.3087763354
 10
115.4241226353
 20
57.3087763539
  0
LINE
  5
247
330
1F
100
AcDbEntity
  8
0
  6
Continuous
 62
     7
370
    25
100
AcDbLine
 10
120.395276514
 20
66.8087763539
 30
0.0
 11
117.4990095445
 21
66.8087763539
 31
0.0
  0
LINE
  5
248
330
1F
100
AcDbEntity
  8
0
  6
Continuous
 62
     7
370
    25
100
AcDbLine
 10
129.3492357912
 20
66.8087763539
 30
0.0
 11
126.4529688217
 21
66.8087763539
 31
0.0
  0
LWPOLYLINE
  5
249
330
1F
100
AcDbEntity
  8
0
  6
Continuous
 62
     7
370
    25
100
AcDbPolyline
 90
       15
 70
   128
 43
0.0
 10
131.4241227004
 20
57.3087763539
 10
131.3738299024
 20
57.3087763724
 10
131.2235838501
 20
57.3087763906
 10
130.9752736169
 20
57.3087764084
 10
130.6320212569
 20
57.3087764255
 10
130.1981425504
 20
57.3087764417
 10
129.6790927411
 20
57.3087764568
 10
129.0813979457
 20
57.3087764706
 10
128.4125730999
 20
57.308776483
 10
127.6810274721
 20
57.3087764937
 10
126.8959589312
 20
57.3087765026
 10
126.0672383006
 20
57.3087765097
 10
125.20528525
 20
57.3087765149
 10
124.3209372871
 20
57.308776518
 10
123.4253134951
 20
57.3087761889
  0
LINE
  5
24A
330
1F
100
AcDbEntity
  8
0
  6
Continuous
 62
     7
370
    25
100
AcDbLine
 10
130.4585630546
 20
50.3087763539
 30
0.0
 11
116.3896822695
 21
50.3087763539
 31
0.0
  0
LINE
  5
24B
330
1F
100
AcDbEntity
  8
0
  6
Continuous
 62
     7
370
    25
100
AcDbLine
 10
118.3290147053
 20
68.8087763539
 30
0.0
 11
120.1260457448
 21
68.8087763539
 31
0.0
  0
LINE
  5
24C
330
1F
100
AcDbEntity
  8
0
  6
Continuous
 62
     7
370
    25
100
AcDbLine
 10
126.7221995909
 20
68.8087763539
 30
0.0
 11
128.5192306512
 21
68.8087763539
 31
0.0
  0
SPLINE
  5
24D
330
1F
100
AcDbEntity
  8
0
  6
Continuous
 62
     7
370
    25
100
AcDbSpline
210
0.0
220
0.0
230
1.0
 70
     8
 71
     3
 72
    18
 73
    14
 74
     0
 42
0.00000001
 43
0.00000001
 40
0.0
 40
0.0
 40
0.0
 40
0.0
 40
0.0468439812119429
 40
0.1374673230457386
 40
0.2589192696353459
 40
0.3805848843669185
 40
0.3960830475768315
 40
0.5262853019343947
 40
0.6564858975560687
 40
0.7574634489556448
 40
0.8582378678950447
 40
0.9375535255273479
 40
1.0
 40
1.0
 40
1.0
 40
1.0
 10
124.0385804548236
 20
49.26897356144352
 30
0.0
 10
124.1812286846308
 20
49.25830345339671
 30
0.0
 10
124.5998410608948
 20
49.22699118761878
 30
0.0
 10
125.3535317925209
 20
49.05444819600447
 30
0.0
 10
126.2510576494736
 20
48.73966768269899
 30
0.0
 10
126.8608413381032
 20
48.42456994193782
 30
0.0
 10
127.4365790142888
 20
48.07824521653258
 30
0.0
 10
127.9739513988554
 20
47.69768879431907
 30
0.0
 10
128.5398715690162
 20
47.20006253764578
 30
0.0
 10
128.9414496387712
 20
46.7868301042172
 30
0.0
 10
129.1807911506046
 20
46.51345058646359
 30
0.0
 10
129.3059693688014
 20
46.36172801563863
 30
0.0
 10
129.3132830802218
 20
46.35230089654256
 30
0.0
 10
129.3165047832728
 20
46.3481482336047
 30
0.0
  0
SPLINE
  5
24E
330
1F
100
AcDbEntity
  8
0
  6
Continuous
 62
     7
370
    25
100
AcDbSpline
210
0.0
220
0.0
230
1.0
 70
     8
 71
     3
 72
    19
 73
    15
 74
     0
 42
0.00000001
 43
0.00000001
 40
0.0
 40
0.0
 40
0.0
 40
0.0
 40
0.0663396187447871
 40
0.1059260403812741
 40
0.1953104907988834
 40
0.2848611984172899
 40
0.4058543547113271
 40
0.5269337410695453
 40
0.6283679805149265
 40
0.7297349427839727
 40
0.8191459785635938
 40
0.9084830379601639
 40
0.9868723889200149
 40
1.0
 40
1.0
 40
1.0
 40
1.0
 10
117.5260648716818
 20
46.34134445254462
 30
0.0
 10
117.5308047481717
 20
46.34714190453136
 30
0.0
 10
117.5383730212182
 20
46.35639883342053
 30
0.0
 10
117.6196304218284
 20
46.45540711056616
 30
0.0
 10
117.769299013799
 20
46.63224481236975
 30
0.0
 10
118.0776878478238
 20
46.96905555884967
 30
0.0
 10
118.5349317043944
 20
47.40964358908997
 30
0.0
 10
119.1332591436644
 20
47.89166237158082
 30
0.0
 10
119.8031436544734
 20
48.32759010939104
 30
0.0
 10
120.4932976712463
 20
48.68394091146452
 30
0.0
 10
121.2293842841388
 20
48.97078308838167
 30
0.0
 10
121.962191178212
 20
49.16276591357385
 30
0.0
 10
122.5027525595355
 20
49.26246641059215
 30
0.0
 10
122.7837219569709
 20
49.27540822979561
 30
0.0
 10
122.8240254907935
 20
49.27726466345975
 30
0.0
  0
LINE
  5
24F
330
1F
100
AcDbEntity
  8
0
  6
Continuous
 62
     7
370
    25
100
AcDbLine
 10
115.8909529196
 20
50.7731528289
 30
0.0
 11
130.9572924161
 21
50.7731528289
 31
0.0
  0
LINE
  5
250
330
1F
100
AcDbEntity
  8
0
  6
Continuous
 62
     7
370
    25
100
AcDbLine
 10
129.0083044516
 20
68.4127321994
 30
0.0
 11
126.6688859547
 21
68.4127321994
 31
0.0
  0
LINE
  5
251
330
1F
100
AcDbEntity
  8
0
  6
Continuous
 62
     7
370
    25
100
AcDbLine
 10
120.179359381
 20
68.4127321994
 30
0.0
 11
117.8399408841
 21
68.4127321994
 31
0.0
  0
INSERT
  5
25D
330
1F
100
AcDbEntity
  8
0
  6
Continuous
 62
     7
370
    18
100
AcDbBlockReference
  2
SW_CENTERMARKSYMBOL_0
 10
123.4241226678
 20
39.8087763539
 30
0.0
  0
LINE
  5
25E
330
1F
100
AcDbEntity
  8
0
  6
Continuous
 62
     7
370
    18
100
AcDbLine
 10
117.3578726678
 20
27.3087763539
 30
0.0
 11
117.674584364
 21
17.1740020765
 31
0.0
  0
LINE
  5
25F
330
1F
100
AcDbEntity
  8
0
  6
Continuous
 62
     7
370
    18
100
AcDbLine
 10
129.1736609717
 20
17.1740020765
 30
0.0
 11
129.4903726678
 21
27.3087763539
 31
0.0
  0
ARC
  5
260
330
1F
100
AcDbEntity
  8
0
  6
Continuous
 62
     7
370
    25
100
AcDbCircle
 10
21.2450313118
 20
109.9543281719
 30
0.0
 40
0.3000000000000114
100
AcDbArc
 50
90.0
 51
180.0
  0
ARC
  5
261
330
1F
100
AcDbEntity
  8
0
  6
Continuous
 62
     7
370
    25
100
AcDbCircle
 10
21.2450313118
 20
97.0543281719
 30
0.0
 40
0.3000000000000114
100
AcDbArc
 50
180.0
 51
270.0
  0
LINE
  5
262
330
1F
100
AcDbEntity
  8
0
  6
Continuous
 62
     7
370
    25
100
AcDbLine
 10
22.1950313118
 20
110.2543281719
 30
0.0
 11
21.2450313118
 21
110.2543281719
 31
0.0
  0
LINE
  5
263
330
1F
100
AcDbEntity
  8
0
  6
Continuous
 62
     7
370
    25
100
AcDbLine
 10
21.2450313118
 20
96.7543281719
 30
0.0
 11
22.1950313118
 21
96.7543281719
 31
0.0
  0
LINE
  5
264
330
1F
100
AcDbEntity
  8
0
  6
Continuous
 62
     7
370
    25
100
AcDbLine
 10
24.4450313118
 20
109.5043281719
 30
0.0
 11
23.6450313118
 21
109.5043281719
 31
0.0
  0
LINE
  5
265
330
1F
100
AcDbEntity
  8
0
  6
Continuous
 62
     7
370
    25
100
AcDbLine
 10
23.6450313118
 20
97.5043281719
 30
0.0
 11
24.4450313118
 21
97.5043281719
 31
0.0
  0
ARC
  5
266
330
1F
100
AcDbEntity
  8
0
  6
Continuous
 62
     7
370
    25
100
AcDbCircle
 10
23.6450313118
 20
109.3043281719
 30
0.0
 40
0.2000000000000171
100
AcDbArc
 50
90.0
 51
180.0
  0
ARC
  5
267
330
1F
100
AcDbEntity
  8
0
  6
Continuous
 62
     7
370
    25
100
AcDbCircle
 10
23.6450313118
 20
97.7043281719
 30
0.0
 40
0.2000000000000028
100
AcDbArc
 50
180.0
 51
270.0
  0
LINE
  5
268
330
1F
100
AcDbEntity
  8
0
  6
Continuous
 62
     7
370
    25
100
AcDbLine
 10
23.4450313118
 20
108.8543281719
 30
0.0
 11
22.1950313118
 21
108.8543281719
 31
0.0
  0
LINE
  5
269
330
1F
100
AcDbEntity
  8
0
  6
Continuous
 62
     7
370
    25
100
AcDbLine
 10
22.1950313118
 20
98.1543281719
 30
0.0
 11
23.4450313118
 21
98.1543281719
 31
0.0
  0
ARC
  5
26A
330
1F
100
AcDbEntity
  8
0
  6
Continuous
 62
     7
370
    25
100
AcDbCircle
 10
82.6450313118
 20
97.0543281719
 30
0.0
 40
0.3000000000000114
100
AcDbArc
 50
270.0
 51
0.0
  0
ARC
  5
26B
330
1F
100
AcDbEntity
  8
0
  6
Continuous
 62
     7
370
    25
100
AcDbCircle
 10
82.6450313118
 20
109.9543281719
 30
0.0
 40
0.2999999999999972
100
AcDbArc
 50
0.0
 51
90.0
  0
LINE
  5
26C
330
1F
100
AcDbEntity
  8
0
  6
Continuous
 62
     7
370
    25
100
AcDbLine
 10
81.6950313118
 20
96.7543281719
 30
0.0
 11
82.6450313118
 21
96.7543281719
 31
0.0
  0
LINE
  5
26D
330
1F
100
AcDbEntity
  8
0
  6
Continuous
 62
     7
370
    25
100
AcDbLine
 10
82.6450313118
 20
110.2543281719
 30
0.0
 11
81.6950313118
 21
110.2543281719
 31
0.0
  0
ARC
  5
26E
330
1F
100
AcDbEntity
  8
0
  6
Continuous
 62
     7
370
    25
100
AcDbCircle
 10
80.2450313118
 20
97.7043281719
 30
0.0
 40
0.2000000000000028
100
AcDbArc
 50
270.0
 51
0.0
  0
ARC
  5
26F
330
1F
100
AcDbEntity
  8
0
  6
Continuous
 62
     7
370
    25
100
AcDbCircle
 10
80.2450313118
 20
109.3043281719
 30
0.0
 40
0.2000000000000028
100
AcDbArc
 50
0.0
 51
90.0
  0
LINE
  5
270
330
1F
100
AcDbEntity
  8
0
  6
Continuous
 62
     7
370
    25
100
AcDbLine
 10
79.4450313118
 20
97.5043281719
 30
0.0
 11
80.2450313118
 21
97.5043281719
 31
0.0
  0
LINE
  5
271
330
1F
100
AcDbEntity
  8
0
  6
Continuous
 62
     7
370
    25
100
AcDbLine
 10
80.2450313118
 20
109.5043281719
 30
0.0
 11
79.4450313118
 21
109.5043281719
 31
0.0
  0
LINE
  5
272
330
1F
100
AcDbEntity
  8
0
  6
Continuous
 62
     7
370
    25
100
AcDbLine
 10
80.4450313118
 20
98.1543281719
 30
0.0
 11
81.6950313118
 21
98.1543281719
 31
0.0
  0
LINE
  5
273
330
1F
100
AcDbEntity
  8
0
  6
Continuous
 62
     7
370
    25
100
AcDbLine
 10
81.6950313118
 20
108.8543281719
 30
0.0
 11
80.4450313118
 21
108.8543281719
 31
0.0
  0
LINE
  5
274
330
1F
100
AcDbEntity
  8
0
  6
Continuous
 62
     7
370
    25
100
AcDbLine
 10
63.4450313118
 20
95.5043281719
 30
0.0
 11
66.2450313118
 21
95.5043281719
 31
0.0
  0
LINE
  5
275
330
1F
100
AcDbEntity
  8
0
  6
Continuous
 62
     7
370
    25
100
AcDbLine
 10
66.2450313118
 20
111.5043281719
 30
0.0
 11
63.4450313118
 21
111.5043281719
 31
0.0
  0
LINE
  5
276
330
1F
100
AcDbEntity
  8
0
  6
Continuous
 62
     7
370
    25
100
AcDbLine
 10
66.2450313118
 20
95.5043281719
 30
0.0
 11
66.4450313118
 21
95.7043281719
 31
0.0
  0
LINE
  5
277
330
1F
100
AcDbEntity
  8
0
  6
Continuous
 62
     7
370
    25
100
AcDbLine
 10
66.4450313118
 20
111.3043281719
 30
0.0
 11
66.2450313118
 21
111.5043281719
 31
0.0
  0
LINE
  5
278
330
1F
100
AcDbEntity
  8
0
  6
Continuous
 62
     7
370
    25
100
AcDbLine
 10
79.2450313118
 20
96.0043281719
 30
0.0
 11
79.4450313118
 21
96.2043281719
 31
0.0
  0
LINE
  5
279
330
1F
100
AcDbEntity
  8
0
  6
Continuous
 62
     7
370
    25
100
AcDbLine
 10
79.4450313118
 20
110.8043281719
 30
0.0
 11
79.2450313118
 21
111.0043281719
 31
0.0
  0
LINE
  5
27A
330
1F
100
AcDbEntity
  8
0
  6
Continuous
 62
     7
370
    25
100
AcDbLine
 10
66.4450313118
 20
96.0043281719
 30
0.0
 11
79.2450313118
 21
96.0043281719
 31
0.0
  0
LINE
  5
27B
330
1F
100
AcDbEntity
  8
0
  6
Continuous
 62
     7
370
    25
100
AcDbLine
 10
79.2450313118
 20
111.0043281719
 30
0.0
 11
66.4450313118
 21
111.0043281719
 31
0.0
  0
LINE
  5
27C
330
1F
100
AcDbEntity
  8
0
  6
Continuous
 62
     7
370
    25
100
AcDbLine
 10
37.6450313118
 20
111.5043281719
 30
0.0
 11
37.4450313118
 21
111.3043281719
 31
0.0
  0
LINE
  5
27D
330
1F
100
AcDbEntity
  8
0
  6
Continuous
 62
     7
370
    25
100
AcDbLine
 10
37.4450313118
 20
95.7043281719
 30
0.0
 11
37.6450313118
 21
95.5043281719
 31
0.0
  0
LINE
  5
27E
330
1F
100
AcDbEntity
  8
0
  6
Continuous
 62
     7
370
    25
100
AcDbLine
 10
40.4450313118
 20
111.5043281719
 30
0.0
 11
37.6450313118
 21
111.5043281719
 31
0.0
  0
LINE
  5
27F
330
1F
100
AcDbEntity
  8
0
  6
Continuous
 62
     7
370
    25
100
AcDbLine
 10
37.6450313118
 20
95.5043281719
 30
0.0
 11
40.4450313118
 21
95.5043281719
 31
0.0
  0
LINE
  5
280
330
1F
100
AcDbEntity
  8
0
  6
Continuous
 62
     7
370
    25
100
AcDbLine
 10
24.6450313118
 20
111.0043281719
 30
0.0
 11
24.4450313118
 21
110.8043281719
 31
0.0
  0
LINE
  5
281
330
1F
100
AcDbEntity
  8
0
  6
Continuous
 62
     7
370
    25
100
AcDbLine
 10
24.4450313118
 20
96.2043281719
 30
0.0
 11
24.6450313118
 21
96.0043281719
 31
0.0
  0
LINE
  5
282
330
1F
100
AcDbEntity
  8
0
  6
Continuous
 62
     7
370
    25
100
AcDbLine
 10
37.4450313118
 20
111.0043281719
 30
0.0
 11
24.6450313118
 21
111.0043281719
 31
0.0
  0
LINE
  5
283
330
1F
100
AcDbEntity
  8
0
  6
Continuous
 62
     7
370
    25
100
AcDbLine
 10
24.6450313118
 20
96.0043281719
 30
0.0
 11
37.4450313118
 21
96.0043281719
 31
0.0
  0
LINE
  5
284
330
1F
100
AcDbEntity
  8
0
  6
Continuous
 62
     7
370
    25
100
AcDbLine
 10
30.9450313118
 20
105.6248181865
 30
0.0
 11
30.9450313118
 21
101.3838381574
 31
0.0
  0
SPLINE
  5
285
330
1F
100
AcDbEntity
  8
0
  6
Continuous
 62
     7
370
    25
100
AcDbSpline
210
0.0
220
0.0
230
1.0
 70
     8
 71
     3
 72
     9
 73
     5
 74
     0
 42
0.00000001
 43
0.00000001
 40
0.0
 40
0.0
 40
0.0
 40
0.0
 40
0.9918105857815102
 40
1.0
 40
1.0
 40
1.0
 40
1.0
 10
64.05814301511008
 20
106.8541562587107
 30
0.0
 10
63.9948016524417
 20
106.8587539901211
 30
0.0
 10
63.93093727795684
 20
106.8633896851583
 30
0.0
 10
63.86839164725311
 20
106.8551801922532
 30
0.0
 10
63.86787943517572
 20
106.8551129613153
 30
0.0
  0
LINE
  5
286
330
1F
100
AcDbEntity
  8
0
  6
Continuous
 62
     7
370
    25
100
AcDbLine
 10
72.9450313118
 20
101.3838381574
 30
0.0
 11
72.9450313118
 21
105.6248181865
 31
0.0
  0
SPLINE
  5
287
330
1F
100
AcDbEntity
  8
0
  6
Continuous
 62
     7
370
    25
100
AcDbSpline
210
0.0
220
0.0
230
1.0
 70
     8
 71
     3
 72
     9
 73
     5
 74
     0
 42
0.00000001
 43
0.00000001
 40
0.0
 40
0.0
 40
0.0
 40
0.0
 40
0.9918105857816576
 40
1.0
 40
1.0
 40
1.0
 40
1.0
 10
35.05814301511008
 20
106.8541562587107
 30
0.0
 10
34.99480165244169
 20
106.8587539901211
 30
0.0
 10
34.93093727795686
 20
106.8633896851584
 30
0.0
 10
34.8683916472531
 20
106.8551801922532
 30
0.0
 10
34.86787943517572
 20
106.8551129613153
 30
0.0
  0
LINE
  5
288
330
1F
100
AcDbEntity
  8
0
  6
Continuous
 62
     7
370
    25
100
AcDbLine
 10
69.0213164185
 20
106.8509884026
 30
0.0
 11
68.83251302
 21
106.8559175264
 31
0.0
  0
LINE
  5
289
330
1F
100
AcDbEntity
  8
0
  6
Continuous
 62
     7
370
    25
100
AcDbLine
 10
40.0211612227
 20
106.8509924543
 30
0.0
 11
39.83251302
 21
106.8559175264
 31
0.0
  0
LINE
  5
28A
330
1F
100
AcDbEntity
  8
0
  6
Continuous
 62
     7
370
    25
100
AcDbLine
 10
68.8346611434
 20
106.8606928164
 30
0.0
 11
64.0554014802
 21
106.8606928164
 31
0.0
  0
LINE
  5
28B
330
1F
100
AcDbEntity
  8
0
  6
Continuous
 62
     7
370
    25
100
AcDbLine
 10
39.8346611434
 20
106.8606928164
 30
0.0
 11
35.0554014802
 21
106.8606928164
 31
0.0
  0
SPLINE
  5
28C
330
1F
100
AcDbEntity
  8
0
  6
Continuous
 62
     7
370
    25
100
AcDbSpline
210
0.0
220
0.0
230
1.0
 70
     8
 71
     3
 72
     9
 73
     5
 74
     0
 42
0.00000001
 43
0.00000001
 40
0.0
 40
0.0
 40
0.0
 40
0.0
 40
0.9918105858007293
 40
1.0
 40
1.0
 40
1.0
 40
1.0
 10
68.83191960847978
 20
100.1545000851686
 30
0.0
 10
68.89526097114931
 20
100.1499023537581
 30
0.0
 10
68.95912534563408
 20
100.1452666587209
 30
0.0
 10
69.02167097633793
 20
100.153476151626
 30
0.0
 10
69.02218318841413
 20
100.1535433825638
 30
0.0
  0
SPLINE
  5
28D
330
1F
100
AcDbEntity
  8
0
  6
Continuous
 62
     7
370
    25
100
AcDbSpline
210
0.0
220
0.0
230
1.0
 70
     8
 71
     3
 72
     9
 73
     5
 74
     0
 42
0.00000001
 43
0.00000001
 40
0.0
 40
0.0
 40
0.0
 40
0.0
 40
0.9903936197050949
 40
1.0
 40
1.0
 40
1.0
 40
1.0
 10
39.83191960847979
 20
100.1545000851686
 30
0.0
 10
39.89526035337879
 20
100.1499083711377
 30
0.0
 10
39.95921547550271
 20
100.1452721195106
 30
0.0
 10
40.0218499671057
 20
100.153499433565
 30
0.0
 10
40.02245165785162
 20
100.1535784682727
 30
0.0
  0
LINE
  5
28E
330
1F
100
AcDbEntity
  8
0
  6
Continuous
 62
     7
370
    25
100
AcDbLine
 10
34.8689014009
 20
100.1576638896
 30
0.0
 11
35.0575496036
 21
100.1527388175
 31
0.0
  0
LINE
  5
28F
330
1F
100
AcDbEntity
  8
0
  6
Continuous
 62
     7
370
    25
100
AcDbLine
 10
63.8689014009
 20
100.1576638896
 30
0.0
 11
64.0575496036
 21
100.1527388175
 31
0.0
  0
LINE
  5
290
330
1F
100
AcDbEntity
  8
0
  6
Continuous
 62
     7
370
    25
100
AcDbLine
 10
35.0554014802
 20
100.1479635275
 30
0.0
 11
39.8346611434
 21
100.1479635275
 31
0.0
  0
LINE
  5
291
330
1F
100
AcDbEntity
  8
0
  6
Continuous
 62
     7
370
    25
100
AcDbLine
 10
64.0554014802
 20
100.1479635275
 30
0.0
 11
68.8346611434
 21
100.1479635275
 31
0.0
  0
SPLINE
  5
292
330
1F
100
AcDbEntity
  8
0
  6
Continuous
 62
     7
370
    25
100
AcDbSpline
210
0.0
220
0.0
230
1.0
 70
     8
 71
     3
 72
    13
 73
     9
 74
     0
 42
0.00000001
 43
0.00000001
 40
0.0
 40
0.0
 40
0.0
 40
0.0
 40
0.1102527506704638
 40
0.3271335685174802
 40
0.5399797719778077
 40
0.750122307222318
 40
0.9470053177230416
 40
0.9999999999999999
 40
0.9999999999999999
 40
0.9999999999999999
 40
0.9999999999999999
 10
42.65173475179044
 20
106.5387785438964
 30
0.0
 10
42.57855934612102
 20
106.5540183346146
 30
0.0
 10
42.36143885308313
 20
106.5992366814659
 30
0.0
 10
41.95039778908761
 20
106.6668482989166
 30
0.0
 10
41.4020542555574
 20
106.7381270028465
 30
0.0
 10
40.81391150796735
 20
106.797434681472
 30
0.0
 10
40.34394365837787
 20
106.8344131222346
 30
0.0
 10
40.07829203607239
 20
106.8515890551859
 30
0.0
 10
40.02195197960739
 20
106.8552317697453
 30
0.0
  0
SPLINE
  5
293
330
1F
100
AcDbEntity
  8
0
  6
Continuous
 62
     7
370
    25
100
AcDbSpline
210
0.0
220
0.0
230
1.0
 70
     8
 71
     3
 72
    13
 73
     9
 74
     0
 42
0.00000001
 43
0.00000001
 40
0.0
 40
0.0
 40
0.0
 40
0.0
 40
0.1086865834468544
 40
0.3163871058826933
 40
0.5249786772454066
 40
0.7349647928550126
 40
0.9387027062526195
 40
1.0
 40
1.0
 40
1.0
 40
1.0
 10
63.86811064398241
 20
106.8552317697453
 30
0.0
 10
63.75305308567233
 20
106.8476125141673
 30
0.0
 10
63.4181200449125
 20
106.8254328288295
 30
0.0
 10
62.89330302239404
 20
106.7805188892376
 30
0.0
 10
62.31576127285867
 20
106.7175686896836
 30
0.0
 10
61.80038784876785
 20
106.6455263259102
 30
0.0
 10
61.45256958534489
 20
106.584209899515
 30
0.0
 10
61.27857037664405
 20
106.5473122300695
 30
0.0
 10
61.23832787179936
 20
106.5387785438964
 30
0.0
  0
SPLINE
  5
294
330
1F
100
AcDbEntity
  8
0
  6
Continuous
 62
     7
370
    25
100
AcDbSpline
210
0.0
220
0.0
230
1.0
 70
     8
 71
     3
 72
    19
 73
    15
 74
     0
 42
0.00000001
 43
0.00000001
 40
0.0
 40
0.0
 40
0.0
 40
0.0
 40
0.0537808282795472
 40
0.1565562194680622
 40
0.2597725238567691
 40
0.3636788834693352
 40
0.4686438811126461
 40
0.5753976994528531
 40
0.6856377307648477
 40
0.804177926241125
 40
0.8668138353842186
 40
0.9220886141592416
 40
0.9740624878998195
 40
1.0
 40
1.0
 40
1.0
 40
1.0
 10
34.86811064398247
 20
106.8552317697453
 30
0.0
 10
34.75305391809092
 20
106.8476123877328
 30
0.0
 10
34.41812330050497
 20
106.8254323343435
 30
0.0
 10
33.89327518544732
 20
106.7805231173405
 30
0.0
 10
33.3158642581088
 20
106.7175530474423
 30
0.0
 10
32.79305324206459
 20
106.6446143202947
 30
0.0
 10
32.32911246936799
 20
106.5618240830646
 30
0.0
 10
31.92615415420311
 20
106.4680937526742
 30
0.0
 10
31.57914185823338
 20
106.3573827029904
 30
0.0
 10
31.33370700164687
 20
106.2418526729366
 30
0.0
 10
31.14575960869015
 20
106.0981628710699
 30
0.0
 10
31.0240084016787
 20
105.9429598396861
 30
0.0
 10
30.94543089872019
 20
105.7698180301499
 30
0.0
 10
30.95418353123629
 20
105.6582464092727
 30
0.0
 10
30.95709737379402
 20
105.6211030542251
 30
0.0
  0
SPLINE
  5
295
330
1F
100
AcDbEntity
  8
0
  6
Continuous
 62
     7
370
    25
100
AcDbSpline
210
0.0
220
0.0
230
1.0
 70
     8
 71
     3
 72
    19
 73
    15
 74
     0
 42
0.00000001
 43
0.00000001
 40
0.0
 40
0.0
 40
0.0
 40
0.0
 40
0.0198326276073071
 40
0.0727028804957186
 40
0.1248484758992787
 40
0.1834729384726393
 40
0.258890685417766
 40
0.3673737584713788
 40
0.4734579698690596
 40
0.5852942275933863
 40
0.692510590875098
 40
0.7975530551235771
 40
0.9014239971301693
 40
1.0
 40
1.0
 40
1.0
 40
1.0
 10
72.9356331459419
 20
105.6260972518335
 30
0.0
 10
72.93797695242606
 20
105.6543761187305
 30
0.0
 10
72.94656892955062
 20
105.7580414081351
 30
0.0
 10
72.87649927179825
 20
105.9240315039343
 30
0.0
 10
72.76195259942574
 20
106.0797879371323
 30
0.0
 10
72.61464423528615
 20
106.2002276847128
 30
0.0
 10
72.41668546923674
 20
106.3112211324528
 30
0.0
 10
72.1461787382724
 20
106.4143291064573
 30
0.0
 10
71.77609176634556
 20
106.5152450921227
 30
0.0
 10
71.33459298995629
 20
106.6051192315568
 30
0.0
 10
70.8229551565189
 20
106.6852004819077
 30
0.0
 10
70.26003772584914
 20
106.7536648894164
 30
0.0
 10
69.6611580710827
 20
106.8113444534604
 30
0.0
 10
69.23127283696873
 20
106.8408599876322
 30
0.0
 10
69.0219519796074
 20
106.8552317697453
 30
0.0
  0
SPLINE
  5
296
330
1F
100
AcDbEntity
  8
0
  6
Continuous
 62
     7
370
    25
100
AcDbSpline
210
0.0
220
0.0
230
1.0
 70
     8
 71
     3
 72
    19
 73
    15
 74
     0
 42
0.00000001
 43
0.00000001
 40
0.0
 40
0.0
 40
0.0
 40
0.0
 40
0.0537808282795477
 40
0.1565562194680627
 40
0.2597725238567702
 40
0.363678883469327
 40
0.4686438811126347
 40
0.5753976994528456
 40
0.6856377307648404
 40
0.804177926241124
 40
0.8668138353842171
 40
0.9220886141592409
 40
0.9740624878998178
 40
0.9999999999999999
 40
0.9999999999999999
 40
0.9999999999999999
 40
0.9999999999999999
 10
69.02195197960734
 20
100.153424574134
 30
0.0
 10
69.13700870549889
 20
100.1610439561465
 30
0.0
 10
69.47193932308485
 20
100.1832240095357
 30
0.0
 10
69.99678743814249
 20
100.2281332265388
 30
0.0
 10
70.574198365481
 20
100.291103296437
 30
0.0
 10
71.09700938152518
 20
100.3640420235846
 30
0.0
 10
71.56095015422176
 20
100.4468322608147
 30
0.0
 10
71.9639084693867
 20
100.5405625912051
 30
0.0
 10
72.31092076535643
 20
100.6512736408889
 30
0.0
 10
72.55635562194293
 20
100.7668036709427
 30
0.0
 10
72.74430301489966
 20
100.9104934728094
 30
0.0
 10
72.86605422191111
 20
101.0656965041932
 30
0.0
 10
72.94463172486962
 20
101.2388383137294
 30
0.0
 10
72.93587909235352
 20
101.3504099346065
 30
0.0
 10
72.93296524979579
 20
101.3875532896542
 30
0.0
  0
SPLINE
  5
297
330
1F
100
AcDbEntity
  8
0
  6
Continuous
 62
     7
370
    25
100
AcDbSpline
210
0.0
220
0.0
230
1.0
 70
     8
 71
     3
 72
    19
 73
    15
 74
     0
 42
0.00000001
 43
0.00000001
 40
0.0
 40
0.0
 40
0.0
 40
0.0
 40
0.0198326276073095
 40
0.0727028804957218
 40
0.1248484758992827
 40
0.1834729384726439
 40
0.2588906854177739
 40
0.3673737584713895
 40
0.4734579698690689
 40
0.5852942275933936
 40
0.6925105908751179
 40
0.7975530551235895
 40
0.9014239971301748
 40
1.0
 40
1.0
 40
1.0
 40
1.0
 10
30.9544294776479
 20
101.3825590920458
 30
0.0
 10
30.95208567116375
 20
101.3542802251488
 30
0.0
 10
30.94349369403919
 20
101.2506149357442
 30
0.0
 10
31.01356335179158
 20
101.084624839945
 30
0.0
 10
31.12811002416408
 20
100.928868406747
 30
0.0
 10
31.27541838830366
 20
100.8084286591665
 30
0.0
 10
31.47337715435307
 20
100.6974352114265
 30
0.0
 10
31.74388388531744
 20
100.594327237422
 30
0.0
 10
32.11397085724427
 20
100.4934112517566
 30
0.0
 10
32.55546963363358
 20
100.4035371123224
 30
0.0
 10
33.06710746707096
 20
100.3234558619716
 30
0.0
 10
33.63002489774074
 20
100.2549914544629
 30
0.0
 10
34.22890455250713
 20
100.1973118904189
 30
0.0
 10
34.65878978662108
 20
100.1677963562471
 30
0.0
 10
34.8681106439824
 20
100.153424574134
 30
0.0
  0
SPLINE
  5
298
330
1F
100
AcDbEntity
  8
0
  6
Continuous
 62
     7
370
    25
100
AcDbSpline
210
0.0
220
0.0
230
1.0
 70
     8
 71
     3
 72
    13
 73
     9
 74
     0
 42
0.00000001
 43
0.00000001
 40
0.0
 40
0.0
 40
0.0
 40
0.0
 40
0.1102527506704639
 40
0.3271335685174946
 40
0.5399797719778137
 40
0.7501223072223393
 40
0.9470053177230638
 40
1.0
 40
1.0
 40
1.0
 40
1.0
 10
61.23832787179936
 20
100.4698777999829
 30
0.0
 10
61.31150327746879
 20
100.4546380092646
 30
0.0
 10
61.52862377050668
 20
100.4094196624134
 30
0.0
 10
61.93966483450222
 20
100.3418080449627
 30
0.0
 10
62.48800836803244
 20
100.2705293410328
 30
0.0
 10
63.07615111562249
 20
100.2112216624073
 30
0.0
 10
63.546118965212
 20
100.1742432216447
 30
0.0
 10
63.81177058751744
 20
100.1570672886934
 30
0.0
 10
63.86811064398241
 20
100.153424574134
 30
0.0
  0
SPLINE
  5
299
330
1F
100
AcDbEntity
  8
0
  6
Continuous
 62
     7
370
    25
100
AcDbSpline
210
0.0
220
0.0
230
1.0
 70
     8
 71
     3
 72
    13
 73
     9
 74
     0
 42
0.00000001
 43
0.00000001
 40
0.0
 40
0.0
 40
0.0
 40
0.0
 40
0.1086865834468542
 40
0.3163871058826917
 40
0.5249786772454142
 40
0.7349647928550073
 40
0.9387027062526125
 40
1.0
 40
1.0
 40
1.0
 40
1.0
 10
40.02195197960739
 20
100.153424574134
 30
0.0
 10
40.13700953791747
 20
100.1610438297119
 30
0.0
 10
40.47194257867731
 20
100.1832235150498
 30
0.0
 10
40.99675960119578
 20
100.2281374546417
 30
0.0
 10
41.57430135073114
 20
100.2910876541956
 30
0.0
 10
42.08967477482196
 20
100.3631300179691
 30
0.0
 10
42.43749303824492
 20
100.4244464443643
 30
0.0
 10
42.61149224694576
 20
100.4613441138098
 30
0.0
 10
42.65173475179045
 20
100.4698777999829
 30
0.0
  0
LINE
  5
29A
330
1F
100
AcDbEntity
  8
0
  6
Continuous
 62
     7
370
    25
100
AcDbLine
 10
42.7088184797
 20
106.5273048109
 30
0.0
 11
42.6517347518
 21
106.5387785439
 31
0.0
  0
LINE
  5
29B
330
1F
100
AcDbEntity
  8
0
  6
Continuous
 62
     7
370
    25
100
AcDbLine
 10
46.5936620786
 20
106.5202480593
 30
0.0
 11
46.5634955104
 21
106.5147534302
 31
0.0
  0
LINE
  5
29C
330
1F
100
AcDbEntity
  8
0
  6
Continuous
 62
     7
370
    25
100
AcDbLine
 10
57.2973478969
 20
106.5197922164
 30
0.0
 11
57.294599974
 21
106.5203056566
 31
0.0
  0
LINE
  5
29D
330
1F
100
AcDbEntity
  8
0
  6
Continuous
 62
     7
370
    25
100
AcDbLine
 10
61.2383278718
 20
106.5387785439
 30
0.0
 11
61.154051309
 21
106.5223392111
 31
0.0
  0
LINE
  5
29E
330
1F
100
AcDbEntity
  8
0
  6
Continuous
 62
     7
370
    25
100
AcDbLine
 10
46.5927147267
 20
100.4888641275
 30
0.0
 11
46.5954626496
 21
100.4883506873
 31
0.0
  0
LINE
  5
29F
330
1F
100
AcDbEntity
  8
0
  6
Continuous
 62
     7
370
    25
100
AcDbLine
 10
42.6517347518
 20
100.4698778
 30
0.0
 11
42.7360113146
 21
100.4863171327
 31
0.0
  0
LINE
  5
2A0
330
1F
100
AcDbEntity
  8
0
  6
Continuous
 62
     7
370
    25
100
AcDbLine
 10
61.1812441439
 20
100.4813515329
 30
0.0
 11
61.2383278718
 21
100.4698778
 31
0.0
  0
LINE
  5
2A1
330
1F
100
AcDbEntity
  8
0
  6
Continuous
 62
     7
370
    25
100
AcDbLine
 10
57.296400545
 20
100.4884082846
 30
0.0
 11
57.3265671132
 21
100.4939029136
 31
0.0
  0
LINE
  5
2A2
330
1F
100
AcDbEntity
  8
0
  6
Continuous
 62
     7
370
    25
100
AcDbLine
 10
20.9450313118
 20
97.0543281719
 30
0.0
 11
20.9450313118
 21
109.9543281719
 31
0.0
  0
LINE
  5
2A3
330
1F
100
AcDbEntity
  8
0
  6
Continuous
 62
     7
370
    25
100
AcDbLine
 10
22.1950313118
 20
110.2543281719
 30
0.0
 11
22.1950313118
 21
96.7543281719
 31
0.0
  0
LINE
  5
2A4
330
1F
100
AcDbEntity
  8
0
  6
Continuous
 62
     7
370
    25
100
AcDbLine
 10
23.4450313118
 20
97.7043281719
 30
0.0
 11
23.4450313118
 21
109.3043281719
 31
0.0
  0
LINE
  5
2A5
330
1F
100
AcDbEntity
  8
0
  6
Continuous
 62
     7
370
    25
100
AcDbLine
 10
82.9450313118
 20
109.9543281719
 30
0.0
 11
82.9450313118
 21
97.0543281719
 31
0.0
  0
LINE
  5
2A6
330
1F
100
AcDbEntity
  8
0
  6
Continuous
 62
     7
370
    25
100
AcDbLine
 10
81.6950313118
 20
96.7543281719
 30
0.0
 11
81.6950313118
 21
110.2543281719
 31
0.0
  0
LINE
  5
2A7
330
1F
100
AcDbEntity
  8
0
  6
Continuous
 62
     7
370
    25
100
AcDbLine
 10
80.4450313118
 20
109.3043281719
 30
0.0
 11
80.4450313118
 21
97.7043281719
 31
0.0
  0
LINE
  5
2A8
330
1F
100
AcDbEntity
  8
0
  6
Continuous
 62
     7
370
    25
100
AcDbLine
 10
66.2450313118
 20
109.6863949714
 30
0.0
 11
66.2450313118
 21
111.5043281719
 31
0.0
  0
LINE
  5
2A9
330
1F
100
AcDbEntity
  8
0
  6
Continuous
 62
     7
370
    25
100
AcDbLine
 10
66.2450313118
 20
95.5043281719
 30
0.0
 11
66.2450313118
 21
100.1479635275
 31
0.0
  0
LINE
  5
2AA
330
1F
100
AcDbEntity
  8
0
  6
Continuous
 62
     7
370
    25
100
AcDbLine
 10
66.2450313118
 20
106.8606928164
 30
0.0
 11
66.2450313118
 21
109.6863949714
 31
0.0
  0
LINE
  5
2AB
330
1F
100
AcDbEntity
  8
0
  6
Continuous
 62
     7
370
    25
100
AcDbLine
 10
66.4450313118
 20
109.5318433014
 30
0.0
 11
66.4450313118
 21
106.8606928164
 31
0.0
  0
LINE
  5
2AC
330
1F
100
AcDbEntity
  8
0
  6
Continuous
 62
     7
370
    25
100
AcDbLine
 10
66.4450313118
 20
100.1479635275
 30
0.0
 11
66.4450313118
 21
95.7043281719
 31
0.0
  0
LINE
  5
2AD
330
1F
100
AcDbEntity
  8
0
  6
Continuous
 62
     7
370
    25
100
AcDbLine
 10
66.4450313118
 20
111.3043281719
 30
0.0
 11
66.4450313118
 21
109.5318433014
 31
0.0
  0
LINE
  5
2AE
330
1F
100
AcDbEntity
  8
0
  6
Continuous
 62
     7
370
    25
100
AcDbLine
 10
79.4450313118
 20
109.1454641265
 30
0.0
 11
79.4450313118
 21
96.2043281719
 31
0.0
  0
LINE
  5
2AF
330
1F
100
AcDbEntity
  8
0
  6
Continuous
 62
     7
370
    25
100
AcDbLine
 10
79.4450313118
 20
110.8043281719
 30
0.0
 11
79.4450313118
 21
109.1454641265
 31
0.0
  0
LINE
  5
2B0
330
1F
100
AcDbEntity
  8
0
  6
Continuous
 62
     7
370
    25
100
AcDbLine
 10
79.2450313118
 20
109.3000157964
 30
0.0
 11
79.2450313118
 21
111.0043281719
 31
0.0
  0
LINE
  5
2B1
330
1F
100
AcDbEntity
  8
0
  6
Continuous
 62
     7
370
    25
100
AcDbLine
 10
79.2450313118
 20
96.0043281719
 30
0.0
 11
79.2450313118
 21
109.3000157964
 31
0.0
  0
LINE
  5
2B2
330
1F
100
AcDbEntity
  8
0
  6
Continuous
 62
     7
370
    25
100
AcDbLine
 10
37.4450313118
 20
95.7043281719
 30
0.0
 11
37.4450313118
 21
100.1479635275
 31
0.0
  0
LINE
  5
2B3
330
1F
100
AcDbEntity
  8
0
  6
Continuous
 62
     7
370
    25
100
AcDbLine
 10
37.4450313118
 20
106.8606928164
 30
0.0
 11
37.4450313118
 21
111.3043281719
 31
0.0
  0
LINE
  5
2B4
330
1F
100
AcDbEntity
  8
0
  6
Continuous
 62
     7
370
    25
100
AcDbLine
 10
37.6450313118
 20
111.5043281719
 30
0.0
 11
37.6450313118
 21
106.8606928164
 31
0.0
  0
LINE
  5
2B5
330
1F
100
AcDbEntity
  8
0
  6
Continuous
 62
     7
370
    25
100
AcDbLine
 10
37.6450313118
 20
100.1479635275
 30
0.0
 11
37.6450313118
 21
95.5043281719
 31
0.0
  0
LINE
  5
2B6
330
1F
100
AcDbEntity
  8
0
  6
Continuous
 62
     7
370
    25
100
AcDbLine
 10
24.4450313118
 20
96.2043281719
 30
0.0
 11
24.4450313118
 21
110.8043281719
 31
0.0
  0
LINE
  5
2B7
330
1F
100
AcDbEntity
  8
0
  6
Continuous
 62
     7
370
    25
100
AcDbLine
 10
24.6450313118
 20
111.0043281719
 30
0.0
 11
24.6450313118
 21
96.0043281719
 31
0.0
  0
SPLINE
  5
2B8
330
1F
100
AcDbEntity
  8
0
  6
Continuous
 62
     7
370
    25
100
AcDbSpline
210
0.0
220
0.0
230
1.0
 70
     8
 71
     3
 72
     9
 73
     5
 74
     0
 42
0.00000001
 43
0.00000001
 40
0.0
 40
0.0
 40
0.0
 40
0.0
 40
0.5310676327665099
 40
1.0
 40
1.0
 40
1.0
 40
1.0
 10
63.44503131179491
 20
99.25432817193965
 30
0.0
 10
63.44563386605193
 20
99.42050683971533
 30
0.0
 10
63.44676847531794
 20
99.73342116083484
 30
0.0
 10
63.40174687952757
 20
100.0438449166229
 30
0.0
 10
63.38063479603698
 20
100.1894126632701
 30
0.0
  0
LINE
  5
2B9
330
1F
100
AcDbEntity
  8
0
  6
Continuous
 62
     7
370
    25
100
AcDbLine
 10
63.4018028703
 20
106.821352271
 30
0.0
 11
63.4450313118
 21
107.7543281719
 31
0.0
  0
LINE
  5
2BA
330
1F
100
AcDbEntity
  8
0
  6
Continuous
 62
     7
370
    25
100
AcDbLine
 10
63.4450313118
 20
99.2543281719
 30
0.0
 11
63.4450313118
 21
100.1652870079
 31
0.0
  0
LINE
  5
2BB
330
1F
100
AcDbEntity
  8
0
  6
Continuous
 62
     7
370
    25
100
AcDbLine
 10
63.4450313118
 20
106.8402096448
 30
0.0
 11
63.4450313118
 21
107.7543281719
 31
0.0
  0
SPLINE
  5
2BC
330
1F
100
AcDbEntity
  8
0
  6
Continuous
 62
     7
370
    25
100
AcDbSpline
210
0.0
220
0.0
230
1.0
 70
     8
 71
     3
 72
     9
 73
     5
 74
     0
 42
0.00000001
 43
0.00000001
 40
0.0
 40
0.0
 40
0.0
 40
0.0
 40
0.5312495079135291
 40
1.0
 40
1.0
 40
1.0
 40
1.0
 10
40.4450313117949
 20
99.25432817193965
 30
0.0
 10
40.44442727149265
 20
99.42050691990158
 30
0.0
 10
40.44329025339992
 20
99.73331426463606
 30
0.0
 10
40.4882936386236
 20
100.0436318966929
 30
0.0
 10
40.50938899759276
 20
100.1890934394227
 30
0.0
  0
LINE
  5
2BD
330
1F
100
AcDbEntity
  8
0
  6
Continuous
 62
     7
370
    25
100
AcDbLine
 10
40.4450313118
 20
99.2543281719
 30
0.0
 11
40.4450313118
 21
100.1645455765
 31
0.0
  0
LINE
  5
2BE
330
1F
100
AcDbEntity
  8
0
  6
Continuous
 62
     7
370
    25
100
AcDbLine
 10
40.4450313118
 20
106.8394649662
 30
0.0
 11
40.4450313118
 21
107.7543281719
 31
0.0
  0
LINE
  5
2BF
330
1F
100
AcDbEntity
  8
0
  6
Continuous
 62
     7
370
    25
100
AcDbLine
 10
40.4882808633
 20
106.8208966658
 30
0.0
 11
40.4450313118
 21
107.7543281719
 31
0.0
  0
SPLINE
  5
2C0
330
1F
100
AcDbEntity
  8
0
  6
Continuous
 62
     7
370
    25
100
AcDbSpline
210
0.0
220
0.0
230
1.0
 70
     8
 71
     3
 72
     9
 73
     5
 74
     0
 42
0.00000001
 43
0.00000001
 40
0.0
 40
0.0
 40
0.0
 40
0.0
 40
0.3922288623154331
 40
1.0
 40
1.0
 40
1.0
 40
1.0
 10
58.01850602798289
 20
108.6933441892377
 30
0.0
 10
58.05133802199533
 20
109.0998329157436
 30
0.0
 10
58.13504423835744
 20
110.1361888945114
 30
0.0
 10
58.43838870528202
 20
111.1426376604462
 30
0.0
 10
58.62275271705509
 20
111.7543281719396
 30
0.0
  0
LINE
  5
2C1
330
1F
100
AcDbEntity
  8
0
  6
Continuous
 62
     7
370
    25
100
AcDbLine
 10
62.7673099065
 20
111.7543281719
 30
0.0
 11
58.6227527171
 21
111.7543281719
 31
0.0
  0
SPLINE
  5
2C2
330
1F
100
AcDbEntity
  8
0
  6
Continuous
 62
     7
370
    25
100
AcDbSpline
210
0.0
220
0.0
230
1.0
 70
     8
 71
     3
 72
    12
 73
     8
 74
     0
 42
0.00000001
 43
0.00000001
 40
0.0
 40
0.0
 40
0.0
 40
0.0
 40
0.2499999999999999
 40
0.2499999999999999
 40
0.4999999999999998
 40
0.4999999999999998
 40
1.0
 40
1.0
 40
1.0
 40
1.0
 10
63.44503131179491
 20
107.7543281719396
 30
0.0
 10
63.44503131179491
 20
108.0920841069624
 30
0.0
 10
63.42928498177294
 20
108.4324921218409
 30
0.0
 10
63.36783995718751
 20
109.1069868062413
 30
0.0
 10
63.32225119793379
 20
109.4421121251086
 30
0.0
 10
63.14580019567718
 20
110.4418234434487
 30
0.0
 10
62.9753424937137
 20
111.100757546514
 30
0.0
 10
62.76730990653486
 20
111.7543281719397
 30
0.0
  0
SPLINE
  5
2C3
330
1F
100
AcDbEntity
  8
0
  6
Continuous
 62
     7
370
    25
100
AcDbSpline
210
0.0
220
0.0
230
1.0
 70
     8
 71
     3
 72
    12
 73
     8
 74
     0
 42
0.00000001
 43
0.00000001
 40
0.0
 40
0.0
 40
0.0
 40
0.0
 40
0.2500000000000001
 40
0.2500000000000001
 40
0.5000000000000002
 40
0.5000000000000002
 40
1.0
 40
1.0
 40
1.0
 40
1.0
 10
40.44503131179491
 20
107.7543281719396
 30
0.0
 10
40.4450313117949
 20
108.0920841069624
 30
0.0
 10
40.46077764181687
 20
108.4324921218409
 30
0.0
 10
40.52222266640229
 20
109.1069868062413
 30
0.0
 10
40.56781142565602
 20
109.4421121251086
 30
0.0
 10
40.74426242791262
 20
110.4418234434487
 30
0.0
 10
40.91472012987611
 20
111.100757546514
 30
0.0
 10
41.12275271705496
 20
111.7543281719397
 30
0.0
  0
LINE
  5
2C4
330
1F
100
AcDbEntity
  8
0
  6
Continuous
 62
     7
370
    25
100
AcDbLine
 10
45.2673099065
 20
111.7543281719
 30
0.0
 11
41.1227527171
 21
111.7543281719
 31
0.0
  0
SPLINE
  5
2C5
330
1F
100
AcDbEntity
  8
0
  6
Continuous
 62
     7
370
    25
100
AcDbSpline
210
0.0
220
0.0
230
1.0
 70
     8
 71
     3
 72
    10
 73
     6
 74
     0
 42
0.00000001
 43
0.00000001
 40
0.0
 40
0.0
 40
0.0
 40
0.0
 40
0.6454186637902446
 40
0.9738588304923355
 40
1.0
 40
1.0
 40
1.0
 40
1.0
 10
45.2673099065347
 20
111.7543281719397
 30
0.0
 10
45.44879373483556
 20
111.1031650312831
 30
0.0
 10
45.72263091788886
 20
110.120638478835
 30
0.0
 10
45.88427321983763
 20
109.0892061151556
 30
0.0
 10
45.90029168813182
 20
108.7215373989309
 30
0.0
 10
45.90147263436946
 20
108.6944313748626
 30
0.0
  0
SPLINE
  5
2C6
330
1F
100
AcDbEntity
  8
0
  6
Continuous
 62
     7
370
    25
100
AcDbSpline
210
0.0
220
0.0
230
1.0
 70
     8
 71
     3
 72
     9
 73
     5
 74
     0
 42
0.00000001
 43
0.00000001
 40
0.0
 40
0.0
 40
0.0
 40
0.0
 40
0.3922288623154187
 40
1.0
 40
1.0
 40
1.0
 40
1.0
 10
45.87155659560691
 20
98.31531215464152
 30
0.0
 10
45.83872460159447
 20
97.90882342813565
 30
0.0
 10
45.75501838523237
 20
96.87246744936785
 30
0.0
 10
45.45167391830779
 20
95.86601868343307
 30
0.0
 10
45.26730990653471
 20
95.25432817193965
 30
0.0
  0
LINE
  5
2C7
330
1F
100
AcDbEntity
  8
0
  6
Continuous
 62
     7
370
    25
100
AcDbLine
 10
41.1227527171
 20
95.2543281719
 30
0.0
 11
45.2673099065
 21
95.2543281719
 31
0.0
  0
SPLINE
  5
2C8
330
1F
100
AcDbEntity
  8
0
  6
Continuous
 62
     7
370
    25
100
AcDbSpline
210
0.0
220
0.0
230
1.0
 70
     8
 71
     3
 72
    10
 73
     6
 74
     0
 42
0.00000001
 43
0.00000001
 40
0.0
 40
0.0
 40
0.0
 40
0.0
 40
0.5
 40
0.5
 40
1.0
 40
1.0
 40
1.0
 40
1.0
 10
41.12275271705463
 20
95.2543281719396
 30
0.0
 10
40.91394279238837
 20
95.91034093854469
 30
0.0
 10
40.74340865264111
 20
96.57060784540242
 30
0.0
 10
40.50862284762221
 20
97.90295436403743
 30
0.0
 10
40.4450313117949
 20
98.57510734552476
 30
0.0
 10
40.4450313117949
 20
99.25432817193965
 30
0.0
  0
SPLINE
  5
2C9
330
1F
100
AcDbEntity
  8
0
  6
Continuous
 62
     7
370
    25
100
AcDbSpline
210
0.0
220
0.0
230
1.0
 70
     8
 71
     3
 72
    10
 73
     6
 74
     0
 42
0.00000001
 43
0.00000001
 40
0.0
 40
0.0
 40
0.0
 40
0.0
 40
0.6454186637902602
 40
0.9738588304923588
 40
1.0
 40
1.0
 40
1.0
 40
1.0
 10
58.62275271705511
 20
95.2543281719396
 30
0.0
 10
58.44126888875425
 20
95.90549131259615
 30
0.0
 10
58.16743170570095
 20
96.88801786504426
 30
0.0
 10
58.0057894037522
 20
97.91945022872369
 30
0.0
 10
57.98977093545798
 20
98.28711894494832
 30
0.0
 10
57.98858998922035
 20
98.31422496901666
 30
0.0
  0
SPLINE
  5
2CA
330
1F
100
AcDbEntity
  8
0
  6
Continuous
 62
     7
370
    25
100
AcDbSpline
210
0.0
220
0.0
230
1.0
 70
     8
 71
     3
 72
    10
 73
     6
 74
     0
 42
0.00000001
 43
0.00000001
 40
0.0
 40
0.0
 40
0.0
 40
0.0
 40
0.5
 40
0.5
 40
1.0
 40
1.0
 40
1.0
 40
1.0
 10
62.76730990653517
 20
95.2543281719396
 30
0.0
 10
62.97611983120144
 20
95.91034093854469
 30
0.0
 10
63.14665397094869
 20
96.57060784540242
 30
0.0
 10
63.38143977596761
 20
97.90295436403743
 30
0.0
 10
63.44503131179491
 20
98.57510734552476
 30
0.0
 10
63.44503131179491
 20
99.25432817193965
 30
0.0
  0
LINE
  5
2CB
330
1F
100
AcDbEntity
  8
0
  6
Continuous
 62
     7
370
    25
100
AcDbLine
 10
58.6227527171
 20
95.2543281719
 30
0.0
 11
62.7673099065
 21
95.2543281719
 31
0.0
  0
LINE
  5
2CC
330
1F
100
AcDbEntity
  8
0
  6
Continuous
 62
     7
370
    25
100
AcDbLine
 10
57.9450313118
 20
98.2128255498
 30
0.0
 11
57.9450313118
 21
96.0043281719
 31
0.0
  0
LINE
  5
2CD
330
1F
100
AcDbEntity
  8
0
  6
Continuous
 62
     7
370
    25
100
AcDbLine
 10
57.9450313118
 20
96.0043281719
 30
0.0
 11
54.7289134932
 21
96.0043281719
 31
0.0
  0
LINE
  5
2CE
330
1F
100
AcDbEntity
  8
0
  6
Continuous
 62
     7
370
    25
100
AcDbLine
 10
49.1611491304
 20
96.0043281719
 30
0.0
 11
45.9450313118
 21
96.0043281719
 31
0.0
  0
LINE
  5
2CF
330
1F
100
AcDbEntity
  8
0
  6
Continuous
 62
     7
370
    25
100
AcDbLine
 10
45.9450313118
 20
98.2128255498
 30
0.0
 11
45.9450313118
 21
96.0043281719
 31
0.0
  0
LINE
  5
2D0
330
1F
100
AcDbEntity
  8
0
  6
Continuous
 62
     7
370
    25
100
AcDbLine
 10
45.9450313118
 20
111.0043281719
 30
0.0
 11
45.9450313118
 21
108.7958307941
 31
0.0
  0
LINE
  5
2D1
330
1F
100
AcDbEntity
  8
0
  6
Continuous
 62
     7
370
    25
100
AcDbLine
 10
45.9450313118
 20
111.0043281719
 30
0.0
 11
49.1611491304
 21
111.0043281719
 31
0.0
  0
LINE
  5
2D2
330
1F
100
AcDbEntity
  8
0
  6
Continuous
 62
     7
370
    25
100
AcDbLine
 10
54.7289134932
 20
111.0043281719
 30
0.0
 11
57.9450313118
 21
111.0043281719
 31
0.0
  0
LINE
  5
2D3
330
1F
100
AcDbEntity
  8
0
  6
Continuous
 62
     7
370
    25
100
AcDbLine
 10
57.9450313118
 20
111.0043281719
 30
0.0
 11
57.9450313118
 21
108.7958307941
 31
0.0
  0
SPLINE
  5
2D4
330
1F
100
AcDbEntity
  8
0
  6
Continuous
 62
     7
370
    25
100
AcDbSpline
210
0.0
220
0.0
230
1.0
 70
     8
 71
     3
 72
     8
 73
     4
 74
     0
 42
0.00000001
 43
0.00000001
 40
0.0
 40
0.0
 40
0.0
 40
0.0
 40
1.0
 40
1.0
 40
1.0
 40
1.0
 10
45.42879523481573
 20
112.0043281719397
 30
0.0
 10
45.6024983110355
 20
111.6718167498042
 30
0.0
 10
45.7748005300982
 20
111.3384896499053
 30
0.0
 10
45.94503131179491
 20
111.0043281719396
 30
0.0
  0
SPLINE
  5
2D5
330
1F
100
AcDbEntity
  8
0
  6
Continuous
 62
     7
370
    25
100
AcDbSpline
210
0.0
220
0.0
230
1.0
 70
     8
 71
     3
 72
    10
 73
     6
 74
     0
 42
0.00000001
 43
0.00000001
 40
0.0
 40
0.0
 40
0.0
 40
0.0
 40
0.5
 40
0.5
 40
1.0
 40
1.0
 40
1.0
 40
1.0
 10
45.26730990654036
 20
112.0043281719396
 30
0.0
 10
45.24363451211605
 20
112.0043281719396
 30
0.0
 10
45.23054340222574
 20
111.9815357226102
 30
0.0
 10
45.23045708093734
 20
111.8935930185171
 30
0.0
 10
45.24362601488118
 20
111.8287352448431
 30
0.0
 10
45.26730990653469
 20
111.7543281719397
 30
0.0
  0
SPLINE
  5
2D6
330
1F
100
AcDbEntity
  8
0
  6
Continuous
 62
     7
370
    25
100
AcDbSpline
210
0.0
220
0.0
230
1.0
 70
    24
 71
     3
 72
     8
 73
     4
 74
     0
 42
0.00000001
 43
0.00000001
 40
0.0
 40
0.0
 40
0.0
 40
0.0
 40
1.0
 40
1.0
 40
1.0
 40
1.0
 10
45.42879523481572
 20
112.0043281719396
 30
0.0
 10
45.37789651789332
 20
112.0043281719396
 30
0.0
 10
45.32396238164269
 20
112.0043281719396
 30
0.0
 10
45.2673099065351
 20
112.0043281719396
 30
0.0
  0
SPLINE
  5
2D7
330
1F
100
AcDbEntity
  8
0
  6
Continuous
 62
     7
370
    25
100
AcDbSpline
210
0.0
220
0.0
230
1.0
 70
     8
 71
     3
 72
     8
 73
     4
 74
     0
 42
0.00000001
 43
0.00000001
 40
0.0
 40
0.0
 40
0.0
 40
0.0
 40
1.0
 40
1.0
 40
1.0
 40
1.0
 10
57.94503131179491
 20
111.0043281719396
 30
0.0
 10
58.11530891913863
 20
111.338581568225
 30
0.0
 10
58.2875806677643
 20
111.6718480577939
 30
0.0
 10
58.46126738877396
 20
112.0043281719394
 30
0.0
  0
SPLINE
  5
2D8
330
1F
100
AcDbEntity
  8
0
  6
Continuous
 62
     7
370
    25
100
AcDbSpline
210
0.0
220
0.0
230
1.0
 70
    24
 71
     3
 72
     8
 73
     4
 74
     0
 42
0.00000001
 43
0.00000001
 40
0.0
 40
0.0
 40
0.0
 40
0.0
 40
1.0
 40
1.0
 40
1.0
 40
1.0
 10
58.46126738877355
 20
112.0043281719396
 30
0.0
 10
58.51216362202879
 20
112.0043281719396
 30
0.0
 10
58.56609757699263
 20
112.0043281719396
 30
0.0
 10
58.62275271705509
 20
112.0043281719396
 30
0.0
  0
SPLINE
  5
2D9
330
1F
100
AcDbEntity
  8
0
  6
Continuous
 62
     7
370
    25
100
AcDbSpline
210
0.0
220
0.0
230
1.0
 70
     8
 71
     3
 72
    10
 73
     6
 74
     0
 42
0.00000001
 43
0.00000001
 40
0.0
 40
0.0
 40
0.0
 40
0.0
 40
0.5
 40
0.5
 40
1.0
 40
1.0
 40
1.0
 40
1.0
 10
58.62275271705509
 20
111.7543281719396
 30
0.0
 10
58.64642811147949
 20
111.828708549317
 30
0.0
 10
58.65951922136413
 20
111.8930091881028
 30
0.0
 10
58.65960554265241
 20
111.9812248728857
 30
0.0
 10
58.64643660870857
 20
112.0043281719396
 30
0.0
 10
58.62275271705509
 20
112.0043281719396
 30
0.0
  0
SPLINE
  5
2DA
330
1F
100
AcDbEntity
  8
0
  6
Continuous
 62
     7
370
    25
100
AcDbSpline
210
0.0
220
0.0
230
1.0
 70
     8
 71
     3
 72
    10
 73
     6
 74
     0
 42
0.00000001
 43
0.00000001
 40
0.0
 40
0.0
 40
0.0
 40
0.0
 40
0.5
 40
0.5
 40
1.0
 40
1.0
 40
1.0
 40
1.0
 10
41.12275271705509
 20
112.0043281719396
 30
0.0
 10
41.14642661761104
 20
112.0043281719396
 30
0.0
 10
41.15951917479019
 20
111.9815376002922
 30
0.0
 10
41.15960558877247
 20
111.8935916029934
 30
0.0
 10
41.14643519717385
 20
111.8287308102606
 30
0.0
 10
41.12275271705509
 20
111.7543281719396
 30
0.0
  0
SPLINE
  5
2DB
330
1F
100
AcDbEntity
  8
0
  6
Continuous
 62
     7
370
    25
100
AcDbSpline
210
0.0
220
0.0
230
1.0
 70
    24
 71
     3
 72
    12
 73
     8
 74
     0
 42
0.00000001
 43
0.00000001
 40
0.0
 40
0.0
 40
0.0
 40
0.0
 40
0.25
 40
0.25
 40
0.5
 40
0.5
 40
1.0
 40
1.0
 40
1.0
 40
1.0
 10
40.4450313117949
 20
112.0043281719396
 30
0.0
 10
40.4450313117949
 20
112.0043281719396
 30
0.0
 10
40.46093711746308
 20
112.0043281719396
 30
0.0
 10
40.5227819883555
 20
112.0043281719396
 30
0.0
 10
40.56859532922171
 20
112.0043281719396
 30
0.0
 10
40.74542850312407
 20
112.0043281719396
 30
0.0
 10
40.9157067666277
 20
112.0043281719396
 30
0.0
 10
41.12275271705509
 20
112.0043281719396
 30
0.0
  0
LINE
  5
2DC
330
1F
100
AcDbEntity
  8
0
  6
Continuous
 62
     7
370
    25
100
AcDbLine
 10
40.4450313118
 20
107.7543281719
 30
0.0
 11
40.4450313118
 21
112.0043281719
 31
0.0
  0
SPLINE
  5
2DD
330
1F
100
AcDbEntity
  8
0
  6
Continuous
 62
     7
370
    25
100
AcDbSpline
210
0.0
220
0.0
230
1.0
 70
     8
 71
     3
 72
    10
 73
     6
 74
     0
 42
0.00000001
 43
0.00000001
 40
0.0
 40
0.0
 40
0.0
 40
0.0
 40
0.5
 40
0.5
 40
1.0
 40
1.0
 40
1.0
 40
1.0
 10
62.76730990653471
 20
112.0043281719396
 30
0.0
 10
62.74363600597876
 20
112.0043281719396
 30
0.0
 10
62.73054344879962
 20
111.9815376002922
 30
0.0
 10
62.73045703481735
 20
111.8935916029934
 30
0.0
 10
62.74362742641596
 20
111.8287308102606
 30
0.0
 10
62.76730990653471
 20
111.7543281719397
 30
0.0
  0
SPLINE
  5
2DE
330
1F
100
AcDbEntity
  8
0
  6
Continuous
 62
     7
370
    25
100
AcDbSpline
210
0.0
220
0.0
230
1.0
 70
    24
 71
     3
 72
    12
 73
     8
 74
     0
 42
0.00000001
 43
0.00000001
 40
0.0
 40
0.0
 40
0.0
 40
0.0
 40
0.25
 40
0.25
 40
0.5
 40
0.5
 40
1.0
 40
1.0
 40
1.0
 40
1.0
 10
63.44503131179491
 20
112.0043281719396
 30
0.0
 10
63.44503131179491
 20
112.0043281719396
 30
0.0
 10
63.42912550612672
 20
112.0043281719396
 30
0.0
 10
63.36728063523431
 20
112.0043281719396
 30
0.0
 10
63.32146729436811
 20
112.0043281719396
 30
0.0
 10
63.14463412046574
 20
112.0043281719396
 30
0.0
 10
62.97435585696211
 20
112.0043281719396
 30
0.0
 10
62.76730990653471
 20
112.0043281719396
 30
0.0
  0
LINE
  5
2DF
330
1F
100
AcDbEntity
  8
0
  6
Continuous
 62
     7
370
    25
100
AcDbLine
 10
63.4450313118
 20
107.7543281719
 30
0.0
 11
63.4450313118
 21
112.0043281719
 31
0.0
  0
SPLINE
  5
2E0
330
1F
100
AcDbEntity
  8
0
  6
Continuous
 62
     7
370
    25
100
AcDbSpline
210
0.0
220
0.0
230
1.0
 70
     8
 71
     3
 72
     8
 73
     4
 74
     0
 42
0.00000001
 43
0.00000001
 40
0.0
 40
0.0
 40
0.0
 40
0.0
 40
1.0
 40
1.0
 40
1.0
 40
1.0
 10
45.94503131179491
 20
96.00432817193965
 30
0.0
 10
45.77475370445115
 20
95.67007477565424
 30
0.0
 10
45.60248195582543
 20
95.33680828608523
 30
0.0
 10
45.42879523481573
 20
95.00432817193965
 30
0.0
  0
SPLINE
  5
2E1
330
1F
100
AcDbEntity
  8
0
  6
Continuous
 62
     7
370
    25
100
AcDbSpline
210
0.0
220
0.0
230
1.0
 70
    24
 71
     3
 72
     8
 73
     4
 74
     0
 42
0.00000001
 43
0.00000001
 40
0.0
 40
0.0
 40
0.0
 40
0.0
 40
1.0
 40
1.0
 40
1.0
 40
1.0
 10
45.42879523481573
 20
95.00432817193965
 30
0.0
 10
45.37789651789321
 20
95.00432817193965
 30
0.0
 10
45.32396238164245
 20
95.00432817193965
 30
0.0
 10
45.26730990653471
 20
95.00432817193965
 30
0.0
  0
SPLINE
  5
2E2
330
1F
100
AcDbEntity
  8
0
  6
Continuous
 62
     7
370
    25
100
AcDbSpline
210
0.0
220
0.0
230
1.0
 70
     8
 71
     3
 72
    10
 73
     6
 74
     0
 42
0.00000001
 43
0.00000001
 40
0.0
 40
0.0
 40
0.0
 40
0.0
 40
0.5
 40
0.5
 40
1.0
 40
1.0
 40
1.0
 40
1.0
 10
45.26730990653471
 20
95.25432817193965
 30
0.0
 10
45.24363451211033
 20
95.17994779456232
 30
0.0
 10
45.23054340222569
 20
95.11564715577654
 30
0.0
 10
45.23045708093741
 20
95.0274314709936
 30
0.0
 10
45.24362601488124
 20
95.00432817193965
 30
0.0
 10
45.26730990653471
 20
95.00432817193965
 30
0.0
  0
SPLINE
  5
2E3
330
1F
100
AcDbEntity
  8
0
  6
Continuous
 62
     7
370
    25
100
AcDbSpline
210
0.0
220
0.0
230
1.0
 70
     8
 71
     3
 72
     8
 73
     4
 74
     0
 42
0.00000001
 43
0.00000001
 40
0.0
 40
0.0
 40
0.0
 40
0.0
 40
1.0
 40
1.0
 40
1.0
 40
1.0
 10
58.46126738877408
 20
95.00432817193965
 30
0.0
 10
58.28756431255431
 20
95.33683959407514
 30
0.0
 10
58.1152620934916
 20
95.67016669397402
 30
0.0
 10
57.94503131179491
 20
96.00432817193965
 30
0.0
  0
SPLINE
  5
2E4
330
1F
100
AcDbEntity
  8
0
  6
Continuous
 62
     7
370
    25
100
AcDbSpline
210
0.0
220
0.0
230
1.0
 70
     8
 71
     3
 72
    10
 73
     6
 74
     0
 42
0.00000001
 43
0.00000001
 40
0.0
 40
0.0
 40
0.0
 40
0.0
 40
0.5
 40
0.5
 40
1.0
 40
1.0
 40
1.0
 40
1.0
 10
58.62275271705511
 20
95.00432817193965
 30
0.0
 10
58.6464281114795
 20
95.00432817193965
 30
0.0
 10
58.65951922136412
 20
95.02712062126945
 30
0.0
 10
58.65960554265241
 20
95.11506332536248
 30
0.0
 10
58.64643660870857
 20
95.17992109903633
 30
0.0
 10
58.62275271705511
 20
95.25432817193959
 30
0.0
  0
SPLINE
  5
2E5
330
1F
100
AcDbEntity
  8
0
  6
Continuous
 62
     7
370
    25
100
AcDbSpline
210
0.0
220
0.0
230
1.0
 70
    24
 71
     3
 72
     8
 73
     4
 74
     0
 42
0.00000001
 43
0.00000001
 40
0.0
 40
0.0
 40
0.0
 40
0.0
 40
1.0
 40
1.0
 40
1.0
 40
1.0
 10
58.4612673887741
 20
95.00432817193965
 30
0.0
 10
58.51216362202917
 20
95.00432817193965
 30
0.0
 10
58.56609757699282
 20
95.00432817193965
 30
0.0
 10
58.62275271705509
 20
95.00432817193965
 30
0.0
  0
SPLINE
  5
2E6
330
1F
100
AcDbEntity
  8
0
  6
Continuous
 62
     7
370
    25
100
AcDbSpline
210
0.0
220
0.0
230
1.0
 70
    24
 71
     3
 72
    12
 73
     8
 74
     0
 42
0.00000001
 43
0.00000001
 40
0.0
 40
0.0
 40
0.0
 40
0.0
 40
0.2500000000000001
 40
0.2500000000000001
 40
0.5000000000000001
 40
0.5000000000000001
 40
1.0
 40
1.0
 40
1.0
 40
1.0
 10
63.44503131179491
 20
95.00432817193965
 30
0.0
 10
63.44503131179491
 20
95.00432817193965
 30
0.0
 10
63.42912550612672
 20
95.00432817193965
 30
0.0
 10
63.36728063523431
 20
95.00432817193965
 30
0.0
 10
63.32146729436811
 20
95.00432817193965
 30
0.0
 10
63.14463412046574
 20
95.00432817193965
 30
0.0
 10
62.97435585696211
 20
95.00432817193965
 30
0.0
 10
62.76730990653471
 20
95.00432817193965
 30
0.0
  0
SPLINE
  5
2E7
330
1F
100
AcDbEntity
  8
0
  6
Continuous
 62
     7
370
    25
100
AcDbSpline
210
0.0
220
0.0
230
1.0
 70
     8
 71
     3
 72
    10
 73
     6
 74
     0
 42
0.00000001
 43
0.00000001
 40
0.0
 40
0.0
 40
0.0
 40
0.0
 40
0.5
 40
0.5
 40
1.0
 40
1.0
 40
1.0
 40
1.0
 10
62.76730990653471
 20
95.25432817193965
 30
0.0
 10
62.74363766662315
 20
95.17995770501409
 30
0.0
 10
62.7305436766879
 20
95.11565210872624
 30
0.0
 10
62.73045680922645
 20
95.02742932092039
 30
0.0
 10
62.7436265989858
 20
95.00432817193965
 30
0.0
 10
62.76730990653471
 20
95.00432817193965
 30
0.0
  0
LINE
  5
2E8
330
1F
100
AcDbEntity
  8
0
  6
Continuous
 62
     7
370
    25
100
AcDbLine
 10
63.4450313118
 20
95.0043281719
 30
0.0
 11
63.4450313118
 21
99.2543281719
 31
0.0
  0
SPLINE
  5
2E9
330
1F
100
AcDbEntity
  8
0
  6
Continuous
 62
     7
370
    25
100
AcDbSpline
210
0.0
220
0.0
230
1.0
 70
     8
 71
     3
 72
    10
 73
     6
 74
     0
 42
0.00000001
 43
0.00000001
 40
0.0
 40
0.0
 40
0.0
 40
0.0
 40
0.5
 40
0.5
 40
1.0
 40
1.0
 40
1.0
 40
1.0
 10
41.12275271705509
 20
95.25432817193965
 30
0.0
 10
41.14642495696666
 20
95.17995770501409
 30
0.0
 10
41.15951894690192
 20
95.11565210872624
 30
0.0
 10
41.15960581436336
 20
95.02742932092039
 30
0.0
 10
41.14643602460401
 20
95.00432817193965
 30
0.0
 10
41.12275271705509
 20
95.00432817193965
 30
0.0
  0
SPLINE
  5
2EA
330
1F
100
AcDbEntity
  8
0
  6
Continuous
 62
     7
370
    25
100
AcDbSpline
210
0.0
220
0.0
230
1.0
 70
    24
 71
     3
 72
    12
 73
     8
 74
     0
 42
0.00000001
 43
0.00000001
 40
0.0
 40
0.0
 40
0.0
 40
0.0
 40
0.25
 40
0.25
 40
0.5
 40
0.5
 40
1.0
 40
1.0
 40
1.0
 40
1.0
 10
40.4450313117949
 20
95.00432817193965
 30
0.0
 10
40.4450313117949
 20
95.00432817193965
 30
0.0
 10
40.46093711746308
 20
95.00432817193965
 30
0.0
 10
40.5227819883555
 20
95.00432817193965
 30
0.0
 10
40.56859532922171
 20
95.00432817193965
 30
0.0
 10
40.74542850312406
 20
95.00432817193965
 30
0.0
 10
40.9157067666277
 20
95.00432817193965
 30
0.0
 10
41.12275271705509
 20
95.00432817193965
 30
0.0
  0
LINE
  5
2EB
330
1F
100
AcDbEntity
  8
0
  6
Continuous
 62
     7
370
    25
100
AcDbLine
 10
40.4450313118
 20
95.0043281719
 30
0.0
 11
40.4450313118
 21
99.2543281719
 31
0.0
  0
LINE
  5
2EC
330
1F
100
AcDbEntity
  8
0
  6
Continuous
 62
     7
370
    25
100
AcDbLine
 10
58.6227527171
 20
112.0043281719
 30
0.0
 11
62.7673099065
 21
112.0043281719
 31
0.0
  0
LINE
  5
2ED
330
1F
100
AcDbEntity
  8
0
  6
Continuous
 62
     7
370
    25
100
AcDbLine
 10
41.1227527171
 20
112.0043281719
 30
0.0
 11
45.2673099065
 21
112.0043281719
 31
0.0
  0
LINE
  5
2EE
330
1F
100
AcDbEntity
  8
0
  6
Continuous
 62
     7
370
    25
100
AcDbLine
 10
62.7673099065
 20
95.0043281719
 30
0.0
 11
58.6227527171
 21
95.0043281719
 31
0.0
  0
LINE
  5
2EF
330
1F
100
AcDbEntity
  8
0
  6
Continuous
 62
     7
370
    25
100
AcDbLine
 10
45.2673099065
 20
95.0043281719
 30
0.0
 11
41.1227527171
 21
95.0043281719
 31
0.0
  0
LINE
  5
2F0
330
1F
100
AcDbEntity
  8
0
  6
Continuous
 62
     7
370
    25
100
AcDbLine
 10
58.4612673888
 20
112.0043281719
 30
0.0
 11
45.4287952348
 21
112.0043281719
 31
0.0
  0
LINE
  5
2F1
330
1F
100
AcDbEntity
  8
0
  6
Continuous
 62
     7
370
    25
100
AcDbLine
 10
58.4612673888
 20
95.0043281719
 30
0.0
 11
45.4287952348
 21
95.0043281719
 31
0.0
  0
SPLINE
  5
2F2
330
1F
100
AcDbEntity
  8
0
  6
Continuous
 62
     7
370
    25
100
AcDbSpline
210
0.0
220
0.0
230
1.0
 70
     8
 71
     3
 72
    12
 73
     8
 74
     0
 42
0.00000001
 43
0.00000001
 40
0.0
 40
0.0
 40
0.0
 40
0.0
 40
0.0055634992845847
 40
0.1916631996124151
 40
0.6291220910311073
 40
0.8147446662968211
 40
1.0
 40
1.0
 40
1.0
 40
1.0
 10
37.4450313117949
 20
105.8606928163747
 30
0.0
 10
37.43983742355318
 20
105.86207680156
 30
0.0
 10
37.26090736750079
 20
105.9097552527059
 30
0.0
 10
36.67366350181274
 20
106.0664208653878
 30
0.0
 10
35.91917737497427
 20
106.2464255102514
 30
0.0
 10
35.18042082668455
 20
106.3588521881038
 30
0.0
 10
34.85167199053837
 20
106.3570989154645
 30
0.0
 10
34.68746033524159
 20
106.3562231471861
 30
0.0
  0
SPLINE
  5
2F3
330
1F
100
AcDbEntity
  8
0
  6
Continuous
 62
     7
370
    25
100
AcDbSpline
210
0.0
220
0.0
230
1.0
 70
     8
 71
     3
 72
    12
 73
     8
 74
     0
 42
0.00000001
 43
0.00000001
 40
0.0
 40
0.0
 40
0.0
 40
0.0
 40
0.1852553337031798
 40
0.3708779089688949
 40
0.8083368003875823
 40
0.9944365007154161
 40
1.0
 40
1.0
 40
1.0
 40
1.0
 10
40.20260228834822
 20
106.3562231471861
 30
0.0
 10
40.03839063305143
 20
106.3570989154645
 30
0.0
 10
39.70964179690525
 20
106.3588521881038
 30
0.0
 10
38.97088524861553
 20
106.2464255102515
 30
0.0
 10
38.21639912177708
 20
106.0664208653877
 30
0.0
 10
37.62915525608901
 20
105.909755252706
 30
0.0
 10
37.45022520003662
 20
105.86207680156
 30
0.0
 10
37.4450313117949
 20
105.8606928163747
 30
0.0
  0
ELLIPSE
  5
2F4
330
1F
100
AcDbEntity
  8
0
  6
Continuous
 62
     7
370
    25
100
AcDbEllipse
 10
37.4450313118
 20
105.6248181865
 30
0.0
 11
6.500000000000007
 21
0.0
 31
0.0
210
0.0
220
0.0
230
1.0
 40
0.124260355
 41
0.554641937837015
 42
1.132672010655783
  0
LINE
  5
2F5
330
1F
100
AcDbEntity
  8
0
  6
Continuous
 62
     7
370
    25
100
AcDbLine
 10
42.9706102294
 20
106.0501804147
 30
0.0
 11
42.9706102294
 21
100.9584759292
 31
0.0
  0
ELLIPSE
  5
2F6
330
1F
100
AcDbEntity
  8
0
  6
Continuous
 62
     7
370
    25
100
AcDbEllipse
 10
37.4450313118
 20
101.3838381574
 30
0.0
 11
6.500000000000007
 21
0.0
 31
0.0
210
0.0
220
0.0
230
1.0
 40
0.124260355
 41
5.150513296523831
 42
5.728543369342668
  0
SPLINE
  5
2F7
330
1F
100
AcDbEntity
  8
0
  6
Continuous
 62
     7
370
    25
100
AcDbSpline
210
0.0
220
0.0
230
1.0
 70
     8
 71
     3
 72
    12
 73
     8
 74
     0
 42
0.00000001
 43
0.00000001
 40
0.0
 40
0.0
 40
0.0
 40
0.0
 40
0.0055634992845842
 40
0.1916631996124148
 40
0.6291220910311054
 40
0.8147446662968201
 40
0.9999999999999999
 40
0.9999999999999999
 40
0.9999999999999999
 40
0.9999999999999999
 10
37.4450313117949
 20
101.1479635275046
 30
0.0
 10
37.45022520003663
 20
101.1465795423193
 30
0.0
 10
37.62915525608911
 20
101.0989010911737
 30
0.0
 10
38.21639912177694
 20
100.9422354784911
 30
0.0
 10
38.97088524861555
 20
100.7622308336279
 30
0.0
 10
39.70964179690525
 20
100.6498041557755
 30
0.0
 10
40.03839063305143
 20
100.6515574284147
 30
0.0
 10
40.20260228834822
 20
100.6524331966932
 30
0.0
  0
SPLINE
  5
2F8
330
1F
100
AcDbEntity
  8
0
  6
Continuous
 62
     7
370
    25
100
AcDbSpline
210
0.0
220
0.0
230
1.0
 70
     8
 71
     3
 72
    12
 73
     8
 74
     0
 42
0.00000001
 43
0.00000001
 40
0.0
 40
0.0
 40
0.0
 40
0.0
 40
0.185255333703179
 40
0.3708779089688945
 40
0.8083368003875852
 40
0.9944365007154158
 40
1.0
 40
1.0
 40
1.0
 40
1.0
 10
34.68746033524157
 20
100.6524331966932
 30
0.0
 10
34.85167199053836
 20
100.6515574284147
 30
0.0
 10
35.18042082668455
 20
100.6498041557755
 30
0.0
 10
35.91917737497427
 20
100.7622308336279
 30
0.0
 10
36.67366350181286
 20
100.9422354784911
 30
0.0
 10
37.26090736750068
 20
101.0989010911737
 30
0.0
 10
37.43983742355317
 20
101.1465795423193
 30
0.0
 10
37.4450313117949
 20
101.1479635275046
 30
0.0
  0
SPLINE
  5
2F9
330
1F
100
AcDbEntity
  8
0
  6
Continuous
 62
     7
370
    25
100
AcDbSpline
210
0.0
220
0.0
230
1.0
 70
     8
 71
     3
 72
    12
 73
     8
 74
     0
 42
0.00000001
 43
0.00000001
 40
0.0
 40
0.0
 40
0.0
 40
0.0
 40
0.0055634992845846
 40
0.1916631996124154
 40
0.6291220910311057
 40
0.8147446662968203
 40
1.0
 40
1.0
 40
1.0
 40
1.0
 10
66.4450313117949
 20
105.8606928163747
 30
0.0
 10
66.43983742355319
 20
105.86207680156
 30
0.0
 10
66.26090736750078
 20
105.9097552527059
 30
0.0
 10
65.67366350181278
 20
106.0664208653878
 30
0.0
 10
64.91917737497427
 20
106.2464255102514
 30
0.0
 10
64.18042082668455
 20
106.3588521881038
 30
0.0
 10
63.85167199053837
 20
106.3570989154645
 30
0.0
 10
63.68746033524159
 20
106.3562231471861
 30
0.0
  0
SPLINE
  5
2FA
330
1F
100
AcDbEntity
  8
0
  6
Continuous
 62
     7
370
    25
100
AcDbSpline
210
0.0
220
0.0
230
1.0
 70
     8
 71
     3
 72
    12
 73
     8
 74
     0
 42
0.00000001
 43
0.00000001
 40
0.0
 40
0.0
 40
0.0
 40
0.0
 40
0.0055634992845846
 40
0.191663199612416
 40
0.6291220910311065
 40
0.8147446662968212
 40
0.9999999999999999
 40
0.9999999999999999
 40
0.9999999999999999
 40
0.9999999999999999
 10
66.4450313117949
 20
101.1479635275046
 30
0.0
 10
66.45022520003664
 20
101.1465795423193
 30
0.0
 10
66.62915525608909
 20
101.0989010911736
 30
0.0
 10
67.216399121777
 20
100.9422354784913
 30
0.0
 10
67.97088524861556
 20
100.7622308336279
 30
0.0
 10
68.70964179690525
 20
100.6498041557755
 30
0.0
 10
69.03839063305145
 20
100.6515574284147
 30
0.0
 10
69.20260228834823
 20
100.6524331966932
 30
0.0
  0
SPLINE
  5
2FB
330
1F
100
AcDbEntity
  8
0
  6
Continuous
 62
     7
370
    25
100
AcDbSpline
210
0.0
220
0.0
230
1.0
 70
     8
 71
     3
 72
    12
 73
     8
 74
     0
 42
0.00000001
 43
0.00000001
 40
0.0
 40
0.0
 40
0.0
 40
0.0
 40
0.1852553337031795
 40
0.3708779089688943
 40
0.8083368003875847
 40
0.9944365007154153
 40
1.0
 40
1.0
 40
1.0
 40
1.0
 10
63.68746033524159
 20
100.6524331966932
 30
0.0
 10
63.85167199053837
 20
100.6515574284147
 30
0.0
 10
64.18042082668455
 20
100.6498041557755
 30
0.0
 10
64.91917737497427
 20
100.7622308336279
 30
0.0
 10
65.67366350181284
 20
100.9422354784913
 30
0.0
 10
66.26090736750072
 20
101.0989010911736
 30
0.0
 10
66.43983742355319
 20
101.1465795423193
 30
0.0
 10
66.4450313117949
 20
101.1479635275046
 30
0.0
  0
ELLIPSE
  5
2FC
330
1F
100
AcDbEntity
  8
0
  6
Continuous
 62
     7
370
    25
100
AcDbEllipse
 10
66.4450313118
 20
101.3838381574
 30
0.0
 11
6.5
 21
0.0
 31
0.0
210
0.0
220
0.0
230
1.0
 40
0.124260355
 41
3.696234591426875
 42
4.274264664245591
  0
LINE
  5
2FD
330
1F
100
AcDbEntity
  8
0
  6
Continuous
 62
     7
370
    25
100
AcDbLine
 10
60.9194523942
 20
106.0501804147
 30
0.0
 11
60.9194523942
 21
100.9584759292
 31
0.0
  0
ELLIPSE
  5
2FE
330
1F
100
AcDbEntity
  8
0
  6
Continuous
 62
     7
370
    25
100
AcDbEllipse
 10
66.4450313118
 20
105.6248181865
 30
0.0
 11
6.5
 21
0.0
 31
0.0
210
0.0
220
0.0
230
1.0
 40
0.124260355
 41
2.008920642934009
 42
2.586950715752777
  0
SPLINE
  5
2FF
330
1F
100
AcDbEntity
  8
0
  6
Continuous
 62
     7
370
    25
100
AcDbSpline
210
0.0
220
0.0
230
1.0
 70
     8
 71
     3
 72
    12
 73
     8
 74
     0
 42
0.00000001
 43
0.00000001
 40
0.0
 40
0.0
 40
0.0
 40
0.0
 40
0.1852553337031778
 40
0.3708779089688934
 40
0.8083368003875839
 40
0.9944365007154155
 40
0.9999999999999999
 40
0.9999999999999999
 40
0.9999999999999999
 40
0.9999999999999999
 10
69.20260228834823
 20
106.3562231471861
 30
0.0
 10
69.03839063305145
 20
106.3570989154645
 30
0.0
 10
68.70964179690525
 20
106.3588521881038
 30
0.0
 10
67.97088524861556
 20
106.2464255102514
 30
0.0
 10
67.21639912177704
 20
106.0664208653878
 30
0.0
 10
66.62915525608904
 20
105.9097552527059
 30
0.0
 10
66.45022520003663
 20
105.86207680156
 30
0.0
 10
66.4450313117949
 20
105.8606928163747
 30
0.0
  0
LINE
  5
300
330
1F
100
AcDbEntity
  8
0
  6
Continuous
 62
     7
370
    25
100
AcDbLine
 10
39.990481444
 20
106.851753478
 30
0.0
 11
40.0216306126
 21
106.8552514581
 31
0.0
  0
LINE
  5
301
330
1F
100
AcDbEntity
  8
0
  6
Continuous
 62
     7
370
    25
100
AcDbLine
 10
34.8995811796
 20
100.1569028659
 30
0.0
 11
34.868432011
 21
100.1534048858
 31
0.0
  0
LINE
  5
302
330
1F
100
AcDbEntity
  8
0
  6
Continuous
 62
     7
370
    25
100
AcDbLine
 10
63.8995811796
 20
100.1569028659
 30
0.0
 11
63.868432011
 21
100.1534048858
 31
0.0
  0
CIRCLE
  5
303
330
1F
100
AcDbEntity
  8
0
  6
Continuous
 62
     7
370
    25
100
AcDbCircle
 10
51.9450313118
 20
103.5043281719
 30
0.0
 40
5.584181783769395
  0
CIRCLE
  5
304
330
1F
100
AcDbEntity
  8
0
  6
Continuous
 62
     7
370
    25
100
AcDbCircle
 10
51.9450313118
 20
103.5043281719
 30
0.0
 40
5.095107983402499
  0
CIRCLE
  5
305
330
1F
100
AcDbEntity
  8
0
  6
Continuous
 62
     7
370
    25
100
AcDbCircle
 10
51.9450313118
 20
103.5043281719
 30
0.0
 40
4.500000000000014
  0
ARC
  5
306
330
1F
100
AcDbEntity
  8
0
  6
Continuous
 62
     7
370
    25
100
AcDbCircle
 10
51.9450313118
 20
103.5043281719
 30
0.0
 40
5.925113123340048
100
AcDbArc
 50
210.7429878176
 51
329.2570121825
  0
ARC
  5
307
330
1F
100
AcDbEntity
  8
0
  6
Continuous
 62
     7
370
    25
100
AcDbCircle
 10
51.9450313118
 20
103.5043281719
 30
0.0
 40
5.925113123340048
100
AcDbArc
 50
180.0
 51
210.7429878176
  0
ARC
  5
308
330
1F
100
AcDbEntity
  8
0
  6
Continuous
 62
     7
370
    25
100
AcDbCircle
 10
51.9450313118
 20
103.5043281719
 30
0.0
 40
5.925113123340047
100
AcDbArc
 50
149.2570121825
 51
180.0
  0
ARC
  5
309
330
1F
100
AcDbEntity
  8
0
  6
Continuous
 62
     7
370
    25
100
AcDbCircle
 10
51.9450313118
 20
103.5043281719
 30
0.0
 40
5.925113123340034
100
AcDbArc
 50
30.7429878175
 51
149.2570121825
  0
ARC
  5
30A
330
1F
100
AcDbEntity
  8
0
  6
Continuous
 62
     7
370
    25
100
AcDbCircle
 10
51.9450313118
 20
103.5043281719
 30
0.0
 40
5.92511312334004
100
AcDbArc
 50
0.0
 51
30.7429878175
  0
ARC
  5
30B
330
1F
100
AcDbEntity
  8
0
  6
Continuous
 62
     7
370
    25
100
AcDbCircle
 10
51.9450313118
 20
103.5043281719
 30
0.0
 40
5.92511312334004
100
AcDbArc
 50
329.2570121825
 51
0.0
  0
LINE
  5
30C
330
1F
100
AcDbEntity
  8
0
  6
Continuous
 62
     7
370
    25
100
AcDbLine
 10
46.0199181885
 20
103.5043281719
 30
0.0
 11
46.0199181885
 21
101.0296795876
 31
0.0
  0
ELLIPSE
  5
30D
330
1F
100
AcDbEntity
  8
0
  6
Continuous
 62
     7
370
    25
100
AcDbEllipse
 10
44.6707883578
 20
100.7812416674
 30
0.0
 11
2.0
 21
0.0
 31
0.0
210
0.0
220
0.0
230
1.0
 40
0.1682692308
 41
0.830421156947892
 42
2.586950715752774
  0
ELLIPSE
  5
30E
330
1F
100
AcDbEntity
  8
0
  6
Continuous
 62
     7
370
    25
100
AcDbEllipse
 10
44.6707883578
 20
106.2274146765
 30
0.0
 11
2.0
 21
0.0
 31
0.0
210
0.0
220
0.0
230
1.0
 40
0.1682692308
 41
3.696234591426873
 42
5.452764150231733
  0
LINE
  5
30F
330
1F
100
AcDbEntity
  8
0
  6
Continuous
 62
     7
370
    25
100
AcDbLine
 10
46.0199181885
 20
105.9789767563
 30
0.0
 11
46.0199181885
 21
103.5043281719
 31
0.0
  0
ELLIPSE
  5
310
330
1F
100
AcDbEntity
  8
0
  6
Continuous
 62
     7
370
    25
100
AcDbEllipse
 10
59.2192742657
 20
100.7812416674
 30
0.0
 11
2.0
 21
0.0
 31
0.0
210
0.0
220
0.0
230
1.0
 40
0.1682692308
 41
0.5546419378370192
 42
2.311171496641904
  0
LINE
  5
311
330
1F
100
AcDbEntity
  8
0
  6
Continuous
 62
     7
370
    25
100
AcDbLine
 10
57.8701444351
 20
103.5043281719
 30
0.0
 11
57.8701444351
 21
101.0296795876
 31
0.0
  0
LINE
  5
312
330
1F
100
AcDbEntity
  8
0
  6
Continuous
 62
     7
370
    25
100
AcDbLine
 10
57.8701444351
 20
105.9789767563
 30
0.0
 11
57.8701444351
 21
103.5043281719
 31
0.0
  0
ELLIPSE
  5
313
330
1F
100
AcDbEntity
  8
0
  6
Continuous
 62
     7
370
    25
100
AcDbEllipse
 10
59.2192742657
 20
106.2274146765
 30
0.0
 11
2.0
 21
0.0
 31
0.0
210
0.0
220
0.0
230
1.0
 40
0.1682692308
 41
3.972013810537721
 42
5.728543369342628
  0
SPLINE
  5
314
330
1F
100
AcDbEntity
  8
0
  6
Continuous
 62
     7
370
    25
100
AcDbSpline
210
0.0
220
0.0
230
1.0
 70
     8
 71
     3
 72
    12
 73
     8
 74
     0
 42
0.00000001
 43
0.00000001
 40
0.0
 40
0.0
 40
0.0
 40
0.0
 40
0.2571943124574413
 40
0.5245503439757948
 40
0.7385170215182973
 40
0.8882338470637767
 40
1.0
 40
1.0
 40
1.0
 40
1.0
 10
46.73541308118843
 20
106.5331743257858
 30
0.0
 10
46.6507148036673
 20
106.5245590515429
 30
0.0
 10
46.47797182897488
 20
106.5069881145172
 30
0.0
 10
46.25874680021006
 20
106.3884777087894
 30
0.0
 10
46.10936702483067
 20
106.2424895641103
 30
0.0
 10
46.03197050823662
 20
106.1019071011208
 30
0.0
 10
46.02352714907279
 20
106.015787161352
 30
0.0
 10
46.01991818845486
 20
105.9789767562734
 30
0.0
  0
ELLIPSE
  5
315
330
1F
100
AcDbEntity
  8
0
  6
Continuous
 62
     7
370
    25
100
AcDbEllipse
 10
44.6707883578
 20
106.7229450073
 30
0.0
 11
2.5
 21
0.0
 31
0.0
210
0.0
220
0.0
230
1.0
 40
0.1346153846
 41
3.775385939327307
 42
5.592569896562479
  0
SPLINE
  5
316
330
1F
100
AcDbEntity
  8
0
  6
Continuous
 62
     7
370
    25
100
AcDbSpline
210
0.0
220
0.0
230
1.0
 70
     8
 71
     3
 72
    12
 73
     8
 74
     0
 42
0.00000001
 43
0.00000001
 40
0.0
 40
0.0
 40
0.0
 40
0.0
 40
0.1443005026356244
 40
0.2873275205918753
 40
0.5201185386439743
 40
0.7602843466484757
 40
1.0
 40
1.0
 40
1.0
 40
1.0
 10
57.87014443513495
 20
105.9789767562734
 30
0.0
 10
57.86416017511045
 20
106.0265482067194
 30
0.0
 10
57.85224446751408
 20
106.1212712787666
 30
0.0
 10
57.75885924531771
 20
106.2693282420928
 30
0.0
 10
57.60610130191603
 20
106.4048278386311
 30
0.0
 10
57.39163538672776
 20
106.5107235197358
 30
0.0
 10
57.23359540717302
 20
106.5256954052474
 30
0.0
 10
57.15464954240138
 20
106.5331743257858
 30
0.0
  0
ELLIPSE
  5
317
330
1F
100
AcDbEntity
  8
0
  6
Continuous
 62
     7
370
    25
100
AcDbEllipse
 10
59.2192742657
 20
106.7229450073
 30
0.0
 11
2.5
 21
0.0
 31
0.0
210
0.0
220
0.0
230
1.0
 40
0.1346153846
 41
3.820157774591214
 42
5.652546926930826
  0
SPLINE
  5
318
330
1F
100
AcDbEntity
  8
0
  6
Continuous
 62
     7
370
    25
100
AcDbSpline
210
0.0
220
0.0
230
1.0
 70
     8
 71
     3
 72
    12
 73
     8
 74
     0
 42
0.00000001
 43
0.00000001
 40
0.0
 40
0.0
 40
0.0
 40
0.0
 40
0.144300502635625
 40
0.2873275205918761
 40
0.5201185386439748
 40
0.7602843466484799
 40
1.0
 40
1.0
 40
1.0
 40
1.0
 10
46.01991818845486
 20
101.0296795876059
 30
0.0
 10
46.02590244847936
 20
100.9821081371599
 30
0.0
 10
46.03781815607573
 20
100.8873850651127
 30
0.0
 10
46.1312033782721
 20
100.7393281017865
 30
0.0
 10
46.28396132167378
 20
100.6038285052482
 30
0.0
 10
46.49842723686204
 20
100.4979328241434
 30
0.0
 10
46.65646721641679
 20
100.4829609386318
 30
0.0
 10
46.73541308118843
 20
100.4754820180935
 30
0.0
  0
ELLIPSE
  5
319
330
1F
100
AcDbEntity
  8
0
  6
Continuous
 62
     7
370
    25
100
AcDbEllipse
 10
44.6707883578
 20
100.2857113366
 30
0.0
 11
2.5
 21
0.0
 31
0.0
210
0.0
220
0.0
230
1.0
 40
0.1346153846
 41
0.6785651210013515
 42
2.510954273340968
  0
SPLINE
  5
31A
330
1F
100
AcDbEntity
  8
0
  6
Continuous
 62
     7
370
    25
100
AcDbSpline
210
0.0
220
0.0
230
1.0
 70
     8
 71
     3
 72
    12
 73
     8
 74
     0
 42
0.00000001
 43
0.00000001
 40
0.0
 40
0.0
 40
0.0
 40
0.0
 40
0.2571943124574416
 40
0.524550343975796
 40
0.7385170215182983
 40
0.8882338470637771
 40
1.0
 40
1.0
 40
1.0
 40
1.0
 10
57.15464954240138
 20
100.4754820180935
 30
0.0
 10
57.23934781992251
 20
100.4840972923364
 30
0.0
 10
57.41209079461492
 20
100.5016682293621
 30
0.0
 10
57.63131582337977
 20
100.6201786350899
 30
0.0
 10
57.78069559875913
 20
100.766166779769
 30
0.0
 10
57.85809211535319
 20
100.9067492427585
 30
0.0
 10
57.86653547451702
 20
100.9928691825273
 30
0.0
 10
57.87014443513495
 20
101.0296795876059
 30
0.0
  0
ELLIPSE
  5
31B
330
1F
100
AcDbEntity
  8
0
  6
Continuous
 62
     7
370
    25
100
AcDbEllipse
 10
59.2192742657
 20
100.2857113366
 30
0.0
 11
2.5
 21
0.0
 31
0.0
210
0.0
220
0.0
230
1.0
 40
0.1346153846
 41
0.633793285737408
 42
2.450977242972667
  0
ARC
  5
31C
330
1F
100
AcDbEntity
  8
0
  6
Continuous
 62
     7
370
    25
100
AcDbCircle
 10
51.9450313118
 20
103.5043281719
 30
0.0
 40
7.999999999999984
100
AcDbArc
 50
21.1234840263
 51
158.8765159737
  0
LINE
  5
31D
330
1F
100
AcDbEntity
  8
0
  6
Continuous
 62
     7
370
    25
100
AcDbLine
 10
57.0374822444
 20
106.5331743258
 30
0.0
 11
57.1546495424
 21
106.5331743258
 31
0.0
  0
LINE
  5
31E
330
1F
100
AcDbEntity
  8
0
  6
Continuous
 62
     7
370
    25
100
AcDbLine
 10
46.7354130812
 20
106.5331743258
 30
0.0
 11
46.8525803792
 21
106.5331743258
 31
0.0
  0
LINE
  5
31F
330
1F
100
AcDbEntity
  8
0
  6
Continuous
 62
     7
370
    25
100
AcDbLine
 10
57.1546495424
 20
100.4754820181
 30
0.0
 11
57.0374822444
 21
100.4754820181
 31
0.0
  0
ARC
  5
320
330
1F
100
AcDbEntity
  8
0
  6
Continuous
 62
     7
370
    25
100
AcDbCircle
 10
51.9450313118
 20
103.5043281719
 30
0.0
 40
7.999999999999987
100
AcDbArc
 50
201.1234840263
 51
338.8765159737
  0
LINE
  5
321
330
1F
100
AcDbEntity
  8
0
  6
Continuous
 62
     7
370
    25
100
AcDbLine
 10
46.8525803792
 20
100.4754820181
 30
0.0
 11
46.7354130812
 21
100.4754820181
 31
0.0
  0
LINE
  5
322
330
1F
100
AcDbEntity
  8
0
  6
Continuous
 62
     7
370
    25
100
AcDbLine
 10
49.7075472902
 20
102.5290556269
 30
0.0
 11
49.6747517632
 21
102.5477996662
 31
0.0
  0
SPLINE
  5
323
330
1F
100
AcDbEntity
  8
0
  6
Continuous
 62
     7
370
    25
100
AcDbSpline
210
0.0
220
0.0
230
1.0
 70
     8
 71
     3
 72
    15
 73
    11
 74
     0
 42
0.00000001
 43
0.00000001
 40
0.0
 40
0.0
 40
0.0
 40
0.0
 40
0.1241930067305288
 40
0.2496556654892299
 40
0.3743703853151211
 40
0.4998404796364204
 40
0.6240146704162364
 40
0.7475381382242064
 40
0.8745858500551822
 40
1.0
 40
1.0
 40
1.0
 40
1.0
 10
50.48783701192544
 20
102.8014952775254
 30
0.0
 10
50.47227661681573
 20
102.7656480747815
 30
0.0
 10
50.44099674930422
 20
102.6935871955697
 30
0.0
 10
50.36356038981584
 20
102.6037116822268
 30
0.0
 10
50.27020638607694
 20
102.5313879044325
 30
0.0
 10
50.16298078005595
 20
102.4824604859279
 30
0.0
 10
50.04859486933502
 20
102.4561324324731
 30
0.0
 10
49.93092410644969
 20
102.4552733384705
 30
0.0
 10
49.81404038122449
 20
102.4766560991001
 30
0.0
 10
49.74289153032976
 20
102.5116646255609
 30
0.0
 10
49.70754729024633
 20
102.5290556269423
 30
0.0
  0
LINE
  5
324
330
1F
100
AcDbEntity
  8
0
  6
Continuous
 62
     7
370
    25
100
AcDbLine
 10
51.4796910566
 20
105.5750744934
 30
0.0
 11
50.4878370119
 21
102.8014952775
 31
0.0
  0
SPLINE
  5
325
330
1F
100
AcDbEntity
  8
0
  6
Continuous
 62
     7
370
    25
100
AcDbSpline
210
0.0
220
0.0
230
1.0
 70
     8
 71
     3
 72
    15
 73
    11
 74
     0
 42
0.00000001
 43
0.00000001
 40
0.0
 40
0.0
 40
0.0
 40
0.0
 40
0.1233025178081761
 40
0.2485158700387113
 40
0.3756924668130947
 40
0.4999990880429329
 40
0.6243057092728392
 40
0.751482306047304
 40
0.8766757256079954
 40
1.0
 40
1.0
 40
1.0
 40
1.0
 10
52.41037157014657
 20
105.5750744934388
 30
0.0
 10
52.38622059818422
 20
105.6157196293746
 30
0.0
 10
52.33754438364947
 20
105.6976397839624
 30
0.0
 10
52.22219372544436
 20
105.7874587397749
 30
0.0
 10
52.08903410318249
 20
105.845032887936
 30
0.0
 10
51.94503145981371
 20
105.8641915836061
 30
0.0
 10
51.80102793111521
 20
105.8450334807211
 30
0.0
 10
51.66787805814972
 20
105.7874593669825
 30
0.0
 10
51.55251570061528
 20
105.6976538048358
 30
0.0
 10
51.50384391494409
 20
105.6157288733111
 30
0.0
 10
51.47969105662727
 20
105.5750744934389
 30
0.0
  0
LINE
  5
326
330
1F
100
AcDbEntity
  8
0
  6
Continuous
 62
     7
370
    25
100
AcDbLine
 10
53.4019944765
 20
102.8021416231
 30
0.0
 11
52.4103715701
 21
105.5750744934
 31
0.0
  0
SPLINE
  5
327
330
1F
100
AcDbEntity
  8
0
  6
Continuous
 62
     7
370
    25
100
AcDbSpline
210
0.0
220
0.0
230
1.0
 70
     8
 71
     3
 72
    15
 73
    11
 74
     0
 42
0.00000001
 43
0.00000001
 40
0.0
 40
0.0
 40
0.0
 40
0.0
 40
0.1253320172137758
 40
0.2522975129251762
 40
0.3758847553984062
 40
0.5001929511416486
 40
0.6255758307380151
 40
0.7502289462456482
 40
0.8757444935777826
 40
1.0
 40
1.0
 40
1.0
 40
1.0
 10
54.17469624106041
 20
102.5254457724845
 30
0.0
 10
54.13944532443242
 20
102.5087714640017
 30
0.0
 10
54.06848405857802
 20
102.4752055272724
 30
0.0
 10
53.95249716778964
 20
102.4554239110183
 30
0.0
 10
53.83590080154927
 20
102.4574966913649
 30
0.0
 10
53.72278019496779
 20
102.4845747177155
 30
0.0
 10
53.61690448062834
 20
102.5337875334226
 30
0.0
 10
53.52479539600919
 20
102.6058732972965
 30
0.0
 10
53.44836373214079
 20
102.6951608187959
 30
0.0
 10
53.4173988246415
 20
102.766601489233
 30
0.0
 10
53.40199447652026
 20
102.802141623091
 30
0.0
  0
LINE
  5
328
330
1F
100
AcDbEntity
  8
0
  6
Continuous
 62
     7
370
    25
100
AcDbLine
 10
54.2153108635
 20
102.5477996662
 30
0.0
 11
54.1746962411
 21
102.5254457725
 31
0.0
  0
LINE
  5
329
330
1F
100
AcDbEntity
  8
0
  6
Continuous
 62
     7
370
    25
100
AcDbLine
 10
53.588327667
 20
101.3523885627
 30
0.0
 11
54.2153108635
 21
102.5477996662
 31
0.0
  0
SPLINE
  5
32A
330
1F
100
AcDbEntity
  8
0
  6
Continuous
 62
     7
370
    25
100
AcDbSpline
210
0.0
220
0.0
230
1.0
 70
     8
 71
     3
 72
    15
 73
    11
 74
     0
 42
0.00000001
 43
0.00000001
 40
0.0
 40
0.0
 40
0.0
 40
0.0
 40
0.124633218643854
 40
0.2519059530189772
 40
0.3765391000744918
 40
0.4994035903146518
 40
0.6264494152300148
 40
0.7526064410610419
 40
0.874680437736327
 40
1.0
 40
1.0
 40
1.0
 40
1.0
 10
53.48309917825136
 20
101.334271395987
 30
0.0
 10
53.48711365391951
 20
101.3311661611343
 30
0.0
 10
53.49522762489819
 20
101.3248899279325
 30
0.0
 10
53.50966621673473
 20
101.3192769144527
 30
0.0
 10
53.52479966666782
 20
101.3167405618259
 30
0.0
 10
53.54016220894959
 20
101.3176259653937
 30
0.0
 10
53.55509278778627
 20
101.3217570359094
 30
0.0
 10
53.56859468781558
 20
101.3292477358553
 30
0.0
 10
53.58028034270199
 20
101.3393863177696
 30
0.0
 10
53.58562186704278
 20
101.3480167401124
 30
0.0
 10
53.58832766704452
 20
101.3523885627046
 30
0.0
  0
SPLINE
  5
32B
330
1F
100
AcDbEntity
  8
0
  6
Continuous
 62
     7
370
    25
100
AcDbSpline
210
0.0
220
0.0
230
1.0
 70
     8
 71
     3
 72
    11
 73
     7
 74
     0
 42
0.00000001
 43
0.00000001
 40
0.0
 40
0.0
 40
0.0
 40
0.0
 40
0.2506252605986011
 40
0.4999999999996215
 40
0.7493747394010042
 40
1.0
 40
1.0
 40
1.0
 40
1.0
 10
50.40696344852248
 20
101.334271395987
 30
0.0
 10
50.63669114269579
 20
101.4971256879479
 30
0.0
 10
51.09500028045878
 20
101.8220216931868
 30
0.0
 10
51.9450313133949
 20
101.9557536401239
 30
0.0
 10
52.79506234632512
 20
101.8220216931816
 30
0.0
 10
53.25337148408141
 20
101.4971256879463
 30
0.0
 10
53.48309917825137
 20
101.334271395987
 30
0.0
  0
SPLINE
  5
32C
330
1F
100
AcDbEntity
  8
0
  6
Continuous
 62
     7
370
    25
100
AcDbSpline
210
0.0
220
0.0
230
1.0
 70
     8
 71
     3
 72
    15
 73
    11
 74
     0
 42
0.00000001
 43
0.00000001
 40
0.0
 40
0.0
 40
0.0
 40
0.0
 40
0.1253191957979138
 40
0.2473928354984065
 40
0.3734492416489706
 40
0.5005950046079967
 40
0.6235484391777611
 40
0.7480947836179483
 40
0.8753671458153899
 40
1.0
 40
1.0
 40
1.0
 40
1.0
 10
50.30173495972928
 20
101.3523885627046
 30
0.0
 10
50.3044407560617
 20
101.3480167344207
 30
0.0
 10
50.30978227315889
 20
101.3393863008419
 30
0.0
 10
50.32146484574797
 20
101.3292505233421
 30
0.0
 10
50.33496582573524
 20
101.3217584074685
 30
0.0
 10
50.3498998545853
 20
101.3176259621764
 30
0.0
 10
50.36526686577434
 20
101.3167380204028
 30
0.0
 10
50.38039960221256
 20
101.3192789626604
 30
0.0
 10
50.39483503199425
 20
101.3248897409276
 30
0.0
 10
50.40294898282348
 20
101.3311660992363
 30
0.0
 10
50.40696344852247
 20
101.334271395987
 30
0.0
  0
LINE
  5
32D
330
1F
100
AcDbEntity
  8
0
  6
Continuous
 62
     7
370
    25
100
AcDbLine
 10
49.6747517632
 20
102.5477996662
 30
0.0
 11
50.3017349597
 21
101.3523885627
 31
0.0
  0
SPLINE
  5
32E
330
1F
100
AcDbEntity
  8
0
  6
Continuous
 62
     7
370
    25
100
AcDbSpline
210
0.0
220
0.0
230
1.0
 70
     8
 71
     3
 72
    15
 73
    11
 74
     0
 42
0.00000001
 43
0.00000001
 40
0.0
 40
0.0
 40
0.0
 40
0.0
 40
0.1233867499278388
 40
0.2487396502211602
 40
0.3739317114754985
 40
0.4999973617625659
 40
0.6259591330513601
 40
0.7512551380600303
 40
0.8765613478174267
 40
1.0
 40
1.0
 40
1.0
 40
1.0
 10
51.88214844698882
 20
103.5257376300824
 30
0.0
 10
51.88502664818069
 20
103.5317524261654
 30
0.0
 10
51.89082891429233
 20
103.5438778632541
 30
0.0
 10
51.90635831901307
 20
103.5572691236041
 30
0.0
 10
51.92471290088653
 20
103.5661468351841
 30
0.0
 10
51.94502571736943
 20
103.5689034984806
 30
0.0
 10
51.96534413508454
 20
103.56614881728
 30
0.0
 10
51.98369700424865
 20
103.5572731189905
 30
0.0
 10
51.99923510864416
 20
103.5438827517368
 30
0.0
 10
52.00503567067545
 20
103.5317556541907
 30
0.0
 10
52.00791417660098
 20
103.5257376300824
 30
0.0
  0
LINE
  5
32F
330
1F
100
AcDbEntity
  8
0
  6
Continuous
 62
     7
370
    25
100
AcDbLine
 10
51.6430349213
 20
102.8874836008
 30
0.0
 11
51.882148447
 21
103.5257376301
 31
0.0
  0
SPLINE
  5
330
330
1F
100
AcDbEntity
  8
0
  6
Continuous
 62
     7
370
    25
100
AcDbSpline
210
0.0
220
0.0
230
1.0
 70
     8
 71
     3
 72
    15
 73
    11
 74
     0
 42
0.00000001
 43
0.00000001
 40
0.0
 40
0.0
 40
0.0
 40
0.0
 40
0.1261585224210642
 40
0.25131214515488
 40
0.3762846848783792
 40
0.4993062783340877
 40
0.6261594278645743
 40
0.7521171342021308
 40
0.8758196922692789
 40
1.0
 40
1.0
 40
1.0
 40
1.0
 10
51.70591778611713
 20
102.8024192474599
 30
0.0
 10
51.70068668962847
 20
102.8027415540522
 30
0.0
 10
51.69026616428581
 20
102.8033835999447
 30
0.0
 10
51.67547961377142
 20
102.8088318403199
 30
0.0
 10
51.66228926114591
 20
102.8170544429055
 30
0.0
 10
51.65141868630464
 20
102.8283110492181
 30
0.0
 10
51.6434110989761
 20
102.8418317945592
 30
0.0
 10
51.63924447194341
 20
102.856968682136
 30
0.0
 10
51.6386234204318
 20
102.8726578137072
 30
0.0
 10
51.64156253278655
 20
102.8825353260658
 30
0.0
 10
51.6430349212693
 20
102.8874836008098
 30
0.0
  0
LINE
  5
331
330
1F
100
AcDbEntity
  8
0
  6
Continuous
 62
     7
370
    25
100
AcDbLine
 10
52.1841448403
 20
102.8024192475
 30
0.0
 11
51.7059177861
 21
102.8024192475
 31
0.0
  0
SPLINE
  5
332
330
1F
100
AcDbEntity
  8
0
  6
Continuous
 62
     7
370
    25
100
AcDbSpline
210
0.0
220
0.0
230
1.0
 70
     8
 71
     3
 72
    15
 73
    11
 74
     0
 42
0.00000001
 43
0.00000001
 40
0.0
 40
0.0
 40
0.0
 40
0.0
 40
0.1241186784437694
 40
0.2478474916628982
 40
0.3736574149478942
 40
0.5005082335853296
 40
0.6234527658309922
 40
0.7484986612277523
 40
0.8736976492452769
 40
1.0
 40
1.0
 40
1.0
 40
1.0
 10
52.24702770504648
 20
102.887483601033
 30
0.0
 10
52.24849877765531
 20
102.8825377553748
 30
0.0
 10
52.25143630213368
 20
102.8726615992967
 30
0.0
 10
52.2508195676336
 20
102.856980203671
 30
0.0
 10
52.24665760603898
 20
102.8418476715907
 30
0.0
 10
52.2386588582406
 20
102.8283327639763
 30
0.0
 10
52.22779276670377
 20
102.8170727027803
 30
0.0
 10
52.21460504887915
 20
102.8088429903468
 30
0.0
 10
52.19981060230393
 20
102.8033834199617
 30
0.0
 10
52.1893820113966
 20
102.8027415769048
 30
0.0
 10
52.18414484028219
 20
102.8024192474599
 30
0.0
  0
LINE
  5
333
330
1F
100
AcDbEntity
  8
0
  6
Continuous
 62
     7
370
    25
100
AcDbLine
 10
52.0079141766
 20
103.5257376301
 30
0.0
 11
52.247027705
 21
102.887483601
 31
0.0
  0
LINE
  5
334
330
1F
100
AcDbEntity
  8
0
  6
Continuous
 62
     7
370
    25
100
AcDbLine
 10
21.2450313118
 20
110.2543281719
 30
0.0
 11
21.2450313118
 21
96.7543281719
 31
0.0
  0
LINE
  5
335
330
1F
100
AcDbEntity
  8
0
  6
Continuous
 62
     7
370
    25
100
AcDbLine
 10
23.6450313118
 20
109.5043281719
 30
0.0
 11
23.6450313118
 21
97.5043281719
 31
0.0
  0
LINE
  5
336
330
1F
100
AcDbEntity
  8
0
  6
Continuous
 62
     7
370
    25
100
AcDbLine
 10
82.6450313118
 20
96.7543281719
 30
0.0
 11
82.6450313118
 21
110.2543281719
 31
0.0
  0
LINE
  5
337
330
1F
100
AcDbEntity
  8
0
  6
Continuous
 62
     7
370
    25
100
AcDbLine
 10
80.2450313118
 20
97.5043281719
 30
0.0
 11
80.2450313118
 21
109.5043281719
 31
0.0
  0
ELLIPSE
  5
338
330
1F
100
AcDbEntity
  8
0
  6
Continuous
 62
     7
370
    25
100
AcDbEllipse
 10
37.4450313118
 20
101.3838381574
 30
0.0
 11
6.500000000000007
 21
0.0
 31
0.0
210
0.0
220
0.0
230
1.0
 40
0.124260355
 41
3.141592653589792
 42
4.274264664245591
  0
ELLIPSE
  5
339
330
1F
100
AcDbEntity
  8
0
  6
Continuous
 62
     7
370
    25
100
AcDbEllipse
 10
37.4450313118
 20
105.6248181865
 30
0.0
 11
6.500000000000007
 21
0.0
 31
0.0
210
0.0
220
0.0
230
1.0
 40
0.124260355
 41
2.008920642934009
 42
3.141592653589792
  0
LWPOLYLINE
  5
33A
330
1F
100
AcDbEntity
  8
0
  6
Continuous
 62
     7
370
    25
100
AcDbPolyline
 90
        9
 70
   128
 43
0.0
 10
63.6874603352
 20
106.3562231472
 10
63.6867673716
 20
106.4610098504
 10
63.6955575346
 20
106.5611271875
 10
63.7134391288
 20
106.6521138624
 10
63.7396153382
 20
106.7299154476
 10
63.7729197334
 20
106.791065052
 10
63.8118682479
 20
106.8328378081
 10
63.8547253099
 20
106.8533722936
 10
63.8681958199
 20
106.8552371008
  0
SPLINE
  5
33B
330
1F
100
AcDbEntity
  8
0
  6
Continuous
 62
     7
370
    25
100
AcDbSpline
210
0.0
220
0.0
230
1.0
 70
     8
 71
     3
 72
    17
 73
    13
 74
     0
 42
0.00000001
 43
0.00000001
 40
0.0
 40
0.0
 40
0.0
 40
0.0
 40
0.1033500235410823
 40
0.3374084655796578
 40
0.6894471583719659
 40
0.8015460312287892
 40
0.8712224583181515
 40
0.9159519736780314
 40
0.9450159550656558
 40
0.9639940142307494
 40
0.9945233855679991
 40
1.0
 40
1.0
 40
1.0
 40
1.0
 10
64.0581989532395
 20
106.8476255746193
 30
0.0
 10
64.13227778046095
 20
106.8484503446515
 30
0.0
 10
64.3741241058737
 20
106.8511429844931
 30
0.0
 10
64.91501465826312
 20
106.6755827679402
 30
0.0
 10
65.4820727884257
 20
106.4034191995618
 30
0.0
 10
65.91986117616285
 20
106.1612029826636
 30
0.0
 10
66.10618925160897
 20
106.0556116867443
 30
0.0
 10
66.22433849476754
 20
105.9879106151185
 30
0.0
 10
66.30077420776433
 20
105.9439243073181
 30
0.0
 10
66.36552250778726
 20
105.9065935951858
 30
0.0
 10
66.41084141828162
 20
105.880432362117
 30
0.0
 10
66.44051749483707
 20
105.8632988700109
 30
0.0
 10
66.4450313117949
 20
105.8606928163747
 30
0.0
  0
ELLIPSE
  5
33C
330
1F
100
AcDbEntity
  8
0
  6
Continuous
 62
     7
370
    25
100
AcDbEllipse
 10
66.4450313118
 20
101.3838381574
 30
0.0
 11
6.5
 21
0.0
 31
0.0
210
0.0
220
0.0
230
1.0
 40
0.124260355
 41
5.150513296523832
 42
6.283185307179586
  0
ELLIPSE
  5
33D
330
1F
100
AcDbEntity
  8
0
  6
Continuous
 62
     7
370
    25
100
AcDbEllipse
 10
66.4450313118
 20
105.6248181865
 30
0.0
 11
6.5
 21
0.0
 31
0.0
210
0.0
220
0.0
230
1.0
 40
0.124260355
 41
0.0
 42
1.132672010655783
  0
LWPOLYLINE
  5
33E
330
1F
100
AcDbEntity
  8
0
  6
Continuous
 62
     7
370
    25
100
AcDbPolyline
 90
        9
 70
   128
 43
0.0
 10
34.6874603352
 20
106.3562231472
 10
34.6867673716
 20
106.4610098504
 10
34.6955575346
 20
106.5611271875
 10
34.7134391288
 20
106.6521138624
 10
34.7396153382
 20
106.7299154476
 10
34.7729197334
 20
106.791065052
 10
34.8118682479
 20
106.8328378081
 10
34.8547253099
 20
106.8533722936
 10
34.8681958199
 20
106.8552371008
  0
SPLINE
  5
33F
330
1F
100
AcDbEntity
  8
0
  6
Continuous
 62
     7
370
    25
100
AcDbSpline
210
0.0
220
0.0
230
1.0
 70
     8
 71
     3
 72
    17
 73
    13
 74
     0
 42
0.00000001
 43
0.00000001
 40
0.0
 40
0.0
 40
0.0
 40
0.0
 40
0.1033500235410827
 40
0.3374084655796566
 40
0.6894471583719654
 40
0.801546031228788
 40
0.8712224583181606
 40
0.9159519736780436
 40
0.9450159550656687
 40
0.9639940142307662
 40
0.9945233855679995
 40
1.0
 40
1.0
 40
1.0
 40
1.0
 10
35.05819895323949
 20
106.8476255746193
 30
0.0
 10
35.13227778046095
 20
106.8484503446515
 30
0.0
 10
35.3741241058737
 20
106.8511429844931
 30
0.0
 10
35.91501465826312
 20
106.6755827679402
 30
0.0
 10
36.48207278842569
 20
106.4034191995618
 30
0.0
 10
36.91986117616286
 20
106.1612029826636
 30
0.0
 10
37.10618925160898
 20
106.0556116867443
 30
0.0
 10
37.22433849476753
 20
105.9879106151184
 30
0.0
 10
37.30077420776438
 20
105.9439243073181
 30
0.0
 10
37.3655225077873
 20
105.9065935951858
 30
0.0
 10
37.4108414182816
 20
105.880432362117
 30
0.0
 10
37.44051749483707
 20
105.8632988700109
 30
0.0
 10
37.4450313117949
 20
105.8606928163747
 30
0.0
  0
LWPOLYLINE
  5
340
330
1F
100
AcDbEntity
  8
0
  6
Continuous
 62
     7
370
    25
100
AcDbPolyline
 90
        9
 70
   128
 43
0.0
 10
69.2026022883
 20
106.3562231472
 10
69.203295252
 20
106.4610098504
 10
69.194505089
 20
106.5611271875
 10
69.1766234948
 20
106.6521138624
 10
69.1504472854
 20
106.7299154476
 10
69.1171428902
 20
106.791065052
 10
69.0781943756
 20
106.8328378081
 10
69.0353373137
 20
106.8533722936
 10
69.0217696968
 20
106.8552430793
  0
SPLINE
  5
341
330
1F
100
AcDbEntity
  8
0
  6
Continuous
 62
     7
370
    25
100
AcDbSpline
210
0.0
220
0.0
230
1.0
 70
     8
 71
     3
 72
    17
 73
    13
 74
     0
 42
0.00000001
 43
0.00000001
 40
0.0
 40
0.0
 40
0.0
 40
0.0
 40
0.0054763640843788
 40
0.036004339859532
 40
0.0549815314974256
 40
0.0840441843090257
 40
0.1287716549882097
 40
0.1984448970208085
 40
0.3105386456012002
 40
0.6625612459607259
 40
0.8966089886931647
 40
1.0
 40
1.0
 40
1.0
 40
1.0
 10
66.4450313117949
 20
105.8606928163747
 30
0.0
 10
66.44954512875272
 20
105.8632988700108
 30
0.0
 10
66.479221205308
 20
105.8804323621162
 30
0.0
 10
66.52454011580741
 20
105.9065935952046
 30
0.0
 10
66.58928841581285
 20
105.9439243072691
 30
0.0
 10
66.66572412891757
 20
105.9879106154879
 30
0.0
 10
66.78387337127708
 20
106.0556116840163
 30
0.0
 10
66.97020145277727
 20
106.1612030034025
 30
0.0
 10
67.40798977050741
 20
106.4034189489397
 30
0.0
 10
67.97504866501143
 20
106.6755854800566
 30
0.0
 10
68.51597313363033
 20
106.851149787021
 30
0.0
 10
68.7578515366919
 20
106.848454110889
 30
0.0
 10
68.83196291959167
 20
106.8476281575031
 30
0.0
  0
LWPOLYLINE
  5
342
330
1F
100
AcDbEntity
  8
0
  6
Continuous
 62
     7
370
    25
100
AcDbPolyline
 90
        9
 70
   128
 43
0.0
 10
40.0216306126
 20
106.8552514581
 10
40.0353373137
 20
106.8533722936
 10
40.0781943756
 20
106.8328378081
 10
40.1171428902
 20
106.791065052
 10
40.1504472854
 20
106.7299154476
 10
40.1766234948
 20
106.6521138624
 10
40.194505089
 20
106.5611271875
 10
40.203295252
 20
106.4610098504
 10
40.2026022883
 20
106.3562231472
  0
SPLINE
  5
343
330
1F
100
AcDbEntity
  8
0
  6
Continuous
 62
     7
370
    25
100
AcDbSpline
210
0.0
220
0.0
230
1.0
 70
     8
 71
     3
 72
    17
 73
    13
 74
     0
 42
0.00000001
 43
0.00000001
 40
0.0
 40
0.0
 40
0.0
 40
0.0
 40
0.0054763640843784
 40
0.0360043398595739
 40
0.0549815314974126
 40
0.0840441843090287
 40
0.1287716549882192
 40
0.198444897020805
 40
0.3105386456012033
 40
0.6625612459607197
 40
0.8966089886931596
 40
1.0
 40
1.0
 40
1.0
 40
1.0
 10
37.4450313117949
 20
105.8606928163747
 30
0.0
 10
37.44954512875271
 20
105.8632988700108
 30
0.0
 10
37.47922120530803
 20
105.8804323621162
 30
0.0
 10
37.52454011580739
 20
105.9065935952047
 30
0.0
 10
37.58928841581282
 20
105.9439243072692
 30
0.0
 10
37.6657241289176
 20
105.9879106154878
 30
0.0
 10
37.78387337127708
 20
106.0556116840163
 30
0.0
 10
37.97020145277727
 20
106.1612030034025
 30
0.0
 10
38.40798977050742
 20
106.4034189489397
 30
0.0
 10
38.97504866501144
 20
106.6755854800566
 30
0.0
 10
39.51597313363031
 20
106.851149787021
 30
0.0
 10
39.75785153669192
 20
106.848454110889
 30
0.0
 10
39.83196291959168
 20
106.8476281575031
 30
0.0
  0
LWPOLYLINE
  5
344
330
1F
100
AcDbEntity
  8
0
  6
Continuous
 62
     7
370
    25
100
AcDbPolyline
 90
        9
 70
   128
 43
0.0
 10
69.2026022883
 20
100.6524331967
 10
69.203295252
 20
100.5476464935
 10
69.194505089
 20
100.4475291564
 10
69.1766234948
 20
100.3565424815
 10
69.1504472854
 20
100.2787408963
 10
69.1171428902
 20
100.2175912918
 10
69.0781943756
 20
100.1758185358
 10
69.0353373137
 20
100.1552840503
 10
69.0218668036
 20
100.1534192431
  0
SPLINE
  5
345
330
1F
100
AcDbEntity
  8
0
  6
Continuous
 62
     7
370
    25
100
AcDbSpline
210
0.0
220
0.0
230
1.0
 70
     8
 71
     3
 72
    17
 73
    13
 74
     0
 42
0.00000001
 43
0.00000001
 40
0.0
 40
0.0
 40
0.0
 40
0.0
 40
0.1033500235410935
 40
0.3374084655796651
 40
0.6894471583719696
 40
0.8015460312287903
 40
0.8712224583181435
 40
0.9159519736780382
 40
0.9450159550656645
 40
0.9639940142307412
 40
0.9945233855679853
 40
1.0
 40
1.0
 40
1.0
 40
1.0
 10
68.83186367035036
 20
100.16103076926
 30
0.0
 10
68.75778484312887
 20
100.1602059992278
 30
0.0
 10
68.51593851771612
 20
100.1575133593862
 30
0.0
 10
67.9750479653267
 20
100.3330735759391
 30
0.0
 10
67.40798983516413
 20
100.6052371443175
 30
0.0
 10
66.97020144742696
 20
100.8474533612156
 30
0.0
 10
66.78387337198085
 20
100.953044657135
 30
0.0
 10
66.66572412882232
 20
101.0207457287609
 30
0.0
 10
66.58928841582544
 20
101.0647320365612
 30
0.0
 10
66.52454011580257
 20
101.1020627486935
 30
0.0
 10
66.47922120530832
 20
101.1282239817624
 30
0.0
 10
66.44954512875277
 20
101.1453574738684
 30
0.0
 10
66.4450313117949
 20
101.1479635275046
 30
0.0
  0
SPLINE
  5
346
330
1F
100
AcDbEntity
  8
0
  6
Continuous
 62
     7
370
    25
100
AcDbSpline
210
0.0
220
0.0
230
1.0
 70
     8
 71
     3
 72
    17
 73
    13
 74
     0
 42
0.00000001
 43
0.00000001
 40
0.0
 40
0.0
 40
0.0
 40
0.0
 40
0.1033500235411004
 40
0.3374084655796711
 40
0.6894471583719721
 40
0.801546031228803
 40
0.8712224583181591
 40
0.9159519736780347
 40
0.9450159550656555
 40
0.9639940142306953
 40
0.9945233855679855
 40
1.0
 40
1.0
 40
1.0
 40
1.0
 10
39.83186367035035
 20
100.16103076926
 30
0.0
 10
39.75778484312888
 20
100.1602059992278
 30
0.0
 10
39.51593851771612
 20
100.1575133593862
 30
0.0
 10
38.97504796532668
 20
100.3330735759391
 30
0.0
 10
38.40798983516412
 20
100.6052371443175
 30
0.0
 10
37.97020144742694
 20
100.8474533612157
 30
0.0
 10
37.78387337198082
 20
100.953044657135
 30
0.0
 10
37.66572412882232
 20
101.0207457287609
 30
0.0
 10
37.58928841582546
 20
101.0647320365611
 30
0.0
 10
37.52454011580263
 20
101.1020627486935
 30
0.0
 10
37.47922120530806
 20
101.1282239817619
 30
0.0
 10
37.44954512875272
 20
101.1453574738684
 30
0.0
 10
37.4450313117949
 20
101.1479635275046
 30
0.0
  0
LWPOLYLINE
  5
347
330
1F
100
AcDbEntity
  8
0
  6
Continuous
 62
     7
370
    25
100
AcDbPolyline
 90
        9
 70
   128
 43
0.0
 10
40.0219033904
 20
100.153421523
 10
40.0353373137
 20
100.1552840503
 10
40.0781943756
 20
100.1758185358
 10
40.1171428902
 20
100.2175912918
 10
40.1504472854
 20
100.2787408963
 10
40.1766234948
 20
100.3565424815
 10
40.194505089
 20
100.4475291564
 10
40.203295252
 20
100.5476464935
 10
40.2026022883
 20
100.6524331967
  0
LWPOLYLINE
  5
348
330
1F
100
AcDbEntity
  8
0
  6
Continuous
 62
     7
370
    25
100
AcDbPolyline
 90
        9
 70
   128
 43
0.0
 10
34.868432011
 20
100.1534048858
 10
34.8547253099
 20
100.1552840503
 10
34.8118682479
 20
100.1758185358
 10
34.7729197334
 20
100.2175912918
 10
34.7396153382
 20
100.2787408963
 10
34.7134391288
 20
100.3565424815
 10
34.6955575346
 20
100.4475291564
 10
34.6867673716
 20
100.5476464935
 10
34.6874603352
 20
100.6524331967
  0
SPLINE
  5
349
330
1F
100
AcDbEntity
  8
0
  6
Continuous
 62
     7
370
    25
100
AcDbSpline
210
0.0
220
0.0
230
1.0
 70
     8
 71
     3
 72
    17
 73
    13
 74
     0
 42
0.00000001
 43
0.00000001
 40
0.0
 40
0.0
 40
0.0
 40
0.0
 40
0.0054763640843928
 40
0.0360043398595344
 40
0.0549815314973963
 40
0.0840441843090284
 40
0.1287716549882066
 40
0.1984448970208001
 40
0.3105386456012014
 40
0.6625612459607276
 40
0.8966089886931685
 40
1.0
 40
1.0
 40
1.0
 40
1.0
 10
37.4450313117949
 20
101.1479635275046
 30
0.0
 10
37.44051749483711
 20
101.1453574738685
 30
0.0
 10
37.41084141828201
 20
101.1282239817627
 30
0.0
 10
37.36552250778239
 20
101.1020627486747
 30
0.0
 10
37.30077420777704
 20
101.0647320366101
 30
0.0
 10
37.22433849467221
 20
101.0207457283915
 30
0.0
 10
37.10618925231274
 20
100.953044659863
 30
0.0
 10
36.91986117081256
 20
100.8474533404768
 30
0.0
 10
36.48207285308239
 20
100.6052373949396
 30
0.0
 10
35.91501395857838
 20
100.3330708638227
 30
0.0
 10
35.3740894899595
 20
100.1575065568583
 30
0.0
 10
35.1322110868979
 20
100.1602022329903
 30
0.0
 10
35.05809970399815
 20
100.1610281863762
 30
0.0
  0
LWPOLYLINE
  5
34A
330
1F
100
AcDbEntity
  8
0
  6
Continuous
 62
     7
370
    25
100
AcDbPolyline
 90
        9
 70
   128
 43
0.0
 10
63.868432011
 20
100.1534048858
 10
63.8547253099
 20
100.1552840503
 10
63.8118682479
 20
100.1758185358
 10
63.7729197334
 20
100.2175912918
 10
63.7396153382
 20
100.2787408963
 10
63.7134391288
 20
100.3565424815
 10
63.6955575346
 20
100.4475291564
 10
63.6867673716
 20
100.5476464935
 10
63.6874603352
 20
100.6524331967
  0
SPLINE
  5
34B
330
1F
100
AcDbEntity
  8
0
  6
Continuous
 62
     7
370
    25
100
AcDbSpline
210
0.0
220
0.0
230
1.0
 70
     8
 71
     3
 72
    17
 73
    13
 74
     0
 42
0.00000001
 43
0.00000001
 40
0.0
 40
0.0
 40
0.0
 40
0.0
 40
0.0054763640843931
 40
0.0360043398595903
 40
0.0549815314974116
 40
0.084044184309029
 40
0.1287716549882209
 40
0.1984448970208097
 40
0.3105386456012017
 40
0.6625612459607293
 40
0.8966089886931704
 40
1.0
 40
1.0
 40
1.0
 40
1.0
 10
66.4450313117949
 20
101.1479635275046
 30
0.0
 10
66.44051749483712
 20
101.1453574738685
 30
0.0
 10
66.41084141828196
 20
101.1282239817627
 30
0.0
 10
66.36552250778236
 20
101.1020627486746
 30
0.0
 10
66.300774207777
 20
101.0647320366101
 30
0.0
 10
66.2243384946722
 20
101.0207457283915
 30
0.0
 10
66.10618925231272
 20
100.953044659863
 30
0.0
 10
65.91986117081254
 20
100.8474533404768
 30
0.0
 10
65.48207285308239
 20
100.6052373949396
 30
0.0
 10
64.91501395857837
 20
100.3330708638227
 30
0.0
 10
64.37408948995952
 20
100.1575065568583
 30
0.0
 10
64.13221108689791
 20
100.1602022329903
 30
0.0
 10
64.05809970399815
 20
100.1610281863762
 30
0.0
  0
ARC
  5
34C
330
1F
100
AcDbEntity
  8
0
  6
Continuous
 62
     7
370
    25
100
AcDbCircle
 10
42.532277335
 20
106.1124649537
 30
0.0
 40
0.4427359145764694
100
AcDbArc
 50
351.9127442937
 51
74.342301272
  0
ARC
  5
34D
330
1F
100
AcDbEntity
  8
0
  6
Continuous
 62
     7
370
    25
100
AcDbCircle
 10
61.3700713344
 20
106.1044550228
 30
0.0
 40
0.4538757123966052
100
AcDbArc
 50
106.8912058247
 51
186.8678829352
  0
ARC
  5
34E
330
1F
100
AcDbEntity
  8
0
  6
Continuous
 62
     7
370
    25
100
AcDbCircle
 10
61.3577852886
 20
100.8961913902
 30
0.0
 40
0.4427359145765064
100
AcDbArc
 50
171.9127442937
 51
254.342301272
  0
ARC
  5
34F
330
1F
100
AcDbEntity
  8
0
  6
Continuous
 62
     7
370
    25
100
AcDbCircle
 10
42.5199912892
 20
100.9042013211
 30
0.0
 40
0.4538757123966105
100
AcDbArc
 50
286.8912058247
 51
6.8678829353
  0
MTEXT
  5
351
330
1F
100
AcDbEntity
  8
0
  6
Continuous
 62
     7
370
     0
100
AcDbMText
 10
63.2279517904
 20
85.5875960829
 30
0.0
 40
3.5
 41
0.0
 71
     1
 72
     1
  1
エースボール　アングル　BC-5288R
  7
SLDTEXTSTYLE0
 73
     1
 44
1.0
  0
INSERT
  5
35D
330
1F
100
AcDbEntity
  8
0
  6
Continuous
 62
     7
370
    18
100
AcDbBlockReference
  2
SW_CENTERMARKSYMBOL_1
 10
51.9450313118
 20
103.5043281719
 30
0.0
  0
ENDSEC
  0
SECTION
  2
OBJECTS
  0
DICTIONARY
  5
C
330
0
100
AcDbDictionary
281
     1
  3
ACAD_GROUP
350
D
  3
ACAD_LAYOUT
350
1A
  3
ACAD_MLINESTYLE
350
17
  3
ACAD_PLOTSETTINGS
350
19
  3
ACAD_PLOTSTYLENAME
350
E
  3
ACAD_SCALELIST
350
47
  3
DWGPROPS
350
35E
  0
DICTIONARY
  5
D
102
{ACAD_REACTORS
330
C
102
}
330
C
100
AcDbDictionary
281
     1
  0
DICTIONARY
  5
1A
102
{ACAD_REACTORS
330
C
102
}
330
C
100
AcDbDictionary
281
     1
  3
Layout1
350
1E
  3
Layout2
350
26
  3
Model
350
22
  0
DICTIONARY
  5
17
102
{ACAD_REACTORS
330
C
102
}
330
C
100
AcDbDictionary
281
     1
  3
Standard
350
18
  0
DICTIONARY
  5
19
102
{ACAD_REACTORS
330
C
102
}
330
C
100
AcDbDictionary
281
     1
  0
ACDBDICTIONARYWDFLT
  5
E
102
{ACAD_REACTORS
330
C
102
}
330
C
100
AcDbDictionary
281
     1
  3
Normal
350
F
100
AcDbDictionaryWithDefault
340
F
  0
DICTIONARY
  5
47
102
{ACAD_REACTORS
330
C
102
}
330
C
100
AcDbDictionary
281
     1
  3
A0
350
48
  3
A1
350
49
  3
A2
350
4A
  3
A3
350
4B
  3
A4
350
4C
  3
A5
350
4D
  3
A6
350
4E
  3
A7
350
4F
  3
A8
350
50
  3
A9
350
51
  3
B0
350
52
  3
B1
350
53
  3
B2
350
54
  3
B3
350
55
  3
B4
350
56
  3
B5
350
57
  3
B6
350
58
  0
XRECORD
  5
35E
102
{ACAD_REACTORS
330
C
102
}
330
C
100
AcDbXrecord
280
     1
  1
DWGPROPS COOKIE
  2

  3

  4

  6

  7

  8
user52
  9

300
=
301
=
302
=
303
=
304
=
305
=
306
=
307
=
308
=
309
=
 40
0.0
 41
2460236.125206574
 42
2460236.125207129
  1

 90
        0
  0
LAYOUT
  5
1E
102
{ACAD_REACTORS
330
1A
102
}
330
1A
100
AcDbPlotSettings
  1

  2
none_device
  4

  6

 40
0.0
 41
0.0
 42
0.0
 43
0.0
 44
0.0
 45
0.0
 46
0.0
 47
0.0
 48
0.0
 49
0.0
140
0.0
141
0.0
142
1.0
143
1.0
 70
   688
 72
     1
 73
     0
 74
     5
  7

 75
    16
147
1.0
148
0.0
149
0.0
100
AcDbLayout
  1
Layout1
 70
     1
 71
     1
 10
0.0
 20
0.0
 11
420.0
 21
297.0
 12
0.0
 22
0.0
 32
0.0
 14
1.0000000000E+20
 24
1.0000000000E+20
 34
1.0000000000E+20
 15
-1.0000000000E+20
 25
-1.0000000000E+20
 35
-1.0000000000E+20
146
0.0
 13
0.0
 23
0.0
 33
0.0
 16
1.0
 26
0.0
 36
0.0
 17
0.0
 27
1.0
 37
0.0
 76
     0
330
1B
  0
LAYOUT
  5
26
102
{ACAD_REACTORS
330
1A
102
}
330
1A
100
AcDbPlotSettings
  1

  2
none_device
  4

  6

 40
0.0
 41
0.0
 42
0.0
 43
0.0
 44
0.0
 45
0.0
 46
0.0
 47
0.0
 48
0.0
 49
0.0
140
0.0
141
0.0
142
1.0
143
1.0
 70
   688
 72
     1
 73
     0
 74
     5
  7

 75
    16
147
1.0
148
0.0
149
0.0
100
AcDbLayout
  1
Layout2
 70
     1
 71
     2
 10
0.0
 20
0.0
 11
0.0
 21
0.0
 12
0.0
 22
0.0
 32
0.0
 14
0.0
 24
0.0
 34
0.0
 15
0.0
 25
0.0
 35
0.0
146
0.0
 13
0.0
 23
0.0
 33
0.0
 16
1.0
 26
0.0
 36
0.0
 17
0.0
 27
1.0
 37
0.0
 76
     0
330
23
  0
LAYOUT
  5
22
102
{ACAD_REACTORS
330
1A
102
}
330
1A
100
AcDbPlotSettings
  1

  2
none_device
  4
Letter_(8.50_x_11.00_Inches)
  6

 40
6.35
 41
6.35
 42
6.35000508
 43
6.35000508
 44
215.9
 45
279.4
 46
0.0
 47
0.0
 48
0.0
 49
0.0
140
0.0
141
0.0
142
1.0
143
1.0
 70
  1712
 72
     1
 73
     0
 74
     0
  7

 75
     0
147
1.0
148
0.0
149
0.0
100
AcDbLayout
  1
Model
 70
     1
 71
     0
 10
0.0
 20
0.0
 11
431.8
 21
279.4
 12
0.0
 22
0.0
 32
0.0
 14
0.0
 24
0.0
 34
0.0
 15
431.8
 25
279.4
 35
0.0
146
0.0
 13
0.0
 23
0.0
 33
0.0
 16
1.0
 26
0.0
 36
0.0
 17
0.0
 27
1.0
 37
0.0
 76
     0
330
1F
331
29
  0
MLINESTYLE
  5
18
102
{ACAD_REACTORS
330
17
102
}
330
17
100
AcDbMlineStyle
  2
Standard
 70
     0
  3

 62
   256
 51
90.0
 52
90.0
 71
     2
 49
0.5
 62
   256
  6
BYLAYER
 49
-0.5
 62
   256
  6
BYLAYER
  0
ACDBPLACEHOLDER
  5
F
102
{ACAD_REACTORS
330
E
102
}
330
E
  0
SCALE
  5
48
102
{ACAD_REACTORS
330
47
102
}
330
47
100
AcDbScale
 70
     0
300
1:1
140
1.0
141
1.0
290
     1
  0
SCALE
  5
49
102
{ACAD_REACTORS
330
47
102
}
330
47
100
AcDbScale
 70
     0
300
1:2
140
1.0
141
2.0
290
     0
  0
SCALE
  5
4A
102
{ACAD_REACTORS
330
47
102
}
330
47
100
AcDbScale
 70
     0
300
1:4
140
1.0
141
4.0
290
     0
  0
SCALE
  5
4B
102
{ACAD_REACTORS
330
47
102
}
330
47
100
AcDbScale
 70
     0
300
1:5
140
1.0
141
5.0
290
     0
  0
SCALE
  5
4C
102
{ACAD_REACTORS
330
47
102
}
330
47
100
AcDbScale
 70
     0
300
1:8
140
1.0
141
8.0
290
     0
  0
SCALE
  5
4D
102
{ACAD_REACTORS
330
47
102
}
330
47
100
AcDbScale
 70
     0
300
1:10
140
1.0
141
10.0
290
     0
  0
SCALE
  5
4E
102
{ACAD_REACTORS
330
47
102
}
330
47
100
AcDbScale
 70
     0
300
1:16
140
1.0
141
16.0
290
     0
  0
SCALE
  5
4F
102
{ACAD_REACTORS
330
47
102
}
330
47
100
AcDbScale
 70
     0
300
1:20
140
1.0
141
20.0
290
     0
  0
SCALE
  5
50
102
{ACAD_REACTORS
330
47
102
}
330
47
100
AcDbScale
 70
     0
300
1:30
140
1.0
141
30.0
290
     0
  0
SCALE
  5
51
102
{ACAD_REACTORS
330
47
102
}
330
47
100
AcDbScale
 70
     0
300
1:40
140
1.0
141
40.0
290
     0
  0
SCALE
  5
52
102
{ACAD_REACTORS
330
47
102
}
330
47
100
AcDbScale
 70
     0
300
1:50
140
1.0
141
50.0
290
     0
  0
SCALE
  5
53
102
{ACAD_REACTORS
330
47
102
}
330
47
100
AcDbScale
 70
     0
300
1:100
140
1.0
141
100.0
290
     0
  0
SCALE
  5
54
102
{ACAD_REACTORS
330
47
102
}
330
47
100
AcDbScale
 70
     0
300
2:1
140
2.0
141
1.0
290
     0
  0
SCALE
  5
55
102
{ACAD_REACTORS
330
47
102
}
330
47
100
AcDbScale
 70
     0
300
4:1
140
4.0
141
1.0
290
     0
  0
SCALE
  5
56
102
{ACAD_REACTORS
330
47
102
}
330
47
100
AcDbScale
 70
     0
300
8:1
140
8.0
141
1.0
290
     0
  0
SCALE
  5
57
102
{ACAD_REACTORS
330
47
102
}
330
47
100
AcDbScale
 70
     0
300
10:1
140
10.0
141
1.0
290
     0
  0
SCALE
  5
58
102
{ACAD_REACTORS
330
47
102
}
330
47
100
AcDbScale
 70
     0
300
100:1
140
100.0
141
1.0
290
     0
  0
ENDSEC
  0
EOF
