  0
SECTION
  2
HEADER
  9
$ACADVER
  1
AC1015
  9
$ACADMAINTVER
 70
     6
  9
$DWGCODEPAGE
  3
DOS932
  9
$INSBASE
 10
0.0
 20
0.0
 30
0.0
  9
$EXTMIN
 10
0.0
 20
0.0
 30
0.0
  9
$EXTMAX
 10
431.8
 20
279.4
 30
0.0
  9
$LIMMIN
 10
0.0
 20
0.0
  9
$LIMMAX
 10
431.8
 20
279.4
  9
$ORTHOMODE
 70
     0
  9
$REGENMODE
 70
     1
  9
$FILLMODE
 70
     1
  9
$QTEXTMODE
 70
     0
  9
$MIRRTEXT
 70
     1
  9
$LTSCALE
 40
1.0
  9
$ATTMODE
 70
     1
  9
$TEXTSIZE
 40
3.5
  9
$TRACEWID
 40
1.0
  9
$TEXTSTYLE
  7
Standard
  9
$CLAYER
  8
0
  9
$CELTYPE
  6
ByLayer
  9
$CECOLOR
 62
   256
  9
$CELTSCALE
 40
1.0
  9
$DISPSILH
 70
     0
  9
$DIMSCALE
 40
1.0
  9
$DIMASZ
 40
3.556
  9
$DIMEXO
 40
1.0
  9
$DIMDLI
 40
3.75
  9
$DIMRND
 40
0.0
  9
$DIMDLE
 40
0.0
  9
$DIMEXE
 40
1.0
  9
$DIMTP
 40
0.0
  9
$DIMTM
 40
0.0
  9
$DIMTXT
 40
3.5
  9
$DIMCEN
 40
2.5
  9
$DIMTSZ
 40
0.0
  9
$DIMTOL
 70
     0
  9
$DIMLIM
 70
     0
  9
$DIMTIH
 70
     1
  9
$DIMTOH
 70
     1
  9
$DIMSE1
 70
     0
  9
$DIMSE2
 70
     0
  9
$DIMTAD
 70
     1
  9
$DIMZIN
 70
     0
  9
$DIMBLK
  1

  9
$DIMASO
 70
     1
  9
$DIMSHO
 70
     1
  9
$DIMPOST
  1

  9
$DIMAPOST
  1

  9
$DIMALT
 70
     0
  9
$DIMALTD
 70
     3
  9
$DIMALTF
 40
0.0393700787
  9
$DIMLFAC
 40
1.0
  9
$DIMTOFL
 70
     1
  9
$DIMTVP
 40
0.0
  9
$DIMTIX
 70
     0
  9
$DIMSOXD
 70
     0
  9
$DIMSAH
 70
     0
  9
$DIMBLK1
  1

  9
$DIMBLK2
  1

  9
$DIMSTYLE
  2
ISO-25
  9
$DIMCLRD
 70
     0
  9
$DIMCLRE
 70
     0
  9
$DIMCLRT
 70
     0
  9
$DIMTFAC
 40
1.0
  9
$DIMGAP
 40
1.524
  9
$DIMJUST
 70
     0
  9
$DIMSD1
 70
     0
  9
$DIMSD2
 70
     0
  9
$DIMTOLJ
 70
     0
  9
$DIMTZIN
 70
     0
  9
$DIMALTZ
 70
     0
  9
$DIMALTTZ
 70
     0
  9
$DIMUPT
 70
     0
  9
$DIMDEC
 70
     3
  9
$DIMTDEC
 70
     3
  9
$DIMALTU
 70
     2
  9
$DIMALTTD
 70
     3
  9
$DIMTXSTY
  7
Standard
  9
$DIMAUNIT
 70
     0
  9
$DIMADEC
 70
     2
  9
$DIMALTRND
 40
0.0
  9
$DIMAZIN
 70
     0
  9
$DIMDSEP
 70
    44
  9
$DIMATFIT
 70
     3
  9
$DIMFRAC
 70
     0
  9
$DIMLDRBLK
  1

  9
$DIMLUNIT
 70
     2
  9
$DIMLWD
 70
    -2
  9
$DIMLWE
 70
    -2
  9
$DIMTMOVE
 70
     0
  9
$LUNITS
 70
     2
  9
$LUPREC
 70
     3
  9
$SKETCHINC
 40
1.0
  9
$FILLETRAD
 40
0.0
  9
$AUNITS
 70
     0
  9
$AUPREC
 70
     2
  9
$MENU
  1
.
  9
$ELEVATION
 40
0.0
  9
$PELEVATION
 40
0.0
  9
$THICKNESS
 40
0.0
  9
$LIMCHECK
 70
     0
  9
$CHAMFERA
 40
0.0
  9
$CHAMFERB
 40
0.0
  9
$CHAMFERC
 40
0.0
  9
$CHAMFERD
 40
0.0
  9
$SKPOLY
 70
     0
  9
$TDCREATE
 40
2460236.494865011
  9
$TDUCREATE
 40
2460236.119865011
  9
$TDUPDATE
 40
2460236.494865798
  9
$TDUUPDATE
 40
2460236.119865798
  9
$TDINDWG
 40
0.0000000116
  9
$TDUSRTIMER
 40
0.0000000116
  9
$USRTIMER
 70
     1
  9
$ANGBASE
 50
0.0
  9
$ANGDIR
 70
     0
  9
$PDMODE
 70
     0
  9
$PDSIZE
 40
-1.0
  9
$PLINEWID
 40
0.0
  9
$SPLFRAME
 70
     0
  9
$SPLINETYPE
 70
     6
  9
$SPLINESEGS
 70
     8
  9
$HANDSEED
  5
36D
  9
$SURFTAB1
 70
     6
  9
$SURFTAB2
 70
     6
  9
$SURFTYPE
 70
     6
  9
$SURFU
 70
     6
  9
$SURFV
 70
     6
  9
$UCSBASE
  2

  9
$UCSNAME
  2

  9
$UCSORG
 10
0.0
 20
0.0
 30
0.0
  9
$UCSXDIR
 10
1.0
 20
0.0
 30
0.0
  9
$UCSYDIR
 10
0.0
 20
1.0
 30
0.0
  9
$UCSORTHOREF
  2

  9
$UCSORTHOVIEW
 70
     0
  9
$UCSORGTOP
 10
0.0
 20
0.0
 30
0.0
  9
$UCSORGBOTTOM
 10
0.0
 20
0.0
 30
0.0
  9
$UCSORGLEFT
 10
0.0
 20
0.0
 30
0.0
  9
$UCSORGRIGHT
 10
0.0
 20
0.0
 30
0.0
  9
$UCSORGFRONT
 10
0.0
 20
0.0
 30
0.0
  9
$UCSORGBACK
 10
0.0
 20
0.0
 30
0.0
  9
$PUCSBASE
  2

  9
$PUCSNAME
  2

  9
$PUCSORG
 10
0.0
 20
0.0
 30
0.0
  9
$PUCSXDIR
 10
1.0
 20
0.0
 30
0.0
  9
$PUCSYDIR
 10
0.0
 20
1.0
 30
0.0
  9
$PUCSORTHOREF
  2

  9
$PUCSORTHOVIEW
 70
     0
  9
$PUCSORGTOP
 10
0.0
 20
0.0
 30
0.0
  9
$PUCSORGBOTTOM
 10
0.0
 20
0.0
 30
0.0
  9
$PUCSORGLEFT
 10
0.0
 20
0.0
 30
0.0
  9
$PUCSORGRIGHT
 10
0.0
 20
0.0
 30
0.0
  9
$PUCSORGFRONT
 10
0.0
 20
0.0
 30
0.0
  9
$PUCSORGBACK
 10
0.0
 20
0.0
 30
0.0
  9
$USERI1
 70
     0
  9
$USERI2
 70
     0
  9
$USERI3
 70
     0
  9
$USERI4
 70
     0
  9
$USERI5
 70
     0
  9
$USERR1
 40
0.0
  9
$USERR2
 40
0.0
  9
$USERR3
 40
0.0
  9
$USERR4
 40
0.0
  9
$USERR5
 40
0.0
  9
$WORLDVIEW
 70
     1
  9
$SHADEDGE
 70
     3
  9
$SHADEDIF
 70
    70
  9
$TILEMODE
 70
     1
  9
$MAXACTVP
 70
    64
  9
$PINSBASE
 10
0.0
 20
0.0
 30
0.0
  9
$PLIMCHECK
 70
     0
  9
$PEXTMIN
 10
1.0000000000E+20
 20
1.0000000000E+20
 30
1.0000000000E+20
  9
$PEXTMAX
 10
-1.0000000000E+20
 20
-1.0000000000E+20
 30
-1.0000000000E+20
  9
$PLIMMIN
 10
0.0
 20
0.0
  9
$PLIMMAX
 10
420.0
 20
297.0
  9
$UNITMODE
 70
     0
  9
$VISRETAIN
 70
     1
  9
$PLINEGEN
 70
     0
  9
$PSLTSCALE
 70
     1
  9
$TREEDEPTH
 70
  3020
  9
$CMLSTYLE
  2
Standard
  9
$CMLJUST
 70
     0
  9
$CMLSCALE
 40
20.0
  9
$PROXYGRAPHICS
 70
     1
  9
$MEASUREMENT
 70
     1
  9
$CELWEIGHT
370
    -1
  9
$ENDCAPS
280
     0
  9
$JOINSTYLE
280
     0
  9
$LWDISPLAY
290
     1
  9
$INSUNITS
 70
     4
  9
$HYPERLINKBASE
  1

  9
$STYLESHEET
  1

  9
$XEDIT
290
     1
  9
$CEPSNTYPE
380
     0
  9
$PSTYLEMODE
290
     1
  9
$FINGERPRINTGUID
  2
{e5b18afd-63db-4067-9fd6-9662bed8ab72}
  9
$VERSIONGUID
  2
{FAEB1C32-E019-11D5-929B-00C0DF256EC4}
  9
$EXTNAMES
290
     1
  9
$PSVPSCALE
 40
0.0
  9
$OLESTARTUP
290
     0
  0
ENDSEC
  0
SECTION
  2
CLASSES
  0
CLASS
  1
ACDBDICTIONARYWDFLT
  2
AcDbDictionaryWithDefault
  3
ObjectDBX Classes
 90
        0
280
     0
281
     0
  0
CLASS
  1
VISUALSTYLE
  2
AcDbVisualStyle
  3
ObjectDBX Classes
 90
     4095
280
     0
281
     0
  0
CLASS
  1
MATERIAL
  2
AcDbMaterial
  3
ObjectDBX Classes
 90
     1153
280
     0
281
     0
  0
CLASS
  1
SCALE
  2
AcDbScale
  3
ObjectDBX Classes
 90
     1153
280
     0
281
     0
  0
CLASS
  1
TABLESTYLE
  2
AcDbTableStyle
  3
ObjectDBX Classes
 90
     4095
280
     0
281
     0
  0
CLASS
  1
MLEADERSTYLE
  2
AcDbMLeaderStyle
  3
ACDB_MLEADERSTYLE_CLASS
 90
     4095
280
     0
281
     0
  0
CLASS
  1
SUN
  2
AcDbSun
  3
SCENEOE
 90
     1153
280
     0
281
     0
  0
CLASS
  1
ACDBPLACEHOLDER
  2
AcDbPlaceHolder
  3
ObjectDBX Classes
 90
        0
280
     0
281
     0
  0
CLASS
  1
LAYOUT
  2
AcDbLayout
  3
ObjectDBX Classes
 90
        0
280
     0
281
     0
  0
ENDSEC
  0
SECTION
  2
TABLES
  0
TABLE
  2
VPORT
  5
8
330
0
100
AcDbSymbolTable
 70
     1
  0
VPORT
  5
29
330
8
100
AcDbSymbolTableRecord
100
AcDbViewportTableRecord
  2
*Active
 70
     0
 10
0.0
 20
0.0
 11
1.0
 21
1.0
 12
215.9
 22
139.7
 13
0.0
 23
0.0
 14
10.0
 24
10.0
 15
10.0
 25
10.0
 16
0.0
 26
0.0
 36
1.0
 17
0.0
 27
0.0
 37
0.0
 40
279.4
 41
1.5454545455
 42
50.0
 43
0.0
 44
0.0
 50
0.0
 51
0.0
 71
     0
 72
  2000
 73
     1
 74
     3
 75
     0
 76
     0
 77
     0
 78
     0
281
     0
 65
     1
110
0.0
120
0.0
130
0.0
111
1.0
121
0.0
131
0.0
112
0.0
122
1.0
132
0.0
 79
     0
146
0.0
  0
ENDTAB
  0
TABLE
  2
LTYPE
  5
5
330
0
100
AcDbSymbolTable
 70
     6
  0
LTYPE
  5
14
330
5
100
AcDbSymbolTableRecord
100
AcDbLinetypeTableRecord
  2
ByBlock
 70
     0
  3

 72
    65
 73
     0
 40
0.0
  0
LTYPE
  5
15
330
5
100
AcDbSymbolTableRecord
100
AcDbLinetypeTableRecord
  2
ByLayer
 70
     0
  3

 72
    65
 73
     0
 40
0.0
  0
LTYPE
  5
16
330
5
100
AcDbSymbolTableRecord
100
AcDbLinetypeTableRecord
  2
Continuous
 70
     0
  3
Solid line
 72
    65
 73
     0
 40
0.0
  0
LTYPE
  5
5E
330
5
100
AcDbSymbolTableRecord
100
AcDbLinetypeTableRecord
  2
HIDDEN
 70
     0
  3
Hidden __ __ __ __ __ __ __ __ __ __ __ __ __ __
 72
    65
 73
     2
 40
1.905
 49
1.27
 74
     0
 49
-0.635
 74
     0
  0
LTYPE
  5
5F
330
5
100
AcDbSymbolTableRecord
100
AcDbLinetypeTableRecord
  2
PHANTOM
 70
     0
  3
Phantom ______  __  __  ______  __  __  ______
 72
    65
 73
     6
 40
12.7
 49
6.35
 74
     0
 49
-1.27
 74
     0
 49
1.27
 74
     0
 49
-1.27
 74
     0
 49
1.27
 74
     0
 49
-1.27
 74
     0
  0
LTYPE
  5
60
330
5
100
AcDbSymbolTableRecord
100
AcDbLinetypeTableRecord
  2
CENTER
 70
     0
  3
Center ____ _ ____ _ ____ _ ____ _ ____ _ ____
 72
    65
 73
     4
 40
10.16
 49
6.35
 74
     0
 49
-1.27
 74
     0
 49
1.27
 74
     0
 49
-1.27
 74
     0
  0
LTYPE
  5
61
330
5
100
AcDbSymbolTableRecord
100
AcDbLinetypeTableRecord
  2
CENTERX2
 70
     0
  3
Center (2x) ________  __  ________  __  _____
 72
    65
 73
     4
 40
20.32
 49
12.7
 74
     0
 49
-2.54
 74
     0
 49
2.54
 74
     0
 49
-2.54
 74
     0
  0
LTYPE
  5
62
330
5
100
AcDbSymbolTableRecord
100
AcDbLinetypeTableRecord
  2
DOT2
 70
     0
  3
Dot (.5x) ........................................
 72
    65
 73
     2
 40
0.635
 49
0.0
 74
     0
 49
-0.635
 74
     0
  0
ENDTAB
  0
TABLE
  2
LAYER
  5
2
330
0
100
AcDbSymbolTable
 70
     1
  0
LAYER
  5
10
330
2
100
AcDbSymbolTableRecord
100
AcDbLayerTableRecord
  2
0
 70
     0
 62
     7
  6
Continuous
370
    -3
390
F
  0
ENDTAB
  0
TABLE
  2
STYLE
  5
3
330
0
100
AcDbSymbolTable
 70
     2
  0
STYLE
  5
11
330
3
100
AcDbSymbolTableRecord
100
AcDbTextStyleTableRecord
  2
Standard
 70
     0
 40
0.0
 41
1.0
 50
0.0
 71
     0
 42
3.5
  3
txt
  4
bigfont
  0
STYLE
  5
35E
330
3
100
AcDbSymbolTableRecord
100
AcDbTextStyleTableRecord
  2
SLDTEXTSTYLE0
 70
     0
 40
0.0
 41
0.75
 50
0.0
 71
     0
 42
3.5
  3
TXT
  4
bigfont
  0
ENDTAB
  0
TABLE
  2
VIEW
  5
6
330
0
100
AcDbSymbolTable
 70
     0
  0
ENDTAB
  0
TABLE
  2
UCS
  5
7
330
0
100
AcDbSymbolTable
 70
     0
  0
ENDTAB
  0
TABLE
  2
APPID
  5
9
330
0
100
AcDbSymbolTable
 70
     1
  0
APPID
  5
12
330
9
100
AcDbSymbolTableRecord
100
AcDbRegAppTableRecord
  2
ACAD
 70
     0
  0
ENDTAB
  0
TABLE
  2
DIMSTYLE
  5
A
330
0
100
AcDbSymbolTable
 70
     1
100
AcDbDimStyleTable
  0
DIMSTYLE
105
27
330
A
100
AcDbSymbolTableRecord
100
AcDbDimStyleTableRecord
  2
ISO-25
 70
     0
 41
2.5
 42
0.625
 43
3.75
 44
1.25
 73
     0
 74
     0
 77
     1
 78
     8
140
2.5
141
2.5
143
0.0393700787
147
0.625
171
     3
172
     1
178
     0
271
     2
272
     2
274
     3
278
    44
283
     0
284
     8
340
11
  0
ENDTAB
  0
TABLE
  2
BLOCK_RECORD
  5
1
330
0
100
AcDbSymbolTable
 70
     3
  0
BLOCK_RECORD
  5
1F
330
1
100
AcDbSymbolTableRecord
100
AcDbBlockTableRecord
  2
*Model_Space
340
22
  0
BLOCK_RECORD
  5
1B
330
1
100
AcDbSymbolTableRecord
100
AcDbBlockTableRecord
  2
*Paper_Space
340
1E
  0
BLOCK_RECORD
  5
23
330
1
100
AcDbSymbolTableRecord
100
AcDbBlockTableRecord
  2
*Paper_Space0
340
26
  0
BLOCK_RECORD
  5
25F
330
1
100
AcDbSymbolTableRecord
100
AcDbBlockTableRecord
  2
SW_CENTERMARKSYMBOL_0
340
0
102
{BLKREFS
331
26A
102
}
  0
BLOCK_RECORD
  5
360
330
1
100
AcDbSymbolTableRecord
100
AcDbBlockTableRecord
  2
SW_CENTERMARKSYMBOL_1
340
0
102
{BLKREFS
331
36B
102
}
  0
ENDTAB
  0
ENDSEC
  0
SECTION
  2
BLOCKS
  0
BLOCK
  5
20
330
1F
100
AcDbEntity
  8
0
100
AcDbBlockBegin
  2
*Model_Space
 70
     0
 10
0.0
 20
0.0
 30
0.0
  3
*Model_Space
  1

  0
ENDBLK
  5
21
330
1F
100
AcDbEntity
  8
0
100
AcDbBlockEnd
  0
BLOCK
  5
1C
330
1B
100
AcDbEntity
 67
     1
  8
0
100
AcDbBlockBegin
  2
*Paper_Space
 70
     0
 10
0.0
 20
0.0
 30
0.0
  3
*Paper_Space
  1

  0
ENDBLK
  5
1D
330
1B
100
AcDbEntity
 67
     1
  8
0
100
AcDbBlockEnd
  0
BLOCK
  5
24
330
23
100
AcDbEntity
  8
0
100
AcDbBlockBegin
  2
*Paper_Space0
 70
     0
 10
0.0
 20
0.0
 30
0.0
  3
*Paper_Space0
  1

  0
ENDBLK
  5
25
330
23
100
AcDbEntity
  8
0
100
AcDbBlockEnd
  0
BLOCK
  5
260
330
25F
100
AcDbEntity
  8
0
100
AcDbBlockBegin
  2
SW_CENTERMARKSYMBOL_0
 70
     0
 10
0.0
 20
0.0
 30
0.0
  3
SW_CENTERMARKSYMBOL_0
  1

  0
LINE
  5
262
330
25F
100
AcDbEntity
  8
0
  6
Continuous
 62
     0
370
    18
100
AcDbLine
 10
0.0
 20
0.0
 30
0.0
 11
0.0
 21
2.5
 31
0.0
  0
LINE
  5
263
330
25F
100
AcDbEntity
  8
0
  6
Continuous
 62
     0
370
    18
100
AcDbLine
 10
0.0
 20
0.0
 30
0.0
 11
-2.5
 21
0.0
 31
0.0
  0
LINE
  5
264
330
25F
100
AcDbEntity
  8
0
  6
Continuous
 62
     0
370
    18
100
AcDbLine
 10
0.0
 20
0.0
 30
0.0
 11
0.0
 21
-2.5
 31
0.0
  0
LINE
  5
265
330
25F
100
AcDbEntity
  8
0
  6
Continuous
 62
     0
370
    18
100
AcDbLine
 10
0.0
 20
0.0
 30
0.0
 11
2.5
 21
0.0
 31
0.0
  0
LINE
  5
266
330
25F
100
AcDbEntity
  8
0
  6
Continuous
 62
     0
370
    18
100
AcDbLine
 10
0.0
 20
5.0
 30
0.0
 11
0.0
 21
31.6516966783
 31
0.0
  0
LINE
  5
267
330
25F
100
AcDbEntity
  8
0
  6
Continuous
 62
     0
370
    18
100
AcDbLine
 10
-5.0
 20
0.0
 30
0.0
 11
-10.3
 21
0.0
 31
0.0
  0
LINE
  5
268
330
25F
100
AcDbEntity
  8
0
  6
Continuous
 62
     0
370
    18
100
AcDbLine
 10
0.0
 20
-5.0
 30
0.0
 11
0.0
 21
-24.7779043188
 31
0.0
  0
LINE
  5
269
330
25F
100
AcDbEntity
  8
0
  6
Continuous
 62
     0
370
    18
100
AcDbLine
 10
5.0
 20
0.0
 30
0.0
 11
10.3
 21
0.0
 31
0.0
  0
ENDBLK
  5
261
330
25F
100
AcDbEntity
  8
0
100
AcDbBlockEnd
  0
BLOCK
  5
361
330
360
100
AcDbEntity
  8
0
100
AcDbBlockBegin
  2
SW_CENTERMARKSYMBOL_1
 70
     0
 10
0.0
 20
0.0
 30
0.0
  3
SW_CENTERMARKSYMBOL_1
  1

  0
LINE
  5
363
330
360
100
AcDbEntity
  8
0
  6
Continuous
 62
     0
370
    18
100
AcDbLine
 10
0.0
 20
0.0
 30
0.0
 11
0.0
 21
2.5
 31
0.0
  0
LINE
  5
364
330
360
100
AcDbEntity
  8
0
  6
Continuous
 62
     0
370
    18
100
AcDbLine
 10
0.0
 20
0.0
 30
0.0
 11
-2.5
 21
0.0
 31
0.0
  0
LINE
  5
365
330
360
100
AcDbEntity
  8
0
  6
Continuous
 62
     0
370
    18
100
AcDbLine
 10
0.0
 20
0.0
 30
0.0
 11
0.0
 21
-2.5
 31
0.0
  0
LINE
  5
366
330
360
100
AcDbEntity
  8
0
  6
Continuous
 62
     0
370
    18
100
AcDbLine
 10
0.0
 20
0.0
 30
0.0
 11
2.5
 21
0.0
 31
0.0
  0
LINE
  5
367
330
360
100
AcDbEntity
  8
0
  6
Continuous
 62
     0
370
    18
100
AcDbLine
 10
0.0
 20
5.0
 30
0.0
 11
0.0
 21
11.9688048228
 31
0.0
  0
LINE
  5
368
330
360
100
AcDbEntity
  8
0
  6
Continuous
 62
     0
370
    18
100
AcDbLine
 10
-5.0
 20
0.0
 30
0.0
 11
-31.6116415829
 21
0.0
 31
0.0
  0
LINE
  5
369
330
360
100
AcDbEntity
  8
0
  6
Continuous
 62
     0
370
    18
100
AcDbLine
 10
0.0
 20
-5.0
 30
0.0
 11
0.0
 21
-12.8656612521
 31
0.0
  0
LINE
  5
36A
330
360
100
AcDbEntity
  8
0
  6
Continuous
 62
     0
370
    18
100
AcDbLine
 10
5.0
 20
0.0
 30
0.0
 11
31.7910122168
 21
0.0
 31
0.0
  0
ENDBLK
  5
362
330
360
100
AcDbEntity
  8
0
100
AcDbBlockEnd
  0
ENDSEC
  0
SECTION
  2
ENTITIES
  0
ARC
  5
63
330
1F
100
AcDbEntity
  8
0
  6
Continuous
 62
     7
370
    25
100
AcDbCircle
 10
89.2463584809
 20
57.2378086273
 30
0.0
 40
0.1999999999999957
100
AcDbArc
 50
0.0
 51
90.0
  0
ARC
  5
64
330
1F
100
AcDbEntity
  8
0
  6
Continuous
 62
     7
370
    25
100
AcDbCircle
 10
89.2463584809
 20
44.6378086273
 30
0.0
 40
0.1999999999999957
100
AcDbArc
 50
270.0
 51
0.0
  0
LINE
  5
65
330
1F
100
AcDbEntity
  8
0
  6
Continuous
 62
     7
370
    25
100
AcDbLine
 10
89.2463584809
 20
57.4378086273
 30
0.0
 11
88.1463584809
 21
57.4378086273
 31
0.0
  0
LINE
  5
66
330
1F
100
AcDbEntity
  8
0
  6
Continuous
 62
     7
370
    25
100
AcDbLine
 10
88.1463584809
 20
44.4378086273
 30
0.0
 11
89.2463584809
 21
44.4378086273
 31
0.0
  0
ARC
  5
67
330
1F
100
AcDbEntity
  8
0
  6
Continuous
 62
     7
370
    25
100
AcDbCircle
 10
88.1463584809
 20
57.2378086273
 30
0.0
 40
0.2000000000000028
100
AcDbArc
 50
90.0
 51
180.0
  0
ARC
  5
68
330
1F
100
AcDbEntity
  8
0
  6
Continuous
 62
     7
370
    25
100
AcDbCircle
 10
88.1463584809
 20
44.6378086273
 30
0.0
 40
0.2000000000000028
100
AcDbArc
 50
180.0
 51
270.0
  0
LINE
  5
69
330
1F
100
AcDbEntity
  8
0
  6
Continuous
 62
     7
370
    25
100
AcDbLine
 10
87.9463584809
 20
55.0628086273
 30
0.0
 11
86.9463584809
 21
55.0628086273
 31
0.0
  0
LINE
  5
6A
330
1F
100
AcDbEntity
  8
0
  6
Continuous
 62
     7
370
    25
100
AcDbLine
 10
86.9463584809
 20
46.8128086273
 30
0.0
 11
87.9463584809
 21
46.8128086273
 31
0.0
  0
ARC
  5
6B
330
1F
100
AcDbEntity
  8
0
  6
Continuous
 62
     7
370
    25
100
AcDbCircle
 10
29.6463584809
 20
44.6378086273
 30
0.0
 40
0.2000000000000028
100
AcDbArc
 50
180.0
 51
270.0
  0
ARC
  5
6C
330
1F
100
AcDbEntity
  8
0
  6
Continuous
 62
     7
370
    25
100
AcDbCircle
 10
29.6463584809
 20
57.2378086273
 30
0.0
 40
0.1999999999999993
100
AcDbArc
 50
90.0
 51
180.0
  0
LINE
  5
6D
330
1F
100
AcDbEntity
  8
0
  6
Continuous
 62
     7
370
    25
100
AcDbLine
 10
29.6463584809
 20
44.4378086273
 30
0.0
 11
30.7463584809
 21
44.4378086273
 31
0.0
  0
LINE
  5
6E
330
1F
100
AcDbEntity
  8
0
  6
Continuous
 62
     7
370
    25
100
AcDbLine
 10
30.7463584809
 20
57.4378086273
 30
0.0
 11
29.6463584809
 21
57.4378086273
 31
0.0
  0
ARC
  5
6F
330
1F
100
AcDbEntity
  8
0
  6
Continuous
 62
     7
370
    25
100
AcDbCircle
 10
30.7463584809
 20
44.6378086273
 30
0.0
 40
0.2000000000000028
100
AcDbArc
 50
270.0
 51
0.0
  0
ARC
  5
70
330
1F
100
AcDbEntity
  8
0
  6
Continuous
 62
     7
370
    25
100
AcDbCircle
 10
30.7463584809
 20
57.2378086273
 30
0.0
 40
0.2000000000000028
100
AcDbArc
 50
360.0
 51
90.0
  0
LINE
  5
71
330
1F
100
AcDbEntity
  8
0
  6
Continuous
 62
     7
370
    25
100
AcDbLine
 10
30.9463584809
 20
46.8128086273
 30
0.0
 11
31.9463584809
 21
46.8128086273
 31
0.0
  0
LINE
  5
72
330
1F
100
AcDbEntity
  8
0
  6
Continuous
 62
     7
370
    25
100
AcDbLine
 10
31.9463584809
 20
55.0628086273
 30
0.0
 11
30.9463584809
 21
55.0628086273
 31
0.0
  0
LINE
  5
73
330
1F
100
AcDbEntity
  8
0
  6
Continuous
 62
     7
370
    25
100
AcDbLine
 10
47.9463584809
 20
58.9378086273
 30
0.0
 11
45.1463584809
 21
58.9378086273
 31
0.0
  0
LINE
  5
74
330
1F
100
AcDbEntity
  8
0
  6
Continuous
 62
     7
370
    25
100
AcDbLine
 10
45.1463584809
 20
42.9378086273
 30
0.0
 11
47.9463584809
 21
42.9378086273
 31
0.0
  0
LINE
  5
75
330
1F
100
AcDbEntity
  8
0
  6
Continuous
 62
     7
370
    25
100
AcDbLine
 10
45.1463584809
 20
58.9378086273
 30
0.0
 11
44.9463584809
 21
58.7378086273
 31
0.0
  0
LINE
  5
76
330
1F
100
AcDbEntity
  8
0
  6
Continuous
 62
     7
370
    25
100
AcDbLine
 10
44.9463584809
 20
43.1378086273
 30
0.0
 11
45.1463584809
 21
42.9378086273
 31
0.0
  0
LINE
  5
77
330
1F
100
AcDbEntity
  8
0
  6
Continuous
 62
     7
370
    25
100
AcDbLine
 10
32.1463584809
 20
57.4378086273
 30
0.0
 11
31.9463584809
 21
57.2378086273
 31
0.0
  0
LINE
  5
78
330
1F
100
AcDbEntity
  8
0
  6
Continuous
 62
     7
370
    25
100
AcDbLine
 10
31.9463584809
 20
44.6378086273
 30
0.0
 11
32.1463584809
 21
44.4378086273
 31
0.0
  0
LINE
  5
79
330
1F
100
AcDbEntity
  8
0
  6
Continuous
 62
     7
370
    25
100
AcDbLine
 10
44.9463584809
 20
57.4378086273
 30
0.0
 11
32.1463584809
 21
57.4378086273
 31
0.0
  0
LINE
  5
7A
330
1F
100
AcDbEntity
  8
0
  6
Continuous
 62
     7
370
    25
100
AcDbLine
 10
32.1463584809
 20
44.4378086273
 30
0.0
 11
44.9463584809
 21
44.4378086273
 31
0.0
  0
LINE
  5
7B
330
1F
100
AcDbEntity
  8
0
  6
Continuous
 62
     7
370
    25
100
AcDbLine
 10
70.9463584809
 20
42.9378086273
 30
0.0
 11
73.7463584809
 21
42.9378086273
 31
0.0
  0
LINE
  5
7C
330
1F
100
AcDbEntity
  8
0
  6
Continuous
 62
     7
370
    25
100
AcDbLine
 10
73.7463584809
 20
58.9378086273
 30
0.0
 11
70.9463584809
 21
58.9378086273
 31
0.0
  0
LINE
  5
7D
330
1F
100
AcDbEntity
  8
0
  6
Continuous
 62
     7
370
    25
100
AcDbLine
 10
73.7463584809
 20
42.9378086273
 30
0.0
 11
73.9463584809
 21
43.1378086273
 31
0.0
  0
LINE
  5
7E
330
1F
100
AcDbEntity
  8
0
  6
Continuous
 62
     7
370
    25
100
AcDbLine
 10
73.9463584809
 20
58.7378086273
 30
0.0
 11
73.7463584809
 21
58.9378086273
 31
0.0
  0
LINE
  5
7F
330
1F
100
AcDbEntity
  8
0
  6
Continuous
 62
     7
370
    25
100
AcDbLine
 10
73.9463584809
 20
44.4378086273
 30
0.0
 11
86.7463584809
 21
44.4378086273
 31
0.0
  0
LINE
  5
80
330
1F
100
AcDbEntity
  8
0
  6
Continuous
 62
     7
370
    25
100
AcDbLine
 10
86.7463584809
 20
57.4378086273
 30
0.0
 11
73.9463584809
 21
57.4378086273
 31
0.0
  0
LINE
  5
81
330
1F
100
AcDbEntity
  8
0
  6
Continuous
 62
     7
370
    25
100
AcDbLine
 10
86.7463584809
 20
44.4378086273
 30
0.0
 11
86.9463584809
 21
44.6378086273
 31
0.0
  0
LINE
  5
82
330
1F
100
AcDbEntity
  8
0
  6
Continuous
 62
     7
370
    25
100
AcDbLine
 10
86.9463584809
 20
57.2378086273
 30
0.0
 11
86.7463584809
 21
57.4378086273
 31
0.0
  0
LINE
  5
83
330
1F
100
AcDbEntity
  8
0
  6
Continuous
 62
     7
370
    25
100
AcDbLine
 10
51.4497251119
 20
68.3906757928
 30
0.0
 11
51.9131887326
 21
61.9021851023
 31
0.0
  0
LINE
  5
84
330
1F
100
AcDbEntity
  8
0
  6
Continuous
 62
     7
370
    25
100
AcDbLine
 10
51.4463583812
 20
68.4378100221
 30
0.0
 11
51.4497251119
 21
68.3906757928
 31
0.0
  0
LINE
  5
85
330
1F
100
AcDbEntity
  8
0
  6
Continuous
 62
     7
370
    25
100
AcDbLine
 10
66.9795282291
 20
61.9021851023
 30
0.0
 11
67.4463585805
 21
68.4378100221
 31
0.0
  0
ARC
  5
86
330
1F
100
AcDbEntity
  8
0
  6
Continuous
 62
     7
370
    25
100
AcDbCircle
 10
66.4807988792
 20
61.9378086273
 30
0.0
 40
0.5000000000000071
100
AcDbArc
 50
270.0
 51
355.91438322
  0
ARC
  5
87
330
1F
100
AcDbEntity
  8
0
  6
Continuous
 62
     7
370
    25
100
AcDbCircle
 10
52.4119180826
 20
61.9378086273
 30
0.0
 40
0.5000000000000071
100
AcDbArc
 50
184.08561678
 51
270.0
  0
LINE
  5
88
330
1F
100
AcDbEntity
  8
0
  6
Continuous
 62
     7
370
    25
100
AcDbLine
 10
65.3714716042
 20
77.9378086273
 30
0.0
 11
65.0305402646
 21
79.5417644727
 31
0.0
  0
LINE
  5
89
330
1F
100
AcDbEntity
  8
0
  6
Continuous
 62
     7
370
    25
100
AcDbLine
 10
53.8621766971
 20
79.5417644727
 30
0.0
 11
53.5212453575
 21
77.9378086273
 31
0.0
  0
ARC
  5
8A
330
1F
100
AcDbEntity
  8
0
  6
Continuous
 62
     7
370
    25
100
AcDbCircle
 10
54.3512504975
 20
79.4378086273
 30
0.0
 40
0.5
100
AcDbArc
 50
90.0
 51
168.0
  0
ARC
  5
8B
330
1F
100
AcDbEntity
  8
0
  6
Continuous
 62
     7
370
    25
100
AcDbCircle
 10
64.5414664643
 20
79.4378086273
 30
0.0
 40
0.5
100
AcDbArc
 50
12.0
 51
90.0
  0
ARC
  5
8C
330
1F
100
AcDbEntity
  8
0
  6
Continuous
 62
     7
370
    25
100
AcDbCircle
 10
59.4463584809
 20
59.9378086273
 30
0.0
 40
20.50000000000001
100
AcDbArc
 50
96.3582831464
 51
102.6803834918
  0
ARC
  5
8D
330
1F
100
AcDbEntity
  8
0
  6
Continuous
 62
     7
370
    25
100
AcDbCircle
 10
59.4463584809
 20
59.9378086273
 30
0.0
 40
20.50000000000001
100
AcDbArc
 50
77.3196165082
 51
83.6417168446
  0
ARC
  5
8E
330
1F
100
AcDbEntity
  8
0
  6
Continuous
 62
     7
370
    25
100
AcDbCircle
 10
59.4463584809
 20
59.9378086273
 30
0.0
 40
20.60000000000001
100
AcDbArc
 50
90.4762927418
 51
93.3558231766
  0
ARC
  5
8F
330
1F
100
AcDbEntity
  8
0
  6
Continuous
 62
     7
370
    25
100
AcDbCircle
 10
59.4463584809
 20
59.9378086273
 30
0.0
 40
20.60000000000001
100
AcDbArc
 50
86.6441768145
 51
89.5292048774
  0
SPLINE
  5
90
330
1F
100
AcDbEntity
  8
0
  6
Continuous
 62
     7
370
    25
100
AcDbSpline
210
0.0
220
0.0
230
1.0
 70
     8
 71
     3
 72
    11
 73
     7
 74
     0
 42
0.00000001
 43
0.00000001
 40
0.0
 40
0.0
 40
0.0
 40
0.0
 40
0.0073978837749838
 40
0.3600483919127515
 40
0.7063104840020359
 40
1.0
 40
1.0
 40
1.0
 40
1.0
 10
65.61200561156913
 20
59.72013046763441
 30
0.0
 10
65.6104794239683
 20
59.72132876032631
 30
0.0
 10
65.53620123737545
 20
59.77964859473866
 30
0.0
 10
65.43866411563039
 20
59.94503054759969
 30
0.0
 10
65.33950921784238
 20
60.18753927560658
 30
0.0
 10
65.33197913956097
 20
60.35649568610046
 30
0.0
 10
65.32852340163024
 20
60.43403393398613
 30
0.0
  0
SPLINE
  5
91
330
1F
100
AcDbEntity
  8
0
  6
Continuous
 62
     7
370
    25
100
AcDbSpline
210
0.0
220
0.0
230
1.0
 70
     8
 71
     3
 72
    11
 73
     7
 74
     0
 42
0.00000001
 43
0.00000001
 40
0.0
 40
0.0
 40
0.0
 40
0.0
 40
0.1444953169022703
 40
0.4843849012011016
 40
0.8367223224126981
 40
1.0
 40
1.0
 40
1.0
 40
1.0
 10
53.55305308573917
 20
60.4373954653479
 30
0.0
 10
53.55519161952837
 20
60.39953717852972
 30
0.0
 10
53.56236052645496
 20
60.27262661206154
 30
0.0
 10
53.50086980178112
 20
60.05899883916027
 30
0.0
 10
53.40215790148516
 20
59.85290605238894
 30
0.0
 10
53.30265085899767
 20
59.76096143915866
 30
0.0
 10
53.27114037988489
 20
59.73184572290078
 30
0.0
  0
LINE
  5
92
330
1F
100
AcDbEntity
  8
0
  6
Continuous
 62
     7
370
    25
100
AcDbLine
 10
65.3463584809
 20
60.4332778072
 30
0.0
 11
65.3463584809
 21
61.4378086273
 31
0.0
  0
LINE
  5
93
330
1F
100
AcDbEntity
  8
0
  6
Continuous
 62
     7
370
    25
100
AcDbLine
 10
53.5463584809
 20
61.4378086273
 30
0.0
 11
53.5463584809
 21
60.4378086273
 31
0.0
  0
LINE
  5
94
330
1F
100
AcDbEntity
  8
0
  6
Continuous
 62
     7
370
    25
100
AcDbLine
 10
54.3470459809
 20
38.9378086273
 30
0.0
 11
54.664078854
 21
28.7927566867
 31
0.0
  0
LINE
  5
95
330
1F
100
AcDbEntity
  8
0
  6
Continuous
 62
     7
370
    25
100
AcDbLine
 10
64.2286381077
 20
28.7927566867
 30
0.0
 11
64.5456709809
 21
38.9378086273
 31
0.0
  0
LINE
  5
96
330
1F
100
AcDbEntity
  8
0
  6
Continuous
 62
     7
370
    25
100
AcDbLine
 10
54.664078854
 20
28.7927566867
 30
0.0
 11
55.4463584809
 21
27.4378086273
 31
0.0
  0
LINE
  5
97
330
1F
100
AcDbEntity
  8
0
  6
Continuous
 62
     7
370
    25
100
AcDbLine
 10
63.4463584809
 20
27.4378086273
 30
0.0
 11
64.2286381077
 21
28.7927566867
 31
0.0
  0
LINE
  5
98
330
1F
100
AcDbEntity
  8
0
  6
Continuous
 62
     7
370
    25
100
AcDbLine
 10
53.2761915735
 20
59.7325463566
 30
0.0
 11
52.731827301
 21
60.6754129343
 31
0.0
  0
LINE
  5
99
330
1F
100
AcDbEntity
  8
0
  6
Continuous
 62
     7
370
    25
100
AcDbLine
 10
70.231827301
 20
41.2002043203
 30
0.0
 11
70.9463584809
 21
42.4378086273
 31
0.0
  0
LINE
  5
9A
330
1F
100
AcDbEntity
  8
0
  6
Continuous
 62
     7
370
    25
100
AcDbLine
 10
48.6608896607
 20
60.6754129343
 30
0.0
 11
47.9463584809
 21
59.4378086273
 31
0.0
  0
LINE
  5
9B
330
1F
100
AcDbEntity
  8
0
  6
Continuous
 62
     7
370
    25
100
AcDbLine
 10
49.7087541738
 20
39.6523398071
 30
0.0
 11
50.9463584809
 21
38.9378086273
 31
0.0
  0
LINE
  5
9C
330
1F
100
AcDbEntity
  8
0
  6
Continuous
 62
     7
370
    25
100
AcDbLine
 10
66.1608896607
 20
60.6754129343
 30
0.0
 11
65.6165253882
 21
59.7325463566
 31
0.0
  0
LINE
  5
9D
330
1F
100
AcDbEntity
  8
0
  6
Continuous
 62
     7
370
    25
100
AcDbLine
 10
67.9463584809
 20
38.9378086273
 30
0.0
 11
69.1839627879
 21
39.6523398071
 31
0.0
  0
LINE
  5
9E
330
1F
100
AcDbEntity
  8
0
  6
Continuous
 62
     7
370
    25
100
AcDbLine
 10
70.9463584809
 20
59.4378086273
 30
0.0
 11
70.231827301
 21
60.6754129343
 31
0.0
  0
LINE
  5
9F
330
1F
100
AcDbEntity
  8
0
  6
Continuous
 62
     7
370
    25
100
AcDbLine
 10
47.9463584809
 20
42.4378086273
 30
0.0
 11
48.6608896607
 21
41.2002043203
 31
0.0
  0
LINE
  5
A0
330
1F
100
AcDbEntity
  8
0
  6
Continuous
 62
     7
370
    25
100
AcDbLine
 10
69.1839627879
 20
39.6497794258
 30
0.0
 11
69.1839627879
 21
41.2002043203
 31
0.0
  0
LINE
  5
A1
330
1F
100
AcDbEntity
  8
0
  6
Continuous
 62
     7
370
    25
100
AcDbLine
 10
69.1839627879
 20
41.2002043203
 30
0.0
 11
70.2343876824
 21
41.2002043203
 31
0.0
  0
LINE
  5
A2
330
1F
100
AcDbEntity
  8
0
  6
Continuous
 62
     7
370
    25
100
AcDbLine
 10
52.7343953565
 20
60.6754129343
 30
0.0
 11
48.6583292794
 21
60.6754129343
 31
0.0
  0
LINE
  5
A3
330
1F
100
AcDbEntity
  8
0
  6
Continuous
 62
     7
370
    25
100
AcDbLine
 10
70.2343876824
 20
60.6754129343
 30
0.0
 11
66.1583216052
 21
60.6754129343
 31
0.0
  0
LINE
  5
A4
330
1F
100
AcDbEntity
  8
0
  6
Continuous
 62
     7
370
    25
100
AcDbLine
 10
49.7087541738
 20
41.2002043203
 30
0.0
 11
49.7087541738
 21
39.6497794258
 31
0.0
  0
LINE
  5
A5
330
1F
100
AcDbEntity
  8
0
  6
Continuous
 62
     7
370
    25
100
AcDbLine
 10
48.6583292794
 20
41.2002043203
 30
0.0
 11
49.7087541738
 21
41.2002043203
 31
0.0
  0
LINE
  5
A6
330
1F
100
AcDbEntity
  8
0
  6
Continuous
 62
     7
370
    25
100
AcDbLine
 10
89.4463584809
 20
46.5272815728
 30
0.0
 11
89.4463584809
 21
44.6378086273
 31
0.0
  0
LINE
  5
A7
330
1F
100
AcDbEntity
  8
0
  6
Continuous
 62
     7
370
    25
100
AcDbLine
 10
89.4463584809
 20
57.2378086273
 30
0.0
 11
89.4463584809
 21
46.5272815728
 31
0.0
  0
LINE
  5
A8
330
1F
100
AcDbEntity
  8
0
  6
Continuous
 62
     7
370
    25
100
AcDbLine
 10
87.9463584809
 20
46.5272815728
 30
0.0
 11
87.9463584809
 21
57.2378086273
 31
0.0
  0
LINE
  5
A9
330
1F
100
AcDbEntity
  8
0
  6
Continuous
 62
     7
370
    25
100
AcDbLine
 10
87.9463584809
 20
44.6378086273
 30
0.0
 11
87.9463584809
 21
46.5272815728
 31
0.0
  0
LINE
  5
AA
330
1F
100
AcDbEntity
  8
0
  6
Continuous
 62
     7
370
    25
100
AcDbLine
 10
29.4463584809
 20
44.6378086273
 30
0.0
 11
29.4463584809
 21
57.2378086273
 31
0.0
  0
LINE
  5
AB
330
1F
100
AcDbEntity
  8
0
  6
Continuous
 62
     7
370
    25
100
AcDbLine
 10
30.9463584809
 20
57.2378086273
 30
0.0
 11
30.9463584809
 21
44.6378086273
 31
0.0
  0
LINE
  5
AC
330
1F
100
AcDbEntity
  8
0
  6
Continuous
 62
     7
370
    25
100
AcDbLine
 10
45.1463584809
 20
54.5698678663
 30
0.0
 11
45.1463584809
 21
42.9378086273
 31
0.0
  0
LINE
  5
AD
330
1F
100
AcDbEntity
  8
0
  6
Continuous
 62
     7
370
    25
100
AcDbLine
 10
45.1463584809
 20
58.9378086273
 30
0.0
 11
45.1463584809
 21
54.5698678663
 31
0.0
  0
LINE
  5
AE
330
1F
100
AcDbEntity
  8
0
  6
Continuous
 62
     7
370
    25
100
AcDbLine
 10
44.9463584809
 20
54.4790663853
 30
0.0
 11
44.9463584809
 21
58.7378086273
 31
0.0
  0
LINE
  5
AF
330
1F
100
AcDbEntity
  8
0
  6
Continuous
 62
     7
370
    25
100
AcDbLine
 10
44.9463584809
 20
43.1378086273
 30
0.0
 11
44.9463584809
 21
54.4790663853
 31
0.0
  0
LINE
  5
B0
330
1F
100
AcDbEntity
  8
0
  6
Continuous
 62
     7
370
    25
100
AcDbLine
 10
31.9463584809
 20
53.798055278
 30
0.0
 11
31.9463584809
 21
57.2378086273
 31
0.0
  0
LINE
  5
B1
330
1F
100
AcDbEntity
  8
0
  6
Continuous
 62
     7
370
    25
100
AcDbLine
 10
31.9463584809
 20
44.6378086273
 30
0.0
 11
31.9463584809
 21
53.798055278
 31
0.0
  0
LINE
  5
B2
330
1F
100
AcDbEntity
  8
0
  6
Continuous
 62
     7
370
    25
100
AcDbLine
 10
32.1463584809
 20
53.888856759
 30
0.0
 11
32.1463584809
 21
44.4378086273
 31
0.0
  0
LINE
  5
B3
330
1F
100
AcDbEntity
  8
0
  6
Continuous
 62
     7
370
    25
100
AcDbLine
 10
32.1463584809
 20
57.4378086273
 30
0.0
 11
32.1463584809
 21
53.888856759
 31
0.0
  0
LINE
  5
B4
330
1F
100
AcDbEntity
  8
0
  6
Continuous
 62
     7
370
    25
100
AcDbLine
 10
73.7463584809
 20
42.9378086273
 30
0.0
 11
73.7463584809
 21
58.9378086273
 31
0.0
  0
LINE
  5
B5
330
1F
100
AcDbEntity
  8
0
  6
Continuous
 62
     7
370
    25
100
AcDbLine
 10
73.9463584809
 20
58.7378086273
 30
0.0
 11
73.9463584809
 21
43.1378086273
 31
0.0
  0
LINE
  5
B6
330
1F
100
AcDbEntity
  8
0
  6
Continuous
 62
     7
370
    25
100
AcDbLine
 10
86.7463584809
 20
44.4378086273
 30
0.0
 11
86.7463584809
 21
57.4378086273
 31
0.0
  0
LINE
  5
B7
330
1F
100
AcDbEntity
  8
0
  6
Continuous
 62
     7
370
    25
100
AcDbLine
 10
86.9463584809
 20
57.2378086273
 30
0.0
 11
86.9463584809
 21
44.6378086273
 31
0.0
  0
LWPOLYLINE
  5
B8
330
1F
100
AcDbEntity
  8
0
  6
Continuous
 62
     7
370
    25
100
AcDbPolyline
 90
       29
 70
   128
 43
0.0
 10
67.4463584248
 20
68.4378084622
 10
67.3959323096
 20
68.4378084633
 10
67.2455546174
 20
68.4378084664
 10
66.9971160768
 20
68.4378084715
 10
66.6537403551
 20
68.4378084786
 10
66.2197447837
 20
68.4378084875
 10
65.7005860756
 20
68.4378084982
 10
65.1027917167
 20
68.4378085106
 10
64.4338778946
 20
68.4378085244
 10
63.7022549963
 20
68.4378085395
 10
62.9171218624
 20
68.4378085557
 10
62.0883501283
 20
68.4378085728
 10
61.2263601064
 20
68.4378085905
 10
60.341989769
 20
68.4378086088
 10
59.4463584809
 20
68.4378086273
 10
58.5507271927
 20
68.4378086458
 10
57.6663568553
 20
68.437808664
 10
56.8043668334
 20
68.4378086818
 10
55.9755950993
 20
68.4378086989
 10
55.1904619654
 20
68.4378087151
 10
54.4588390671
 20
68.4378087302
 10
53.789925245
 20
68.437808744
 10
53.1921308861
 20
68.4378087563
 10
52.672972178
 20
68.437808767
 10
52.2389766066
 20
68.437808776
 10
51.8956008849
 20
68.4378087831
 10
51.6471623443
 20
68.4378087882
 10
51.4967846521
 20
68.4378087913
 10
51.446358537
 20
68.4378084622
  0
LINE
  5
B9
330
1F
100
AcDbEntity
  8
0
  6
Continuous
 62
     7
370
    25
100
AcDbLine
 10
64.5388094134
 20
77.9378086273
 30
0.0
 11
54.3539075483
 21
77.9378086273
 31
0.0
  0
SPLINE
  5
BA
330
1F
100
AcDbEntity
  8
0
  6
Continuous
 62
     7
370
    25
100
AcDbSpline
210
0.0
220
0.0
230
1.0
 70
     8
 71
     3
 72
    11
 73
     7
 74
     0
 42
0.00000001
 43
0.00000001
 40
0.0
 40
0.0
 40
0.0
 40
0.0
 40
0.2460416072901215
 40
0.4920717926348662
 40
0.7460790582811389
 40
1.0
 40
1.0
 40
1.0
 40
1.0
 10
66.40938569019772
 20
70.17098460301172
 30
0.0
 10
66.15979657150564
 20
70.78142717237928
 30
0.0
 10
65.66062992075233
 20
72.00228397264857
 30
0.0
 10
65.10744810697528
 20
73.92428557338141
 30
0.0
 10
64.6941188134459
 20
75.90358831121358
 30
0.0
 10
64.5905733474859
 20
77.25981202003466
 30
0.0
 10
64.53880941343768
 20
77.9378086272948
 30
0.0
  0
SPLINE
  5
BB
330
1F
100
AcDbEntity
  8
0
  6
Continuous
 62
     7
370
    25
100
AcDbSpline
210
0.0
220
0.0
230
1.0
 70
     8
 71
     3
 72
    13
 73
     9
 74
     0
 42
0.00000001
 43
0.00000001
 40
0.0
 40
0.0
 40
0.0
 40
0.0
 40
0.0164940201989931
 40
0.195880367265472
 40
0.3763143282056556
 40
0.5827472646165623
 40
0.8280062032403772
 40
1.0
 40
1.0
 40
1.0
 40
1.0
 10
67.44635842475483
 20
68.43780846222309
 30
0.0
 10
67.44625380680819
 20
68.43794573752463
 30
0.0
 10
67.44501138067046
 20
68.43957599722833
 30
0.0
 10
67.3958283381604
 20
68.50510775843219
 30
0.0
 10
67.22275550528761
 20
68.74365438096984
 30
0.0
 10
66.95732829219622
 20
69.13849750825953
 30
0.0
 10
66.66082056467036
 20
69.6316430179218
 30
0.0
 10
66.48277642962395
 20
70.01355744492122
 30
0.0
 10
66.40938569019772
 20
70.17098460301172
 30
0.0
  0
SPLINE
  5
BC
330
1F
100
AcDbEntity
  8
0
  6
Continuous
 62
     7
370
    25
100
AcDbSpline
210
0.0
220
0.0
230
1.0
 70
     8
 71
     3
 72
    12
 73
     8
 74
     0
 42
0.00000001
 43
0.00000001
 40
0.0
 40
0.0
 40
0.0
 40
0.0
 40
0.0816308004991864
 40
0.3246136178761977
 40
0.5946331315519718
 40
0.8003997370011067
 40
1.0
 40
1.0
 40
1.0
 40
1.0
 10
52.48333127152296
 20
70.17098460301172
 30
0.0
 10
52.44938485663633
 20
70.09572524879304
 30
0.0
 10
52.31439330341266
 20
69.7964483692016
 30
0.0
 10
52.03443657945913
 20
69.29212324936442
 30
0.0
 10
51.71570823717364
 20
68.80706357586867
 30
0.0
 10
51.48942045670312
 20
68.49489238235748
 30
0.0
 10
51.46056620223895
 20
68.45664248622134
 30
0.0
 10
51.44635853696592
 20
68.43780846222309
 30
0.0
  0
SPLINE
  5
BD
330
1F
100
AcDbEntity
  8
0
  6
Continuous
 62
     7
370
    25
100
AcDbSpline
210
0.0
220
0.0
230
1.0
 70
     8
 71
     3
 72
    11
 73
     7
 74
     0
 42
0.00000001
 43
0.00000001
 40
0.0
 40
0.0
 40
0.0
 40
0.0
 40
0.2456902021794783
 40
0.4914572396993195
 40
0.7457216020119223
 40
1.0
 40
1.0
 40
1.0
 40
1.0
 10
54.353907548283
 20
77.93780862729481
 30
0.0
 10
54.30449047842579
 20
77.28176905585308
 30
0.0
 10
54.20564088438169
 20
75.96948474799632
 30
0.0
 10
53.80645022745558
 20
74.01018096504087
 30
0.0
 10
53.25569803417639
 20
72.06425142197186
 30
0.0
 10
52.74079159617799
 20
70.80208515450813
 30
0.0
 10
52.48333127152296
 20
70.17098460301172
 30
0.0
  0
LINE
  5
BE
330
1F
100
AcDbEntity
  8
0
  6
Continuous
 62
     7
370
    25
100
AcDbLine
 10
66.4807988792
 20
61.4378086273
 30
0.0
 11
52.4119180826
 21
61.4378086273
 31
0.0
  0
LINE
  5
BF
330
1F
100
AcDbEntity
  8
0
  6
Continuous
 62
     7
370
    25
100
AcDbLine
 10
59.4463584809
 20
79.9378086273
 30
0.0
 11
64.5414664643
 21
79.9378086273
 31
0.0
  0
LINE
  5
C0
330
1F
100
AcDbEntity
  8
0
  6
Continuous
 62
     7
370
    25
100
AcDbLine
 10
54.3512504975
 20
79.9378086273
 30
0.0
 11
59.4463584809
 21
79.9378086273
 31
0.0
  0
LINE
  5
C1
330
1F
100
AcDbEntity
  8
0
  6
Continuous
 62
     7
370
    25
100
AcDbLine
 10
64.6559767115
 20
77.9378086273
 30
0.0
 11
64.5388094134
 21
77.9378086273
 31
0.0
  0
ARC
  5
C2
330
1F
100
AcDbEntity
  8
0
  6
Continuous
 62
     7
370
    25
100
AcDbCircle
 10
66.7206014348
 20
79.3475336898
 30
0.0
 40
2.500000000000007
100
AcDbArc
 50
214.3252481179
 51
328.221357821
  0
ARC
  5
C3
330
1F
100
AcDbEntity
  8
0
  6
Continuous
 62
     7
370
    25
100
AcDbCircle
 10
73.9463584809
 20
74.8711026212
 30
0.0
 40
6.00000000000001
100
AcDbArc
 50
115.1026742168
 51
148.221357821
  0
LINE
  5
C4
330
1F
100
AcDbEntity
  8
0
  6
Continuous
 62
     7
370
    25
100
AcDbLine
 10
71.4009083487
 20
80.3043966152
 30
0.0
 11
76.4918086131
 21
80.3043966152
 31
0.0
  0
ARC
  5
C5
330
1F
100
AcDbEntity
  8
0
  6
Continuous
 62
     7
370
    25
100
AcDbCircle
 10
73.9463584809
 20
74.8711026212
 30
0.0
 40
6.000000000000016
100
AcDbArc
 50
308.4313932617
 51
64.8973257832
  0
LINE
  5
C6
330
1F
100
AcDbEntity
  8
0
  6
Continuous
 62
     7
370
    25
100
AcDbLine
 10
66.4093856902
 20
70.170984603
 30
0.0
 11
77.675820991
 21
70.170984603
 31
0.0
  0
LINE
  5
C7
330
1F
100
AcDbEntity
  8
0
  6
Continuous
 62
     7
370
    25
100
AcDbLine
 10
41.2168959707
 20
70.170984603
 30
0.0
 11
52.4833312715
 21
70.170984603
 31
0.0
  0
ARC
  5
C8
330
1F
100
AcDbEntity
  8
0
  6
Continuous
 62
     7
370
    25
100
AcDbCircle
 10
44.9463584809
 20
74.8711026212
 30
0.0
 40
6.000000000000013
100
AcDbArc
 50
115.1026742168
 51
231.5686067383
  0
LINE
  5
C9
330
1F
100
AcDbEntity
  8
0
  6
Continuous
 62
     7
370
    25
100
AcDbLine
 10
42.4009083487
 20
80.3043966152
 30
0.0
 11
47.4918086131
 21
80.3043966152
 31
0.0
  0
ARC
  5
CA
330
1F
100
AcDbEntity
  8
0
  6
Continuous
 62
     7
370
    25
100
AcDbCircle
 10
44.9463584809
 20
74.8711026212
 30
0.0
 40
6.000000000000013
100
AcDbArc
 50
31.778642179
 51
64.8973257832
  0
ARC
  5
CB
330
1F
100
AcDbEntity
  8
0
  6
Continuous
 62
     7
370
    25
100
AcDbCircle
 10
52.1721155269
 20
79.3475336898
 30
0.0
 40
2.500000000000007
100
AcDbArc
 50
211.778642179
 51
325.6747518821
  0
LINE
  5
CC
330
1F
100
AcDbEntity
  8
0
  6
Continuous
 62
     7
370
    25
100
AcDbLine
 10
54.3539075483
 20
77.9378086273
 30
0.0
 11
54.2367402503
 21
77.9378086273
 31
0.0
  0
SPLINE
  5
CD
330
1F
100
AcDbEntity
  8
0
  6
Continuous
 62
     7
370
    25
100
AcDbSpline
210
0.0
220
0.0
230
1.0
 70
     8
 71
     3
 72
    17
 73
    13
 74
     0
 42
0.00000001
 43
0.00000001
 40
0.0
 40
0.0
 40
0.0
 40
0.0
 40
0.0051037386011221
 40
0.0335545146957983
 40
0.0512404508407057
 40
0.0783256082042157
 40
0.1200097101225869
 40
0.1849422108378776
 40
0.2894088209386603
 40
0.6174789247950605
 40
0.835601474844878
 40
1.0
 40
1.0
 40
1.0
 40
1.0
 10
73.94635848086034
 20
81.4378086272948
 30
0.0
 10
73.94184466393743
 20
81.4378021350683
 30
0.0
 10
73.91216858761157
 20
81.43775945194386
 30
0.0
 10
73.86684967055588
 20
81.43696257201158
 30
0.0
 10
73.80210139318949
 20
81.43454021533361
 30
0.0
 10
73.72566554048795
 20
81.43015699018571
 30
0.0
 10
73.6075173315376
 20
81.41979155420978
 30
0.0
 10
73.42118142050957
 20
81.39460486606747
 30
0.0
 10
72.98348364034003
 20
81.30265142783196
 30
0.0
 10
72.4154362503963
 20
81.0699508474518
 30
0.0
 10
71.8200165786271
 20
80.67701225896579
 30
0.0
 10
71.52688806275428
 20
80.4164011259665
 30
0.0
 10
71.40090834865728
 20
80.30439661515327
 30
0.0
  0
SPLINE
  5
CE
330
1F
100
AcDbEntity
  8
0
  6
Continuous
 62
     7
370
    25
100
AcDbSpline
210
0.0
220
0.0
230
1.0
 70
     8
 71
     3
 72
    17
 73
    13
 74
     0
 42
0.00000001
 43
0.00000001
 40
0.0
 40
0.0
 40
0.0
 40
0.0
 40
0.164398525155122
 40
0.3825210752049388
 40
0.7105911790613393
 40
0.8150577891621212
 40
0.8799902898774138
 40
0.9216743917957921
 40
0.9487595491592884
 40
0.9664454853042477
 40
0.9948962613988782
 40
1.0
 40
1.0
 40
1.0
 40
1.0
 10
76.49180861306341
 20
80.30439661515327
 30
0.0
 10
76.3658288989664
 20
80.41640112596652
 30
0.0
 10
76.07270038309359
 20
80.6770122589658
 30
0.0
 10
75.47728071132437
 20
81.06995084745179
 30
0.0
 10
74.90923332138068
 20
81.30265142783196
 30
0.0
 10
74.47153554121111
 20
81.39460486606745
 30
0.0
 10
74.2851996301831
 20
81.41979155420978
 30
0.0
 10
74.16705142123274
 20
81.43015699018571
 30
0.0
 10
74.09061556853119
 20
81.43454021533363
 30
0.0
 10
74.02586729116479
 20
81.4369625720116
 30
0.0
 10
73.98054837410938
 20
81.43775945194388
 30
0.0
 10
73.95087229778329
 20
81.43780213506828
 30
0.0
 10
73.94635848086034
 20
81.4378086272948
 30
0.0
  0
ARC
  5
CF
330
1F
100
AcDbEntity
  8
0
  6
Continuous
 62
     7
370
    25
100
AcDbCircle
 10
74.2290832351
 20
81.5313894186
 30
0.0
 40
2.573992516659752
100
AcDbArc
 50
331.5306505147
 51
344.0457565706
  0
SPLINE
  5
D0
330
1F
100
AcDbEntity
  8
0
  6
Continuous
 62
     7
370
    25
100
AcDbSpline
210
0.0
220
0.0
230
1.0
 70
     8
 71
     3
 72
    12
 73
     8
 74
     0
 42
0.00000001
 43
0.00000001
 40
0.0
 40
0.0
 40
0.0
 40
0.0
 40
0.0055634992845846
 40
0.191663199612416
 40
0.6291220910311065
 40
0.8147446662968212
 40
0.9999999999999999
 40
0.9999999999999999
 40
0.9999999999999999
 40
0.9999999999999999
 10
73.94635848086034
 20
81.4378086272948
 30
0.0
 10
73.95155236910207
 20
81.43780448962876
 30
0.0
 10
74.13048242515455
 20
81.43766194655053
 30
0.0
 10
74.71772629084242
 20
81.4127957367647
 30
0.0
 10
75.47221241768098
 20
81.27713723272863
 30
0.0
 10
76.2109689659707
 20
81.04025768243238
 30
0.0
 10
76.53971780211688
 20
80.89595634578774
 30
0.0
 10
76.70392945741366
 20
80.82387712071814
 30
0.0
  0
ARC
  5
D1
330
1F
100
AcDbEntity
  8
0
  6
Continuous
 62
     7
370
    25
100
AcDbCircle
 10
73.6636337266
 20
81.5313894186
 30
0.0
 40
2.573992516658981
100
AcDbArc
 50
195.9542434294
 51
208.4693494853
  0
SPLINE
  5
D2
330
1F
100
AcDbEntity
  8
0
  6
Continuous
 62
     7
370
    25
100
AcDbSpline
210
0.0
220
0.0
230
1.0
 70
     8
 71
     3
 72
    12
 73
     8
 74
     0
 42
0.00000001
 43
0.00000001
 40
0.0
 40
0.0
 40
0.0
 40
0.0
 40
0.1835541808817691
 40
0.3708656504822926
 40
0.8083330658171444
 40
0.9944363923102544
 40
0.9999999999999999
 40
0.9999999999999999
 40
0.9999999999999999
 40
0.9999999999999999
 10
71.18878750430702
 20
80.82387712071812
 30
0.0
 10
71.35142869175992
 20
80.89538563960271
 30
0.0
 10
71.68004027385612
 20
81.03986643128916
 30
0.0
 10
72.41906950541802
 20
81.27674284457618
 30
0.0
 10
73.17496955817539
 20
81.41281306410833
 30
0.0
 10
73.76223460143225
 20
81.4376618933147
 30
0.0
 10
73.9411645944484
 20
81.43780448812701
 30
0.0
 10
73.94635848086034
 20
81.4378086272948
 30
0.0
  0
SPLINE
  5
D3
330
1F
100
AcDbEntity
  8
0
  6
Continuous
 62
     7
370
    25
100
AcDbSpline
210
0.0
220
0.0
230
1.0
 70
     8
 71
     3
 72
    17
 73
    13
 74
     0
 42
0.00000001
 43
0.00000001
 40
0.0
 40
0.0
 40
0.0
 40
0.0
 40
0.164398525155122
 40
0.3825210752049396
 40
0.7105911790613394
 40
0.8150577891621316
 40
0.8799902898774274
 40
0.9216743917957885
 40
0.9487595491592797
 40
0.9664454853042047
 40
0.9948962613988784
 40
1.0
 40
1.0
 40
1.0
 40
1.0
 10
47.4918086130634
 20
80.30439661515327
 30
0.0
 10
47.36582889896638
 20
80.41640112596652
 30
0.0
 10
47.07270038309358
 20
80.67701225896582
 30
0.0
 10
46.47728071132437
 20
81.06995084745179
 30
0.0
 10
45.90923332138065
 20
81.30265142783196
 30
0.0
 10
45.47153554121108
 20
81.39460486606747
 30
0.0
 10
45.28519963018306
 20
81.41979155420978
 30
0.0
 10
45.16705142123273
 20
81.4301569901857
 30
0.0
 10
45.0906155685312
 20
81.43454021533363
 30
0.0
 10
45.02586729116484
 20
81.43696257201157
 30
0.0
 10
44.98054837410911
 20
81.43775945194385
 30
0.0
 10
44.95087229778324
 20
81.4378021350683
 30
0.0
 10
44.94635848086033
 20
81.4378086272948
 30
0.0
  0
SPLINE
  5
D4
330
1F
100
AcDbEntity
  8
0
  6
Continuous
 62
     7
370
    25
100
AcDbSpline
210
0.0
220
0.0
230
1.0
 70
     8
 71
     3
 72
    12
 73
     8
 74
     0
 42
0.00000001
 43
0.00000001
 40
0.0
 40
0.0
 40
0.0
 40
0.0
 40
0.0055634992845842
 40
0.1916631996124148
 40
0.6291220910311054
 40
0.8147446662968201
 40
0.9999999999999999
 40
0.9999999999999999
 40
0.9999999999999999
 40
0.9999999999999999
 10
44.94635848086033
 20
81.4378086272948
 30
0.0
 10
44.95155236910206
 20
81.43780448962876
 30
0.0
 10
45.13048242515453
 20
81.43766194655056
 30
0.0
 10
45.7177262908424
 20
81.41279573676468
 30
0.0
 10
46.47221241768097
 20
81.27713723272863
 30
0.0
 10
47.21096896597069
 20
81.04025768243238
 30
0.0
 10
47.53971780211687
 20
80.89595634578774
 30
0.0
 10
47.70392945741366
 20
80.82387712071812
 30
0.0
  0
ARC
  5
D5
330
1F
100
AcDbEntity
  8
0
  6
Continuous
 62
     7
370
    25
100
AcDbCircle
 10
45.2290832351
 20
81.5313894186
 30
0.0
 40
2.573992516659056
100
AcDbArc
 50
331.5306505147
 51
344.0457565706
  0
SPLINE
  5
D6
330
1F
100
AcDbEntity
  8
0
  6
Continuous
 62
     7
370
    25
100
AcDbSpline
210
0.0
220
0.0
230
1.0
 70
     8
 71
     3
 72
    17
 73
    13
 74
     0
 42
0.00000001
 43
0.00000001
 40
0.0
 40
0.0
 40
0.0
 40
0.0
 40
0.0051037386011219
 40
0.0335545146957463
 40
0.0512404508406915
 40
0.0783256082042153
 40
0.1200097101225738
 40
0.184942210837869
 40
0.2894088209386605
 40
0.6174789247950602
 40
0.8356014748448779
 40
1.0
 40
1.0
 40
1.0
 40
1.0
 10
44.94635848086033
 20
81.4378086272948
 30
0.0
 10
44.94184466393742
 20
81.43780213506828
 30
0.0
 10
44.91216858761163
 20
81.43775945194385
 30
0.0
 10
44.86684967055589
 20
81.43696257201158
 30
0.0
 10
44.80210139318952
 20
81.43454021533361
 30
0.0
 10
44.72566554048797
 20
81.43015699018571
 30
0.0
 10
44.6075173315376
 20
81.41979155420978
 30
0.0
 10
44.42118142050958
 20
81.39460486606747
 30
0.0
 10
43.98348364034
 20
81.30265142783196
 30
0.0
 10
43.41543625039629
 20
81.0699508474518
 30
0.0
 10
42.82001657862709
 20
80.67701225896579
 30
0.0
 10
42.52688806275427
 20
80.41640112596652
 30
0.0
 10
42.40090834865727
 20
80.30439661515327
 30
0.0
  0
ARC
  5
D7
330
1F
100
AcDbEntity
  8
0
  6
Continuous
 62
     7
370
    25
100
AcDbCircle
 10
44.6636337266
 20
81.5313894186
 30
0.0
 40
2.573992516658904
100
AcDbArc
 50
195.9542434294
 51
208.4693494853
  0
SPLINE
  5
D8
330
1F
100
AcDbEntity
  8
0
  6
Continuous
 62
     7
370
    25
100
AcDbSpline
210
0.0
220
0.0
230
1.0
 70
     8
 71
     3
 72
    12
 73
     8
 74
     0
 42
0.00000001
 43
0.00000001
 40
0.0
 40
0.0
 40
0.0
 40
0.0
 40
0.1835541808817692
 40
0.370865650482293
 40
0.8083330658171449
 40
0.994436392310255
 40
1.0
 40
1.0
 40
1.0
 40
1.0
 10
42.18878750430701
 20
80.82387712071812
 30
0.0
 10
42.35142869175991
 20
80.89538563960271
 30
0.0
 10
42.68004027385611
 20
81.03986643128916
 30
0.0
 10
43.41906950541799
 20
81.27674284457613
 30
0.0
 10
44.17496955817547
 20
81.41281306410866
 30
0.0
 10
44.76223460143217
 20
81.43766189331441
 30
0.0
 10
44.9411645944484
 20
81.43780448812704
 30
0.0
 10
44.94635848086033
 20
81.4378086272948
 30
0.0
  0
ARC
  5
D9
330
1F
100
AcDbEntity
  8
0
  6
Continuous
 62
     7
370
    25
100
AcDbCircle
 10
73.9463584809
 20
74.9378086273
 30
0.0
 40
6.500000000000005
100
AcDbArc
 50
308.4313932617
 51
64.8973257832
  0
ARC
  5
DA
330
1F
100
AcDbEntity
  8
0
  6
Continuous
 62
     7
370
    25
100
AcDbCircle
 10
78.7764017684
 20
70.9124372227
 30
0.0
 40
1.327038068257117
100
AcDbArc
 50
213.9678392762
 51
233.4763769747
  0
ARC
  5
DB
330
1F
100
AcDbEntity
  8
0
  6
Continuous
 62
     7
370
    25
100
AcDbCircle
 10
69.3834155166
 20
79.1620311927
 30
0.0
 40
1.252349853183553
100
AcDbArc
 50
219.7659527059
 51
244.5790017319
  0
ARC
  5
DC
330
1F
100
AcDbEntity
  8
0
  6
Continuous
 62
     7
370
    25
100
AcDbCircle
 10
73.9463584809
 20
74.9378086273
 30
0.0
 40
6.499999999999998
100
AcDbArc
 50
115.1026742168
 51
148.221357821
  0
ARC
  5
DD
330
1F
100
AcDbEntity
  8
0
  6
Continuous
 62
     7
370
    25
100
AcDbCircle
 10
44.9463584809
 20
74.9378086273
 30
0.0
 40
6.500000000000006
100
AcDbArc
 50
31.778642179
 51
64.8973257832
  0
ARC
  5
DE
330
1F
100
AcDbEntity
  8
0
  6
Continuous
 62
     7
370
    25
100
AcDbCircle
 10
49.5093014451
 20
79.1620311927
 30
0.0
 40
1.252349853183808
100
AcDbArc
 50
295.4209982681
 51
320.2340472941
  0
ARC
  5
DF
330
1F
100
AcDbEntity
  8
0
  6
Continuous
 62
     7
370
    25
100
AcDbCircle
 10
40.1163151934
 20
70.9124372227
 30
0.0
 40
1.32703806825722
100
AcDbArc
 50
306.5236230253
 51
326.0321607238
  0
ARC
  5
E0
330
1F
100
AcDbEntity
  8
0
  6
Continuous
 62
     7
370
    25
100
AcDbCircle
 10
44.9463584809
 20
74.9378086273
 30
0.0
 40
6.499999999999998
100
AcDbArc
 50
115.1026742168
 51
231.5686067383
  0
ARC
  5
E1
330
1F
100
AcDbEntity
  8
0
  6
Continuous
 62
     7
370
    25
100
AcDbCircle
 10
66.7206014348
 20
79.4142396958
 30
0.0
 40
2.000000000000002
100
AcDbArc
 50
227.5796275115
 51
328.221357821
  0
SPLINE
  5
E2
330
1F
100
AcDbEntity
  8
0
  6
Continuous
 62
     7
370
    25
100
AcDbSpline
210
0.0
220
0.0
230
1.0
 70
    24
 71
     3
 72
    12
 73
     8
 74
     0
 42
0.00000001
 43
0.00000001
 40
0.0
 40
0.0
 40
0.0
 40
0.0
 40
0.2571943124574413
 40
0.5245503439757959
 40
0.7385170215182981
 40
0.8882338470637772
 40
1.0
 40
1.0
 40
1.0
 40
1.0
 10
64.65597671146682
 20
77.9378086272948
 30
0.0
 10
64.74067498898795
 20
77.9378086272948
 30
0.0
 10
64.91341796368036
 20
77.9378086272948
 30
0.0
 10
65.13264299244518
 20
77.9378086272948
 30
0.0
 10
65.28202276782457
 20
77.9378086272948
 30
0.0
 10
65.35941928441864
 20
77.93780862729479
 30
0.0
 10
65.36786264358246
 20
77.9378086272948
 30
0.0
 10
65.37147160420038
 20
77.9378086272948
 30
0.0
  0
ARC
  5
E3
330
1F
100
AcDbEntity
  8
0
  6
Continuous
 62
     7
370
    25
100
AcDbCircle
 10
52.1721155269
 20
79.4142396958
 30
0.0
 40
1.999999999999991
100
AcDbArc
 50
211.778642179
 51
312.4203724885
  0
SPLINE
  5
E4
330
1F
100
AcDbEntity
  8
0
  6
Continuous
 62
     7
370
    25
100
AcDbSpline
210
0.0
220
0.0
230
1.0
 70
    24
 71
     3
 72
    12
 73
     8
 74
     0
 42
0.00000001
 43
0.00000001
 40
0.0
 40
0.0
 40
0.0
 40
0.0
 40
0.1443005026356249
 40
0.2873275205918763
 40
0.520118538643975
 40
0.7602843466484801
 40
1.0
 40
1.0
 40
1.0
 40
1.0
 10
53.52124535752029
 20
77.9378086272948
 30
0.0
 10
53.52722961754479
 20
77.9378086272948
 30
0.0
 10
53.53914532514117
 20
77.9378086272948
 30
0.0
 10
53.63253054733753
 20
77.9378086272948
 30
0.0
 10
53.78528849073921
 20
77.93780862729479
 30
0.0
 10
53.99975440592748
 20
77.9378086272948
 30
0.0
 10
54.15779438548223
 20
77.9378086272948
 30
0.0
 10
54.23674025025386
 20
77.9378086272948
 30
0.0
  0
SPLINE
  5
E5
330
1F
100
AcDbEntity
  8
0
  6
Continuous
 62
     7
370
    25
100
AcDbSpline
210
0.0
220
0.0
230
1.0
 70
     8
 71
     3
 72
    15
 73
    11
 74
     0
 42
0.00000001
 43
0.00000001
 40
0.0
 40
0.0
 40
0.0
 40
0.0
 40
0.0032941481656678
 40
0.0389555300109776
 40
0.0923164936584507
 40
0.2214838269818526
 40
0.455755886074647
 40
0.6896123828215205
 40
0.8449486292273378
 40
1.0
 40
1.0
 40
1.0
 40
1.0
 10
73.94635848086034
 20
68.43780862729479
 30
0.0
 10
73.95066409492455
 20
68.43781265134902
 30
0.0
 10
74.00158089327685
 20
68.43786023851192
 30
0.0
 10
74.12224678453858
 20
68.44011595754958
 30
0.0
 10
74.40732093217848
 20
68.45641258720542
 30
0.0
 10
74.95101560371987
 20
68.53089486300112
 30
0.0
 10
75.72329764389191
 20
68.7633545046081
 30
0.0
 10
76.50699716650364
 20
69.17787707025724
 30
0.0
 10
77.16067482759495
 20
69.66081558511276
 30
0.0
 10
77.50421070299697
 20
70.0010323480466
 30
0.0
 10
77.67582099104541
 20
70.17098460301172
 30
0.0
  0
SPLINE
  5
E6
330
1F
100
AcDbEntity
  8
0
  6
Continuous
 62
     7
370
    25
100
AcDbSpline
210
0.0
220
0.0
230
1.0
 70
     8
 71
     3
 72
    14
 73
    10
 74
     0
 42
0.00000001
 43
0.00000001
 40
0.0
 40
0.0
 40
0.0
 40
0.0
 40
0.1525945052627504
 40
0.3054077645105584
 40
0.5406281452054322
 40
0.7761410232968943
 40
0.9796791864300268
 40
0.9965136875876045
 40
0.9999999999999999
 40
0.9999999999999999
 40
0.9999999999999999
 40
0.9999999999999999
 10
77.98660953356085
 20
69.8460141075648
 30
0.0
 10
77.79862501216154
 20
69.70645697131242
 30
0.0
 10
77.42238648152578
 20
69.42714263472513
 30
0.0
 10
76.71350120251743
 20
69.03623868288508
 30
0.0
 10
75.867286012385
 20
68.7004893248616
 30
0.0
 10
74.93167258584627
 20
68.49060005801476
 30
0.0
 10
74.29307078810444
 20
68.44029440955647
 30
0.0
 10
73.97968771351123
 20
68.43783256283331
 30
0.0
 10
73.9512392093268
 20
68.43781213241193
 30
0.0
 10
73.94635848086034
 20
68.43780862729479
 30
0.0
  0
SPLINE
  5
E7
330
1F
100
AcDbEntity
  8
0
  6
Continuous
 62
     7
370
    25
100
AcDbSpline
210
0.0
220
0.0
230
1.0
 70
     8
 71
     3
 72
    16
 73
    12
 74
     0
 42
0.00000001
 43
0.00000001
 40
0.0
 40
0.0
 40
0.0
 40
0.0
 40
0.0400879241033625
 40
0.1620524644868244
 40
0.273689418946181
 40
0.3878458116547636
 40
0.5157289207825617
 40
0.6512866697179734
 40
0.7845176689407765
 40
0.9073172229945061
 40
1.0
 40
1.0
 40
1.0
 40
1.0
 10
67.44635842475483
 20
68.43780846222309
 30
0.0
 10
67.44698143942176
 20
68.43960972970885
 30
0.0
 10
67.44949993007562
 20
68.44689122012765
 30
0.0
 10
67.48502518899853
 20
68.5519832768107
 30
0.0
 10
67.60732696224709
 20
68.81285128059739
 30
0.0
 10
67.85492145193898
 20
69.1638232789505
 30
0.0
 10
68.2802062985807
 20
69.52643467877036
 30
0.0
 10
68.85574614965759
 20
69.76942187188409
 30
0.0
 10
69.4725220745278
 20
69.81894950975831
 30
0.0
 10
70.01519350868232
 20
69.7044593880953
 30
0.0
 10
70.30092700588843
 20
69.54404430805921
 30
0.0
 10
70.42382605693534
 20
69.4750469335728
 30
0.0
  0
SPLINE
  5
E8
330
1F
100
AcDbEntity
  8
0
  6
Continuous
 62
     7
370
    25
100
AcDbSpline
210
0.0
220
0.0
230
1.0
 70
     8
 71
     3
 72
    12
 73
     8
 74
     0
 42
0.00000001
 43
0.00000001
 40
0.0
 40
0.0
 40
0.0
 40
0.0
 40
0.2353653050919993
 40
0.4767533333124103
 40
0.7341407436541081
 40
0.9960857492732753
 40
1.0
 40
1.0
 40
1.0
 40
1.0
 10
70.42382605693534
 20
69.4750469335728
 30
0.0
 10
70.68852457463045
 20
69.31964022536899
 30
0.0
 10
71.22469493578315
 20
69.00485013289415
 30
0.0
 10
72.0872674406713
 20
68.6885018194851
 30
0.0
 10
72.99325039591852
 20
68.48458570789387
 30
0.0
 10
73.62242154160123
 20
68.43804337612984
 30
0.0
 10
73.94165835143077
 20
68.43781203335868
 30
0.0
 10
73.94635848086034
 20
68.43780862729479
 30
0.0
  0
SPLINE
  5
E9
330
1F
100
AcDbEntity
  8
0
  6
Continuous
 62
     7
370
    25
100
AcDbSpline
210
0.0
220
0.0
230
1.0
 70
     8
 71
     3
 72
    16
 73
    12
 74
     0
 42
0.00000001
 43
0.00000001
 40
0.0
 40
0.0
 40
0.0
 40
0.0
 40
0.0093770372722071
 40
0.1449784074793553
 40
0.2782522792466382
 40
0.4010913490990483
 40
0.5131542856948397
 40
0.6266888454485822
 40
0.7537408321063427
 40
0.8891748694388528
 40
1.0
 40
1.0
 40
1.0
 40
1.0
 10
48.46889090478535
 20
69.47504693357276
 30
0.0
 10
48.48071864181303
 20
69.4825617620627
 30
0.0
 10
48.66358732715353
 20
69.59874855276489
 30
0.0
 10
49.06870556327117
 20
69.76918333177244
 30
0.0
 10
49.68651214757096
 20
69.82013450866405
 30
0.0
 10
50.25367067257059
 20
69.69413904883808
 30
0.0
 10
50.72781896498864
 20
69.43928854164115
 30
0.0
 10
51.09905024076485
 20
69.09243240212419
 30
0.0
 10
51.33395591819449
 20
68.72893758263649
 30
0.0
 10
51.43263479223753
 20
68.4802676970909
 30
0.0
 10
51.44209921834594
 20
68.4509861635897
 30
0.0
 10
51.44635853696592
 20
68.43780846222309
 30
0.0
  0
SPLINE
  5
EA
330
1F
100
AcDbEntity
  8
0
  6
Continuous
 62
     7
370
    25
100
AcDbSpline
210
0.0
220
0.0
230
1.0
 70
     8
 71
     3
 72
    15
 73
    11
 74
     0
 42
0.00000001
 43
0.00000001
 40
0.0
 40
0.0
 40
0.0
 40
0.0
 40
0.1525119975281641
 40
0.3103908680493854
 40
0.5397217434700959
 40
0.7785238912153802
 40
0.9076867233570571
 40
0.9610458274988164
 40
0.9967059666277488
 40
1.0
 40
1.0
 40
1.0
 40
1.0
 10
41.21689597067526
 20
70.17098460301172
 30
0.0
 10
41.38547481428713
 20
70.00354868552179
 30
0.0
 10
41.7285647642682
 20
69.6627848071735
 30
0.0
 10
42.37739627997768
 20
69.18395062315454
 30
0.0
 10
43.16282507188286
 20
68.76475155315629
 30
0.0
 10
43.93588642923625
 20
68.53184826693796
 30
0.0
 10
44.48538819348479
 20
68.45640198050695
 30
0.0
 10
44.77047105660834
 20
68.44011714791972
 30
0.0
 10
44.89113605661296
 20
68.43786022249793
 30
0.0
 10
44.94205286587369
 20
68.43781265010043
 30
0.0
 10
44.94635848086033
 20
68.43780862729479
 30
0.0
  0
SPLINE
  5
EB
330
1F
100
AcDbEntity
  8
0
  6
Continuous
 62
     7
370
    25
100
AcDbSpline
210
0.0
220
0.0
230
1.0
 70
     8
 71
     3
 72
    12
 73
     8
 74
     0
 42
0.00000001
 43
0.00000001
 40
0.0
 40
0.0
 40
0.0
 40
0.0
 40
0.0039142694629097
 40
0.2613995162853427
 40
0.5232483696209406
 40
0.7589647179150544
 40
1.0
 40
1.0
 40
1.0
 40
1.0
 10
44.94635848086033
 20
68.43780862729479
 30
0.0
 10
44.95105861165699
 20
68.43781203354962
 30
0.0
 10
45.26493887165623
 20
68.4380395072515
 30
0.0
 10
45.89405802019773
 20
68.4838033624089
 30
0.0
 10
46.79348060068803
 20
68.68508365823395
 30
0.0
 10
47.66134130616736
 20
69.0018853840928
 30
0.0
 10
48.19771300794646
 20
69.31615767887855
 30
0.0
 10
48.46889090478535
 20
69.47504693357276
 30
0.0
  0
SPLINE
  5
EC
330
1F
100
AcDbEntity
  8
0
  6
Continuous
 62
     7
370
    25
100
AcDbSpline
210
0.0
220
0.0
230
1.0
 70
     8
 71
     3
 72
    14
 73
    10
 74
     0
 42
0.00000001
 43
0.00000001
 40
0.0
 40
0.0
 40
0.0
 40
0.0
 40
0.0034863124123955
 40
0.0203208135699722
 40
0.2238589767031064
 40
0.4593718547945684
 40
0.6945922354894416
 40
0.8474054947372496
 40
0.9999999999999999
 40
0.9999999999999999
 40
0.9999999999999999
 40
0.9999999999999999
 10
44.94635848086033
 20
68.43780862729479
 30
0.0
 10
44.94147775239389
 20
68.43781213241193
 30
0.0
 10
44.91302924820945
 20
68.43783256283332
 30
0.0
 10
44.59964617361625
 20
68.44029440955646
 30
0.0
 10
43.96104437587441
 20
68.49060005801478
 30
0.0
 10
43.0254309493357
 20
68.70048932486159
 30
0.0
 10
42.17921575920323
 20
69.0362386828851
 30
0.0
 10
41.4703304801949
 20
69.42714263472513
 30
0.0
 10
41.09409194955914
 20
69.70645697131242
 30
0.0
 10
40.90610742815984
 20
69.8460141075648
 30
0.0
  0
ARC
  5
ED
330
1F
100
AcDbEntity
  8
0
  6
Continuous
 62
     7
370
    25
100
AcDbCircle
 10
57.2721837336
 20
75.8816336634
 30
0.0
 40
4.408657033484607
100
AcDbArc
 50
83.0838156236
 51
91.2490959636
  0
SPLINE
  5
EE
330
1F
100
AcDbEntity
  8
0
  6
Continuous
 62
     7
370
    25
100
AcDbSpline
210
0.0
220
0.0
230
1.0
 70
     8
 71
     3
 72
    15
 73
    11
 74
     0
 42
0.00000001
 43
0.00000001
 40
0.0
 40
0.0
 40
0.0
 40
0.0
 40
0.1246337044934918
 40
0.2519069547896618
 40
0.3765407248366567
 40
0.4994048858686675
 40
0.6264509366402855
 40
0.7526069675388761
 40
0.8746808545492513
 40
1.0
 40
1.0
 40
1.0
 40
1.0
 10
57.90829061758791
 20
80.2645201379428
 30
0.0
 10
57.9042763340918
 20
80.26388377364492
 30
0.0
 10
57.89616275088995
 20
80.26259756785437
 30
0.0
 10
57.88172466597845
 20
80.26088784195679
 30
0.0
 10
57.86659145754687
 20
80.25944428348454
 30
0.0
 10
57.85122883128133
 20
80.25833944248065
 30
0.0
 10
57.83629794893691
 20
80.25760609463424
 30
0.0
 10
57.82279560922171
 20
80.25733470830562
 30
0.0
 10
57.81110958324526
 20
80.2574809909869
 30
0.0
 10
57.80576797039197
 20
80.25796522525286
 30
0.0
 10
57.80306212879471
 20
80.25821051843596
 30
0.0
  0
SPLINE
  5
EF
330
1F
100
AcDbEntity
  8
0
  6
Continuous
 62
     7
370
    25
100
AcDbSpline
210
0.0
220
0.0
230
1.0
 70
     8
 71
     3
 72
    11
 73
     7
 74
     0
 42
0.00000001
 43
0.00000001
 40
0.0
 40
0.0
 40
0.0
 40
0.0
 40
0.250625429633313
 40
0.5000000000003831
 40
0.7493745703670929
 40
1.0
 40
1.0
 40
1.0
 40
1.0
 10
60.98442634731681
 20
80.26452013770188
 30
0.0
 10
60.75470684771131
 20
80.29587819248971
 30
0.0
 10
60.29641436729187
 20
80.35843779554699
 30
0.0
 10
59.4463584824604
 20
80.38448185545565
 30
0.0
 10
58.596302597623
 20
80.35843779568037
 30
0.0
 10
58.13801011719679
 20
80.29587819269472
 30
0.0
 10
57.90829061758792
 20
80.2645201379428
 30
0.0
  0
SPLINE
  5
F0
330
1F
100
AcDbEntity
  8
0
  6
Continuous
 62
     7
370
    25
100
AcDbSpline
210
0.0
220
0.0
230
1.0
 70
     8
 71
     3
 72
    15
 73
    11
 74
     0
 42
0.00000001
 43
0.00000001
 40
0.0
 40
0.0
 40
0.0
 40
0.0
 40
0.1253187789994368
 40
0.2473923090486592
 40
0.3734477209264249
 40
0.500593709173434
 40
0.6235467583552695
 40
0.7480937818221101
 40
0.8753666599534677
 40
1.0
 40
1.0
 40
1.0
 40
1.0
 10
61.08965483610995
 20
80.25821051817847
 30
0.0
 10
61.08694899818238
 20
80.25796522409625
 30
0.0
 10
61.0816073925734
 20
80.25748098805535
 30
0.0
 10
61.06992444897974
 20
80.25733475782896
 30
0.0
 10
61.05642302934614
 20
80.25760592365546
 30
0.0
 10
61.0414886990531
 20
80.25833940059232
 30
0.0
 10
61.02612160384778
 20
80.25944431317036
 30
0.0
 10
61.01098910908119
 20
80.26088830615831
 30
0.0
 10
60.99655418388372
 20
80.26259754983438
 30
0.0
 10
60.98844062083962
 20
80.26388376751918
 30
0.0
 10
60.9844263473168
 20
80.26452013770188
 30
0.0
  0
ARC
  5
F1
330
1F
100
AcDbEntity
  8
0
  6
Continuous
 62
     7
370
    25
100
AcDbCircle
 10
61.6205332306
 20
75.8816336632
 30
0.0
 40
4.40865703333012
100
AcDbArc
 50
88.7509040274
 51
96.9161843676
  0
LINE
  5
F2
330
1F
100
AcDbEntity
  8
0
  6
Continuous
 62
     7
370
    25
100
AcDbLine
 10
57.8030621288
 20
80.2582105184
 30
0.0
 11
57.8030621288
 21
80.3590900028
 31
0.0
  0
SPLINE
  5
F3
330
1F
100
AcDbEntity
  8
0
  6
Continuous
 62
     7
370
    25
100
AcDbSpline
210
0.0
220
0.0
230
1.0
 70
     8
 71
     3
 72
    15
 73
    11
 74
     0
 42
0.00000001
 43
0.00000001
 40
0.0
 40
0.0
 40
0.0
 40
0.0
 40
0.1253191957979138
 40
0.2473928354984065
 40
0.3734492416489706
 40
0.5005950046079967
 40
0.6235484391777611
 40
0.7480947836179483
 40
0.8753671458153899
 40
1.0
 40
1.0
 40
1.0
 40
1.0
 10
57.80306212879471
 20
80.35909000279847
 30
0.0
 10
57.80576792512714
 20
80.35884592366477
 30
0.0
 10
57.81110944222433
 20
80.35836408663586
 30
0.0
 10
57.8227920148134
 20
80.35821857008236
 30
0.0
 10
57.83629299480067
 20
80.3584883644379
 30
0.0
 10
57.85122702365073
 20
80.3592181750036
 30
0.0
 10
57.86659403483978
 20
80.36031759179582
 30
0.0
 10
57.881726771278
 20
80.36175444707423
 30
0.0
 10
57.89616220105967
 20
80.3634552826572
 30
0.0
 10
57.90427615188892
 20
80.36473520657451
 30
0.0
 10
57.9082906175879
 20
80.36536846289705
 30
0.0
  0
LINE
  5
F4
330
1F
100
AcDbEntity
  8
0
  6
Continuous
 62
     7
370
    25
100
AcDbLine
 10
57.9082906176
 20
80.2645201379
 30
0.0
 11
57.9082906176
 21
80.3653684629
 31
0.0
  0
ARC
  5
F5
330
1F
100
AcDbEntity
  8
0
  6
Continuous
 62
     7
370
    25
100
AcDbCircle
 10
58.4774428778
 20
64.94789304
 30
0.0
 40
15.49681493831156
100
AcDbArc
 50
94.6954834628
 51
94.8171561263
  0
SPLINE
  5
F6
330
1F
100
AcDbEntity
  8
0
  6
Continuous
 62
     7
370
    25
100
AcDbSpline
210
0.0
220
0.0
230
1.0
 70
     8
 71
     3
 72
    15
 73
    11
 74
     0
 42
0.00000001
 43
0.00000001
 40
0.0
 40
0.0
 40
0.0
 40
0.0
 40
0.1241930067305288
 40
0.2496556654892301
 40
0.3743703853151213
 40
0.4998404796364205
 40
0.6240146704162366
 40
0.7475381382242064
 40
0.8745858500551822
 40
1.0
 40
1.0
 40
1.0
 40
1.0
 10
57.98916418099087
 20
80.47418149825128
 30
0.0
 10
57.97360378588117
 20
80.4717858179036
 30
0.0
 10
57.94232391836965
 20
80.46696996564876
 30
0.0
 10
57.86488755888128
 20
80.45736566592582
 30
0.0
 10
57.77153355514236
 20
80.44666261961956
 30
0.0
 10
57.66430794912139
 20
80.43524036207943
 30
0.0
 10
57.54992203840046
 20
80.42364425901333
 30
0.0
 10
57.43225127551513
 20
80.41235965178792
 30
0.0
 10
57.31536755028992
 20
80.40164942553452
 30
0.0
 10
57.24421869939519
 20
80.3956690640793
 30
0.0
 10
57.20887445931177
 20
80.39269823140387
 30
0.0
  0
ARC
  5
F7
330
1F
100
AcDbEntity
  8
0
  6
Continuous
 62
     7
370
    25
100
AcDbCircle
 10
58.3794068117
 20
78.138884678
 30
0.0
 40
2.367678303598593
100
AcDbArc
 50
93.3632881502
 51
99.4868245016
  0
ARC
  5
F8
330
1F
100
AcDbEntity
  8
0
  6
Continuous
 62
     7
370
    25
100
AcDbCircle
 10
60.5133138366
 20
78.1389259287
 30
0.0
 40
2.367636907676423
100
AcDbArc
 50
80.5187694298
 51
86.6367422679
  0
SPLINE
  5
F9
330
1F
100
AcDbEntity
  8
0
  6
Continuous
 62
     7
370
    25
100
AcDbSpline
210
0.0
220
0.0
230
1.0
 70
     8
 71
     3
 72
    15
 73
    11
 74
     0
 42
0.00000001
 43
0.00000001
 40
0.0
 40
0.0
 40
0.0
 40
0.0
 40
0.1253320172137756
 40
0.252297512925176
 40
0.3758847553984063
 40
0.5001929511416489
 40
0.6255758307380155
 40
0.7502289462456486
 40
0.8757444935777828
 40
1.0
 40
1.0
 40
1.0
 40
1.0
 10
61.67602341012584
 20
80.3933795934458
 30
0.0
 10
61.64077249349785
 20
80.39635918558562
 30
0.0
 10
61.56981122764346
 20
80.40235720351524
 30
0.0
 10
61.45382433685508
 20
80.41301757583918
 30
0.0
 10
61.3372279706147
 20
80.42422669705024
 30
0.0
 10
61.22410736403322
 20
80.4357171242788
 30
0.0
 10
61.11823164969378
 20
80.44701488499115
 30
0.0
 10
61.02612256507462
 20
80.45758989858811
 30
0.0
 10
60.94969090120622
 20
80.46708096061668
 30
0.0
 10
60.91872599370693
 20
80.47184834217428
 30
0.0
 10
60.90332164558568
 20
80.47422000774901
 30
0.0
  0
ARC
  5
FA
330
1F
100
AcDbEntity
  8
0
  6
Continuous
 62
     7
370
    25
100
AcDbCircle
 10
60.3761087609
 20
64.6677162215
 30
0.0
 40
15.77929867210652
100
AcDbArc
 50
85.1265666159
 51
85.2745602135
  0
ARC
  5
FB
330
1F
100
AcDbEntity
  8
0
  6
Continuous
 62
     7
370
    25
100
AcDbCircle
 10
61.6205309073
 20
75.9607126563
 30
0.0
 40
4.430299389722587
100
AcDbArc
 50
88.7569768639
 51
96.8822041625
  0
SPLINE
  5
FC
330
1F
100
AcDbEntity
  8
0
  6
Continuous
 62
     7
370
    25
100
AcDbSpline
210
0.0
220
0.0
230
1.0
 70
     8
 71
     3
 72
    15
 73
    11
 74
     0
 42
0.00000001
 43
0.00000001
 40
0.0
 40
0.0
 40
0.0
 40
0.0
 40
0.124633218643854
 40
0.2519059530189772
 40
0.3765391000744918
 40
0.4994035903146518
 40
0.6264494152300148
 40
0.7526064410610419
 40
0.874680437736327
 40
1.0
 40
1.0
 40
1.0
 40
1.0
 10
60.9844263473168
 20
80.3653684626573
 30
0.0
 10
60.98844082298495
 20
80.36473521219021
 30
0.0
 10
60.99655479396363
 20
80.36345530010779
 30
0.0
 10
61.01099338580017
 20
80.36175398440353
 30
0.0
 10
61.02612683573325
 20
80.3603175616168
 30
0.0
 10
61.04148937801502
 20
80.35921821607235
 30
0.0
 10
61.05641995685171
 20
80.35848853405491
 30
0.0
 10
61.06992185688101
 20
80.35821852029594
 30
0.0
 10
61.08160751176742
 20
80.35836408904274
 30
0.0
 10
61.08694903610821
 20
80.35884592430399
 30
0.0
 10
61.08965483610995
 20
80.35909000254225
 30
0.0
  0
SPLINE
  5
FD
330
1F
100
AcDbEntity
  8
0
  6
Continuous
 62
     7
370
    25
100
AcDbSpline
210
0.0
220
0.0
230
1.0
 70
     8
 71
     3
 72
    11
 73
     7
 74
     0
 42
0.00000001
 43
0.00000001
 40
0.0
 40
0.0
 40
0.0
 40
0.0
 40
0.2506252605986011
 40
0.4999999999996215
 40
0.7493747394010042
 40
1.0
 40
1.0
 40
1.0
 40
1.0
 10
57.90829061758792
 20
80.36536846289705
 30
0.0
 10
58.13801831176123
 20
80.39657288576568
 30
0.0
 10
58.59632744952421
 20
80.45882603374064
 30
0.0
 10
59.44635848246033
 20
80.48474061953885
 30
0.0
 10
60.29638951539057
 20
80.45882603360793
 30
0.0
 10
60.75469865314684
 20
80.39657288556168
 30
0.0
 10
60.9844263473168
 20
80.3653684626573
 30
0.0
  0
ARC
  5
FE
330
1F
100
AcDbEntity
  8
0
  6
Continuous
 62
     7
370
    25
100
AcDbCircle
 10
57.2721860569
 20
75.9607126565
 30
0.0
 40
4.430299389885222
100
AcDbArc
 50
83.1177958287
 51
91.2430231272
  0
SPLINE
  5
FF
330
1F
100
AcDbEntity
  8
0
  6
Continuous
 62
     7
370
    25
100
AcDbSpline
210
0.0
220
0.0
230
1.0
 70
     8
 71
     3
 72
    15
 73
    11
 74
     0
 42
0.00000001
 43
0.00000001
 40
0.0
 40
0.0
 40
0.0
 40
0.0
 40
0.1233867499278388
 40
0.2487396502211602
 40
0.3739317114754985
 40
0.4999973617625659
 40
0.6259591330513601
 40
0.7512551380600303
 40
0.8765613478174267
 40
1.0
 40
1.0
 40
1.0
 40
1.0
 10
59.38347561605426
 20
80.53770152459927
 30
0.0
 10
59.38635381724612
 20
80.53770218367141
 30
0.0
 10
59.39215608335776
 20
80.53770351231793
 30
0.0
 10
59.40768548807851
 20
80.53770746194505
 30
0.0
 10
59.42604006995195
 20
80.53770924429446
 30
0.0
 10
59.44635288643487
 20
80.5377107978724
 30
0.0
 10
59.46667130414998
 20
80.53770924373745
 30
0.0
 10
59.48502417331408
 20
80.5377074668569
 30
0.0
 10
59.50056227770959
 20
80.53770349933875
 30
0.0
 10
59.50636283974087
 20
80.5377021795428
 30
0.0
 10
59.50924134566642
 20
80.53770152459929
 30
0.0
  0
ARC
  5
100
330
1F
100
AcDbEntity
  8
0
  6
Continuous
 62
     7
370
    25
100
AcDbCircle
 10
59.3843700437
 20
77.9933521118
 30
0.0
 40
2.544349570051688
100
AcDbArc
 50
90.0201414662
 51
95.4127462174
  0
SPLINE
  5
101
330
1F
100
AcDbEntity
  8
0
  6
Continuous
 62
     7
370
    25
100
AcDbSpline
210
0.0
220
0.0
230
1.0
 70
     8
 71
     3
 72
    15
 73
    11
 74
     0
 42
0.00000001
 43
0.00000001
 40
0.0
 40
0.0
 40
0.0
 40
0.0
 40
0.1261585224210644
 40
0.2513121451548803
 40
0.3762846848783795
 40
0.4993062783340879
 40
0.6261594278645743
 40
0.7521171342021308
 40
0.8758196922692789
 40
1.0
 40
1.0
 40
1.0
 40
1.0
 10
59.20724495518257
 20
80.52445839318855
 30
0.0
 10
59.2020138586939
 20
80.52440746743808
 30
0.0
 10
59.19159333335124
 20
80.52430602157973
 30
0.0
 10
59.17680678283684
 20
80.52430183994245
 30
0.0
 10
59.16361643021134
 20
80.5244011787631
 30
0.0
 10
59.15274585537007
 20
80.52462172096617
 30
0.0
 10
59.14473826804154
 20
80.52494558836761
 30
0.0
 10
59.14057164100884
 20
80.5253654582151
 30
0.0
 10
59.13995058949723
 20
80.52584417528082
 30
0.0
 10
59.14288970185198
 20
80.5261854645264
 30
0.0
 10
59.14436209033472
 20
80.52635643803602
 30
0.0
  0
ARC
  5
102
330
1F
100
AcDbEntity
  8
0
  6
Continuous
 62
     7
370
    25
100
AcDbCircle
 10
59.4463584809
 20
59.9378086273
 30
0.0
 40
20.58803836847347
100
AcDbArc
 50
89.3345405821
 51
90.66545941
  0
SPLINE
  5
103
330
1F
100
AcDbEntity
  8
0
  6
Continuous
 62
     7
370
    25
100
AcDbSpline
210
0.0
220
0.0
230
1.0
 70
     8
 71
     3
 72
    15
 73
    11
 74
     0
 42
0.00000001
 43
0.00000001
 40
0.0
 40
0.0
 40
0.0
 40
0.0
 40
0.1241186784437694
 40
0.2478474916628982
 40
0.3736574149478942
 40
0.5005082335853298
 40
0.6234527658309924
 40
0.7484986612277525
 40
0.873697649245277
 40
1.0
 40
1.0
 40
1.0
 40
1.0
 10
59.74835487411192
 20
80.52635643800271
 30
0.0
 10
59.74982594672074
 20
80.52618555772423
 30
0.0
 10
59.75276347119912
 20
80.52584433391385
 30
0.0
 10
59.75214673669903
 20
80.52536579762635
 30
0.0
 10
59.74798477510441
 20
80.52494600775445
 30
0.0
 10
59.73998602730603
 20
80.52462221990804
 30
0.0
 10
59.72911993576921
 20
80.52440152170237
 30
0.0
 10
59.71593221794458
 20
80.52430192979217
 30
0.0
 10
59.70113777136937
 20
80.5243058441908
 30
0.0
 10
59.69070918046204
 20
80.5244073949962
 30
0.0
 10
59.68547200934763
 20
80.52445839315592
 30
0.0
  0
ARC
  5
104
330
1F
100
AcDbEntity
  8
0
  6
Continuous
 62
     7
370
    25
100
AcDbCircle
 10
59.5083469179
 20
77.9933520595
 30
0.0
 40
2.544349622297529
100
AcDbArc
 50
84.5872538302
 51
89.9798585321
  0
LINE
  5
105
330
1F
100
AcDbEntity
  8
0
  6
Continuous
 62
     7
370
    25
100
AcDbLine
 10
60.9844263473
 20
80.2645201377
 30
0.0
 11
60.9844263473
 21
80.3653684627
 31
0.0
  0
LINE
  5
106
330
1F
100
AcDbEntity
  8
0
  6
Continuous
 62
     7
370
    25
100
AcDbLine
 10
61.0896548361
 20
80.2582105182
 30
0.0
 11
61.0896548361
 21
80.3590900025
 31
0.0
  0
LINE
  5
107
330
1F
100
AcDbEntity
  8
0
  6
Continuous
 62
     7
370
    25
100
AcDbLine
 10
57.1760789323
 20
80.2892430728
 30
0.0
 11
57.1760789323
 21
80.3899694909
 31
0.0
  0
LINE
  5
108
330
1F
100
AcDbEntity
  8
0
  6
Continuous
 62
     7
370
    25
100
AcDbLine
 10
61.7166380326
 20
80.2892430724
 30
0.0
 11
61.7166380326
 21
80.3899694905
 31
0.0
  0
SPLINE
  5
109
330
1F
100
AcDbEntity
  8
0
  6
Continuous
 62
     7
370
    25
100
AcDbSpline
210
0.0
220
0.0
230
1.0
 70
     8
 71
     3
 72
    10
 73
     6
 74
     0
 42
0.00000001
 43
0.00000001
 40
0.0
 40
0.0
 40
0.0
 40
0.0
 40
0.5
 40
0.5
 40
1.0
 40
1.0
 40
1.0
 40
1.0
 10
54.82755632734332
 20
39.61553003255496
 30
0.0
 10
55.57765268921622
 20
39.40876050463138
 30
0.0
 10
56.33910404229591
 20
39.2374282983693
 30
0.0
 10
57.8957081105691
 20
38.99994107074166
 30
0.0
 10
58.67255528903016
 20
38.93780862729481
 30
0.0
 10
59.44635848086034
 20
38.93780862729481
 30
0.0
  0
LINE
  5
10A
330
1F
100
AcDbEntity
  8
0
  6
Continuous
 62
     7
370
    25
100
AcDbLine
 10
54.8275563273
 20
42.9714120874
 30
0.0
 11
54.8275563273
 21
39.6155300326
 31
0.0
  0
SPLINE
  5
10B
330
1F
100
AcDbEntity
  8
0
  6
Continuous
 62
     7
370
    25
100
AcDbSpline
210
0.0
220
0.0
230
1.0
 70
     8
 71
     3
 72
     8
 73
     4
 74
     0
 42
0.00000001
 43
0.00000001
 40
0.0
 40
0.0
 40
0.0
 40
0.0
 40
1.0
 40
1.0
 40
1.0
 40
1.0
 10
54.82755632734331
 20
42.97141208743981
 30
0.0
 10
55.03274214988661
 20
43.02797305456402
 30
0.0
 10
55.23896535059392
 20
43.08191312597786
 30
0.0
 10
55.44635848086035
 20
43.13289741572082
 30
0.0
  0
LINE
  5
10C
330
1F
100
AcDbEntity
  8
0
  6
Continuous
 62
     7
370
    25
100
AcDbLine
 10
55.4463584809
 20
46.9378086273
 30
0.0
 11
52.9301224039
 21
46.9378086273
 31
0.0
  0
SPLINE
  5
10D
330
1F
100
AcDbEntity
  8
0
  6
Continuous
 62
     7
370
    25
100
AcDbSpline
210
0.0
220
0.0
230
1.0
 70
     8
 71
     3
 72
     8
 73
     4
 74
     0
 42
0.00000001
 43
0.00000001
 40
0.0
 40
0.0
 40
0.0
 40
0.0
 40
1.0
 40
1.0
 40
1.0
 40
1.0
 10
52.76863707560016
 20
46.31900647377776
 30
0.0
 10
52.82520044506839
 20
46.52420101128753
 30
0.0
 10
52.87914036788964
 20
46.73042466480469
 30
0.0
 10
52.93012240388117
 20
46.9378086272948
 30
0.0
  0
LINE
  5
10E
330
1F
100
AcDbEntity
  8
0
  6
Continuous
 62
     7
370
    25
100
AcDbLine
 10
48.6240798861
 20
46.3190064738
 30
0.0
 11
52.7686370756
 21
46.3190064738
 31
0.0
  0
SPLINE
  5
10F
330
1F
100
AcDbEntity
  8
0
  6
Continuous
 62
     7
370
    25
100
AcDbSpline
210
0.0
220
0.0
230
1.0
 70
     8
 71
     3
 72
    10
 73
     6
 74
     0
 42
0.00000001
 43
0.00000001
 40
0.0
 40
0.0
 40
0.0
 40
0.0
 40
0.5
 40
0.5
 40
1.0
 40
1.0
 40
1.0
 40
1.0
 10
48.62407988612053
 20
46.31900647377779
 30
0.0
 10
48.41601120988931
 20
47.07381574682708
 30
0.0
 10
48.24561220386478
 20
47.83456213405898
 30
0.0
 10
48.01045222416593
 20
49.37270451168224
 30
0.0
 10
47.94635848086034
 20
50.15020566420706
 30
0.0
 10
47.94635848086034
 20
50.9378086272948
 30
0.0
  0
SPLINE
  5
110
330
1F
100
AcDbEntity
  8
0
  6
Continuous
 62
     7
370
    25
100
AcDbSpline
210
0.0
220
0.0
230
1.0
 70
     8
 71
     3
 72
    12
 73
     8
 74
     0
 42
0.00000001
 43
0.00000001
 40
0.0
 40
0.0
 40
0.0
 40
0.0
 40
0.2500000000000001
 40
0.2500000000000001
 40
0.5000000000000001
 40
0.5000000000000001
 40
1.0
 40
1.0
 40
1.0
 40
1.0
 10
47.94635848086034
 20
50.9378086272948
 30
0.0
 10
47.94635848086034
 20
51.33212670796664
 30
0.0
 10
47.96235728584141
 20
51.72578575191708
 30
0.0
 10
48.0241274241558
 20
52.50532175146242
 30
0.0
 10
48.06986954845739
 20
52.89227493958785
 30
0.0
 10
48.24653969580424
 20
54.04566150244185
 30
0.0
 10
48.41679476128454
 20
54.80464399164688
 30
0.0
 10
48.62407988612053
 20
55.55661078081181
 30
0.0
  0
LINE
  5
111
330
1F
100
AcDbEntity
  8
0
  6
Continuous
 62
     7
370
    25
100
AcDbLine
 10
52.7686370756
 20
55.5566107808
 30
0.0
 11
48.6240798861
 21
55.5566107808
 31
0.0
  0
SPLINE
  5
112
330
1F
100
AcDbEntity
  8
0
  6
Continuous
 62
     7
370
    25
100
AcDbSpline
210
0.0
220
0.0
230
1.0
 70
     8
 71
     3
 72
     8
 73
     4
 74
     0
 42
0.00000001
 43
0.00000001
 40
0.0
 40
0.0
 40
0.0
 40
0.0
 40
1.0
 40
1.0
 40
1.0
 40
1.0
 10
52.93012240388117
 20
54.93780862729481
 30
0.0
 10
52.87922368695865
 20
55.14485366572379
 30
0.0
 10
52.82528955070789
 20
55.35109299540044
 30
0.0
 10
52.76863707560015
 20
55.55661078081182
 30
0.0
  0
SPLINE
  5
113
330
1F
100
AcDbEntity
  8
0
  6
Continuous
 62
     7
370
    25
100
AcDbSpline
210
0.0
220
0.0
230
1.0
 70
     8
 71
     3
 72
     8
 73
     4
 74
     0
 42
0.00000001
 43
0.00000001
 40
0.0
 40
0.0
 40
0.0
 40
0.0
 40
1.0
 40
1.0
 40
1.0
 40
1.0
 10
65.96259455783952
 20
54.93780862729487
 30
0.0
 10
66.0134907910946
 20
55.14484356269863
 30
0.0
 10
66.06742474605825
 20
55.35108332776363
 30
0.0
 10
66.12407988612053
 20
55.55661078081182
 30
0.0
  0
LINE
  5
114
330
1F
100
AcDbEntity
  8
0
  6
Continuous
 62
     7
370
    25
100
AcDbLine
 10
70.2686370756
 20
55.5566107808
 30
0.0
 11
66.1240798861
 21
55.5566107808
 31
0.0
  0
SPLINE
  5
115
330
1F
100
AcDbEntity
  8
0
  6
Continuous
 62
     7
370
    25
100
AcDbSpline
210
0.0
220
0.0
230
1.0
 70
     8
 71
     3
 72
    12
 73
     8
 74
     0
 42
0.00000001
 43
0.00000001
 40
0.0
 40
0.0
 40
0.0
 40
0.0
 40
0.25
 40
0.25
 40
0.5
 40
0.5
 40
1.0
 40
1.0
 40
1.0
 40
1.0
 10
70.94635848086034
 20
50.9378086272948
 30
0.0
 10
70.94635848086034
 20
51.32948055366973
 30
0.0
 10
70.93045267519216
 20
51.72438344519134
 30
0.0
 10
70.86860780429974
 20
52.50531947543863
 30
0.0
 10
70.82279446343354
 20
52.89272760736991
 30
0.0
 10
70.64596128953117
 20
54.04685723402988
 30
0.0
 10
70.47568302602754
 20
54.80551164296641
 30
0.0
 10
70.26863707560014
 20
55.55661078081182
 30
0.0
  0
SPLINE
  5
116
330
1F
100
AcDbEntity
  8
0
  6
Continuous
 62
     7
370
    25
100
AcDbSpline
210
0.0
220
0.0
230
1.0
 70
     8
 71
     3
 72
    10
 73
     6
 74
     0
 42
0.00000001
 43
0.00000001
 40
0.0
 40
0.0
 40
0.0
 40
0.0
 40
0.5
 40
0.5
 40
1.0
 40
1.0
 40
1.0
 40
1.0
 10
70.26863707560014
 20
46.3190064737778
 30
0.0
 10
70.47744241482404
 20
47.07648813398335
 30
0.0
 10
70.64798925898319
 20
47.83895568242681
 30
0.0
 10
70.88277158636501
 20
49.37741981676618
 30
0.0
 10
70.94635848086034
 20
50.15354249520875
 30
0.0
 10
70.94635848086034
 20
50.9378086272948
 30
0.0
  0
LINE
  5
117
330
1F
100
AcDbEntity
  8
0
  6
Continuous
 62
     7
370
    25
100
AcDbLine
 10
66.1240798861
 20
46.3190064738
 30
0.0
 11
70.2686370756
 21
46.3190064738
 31
0.0
  0
SPLINE
  5
118
330
1F
100
AcDbEntity
  8
0
  6
Continuous
 62
     7
370
    25
100
AcDbSpline
210
0.0
220
0.0
230
1.0
 70
     8
 71
     3
 72
     8
 73
     4
 74
     0
 42
0.00000001
 43
0.00000001
 40
0.0
 40
0.0
 40
0.0
 40
0.0
 40
1.0
 40
1.0
 40
1.0
 40
1.0
 10
66.12407988612053
 20
46.31900647377777
 30
0.0
 10
66.06751804268357
 20
46.52419547531458
 30
0.0
 10
66.01357802542721
 20
46.73041884137928
 30
0.0
 10
65.96259455783952
 20
46.93780862729474
 30
0.0
  0
LINE
  5
119
330
1F
100
AcDbEntity
  8
0
  6
Continuous
 62
     7
370
    25
100
AcDbLine
 10
65.9625945578
 20
46.9378086273
 30
0.0
 11
63.4463584809
 21
46.9378086273
 31
0.0
  0
SPLINE
  5
11A
330
1F
100
AcDbEntity
  8
0
  6
Continuous
 62
     7
370
    25
100
AcDbSpline
210
0.0
220
0.0
230
1.0
 70
     8
 71
     3
 72
     8
 73
     4
 74
     0
 42
0.00000001
 43
0.00000001
 40
0.0
 40
0.0
 40
0.0
 40
0.0
 40
1.0
 40
1.0
 40
1.0
 40
1.0
 10
63.44635848086035
 20
43.13289741572082
 30
0.0
 10
63.65338754419574
 20
43.08200262601999
 30
0.0
 10
63.85962756146507
 20
43.02806877665856
 30
0.0
 10
64.06516063437735
 20
42.9714120874398
 30
0.0
  0
LINE
  5
11B
330
1F
100
AcDbEntity
  8
0
  6
Continuous
 62
     7
370
    25
100
AcDbLine
 10
64.0651606344
 20
39.6155300326
 30
0.0
 11
64.0651606344
 21
42.9714120874
 31
0.0
  0
SPLINE
  5
11C
330
1F
100
AcDbEntity
  8
0
  6
Continuous
 62
     7
370
    25
100
AcDbSpline
210
0.0
220
0.0
230
1.0
 70
     8
 71
     3
 72
    10
 73
     6
 74
     0
 42
0.00000001
 43
0.00000001
 40
0.0
 40
0.0
 40
0.0
 40
0.0
 40
0.4999999999999999
 40
0.4999999999999999
 40
1.0
 40
1.0
 40
1.0
 40
1.0
 10
59.44635848086034
 20
38.93780862729481
 30
0.0
 10
60.22248594388499
 20
38.93780862729481
 30
0.0
 10
60.99600999580925
 20
39.00017003519903
 30
0.0
 10
62.5384722550691
 20
39.23474093644196
 30
0.0
 10
63.31175313711307
 20
39.40784776603333
 30
0.0
 10
64.06516063437734
 20
39.61553003255499
 30
0.0
  0
ARC
  5
11D
330
1F
100
AcDbEntity
  8
0
  6
Continuous
 62
     7
370
    25
100
AcDbCircle
 10
60.9970898366
 20
50.360889634
 30
0.0
 40
0.889000000000007
100
AcDbArc
 50
45.0
 51
315.0
  0
LINE
  5
11E
330
1F
100
AcDbEntity
  8
0
  6
Continuous
 62
     7
370
    25
100
AcDbLine
 10
61.6257077651
 20
50.9895075625
 30
0.0
 11
62.0923181507
 21
51.4561179481
 31
0.0
  0
ARC
  5
11F
330
1F
100
AcDbEntity
  8
0
  6
Continuous
 62
     7
370
    25
100
AcDbCircle
 10
60.9970898366
 20
50.360889634
 30
0.0
 40
1.548886735692404
100
AcDbArc
 50
45.0
 51
315.0
  0
LINE
  5
120
330
1F
100
AcDbEntity
  8
0
  6
Continuous
 62
     7
370
    25
100
AcDbLine
 10
62.0923181507
 20
49.2656613199
 30
0.0
 11
61.6257077651
 21
49.7322717055
 31
0.0
  0
ARC
  5
121
330
1F
100
AcDbEntity
  8
0
  6
Continuous
 62
     7
370
    25
100
AcDbCircle
 10
64.3392344329
 20
50.360889634
 30
0.0
 40
0.8889999999999868
100
AcDbArc
 50
45.0
 51
159.0751675724
  0
LINE
  5
122
330
1F
100
AcDbEntity
  8
0
  6
Continuous
 62
     7
370
    25
100
AcDbLine
 10
64.9678523614
 20
50.9895075625
 30
0.0
 11
65.434462747
 21
51.4561179481
 31
0.0
  0
ARC
  5
123
330
1F
100
AcDbEntity
  8
0
  6
Continuous
 62
     7
370
    25
100
AcDbCircle
 10
64.3392344329
 20
50.360889634
 30
0.0
 40
1.548886735692384
100
AcDbArc
 50
45.0
 51
315.0
  0
LINE
  5
124
330
1F
100
AcDbEntity
  8
0
  6
Continuous
 62
     7
370
    25
100
AcDbLine
 10
65.434462747
 20
49.2656613199
 30
0.0
 11
64.9678523614
 21
49.7322717055
 31
0.0
  0
ARC
  5
125
330
1F
100
AcDbEntity
  8
0
  6
Continuous
 62
     7
370
    25
100
AcDbCircle
 10
64.3392344329
 20
50.360889634
 30
0.0
 40
0.8890000000000007
100
AcDbArc
 50
200.9248324276
 51
315.0
  0
LINE
  5
126
330
1F
100
AcDbEntity
  8
0
  6
Continuous
 62
     7
370
    25
100
AcDbLine
 10
63.5088641842
 20
50.043389634
 30
0.0
 11
65.434462747
 21
50.043389634
 31
0.0
  0
LINE
  5
127
330
1F
100
AcDbEntity
  8
0
  6
Continuous
 62
     7
370
    25
100
AcDbLine
 10
65.434462747
 20
50.043389634
 30
0.0
 11
65.434462747
 21
50.678389634
 31
0.0
  0
LINE
  5
128
330
1F
100
AcDbEntity
  8
0
  6
Continuous
 62
     7
370
    25
100
AcDbLine
 10
65.434462747
 20
50.678389634
 30
0.0
 11
63.5088641842
 21
50.678389634
 31
0.0
  0
LINE
  5
129
330
1F
100
AcDbEntity
  8
0
  6
Continuous
 62
     7
370
    25
100
AcDbLine
 10
58.5445995669
 20
49.5154356097
 30
0.0
 11
58.5029492476
 21
49.4916306799
 31
0.0
  0
ELLIPSE
  5
12A
330
1F
100
AcDbEntity
  8
0
  6
Continuous
 62
     7
370
    25
100
AcDbEllipse
 10
58.1541060681
 20
50.0463131511
 30
0.0
 11
0.6784129479252599
 21
6.110667527536862E-13
 31
0.0
210
0.0
220
0.0
230
1.0
 40
0.9533039403
 41
3.470145824140269
 42
5.252469180536298
  0
LINE
  5
12B
330
1F
100
AcDbEntity
  8
0
  6
Continuous
 62
     7
370
    25
100
AcDbLine
 10
57.5119813011
 20
49.8376290361
 30
0.0
 11
56.2523270961
 21
53.3600734328
 31
0.0
  0
ELLIPSE
  5
12C
330
1F
100
AcDbEntity
  8
0
  6
Continuous
 62
     7
370
    25
100
AcDbEllipse
 10
55.6613445382
 20
53.0977341967
 30
0.0
 11
0.6519124952381574
 21
6.110667527536862E-13
 31
0.0
210
0.0
220
0.0
230
1.0
 40
0.9533023292
 41
0.4357905044354907
 42
2.705800116361501
  0
LINE
  5
12D
330
1F
100
AcDbEntity
  8
0
  6
Continuous
 62
     7
370
    25
100
AcDbLine
 10
55.0703625397
 20
53.360074578
 30
0.0
 11
53.810997738
 21
49.8384511763
 31
0.0
  0
ELLIPSE
  5
12E
330
1F
100
AcDbEntity
  8
0
  6
Continuous
 62
     7
370
    25
100
AcDbEllipse
 10
53.168876554
 20
50.0471340099
 30
0.0
 11
-0.6784085062757796
 21
3.197442310920451E-13
 31
0.0
210
0.0
220
0.0
230
1.0
 40
0.9533122623
 41
1.047193771187963
 42
2.813042320199913
  0
LINE
  5
12F
330
1F
100
AcDbEntity
  8
0
  6
Continuous
 62
     7
370
    25
100
AcDbLine
 10
52.8296700801
 20
49.4870461647
 30
0.0
 11
52.7780895095
 21
49.5154356097
 31
0.0
  0
LINE
  5
130
330
1F
100
AcDbEntity
  8
0
  6
Continuous
 62
     7
370
    25
100
AcDbLine
 10
52.7780895095
 20
49.5154356097
 30
0.0
 11
53.5743581691
 21
47.9972635083
 31
0.0
  0
ELLIPSE
  5
131
330
1F
100
AcDbEntity
  8
0
  6
Continuous
 62
     7
370
    25
100
AcDbEllipse
 10
53.6502070425
 20
48.0334170232
 30
0.0
 11
0.08480161849065837
 21
-2.131628207280301E-14
 31
0.0
210
0.0
220
0.0
230
1.0
 40
0.9533039403
 41
3.605240262590979
 42
5.462183310215252
  0
ELLIPSE
  5
132
330
1F
100
AcDbEntity
  8
0
  6
Continuous
 62
     7
370
    25
100
AcDbEllipse
 10
55.6613445382
 20
45.9745684027
 30
0.0
 11
2.866293551216216
 21
-1.485034317738609E-12
 31
0.0
210
0.0
220
0.0
230
1.0
 40
0.9533046568
 41
0.8210016221243798
 42
2.320591031466433
  0
ELLIPSE
  5
133
330
1F
100
AcDbEntity
  8
0
  6
Continuous
 62
     7
370
    25
100
AcDbEllipse
 10
57.6724820339
 20
48.0334170232
 30
0.0
 11
0.08480161849060153
 21
0.0
 31
0.0
210
0.0
220
0.0
230
1.0
 40
0.9533039403
 41
3.962594650556303
 42
5.819537698177363
  0
LINE
  5
134
330
1F
100
AcDbEntity
  8
0
  6
Continuous
 62
     7
370
    25
100
AcDbLine
 10
57.7483309073
 20
47.9972635083
 30
0.0
 11
58.5445995669
 21
49.5154356097
 31
0.0
  0
LINE
  5
135
330
1F
100
AcDbEntity
  8
0
  6
Continuous
 62
     7
370
    25
100
AcDbLine
 10
63.4463584809
 20
43.1328974157
 30
0.0
 11
63.4463584809
 21
46.9378086273
 31
0.0
  0
LINE
  5
136
330
1F
100
AcDbEntity
  8
0
  6
Continuous
 62
     7
370
    25
100
AcDbLine
 10
65.9625945578
 20
54.9378086273
 30
0.0
 11
52.9301224039
 21
54.9378086273
 31
0.0
  0
LINE
  5
137
330
1F
100
AcDbEntity
  8
0
  6
Continuous
 62
     7
370
    25
100
AcDbLine
 10
55.4463584809
 20
43.1328974157
 30
0.0
 11
55.4463584809
 21
46.9378086273
 31
0.0
  0
LINE
  5
138
330
1F
100
AcDbEntity
  8
0
  6
Continuous
 62
     7
370
    25
100
AcDbLine
 10
53.4463584809
 20
58.2990245595
 30
0.0
 11
53.4463584809
 21
54.9378086273
 31
0.0
  0
SPLINE
  5
139
330
1F
100
AcDbEntity
  8
0
  6
Continuous
 62
     7
370
    25
100
AcDbSpline
210
0.0
220
0.0
230
1.0
 70
     8
 71
     3
 72
    10
 73
     6
 74
     0
 42
0.00000001
 43
0.00000001
 40
0.0
 40
0.0
 40
0.0
 40
0.0
 40
0.5
 40
0.5
 40
1.0
 40
1.0
 40
1.0
 40
1.0
 10
52.76863707560015
 20
55.98962348270403
 30
0.0
 10
52.74496168117576
 20
55.9466799518028
 30
0.0
 10
52.73187057129112
 20
55.88323750717868
 30
0.0
 10
52.73178425000284
 20
55.73075867005971
 30
0.0
 10
52.74495318394668
 20
55.64252866795244
 30
0.0
 10
52.76863707560015
 20
55.55661078081182
 30
0.0
  0
SPLINE
  5
13A
330
1F
100
AcDbEntity
  8
0
  6
Continuous
 62
     7
370
    25
100
AcDbSpline
210
0.0
220
0.0
230
1.0
 70
     8
 71
     3
 72
    12
 73
     8
 74
     0
 42
0.00000001
 43
0.00000001
 40
0.0
 40
0.0
 40
0.0
 40
0.0
 40
0.2500000000000001
 40
0.2500000000000001
 40
0.5000000000000002
 40
0.5000000000000002
 40
1.0
 40
1.0
 40
1.0
 40
1.0
 10
53.44635848086035
 20
58.29902455946254
 30
0.0
 10
53.44635848086035
 20
58.10328229658302
 30
0.0
 10
53.43051554477139
 20
57.90661568739246
 30
0.0
 10
53.36901268453371
 20
57.51734746006418
 30
0.0
 10
53.32340904349002
 20
57.32394342711126
 30
0.0
 10
53.14695802600081
 20
56.7470143758545
 30
0.0
 10
52.97656065874895
 20
56.36676494265149
 30
0.0
 10
52.76863707560015
 20
55.98962348270403
 30
0.0
  0
SPLINE
  5
13B
330
1F
100
AcDbEntity
  8
0
  6
Continuous
 62
     7
370
    25
100
AcDbSpline
210
0.0
220
0.0
230
1.0
 70
     8
 71
     3
 72
    10
 73
     6
 74
     0
 42
0.00000001
 43
0.00000001
 40
0.0
 40
0.0
 40
0.0
 40
0.0
 40
0.5
 40
0.5
 40
1.0
 40
1.0
 40
1.0
 40
1.0
 10
54.39454362545111
 20
42.97141208743981
 30
0.0
 10
54.43748715635234
 20
42.94773669301541
 30
0.0
 10
54.50092960097647
 20
42.93464558313077
 30
0.0
 10
54.65340843809542
 20
42.93455926184249
 30
0.0
 10
54.74163844020271
 20
42.94772819578633
 30
0.0
 10
54.82755632734332
 20
42.9714120874398
 30
0.0
  0
SPLINE
  5
13C
330
1F
100
AcDbEntity
  8
0
  6
Continuous
 62
     7
370
    25
100
AcDbSpline
210
0.0
220
0.0
230
1.0
 70
     8
 71
     3
 72
    10
 73
     6
 74
     0
 42
0.00000001
 43
0.00000001
 40
0.0
 40
0.0
 40
0.0
 40
0.0
 40
0.5
 40
0.5
 40
1.0
 40
1.0
 40
1.0
 40
1.0
 10
54.39454362545111
 20
39.61553003255499
 30
0.0
 10
54.43748143455035
 20
39.63920227246656
 30
0.0
 10
54.50092202444255
 20
39.65229626240181
 30
0.0
 10
54.65341116995138
 20
39.65238312986326
 30
0.0
 10
54.7416405591547
 20
39.6392133401039
 30
0.0
 10
54.82755632734333
 20
39.61553003255499
 30
0.0
  0
LINE
  5
13D
330
1F
100
AcDbEntity
  8
0
  6
Continuous
 62
     7
370
    25
100
AcDbLine
 10
54.3945436255
 20
39.6155300326
 30
0.0
 11
54.3945436255
 21
42.9714120874
 31
0.0
  0
SPLINE
  5
13E
330
1F
100
AcDbEntity
  8
0
  6
Continuous
 62
     7
370
    25
100
AcDbSpline
210
0.0
220
0.0
230
1.0
 70
     8
 71
     3
 72
    10
 73
     6
 74
     0
 42
0.00000001
 43
0.00000001
 40
0.0
 40
0.0
 40
0.0
 40
0.0
 40
0.5
 40
0.5
 40
1.0
 40
1.0
 40
1.0
 40
1.0
 10
66.12407988612055
 20
55.55661078081182
 30
0.0
 10
66.14775528054494
 20
55.64249784261426
 30
0.0
 10
66.16084639042955
 20
55.72990505159437
 30
0.0
 10
66.16093271171785
 20
55.88254149418811
 30
0.0
 10
66.14776377777402
 20
55.94666453913369
 30
0.0
 10
66.12407988612055
 20
55.989623482704
 30
0.0
  0
LINE
  5
13F
330
1F
100
AcDbEntity
  8
0
  6
Continuous
 62
     7
370
    25
100
AcDbLine
 10
66.1240798861
 20
55.9896234827
 30
0.0
 11
70.2686370756
 21
55.9896234827
 31
0.0
  0
SPLINE
  5
140
330
1F
100
AcDbEntity
  8
0
  6
Continuous
 62
     7
370
    25
100
AcDbSpline
210
0.0
220
0.0
230
1.0
 70
     8
 71
     3
 72
    10
 73
     6
 74
     0
 42
0.00000001
 43
0.00000001
 40
0.0
 40
0.0
 40
0.0
 40
0.0
 40
0.5
 40
0.5
 40
1.0
 40
1.0
 40
1.0
 40
1.0
 10
70.26863707560014
 20
55.55661078081182
 30
0.0
 10
70.24496317504419
 20
55.64249242331827
 30
0.0
 10
70.23187061786506
 20
55.7299016292837
 30
0.0
 10
70.23178420388278
 20
55.88254411435863
 30
0.0
 10
70.2449545954814
 20
55.946667099441
 30
0.0
 10
70.26863707560014
 20
55.98962348270403
 30
0.0
  0
SPLINE
  5
141
330
1F
100
AcDbEntity
  8
0
  6
Continuous
 62
     7
370
    25
100
AcDbSpline
210
0.0
220
0.0
230
1.0
 70
     8
 71
     3
 72
    10
 73
     6
 74
     0
 42
0.00000001
 43
0.00000001
 40
0.0
 40
0.0
 40
0.0
 40
0.0
 40
0.5
 40
0.5
 40
1.0
 40
1.0
 40
1.0
 40
1.0
 10
52.76863707560009
 20
46.31900647377779
 30
0.0
 10
52.74496168117571
 20
46.23311941197534
 30
0.0
 10
52.73187057129112
 20
46.14571220299521
 30
0.0
 10
52.73178425000284
 20
45.99307576040147
 30
0.0
 10
52.74495318394668
 20
45.92895271545589
 30
0.0
 10
52.76863707560015
 20
45.88599377188558
 30
0.0
  0
LINE
  5
142
330
1F
100
AcDbEntity
  8
0
  6
Continuous
 62
     7
370
    25
100
AcDbLine
 10
52.7686370756
 20
45.8859937719
 30
0.0
 11
48.6240798861
 21
45.8859937719
 31
0.0
  0
SPLINE
  5
143
330
1F
100
AcDbEntity
  8
0
  6
Continuous
 62
     7
370
    25
100
AcDbSpline
210
0.0
220
0.0
230
1.0
 70
     8
 71
     3
 72
    10
 73
     6
 74
     0
 42
0.00000001
 43
0.00000001
 40
0.0
 40
0.0
 40
0.0
 40
0.0
 40
0.5
 40
0.5
 40
1.0
 40
1.0
 40
1.0
 40
1.0
 10
48.62407988612053
 20
46.31900647377779
 30
0.0
 10
48.64775378667648
 20
46.23312483127133
 30
0.0
 10
48.66084634385562
 20
46.1457156253059
 30
0.0
 10
48.6609327578379
 20
45.99307314023098
 30
0.0
 10
48.64776236623928
 20
45.92895015514861
 30
0.0
 10
48.62407988612053
 20
45.88599377188558
 30
0.0
  0
LINE
  5
144
330
1F
100
AcDbEntity
  8
0
  6
Continuous
 62
     7
370
    25
100
AcDbLine
 10
70.9463584809
 20
50.9378086273
 30
0.0
 11
70.9463584809
 21
43.5765926951
 31
0.0
  0
SPLINE
  5
145
330
1F
100
AcDbEntity
  8
0
  6
Continuous
 62
     7
370
    25
100
AcDbSpline
210
0.0
220
0.0
230
1.0
 70
     8
 71
     3
 72
    10
 73
     6
 74
     0
 42
0.00000001
 43
0.00000001
 40
0.0
 40
0.0
 40
0.0
 40
0.0
 40
0.5
 40
0.5
 40
1.0
 40
1.0
 40
1.0
 40
1.0
 10
70.26863707560062
 20
45.88599377188561
 30
0.0
 10
70.47744700026686
 20
45.50724462449432
 30
0.0
 10
70.64798114001414
 20
45.12603934808301
 30
0.0
 10
70.88276694503304
 20
44.35680872689524
 30
0.0
 10
70.94635848086034
 20
43.96874102209691
 30
0.0
 10
70.94635848086034
 20
43.57659269512708
 30
0.0
  0
SPLINE
  5
146
330
1F
100
AcDbEntity
  8
0
  6
Continuous
 62
     7
370
    25
100
AcDbSpline
210
0.0
220
0.0
230
1.0
 70
     8
 71
     3
 72
    10
 73
     6
 74
     0
 42
0.00000001
 43
0.00000001
 40
0.0
 40
0.0
 40
0.0
 40
0.0
 40
0.5
 40
0.5
 40
1.0
 40
1.0
 40
1.0
 40
1.0
 10
70.26863707560014
 20
45.88599377188558
 30
0.0
 10
70.24496483568859
 20
45.92893158098481
 30
0.0
 10
70.23187084575333
 20
45.992372170877
 30
0.0
 10
70.23178397829189
 20
46.14486131638586
 30
0.0
 10
70.24495376805123
 20
46.23309070558917
 30
0.0
 10
70.26863707560014
 20
46.3190064737778
 30
0.0
  0
LINE
  5
147
330
1F
100
AcDbEntity
  8
0
  6
Continuous
 62
     7
370
    25
100
AcDbLine
 10
47.9463584809
 20
50.9378086273
 30
0.0
 11
47.9463584809
 21
43.5765926951
 31
0.0
  0
SPLINE
  5
148
330
1F
100
AcDbEntity
  8
0
  6
Continuous
 62
     7
370
    25
100
AcDbSpline
210
0.0
220
0.0
230
1.0
 70
     8
 71
     3
 72
    12
 73
     8
 74
     0
 42
0.00000001
 43
0.00000001
 40
0.0
 40
0.0
 40
0.0
 40
0.0
 40
0.2499999999999999
 40
0.2499999999999999
 40
0.4999999999999998
 40
0.4999999999999998
 40
1.0
 40
1.0
 40
1.0
 40
1.0
 10
47.94635848086034
 20
43.57659269512707
 30
0.0
 10
47.94635848086034
 20
43.77159617513287
 30
0.0
 10
47.96210481088229
 20
43.96813083415728
 30
0.0
 10
48.02354983546773
 20
44.35755052176283
 30
0.0
 10
48.06913859472146
 20
44.5510352148231
 30
0.0
 10
48.24558959697806
 20
45.12821881357869
 30
0.0
 10
48.41604729894154
 20
45.50865459536165
 30
0.0
 10
48.62407988612038
 20
45.88599377188559
 30
0.0
  0
LINE
  5
149
330
1F
100
AcDbEntity
  8
0
  6
Continuous
 62
     7
370
    25
100
AcDbLine
 10
47.9463584809
 20
50.9378086273
 30
0.0
 11
47.9463584809
 21
58.2990245595
 31
0.0
  0
SPLINE
  5
14A
330
1F
100
AcDbEntity
  8
0
  6
Continuous
 62
     7
370
    25
100
AcDbSpline
210
0.0
220
0.0
230
1.0
 70
     8
 71
     3
 72
    10
 73
     6
 74
     0
 42
0.00000001
 43
0.00000001
 40
0.0
 40
0.0
 40
0.0
 40
0.0
 40
0.5
 40
0.5
 40
1.0
 40
1.0
 40
1.0
 40
1.0
 10
48.62407988612006
 20
55.989623482704
 30
0.0
 10
48.41526996145381
 20
56.36837263009529
 30
0.0
 10
48.24473582170656
 20
56.74957790650659
 30
0.0
 10
48.00995001668763
 20
57.51880852769438
 30
0.0
 10
47.94635848086034
 20
57.90687623249269
 30
0.0
 10
47.94635848086034
 20
58.29902455946254
 30
0.0
  0
SPLINE
  5
14B
330
1F
100
AcDbEntity
  8
0
  6
Continuous
 62
     7
370
    25
100
AcDbSpline
210
0.0
220
0.0
230
1.0
 70
     8
 71
     3
 72
    10
 73
     6
 74
     0
 42
0.00000001
 43
0.00000001
 40
0.0
 40
0.0
 40
0.0
 40
0.0
 40
0.5
 40
0.5
 40
1.0
 40
1.0
 40
1.0
 40
1.0
 10
48.62407988612053
 20
55.98962348270403
 30
0.0
 10
48.64775212603209
 20
55.9466856736048
 30
0.0
 10
48.66084611596735
 20
55.88324508371259
 30
0.0
 10
48.6609329834288
 20
55.73075593820376
 30
0.0
 10
48.64776319366944
 20
55.64252654900044
 30
0.0
 10
48.62407988612053
 20
55.55661078081181
 30
0.0
  0
SPLINE
  5
14C
330
1F
100
AcDbEntity
  8
0
  6
Continuous
 62
     7
370
    25
100
AcDbSpline
210
0.0
220
0.0
230
1.0
 70
     8
 71
     3
 72
    10
 73
     6
 74
     0
 42
0.00000001
 43
0.00000001
 40
0.0
 40
0.0
 40
0.0
 40
0.0
 40
0.5
 40
0.5
 40
1.0
 40
1.0
 40
1.0
 40
1.0
 10
64.06516063437734
 20
42.97141208743979
 30
0.0
 10
64.15104769617989
 20
42.94773669301537
 30
0.0
 10
64.2384549051601
 20
42.93464558313075
 30
0.0
 10
64.39109134775396
 20
42.93455926184252
 30
0.0
 10
64.45521439269972
 20
42.94772819578646
 30
0.0
 10
64.49817333626994
 20
42.97141208744002
 30
0.0
  0
LINE
  5
14D
330
1F
100
AcDbEntity
  8
0
  6
Continuous
 62
     7
370
    25
100
AcDbLine
 10
64.4981733363
 20
42.9714120874
 30
0.0
 11
64.4981733363
 21
39.6155300326
 31
0.0
  0
SPLINE
  5
14E
330
1F
100
AcDbEntity
  8
0
  6
Continuous
 62
     7
370
    25
100
AcDbSpline
210
0.0
220
0.0
230
1.0
 70
     8
 71
     3
 72
    10
 73
     6
 74
     0
 42
0.00000001
 43
0.00000001
 40
0.0
 40
0.0
 40
0.0
 40
0.0
 40
0.5
 40
0.5
 40
1.0
 40
1.0
 40
1.0
 40
1.0
 10
64.06516063437734
 20
39.61553003255499
 30
0.0
 10
64.1510422768838
 20
39.63920393311095
 30
0.0
 10
64.23845148284923
 20
39.65229649029008
 30
0.0
 10
64.39109396792416
 20
39.65238290427236
 30
0.0
 10
64.45521695300653
 20
39.63921251267374
 30
0.0
 10
64.49817333626956
 20
39.61553003255499
 30
0.0
  0
SPLINE
  5
14F
330
1F
100
AcDbEntity
  8
0
  6
Continuous
 62
     7
370
    25
100
AcDbSpline
210
0.0
220
0.0
230
1.0
 70
     8
 71
     3
 72
     8
 73
     4
 74
     0
 42
0.00000001
 43
0.00000001
 40
0.0
 40
0.0
 40
0.0
 40
0.0
 40
1.0
 40
1.0
 40
1.0
 40
1.0
 10
65.5677419723565
 20
44.52768709396956
 30
0.0
 10
65.52662669671523
 20
44.66371748845911
 30
0.0
 10
65.48613771384738
 20
44.80042155309655
 30
0.0
 10
65.44635848086034
 20
44.9378086272948
 30
0.0
  0
LINE
  5
150
330
1F
100
AcDbEntity
  8
0
  6
Continuous
 62
     7
370
    25
100
AcDbLine
 10
65.4463584809
 20
46.9378086273
 30
0.0
 11
65.4463584809
 21
44.9378086273
 31
0.0
  0
SPLINE
  5
151
330
1F
100
AcDbEntity
  8
0
  6
Continuous
 62
     7
370
    25
100
AcDbSpline
210
0.0
220
0.0
230
1.0
 70
     8
 71
     3
 72
    10
 73
     6
 74
     0
 42
0.00000001
 43
0.00000001
 40
0.0
 40
0.0
 40
0.0
 40
0.0
 40
0.5
 40
0.5
 40
1.0
 40
1.0
 40
1.0
 40
1.0
 10
66.12407988611727
 20
45.88599377188558
 30
0.0
 10
66.1477552805416
 20
45.92893730278674
 30
0.0
 10
66.16084639042951
 20
45.99237974741053
 30
0.0
 10
66.16093271171789
 20
46.14485858452962
 30
0.0
 10
66.14776377777403
 20
46.23308858663704
 30
0.0
 10
66.12407988612054
 20
46.31900647377778
 30
0.0
  0
SPLINE
  5
152
330
1F
100
AcDbEntity
  8
0
  6
Continuous
 62
     7
370
    25
100
AcDbSpline
210
0.0
220
0.0
230
1.0
 70
     8
 71
     3
 72
     8
 73
     4
 74
     0
 42
0.00000001
 43
0.00000001
 40
0.0
 40
0.0
 40
0.0
 40
0.0
 40
1.0
 40
1.0
 40
1.0
 40
1.0
 10
65.5677419723565
 20
44.52768709396956
 30
0.0
 10
65.68337458238555
 20
44.98623802602732
 30
0.0
 10
65.87726398720598
 20
45.43830762178557
 30
0.0
 10
66.12407988612038
 20
45.88599377188532
 30
0.0
  0
SPLINE
  5
153
330
1F
100
AcDbEntity
  8
0
  6
Continuous
 62
     7
370
    25
100
AcDbSpline
210
0.0
220
0.0
230
1.0
 70
     8
 71
     3
 72
     8
 73
     4
 74
     0
 42
0.00000001
 43
0.00000001
 40
0.0
 40
0.0
 40
0.0
 40
0.0
 40
1.0
 40
1.0
 40
1.0
 40
1.0
 10
65.7889204396742
 20
43.93780862729481
 30
0.0
 10
66.11139976652349
 20
43.84609433956035
 30
0.0
 10
66.42671752284744
 20
43.74943755049244
 30
0.0
 10
66.73573466549496
 20
43.64843244266019
 30
0.0
  0
SPLINE
  5
154
330
1F
100
AcDbEntity
  8
0
  6
Continuous
 62
     7
370
    25
100
AcDbSpline
210
0.0
220
0.0
230
1.0
 70
     8
 71
     3
 72
    10
 73
     6
 74
     0
 42
0.00000001
 43
0.00000001
 40
0.0
 40
0.0
 40
0.0
 40
0.0
 40
0.5
 40
0.5
 40
1.0
 40
1.0
 40
1.0
 40
1.0
 10
64.49817333626984
 20
42.97141208743995
 30
0.0
 10
64.86469128311039
 20
43.17347877299088
 30
0.0
 10
65.23377150857621
 20
43.33987154526152
 30
0.0
 10
65.97902385680361
 20
43.57391851913157
 30
0.0
 10
66.35523662875137
 20
43.64100677309041
 30
0.0
 10
66.73573466549496
 20
43.64843244266019
 30
0.0
  0
LINE
  5
155
330
1F
100
AcDbEntity
  8
0
  6
Continuous
 62
     7
370
    25
100
AcDbLine
 10
48.6240798861
 20
55.9896234827
 30
0.0
 11
52.7686370756
 21
55.9896234827
 31
0.0
  0
LINE
  5
156
330
1F
100
AcDbEntity
  8
0
  6
Continuous
 62
     7
370
    25
100
AcDbLine
 10
70.2686370756
 20
45.8859937719
 30
0.0
 11
66.1240798861
 21
45.8859937719
 31
0.0
  0
LINE
  5
157
330
1F
100
AcDbEntity
  8
0
  6
Continuous
 62
     7
370
    25
100
AcDbLine
 10
59.4463584809
 20
38.9378086273
 30
0.0
 11
52.0851425487
 21
38.9378086273
 31
0.0
  0
SPLINE
  5
158
330
1F
100
AcDbEntity
  8
0
  6
Continuous
 62
     7
370
    25
100
AcDbSpline
210
0.0
220
0.0
230
1.0
 70
     8
 71
     3
 72
    10
 73
     6
 74
     0
 42
0.00000001
 43
0.00000001
 40
0.0
 40
0.0
 40
0.0
 40
0.0
 40
0.5
 40
0.5
 40
1.0
 40
1.0
 40
1.0
 40
1.0
 10
54.39454362545115
 20
39.61553003255452
 30
0.0
 10
54.01579447805985
 20
39.40672010788827
 30
0.0
 10
53.63458920164855
 20
39.23618596814101
 30
0.0
 10
52.86535858046077
 20
39.00140016312209
 30
0.0
 10
52.47729087566245
 20
38.93780862729481
 30
0.0
 10
52.08514254869262
 20
38.93780862729481
 30
0.0
  0
SPLINE
  5
159
330
1F
100
AcDbEntity
  8
0
  6
Continuous
 62
     7
370
    25
100
AcDbSpline
210
0.0
220
0.0
230
1.0
 70
     8
 71
     3
 72
    12
 73
     8
 74
     0
 42
0.00000001
 43
0.00000001
 40
0.0
 40
0.0
 40
0.0
 40
0.0
 40
0.2499999999999998
 40
0.2499999999999998
 40
0.4999999999999996
 40
0.4999999999999996
 40
1.0
 40
1.0
 40
1.0
 40
1.0
 10
66.80757441302806
 20
38.93780862729481
 30
0.0
 10
66.61257093302227
 20
38.93780862729481
 30
0.0
 10
66.41603627399786
 20
38.95355495731676
 30
0.0
 10
66.02661658639232
 20
39.01499998190219
 30
0.0
 10
65.83313189333205
 20
39.06058874115592
 30
0.0
 10
65.25594829457646
 20
39.23703974341252
 30
0.0
 10
64.87551251279349
 20
39.40749744537601
 30
0.0
 10
64.49817333626955
 20
39.61553003255485
 30
0.0
  0
LINE
  5
15A
330
1F
100
AcDbEntity
  8
0
  6
Continuous
 62
     7
370
    25
100
AcDbLine
 10
66.807574413
 20
38.9378086273
 30
0.0
 11
59.4463584809
 21
38.9378086273
 31
0.0
  0
SPLINE
  5
15B
330
1F
100
AcDbEntity
  8
0
  6
Continuous
 62
     7
370
    25
100
AcDbSpline
210
0.0
220
0.0
230
1.0
 70
     8
 71
     3
 72
     8
 73
     4
 74
     0
 42
0.00000001
 43
0.00000001
 40
0.0
 40
0.0
 40
0.0
 40
0.0
 40
1.0
 40
1.0
 40
1.0
 40
1.0
 10
52.15698229624371
 20
43.64843244266607
 30
0.0
 10
52.46599943888547
 20
43.74943755049619
 30
0.0
 10
52.78131719520345
 20
43.84609433956213
 30
0.0
 10
53.10379652204648
 20
43.93780862729481
 30
0.0
  0
SPLINE
  5
15C
330
1F
100
AcDbEntity
  8
0
  6
Continuous
 62
     7
370
    25
100
AcDbSpline
210
0.0
220
0.0
230
1.0
 70
     8
 71
     3
 72
    12
 73
     8
 74
     0
 42
0.00000001
 43
0.00000001
 40
0.0
 40
0.0
 40
0.0
 40
0.0
 40
0.2500000000000002
 40
0.2500000000000002
 40
0.5000000000000004
 40
0.5000000000000004
 40
1.0
 40
1.0
 40
1.0
 40
1.0
 10
52.15698229623847
 20
43.64843244265994
 30
0.0
 10
52.34700847154169
 20
43.64472395680352
 30
0.0
 10
52.53722353422751
 20
43.62614145396583
 30
0.0
 10
52.91416029335991
 20
43.56127441699968
 30
0.0
 10
53.10148308461941
 20
43.51500886374942
 30
0.0
 10
53.6603930409335
 20
43.33928433344246
 30
0.0
 10
54.02892869904382
 20
43.17298092466571
 30
0.0
 10
54.39454362545111
 20
42.97141208743981
 30
0.0
  0
LINE
  5
15D
330
1F
100
AcDbEntity
  8
0
  6
Continuous
 62
     7
370
    25
100
AcDbLine
 10
65.4463584809
 20
58.2990245595
 30
0.0
 11
65.4463584809
 21
54.9378086273
 31
0.0
  0
SPLINE
  5
15E
330
1F
100
AcDbEntity
  8
0
  6
Continuous
 62
     7
370
    25
100
AcDbSpline
210
0.0
220
0.0
230
1.0
 70
     8
 71
     3
 72
    10
 73
     6
 74
     0
 42
0.00000001
 43
0.00000001
 40
0.0
 40
0.0
 40
0.0
 40
0.0
 40
0.5
 40
0.5
 40
1.0
 40
1.0
 40
1.0
 40
1.0
 10
66.12407988612054
 20
55.98962348270401
 30
0.0
 10
65.91565913330312
 20
56.36766673210617
 30
0.0
 10
65.74519529802569
 20
56.74843623690202
 30
0.0
 10
65.51021286308729
 20
57.51758476245956
 30
0.0
 10
65.44635848086034
 20
57.9060114906348
 30
0.0
 10
65.44635848086034
 20
58.29902455946254
 30
0.0
  0
SPLINE
  5
15F
330
1F
100
AcDbEntity
  8
0
  6
Continuous
 62
     7
370
    25
100
AcDbSpline
210
0.0
220
0.0
230
1.0
 70
     8
 71
     3
 72
    12
 73
     8
 74
     0
 42
0.00000001
 43
0.00000001
 40
0.0
 40
0.0
 40
0.0
 40
0.0
 40
0.2500000000000001
 40
0.2500000000000001
 40
0.5000000000000002
 40
0.5000000000000002
 40
1.0
 40
1.0
 40
1.0
 40
1.0
 10
70.94635848086034
 20
58.29902455946254
 30
0.0
 10
70.94635848086034
 20
58.10402107945674
 30
0.0
 10
70.93061215083837
 20
57.90748642043233
 30
0.0
 10
70.86916712625295
 20
57.51806673282678
 30
0.0
 10
70.82357836699921
 20
57.32458203976653
 30
0.0
 10
70.64712736474263
 20
56.74739844101092
 30
0.0
 10
70.47666966277913
 20
56.36696265922796
 30
0.0
 10
70.26863707560028
 20
55.98962348270402
 30
0.0
  0
LINE
  5
160
330
1F
100
AcDbEntity
  8
0
  6
Continuous
 62
     7
370
    25
100
AcDbLine
 10
70.9463584809
 20
58.2990245595
 30
0.0
 11
70.9463584809
 21
50.9378086273
 31
0.0
  0
LINE
  5
161
330
1F
100
AcDbEntity
  8
0
  6
Continuous
 62
     7
370
    25
100
AcDbLine
 10
55.3925974743
 20
50.3633767708
 30
0.0
 11
55.9999458331
 21
50.3633767708
 31
0.0
  0
LINE
  5
162
330
1F
100
AcDbEntity
  8
0
  6
Continuous
 62
     7
370
    25
100
AcDbLine
 10
56.0798070715
 20
50.4714084996
 30
0.0
 11
55.7761328938
 21
51.2819911167
 31
0.0
  0
ELLIPSE
  5
163
330
1F
100
AcDbEntity
  8
0
  6
Continuous
 62
     7
370
    25
100
AcDbEllipse
 10
55.9999458331
 20
50.4442184879
 30
0.0
 11
-0.08480161849066548
 21
-4.263256414560601E-14
 31
0.0
210
0.0
220
0.0
230
1.0
 40
0.9533039403
 41
1.570796326794333
 42
3.484616592149227
  0
ELLIPSE
  5
164
330
1F
100
AcDbEntity
  8
0
  6
Continuous
 62
     7
370
    25
100
AcDbEllipse
 10
55.6962716555
 20
51.2548011049
 30
0.0
 11
0.08480161849066548
 21
7.105427357601002E-15
 31
0.0
210
0.0
220
0.0
230
1.0
 40
0.9533039403
 41
0.3430239404206313
 42
2.798568713168988
  0
LINE
  5
165
330
1F
100
AcDbEntity
  8
0
  6
Continuous
 62
     7
370
    25
100
AcDbLine
 10
55.6164104172
 20
51.2819911167
 30
0.0
 11
55.3127362361
 21
50.4714084999
 31
0.0
  0
ELLIPSE
  5
166
330
1F
100
AcDbEntity
  8
0
  6
Continuous
 62
     7
370
    25
100
AcDbEllipse
 10
55.3925974743
 20
50.4442184879
 30
0.0
 11
0.08480161849066548
 21
-1.421085471520200E-14
 31
0.0
210
0.0
220
0.0
230
1.0
 40
0.9533039403
 41
2.798568711308441
 42
4.712388980384862
  0
LINE
  5
167
330
1F
100
AcDbEntity
  8
0
  6
Continuous
 62
     7
370
    25
100
AcDbLine
 10
53.4463584809
 20
46.9378086273
 30
0.0
 11
53.4463584809
 21
44.9378086273
 31
0.0
  0
SPLINE
  5
168
330
1F
100
AcDbEntity
  8
0
  6
Continuous
 62
     7
370
    25
100
AcDbSpline
210
0.0
220
0.0
230
1.0
 70
     8
 71
     3
 72
     8
 73
     4
 74
     0
 42
0.00000001
 43
0.00000001
 40
0.0
 40
0.0
 40
0.0
 40
0.0
 40
1.0
 40
1.0
 40
1.0
 40
1.0
 10
53.44635848086034
 20
44.9378086272948
 30
0.0
 10
53.40657982267017
 20
44.8004235382947
 30
0.0
 10
53.36609085984193
 20
44.66371945648292
 30
0.0
 10
53.32497498936418
 20
44.52768709396955
 30
0.0
  0
SPLINE
  5
169
330
1F
100
AcDbEntity
  8
0
  6
Continuous
 62
     7
370
    25
100
AcDbSpline
210
0.0
220
0.0
230
1.0
 70
     8
 71
     3
 72
     8
 73
     4
 74
     0
 42
0.00000001
 43
0.00000001
 40
0.0
 40
0.0
 40
0.0
 40
0.0
 40
1.0
 40
1.0
 40
1.0
 40
1.0
 10
52.76863707560015
 20
45.88599377188558
 30
0.0
 10
53.01581085648407
 20
45.43765847883426
 30
0.0
 10
53.20953252478807
 20
44.98548398809066
 30
0.0
 10
53.32497498936418
 20
44.52768709396955
 30
0.0
  0
SPLINE
  5
16A
330
1F
100
AcDbEntity
  8
0
  6
Continuous
 62
     7
370
    25
100
AcDbSpline
210
0.0
220
0.0
230
1.0
 70
     8
 71
     3
 72
    12
 73
     8
 74
     0
 42
0.00000001
 43
0.00000001
 40
0.0
 40
0.0
 40
0.0
 40
0.0
 40
0.2499999999999999
 40
0.2499999999999999
 40
0.4999999999999998
 40
0.4999999999999998
 40
1.0
 40
1.0
 40
1.0
 40
1.0
 10
65.44635848086034
 20
58.29902455946254
 30
0.0
 10
65.44635848086034
 20
58.49476682234205
 30
0.0
 10
65.4622014169493
 20
58.69143343153261
 30
0.0
 10
65.52370427718695
 20
59.08070165886089
 30
0.0
 10
65.56930791823065
 20
59.27410569181381
 30
0.0
 10
65.74575893571988
 20
59.85103474307058
 30
0.0
 10
65.91615630297173
 20
60.23128417627358
 30
0.0
 10
66.12407988612053
 20
60.60842563622104
 30
0.0
  0
LINE
  5
16B
330
1F
100
AcDbEntity
  8
0
  6
Continuous
 62
     7
370
    25
100
AcDbLine
 10
70.2686370756
 20
60.6084256362
 30
0.0
 11
66.1240798861
 21
60.6084256362
 31
0.0
  0
SPLINE
  5
16C
330
1F
100
AcDbEntity
  8
0
  6
Continuous
 62
     7
370
    25
100
AcDbSpline
210
0.0
220
0.0
230
1.0
 70
     8
 71
     3
 72
    10
 73
     6
 74
     0
 42
0.00000001
 43
0.00000001
 40
0.0
 40
0.0
 40
0.0
 40
0.0
 40
0.5
 40
0.5
 40
1.0
 40
1.0
 40
1.0
 40
1.0
 10
70.26863707560062
 20
60.60842563622107
 30
0.0
 10
70.47744700026686
 20
60.22967648882978
 30
0.0
 10
70.64798114001412
 20
59.84847121241847
 30
0.0
 10
70.88276694503304
 20
59.07924059123069
 30
0.0
 10
70.94635848086034
 20
58.69117288643237
 30
0.0
 10
70.94635848086034
 20
58.29902455946254
 30
0.0
  0
ELLIPSE
  5
16D
330
1F
100
AcDbEntity
  8
0
  6
Continuous
 62
     7
370
    25
100
AcDbEllipse
 10
59.4463584809
 20
41.1228540511
 30
0.0
 11
8.5
 21
0.0
 31
0.0
210
0.0
220
0.0
230
1.0
 40
0.5773502692
 41
2.374833212873084
 42
2.530692279913057
  0
LINE
  5
16E
330
1F
100
AcDbEntity
  8
0
  6
Continuous
 62
     7
370
    25
100
AcDbLine
 10
52.1569822962
 20
43.6484324427
 30
0.0
 11
49.7757414719
 21
41.2671916184
 31
0.0
  0
LINE
  5
16F
330
1F
100
AcDbEntity
  8
0
  6
Continuous
 62
     7
370
    25
100
AcDbLine
 10
48.6240798861
 20
41.2671916184
 30
0.0
 11
49.7757414719
 21
41.2671916184
 31
0.0
  0
SPLINE
  5
170
330
1F
100
AcDbEntity
  8
0
  6
Continuous
 62
     7
370
    25
100
AcDbSpline
210
0.0
220
0.0
230
1.0
 70
     8
 71
     3
 72
    10
 73
     6
 74
     0
 42
0.00000001
 43
0.00000001
 40
0.0
 40
0.0
 40
0.0
 40
0.0
 40
0.5
 40
0.5
 40
1.0
 40
1.0
 40
1.0
 40
1.0
 10
48.62407988612006
 20
41.26719161836854
 30
0.0
 10
48.4152699614538
 20
41.64594076575983
 30
0.0
 10
48.24473582170656
 20
42.02714604217113
 30
0.0
 10
48.00995001668763
 20
42.79637666335891
 30
0.0
 10
47.94635848086034
 20
43.18444436815723
 30
0.0
 10
47.94635848086034
 20
43.57659269512707
 30
0.0
  0
SPLINE
  5
171
330
1F
100
AcDbEntity
  8
0
  6
Continuous
 62
     7
370
    25
100
AcDbSpline
210
0.0
220
0.0
230
1.0
 70
     8
 71
     3
 72
    12
 73
     8
 74
     0
 42
0.00000001
 43
0.00000001
 40
0.0
 40
0.0
 40
0.0
 40
0.0
 40
0.2500000000000002
 40
0.2500000000000002
 40
0.5000000000000001
 40
0.5000000000000001
 40
1.0
 40
1.0
 40
1.0
 40
1.0
 10
52.08514254869262
 20
38.93780862729481
 30
0.0
 10
51.89013906868681
 20
38.9378086272948
 30
0.0
 10
51.69360440966241
 20
38.95355495731676
 30
0.0
 10
51.30418472205686
 20
39.01499998190219
 30
0.0
 10
51.1107000289966
 20
39.06058874115592
 30
0.0
 10
50.53351643024099
 20
39.23703974341252
 30
0.0
 10
50.15308064845803
 20
39.40749744537601
 30
0.0
 10
49.7757414719341
 20
39.61553003255485
 30
0.0
  0
LINE
  5
172
330
1F
100
AcDbEntity
  8
0
  6
Continuous
 62
     7
370
    25
100
AcDbLine
 10
49.7757414719
 20
41.2671916184
 30
0.0
 11
49.7757414719
 21
39.6155300326
 31
0.0
  0
LINE
  5
173
330
1F
100
AcDbEntity
  8
0
  6
Continuous
 62
     7
370
    25
100
AcDbLine
 10
69.1169754898
 20
41.2671916184
 30
0.0
 11
66.7357346655
 21
43.6484324427
 31
0.0
  0
LINE
  5
174
330
1F
100
AcDbEntity
  8
0
  6
Continuous
 62
     7
370
    25
100
AcDbLine
 10
69.1169754898
 20
39.6155300326
 30
0.0
 11
69.1169754898
 21
41.2671916184
 31
0.0
  0
SPLINE
  5
175
330
1F
100
AcDbEntity
  8
0
  6
Continuous
 62
     7
370
    25
100
AcDbSpline
210
0.0
220
0.0
230
1.0
 70
     8
 71
     3
 72
    10
 73
     6
 74
     0
 42
0.00000001
 43
0.00000001
 40
0.0
 40
0.0
 40
0.0
 40
0.0
 40
0.5
 40
0.5
 40
1.0
 40
1.0
 40
1.0
 40
1.0
 10
69.1169754897866
 20
39.61553003255452
 30
0.0
 10
68.73822634239532
 20
39.40672010788827
 30
0.0
 10
68.35702106598401
 20
39.23618596814101
 30
0.0
 10
67.58779044479623
 20
39.00140016312209
 30
0.0
 10
67.1997227399979
 20
38.93780862729481
 30
0.0
 10
66.80757441302806
 20
38.93780862729481
 30
0.0
  0
SPLINE
  5
176
330
1F
100
AcDbEntity
  8
0
  6
Continuous
 62
     7
370
    25
100
AcDbSpline
210
0.0
220
0.0
230
1.0
 70
     8
 71
     3
 72
    12
 73
     8
 74
     0
 42
0.00000001
 43
0.00000001
 40
0.0
 40
0.0
 40
0.0
 40
0.0
 40
0.2499999999999999
 40
0.2499999999999999
 40
0.5
 40
0.5
 40
1.0
 40
1.0
 40
1.0
 40
1.0
 10
47.94635848086034
 20
58.29902455946254
 30
0.0
 10
47.94635848086034
 20
58.49402803946833
 30
0.0
 10
47.96210481088229
 20
58.69056269849274
 30
0.0
 10
48.02354983546773
 20
59.07998238609829
 30
0.0
 10
48.06913859472146
 20
59.27346707915855
 30
0.0
 10
48.24558959697806
 20
59.85065067791415
 30
0.0
 10
48.41604729894154
 20
60.23108645969712
 30
0.0
 10
48.62407988612038
 20
60.60842563622105
 30
0.0
  0
LINE
  5
177
330
1F
100
AcDbEntity
  8
0
  6
Continuous
 62
     7
370
    25
100
AcDbLine
 10
52.7686370756
 20
60.6084256362
 30
0.0
 11
48.6240798861
 21
60.6084256362
 31
0.0
  0
SPLINE
  5
178
330
1F
100
AcDbEntity
  8
0
  6
Continuous
 62
     7
370
    25
100
AcDbSpline
210
0.0
220
0.0
230
1.0
 70
     8
 71
     3
 72
    10
 73
     6
 74
     0
 42
0.00000001
 43
0.00000001
 40
0.0
 40
0.0
 40
0.0
 40
0.0
 40
0.5
 40
0.5
 40
1.0
 40
1.0
 40
1.0
 40
1.0
 10
52.76863707560014
 20
60.60842563622106
 30
0.0
 10
52.97705782841756
 20
60.2303823868189
 30
0.0
 10
53.14752166369499
 20
59.84961288202305
 30
0.0
 10
53.38250409863338
 20
59.08046435646551
 30
0.0
 10
53.44635848086035
 20
58.69203762829027
 30
0.0
 10
53.44635848086035
 20
58.29902455946254
 30
0.0
  0
SPLINE
  5
179
330
1F
100
AcDbEntity
  8
0
  6
Continuous
 62
     7
370
    25
100
AcDbSpline
210
0.0
220
0.0
230
1.0
 70
     8
 71
     3
 72
    12
 73
     8
 74
     0
 42
0.00000001
 43
0.00000001
 40
0.0
 40
0.0
 40
0.0
 40
0.0
 40
0.2499999999999999
 40
0.2499999999999999
 40
0.5
 40
0.5
 40
1.0
 40
1.0
 40
1.0
 40
1.0
 10
70.94635848086034
 20
43.57659269512708
 30
0.0
 10
70.94635848086034
 20
43.38158921512128
 30
0.0
 10
70.93061215083837
 20
43.18505455609687
 30
0.0
 10
70.86916712625295
 20
42.79563486849132
 30
0.0
 10
70.82357836699921
 20
42.60215017543106
 30
0.0
 10
70.64712736474263
 20
42.02496657667546
 30
0.0
 10
70.47666966277913
 20
41.6445307948925
 30
0.0
 10
70.2686370756003
 20
41.26719161836856
 30
0.0
  0
LINE
  5
17A
330
1F
100
AcDbEntity
  8
0
  6
Continuous
 62
     7
370
    25
100
AcDbLine
 10
69.1169754898
 20
41.2671916184
 30
0.0
 11
70.2686370756
 21
41.2671916184
 31
0.0
  0
ELLIPSE
  5
17B
330
1F
100
AcDbEntity
  8
0
  6
Continuous
 62
     7
370
    25
100
AcDbEllipse
 10
59.4463584809
 20
41.1228540511
 30
0.0
 11
8.5
 21
0.0
 31
0.0
210
0.0
220
0.0
230
1.0
 40
0.5773502692
 41
0.6109003736767363
 42
0.7667594407167101
  0
LINE
  5
17C
330
1F
100
AcDbEntity
  8
0
  6
Continuous
 62
     7
370
    25
100
AcDbLine
 10
65.4463584809
 20
44.9378086273
 30
0.0
 11
63.4463584809
 21
46.9378086273
 31
0.0
  0
LINE
  5
17D
330
1F
100
AcDbEntity
  8
0
  6
Continuous
 62
     7
370
    25
100
AcDbLine
 10
63.4463584809
 20
43.9378086273
 30
0.0
 11
66.4089795535
 21
43.9378086273
 31
0.0
  0
LINE
  5
17E
330
1F
100
AcDbEntity
  8
0
  6
Continuous
 62
     7
370
    25
100
AcDbLine
 10
55.4463584809
 20
46.9378086273
 30
0.0
 11
53.4463584809
 21
44.9378086273
 31
0.0
  0
LINE
  5
17F
330
1F
100
AcDbEntity
  8
0
  6
Continuous
 62
     7
370
    25
100
AcDbLine
 10
52.4837374082
 20
43.9378086273
 30
0.0
 11
55.4463584809
 21
43.9378086273
 31
0.0
  0
LINE
  5
180
330
1F
100
AcDbEntity
  8
0
  6
Continuous
 62
     7
370
    25
100
AcDbLine
 10
53.4463584809
 20
58.8722631055
 30
0.0
 11
53.4463584809
 21
58.2990245595
 31
0.0
  0
SPLINE
  5
181
330
1F
100
AcDbEntity
  8
0
  6
Continuous
 62
     7
370
    25
100
AcDbSpline
210
0.0
220
0.0
230
1.0
 70
     8
 71
     3
 72
    32
 73
    28
 74
     0
 42
0.00000001
 43
0.00000001
 40
0.0
 40
0.0
 40
0.0
 40
0.0
 40
0.0625000000000001
 40
0.0625000000000001
 40
0.1250000000000001
 40
0.1250000000000001
 40
0.1875000000000002
 40
0.1875000000000002
 40
0.2500000000000003
 40
0.2500000000000003
 40
0.3750000000000003
 40
0.3750000000000003
 40
0.4375000000000003
 40
0.4375000000000003
 40
0.5000000000000002
 40
0.5000000000000002
 40
0.5625000000000002
 40
0.5625000000000002
 40
0.6250000000000001
 40
0.6250000000000001
 40
0.7500000000000001
 40
0.7500000000000001
 40
0.8750000000000002
 40
0.8750000000000002
 40
0.9375000000000001
 40
0.9375000000000001
 40
1.0
 40
1.0
 40
1.0
 40
1.0
 10
65.44635848085187
 20
58.87226310551545
 30
0.0
 10
65.28950214493499
 20
58.77730612761977
 30
0.0
 10
65.11650371077934
 20
58.67455295299457
 30
0.0
 10
64.73979912415354
 20
58.45784175134631
 30
0.0
 10
64.53694634369684
 20
58.34442304085631
 30
0.0
 10
64.11096508089426
 20
58.11633290415813
 30
0.0
 10
63.88678712060624
 20
58.00102602170627
 30
0.0
 10
63.41543602702984
 20
57.7727029193315
 30
0.0
 10
63.16675051166474
 20
57.65905290319775
 30
0.0
 10
62.39617802697311
 20
57.33598887196371
 30
0.0
 10
61.85054061689094
 20
57.1430903478002
 30
0.0
 10
60.9677608683946
 20
56.9314964225265
 30
0.0
 10
60.66912176852175
 20
56.87585403640876
 30
0.0
 10
60.06262016780598
 20
56.80018596704492
 30
0.0
 10
59.75247292914005
 20
56.7802127212686
 30
0.0
 10
59.13238744045629
 20
56.78054648752185
 30
0.0
 10
58.82581640298825
 20
56.80054545284463
 30
0.0
 10
58.21916165568006
 20
56.87658423904111
 30
0.0
 10
57.91678859105475
 20
56.93323733917266
 30
0.0
 10
57.0401522883018
 20
57.14401588921849
 30
0.0
 10
56.49209815632488
 20
57.33756171979025
 30
0.0
 10
55.46160088908161
 20
57.77018101306604
 30
0.0
 10
54.99404085380214
 20
58.00265765775647
 30
0.0
 10
54.35582725017421
 20
58.34439565867552
 30
0.0
 10
54.15261751198437
 20
58.45801317410391
 30
0.0
 10
53.77628058558994
 20
58.67451556646014
 30
0.0
 10
53.60330197709843
 20
58.77725336290453
 30
0.0
 10
53.44635848086035
 20
58.87226310552062
 30
0.0
  0
LINE
  5
182
330
1F
100
AcDbEntity
  8
0
  6
Continuous
 62
     7
370
    25
100
AcDbLine
 10
65.4463584809
 20
58.8722631055
 30
0.0
 11
65.4463584809
 21
58.2990245595
 31
0.0
  0
SPLINE
  5
183
330
1F
100
AcDbEntity
  8
0
  6
Continuous
 62
     7
370
    25
100
AcDbSpline
210
0.0
220
0.0
230
1.0
 70
     8
 71
     3
 72
    11
 73
     7
 74
     0
 42
0.00000001
 43
0.00000001
 40
0.0
 40
0.0
 40
0.0
 40
0.0
 40
0.0860363962994498
 40
0.3126240132839471
 40
0.544481681962628
 40
1.0
 40
1.0
 40
1.0
 40
1.0
 10
65.61970566832737
 20
59.73071022099592
 30
0.0
 10
65.62089448534746
 20
59.73472384653428
 30
0.0
 10
65.62521420076874
 20
59.74930785722728
 30
0.0
 10
65.594034692449
 20
59.642751633125
 30
0.0
 10
65.51160708354115
 20
59.36220370126605
 30
0.0
 10
65.4723643272661
 20
59.06753655747419
 30
0.0
 10
65.44635848086034
 20
58.87226310551348
 30
0.0
  0
SPLINE
  5
184
330
1F
100
AcDbEntity
  8
0
  6
Continuous
 62
     7
370
    25
100
AcDbSpline
210
0.0
220
0.0
230
1.0
 70
     8
 71
     3
 72
    11
 73
     7
 74
     0
 42
0.00000001
 43
0.00000001
 40
0.0
 40
0.0
 40
0.0
 40
0.0
 40
0.3176280949252775
 40
0.6359433055571331
 40
0.8656668574184339
 40
0.9999999999999999
 40
0.9999999999999999
 40
0.9999999999999999
 40
0.9999999999999999
 10
53.44635848086034
 20
58.87226310552052
 30
0.0
 10
53.43271975093927
 20
59.00352764293182
 30
0.0
 10
53.40541278682565
 20
59.26634067854635
 30
0.0
 10
53.31740776599381
 20
59.57798647614158
 30
0.0
 10
53.27284662871491
 20
59.73173559555691
 30
0.0
 10
53.27319572860449
 20
59.73022088347791
 30
0.0
 10
53.27332454284128
 20
59.72966197043829
 30
0.0
  0
LINE
  5
185
330
1F
100
AcDbEntity
  8
0
  6
Continuous
 62
     7
370
    25
100
AcDbLine
 10
54.664078854
 20
28.7927566867
 30
0.0
 11
64.2286381077
 21
28.7927566867
 31
0.0
  0
LINE
  5
186
330
1F
100
AcDbEntity
  8
0
  6
Continuous
 62
     7
370
    25
100
AcDbLine
 10
63.4463584809
 20
27.4378086273
 30
0.0
 11
55.4463584809
 21
27.4378086273
 31
0.0
  0
SPLINE
  5
187
330
1F
100
AcDbEntity
  8
0
  6
Continuous
 62
     7
370
    25
100
AcDbSpline
210
0.0
220
0.0
230
1.0
 70
     8
 71
     3
 72
    10
 73
     6
 74
     0
 42
0.00000001
 43
0.00000001
 40
0.0
 40
0.0
 40
0.0
 40
0.0
 40
0.1601790552921523
 40
0.7197651707804853
 40
1.0
 40
1.0
 40
1.0
 40
1.0
 10
52.73440764248323
 20
60.67070391497079
 30
0.0
 10
52.73364485238999
 20
60.67209614299716
 30
0.0
 10
52.73021725231625
 20
60.67835212472549
 30
0.0
 10
52.74472471711454
 20
60.65184485999757
 30
0.0
 10
52.76265427023237
 20
60.61928900485242
 30
0.0
 10
52.76863707560014
 20
60.60842563622106
 30
0.0
  0
SPLINE
  5
188
330
1F
100
AcDbEntity
  8
0
  6
Continuous
 62
     7
370
    25
100
AcDbSpline
210
0.0
220
0.0
230
1.0
 70
     8
 71
     3
 72
    10
 73
     6
 74
     0
 42
0.00000001
 43
0.00000001
 40
0.0
 40
0.0
 40
0.0
 40
0.0
 40
0.1593935212994637
 40
0.7189934545690476
 40
1.0
 40
1.0
 40
1.0
 40
1.0
 10
70.2344000860227
 20
41.2048995389021
 30
0.0
 10
70.23363855902524
 20
41.20350962007549
 30
0.0
 10
70.23020345750932
 20
41.19723996412856
 30
0.0
 10
70.24469807997582
 20
41.22372390595235
 30
0.0
 10
70.26263945046854
 20
41.25630130999922
 30
0.0
 10
70.26863707560014
 20
41.26719161836857
 30
0.0
  0
LINE
  5
189
330
1F
100
AcDbEntity
  8
0
  6
Continuous
 62
     7
370
    25
100
AcDbLine
 10
70.9463584809
 20
43.5765926951
 30
0.0
 11
70.9463584809
 21
42.4378086273
 31
0.0
  0
SPLINE
  5
18A
330
1F
100
AcDbEntity
  8
0
  6
Continuous
 62
     7
370
    25
100
AcDbSpline
210
0.0
220
0.0
230
1.0
 70
     8
 71
     3
 72
    10
 73
     6
 74
     0
 42
0.00000001
 43
0.00000001
 40
0.0
 40
0.0
 40
0.0
 40
0.0
 40
0.1593935212994522
 40
0.7189934545690309
 40
1.0
 40
1.0
 40
1.0
 40
1.0
 10
48.65831687569798
 20
60.6707177156875
 30
0.0
 10
48.65907840269544
 20
60.67210763451411
 30
0.0
 10
48.66251350421136
 20
60.67837729046105
 30
0.0
 10
48.64801888174486
 20
60.65189334863726
 30
0.0
 10
48.63007751125215
 20
60.61931594459038
 30
0.0
 10
48.62407988612053
 20
60.60842563622104
 30
0.0
  0
LINE
  5
18B
330
1F
100
AcDbEntity
  8
0
  6
Continuous
 62
     7
370
    25
100
AcDbLine
 10
47.9463584809
 20
59.4378086273
 30
0.0
 11
47.9463584809
 21
58.2990245595
 31
0.0
  0
SPLINE
  5
18C
330
1F
100
AcDbEntity
  8
0
  6
Continuous
 62
     7
370
    25
100
AcDbSpline
210
0.0
220
0.0
230
1.0
 70
     8
 71
     3
 72
    10
 73
     6
 74
     0
 42
0.00000001
 43
0.00000001
 40
0.0
 40
0.0
 40
0.0
 40
0.0
 40
0.1593935213061661
 40
0.7189934545756297
 40
1.0
 40
1.0
 40
1.0
 40
1.0
 10
49.71344939246776
 20
39.64976702213238
 30
0.0
 10
49.71205947364113
 20
39.65052854912985
 30
0.0
 10
49.70578981769432
 20
39.65396365064571
 30
0.0
 10
49.73227375951831
 20
39.6394690281791
 30
0.0
 10
49.76485116356499
 20
39.62152765768649
 30
0.0
 10
49.77574147193411
 20
39.61553003255499
 30
0.0
  0
LINE
  5
18D
330
1F
100
AcDbEntity
  8
0
  6
Continuous
 62
     7
370
    25
100
AcDbLine
 10
52.0851425487
 20
38.9378086273
 30
0.0
 11
50.9463584809
 21
38.9378086273
 31
0.0
  0
SPLINE
  5
18E
330
1F
100
AcDbEntity
  8
0
  6
Continuous
 62
     7
370
    25
100
AcDbSpline
210
0.0
220
0.0
230
1.0
 70
     8
 71
     3
 72
     9
 73
     5
 74
     0
 42
0.00000001
 43
0.00000001
 40
0.0
 40
0.0
 40
0.0
 40
0.0
 40
0.5797912171256431
 40
1.0
 40
1.0
 40
1.0
 40
1.0
 10
66.12407988612053
 20
60.60842563622104
 30
0.0
 10
66.136438489467
 20
60.63089928446217
 30
0.0
 10
66.15775409926141
 20
60.669660906883
 30
0.0
 10
66.15814504176417
 20
60.6703953116412
 30
0.0
 10
66.15830931923745
 20
60.67070391497079
 30
0.0
  0
SPLINE
  5
18F
330
1F
100
AcDbEntity
  8
0
  6
Continuous
 62
     7
370
    25
100
AcDbSpline
210
0.0
220
0.0
230
1.0
 70
     8
 71
     3
 72
     9
 73
     5
 74
     0
 42
0.00000001
 43
0.00000001
 40
0.0
 40
0.0
 40
0.0
 40
0.0
 40
0.5789479223911503
 40
1.0
 40
1.0
 40
1.0
 40
1.0
 10
69.11697548978657
 20
39.61553003255499
 30
0.0
 10
69.13941685697922
 20
39.62787092286941
 30
0.0
 10
69.17817918140376
 20
39.64918698574331
 30
0.0
 10
69.17894508426285
 20
39.6495951596577
 30
0.0
 10
69.17926756925291
 20
39.64976702213237
 30
0.0
  0
LINE
  5
190
330
1F
100
AcDbEntity
  8
0
  6
Continuous
 62
     7
370
    25
100
AcDbLine
 10
67.9463584809
 20
38.9378086273
 30
0.0
 11
66.807574413
 21
38.9378086273
 31
0.0
  0
SPLINE
  5
191
330
1F
100
AcDbEntity
  8
0
  6
Continuous
 62
     7
370
    25
100
AcDbSpline
210
0.0
220
0.0
230
1.0
 70
     8
 71
     3
 72
     9
 73
     5
 74
     0
 42
0.00000001
 43
0.00000001
 40
0.0
 40
0.0
 40
0.0
 40
0.0
 40
0.5789479223839434
 40
1.0
 40
1.0
 40
1.0
 40
1.0
 10
70.26863707560014
 20
60.60842563622104
 30
0.0
 10
70.25629618528588
 20
60.63086700341341
 30
0.0
 10
70.23498012241197
 20
60.66962932783797
 30
0.0
 10
70.23457194849745
 20
60.67039523069732
 30
0.0
 10
70.23440008602269
 20
60.67071771568751
 30
0.0
  0
LINE
  5
192
330
1F
100
AcDbEntity
  8
0
  6
Continuous
 62
     7
370
    25
100
AcDbLine
 10
70.9463584809
 20
59.4378086273
 30
0.0
 11
70.9463584809
 21
58.2990245595
 31
0.0
  0
SPLINE
  5
193
330
1F
100
AcDbEntity
  8
0
  6
Continuous
 62
     7
370
    25
100
AcDbSpline
210
0.0
220
0.0
230
1.0
 70
     8
 71
     3
 72
     9
 73
     5
 74
     0
 42
0.00000001
 43
0.00000001
 40
0.0
 40
0.0
 40
0.0
 40
0.0
 40
0.5789479223839474
 40
0.9999999999999999
 40
0.9999999999999999
 40
0.9999999999999999
 40
0.9999999999999999
 10
48.62407988612053
 20
41.26719161836856
 30
0.0
 10
48.63642077643479
 20
41.2447502511762
 30
0.0
 10
48.6577368393087
 20
41.20598792675165
 30
0.0
 10
48.65814501322323
 20
41.20522202389228
 30
0.0
 10
48.65831687569798
 20
41.2048995389021
 30
0.0
  0
LINE
  5
194
330
1F
100
AcDbEntity
  8
0
  6
Continuous
 62
     7
370
    25
100
AcDbLine
 10
47.9463584809
 20
43.5765926951
 30
0.0
 11
47.9463584809
 21
42.4378086273
 31
0.0
  0
LINE
  5
195
330
1F
100
AcDbEntity
  8
0
  6
Continuous
 62
     7
370
    25
100
AcDbLine
 10
69.1839627879
 20
41.2002043203
 30
0.0
 11
69.1169754898
 21
41.2671916184
 31
0.0
  0
LINE
  5
196
330
1F
100
AcDbEntity
  8
0
  6
Continuous
 62
     7
370
    25
100
AcDbLine
 10
49.7757414719
 20
41.2671916184
 30
0.0
 11
49.7087541738
 21
41.2002043203
 31
0.0
  0
LINE
  5
197
330
1F
100
AcDbEntity
  8
0
  6
Continuous
 62
     7
370
    25
100
AcDbLine
 10
89.2463584809
 20
46.3872648409
 30
0.0
 11
89.2463584809
 21
57.4378086273
 31
0.0
  0
LINE
  5
198
330
1F
100
AcDbEntity
  8
0
  6
Continuous
 62
     7
370
    25
100
AcDbLine
 10
89.2463584809
 20
44.4378086273
 30
0.0
 11
89.2463584809
 21
46.3872648409
 31
0.0
  0
LINE
  5
199
330
1F
100
AcDbEntity
  8
0
  6
Continuous
 62
     7
370
    25
100
AcDbLine
 10
88.1463584809
 20
46.3872648409
 30
0.0
 11
88.1463584809
 21
44.4378086273
 31
0.0
  0
LINE
  5
19A
330
1F
100
AcDbEntity
  8
0
  6
Continuous
 62
     7
370
    25
100
AcDbLine
 10
88.1463584809
 20
57.4378086273
 30
0.0
 11
88.1463584809
 21
46.3872648409
 31
0.0
  0
LINE
  5
19B
330
1F
100
AcDbEntity
  8
0
  6
Continuous
 62
     7
370
    25
100
AcDbLine
 10
29.6463584809
 20
57.4378086273
 30
0.0
 11
29.6463584809
 21
44.4378086273
 31
0.0
  0
LINE
  5
19C
330
1F
100
AcDbEntity
  8
0
  6
Continuous
 62
     7
370
    25
100
AcDbLine
 10
30.7463584809
 20
44.4378086273
 30
0.0
 11
30.7463584809
 21
57.4378086273
 31
0.0
  0
LINE
  5
19D
330
1F
100
AcDbEntity
  8
0
  6
Continuous
 62
     7
370
    25
100
AcDbLine
 10
51.9131887326
 20
61.9021851023
 30
0.0
 11
66.9795282291
 21
61.9021851023
 31
0.0
  0
LINE
  5
19E
330
1F
100
AcDbEntity
  8
0
  6
Continuous
 62
     7
370
    25
100
AcDbLine
 10
59.4463584809
 20
79.5417644727
 30
0.0
 11
53.8621766971
 21
79.5417644727
 31
0.0
  0
LINE
  5
19F
330
1F
100
AcDbEntity
  8
0
  6
Continuous
 62
     7
370
    25
100
AcDbLine
 10
65.0305402646
 20
79.5417644727
 30
0.0
 11
59.4463584809
 21
79.5417644727
 31
0.0
  0
LINE
  5
1A0
330
1F
100
AcDbEntity
  8
0
  6
Continuous
 62
     7
370
    25
100
AcDbLine
 10
59.3834756161
 20
80.5257509627
 30
0.0
 11
59.3834756161
 21
80.5377015246
 31
0.0
  0
LINE
  5
1A1
330
1F
100
AcDbEntity
  8
0
  6
Continuous
 62
     7
370
    25
100
AcDbLine
 10
59.5092413457
 20
80.5257509627
 30
0.0
 11
59.5092413457
 21
80.5377015246
 31
0.0
  0
SPLINE
  5
1A2
330
1F
100
AcDbEntity
  8
0
  6
Continuous
 62
     7
370
    25
100
AcDbSpline
210
0.0
220
0.0
230
1.0
 70
     8
 71
     3
 72
    30
 73
    26
 74
     0
 42
0.00000001
 43
0.00000001
 40
0.0
 40
0.0
 40
0.0
 40
0.0
 40
0.0110313846516776
 40
0.0532781695378049
 40
0.0955520933153885
 40
0.1522069267046105
 40
0.2089614318843928
 40
0.21619100604234
 40
0.276927677908578
 40
0.3376635760086634
 40
0.384767525440826
 40
0.4317767177611402
 40
0.4687758395907711
 40
0.5057362213973667
 40
0.5426545242210107
 40
0.5796219048364349
 40
0.6291574841578521
 40
0.6787848160612916
 40
0.7318209554915189
 40
0.7848484114365464
 40
0.8294877623838827
 40
0.8740923128868294
 40
0.9165730789027815
 40
0.9590188361081373
 40
1.0
 40
1.0
 40
1.0
 40
1.0
 10
53.54635848086034
 20
60.43780862729481
 30
0.0
 10
53.54718252820658
 20
60.43711079539709
 30
0.0
 10
53.55116242153879
 20
60.43374048357051
 30
0.0
 10
53.62194413046799
 20
60.37339083996517
 30
0.0
 10
53.84323286056727
 20
60.18786074430724
 30
0.0
 10
54.23379587596377
 20
59.8673147993656
 30
0.0
 10
54.63703796204998
 20
59.55363789582528
 30
0.0
 10
55.10385220113887
 20
59.20724860793535
 30
0.0
 10
55.6394800352169
 20
58.82682366093191
 30
0.0
 10
56.45523041321946
 20
58.3288001106713
 30
0.0
 10
57.29679021898374
 20
57.91668223759733
 30
0.0
 10
58.08019713761107
 20
57.6396831213828
 30
0.0
 10
58.8531820147139
 20
57.48826596891926
 30
0.0
 10
59.58377231899615
 20
57.45011649838945
 30
0.0
 10
60.30849478142776
 20
57.52944839480753
 30
0.0
 10
61.08186437124546
 20
57.72195157815164
 30
0.0
 10
61.87225933944646
 20
58.03911117060652
 30
0.0
 10
62.66906329833698
 20
58.46438921110581
 30
0.0
 10
63.396432740458
 20
58.92685189741503
 30
0.0
 10
64.01063021020968
 20
59.36725819456032
 30
0.0
 10
64.50411494420723
 20
59.7457398027608
 30
0.0
 10
64.87908970863973
 20
60.04743155661693
 30
0.0
 10
65.14961219223856
 20
60.27130328189092
 30
0.0
 10
65.3207775773723
 20
60.41608331714487
 30
0.0
 10
65.33618927969205
 20
60.42909905828343
 30
0.0
 10
65.34375985152082
 20
60.43549268055497
 30
0.0
  0
LINE
  5
1A3
330
1F
100
AcDbEntity
  8
0
  6
Continuous
 62
     7
370
    18
100
AcDbLine
 10
54.8196084809
 20
38.4378086273
 30
0.0
 11
55.1471641105
 21
27.9560284781
 31
0.0
  0
LINE
  5
1A4
330
1F
100
AcDbEntity
  8
0
  6
Continuous
 62
     7
370
    18
100
AcDbLine
 10
63.7455528512
 20
27.9560284781
 30
0.0
 11
64.0731084809
 21
38.4378086273
 31
0.0
  0
LINE
  5
1A5
330
1F
100
AcDbEntity
  8
0
  6
CENTERX2
 62
     7
370
    18
100
AcDbLine
 10
91.8038776606
 20
50.9378086273
 30
0.0
 11
27.7264072987
 21
50.9378086273
 31
0.0
  0
LINE
  5
1A6
330
1F
100
AcDbEntity
  8
0
  6
CENTERX2
 62
     7
370
    18
100
AcDbLine
 10
59.4463584809
 20
82.7178083681
 30
0.0
 11
59.4463584809
 21
24.6390799124
 31
0.0
  0
LINE
  5
1A7
330
1F
100
AcDbEntity
  8
0
  6
Continuous
 62
     7
370
    25
100
AcDbLine
 10
122.7307174775
 20
68.4378086273
 30
0.0
 11
122.7330991322
 21
68.4378086273
 31
0.0
  0
LINE
  5
1A8
330
1F
100
AcDbEntity
  8
0
  6
Continuous
 62
     7
370
    25
100
AcDbLine
 10
125.0882729493
 20
81.4378086273
 30
0.0
 11
120.3755436604
 21
81.4378086273
 31
0.0
  0
ARC
  5
1A9
330
1F
100
AcDbEntity
  8
0
  6
Continuous
 62
     7
370
    25
100
AcDbCircle
 10
96.8161132584
 20
77.3273692381
 30
0.0
 40
20.0
100
AcDbArc
 50
333.6100518522
 51
1.749051671
  0
ARC
  5
1AA
330
1F
100
AcDbEntity
  8
0
  6
Continuous
 62
     7
370
    25
100
AcDbCircle
 10
148.6477033513
 20
77.3273692381
 30
0.0
 40
19.99999999999999
100
AcDbArc
 50
178.250948329
 51
206.3899481478
  0
LINE
  5
1AB
330
1F
100
AcDbEntity
  8
0
  6
Continuous
 62
     7
370
    25
100
AcDbLine
 10
114.7319083167
 20
68.4378084622
 30
0.0
 11
115.1987385567
 21
61.9021851023
 31
0.0
  0
LINE
  5
1AC
330
1F
100
AcDbEntity
  8
0
  6
Continuous
 62
     7
370
    25
100
AcDbLine
 10
130.2650780531
 20
61.9021851023
 30
0.0
 11
130.7319082931
 21
68.4378084622
 31
0.0
  0
ARC
  5
1AD
330
1F
100
AcDbEntity
  8
0
  6
Continuous
 62
     7
370
    25
100
AcDbCircle
 10
129.7663487032
 20
61.9378086273
 30
0.0
 40
0.5000000000000105
100
AcDbArc
 50
270.0
 51
355.91438322
  0
ARC
  5
1AE
330
1F
100
AcDbEntity
  8
0
  6
Continuous
 62
     7
370
    25
100
AcDbCircle
 10
115.6974679066
 20
61.9378086273
 30
0.0
 40
0.5000000000000071
100
AcDbArc
 50
184.08561678
 51
270.0
  0
LINE
  5
1AF
330
1F
100
AcDbEntity
  8
0
  6
Continuous
 62
     7
370
    25
100
AcDbLine
 10
128.6570214282
 20
77.9378086273
 30
0.0
 11
128.3160900886
 21
79.5417644727
 31
0.0
  0
LINE
  5
1B0
330
1F
100
AcDbEntity
  8
0
  6
Continuous
 62
     7
370
    25
100
AcDbLine
 10
117.1477265211
 20
79.5417644727
 30
0.0
 11
116.8067951815
 21
77.9378086273
 31
0.0
  0
ARC
  5
1B1
330
1F
100
AcDbEntity
  8
0
  6
Continuous
 62
     7
370
    25
100
AcDbCircle
 10
117.6368003215
 20
79.4378086273
 30
0.0
 40
0.5
100
AcDbArc
 50
90.0
 51
168.0
  0
ARC
  5
1B2
330
1F
100
AcDbEntity
  8
0
  6
Continuous
 62
     7
370
    25
100
AcDbCircle
 10
127.8270162883
 20
79.4378086273
 30
0.0
 40
0.5000000000000062
100
AcDbArc
 50
12.0
 51
90.0
  0
ARC
  5
1B3
330
1F
100
AcDbEntity
  8
0
  6
Continuous
 62
     7
370
    25
100
AcDbCircle
 10
122.7319083049
 20
59.9378086273
 30
0.0
 40
20.50000000000001
100
AcDbArc
 50
99.3449833975
 51
102.6803834918
  0
ARC
  5
1B4
330
1F
100
AcDbEntity
  8
0
  6
Continuous
 62
     7
370
    25
100
AcDbCircle
 10
122.7319083049
 20
59.9378086273
 30
0.0
 40
20.50000000000001
100
AcDbArc
 50
77.3196165082
 51
80.6550166025
  0
LINE
  5
1B5
330
1F
100
AcDbEntity
  8
0
  6
Continuous
 62
     7
370
    25
100
AcDbLine
 10
128.6319083049
 20
57.4763372912
 30
0.0
 11
128.6319083049
 21
61.4378086273
 31
0.0
  0
LINE
  5
1B6
330
1F
100
AcDbEntity
  8
0
  6
Continuous
 62
     7
370
    25
100
AcDbLine
 10
116.8319083049
 20
61.4378086273
 30
0.0
 11
116.8319083049
 21
57.4710348805
 31
0.0
  0
LINE
  5
1B7
330
1F
100
AcDbEntity
  8
0
  6
Continuous
 62
     7
370
    25
100
AcDbLine
 10
117.6325958049
 20
38.9378086273
 30
0.0
 11
117.949628678
 21
28.7927566867
 31
0.0
  0
LINE
  5
1B8
330
1F
100
AcDbEntity
  8
0
  6
Continuous
 62
     7
370
    25
100
AcDbLine
 10
127.5141879317
 20
28.7927566867
 30
0.0
 11
127.8312208049
 21
38.9378086273
 31
0.0
  0
LINE
  5
1B9
330
1F
100
AcDbEntity
  8
0
  6
Continuous
 62
     7
370
    25
100
AcDbLine
 10
117.949628678
 20
28.7927566867
 30
0.0
 11
118.7319083049
 21
27.4378086273
 31
0.0
  0
LINE
  5
1BA
330
1F
100
AcDbEntity
  8
0
  6
Continuous
 62
     7
370
    25
100
AcDbLine
 10
126.7319083049
 20
27.4378086273
 30
0.0
 11
127.5141879317
 21
28.7927566867
 31
0.0
  0
CIRCLE
  5
1BB
330
1F
100
AcDbEntity
  8
0
  6
Continuous
 62
     7
370
    25
100
AcDbCircle
 10
122.7319083049
 20
50.9378086273
 30
0.0
 40
6.300000000000009
  0
CIRCLE
  5
1BC
330
1F
100
AcDbEntity
  8
0
  6
Continuous
 62
     7
370
    25
100
AcDbCircle
 10
122.7319083049
 20
50.9378086273
 30
0.0
 40
3.250000000000002
  0
CIRCLE
  5
1BD
330
1F
100
AcDbEntity
  8
0
  6
Continuous
 62
     7
370
    25
100
AcDbCircle
 10
122.7319083049
 20
50.9378086273
 30
0.0
 40
6.500000000000008
  0
CIRCLE
  5
1BE
330
1F
100
AcDbEntity
  8
0
  6
Continuous
 62
     7
370
    25
100
AcDbCircle
 10
122.7319083049
 20
50.9378086273
 30
0.0
 40
3.049999999999998
  0
ARC
  5
1BF
330
1F
100
AcDbEntity
  8
0
  6
Continuous
 62
     7
370
    25
100
AcDbCircle
 10
122.7319083049
 20
50.9378086273
 30
0.0
 40
2.500000000000016
100
AcDbArc
 50
180.7925597126
 51
199.3142187581
  0
SPLINE
  5
1C0
330
1F
100
AcDbEntity
  8
0
  6
Continuous
 62
     7
370
    25
100
AcDbSpline
210
0.0
220
0.0
230
1.0
 70
    24
 71
     3
 72
     9
 73
     5
 74
     0
 42
0.00000001
 43
0.00000001
 40
0.0
 40
0.0
 40
0.0
 40
0.0
 40
0.158652883298157
 40
1.0
 40
1.0
 40
1.0
 40
1.0
 10
119.9228610941684
 20
49.9007048428929
 30
0.0
 10
119.9466242354121
 20
49.91181274710397
 30
0.0
 10
120.0964049437715
 20
49.98182662885733
 30
0.0
 10
120.2464071388162
 20
50.05194404291974
 30
0.0
 10
120.3726110531159
 20
50.11093712707174
 30
0.0
  0
LINE
  5
1C1
330
1F
100
AcDbEntity
  8
0
  6
Continuous
 62
     7
370
    25
100
AcDbLine
 10
119.7281101022
 20
50.9468521181
 30
0.0
 11
120.2321474832
 21
50.9032277889
 31
0.0
  0
LINE
  5
1C2
330
1F
100
AcDbEntity
  8
0
  6
Continuous
 62
     7
370
    25
100
AcDbLine
 10
120.1063960731
 20
52.467573684
 30
0.0
 11
120.5497615107
 21
52.1577411536
 31
0.0
  0
ARC
  5
1C3
330
1F
100
AcDbEntity
  8
0
  6
Continuous
 62
     7
370
    25
100
AcDbCircle
 10
122.7319083049
 20
50.9378086273
 30
0.0
 40
2.500000000000006
100
AcDbArc
 50
150.7925597126
 51
169.3142187581
  0
LINE
  5
1C4
330
1F
100
AcDbEntity
  8
0
  6
Continuous
 62
     7
370
    25
100
AcDbLine
 10
119.733259345
 20
51.4482756747
 30
0.0
 11
120.2752611997
 21
51.4013655283
 31
0.0
  0
SPLINE
  5
1C5
330
1F
100
AcDbEntity
  8
0
  6
Continuous
 62
     7
370
    25
100
AcDbSpline
210
0.0
220
0.0
230
1.0
 70
    24
 71
     3
 72
     9
 73
     5
 74
     0
 42
0.00000001
 43
0.00000001
 40
0.0
 40
0.0
 40
0.0
 40
0.0
 40
0.221179952763371
 40
1.0
 40
1.0
 40
1.0
 40
1.0
 10
120.0985144238418
 20
49.43088366981646
 30
0.0
 10
120.1343015104698
 20
49.44761207816028
 30
0.0
 10
120.296102280299
 20
49.52324464853938
 30
0.0
 10
120.4581423187303
 20
49.59898906325277
 30
0.0
 10
120.5843423491156
 20
49.65798033189776
 30
0.0
  0
ARC
  5
1C6
330
1F
100
AcDbEntity
  8
0
  6
Continuous
 62
     7
370
    25
100
AcDbCircle
 10
122.7319083049
 20
50.9378086273
 30
0.0
 40
2.500000000000006
100
AcDbArc
 50
210.7925597126
 51
229.3142187581
  0
LINE
  5
1C7
330
1F
100
AcDbEntity
  8
0
  6
Continuous
 62
     7
370
    25
100
AcDbLine
 10
120.7955785654
 20
48.6033941715
 30
0.0
 11
121.1021326999
 21
49.0420682766
 31
0.0
  0
ARC
  5
1C8
330
1F
100
AcDbEntity
  8
0
  6
Continuous
 62
     7
370
    25
100
AcDbCircle
 10
122.7319083049
 20
50.9378086273
 30
0.0
 40
2.500000000000019
100
AcDbArc
 50
120.7925597126
 51
139.3142187581
  0
LINE
  5
1C9
330
1F
100
AcDbEntity
  8
0
  6
Continuous
 62
     7
370
    25
100
AcDbLine
 10
121.2410696364
 20
53.5367891077
 30
0.0
 11
121.4520800095
 21
53.085374583
 31
0.0
  0
LINE
  5
1CA
330
1F
100
AcDbEntity
  8
0
  6
Continuous
 62
     7
370
    25
100
AcDbLine
 10
120.422165679
 20
52.8568972044
 30
0.0
 11
120.8361679541
 21
52.5675842323
 31
0.0
  0
ARC
  5
1CB
330
1F
100
AcDbEntity
  8
0
  6
Continuous
 62
     7
370
    25
100
AcDbCircle
 10
122.7319083049
 20
50.9378086273
 30
0.0
 40
2.500000000000008
100
AcDbArc
 50
240.7925597126
 51
259.3142187581
  0
LINE
  5
1CC
330
1F
100
AcDbEntity
  8
0
  6
Continuous
 62
     7
370
    25
100
AcDbLine
 10
122.224708422
 20
47.9769086278
 30
0.0
 11
122.2683514038
 21
48.4811615221
 31
0.0
  0
LINE
  5
1CD
330
1F
100
AcDbEntity
  8
0
  6
Continuous
 62
     7
370
    25
100
AcDbLine
 10
121.2222610968
 20
48.3410847178
 30
0.0
 11
121.5119757786
 21
48.7556618331
 31
0.0
  0
LINE
  5
1CE
330
1F
100
AcDbEntity
  8
0
  6
Continuous
 62
     7
370
    25
100
AcDbLine
 10
122.7443929405
 20
53.9813659659
 30
0.0
 11
122.6973274664
 21
53.437569449
 31
0.0
  0
ARC
  5
1CF
330
1F
100
AcDbEntity
  8
0
  6
Continuous
 62
     7
370
    25
100
AcDbCircle
 10
122.7319083049
 20
50.9378086273
 30
0.0
 40
2.500000000000016
100
AcDbArc
 50
90.7925597126
 51
109.3142187581
  0
SPLINE
  5
1D0
330
1F
100
AcDbEntity
  8
0
  6
Continuous
 62
     7
370
    25
100
AcDbSpline
210
0.0
220
0.0
230
1.0
 70
    24
 71
     3
 72
     9
 73
     5
 74
     0
 42
0.00000001
 43
0.00000001
 40
0.0
 40
0.0
 40
0.0
 40
0.0
 40
0.0500603546486267
 40
1.0
 40
1.0
 40
1.0
 40
1.0
 10
121.6724218149056
 20
53.79473916355221
 30
0.0
 10
121.6762998123428
 20
53.78644296301864
 30
0.0
 10
121.7537662518919
 20
53.62071899658265
 30
0.0
 10
121.8313432954237
 20
53.45475841502899
 30
0.0
 10
121.9050368046437
 20
53.2971058790456
 30
0.0
  0
LINE
  5
1D1
330
1F
100
AcDbEntity
  8
0
  6
Continuous
 62
     7
370
    25
100
AcDbLine
 10
122.7196891724
 20
47.8973189241
 30
0.0
 11
122.7664891433
 21
48.4380478056
 31
0.0
  0
ARC
  5
1D2
330
1F
100
AcDbEntity
  8
0
  6
Continuous
 62
     7
370
    25
100
AcDbCircle
 10
122.7319083049
 20
50.9378086273
 30
0.0
 40
2.500000000000002
100
AcDbArc
 50
270.7925597126
 51
289.3142187581
  0
SPLINE
  5
1D3
330
1F
100
AcDbEntity
  8
0
  6
Continuous
 62
     7
370
    25
100
AcDbSpline
210
0.0
220
0.0
230
1.0
 70
    24
 71
     3
 72
     9
 73
     5
 74
     0
 42
0.00000001
 43
0.00000001
 40
0.0
 40
0.0
 40
0.0
 40
0.0
 40
0.7459029895084308
 40
1.0
 40
1.0
 40
1.0
 40
1.0
 10
123.7873242711788
 20
48.08958616292649
 30
0.0
 10
123.7305391156576
 20
48.21106665515544
 30
0.0
 10
123.6544097043
 20
48.3739303169689
 30
0.0
 10
123.578155715645
 20
48.53706048701444
 30
0.0
 10
123.5587798050898
 20
48.57851137554399
 30
0.0
  0
ARC
  5
1D4
330
1F
100
AcDbEntity
  8
0
  6
Continuous
 62
     7
370
    25
100
AcDbCircle
 10
122.7319083049
 20
50.9378086273
 30
0.0
 40
2.500000000000012
100
AcDbArc
 50
60.7925597126
 51
79.3142187581
  0
LINE
  5
1D5
330
1F
100
AcDbEntity
  8
0
  6
Continuous
 62
     7
370
    25
100
AcDbLine
 10
123.2389986233
 20
53.8974427145
 30
0.0
 11
123.1954652059
 21
53.3944557325
 31
0.0
  0
LINE
  5
1D6
330
1F
100
AcDbEntity
  8
0
  6
Continuous
 62
     7
370
    25
100
AcDbLine
 10
124.2410645394
 20
53.5338299614
 30
0.0
 11
123.9518408312
 21
53.1199554215
 31
0.0
  0
SPLINE
  5
1D7
330
1F
100
AcDbEntity
  8
0
  6
Continuous
 62
     7
370
    25
100
AcDbSpline
210
0.0
220
0.0
230
1.0
 70
    24
 71
     3
 72
     9
 73
     5
 74
     0
 42
0.00000001
 43
0.00000001
 40
0.0
 40
0.0
 40
0.0
 40
0.0
 40
0.5644888713247711
 40
1.0
 40
1.0
 40
1.0
 40
1.0
 10
125.3787101290844
 20
52.45100102842151
 30
0.0
 10
125.2848431667608
 20
52.40712361274724
 30
0.0
 10
125.1185565186231
 20
52.32939415180802
 30
0.0
 10
124.9520079957803
 20
52.25154227947922
 30
0.0
 10
124.8794742606178
 20
52.21763692269183
 30
0.0
  0
ARC
  5
1D8
330
1F
100
AcDbEntity
  8
0
  6
Continuous
 62
     7
370
    25
100
AcDbCircle
 10
122.7319083049
 20
50.9378086273
 30
0.0
 40
2.500000000000018
100
AcDbArc
 50
30.7925597126
 51
49.3142187581
  0
LINE
  5
1D9
330
1F
100
AcDbEntity
  8
0
  6
Continuous
 62
     7
370
    25
100
AcDbLine
 10
124.6765764416
 20
53.2841551974
 30
0.0
 11
124.3616839099
 21
52.833548978
 31
0.0
  0
ARC
  5
1DA
330
1F
100
AcDbEntity
  8
0
  6
Continuous
 62
     7
370
    25
100
AcDbCircle
 10
122.7319083049
 20
50.9378086273
 30
0.0
 40
2.500000000000009
100
AcDbArc
 50
300.7925597126
 51
319.3142187581
  0
LINE
  5
1DB
330
1F
100
AcDbEntity
  8
0
  6
Continuous
 62
     7
370
    25
100
AcDbLine
 10
125.0419166996
 20
49.0185343257
 30
0.0
 11
124.6276486556
 21
49.3080330223
 31
0.0
  0
SPLINE
  5
1DC
330
1F
100
AcDbEntity
  8
0
  6
Continuous
 62
     7
370
    25
100
AcDbSpline
210
0.0
220
0.0
230
1.0
 70
    24
 71
     3
 72
     9
 73
     5
 74
     0
 42
0.00000001
 43
0.00000001
 40
0.0
 40
0.0
 40
0.0
 40
0.0
 40
0.72853058502936
 40
1.0
 40
1.0
 40
1.0
 40
1.0
 10
124.2256596510098
 20
48.33259705509255
 30
0.0
 10
124.1737458265107
 20
48.44365630809198
 30
0.0
 10
124.102487562869
 20
48.59609912282289
 30
0.0
 10
124.0311126941252
 20
48.74879139086717
 30
0.0
 10
124.0117366002637
 20
48.79024267154369
 30
0.0
  0
ARC
  5
1DD
330
1F
100
AcDbEntity
  8
0
  6
Continuous
 62
     7
370
    25
100
AcDbCircle
 10
122.7319083049
 20
50.9378086273
 30
0.0
 40
2.500000000000002
100
AcDbArc
 50
0.7925597126
 51
19.3142187581
  0
LINE
  5
1DE
330
1F
100
AcDbEntity
  8
0
  6
Continuous
 62
     7
370
    25
100
AcDbLine
 10
125.7346785193
 20
50.9288541087
 30
0.0
 11
125.2316691265
 21
50.9723894657
 31
0.0
  0
SPLINE
  5
1DF
330
1F
100
AcDbEntity
  8
0
  6
Continuous
 62
     7
370
    25
100
AcDbSpline
210
0.0
220
0.0
230
1.0
 70
    24
 71
     3
 72
     9
 73
     5
 74
     0
 42
0.00000001
 43
0.00000001
 40
0.0
 40
0.0
 40
0.0
 40
0.0
 40
0.5247015764282411
 40
1.0
 40
1.0
 40
1.0
 40
1.0
 10
125.5486694176318
 20
51.97851821803236
 30
0.0
 10
125.468720663175
 20
51.94114676544562
 30
0.0
 10
125.3163507103326
 20
51.86992256055349
 30
0.0
 10
125.1637408043517
 20
51.79858619134566
 30
0.0
 10
125.0912055566175
 20
51.76468012751784
 30
0.0
  0
LINE
  5
1E0
330
1F
100
AcDbEntity
  8
0
  6
Continuous
 62
     7
370
    25
100
AcDbLine
 10
125.3632025171
 20
49.4040030084
 30
0.0
 11
124.914055099
 21
49.717876101
 31
0.0
  0
ARC
  5
1E1
330
1F
100
AcDbEntity
  8
0
  6
Continuous
 62
     7
370
    25
100
AcDbCircle
 10
122.7319083049
 20
50.9378086273
 30
0.0
 40
2.500000000000003
100
AcDbArc
 50
330.7925597126
 51
349.3142187581
  0
LINE
  5
1E2
330
1F
100
AcDbEntity
  8
0
  6
Continuous
 62
     7
370
    25
100
AcDbLine
 10
125.7310829558
 20
50.4272960814
 30
0.0
 11
125.1885554101
 21
50.4742517263
 31
0.0
  0
LWPOLYLINE
  5
1E3
330
1F
100
AcDbEntity
  8
0
  6
Continuous
 62
     7
370
    25
100
AcDbPolyline
 90
        3
 70
   128
 43
0.0
 10
121.2807377133
 20
53.4520302957
 10
121.2950725295
 20
53.4602498335
 10
121.7376784553
 20
53.6652091645
  0
LWPOLYLINE
  5
1E4
330
1F
100
AcDbEntity
  8
0
  6
Continuous
 62
     7
370
    25
100
AcDbPolyline
 90
        3
 70
   128
 43
0.0
 10
122.7286507094
 20
53.8407719533
 10
122.8381800873
 20
53.8388279296
 10
123.2301512997
 20
53.7976968422
  0
LWPOLYLINE
  5
1E5
330
1F
100
AcDbEntity
  8
0
  6
Continuous
 62
     7
370
    25
100
AcDbPolyline
 90
        3
 70
   128
 43
0.0
 10
124.1810195273
 20
53.4532178085
 10
124.3494522612
 20
53.3483600649
 10
124.5974711232
 20
53.161967357
  0
LWPOLYLINE
  5
1E6
330
1F
100
AcDbEntity
  8
0
  6
Continuous
 62
     7
370
    25
100
AcDbPolyline
 90
        3
 70
   128
 43
0.0
 10
125.2449936978
 20
52.3909460922
 10
125.3761637013
 20
52.1357736026
 10
125.4578970901
 20
51.9359027244
  0
LWPOLYLINE
  5
1E7
330
1F
100
AcDbEntity
  8
0
  6
Continuous
 62
     7
370
    25
100
AcDbPolyline
 90
        3
 70
   128
 43
0.0
 10
125.634869924
 20
50.9423387526
 10
125.6107468472
 20
50.5643178898
 10
125.5908293814
 20
50.4340458241
  0
LWPOLYLINE
  5
1E8
330
1F
100
AcDbEntity
  8
0
  6
Continuous
 62
     7
370
    25
100
AcDbPolyline
 90
        3
 70
   128
 43
0.0
 10
125.2462715818
 20
49.4868834068
 10
124.9829286278
 20
49.1047472018
 10
124.958646047
 20
49.0753248792
  0
LWPOLYLINE
  5
1E9
330
1F
100
AcDbEntity
  8
0
  6
Continuous
 62
     7
370
    25
100
AcDbPolyline
 90
        3
 70
   128
 43
0.0
 10
124.1878012178
 20
48.4263185298
 10
124.1687440802
 20
48.4153674211
 10
123.7257988157
 20
48.2102844136
  0
LWPOLYLINE
  5
1EA
330
1F
100
AcDbEntity
  8
0
  6
Continuous
 62
     7
370
    25
100
AcDbPolyline
 90
        3
 70
   128
 43
0.0
 10
122.7316471789
 20
48.0348434853
 10
122.6256365224
 20
48.036789325
 10
122.2310380276
 20
48.0783793749
  0
LWPOLYLINE
  5
1EB
330
1F
100
AcDbEntity
  8
0
  6
Continuous
 62
     7
370
    25
100
AcDbPolyline
 90
        3
 70
   128
 43
0.0
 10
121.2845358246
 20
48.4213985678
 10
121.1143643486
 20
48.5272571897
 10
120.8683019378
 20
48.7120103452
  0
LWPOLYLINE
  5
1EC
330
1F
100
AcDbEntity
  8
0
  6
Continuous
 62
     7
370
    25
100
AcDbPolyline
 90
        3
 70
   128
 43
0.0
 10
120.2176089125
 20
49.4867727045
 10
120.0876529084
 20
49.739843652
 10
120.0046781284
 20
49.9431115636
  0
LWPOLYLINE
  5
1ED
330
1F
100
AcDbEntity
  8
0
  6
Continuous
 62
     7
370
    25
100
AcDbPolyline
 90
        3
 70
   128
 43
0.0
 10
119.8289456055
 20
50.9340337182
 10
119.8530697625
 20
51.3112993648
 10
119.8720351643
 20
51.4361381406
  0
LINE
  5
1EE
330
1F
100
AcDbEntity
  8
0
  6
Continuous
 62
     7
370
    25
100
AcDbLine
 10
120.2170925763
 20
52.3879494946
 30
0.0
 11
120.4808879819
 21
52.7708700528
 31
0.0
  0
LWPOLYLINE
  5
1EF
330
1F
100
AcDbEntity
  8
0
  6
Continuous
 62
     7
370
    25
100
AcDbPolyline
 90
        3
 70
   128
 43
0.0
 10
121.3237987163
 20
53.3579795689
 10
121.3460355996
 20
53.3707814682
 10
121.781785039
 20
53.5716776027
  0
LWPOLYLINE
  5
1F0
330
1F
100
AcDbEntity
  8
0
  6
Continuous
 62
     7
370
    25
100
AcDbPolyline
 90
        3
 70
   128
 43
0.0
 10
122.7203013489
 20
53.7377845698
 10
122.8344107377
 20
53.7359317931
 10
123.2213374501
 20
53.6947016451
  0
LWPOLYLINE
  5
1F1
330
1F
100
AcDbEntity
  8
0
  6
Continuous
 62
     7
370
    25
100
AcDbPolyline
 90
        3
 70
   128
 43
0.0
 10
124.1203836748
 20
53.3692970906
 10
124.2920796599
 20
53.2628603133
 10
124.538566032
 20
53.0769645021
  0
LWPOLYLINE
  5
1F2
330
1F
100
AcDbEntity
  8
0
  6
Continuous
 62
     7
370
    25
100
AcDbPolyline
 90
        3
 70
   128
 43
0.0
 10
125.1519668154
 20
52.3461114376
 10
125.2823747135
 20
52.0932830313
 10
125.3645982956
 20
51.8911938656
  0
LWPOLYLINE
  5
1F3
330
1F
100
AcDbEntity
  8
0
  6
Continuous
 62
     7
370
    25
100
AcDbPolyline
 90
        3
 70
   128
 43
0.0
 10
125.5318725121
 20
50.9519662469
 10
125.5086374393
 20
50.5775652176
 10
125.487995241
 20
50.4438604512
  0
LWPOLYLINE
  5
1F4
330
1F
100
AcDbEntity
  8
0
  6
Continuous
 62
     7
370
    25
100
AcDbPolyline
 90
        3
 70
   128
 43
0.0
 10
125.1609873242
 20
49.5451223318
 10
124.9030872789
 20
49.1697639834
 10
124.8725958145
 20
49.1329659787
  0
LWPOLYLINE
  5
1F5
330
1F
100
AcDbEntity
  8
0
  6
Continuous
 62
     7
370
    25
100
AcDbPolyline
 90
        3
 70
   128
 43
0.0
 10
124.1432180684
 20
48.5195024533
 10
124.1177810102
 20
48.5048357864
 10
123.6861825118
 20
48.3054407317
  0
LWPOLYLINE
  5
1F6
330
1F
100
AcDbEntity
  8
0
  6
Continuous
 62
     7
370
    25
100
AcDbPolyline
 90
        3
 70
   128
 43
0.0
 10
122.7425933541
 20
48.1378290149
 10
122.629405872
 20
48.1396854614
 10
122.237444612
 20
48.1818141323
  0
LWPOLYLINE
  5
1F7
330
1F
100
AcDbEntity
  8
0
  6
Continuous
 62
     7
370
    25
100
AcDbPolyline
 90
        3
 70
   128
 43
0.0
 10
121.3415203807
 20
48.5074133054
 10
121.1717369498
 20
48.6127569412
 10
120.9294578374
 20
48.795106522
  0
LWPOLYLINE
  5
1F8
330
1F
100
AcDbEntity
  8
0
  6
Continuous
 62
     7
370
    25
100
AcDbPolyline
 90
        3
 70
   128
 43
0.0
 10
120.3139378347
 20
49.5259237858
 10
120.1814418962
 20
49.7823342233
 10
120.0977325594
 20
49.9885361997
  0
LWPOLYLINE
  5
1F9
330
1F
100
AcDbEntity
  8
0
  6
Continuous
 62
     7
370
    25
100
AcDbPolyline
 90
        3
 70
   128
 43
0.0
 10
119.9319233964
 20
50.9286155731
 10
119.9551791705
 20
51.298052037
 10
119.9753218414
 20
51.4289614238
  0
LINE
  5
1FA
330
1F
100
AcDbEntity
  8
0
  6
Continuous
 62
     7
370
    25
100
AcDbLine
 10
120.3000519914
 20
52.3256396223
 30
0.0
 11
120.5607293308
 21
52.7058532712
 31
0.0
  0
LWPOLYLINE
  5
1FB
330
1F
100
AcDbEntity
  8
0
  6
Continuous
 62
     7
370
    25
100
AcDbPolyline
 90
        3
 70
   128
 43
0.0
 10
121.2807377133
 20
53.4520302957
 10
121.2950725295
 20
53.4602498335
 10
121.7376784553
 20
53.6652091645
  0
LWPOLYLINE
  5
1FC
330
1F
100
AcDbEntity
  8
0
  6
Continuous
 62
     7
370
    25
100
AcDbPolyline
 90
        3
 70
   128
 43
0.0
 10
122.7286507094
 20
53.8407719533
 10
122.8381800873
 20
53.8388279296
 10
123.2301512997
 20
53.7976968422
  0
LWPOLYLINE
  5
1FD
330
1F
100
AcDbEntity
  8
0
  6
Continuous
 62
     7
370
    25
100
AcDbPolyline
 90
        3
 70
   128
 43
0.0
 10
124.1810195273
 20
53.4532178085
 10
124.3494522612
 20
53.3483600649
 10
124.5974711232
 20
53.161967357
  0
LWPOLYLINE
  5
1FE
330
1F
100
AcDbEntity
  8
0
  6
Continuous
 62
     7
370
    25
100
AcDbPolyline
 90
        3
 70
   128
 43
0.0
 10
125.2449936978
 20
52.3909460922
 10
125.3761637013
 20
52.1357736026
 10
125.4578970901
 20
51.9359027244
  0
LWPOLYLINE
  5
1FF
330
1F
100
AcDbEntity
  8
0
  6
Continuous
 62
     7
370
    25
100
AcDbPolyline
 90
        3
 70
   128
 43
0.0
 10
125.634869924
 20
50.9423387526
 10
125.6107468472
 20
50.5643178898
 10
125.5908293814
 20
50.4340458241
  0
LWPOLYLINE
  5
200
330
1F
100
AcDbEntity
  8
0
  6
Continuous
 62
     7
370
    25
100
AcDbPolyline
 90
        3
 70
   128
 43
0.0
 10
125.2462715818
 20
49.4868834068
 10
124.9829286278
 20
49.1047472018
 10
124.958646047
 20
49.0753248792
  0
LWPOLYLINE
  5
201
330
1F
100
AcDbEntity
  8
0
  6
Continuous
 62
     7
370
    25
100
AcDbPolyline
 90
        3
 70
   128
 43
0.0
 10
124.1878012178
 20
48.4263185298
 10
124.1687440802
 20
48.4153674211
 10
123.7257988157
 20
48.2102844136
  0
LWPOLYLINE
  5
202
330
1F
100
AcDbEntity
  8
0
  6
Continuous
 62
     7
370
    25
100
AcDbPolyline
 90
        3
 70
   128
 43
0.0
 10
122.7316471789
 20
48.0348434853
 10
122.6256365224
 20
48.036789325
 10
122.2310380276
 20
48.0783793749
  0
LWPOLYLINE
  5
203
330
1F
100
AcDbEntity
  8
0
  6
Continuous
 62
     7
370
    25
100
AcDbPolyline
 90
        3
 70
   128
 43
0.0
 10
121.2845358246
 20
48.4213985678
 10
121.1143643486
 20
48.5272571897
 10
120.8683019378
 20
48.7120103452
  0
LWPOLYLINE
  5
204
330
1F
100
AcDbEntity
  8
0
  6
Continuous
 62
     7
370
    25
100
AcDbPolyline
 90
        3
 70
   128
 43
0.0
 10
120.2176089125
 20
49.4867727045
 10
120.0876529084
 20
49.739843652
 10
120.0046781284
 20
49.9431115636
  0
LWPOLYLINE
  5
205
330
1F
100
AcDbEntity
  8
0
  6
Continuous
 62
     7
370
    25
100
AcDbPolyline
 90
        3
 70
   128
 43
0.0
 10
119.8289456055
 20
50.9340337182
 10
119.8530697625
 20
51.3112993648
 10
119.8720351643
 20
51.4361381406
  0
CIRCLE
  5
206
330
1F
100
AcDbEntity
  8
0
  6
Continuous
 62
     7
370
    25
100
AcDbCircle
 10
122.7319083049
 20
50.9378086273
 30
0.0
 40
7.800000000000006
  0
CIRCLE
  5
207
330
1F
100
AcDbEntity
  8
0
  6
Continuous
 62
     7
370
    25
100
AcDbCircle
 10
122.7319083049
 20
50.9378086273
 30
0.0
 40
8.000000000000005
  0
SPLINE
  5
208
330
1F
100
AcDbEntity
  8
0
  6
Continuous
 62
     7
370
    25
100
AcDbSpline
210
0.0
220
0.0
230
1.0
 70
     8
 71
     3
 72
    12
 73
     8
 74
     0
 42
0.00000001
 43
0.00000001
 40
0.0
 40
0.0
 40
0.0
 40
0.0
 40
0.0055636252767551
 40
0.1916675400573888
 40
0.629136338261788
 40
0.8130584464103863
 40
1.0
 40
1.0
 40
1.0
 40
1.0
 10
120.3755436604317
 20
81.4378086272948
 30
0.0
 10
120.3741596652601
 20
81.43780448792604
 30
0.0
 10
120.3264808700881
 20
81.43766188618973
 30
0.0
 10
120.1699308358705
 20
81.41281538308503
 30
0.0
 10
119.989449915317
 20
81.27729679637515
 30
0.0
 10
119.8786335119473
 20
81.04100664027386
 30
0.0
 10
119.8795509007071
 20
80.8966454072105
 30
0.0
 10
119.8800133296203
 20
80.82387712071812
 30
0.0
  0
SPLINE
  5
209
330
1F
100
AcDbEntity
  8
0
  6
Continuous
 62
     7
370
    25
100
AcDbSpline
210
0.0
220
0.0
230
1.0
 70
     8
 71
     3
 72
    12
 73
     8
 74
     0
 42
0.00000001
 43
0.00000001
 40
0.0
 40
0.0
 40
0.0
 40
0.0
 40
0.1835541808817692
 40
0.370865650482293
 40
0.8083330658171449
 40
0.994436392310255
 40
1.0
 40
1.0
 40
1.0
 40
1.0
 10
125.5838032801131
 20
80.82387712071812
 30
0.0
 10
125.5843863475367
 20
80.89538563960271
 30
0.0
 10
125.5855644175663
 20
81.03986643128916
 30
0.0
 10
125.4751213760164
 20
81.27674284457613
 30
0.0
 10
125.293886238187
 20
81.41281306410866
 30
0.0
 10
125.1373357382184
 20
81.43766189331441
 30
0.0
 10
125.089656944433
 20
81.43780448812704
 30
0.0
 10
125.0882729493017
 20
81.4378086272948
 30
0.0
  0
LINE
  5
20A
330
1F
100
AcDbEntity
  8
0
  6
Continuous
 62
     7
370
    25
100
AcDbLine
 10
124.2196901246
 20
69.8460141076
 30
0.0
 11
125.5838032801
 21
80.8238771207
 31
0.0
  0
SPLINE
  5
20B
330
1F
100
AcDbEntity
  8
0
  6
Continuous
 62
     7
370
    25
100
AcDbSpline
210
0.0
220
0.0
230
1.0
 70
     8
 71
     3
 72
    14
 73
    10
 74
     0
 42
0.00000001
 43
0.00000001
 40
0.0
 40
0.0
 40
0.0
 40
0.0
 40
0.0034863238848208
 40
0.0203208804397725
 40
0.2238597133569324
 40
0.4563556157495303
 40
0.6945924899112474
 40
0.845724996562609
 40
1.0
 40
1.0
 40
1.0
 40
1.0
 10
122.7330991321983
 20
68.43780862729479
 30
0.0
 10
122.735351773599
 20
68.43781213364372
 30
0.0
 10
122.748481837842
 20
68.43783257124493
 30
0.0
 10
122.8931180210983
 20
68.44029311399811
 30
0.0
 10
123.1851372802842
 20
68.49033637880592
 30
0.0
 10
123.5965216938225
 20
68.69893901599572
 30
0.0
 10
123.9184789236069
 20
69.0333153311245
 30
0.0
 10
124.1349068873182
 20
69.42551692169577
 30
0.0
 10
124.1912358462051
 20
69.70489017335696
 30
0.0
 10
124.2196901246325
 20
69.8460141075648
 30
0.0
  0
SPLINE
  5
20C
330
1F
100
AcDbEntity
  8
0
  6
Continuous
 62
     7
370
    25
100
AcDbSpline
210
0.0
220
0.0
230
1.0
 70
     8
 71
     3
 72
    14
 73
    10
 74
     0
 42
0.00000001
 43
0.00000001
 40
0.0
 40
0.0
 40
0.0
 40
0.0
 40
0.1509076573000546
 40
0.3054080403738433
 40
0.5376023347316409
 40
0.7761416404828171
 40
0.9796792424551188
 40
0.9965136971994736
 40
1.0
 40
1.0
 40
1.0
 40
1.0
 10
121.2441264851008
 20
69.8460141075648
 30
0.0
 10
121.2717756228703
 20
69.70785472560117
 30
0.0
 10
121.3277321537399
 20
69.42824673976598
 30
0.0
 10
121.5412062509472
 20
69.03947762975046
 30
0.0
 10
121.8636503178647
 20
68.70149523021107
 30
0.0
 10
122.2747981371027
 20
68.49099755690773
 30
0.0
 10
122.5706982816964
 20
68.4402932392627
 30
0.0
 10
122.715334773884
 20
68.43783257043164
 30
0.0
 10
122.7284648364261
 20
68.43781213352462
 30
0.0
 10
122.7307174775352
 20
68.43780862729479
 30
0.0
  0
LINE
  5
20D
330
1F
100
AcDbEntity
  8
0
  6
Continuous
 62
     7
370
    25
100
AcDbLine
 10
119.8800133296
 20
80.8238771207
 30
0.0
 11
121.2441264851
 21
69.8460141076
 31
0.0
  0
LINE
  5
20E
330
1F
100
AcDbEntity
  8
0
  6
Continuous
 62
     7
370
    25
100
AcDbLine
 10
120.7485961543
 20
70.170984603
 30
0.0
 11
119.3844829988
 21
80.3043966152
 31
0.0
  0
ARC
  5
20F
330
1F
100
AcDbEntity
  8
0
  6
Continuous
 62
     7
370
    25
100
AcDbCircle
 10
119.8674499832
 20
80.3397788142
 30
0.0
 40
0.4842613014163482
100
AcDbArc
 50
88.5133904064
 51
184.1900080067
  0
ARC
  5
210
330
1F
100
AcDbEntity
  8
0
  6
Continuous
 62
     7
370
    25
100
AcDbCircle
 10
121.1763100419
 20
70.2828936498
 30
0.0
 40
0.4421117555840643
100
AcDbArc
 50
194.6624451414
 51
278.823554246
  0
LINE
  5
211
330
1F
100
AcDbEntity
  8
0
  6
Continuous
 62
     7
370
    25
100
AcDbLine
 10
126.0793336109
 20
80.3043966152
 30
0.0
 11
124.7152204554
 21
70.170984603
 31
0.0
  0
ARC
  5
212
330
1F
100
AcDbEntity
  8
0
  6
Continuous
 62
     7
370
    25
100
AcDbCircle
 10
124.2875065678
 20
70.2828936498
 30
0.0
 40
0.4421117555840699
100
AcDbArc
 50
261.176445754
 51
345.3375548586
  0
ARC
  5
213
330
1F
100
AcDbEntity
  8
0
  6
Continuous
 62
     7
370
    25
100
AcDbCircle
 10
125.5963666265
 20
80.3397788142
 30
0.0
 40
0.4842613014163067
100
AcDbArc
 50
355.8099919933
 51
91.4866095936
  0
SPLINE
  5
214
330
1F
100
AcDbEntity
  8
0
  6
Continuous
 62
     7
370
    25
100
AcDbSpline
210
0.0
220
0.0
230
1.0
 70
     8
 71
     3
 72
    15
 73
    11
 74
     0
 42
0.00000001
 43
0.00000001
 40
0.0
 40
0.0
 40
0.0
 40
0.0
 40
0.0032941481656695
 40
0.0389555300109692
 40
0.0923164936584479
 40
0.2214838269818532
 40
0.4557558860746477
 40
0.689612382821521
 40
0.8449486292273382
 40
1.0
 40
1.0
 40
1.0
 40
1.0
 10
122.7307174775352
 20
68.43780862729479
 30
0.0
 10
122.7278470662814
 20
68.43781265134903
 30
0.0
 10
122.6939025118422
 20
68.43786023851192
 30
0.0
 10
122.6134653575833
 20
68.44011595754958
 30
0.0
 10
122.4237268441454
 20
68.45641258720542
 30
0.0
 10
122.0650718705608
 20
68.53089486300112
 30
0.0
 10
121.57423905241
 20
68.7633545046081
 30
0.0
 10
121.1442002554647
 20
69.17787707025722
 30
0.0
 10
120.8590142888585
 20
69.66081558511276
 30
0.0
 10
120.7853796717134
 20
70.0010323480466
 30
0.0
 10
120.7485961542894
 20
70.17098460301172
 30
0.0
  0
SPLINE
  5
215
330
1F
100
AcDbEntity
  8
0
  6
Continuous
 62
     7
370
    25
100
AcDbSpline
210
0.0
220
0.0
230
1.0
 70
     8
 71
     3
 72
    15
 73
    11
 74
     0
 42
0.00000001
 43
0.00000001
 40
0.0
 40
0.0
 40
0.0
 40
0.0
 40
0.1525119975281641
 40
0.3103908680493854
 40
0.5397217434700959
 40
0.7785238912153802
 40
0.9076867233570571
 40
0.9610458274988164
 40
0.9967059666277488
 40
1.0
 40
1.0
 40
1.0
 40
1.0
 10
124.715220455444
 20
70.17098460301172
 30
0.0
 10
124.6792523005761
 20
70.00354868552179
 30
0.0
 10
124.6060502771777
 20
69.6627848071735
 30
0.0
 10
124.3237422537065
 20
69.18395062315454
 30
0.0
 10
123.8929124340236
 20
68.76475155315629
 30
0.0
 10
123.4026928723071
 20
68.53184826693796
 30
0.0
 10
123.0400865736832
 20
68.45640198050695
 30
0.0
 10
122.8503516103725
 20
68.44011714791972
 30
0.0
 10
122.7699140930705
 20
68.43786022249793
 30
0.0
 10
122.7359695430762
 20
68.43781265010043
 30
0.0
 10
122.7330991321983
 20
68.43780862729479
 30
0.0
  0
SPLINE
  5
216
330
1F
100
AcDbEntity
  8
0
  6
Continuous
 62
     7
370
    25
100
AcDbSpline
210
0.0
220
0.0
230
1.0
 70
     8
 71
     3
 72
    17
 73
    13
 74
     0
 42
0.00000001
 43
0.00000001
 40
0.0
 40
0.0
 40
0.0
 40
0.0
 40
0.164398525155122
 40
0.3825210752049383
 40
0.7105911790613387
 40
0.8150577891621212
 40
0.8799902898774311
 40
0.9216743917957981
 40
0.948759549159293
 40
0.9664454853042714
 40
0.9948962613988914
 40
0.9999999999999999
 40
0.9999999999999999
 40
0.9999999999999999
 40
0.9999999999999999
 10
119.3844829988088
 20
80.30439661515327
 30
0.0
 10
119.3812676784327
 20
80.4164011259665
 30
0.0
 10
119.3737862986195
 20
80.67701225896579
 30
0.0
 10
119.5571435136371
 20
81.06995084745184
 30
0.0
 10
119.8331416485116
 20
81.30265142783195
 30
0.0
 10
120.0750066525639
 20
81.39460486606748
 30
0.0
 10
120.180628320748
 20
81.41979155420977
 30
0.0
 10
120.2483253835784
 20
81.43015699018571
 30
0.0
 10
120.2923122329017
 20
81.43454021533363
 30
0.0
 10
120.329642857213
 20
81.43696257201158
 30
0.0
 10
120.3558041157142
 20
81.43775945194388
 30
0.0
 10
120.3729376069308
 20
81.43780213506828
 30
0.0
 10
120.3755436604317
 20
81.4378086272948
 30
0.0
  0
SPLINE
  5
217
330
1F
100
AcDbEntity
  8
0
  6
Continuous
 62
     7
370
    25
100
AcDbSpline
210
0.0
220
0.0
230
1.0
 70
     8
 71
     3
 72
    17
 73
    13
 74
     0
 42
0.00000001
 43
0.00000001
 40
0.0
 40
0.0
 40
0.0
 40
0.0
 40
0.0051037386011219
 40
0.0335545146957463
 40
0.0512404508406915
 40
0.0783256082042153
 40
0.1200097101225738
 40
0.184942210837869
 40
0.2894088209386605
 40
0.6174789247950602
 40
0.8356014748448779
 40
1.0
 40
1.0
 40
1.0
 40
1.0
 10
125.0882729493017
 20
81.4378086272948
 30
0.0
 10
125.0908790028027
 20
81.43780213506828
 30
0.0
 10
125.1080124940197
 20
81.43775945194385
 30
0.0
 10
125.1341737525204
 20
81.43696257201158
 30
0.0
 10
125.1715043768318
 20
81.43454021533361
 30
0.0
 10
125.2154912261549
 20
81.43015699018571
 30
0.0
 10
125.2831882889855
 20
81.41979155420978
 30
0.0
 10
125.3888099571695
 20
81.39460486606747
 30
0.0
 10
125.6306749612218
 20
81.30265142783196
 30
0.0
 10
125.9066730960963
 20
81.0699508474518
 30
0.0
 10
126.0900303111138
 20
80.67701225896579
 30
0.0
 10
126.0825489313007
 20
80.41640112596652
 30
0.0
 10
126.0793336109246
 20
80.30439661515327
 30
0.0
  0
LWPOLYLINE
  5
218
330
1F
100
AcDbEntity
  8
0
  6
Continuous
 62
     7
370
    25
100
AcDbPolyline
 90
       15
 70
   128
 43
0.0
 10
122.7307174776
 20
68.4378084622
 10
121.8350936857
 20
68.4378084633
 10
120.9507457227
 20
68.4378084664
 10
120.0887926721
 20
68.4378084715
 10
119.2600720415
 20
68.4378084786
 10
118.4750035006
 20
68.4378084875
 10
117.7434578728
 20
68.4378084982
 10
117.074633027
 20
68.4378085106
 10
116.4769382316
 20
68.4378085244
 10
115.9578884223
 20
68.4378085395
 10
115.5240097158
 20
68.4378085557
 10
115.1807573558
 20
68.4378085728
 10
114.9324471226
 20
68.4378085905
 10
114.7822010703
 20
68.4378086088
 10
114.7319082723
 20
68.4378086273
  0
LINE
  5
219
330
1F
100
AcDbEntity
  8
0
  6
Continuous
 62
     7
370
    25
100
AcDbLine
 10
119.703062151
 20
77.9378086273
 30
0.0
 11
116.8067951815
 21
77.9378086273
 31
0.0
  0
LINE
  5
21A
330
1F
100
AcDbEntity
  8
0
  6
Continuous
 62
     7
370
    25
100
AcDbLine
 10
128.6570214282
 20
77.9378086273
 30
0.0
 11
125.7607544587
 21
77.9378086273
 31
0.0
  0
LWPOLYLINE
  5
21B
330
1F
100
AcDbEntity
  8
0
  6
Continuous
 62
     7
370
    25
100
AcDbPolyline
 90
       15
 70
   128
 43
0.0
 10
130.7319083374
 20
68.4378086273
 10
130.6816155395
 20
68.4378086458
 10
130.5313694871
 20
68.437808664
 10
130.2830592539
 20
68.4378086818
 10
129.9398068939
 20
68.4378086989
 10
129.5059281875
 20
68.4378087151
 10
128.9868783782
 20
68.4378087302
 10
128.3891835827
 20
68.437808744
 10
127.720358737
 20
68.4378087563
 10
126.9888131091
 20
68.437808767
 10
126.2037445682
 20
68.437808776
 10
125.3750239376
 20
68.4378087831
 10
124.513070887
 20
68.4378087882
 10
123.6287229241
 20
68.4378087913
 10
122.7330991321
 20
68.4378084622
  0
LINE
  5
21C
330
1F
100
AcDbEntity
  8
0
  6
Continuous
 62
     7
370
    25
100
AcDbLine
 10
129.7663487012
 20
61.4378086273
 30
0.0
 11
115.6974679066
 21
61.4378086273
 31
0.0
  0
LINE
  5
21D
330
1F
100
AcDbEntity
  8
0
  6
Continuous
 62
     7
370
    25
100
AcDbLine
 10
117.6368003227
 20
79.9378086273
 30
0.0
 11
119.4338313818
 21
79.9378086273
 31
0.0
  0
LINE
  5
21E
330
1F
100
AcDbEntity
  8
0
  6
Continuous
 62
     7
370
    25
100
AcDbLine
 10
126.0299852279
 20
79.9378086273
 30
0.0
 11
127.8270162883
 21
79.9378086273
 31
0.0
  0
SPLINE
  5
21F
330
1F
100
AcDbEntity
  8
0
  6
Continuous
 62
     7
370
    25
100
AcDbSpline
210
0.0
220
0.0
230
1.0
 70
     8
 71
     3
 72
    10
 73
     6
 74
     0
 42
0.00000001
 43
0.00000001
 40
0.0
 40
0.0
 40
0.0
 40
0.0
 40
0.5
 40
0.5
 40
1.0
 40
1.0
 40
1.0
 40
1.0
 10
114.4819083048667
 20
45.88599377188557
 30
0.0
 10
114.4075378379411
 20
45.92893158098481
 30
0.0
 10
114.3432322416533
 20
45.992372170877
 30
0.0
 10
114.2550094538474
 20
46.14486131638585
 30
0.0
 10
114.2319083048667
 20
46.23309070558916
 30
0.0
 10
114.2319083048667
 20
46.31900647377779
 30
0.0
  0
SPLINE
  5
220
330
1F
100
AcDbEntity
  8
0
  6
Continuous
 62
     7
370
    25
100
AcDbSpline
210
0.0
220
0.0
230
1.0
 70
    24
 71
     3
 72
    10
 73
     6
 74
     0
 42
0.00000001
 43
0.00000001
 40
0.0
 40
0.0
 40
0.0
 40
0.0
 40
0.5
 40
0.5
 40
1.0
 40
1.0
 40
1.0
 40
1.0
 10
114.2319083048667
 20
46.31900647377779
 30
0.0
 10
114.2319083048667
 20
47.07381574682709
 30
0.0
 10
114.2319083048667
 20
47.83456213405898
 30
0.0
 10
114.2319083048667
 20
49.37270451168224
 30
0.0
 10
114.2319083048667
 20
50.15020566420706
 30
0.0
 10
114.2319083048667
 20
50.9378086272948
 30
0.0
  0
ARC
  5
221
330
1F
100
AcDbEntity
  8
0
  6
Continuous
 62
     7
370
    25
100
AcDbCircle
 10
122.7319083049
 20
50.9378086273
 30
0.0
 40
8.5
100
AcDbArc
 50
180.0
 51
240.0
  0
SPLINE
  5
222
330
1F
100
AcDbEntity
  8
0
  6
Continuous
 62
     7
370
    25
100
AcDbSpline
210
0.0
220
0.0
230
1.0
 70
    24
 71
     3
 72
    10
 73
     6
 74
     0
 42
0.00000001
 43
0.00000001
 40
0.0
 40
0.0
 40
0.0
 40
0.0
 40
0.5
 40
0.5
 40
1.0
 40
1.0
 40
1.0
 40
1.0
 10
114.4819083048666
 20
45.88599377188561
 30
0.0
 10
115.1379210714718
 20
45.50724462449432
 30
0.0
 10
115.7981879783295
 20
45.12603934808301
 30
0.0
 10
117.1305344969645
 20
44.35680872689524
 30
0.0
 10
117.8026874784518
 20
43.96874102209691
 30
0.0
 10
118.4819083048667
 20
43.57659269512708
 30
0.0
  0
ARC
  5
223
330
1F
100
AcDbEntity
  8
0
  6
Continuous
 62
     7
370
    25
100
AcDbCircle
 10
122.7319083049
 20
50.9378086273
 30
0.0
 40
8.500000000000014
100
AcDbArc
 50
60.0
 51
120.0
  0
ARC
  5
224
330
1F
100
AcDbEntity
  8
0
  6
Continuous
 62
     7
370
    25
100
AcDbCircle
 10
122.7319083049
 20
50.9378086273
 30
0.0
 40
8.500000000000014
100
AcDbArc
 50
0.0
 51
60.0
  0
ARC
  5
225
330
1F
100
AcDbEntity
  8
0
  6
Continuous
 62
     7
370
    25
100
AcDbCircle
 10
122.7319083049
 20
50.9378086273
 30
0.0
 40
8.500000000000004
100
AcDbArc
 50
300.0
 51
0.0
  0
ARC
  5
226
330
1F
100
AcDbEntity
  8
0
  6
Continuous
 62
     7
370
    25
100
AcDbCircle
 10
122.7319083049
 20
50.9378086273
 30
0.0
 40
8.500000000000004
100
AcDbArc
 50
240.0
 51
300.0
  0
ARC
  5
227
330
1F
100
AcDbEntity
  8
0
  6
Continuous
 62
     7
370
    25
100
AcDbCircle
 10
122.7319083049
 20
50.9378086273
 30
0.0
 40
8.500000000000009
100
AcDbArc
 50
120.0
 51
180.0
  0
SPLINE
  5
228
330
1F
100
AcDbEntity
  8
0
  6
Continuous
 62
     7
370
    25
100
AcDbSpline
210
0.0
220
0.0
230
1.0
 70
     8
 71
     3
 72
    10
 73
     6
 74
     0
 42
0.00000001
 43
0.00000001
 40
0.0
 40
0.0
 40
0.0
 40
0.0
 40
0.5
 40
0.5
 40
1.0
 40
1.0
 40
1.0
 40
1.0
 10
114.2319083048667
 20
55.55661078081182
 30
0.0
 10
114.2319083048667
 20
55.64249242331823
 30
0.0
 10
114.2546988765141
 20
55.72990162928368
 30
0.0
 10
114.342644873813
 20
55.88254411435865
 30
0.0
 10
114.4075056665457
 20
55.946667099441
 30
0.0
 10
114.4819083048667
 20
55.98962348270403
 30
0.0
  0
SPLINE
  5
229
330
1F
100
AcDbEntity
  8
0
  6
Continuous
 62
     7
370
    25
100
AcDbSpline
210
0.0
220
0.0
230
1.0
 70
    24
 71
     3
 72
    12
 73
     8
 74
     0
 42
0.00000001
 43
0.00000001
 40
0.0
 40
0.0
 40
0.0
 40
0.0
 40
0.2500000000000001
 40
0.2500000000000001
 40
0.5000000000000002
 40
0.5000000000000002
 40
1.0
 40
1.0
 40
1.0
 40
1.0
 10
118.4819083048667
 20
58.29902455946254
 30
0.0
 10
118.1441523698439
 20
58.10402107945674
 30
0.0
 10
117.8037443549654
 20
57.90748642043233
 30
0.0
 10
117.129249670565
 20
57.51806673282678
 30
0.0
 10
116.7941243516978
 20
57.32458203976653
 30
0.0
 10
115.7944130333576
 20
56.74739844101092
 30
0.0
 10
115.1354789302924
 20
56.36696265922796
 30
0.0
 10
114.4819083048667
 20
55.98962348270403
 30
0.0
  0
SPLINE
  5
22A
330
1F
100
AcDbEntity
  8
0
  6
Continuous
 62
     7
370
    25
100
AcDbSpline
210
0.0
220
0.0
230
1.0
 70
    24
 71
     3
 72
    12
 73
     8
 74
     0
 42
0.00000001
 43
0.00000001
 40
0.0
 40
0.0
 40
0.0
 40
0.0
 40
0.2499999999999999
 40
0.2499999999999999
 40
0.4999999999999998
 40
0.4999999999999998
 40
1.0
 40
1.0
 40
1.0
 40
1.0
 10
114.2319083048667
 20
50.9378086272948
 30
0.0
 10
114.2319083048667
 20
51.33212670796664
 30
0.0
 10
114.2319083048667
 20
51.72578575191708
 30
0.0
 10
114.2319083048667
 20
52.50532175146241
 30
0.0
 10
114.2319083048667
 20
52.89227493958785
 30
0.0
 10
114.2319083048667
 20
54.04566150244185
 30
0.0
 10
114.2319083048667
 20
54.80464399164688
 30
0.0
 10
114.2319083048667
 20
55.55661078081182
 30
0.0
  0
SPLINE
  5
22B
330
1F
100
AcDbEntity
  8
0
  6
Continuous
 62
     7
370
    25
100
AcDbSpline
210
0.0
220
0.0
230
1.0
 70
    24
 71
     3
 72
    10
 73
     6
 74
     0
 42
0.00000001
 43
0.00000001
 40
0.0
 40
0.0
 40
0.0
 40
0.0
 40
0.5
 40
0.5
 40
1.0
 40
1.0
 40
1.0
 40
1.0
 10
122.9819083048666
 20
41.26719161836854
 30
0.0
 10
123.6379210714718
 20
41.64594076575983
 30
0.0
 10
124.2981879783295
 20
42.02714604217113
 30
0.0
 10
125.6305344969645
 20
42.79637666335891
 30
0.0
 10
126.3026874784518
 20
43.18444436815723
 30
0.0
 10
126.9819083048667
 20
43.57659269512707
 30
0.0
  0
SPLINE
  5
22C
330
1F
100
AcDbEntity
  8
0
  6
Continuous
 62
     7
370
    25
100
AcDbSpline
210
0.0
220
0.0
230
1.0
 70
     8
 71
     3
 72
    10
 73
     6
 74
     0
 42
0.00000001
 43
0.00000001
 40
0.0
 40
0.0
 40
0.0
 40
0.0
 40
0.5
 40
0.5
 40
1.0
 40
1.0
 40
1.0
 40
1.0
 10
122.9819083048667
 20
41.26719161836856
 30
0.0
 10
122.9075335508767
 20
41.22425133413152
 30
0.0
 10
122.8204398193108
 20
41.20028354955571
 30
0.0
 10
122.6442739907663
 20
41.20012549345018
 30
0.0
 10
122.556312966876
 20
41.22423406672855
 30
0.0
 10
122.4819083048667
 20
41.26719161836856
 30
0.0
  0
SPLINE
  5
22D
330
1F
100
AcDbEntity
  8
0
  6
Continuous
 62
     7
370
    25
100
AcDbSpline
210
0.0
220
0.0
230
1.0
 70
    24
 71
     3
 72
    12
 73
     8
 74
     0
 42
0.00000001
 43
0.00000001
 40
0.0
 40
0.0
 40
0.0
 40
0.0
 40
0.25
 40
0.25
 40
0.5000000000000002
 40
0.5000000000000002
 40
1.0
 40
1.0
 40
1.0
 40
1.0
 10
118.4819083048667
 20
43.57659269512708
 30
0.0
 10
118.8196642398895
 20
43.38158921512128
 30
0.0
 10
119.160072254768
 20
43.18505455609687
 30
0.0
 10
119.8345669391684
 20
42.79563486849132
 30
0.0
 10
120.1696922580356
 20
42.60215017543106
 30
0.0
 10
121.1694035763758
 20
42.02496657667546
 30
0.0
 10
121.8283376794411
 20
41.6445307948925
 30
0.0
 10
122.4819083048667
 20
41.26719161836856
 30
0.0
  0
SPLINE
  5
22E
330
1F
100
AcDbEntity
  8
0
  6
Continuous
 62
     7
370
    25
100
AcDbSpline
210
0.0
220
0.0
230
1.0
 70
     8
 71
     3
 72
    10
 73
     6
 74
     0
 42
0.00000001
 43
0.00000001
 40
0.0
 40
0.0
 40
0.0
 40
0.0
 40
0.5
 40
0.5
 40
1.0
 40
1.0
 40
1.0
 40
1.0
 10
122.4819083048667
 20
60.60842563622104
 30
0.0
 10
122.5562830588567
 20
60.65136592045808
 30
0.0
 10
122.6433767904226
 20
60.67533370503391
 30
0.0
 10
122.8195426189671
 20
60.67549176113943
 30
0.0
 10
122.9075036428574
 20
60.65138318786105
 30
0.0
 10
122.9819083048667
 20
60.60842563622104
 30
0.0
  0
SPLINE
  5
22F
330
1F
100
AcDbEntity
  8
0
  6
Continuous
 62
     7
370
    25
100
AcDbSpline
210
0.0
220
0.0
230
1.0
 70
    24
 71
     3
 72
    12
 73
     8
 74
     0
 42
0.00000001
 43
0.00000001
 40
0.0
 40
0.0
 40
0.0
 40
0.0
 40
0.2499999999999999
 40
0.2499999999999999
 40
0.5
 40
0.5
 40
1.0
 40
1.0
 40
1.0
 40
1.0
 10
126.9819083048667
 20
58.29902455946254
 30
0.0
 10
126.6441523698439
 20
58.49402803946833
 30
0.0
 10
126.3037443549654
 20
58.69056269849274
 30
0.0
 10
125.629249670565
 20
59.07998238609829
 30
0.0
 10
125.2941243516978
 20
59.27346707915855
 30
0.0
 10
124.2944130333576
 20
59.85065067791415
 30
0.0
 10
123.6354789302924
 20
60.23108645969712
 30
0.0
 10
122.9819083048667
 20
60.60842563622105
 30
0.0
  0
SPLINE
  5
230
330
1F
100
AcDbEntity
  8
0
  6
Continuous
 62
     7
370
    25
100
AcDbSpline
210
0.0
220
0.0
230
1.0
 70
    24
 71
     3
 72
    10
 73
     6
 74
     0
 42
0.00000001
 43
0.00000001
 40
0.0
 40
0.0
 40
0.0
 40
0.0
 40
0.5
 40
0.5
 40
1.0
 40
1.0
 40
1.0
 40
1.0
 10
122.4819083048668
 20
60.60842563622107
 30
0.0
 10
121.8258955382616
 20
60.22967648882978
 30
0.0
 10
121.1656286314039
 20
59.84847121241848
 30
0.0
 10
119.8332821127689
 20
59.07924059123069
 30
0.0
 10
119.1611291312816
 20
58.69117288643237
 30
0.0
 10
118.4819083048667
 20
58.29902455946254
 30
0.0
  0
SPLINE
  5
231
330
1F
100
AcDbEntity
  8
0
  6
Continuous
 62
     7
370
    25
100
AcDbSpline
210
0.0
220
0.0
230
1.0
 70
    24
 71
     3
 72
    10
 73
     6
 74
     0
 42
0.00000001
 43
0.00000001
 40
0.0
 40
0.0
 40
0.0
 40
0.0
 40
0.5
 40
0.5
 40
1.0
 40
1.0
 40
1.0
 40
1.0
 10
131.2319083048667
 20
46.31900647377779
 30
0.0
 10
131.2319083048667
 20
47.07381574682708
 30
0.0
 10
131.2319083048667
 20
47.83456213405898
 30
0.0
 10
131.2319083048667
 20
49.37270451168224
 30
0.0
 10
131.2319083048667
 20
50.15020566420706
 30
0.0
 10
131.2319083048667
 20
50.9378086272948
 30
0.0
  0
SPLINE
  5
232
330
1F
100
AcDbEntity
  8
0
  6
Continuous
 62
     7
370
    25
100
AcDbSpline
210
0.0
220
0.0
230
1.0
 70
     8
 71
     3
 72
    10
 73
     6
 74
     0
 42
0.00000001
 43
0.00000001
 40
0.0
 40
0.0
 40
0.0
 40
0.0
 40
0.5
 40
0.5
 40
1.0
 40
1.0
 40
1.0
 40
1.0
 10
131.2319083048667
 20
46.31900647377779
 30
0.0
 10
131.2319083048667
 20
46.23312483127133
 30
0.0
 10
131.2091177332193
 20
46.1457156253059
 30
0.0
 10
131.1211717359205
 20
45.99307314023098
 30
0.0
 10
131.0563109431877
 20
45.92895015514861
 30
0.0
 10
130.9819083048667
 20
45.88599377188558
 30
0.0
  0
SPLINE
  5
233
330
1F
100
AcDbEntity
  8
0
  6
Continuous
 62
     7
370
    25
100
AcDbSpline
210
0.0
220
0.0
230
1.0
 70
    24
 71
     3
 72
    12
 73
     8
 74
     0
 42
0.00000001
 43
0.00000001
 40
0.0
 40
0.0
 40
0.0
 40
0.0
 40
0.2499999999999999
 40
0.2499999999999999
 40
0.4999999999999998
 40
0.4999999999999998
 40
1.0
 40
1.0
 40
1.0
 40
1.0
 10
126.9819083048667
 20
43.57659269512707
 30
0.0
 10
127.3196642398895
 20
43.77159617513287
 30
0.0
 10
127.660072254768
 20
43.96813083415728
 30
0.0
 10
128.3345669391684
 20
44.35755052176283
 30
0.0
 10
128.6696922580356
 20
44.5510352148231
 30
0.0
 10
129.6694035763758
 20
45.12821881357869
 30
0.0
 10
130.3283376794411
 20
45.50865459536165
 30
0.0
 10
130.9819083048667
 20
45.88599377188559
 30
0.0
  0
SPLINE
  5
234
330
1F
100
AcDbEntity
  8
0
  6
Continuous
 62
     7
370
    25
100
AcDbSpline
210
0.0
220
0.0
230
1.0
 70
     8
 71
     3
 72
    10
 73
     6
 74
     0
 42
0.00000001
 43
0.00000001
 40
0.0
 40
0.0
 40
0.0
 40
0.0
 40
0.5
 40
0.5
 40
1.0
 40
1.0
 40
1.0
 40
1.0
 10
130.9819083048667
 20
55.98962348270403
 30
0.0
 10
131.0562787717923
 20
55.9466856736048
 30
0.0
 10
131.1205843680801
 20
55.88324508371259
 30
0.0
 10
131.208807155886
 20
55.73075593820376
 30
0.0
 10
131.2319083048667
 20
55.64252654900044
 30
0.0
 10
131.2319083048667
 20
55.55661078081181
 30
0.0
  0
SPLINE
  5
235
330
1F
100
AcDbEntity
  8
0
  6
Continuous
 62
     7
370
    25
100
AcDbSpline
210
0.0
220
0.0
230
1.0
 70
    24
 71
     3
 72
    12
 73
     8
 74
     0
 42
0.00000001
 43
0.00000001
 40
0.0
 40
0.0
 40
0.0
 40
0.0
 40
0.2500000000000001
 40
0.2500000000000001
 40
0.5000000000000001
 40
0.5000000000000001
 40
1.0
 40
1.0
 40
1.0
 40
1.0
 10
131.2319083048667
 20
50.9378086272948
 30
0.0
 10
131.2319083048667
 20
51.33212670796664
 30
0.0
 10
131.2319083048667
 20
51.72578575191708
 30
0.0
 10
131.2319083048667
 20
52.50532175146242
 30
0.0
 10
131.2319083048667
 20
52.89227493958785
 30
0.0
 10
131.2319083048667
 20
54.04566150244185
 30
0.0
 10
131.2319083048667
 20
54.80464399164688
 30
0.0
 10
131.2319083048667
 20
55.55661078081181
 30
0.0
  0
SPLINE
  5
236
330
1F
100
AcDbEntity
  8
0
  6
Continuous
 62
     7
370
    25
100
AcDbSpline
210
0.0
220
0.0
230
1.0
 70
    24
 71
     3
 72
    10
 73
     6
 74
     0
 42
0.00000001
 43
0.00000001
 40
0.0
 40
0.0
 40
0.0
 40
0.0
 40
0.5
 40
0.5
 40
1.0
 40
1.0
 40
1.0
 40
1.0
 10
130.9819083048667
 20
55.989623482704
 30
0.0
 10
130.3258955382616
 20
56.36837263009529
 30
0.0
 10
129.6656286314039
 20
56.74957790650659
 30
0.0
 10
128.3332821127689
 20
57.51880852769438
 30
0.0
 10
127.6611291312816
 20
57.90687623249269
 30
0.0
 10
126.9819083048667
 20
58.29902455946254
 30
0.0
  0
LINE
  5
237
330
1F
100
AcDbEntity
  8
0
  6
Continuous
 62
     7
370
    25
100
AcDbLine
 10
126.9819083049
 20
38.9378086273
 30
0.0
 11
118.4819083049
 21
38.9378086273
 31
0.0
  0
SPLINE
  5
238
330
1F
100
AcDbEntity
  8
0
  6
Continuous
 62
     7
370
    25
100
AcDbSpline
210
0.0
220
0.0
230
1.0
 70
     8
 71
     3
 72
    10
 73
     6
 74
     0
 42
0.00000001
 43
0.00000001
 40
0.0
 40
0.0
 40
0.0
 40
0.0
 40
0.5
 40
0.5
 40
1.0
 40
1.0
 40
1.0
 40
1.0
 10
122.4819083048668
 20
39.61553003255452
 30
0.0
 10
121.8258955382616
 20
39.40672010788828
 30
0.0
 10
121.1656286314039
 20
39.23618596814102
 30
0.0
 10
119.8332821127689
 20
39.00140016312209
 30
0.0
 10
119.1611291312816
 20
38.93780862729481
 30
0.0
 10
118.4819083048667
 20
38.93780862729481
 30
0.0
  0
SPLINE
  5
239
330
1F
100
AcDbEntity
  8
0
  6
Continuous
 62
     7
370
    25
100
AcDbSpline
210
0.0
220
0.0
230
1.0
 70
     8
 71
     3
 72
    10
 73
     6
 74
     0
 42
0.00000001
 43
0.00000001
 40
0.0
 40
0.0
 40
0.0
 40
0.0
 40
0.5
 40
0.5
 40
1.0
 40
1.0
 40
1.0
 40
1.0
 10
122.4819083048667
 20
39.61553003255499
 30
0.0
 10
122.5562830588567
 20
39.63920363704612
 30
0.0
 10
122.6433767904227
 20
39.65229641283934
 30
0.0
 10
122.8195426189671
 20
39.65238298094029
 30
0.0
 10
122.9075036428574
 20
39.63921315681701
 30
0.0
 10
122.9819083048667
 20
39.61553003255499
 30
0.0
  0
SPLINE
  5
23A
330
1F
100
AcDbEntity
  8
0
  6
Continuous
 62
     7
370
    25
100
AcDbSpline
210
0.0
220
0.0
230
1.0
 70
     8
 71
     3
 72
    12
 73
     8
 74
     0
 42
0.00000001
 43
0.00000001
 40
0.0
 40
0.0
 40
0.0
 40
0.0
 40
0.2500000000000002
 40
0.2500000000000002
 40
0.5000000000000001
 40
0.5000000000000001
 40
1.0
 40
1.0
 40
1.0
 40
1.0
 10
126.9819083048667
 20
38.93780862729481
 30
0.0
 10
126.6441523698439
 20
38.9378086272948
 30
0.0
 10
126.3037443549654
 20
38.95355495731676
 30
0.0
 10
125.629249670565
 20
39.01499998190219
 30
0.0
 10
125.2941243516978
 20
39.06058874115592
 30
0.0
 10
124.2944130333576
 20
39.23703974341252
 30
0.0
 10
123.6354789302924
 20
39.40749744537601
 30
0.0
 10
122.9819083048667
 20
39.61553003255485
 30
0.0
  0
LINE
  5
23B
330
1F
100
AcDbEntity
  8
0
  6
Continuous
 62
     7
370
    25
100
AcDbLine
 10
122.9819083049
 20
41.2671916184
 30
0.0
 11
122.9819083049
 21
39.6155300326
 31
0.0
  0
LINE
  5
23C
330
1F
100
AcDbEntity
  8
0
  6
Continuous
 62
     7
370
    25
100
AcDbLine
 10
122.4819083049
 20
39.6155300326
 30
0.0
 11
122.4819083049
 21
41.2671916184
 31
0.0
  0
SPLINE
  5
23D
330
1F
100
AcDbEntity
  8
0
  6
Continuous
 62
     7
370
    25
100
AcDbSpline
210
0.0
220
0.0
230
1.0
 70
     8
 71
     3
 72
    12
 73
     8
 74
     0
 42
0.00000001
 43
0.00000001
 40
0.0
 40
0.0
 40
0.0
 40
0.0
 40
0.2499999999999999
 40
0.2499999999999999
 40
0.4999999999999998
 40
0.4999999999999998
 40
1.0
 40
1.0
 40
1.0
 40
1.0
 10
118.4819083048667
 20
38.93780862729481
 30
0.0
 10
118.1441523698439
 20
38.93780862729481
 30
0.0
 10
117.8037443549654
 20
38.95355495731676
 30
0.0
 10
117.129249670565
 20
39.01499998190219
 30
0.0
 10
116.7941243516978
 20
39.06058874115593
 30
0.0
 10
115.7944130333576
 20
39.23703974341252
 30
0.0
 10
115.1354789302923
 20
39.40749744537601
 30
0.0
 10
114.4819083048667
 20
39.61553003255485
 30
0.0
  0
LINE
  5
23E
330
1F
100
AcDbEntity
  8
0
  6
Continuous
 62
     7
370
    25
100
AcDbLine
 10
114.4819083049
 20
42.9714120874
 30
0.0
 11
114.4819083049
 21
39.6155300326
 31
0.0
  0
SPLINE
  5
23F
330
1F
100
AcDbEntity
  8
0
  6
Continuous
 62
     7
370
    25
100
AcDbSpline
210
0.0
220
0.0
230
1.0
 70
     8
 71
     3
 72
    10
 73
     6
 74
     0
 42
0.00000001
 43
0.00000001
 40
0.0
 40
0.0
 40
0.0
 40
0.0
 40
0.5
 40
0.5
 40
1.0
 40
1.0
 40
1.0
 40
1.0
 10
114.4819083048672
 20
42.97141208743995
 30
0.0
 10
115.1167360106808
 20
43.17347877299088
 30
0.0
 10
115.7560017132566
 20
43.33987154526152
 30
0.0
 10
117.0468166448465
 20
43.57391851913157
 30
0.0
 10
117.6984362803163
 20
43.64100677309041
 30
0.0
 10
118.3574782121364
 20
43.64843244266019
 30
0.0
  0
SPLINE
  5
240
330
1F
100
AcDbEntity
  8
0
  6
Continuous
 62
     7
370
    25
100
AcDbSpline
210
0.0
220
0.0
230
1.0
 70
     8
 71
     3
 72
    12
 73
     8
 74
     0
 42
0.00000001
 43
0.00000001
 40
0.0
 40
0.0
 40
0.0
 40
0.0
 40
0.2500000000000002
 40
0.2500000000000002
 40
0.5000000000000004
 40
0.5000000000000004
 40
1.0
 40
1.0
 40
1.0
 40
1.0
 10
127.1063383976191
 20
43.64843244265994
 30
0.0
 10
127.4354733880122
 20
43.64472395680352
 30
0.0
 10
127.764935540949
 20
43.62614145396583
 30
0.0
 10
128.4178091590066
 20
43.56127441699968
 30
0.0
 10
128.7422617508837
 20
43.51500886374942
 30
0.0
 10
129.7103221920758
 20
43.33928433344246
 30
0.0
 10
130.3486446763237
 20
43.17298092466571
 30
0.0
 10
130.9819083048667
 20
42.97141208743981
 30
0.0
  0
LINE
  5
241
330
1F
100
AcDbEntity
  8
0
  6
Continuous
 62
     7
370
    25
100
AcDbLine
 10
130.9819083049
 20
39.6155300326
 30
0.0
 11
130.9819083049
 21
42.9714120874
 31
0.0
  0
SPLINE
  5
242
330
1F
100
AcDbEntity
  8
0
  6
Continuous
 62
     7
370
    25
100
AcDbSpline
210
0.0
220
0.0
230
1.0
 70
     8
 71
     3
 72
    10
 73
     6
 74
     0
 42
0.00000001
 43
0.00000001
 40
0.0
 40
0.0
 40
0.0
 40
0.0
 40
0.5
 40
0.5
 40
1.0
 40
1.0
 40
1.0
 40
1.0
 10
130.9819083048667
 20
39.61553003255452
 30
0.0
 10
130.3258955382616
 20
39.40672010788827
 30
0.0
 10
129.6656286314039
 20
39.23618596814101
 30
0.0
 10
128.3332821127689
 20
39.00140016312209
 30
0.0
 10
127.6611291312816
 20
38.93780862729481
 30
0.0
 10
126.9819083048667
 20
38.93780862729481
 30
0.0
  0
SPLINE
  5
243
330
1F
100
AcDbEntity
  8
0
  6
Continuous
 62
     7
370
    25
100
AcDbSpline
210
0.0
220
0.0
230
1.0
 70
     8
 71
     3
 72
    10
 73
     6
 74
     0
 42
0.00000001
 43
0.00000001
 40
0.0
 40
0.0
 40
0.0
 40
0.0
 40
0.5
 40
0.5
 40
1.0
 40
1.0
 40
1.0
 40
1.0
 10
114.2319083048667
 20
39.61553003255499
 30
0.0
 10
114.2319083048667
 20
39.63920393311095
 30
0.0
 10
114.2546988765141
 20
39.65229649029008
 30
0.0
 10
114.342644873813
 20
39.65238290427236
 30
0.0
 10
114.4075056665457
 20
39.63921251267374
 30
0.0
 10
114.4819083048667
 20
39.61553003255499
 30
0.0
  0
LINE
  5
244
330
1F
100
AcDbEntity
  8
0
  6
Continuous
 62
     7
370
    25
100
AcDbLine
 10
118.4819083049
 20
38.9378086273
 30
0.0
 11
114.2319083049
 21
38.9378086273
 31
0.0
  0
SPLINE
  5
245
330
1F
100
AcDbEntity
  8
0
  6
Continuous
 62
     7
370
    25
100
AcDbSpline
210
0.0
220
0.0
230
1.0
 70
    24
 71
     3
 72
    10
 73
     6
 74
     0
 42
0.00000001
 43
0.00000001
 40
0.0
 40
0.0
 40
0.0
 40
0.0
 40
0.5
 40
0.5
 40
1.0
 40
1.0
 40
1.0
 40
1.0
 10
114.2319083048667
 20
39.61553003255496
 30
0.0
 10
114.2319083048667
 20
39.40876050463138
 30
0.0
 10
114.2319083048667
 20
39.2374282983693
 30
0.0
 10
114.2319083048667
 20
38.99994107074166
 30
0.0
 10
114.2319083048667
 20
38.93780862729481
 30
0.0
 10
114.2319083048667
 20
38.93780862729481
 30
0.0
  0
SPLINE
  5
246
330
1F
100
AcDbEntity
  8
0
  6
Continuous
 62
     7
370
    25
100
AcDbSpline
210
0.0
220
0.0
230
1.0
 70
     8
 71
     3
 72
    10
 73
     6
 74
     0
 42
0.00000001
 43
0.00000001
 40
0.0
 40
0.0
 40
0.0
 40
0.0
 40
0.5
 40
0.5
 40
1.0
 40
1.0
 40
1.0
 40
1.0
 10
130.9819083048667
 20
39.61553003255499
 30
0.0
 10
131.0562787717923
 20
39.63920227246656
 30
0.0
 10
131.1205843680801
 20
39.65229626240181
 30
0.0
 10
131.208807155886
 20
39.65238312986326
 30
0.0
 10
131.2319083048667
 20
39.6392133401039
 30
0.0
 10
131.2319083048667
 20
39.61553003255499
 30
0.0
  0
LINE
  5
247
330
1F
100
AcDbEntity
  8
0
  6
Continuous
 62
     7
370
    25
100
AcDbLine
 10
131.2319083049
 20
38.9378086273
 30
0.0
 11
126.9819083049
 21
38.9378086273
 31
0.0
  0
SPLINE
  5
248
330
1F
100
AcDbEntity
  8
0
  6
Continuous
 62
     7
370
    25
100
AcDbSpline
210
0.0
220
0.0
230
1.0
 70
    24
 71
     3
 72
    10
 73
     6
 74
     0
 42
0.00000001
 43
0.00000001
 40
0.0
 40
0.0
 40
0.0
 40
0.0
 40
0.5
 40
0.5
 40
1.0
 40
1.0
 40
1.0
 40
1.0
 10
131.2319083048667
 20
39.61553003255496
 30
0.0
 10
131.2319083048667
 20
39.40876050463138
 30
0.0
 10
131.2319083048667
 20
39.2374282983693
 30
0.0
 10
131.2319083048667
 20
38.99994107074166
 30
0.0
 10
131.2319083048667
 20
38.93780862729481
 30
0.0
 10
131.2319083048667
 20
38.93780862729481
 30
0.0
  0
SPLINE
  5
249
330
1F
100
AcDbEntity
  8
0
  6
Continuous
 62
     7
370
    25
100
AcDbSpline
210
0.0
220
0.0
230
1.0
 70
     8
 71
     3
 72
     8
 73
     4
 74
     0
 42
0.00000001
 43
0.00000001
 40
0.0
 40
0.0
 40
0.0
 40
0.0
 40
1.0
 40
1.0
 40
1.0
 40
1.0
 10
115.8037050745912
 20
43.93780862729481
 30
0.0
 10
115.277284213382
 20
43.6745981966902
 30
0.0
 10
114.7537397566683
 20
43.40550076830349
 30
0.0
 10
114.2319083048667
 20
43.13289741572083
 30
0.0
  0
SPLINE
  5
24A
330
1F
100
AcDbEntity
  8
0
  6
Continuous
 62
     7
370
    25
100
AcDbSpline
210
0.0
220
0.0
230
1.0
 70
     8
 71
     3
 72
    10
 73
     6
 74
     0
 42
0.00000001
 43
0.00000001
 40
0.0
 40
0.0
 40
0.0
 40
0.0
 40
0.5
 40
0.5
 40
1.0
 40
1.0
 40
1.0
 40
1.0
 10
114.2319083048667
 20
42.97141208743975
 30
0.0
 10
114.2319083048667
 20
42.94773669301533
 30
0.0
 10
114.2547007541965
 20
42.93464558313075
 30
0.0
 10
114.3426434582898
 20
42.93455926184252
 30
0.0
 10
114.407501231964
 20
42.94772819578646
 30
0.0
 10
114.4819083048674
 20
42.97141208744002
 30
0.0
  0
SPLINE
  5
24B
330
1F
100
AcDbEntity
  8
0
  6
Continuous
 62
     7
370
    25
100
AcDbSpline
210
0.0
220
0.0
230
1.0
 70
    24
 71
     3
 72
     8
 73
     4
 74
     0
 42
0.00000001
 43
0.00000001
 40
0.0
 40
0.0
 40
0.0
 40
0.0
 40
1.0
 40
1.0
 40
1.0
 40
1.0
 10
114.2319083048667
 20
42.97141208743981
 30
0.0
 10
114.2319083048667
 20
43.02797305456402
 30
0.0
 10
114.2319083048667
 20
43.08191312597786
 30
0.0
 10
114.2319083048667
 20
43.13289741572082
 30
0.0
  0
SPLINE
  5
24C
330
1F
100
AcDbEntity
  8
0
  6
Continuous
 62
     7
370
    25
100
AcDbSpline
210
0.0
220
0.0
230
1.0
 70
     8
 71
     3
 72
     8
 73
     4
 74
     0
 42
0.00000001
 43
0.00000001
 40
0.0
 40
0.0
 40
0.0
 40
0.0
 40
1.0
 40
1.0
 40
1.0
 40
1.0
 10
131.2319083048667
 20
43.13289741572082
 30
0.0
 10
130.7101021535649
 20
43.40548755139017
 30
0.0
 10
130.1864486847087
 20
43.67464005251156
 30
0.0
 10
129.6601115351422
 20
43.9378086272948
 30
0.0
  0
SPLINE
  5
24D
330
1F
100
AcDbEntity
  8
0
  6
Continuous
 62
     7
370
    25
100
AcDbSpline
210
0.0
220
0.0
230
1.0
 70
     8
 71
     3
 72
    10
 73
     6
 74
     0
 42
0.00000001
 43
0.00000001
 40
0.0
 40
0.0
 40
0.0
 40
0.0
 40
0.5
 40
0.5
 40
1.0
 40
1.0
 40
1.0
 40
1.0
 10
130.9819083048667
 20
42.97141208743981
 30
0.0
 10
131.056288682244
 20
42.94773669301541
 30
0.0
 10
131.1205893210298
 20
42.93464558313077
 30
0.0
 10
131.2088050058128
 20
42.93455926184249
 30
0.0
 10
131.2319083048667
 20
42.94772819578633
 30
0.0
 10
131.2319083048667
 20
42.9714120874398
 30
0.0
  0
SPLINE
  5
24E
330
1F
100
AcDbEntity
  8
0
  6
Continuous
 62
     7
370
    25
100
AcDbSpline
210
0.0
220
0.0
230
1.0
 70
    24
 71
     3
 72
     8
 73
     4
 74
     0
 42
0.00000001
 43
0.00000001
 40
0.0
 40
0.0
 40
0.0
 40
0.0
 40
1.0
 40
1.0
 40
1.0
 40
1.0
 10
131.2319083048667
 20
42.97141208743981
 30
0.0
 10
131.2319083048667
 20
43.02797305456402
 30
0.0
 10
131.2319083048667
 20
43.08191312597786
 30
0.0
 10
131.2319083048667
 20
43.13289741572082
 30
0.0
  0
LINE
  5
24F
330
1F
100
AcDbEntity
  8
0
  6
Continuous
 62
     7
370
    25
100
AcDbLine
 10
115.2319083049
 20
45.45298107
 30
0.0
 11
115.2319083049
 21
43.9378086273
 31
0.0
  0
LINE
  5
250
330
1F
100
AcDbEntity
  8
0
  6
Continuous
 62
     7
370
    25
100
AcDbLine
 10
115.2319083049
 20
43.9378086273
 30
0.0
 11
117.8562639578
 21
43.9378086273
 31
0.0
  0
LINE
  5
251
330
1F
100
AcDbEntity
  8
0
  6
Continuous
 62
     7
370
    25
100
AcDbLine
 10
130.2319083049
 20
43.9378086273
 30
0.0
 11
130.2319083049
 21
45.45298107
 31
0.0
  0
LINE
  5
252
330
1F
100
AcDbEntity
  8
0
  6
Continuous
 62
     7
370
    25
100
AcDbLine
 10
127.6075526519
 20
43.9378086273
 30
0.0
 11
130.2319083049
 21
43.9378086273
 31
0.0
  0
LINE
  5
253
330
1F
100
AcDbEntity
  8
0
  6
Continuous
 62
     7
370
    25
100
AcDbLine
 10
117.949628678
 20
28.7927566867
 30
0.0
 11
127.5141879317
 21
28.7927566867
 31
0.0
  0
LINE
  5
254
330
1F
100
AcDbEntity
  8
0
  6
Continuous
 62
     7
370
    25
100
AcDbLine
 10
114.2319083049
 20
39.6155300326
 30
0.0
 11
114.2319083049
 21
42.9714120874
 31
0.0
  0
LINE
  5
255
330
1F
100
AcDbEntity
  8
0
  6
Continuous
 62
     7
370
    25
100
AcDbLine
 10
131.2319083049
 20
42.9714120874
 30
0.0
 11
131.2319083049
 21
39.6155300326
 31
0.0
  0
LINE
  5
256
330
1F
100
AcDbEntity
  8
0
  6
Continuous
 62
     7
370
    25
100
AcDbLine
 10
122.7319083049
 20
27.4378086273
 30
0.0
 11
118.7319083049
 21
27.4378086273
 31
0.0
  0
LINE
  5
257
330
1F
100
AcDbEntity
  8
0
  6
Continuous
 62
     7
370
    25
100
AcDbLine
 10
126.7319083049
 20
27.4378086273
 30
0.0
 11
122.7319083049
 21
27.4378086273
 31
0.0
  0
LINE
  5
258
330
1F
100
AcDbEntity
  8
0
  6
Continuous
 62
     7
370
    25
100
AcDbLine
 10
114.2319083049
 20
43.1328974157
 30
0.0
 11
114.2319083049
 21
46.2717537241
 31
0.0
  0
LINE
  5
259
330
1F
100
AcDbEntity
  8
0
  6
Continuous
 62
     7
370
    25
100
AcDbLine
 10
131.2319083049
 20
43.1328974157
 30
0.0
 11
131.2319083049
 21
46.2717537241
 31
0.0
  0
LINE
  5
25A
330
1F
100
AcDbEntity
  8
0
  6
Continuous
 62
     7
370
    25
100
AcDbLine
 10
115.1987385567
 20
61.9021851023
 30
0.0
 11
130.2650780531
 21
61.9021851023
 31
0.0
  0
LINE
  5
25B
330
1F
100
AcDbEntity
  8
0
  6
Continuous
 62
     7
370
    25
100
AcDbLine
 10
128.3160900886
 20
79.5417644727
 30
0.0
 11
125.9766715917
 21
79.5417644727
 31
0.0
  0
LINE
  5
25C
330
1F
100
AcDbEntity
  8
0
  6
Continuous
 62
     7
370
    25
100
AcDbLine
 10
119.487145018
 20
79.5417644727
 30
0.0
 11
117.1477265211
 21
79.5417644727
 31
0.0
  0
SPLINE
  5
25D
330
1F
100
AcDbEntity
  8
0
  6
Continuous
 62
     7
370
    25
100
AcDbSpline
210
0.0
220
0.0
230
1.0
 70
     8
 71
     3
 72
    18
 73
    14
 74
     0
 42
0.00000001
 43
0.00000001
 40
0.0
 40
0.0
 40
0.0
 40
0.0
 40
0.0468467458120825
 40
0.1374754359808618
 40
0.2589345503230771
 40
0.380607345417351
 40
0.3961064232853069
 40
0.5263163618140542
 40
0.6565246415090182
 40
0.7575081523199313
 40
0.8582885186823611
 40
0.9376088573019009
 40
1.0
 40
1.0
 40
1.0
 40
1.0
 10
123.3463660918532
 20
60.39800583479612
 30
0.0
 10
123.4890143216568
 20
60.38733572675361
 30
0.0
 10
123.9076266979104
 20
60.35602346098831
 30
0.0
 10
124.6613174296906
 20
60.18348046918844
 30
0.0
 10
125.5588432857927
 20
59.86869995690669
 30
0.0
 10
126.1686269767893
 20
59.55360221329676
 30
0.0
 10
126.7443646489106
 20
59.20727749278298
 30
0.0
 10
127.2817371404327
 20
58.8267209418474
 30
0.0
 10
127.8476568703351
 20
58.32909521502968
 30
0.0
 10
128.2492362165603
 20
57.91586124535592
 30
0.0
 10
128.4885735729727
 20
57.64248672869492
 30
0.0
 10
128.6137329350349
 20
57.49078711160026
 30
0.0
 10
128.6210484276528
 20
57.48135810899004
 30
0.0
 10
128.6242692107508
 20
57.47720681340068
 30
0.0
  0
SPLINE
  5
25E
330
1F
100
AcDbEntity
  8
0
  6
Continuous
 62
     7
370
    25
100
AcDbSpline
210
0.0
220
0.0
230
1.0
 70
     8
 71
     3
 72
    19
 73
    15
 74
     0
 42
0.00000001
 43
0.00000001
 40
0.0
 40
0.0
 40
0.0
 40
0.0
 40
0.0663355671233536
 40
0.105922160545211
 40
0.1953069988468544
 40
0.2848580950707684
 40
0.4058517764148937
 40
0.5269316881973953
 40
0.6283663678168987
 40
0.7297337699681175
 40
0.8191451937471399
 40
0.9084826408220907
 40
0.9868723319527156
 40
1.0
 40
1.0
 40
1.0
 40
1.0
 10
116.8338523753786
 20
57.47037900377978
 30
0.0
 10
116.8385920521048
 20
57.47617621080915
 30
0.0
 10
116.8461601912027
 20
57.48543297486964
 30
0.0
 10
116.9274162010205
 20
57.58443955699941
 30
0.0
 10
117.0770846014309
 20
57.76127702558154
 30
0.0
 10
117.3854735033683
 20
58.09808785474385
 30
0.0
 10
117.8427173358127
 20
58.53867585561088
 30
0.0
 10
118.4410447819294
 20
59.0206946464375
 30
0.0
 10
119.110929291196
 20
59.45662238236984
 30
0.0
 10
119.8010833083475
 20
59.81297318490425
 30
0.0
 10
120.5371699211501
 20
60.09981536171204
 30
0.0
 10
121.2699768152461
 20
60.29179818693186
 30
0.0
 10
121.810538196565
 20
60.39149868394458
 30
0.0
 10
122.0915075940005
 20
60.40444050314819
 30
0.0
 10
122.1318111278231
 20
60.40629693681235
 30
0.0
  0
INSERT
  5
26A
330
1F
100
AcDbEntity
  8
0
  6
Continuous
 62
     7
370
    18
100
AcDbBlockReference
  2
SW_CENTERMARKSYMBOL_0
 10
122.7319083049
 20
50.9378086273
 30
0.0
  0
LINE
  5
26B
330
1F
100
AcDbEntity
  8
0
  6
Continuous
 62
     7
370
    18
100
AcDbLine
 10
118.1051583049
 20
38.4378086273
 30
0.0
 11
118.4327139345
 21
27.9560284781
 31
0.0
  0
LINE
  5
26C
330
1F
100
AcDbEntity
  8
0
  6
Continuous
 62
     7
370
    18
100
AcDbLine
 10
127.0311026752
 20
27.9560284781
 30
0.0
 11
127.3586583049
 21
38.4378086273
 31
0.0
  0
ARC
  5
26D
330
1F
100
AcDbEntity
  8
0
  6
Continuous
 62
     7
370
    25
100
AcDbCircle
 10
89.2463584809
 20
116.3048909063
 30
0.0
 40
0.1999999999999886
100
AcDbArc
 50
0.0
 51
90.0
  0
ARC
  5
26E
330
1F
100
AcDbEntity
  8
0
  6
Continuous
 62
     7
370
    25
100
AcDbCircle
 10
89.2463584809
 20
103.7048909063
 30
0.0
 40
0.2000000000000028
100
AcDbArc
 50
270.0
 51
0.0
  0
LINE
  5
26F
330
1F
100
AcDbEntity
  8
0
  6
Continuous
 62
     7
370
    25
100
AcDbLine
 10
89.2463584809
 20
116.5048909063
 30
0.0
 11
88.1463584809
 21
116.5048909063
 31
0.0
  0
LINE
  5
270
330
1F
100
AcDbEntity
  8
0
  6
Continuous
 62
     7
370
    25
100
AcDbLine
 10
88.1463584809
 20
103.5048909063
 30
0.0
 11
89.2463584809
 21
103.5048909063
 31
0.0
  0
ARC
  5
271
330
1F
100
AcDbEntity
  8
0
  6
Continuous
 62
     7
370
    25
100
AcDbCircle
 10
88.1463584809
 20
116.3048909063
 30
0.0
 40
0.2000000000000028
100
AcDbArc
 50
90.0
 51
180.0
  0
ARC
  5
272
330
1F
100
AcDbEntity
  8
0
  6
Continuous
 62
     7
370
    25
100
AcDbCircle
 10
88.1463584809
 20
103.7048909063
 30
0.0
 40
0.2000000000000028
100
AcDbArc
 50
180.0
 51
270.0
  0
LINE
  5
273
330
1F
100
AcDbEntity
  8
0
  6
Continuous
 62
     7
370
    25
100
AcDbLine
 10
87.9463584809
 20
114.1298909063
 30
0.0
 11
86.9463584809
 21
114.1298909063
 31
0.0
  0
LINE
  5
274
330
1F
100
AcDbEntity
  8
0
  6
Continuous
 62
     7
370
    25
100
AcDbLine
 10
86.9463584809
 20
105.8798909063
 30
0.0
 11
87.9463584809
 21
105.8798909063
 31
0.0
  0
LINE
  5
275
330
1F
100
AcDbEntity
  8
0
  6
Continuous
 62
     7
370
    25
100
AcDbLine
 10
29.6463584809
 20
103.5048909063
 30
0.0
 11
30.7463584809
 21
103.5048909063
 31
0.0
  0
LINE
  5
276
330
1F
100
AcDbEntity
  8
0
  6
Continuous
 62
     7
370
    25
100
AcDbLine
 10
30.7463584809
 20
116.5048909063
 30
0.0
 11
29.6463584809
 21
116.5048909063
 31
0.0
  0
ARC
  5
277
330
1F
100
AcDbEntity
  8
0
  6
Continuous
 62
     7
370
    25
100
AcDbCircle
 10
30.7463584809
 20
103.7048909063
 30
0.0
 40
0.2000000000000028
100
AcDbArc
 50
270.0
 51
0.0
  0
ARC
  5
278
330
1F
100
AcDbEntity
  8
0
  6
Continuous
 62
     7
370
    25
100
AcDbCircle
 10
30.7463584809
 20
116.3048909063
 30
0.0
 40
0.2000000000000028
100
AcDbArc
 50
0.0
 51
90.0
  0
ARC
  5
279
330
1F
100
AcDbEntity
  8
0
  6
Continuous
 62
     7
370
    25
100
AcDbCircle
 10
29.6463584809
 20
103.7048909063
 30
0.0
 40
0.2000000000000028
100
AcDbArc
 50
180.0
 51
270.0
  0
ARC
  5
27A
330
1F
100
AcDbEntity
  8
0
  6
Continuous
 62
     7
370
    25
100
AcDbCircle
 10
29.6463584809
 20
116.3048909063
 30
0.0
 40
0.1999999999999993
100
AcDbArc
 50
90.0
 51
180.0
  0
LINE
  5
27B
330
1F
100
AcDbEntity
  8
0
  6
Continuous
 62
     7
370
    25
100
AcDbLine
 10
30.9463584809
 20
105.8798909063
 30
0.0
 11
31.9463584809
 21
105.8798909063
 31
0.0
  0
LINE
  5
27C
330
1F
100
AcDbEntity
  8
0
  6
Continuous
 62
     7
370
    25
100
AcDbLine
 10
31.9463584809
 20
114.1298909063
 30
0.0
 11
30.9463584809
 21
114.1298909063
 31
0.0
  0
LINE
  5
27D
330
1F
100
AcDbEntity
  8
0
  6
Continuous
 62
     7
370
    25
100
AcDbLine
 10
47.9463584809
 20
118.0048909063
 30
0.0
 11
45.1463584809
 21
118.0048909063
 31
0.0
  0
LINE
  5
27E
330
1F
100
AcDbEntity
  8
0
  6
Continuous
 62
     7
370
    25
100
AcDbLine
 10
45.1463584809
 20
102.0048909063
 30
0.0
 11
47.9463584809
 21
102.0048909063
 31
0.0
  0
LINE
  5
27F
330
1F
100
AcDbEntity
  8
0
  6
Continuous
 62
     7
370
    25
100
AcDbLine
 10
45.1463584809
 20
118.0048909063
 30
0.0
 11
44.9463584809
 21
117.8048909063
 31
0.0
  0
LINE
  5
280
330
1F
100
AcDbEntity
  8
0
  6
Continuous
 62
     7
370
    25
100
AcDbLine
 10
44.9463584809
 20
102.2048909063
 30
0.0
 11
45.1463584809
 21
102.0048909063
 31
0.0
  0
LINE
  5
281
330
1F
100
AcDbEntity
  8
0
  6
Continuous
 62
     7
370
    25
100
AcDbLine
 10
44.9463584809
 20
116.5048909063
 30
0.0
 11
32.1463584809
 21
116.5048909063
 31
0.0
  0
LINE
  5
282
330
1F
100
AcDbEntity
  8
0
  6
Continuous
 62
     7
370
    25
100
AcDbLine
 10
32.1463584809
 20
103.5048909063
 30
0.0
 11
44.9463584809
 21
103.5048909063
 31
0.0
  0
LINE
  5
283
330
1F
100
AcDbEntity
  8
0
  6
Continuous
 62
     7
370
    25
100
AcDbLine
 10
32.1463584809
 20
116.5048909063
 30
0.0
 11
31.9463584809
 21
116.3048909063
 31
0.0
  0
LINE
  5
284
330
1F
100
AcDbEntity
  8
0
  6
Continuous
 62
     7
370
    25
100
AcDbLine
 10
31.9463584809
 20
103.7048909063
 30
0.0
 11
32.1463584809
 21
103.5048909063
 31
0.0
  0
LINE
  5
285
330
1F
100
AcDbEntity
  8
0
  6
Continuous
 62
     7
370
    25
100
AcDbLine
 10
73.7463584809
 20
102.0048909063
 30
0.0
 11
73.9463584809
 21
102.2048909063
 31
0.0
  0
LINE
  5
286
330
1F
100
AcDbEntity
  8
0
  6
Continuous
 62
     7
370
    25
100
AcDbLine
 10
73.9463584809
 20
117.8048909063
 30
0.0
 11
73.7463584809
 21
118.0048909063
 31
0.0
  0
LINE
  5
287
330
1F
100
AcDbEntity
  8
0
  6
Continuous
 62
     7
370
    25
100
AcDbLine
 10
70.9463584809
 20
102.0048909063
 30
0.0
 11
73.7463584809
 21
102.0048909063
 31
0.0
  0
LINE
  5
288
330
1F
100
AcDbEntity
  8
0
  6
Continuous
 62
     7
370
    25
100
AcDbLine
 10
73.7463584809
 20
118.0048909063
 30
0.0
 11
70.9463584809
 21
118.0048909063
 31
0.0
  0
LINE
  5
289
330
1F
100
AcDbEntity
  8
0
  6
Continuous
 62
     7
370
    25
100
AcDbLine
 10
73.9463584809
 20
103.5048909063
 30
0.0
 11
86.7463584809
 21
103.5048909063
 31
0.0
  0
LINE
  5
28A
330
1F
100
AcDbEntity
  8
0
  6
Continuous
 62
     7
370
    25
100
AcDbLine
 10
86.7463584809
 20
116.5048909063
 30
0.0
 11
73.9463584809
 21
116.5048909063
 31
0.0
  0
LINE
  5
28B
330
1F
100
AcDbEntity
  8
0
  6
Continuous
 62
     7
370
    25
100
AcDbLine
 10
86.7463584809
 20
103.5048909063
 30
0.0
 11
86.9463584809
 21
103.7048909063
 31
0.0
  0
LINE
  5
28C
330
1F
100
AcDbEntity
  8
0
  6
Continuous
 62
     7
370
    25
100
AcDbLine
 10
86.9463584809
 20
116.3048909063
 30
0.0
 11
86.7463584809
 21
116.5048909063
 31
0.0
  0
LINE
  5
28D
330
1F
100
AcDbEntity
  8
0
  6
Continuous
 62
     7
370
    25
100
AcDbLine
 10
80.4463584809
 20
107.8844008918
 30
0.0
 11
80.4463584809
 21
112.1253809208
 31
0.0
  0
SPLINE
  5
28E
330
1F
100
AcDbEntity
  8
0
  6
Continuous
 62
     7
370
    25
100
AcDbSpline
210
0.0
220
0.0
230
1.0
 70
     8
 71
     3
 72
     9
 73
     5
 74
     0
 42
0.00000001
 43
0.00000001
 40
0.0
 40
0.0
 40
0.0
 40
0.0
 40
0.863326103341341
 40
1.0
 40
1.0
 40
1.0
 40
1.0
 10
42.55998418563235
 20
113.3551340514409
 30
0.0
 10
42.50470095836247
 20
113.3590996913108
 30
0.0
 10
42.44066579591815
 20
113.3636931350332
 30
0.0
 10
42.37796102598703
 20
113.3552238870863
 30
0.0
 10
42.36939092074144
 20
113.3540663619676
 30
0.0
  0
LINE
  5
28F
330
1F
100
AcDbEntity
  8
0
  6
Continuous
 62
     7
370
    25
100
AcDbLine
 10
38.4463584809
 20
112.1253809208
 30
0.0
 11
38.4463584809
 21
107.8844008918
 31
0.0
  0
LINE
  5
290
330
1F
100
AcDbEntity
  8
0
  6
Continuous
 62
     7
370
    25
100
AcDbLine
 10
47.5224967468
 20
113.3515133153
 30
0.0
 11
47.3338614444
 21
113.3567418492
 31
0.0
  0
LINE
  5
291
330
1F
100
AcDbEntity
  8
0
  6
Continuous
 62
     7
370
    25
100
AcDbLine
 10
76.5226458759
 20
113.3515091818
 30
0.0
 11
76.3338614444
 21
113.3567418492
 31
0.0
  0
SPLINE
  5
292
330
1F
100
AcDbEntity
  8
0
  6
Continuous
 62
     7
370
    25
100
AcDbSpline
210
0.0
220
0.0
230
1.0
 70
     8
 71
     3
 72
     9
 73
     5
 74
     0
 42
0.00000001
 43
0.00000001
 40
0.0
 40
0.0
 40
0.0
 40
0.0
 40
0.86332610334135
 40
1.0
 40
1.0
 40
1.0
 40
1.0
 10
71.55998418563236
 20
113.3551340514409
 30
0.0
 10
71.50470095836248
 20
113.3590996913108
 30
0.0
 10
71.44066579591816
 20
113.3636931350332
 30
0.0
 10
71.37796102598703
 20
113.3552238870863
 30
0.0
 10
71.36939092074147
 20
113.3540663619676
 30
0.0
  0
LINE
  5
293
330
1F
100
AcDbEntity
  8
0
  6
Continuous
 62
     7
370
    25
100
AcDbLine
 10
47.3359883124
 20
113.3612555507
 30
0.0
 11
42.5567286493
 21
113.3612555507
 31
0.0
  0
LINE
  5
294
330
1F
100
AcDbEntity
  8
0
  6
Continuous
 62
     7
370
    25
100
AcDbLine
 10
76.3359883124
 20
113.3612555507
 30
0.0
 11
71.5567286493
 21
113.3612555507
 31
0.0
  0
SPLINE
  5
295
330
1F
100
AcDbEntity
  8
0
  6
Continuous
 62
     7
370
    25
100
AcDbSpline
210
0.0
220
0.0
230
1.0
 70
     8
 71
     3
 72
     9
 73
     5
 74
     0
 42
0.00000001
 43
0.00000001
 40
0.0
 40
0.0
 40
0.0
 40
0.0
 40
0.8633261033601723
 40
1.0
 40
1.0
 40
1.0
 40
1.0
 10
76.33273277608839
 20
106.6546477611319
 30
0.0
 10
76.38801600335945
 20
106.650682121262
 30
0.0
 10
76.45205116580375
 20
106.6460886775395
 30
0.0
 10
76.51475593573487
 20
106.6545579254864
 30
0.0
 10
76.52332604097927
 20
106.655715450605
 30
0.0
  0
LINE
  5
296
330
1F
100
AcDbEntity
  8
0
  6
Continuous
 62
     7
370
    25
100
AcDbLine
 10
42.3702202149
 20
106.6582684972
 30
0.0
 11
42.5588555174
 21
106.6530399633
 31
0.0
  0
LINE
  5
297
330
1F
100
AcDbEntity
  8
0
  6
Continuous
 62
     7
370
    25
100
AcDbLine
 10
71.3702202149
 20
106.6582684972
 30
0.0
 11
71.5588555174
 21
106.6530399633
 31
0.0
  0
SPLINE
  5
298
330
1F
100
AcDbEntity
  8
0
  6
Continuous
 62
     7
370
    25
100
AcDbSpline
210
0.0
220
0.0
230
1.0
 70
     8
 71
     3
 72
     9
 73
     5
 74
     0
 42
0.00000001
 43
0.00000001
 40
0.0
 40
0.0
 40
0.0
 40
0.0
 40
0.8622372075139595
 40
1.0
 40
1.0
 40
1.0
 40
1.0
 10
47.3327327760884
 20
106.6546477611319
 30
0.0
 10
47.38801558647136
 20
106.6506862145531
 30
0.0
 10
47.45213113367949
 20
106.6460917171871
 30
0.0
 10
47.51491460825802
 20
106.6545764080075
 30
0.0
 10
47.52356383503793
 20
106.6557452827083
 30
0.0
  0
LINE
  5
299
330
1F
100
AcDbEntity
  8
0
  6
Continuous
 62
     7
370
    25
100
AcDbLine
 10
71.5567286493
 20
106.6485262619
 30
0.0
 11
76.3359883124
 21
106.6485262619
 31
0.0
  0
LINE
  5
29A
330
1F
100
AcDbEntity
  8
0
  6
Continuous
 62
     7
370
    25
100
AcDbLine
 10
42.5567286493
 20
106.6485262619
 30
0.0
 11
47.3359883124
 21
106.6485262619
 31
0.0
  0
SPLINE
  5
29B
330
1F
100
AcDbEntity
  8
0
  6
Continuous
 62
     7
370
    25
100
AcDbSpline
210
0.0
220
0.0
230
1.0
 70
     8
 71
     3
 72
    13
 73
     9
 74
     0
 42
0.00000001
 43
0.00000001
 40
0.0
 40
0.0
 40
0.0
 40
0.0
 40
0.1089774222026729
 40
0.3233689965275958
 40
0.5337943118937951
 40
0.7415494424333806
 40
0.9477046951525129
 40
1.0
 40
1.0
 40
1.0
 40
1.0
 10
50.15306192085588
 20
113.0393412782431
 30
0.0
 10
50.08075422768014
 20
113.0544076859431
 30
0.0
 10
49.86619541622301
 20
113.0991142778293
 30
0.0
 10
49.46056817001477
 20
113.1660426955108
 30
0.0
 10
48.91991016548235
 20
113.2367247690704
 30
0.0
 10
48.32943483645809
 20
113.2968046055218
 30
0.0
 10
47.85365455423892
 20
113.3344394739494
 30
0.0
 10
47.57887790198838
 20
113.3522006740643
 30
0.0
 10
47.52327914867283
 20
113.3557945040921
 30
0.0
  0
SPLINE
  5
29C
330
1F
100
AcDbEntity
  8
0
  6
Continuous
 62
     7
370
    25
100
AcDbSpline
210
0.0
220
0.0
230
1.0
 70
     8
 71
     3
 72
    13
 73
     9
 74
     0
 42
0.00000001
 43
0.00000001
 40
0.0
 40
0.0
 40
0.0
 40
0.0
 40
0.1074269576187983
 40
0.3127074888965006
 40
0.5188546005539333
 40
0.7263535518489714
 40
0.9359123565587328
 40
1.0
 40
1.0
 40
1.0
 40
1.0
 10
71.36943781304784
 20
113.3557945040921
 30
0.0
 10
71.25570187135243
 20
113.34826696587
 30
0.0
 10
70.924629657141
 20
113.3263551699188
 30
0.0
 10
70.40549321568683
 20
113.2820728547577
 30
0.0
 10
69.8334968604078
 20
113.2200867460501
 30
0.0
 10
69.31529277286073
 20
113.1482595861292
 30
0.0
 10
68.96152595426587
 20
113.0863396380219
 30
0.0
 10
68.78175675443774
 20
113.0482595787606
 30
0.0
 10
68.73965504086479
 20
113.0393412782431
 30
0.0
  0
SPLINE
  5
29D
330
1F
100
AcDbEntity
  8
0
  6
Continuous
 62
     7
370
    25
100
AcDbSpline
210
0.0
220
0.0
230
1.0
 70
     8
 71
     3
 72
    19
 73
    15
 74
     0
 42
0.00000001
 43
0.00000001
 40
0.0
 40
0.0
 40
0.0
 40
0.0
 40
0.0532131603353061
 40
0.1548973750494649
 40
0.2570108440375102
 40
0.3597939369354001
 40
0.4635973632063577
 40
0.5691071122467124
 40
0.6778895881684999
 40
0.7942800126136687
 40
0.8578425430769593
 40
0.9135216509046146
 40
0.9653146299166343
 40
1.0
 40
1.0
 40
1.0
 40
1.0
 10
42.3694378130479
 20
113.3557945040921
 30
0.0
 10
42.25570272119722
 20
113.3482668430952
 30
0.0
 10
41.9246329807858
 20
113.3263546897608
 30
0.0
 10
41.40546479979584
 20
113.2820769599244
 30
0.0
 10
40.83360197411073
 20
113.2200715605585
 30
0.0
 10
40.31489648447688
 20
113.1483168368374
 30
0.0
 10
39.85353934857075
 20
113.0669577758469
 30
0.0
 10
39.45174174563577
 20
112.9749916341069
 30
0.0
 10
39.10524957858117
 20
112.8671252074408
 30
0.0
 10
38.85840294080875
 20
112.7549642724634
 30
0.0
 10
38.6709855848911
 20
112.6201029503672
 30
0.0
 10
38.54433421055459
 20
112.4745030891266
 30
0.0
 10
38.45597566437431
 20
112.2999604067174
 30
0.0
 10
38.45508310368033
 20
112.175194877196
 30
0.0
 10
38.4547251088953
 20
112.1251530041681
 30
0.0
  0
SPLINE
  5
29E
330
1F
100
AcDbEntity
  8
0
  6
Continuous
 62
     7
370
    25
100
AcDbSpline
210
0.0
220
0.0
230
1.0
 70
     8
 71
     3
 72
    20
 73
    16
 74
     0
 42
0.00000001
 43
0.00000001
 40
0.0
 40
0.0
 40
0.0
 40
0.0
 40
0.011977520541111
 40
0.0646924573951003
 40
0.1159217686785294
 40
0.1721794534646847
 40
0.2427129419264495
 40
0.3425991761342743
 40
0.4489246859702499
 40
0.5610998214996497
 40
0.6677410266970991
 40
0.7718818025875562
 40
0.8747169415660495
 40
0.9710692427343446
 40
1.0
 40
1.0
 40
1.0
 40
1.0
 10
80.43945603966574
 20
112.1247510133776
 30
0.0
 10
80.4415851042978
 20
112.1416316974041
 30
0.0
 10
80.45308451459128
 20
112.2328069058653
 30
0.0
 10
80.39327975286588
 20
112.3937541970767
 30
0.0
 10
80.28613574591355
 20
112.5560712226826
 30
0.0
 10
80.14578764317984
 20
112.6797122801548
 30
0.0
 10
79.96302109717443
 20
112.7898819393597
 30
0.0
 10
79.71356683157963
 20
112.8925987144803
 30
0.0
 10
79.36823642452924
 20
112.9938691208052
 30
0.0
 10
78.94306752937182
 20
113.0860252512339
 30
0.0
 10
78.44857531789943
 20
113.167980497849
 30
0.0
 10
77.9048928366158
 20
113.2384155009232
 30
0.0
 10
77.32427595881438
 20
113.2971403500661
 30
0.0
 10
76.85427332131393
 20
113.3343421570586
 30
0.0
 10
76.5853741822571
 20
113.3517700096459
 30
0.0
 10
76.52327914867283
 20
113.3557945040921
 30
0.0
  0
SPLINE
  5
29F
330
1F
100
AcDbEntity
  8
0
  6
Continuous
 62
     7
370
    25
100
AcDbSpline
210
0.0
220
0.0
230
1.0
 70
     8
 71
     3
 72
    19
 73
    15
 74
     0
 42
0.00000001
 43
0.00000001
 40
0.0
 40
0.0
 40
0.0
 40
0.0
 40
0.0532131603353061
 40
0.1548973750494647
 40
0.2570108440375109
 40
0.3597939369353965
 40
0.4635973632063533
 40
0.5691071122467083
 40
0.6778895881684949
 40
0.7942800126136736
 40
0.8578425430769654
 40
0.9135216509046217
 40
0.965314629916644
 40
1.0
 40
1.0
 40
1.0
 40
1.0
 10
76.52327914867278
 20
106.6539873084807
 30
0.0
 10
76.63701424052347
 20
106.6615149694776
 30
0.0
 10
76.96808398093486
 20
106.683427122812
 30
0.0
 10
77.48725216192486
 20
106.7277048526483
 30
0.0
 10
78.05911498760993
 20
106.7897102520143
 30
0.0
 10
78.57782047724376
 20
106.8614649757354
 30
0.0
 10
79.03917761314992
 20
106.9428240367259
 30
0.0
 10
79.4409752160849
 20
107.0347901784659
 30
0.0
 10
79.78746738313951
 20
107.142656605132
 30
0.0
 10
80.03431402091194
 20
107.2548175401094
 30
0.0
 10
80.22173137682961
 20
107.3896788622056
 30
0.0
 10
80.34838275116611
 20
107.5352787234462
 30
0.0
 10
80.43674129734637
 20
107.7098214058554
 30
0.0
 10
80.43763385804037
 20
107.8345869353768
 30
0.0
 10
80.43799185282538
 20
107.8846288084047
 30
0.0
  0
SPLINE
  5
2A0
330
1F
100
AcDbEntity
  8
0
  6
Continuous
 62
     7
370
    25
100
AcDbSpline
210
0.0
220
0.0
230
1.0
 70
     8
 71
     3
 72
    20
 73
    16
 74
     0
 42
0.00000001
 43
0.00000001
 40
0.0
 40
0.0
 40
0.0
 40
0.0
 40
0.0119775205411159
 40
0.0646924573951049
 40
0.1159217686785346
 40
0.1721794534646948
 40
0.2427129419264629
 40
0.3425991761342927
 40
0.4489246859702729
 40
0.5610998214996776
 40
0.6677410266971229
 40
0.7718818025875797
 40
0.8747169415660726
 40
0.9710692427343697
 40
1.0
 40
1.0
 40
1.0
 40
1.0
 10
38.45326092205492
 20
107.8850307991951
 30
0.0
 10
38.45113185742287
 20
107.8681501151686
 30
0.0
 10
38.43963244712941
 20
107.7769749067074
 30
0.0
 10
38.49943720885481
 20
107.6160276154961
 30
0.0
 10
38.60658121580714
 20
107.4537105898902
 30
0.0
 10
38.74692931854084
 20
107.3300695324179
 30
0.0
 10
38.92969586454628
 20
107.2198998732131
 30
0.0
 10
39.1791501301411
 20
107.1171830980925
 30
0.0
 10
39.52448053719153
 20
107.0159126917676
 30
0.0
 10
39.94964943234896
 20
106.9237565613389
 30
0.0
 10
40.44414164382137
 20
106.8418013147238
 30
0.0
 10
40.987824125105
 20
106.7713663116496
 30
0.0
 10
41.56844100290643
 20
106.7126414625067
 30
0.0
 10
42.03844364040683
 20
106.6754396555142
 30
0.0
 10
42.30734277946362
 20
106.6580118029269
 30
0.0
 10
42.36943781304783
 20
106.6539873084807
 30
0.0
  0
SPLINE
  5
2A1
330
1F
100
AcDbEntity
  8
0
  6
Continuous
 62
     7
370
    25
100
AcDbSpline
210
0.0
220
0.0
230
1.0
 70
     8
 71
     3
 72
    13
 73
     9
 74
     0
 42
0.00000001
 43
0.00000001
 40
0.0
 40
0.0
 40
0.0
 40
0.0
 40
0.1089774222026727
 40
0.3233689965275965
 40
0.5337943118937954
 40
0.7415494424333804
 40
0.9477046951524987
 40
1.0
 40
1.0
 40
1.0
 40
1.0
 10
68.73965504086479
 20
106.9704405343297
 30
0.0
 10
68.81196273404053
 20
106.9553741266297
 30
0.0
 10
69.02652154549766
 20
106.9106675347435
 30
0.0
 10
69.43214879170591
 20
106.8437391170619
 30
0.0
 10
69.97280679623833
 20
106.7730570435024
 30
0.0
 10
70.56328212526257
 20
106.712977207051
 30
0.0
 10
71.03906240748174
 20
106.6753423386234
 30
0.0
 10
71.31383905973227
 20
106.6575811385085
 30
0.0
 10
71.36943781304784
 20
106.6539873084807
 30
0.0
  0
SPLINE
  5
2A2
330
1F
100
AcDbEntity
  8
0
  6
Continuous
 62
     7
370
    25
100
AcDbSpline
210
0.0
220
0.0
230
1.0
 70
     8
 71
     3
 72
    13
 73
     9
 74
     0
 42
0.00000001
 43
0.00000001
 40
0.0
 40
0.0
 40
0.0
 40
0.0
 40
0.1074269576187981
 40
0.3127074888964987
 40
0.5188546005539326
 40
0.7263535518489588
 40
0.9359123565587267
 40
1.0
 40
1.0
 40
1.0
 40
1.0
 10
47.52327914867283
 20
106.6539873084807
 30
0.0
 10
47.63701509036825
 20
106.6615148467028
 30
0.0
 10
47.96808730457969
 20
106.683426642654
 30
0.0
 10
48.48722374603384
 20
106.7277089578151
 30
0.0
 10
49.05922010131285
 20
106.7896950665227
 30
0.0
 10
49.57742418885993
 20
106.8615222264436
 30
0.0
 10
49.9311910074548
 20
106.9234421745509
 30
0.0
 10
50.11096020728294
 20
106.9615222338121
 30
0.0
 10
50.15306192085588
 20
106.9704405343297
 30
0.0
  0
LINE
  5
2A3
330
1F
100
AcDbEntity
  8
0
  6
Continuous
 62
     7
370
    25
100
AcDbLine
 10
50.2211262784
 20
113.0259878211
 30
0.0
 11
50.1530619209
 21
113.0393412782
 31
0.0
  0
LINE
  5
2A4
330
1F
100
AcDbEntity
  8
0
  6
Continuous
 62
     7
370
    25
100
AcDbLine
 10
54.095075484
 20
113.0208135988
 30
0.0
 11
54.040645091
 21
113.01088762
 31
0.0
  0
LINE
  5
2A5
330
1F
100
AcDbEntity
  8
0
  6
Continuous
 62
     7
370
    25
100
AcDbLine
 10
64.8097990374
 20
113.0185882212
 30
0.0
 11
64.7976277285
 21
113.0208092109
 31
0.0
  0
LINE
  5
2A6
330
1F
100
AcDbEntity
  8
0
  6
Continuous
 62
     7
370
    25
100
AcDbLine
 10
68.7396550409
 20
113.0393412782
 30
0.0
 11
68.6335260745
 21
113.0186139048
 31
0.0
  0
LINE
  5
2A7
330
1F
100
AcDbEntity
  8
0
  6
Continuous
 62
     7
370
    25
100
AcDbLine
 10
54.0829179243
 20
106.9911935914
 30
0.0
 11
54.0950892332
 21
106.9889726017
 31
0.0
  0
LINE
  5
2A8
330
1F
100
AcDbEntity
  8
0
  6
Continuous
 62
     7
370
    25
100
AcDbLine
 10
50.1530619209
 20
106.9704405343
 30
0.0
 11
50.2591908872
 21
106.9911679078
 31
0.0
  0
LINE
  5
2A9
330
1F
100
AcDbEntity
  8
0
  6
Continuous
 62
     7
370
    25
100
AcDbLine
 10
68.6715906834
 20
106.9837939914
 30
0.0
 11
68.7396550409
 21
106.9704405343
 31
0.0
  0
LINE
  5
2AA
330
1F
100
AcDbEntity
  8
0
  6
Continuous
 62
     7
370
    25
100
AcDbLine
 10
64.7976414777
 20
106.9889682138
 30
0.0
 11
64.8520718707
 21
106.9988941926
 31
0.0
  0
LINE
  5
2AB
330
1F
100
AcDbEntity
  8
0
  6
Continuous
 62
     7
370
    25
100
AcDbLine
 10
89.4463584809
 20
116.3048909063
 30
0.0
 11
89.4463584809
 21
103.7048909063
 31
0.0
  0
LINE
  5
2AC
330
1F
100
AcDbEntity
  8
0
  6
Continuous
 62
     7
370
    25
100
AcDbLine
 10
87.9463584809
 20
103.7048909063
 30
0.0
 11
87.9463584809
 21
116.3048909063
 31
0.0
  0
LINE
  5
2AD
330
1F
100
AcDbEntity
  8
0
  6
Continuous
 62
     7
370
    25
100
AcDbLine
 10
30.9463584809
 20
116.3048909063
 30
0.0
 11
30.9463584809
 21
103.7048909063
 31
0.0
  0
LINE
  5
2AE
330
1F
100
AcDbEntity
  8
0
  6
Continuous
 62
     7
370
    25
100
AcDbLine
 10
29.4463584809
 20
103.7048909063
 30
0.0
 11
29.4463584809
 21
116.3048909063
 31
0.0
  0
LINE
  5
2AF
330
1F
100
AcDbEntity
  8
0
  6
Continuous
 62
     7
370
    25
100
AcDbLine
 10
45.1463584809
 20
102.8769076232
 30
0.0
 11
45.1463584809
 21
102.0048909063
 31
0.0
  0
LINE
  5
2B0
330
1F
100
AcDbEntity
  8
0
  6
Continuous
 62
     7
370
    25
100
AcDbLine
 10
45.1463584809
 20
118.0048909063
 30
0.0
 11
45.1463584809
 21
113.3612555507
 31
0.0
  0
LINE
  5
2B1
330
1F
100
AcDbEntity
  8
0
  6
Continuous
 62
     7
370
    25
100
AcDbLine
 10
45.1463584809
 20
106.6485262619
 30
0.0
 11
45.1463584809
 21
102.8769076232
 31
0.0
  0
LINE
  5
2B2
330
1F
100
AcDbEntity
  8
0
  6
Continuous
 62
     7
370
    25
100
AcDbLine
 10
44.9463584809
 20
103.0551072052
 30
0.0
 11
44.9463584809
 21
106.6485262619
 31
0.0
  0
LINE
  5
2B3
330
1F
100
AcDbEntity
  8
0
  6
Continuous
 62
     7
370
    25
100
AcDbLine
 10
44.9463584809
 20
113.3612555507
 30
0.0
 11
44.9463584809
 21
117.8048909063
 31
0.0
  0
LINE
  5
2B4
330
1F
100
AcDbEntity
  8
0
  6
Continuous
 62
     7
370
    25
100
AcDbLine
 10
44.9463584809
 20
102.2048909063
 30
0.0
 11
44.9463584809
 21
103.0551072052
 31
0.0
  0
LINE
  5
2B5
330
1F
100
AcDbEntity
  8
0
  6
Continuous
 62
     7
370
    25
100
AcDbLine
 10
32.1463584809
 20
104.2134044887
 30
0.0
 11
32.1463584809
 21
103.5048909063
 31
0.0
  0
LINE
  5
2B6
330
1F
100
AcDbEntity
  8
0
  6
Continuous
 62
     7
370
    25
100
AcDbLine
 10
32.1463584809
 20
116.5048909063
 30
0.0
 11
32.1463584809
 21
104.2134044887
 31
0.0
  0
LINE
  5
2B7
330
1F
100
AcDbEntity
  8
0
  6
Continuous
 62
     7
370
    25
100
AcDbLine
 10
31.9463584809
 20
104.3916040708
 30
0.0
 11
31.9463584809
 21
116.3048909063
 31
0.0
  0
LINE
  5
2B8
330
1F
100
AcDbEntity
  8
0
  6
Continuous
 62
     7
370
    25
100
AcDbLine
 10
31.9463584809
 20
103.7048909063
 30
0.0
 11
31.9463584809
 21
104.3916040708
 31
0.0
  0
LINE
  5
2B9
330
1F
100
AcDbEntity
  8
0
  6
Continuous
 62
     7
370
    25
100
AcDbLine
 10
73.9463584809
 20
117.1787436954
 30
0.0
 11
73.9463584809
 21
113.3612555507
 31
0.0
  0
LINE
  5
2BA
330
1F
100
AcDbEntity
  8
0
  6
Continuous
 62
     7
370
    25
100
AcDbLine
 10
73.9463584809
 20
106.6485262619
 30
0.0
 11
73.9463584809
 21
102.2048909063
 31
0.0
  0
LINE
  5
2BB
330
1F
100
AcDbEntity
  8
0
  6
Continuous
 62
     7
370
    25
100
AcDbLine
 10
73.9463584809
 20
117.8048909063
 30
0.0
 11
73.9463584809
 21
117.1787436954
 31
0.0
  0
LINE
  5
2BC
330
1F
100
AcDbEntity
  8
0
  6
Continuous
 62
     7
370
    25
100
AcDbLine
 10
73.7463584809
 20
117.3626886387
 30
0.0
 11
73.7463584809
 21
118.0048909063
 31
0.0
  0
LINE
  5
2BD
330
1F
100
AcDbEntity
  8
0
  6
Continuous
 62
     7
370
    25
100
AcDbLine
 10
73.7463584809
 20
102.0048909063
 30
0.0
 11
73.7463584809
 21
106.6485262619
 31
0.0
  0
LINE
  5
2BE
330
1F
100
AcDbEntity
  8
0
  6
Continuous
 62
     7
370
    25
100
AcDbLine
 10
73.7463584809
 20
113.3612555507
 30
0.0
 11
73.7463584809
 21
117.3626886387
 31
0.0
  0
LINE
  5
2BF
330
1F
100
AcDbEntity
  8
0
  6
Continuous
 62
     7
370
    25
100
AcDbLine
 10
86.7463584809
 20
115.9831015639
 30
0.0
 11
86.7463584809
 21
116.5048909063
 31
0.0
  0
LINE
  5
2C0
330
1F
100
AcDbEntity
  8
0
  6
Continuous
 62
     7
370
    25
100
AcDbLine
 10
86.7463584809
 20
103.5048909063
 30
0.0
 11
86.7463584809
 21
115.9831015639
 31
0.0
  0
LINE
  5
2C1
330
1F
100
AcDbEntity
  8
0
  6
Continuous
 62
     7
370
    25
100
AcDbLine
 10
86.9463584809
 20
115.7991566206
 30
0.0
 11
86.9463584809
 21
103.7048909063
 31
0.0
  0
LINE
  5
2C2
330
1F
100
AcDbEntity
  8
0
  6
Continuous
 62
     7
370
    25
100
AcDbLine
 10
86.9463584809
 20
116.3048909063
 30
0.0
 11
86.9463584809
 21
115.7991566206
 31
0.0
  0
SPLINE
  5
2C3
330
1F
100
AcDbEntity
  8
0
  6
Continuous
 62
     7
370
    25
100
AcDbSpline
210
0.0
220
0.0
230
1.0
 70
     8
 71
     3
 72
    12
 73
     8
 74
     0
 42
0.00000001
 43
0.00000001
 40
0.0
 40
0.0
 40
0.0
 40
0.0
 40
0.0055634992845846
 40
0.191663199612416
 40
0.6291220910311065
 40
0.8147446662968212
 40
0.9999999999999999
 40
0.9999999999999999
 40
0.9999999999999999
 40
0.9999999999999999
 10
73.94635848086034
 20
107.6485262618514
 30
0.0
 10
73.95155236910207
 20
107.647142276666
 30
0.0
 10
74.13048242515455
 20
107.5994638255203
 30
0.0
 10
74.71772629084242
 20
107.442798212838
 30
0.0
 10
75.47221241768098
 20
107.2627935679746
 30
0.0
 10
76.2109689659707
 20
107.1503668901223
 30
0.0
 10
76.53971780211688
 20
107.1521201627615
 30
0.0
 10
76.70392945741366
 20
107.15299593104
 30
0.0
  0
SPLINE
  5
2C4
330
1F
100
AcDbEntity
  8
0
  6
Continuous
 62
     7
370
    25
100
AcDbSpline
210
0.0
220
0.0
230
1.0
 70
     8
 71
     3
 72
    12
 73
     8
 74
     0
 42
0.00000001
 43
0.00000001
 40
0.0
 40
0.0
 40
0.0
 40
0.0
 40
0.1852553337031795
 40
0.3708779089688943
 40
0.8083368003875847
 40
0.9944365007154153
 40
1.0
 40
1.0
 40
1.0
 40
1.0
 10
71.18878750430702
 20
107.15299593104
 30
0.0
 10
71.35299915960381
 20
107.1521201627615
 30
0.0
 10
71.68174799575
 20
107.1503668901223
 30
0.0
 10
72.4205045440397
 20
107.2627935679746
 30
0.0
 10
73.17499067087826
 20
107.442798212838
 30
0.0
 10
73.76223453656617
 20
107.5994638255203
 30
0.0
 10
73.94116459261862
 20
107.647142276666
 30
0.0
 10
73.94635848086034
 20
107.6485262618514
 30
0.0
  0
ELLIPSE
  5
2C5
330
1F
100
AcDbEntity
  8
0
  6
Continuous
 62
     7
370
    25
100
AcDbEllipse
 10
73.9463584809
 20
107.8844008918
 30
0.0
 11
6.5
 21
0.0
 31
0.0
210
0.0
220
0.0
230
1.0
 40
0.124260355
 41
3.696234591426907
 42
4.274264664245611
  0
LINE
  5
2C6
330
1F
100
AcDbEntity
  8
0
  6
Continuous
 62
     7
370
    25
100
AcDbLine
 10
68.4207795633
 20
112.550743149
 30
0.0
 11
68.4207795633
 21
107.4590386635
 31
0.0
  0
ELLIPSE
  5
2C7
330
1F
100
AcDbEntity
  8
0
  6
Continuous
 62
     7
370
    25
100
AcDbEllipse
 10
73.9463584809
 20
112.1253809208
 30
0.0
 11
6.5
 21
0.0
 31
0.0
210
0.0
220
0.0
230
1.0
 40
0.124260355
 41
2.008920642934005
 42
2.586950715752777
  0
SPLINE
  5
2C8
330
1F
100
AcDbEntity
  8
0
  6
Continuous
 62
     7
370
    25
100
AcDbSpline
210
0.0
220
0.0
230
1.0
 70
     8
 71
     3
 72
    12
 73
     8
 74
     0
 42
0.00000001
 43
0.00000001
 40
0.0
 40
0.0
 40
0.0
 40
0.0
 40
0.0055634992845846
 40
0.1916631996124154
 40
0.6291220910311057
 40
0.8147446662968203
 40
1.0
 40
1.0
 40
1.0
 40
1.0
 10
73.94635848086034
 20
112.3612555507214
 30
0.0
 10
73.94116459261862
 20
112.3626395359068
 30
0.0
 10
73.7622345365662
 20
112.4103179870527
 30
0.0
 10
73.17499067087823
 20
112.5669835997345
 30
0.0
 10
72.42050454403972
 20
112.7469882445982
 30
0.0
 10
71.68174799575
 20
112.8594149224505
 30
0.0
 10
71.3529991596038
 20
112.8576616498113
 30
0.0
 10
71.18878750430702
 20
112.8567858815328
 30
0.0
  0
SPLINE
  5
2C9
330
1F
100
AcDbEntity
  8
0
  6
Continuous
 62
     7
370
    25
100
AcDbSpline
210
0.0
220
0.0
230
1.0
 70
     8
 71
     3
 72
    12
 73
     8
 74
     0
 42
0.00000001
 43
0.00000001
 40
0.0
 40
0.0
 40
0.0
 40
0.0
 40
0.1852553337031779
 40
0.3708779089688934
 40
0.8083368003875839
 40
0.9944365007154156
 40
1.0
 40
1.0
 40
1.0
 40
1.0
 10
76.70392945741366
 20
112.8567858815328
 30
0.0
 10
76.53971780211688
 20
112.8576616498113
 30
0.0
 10
76.2109689659707
 20
112.8594149224505
 30
0.0
 10
75.47221241768098
 20
112.7469882445982
 30
0.0
 10
74.71772629084249
 20
112.5669835997345
 30
0.0
 10
74.13048242515448
 20
112.4103179870527
 30
0.0
 10
73.95155236910207
 20
112.3626395359068
 30
0.0
 10
73.94635848086034
 20
112.3612555507214
 30
0.0
  0
LINE
  5
2CA
330
1F
100
AcDbEntity
  8
0
  6
Continuous
 62
     7
370
    25
100
AcDbLine
 10
42.3694191433
 20
113.3557933247
 30
0.0
 11
42.4009083487
 21
113.3523162123
 31
0.0
  0
SPLINE
  5
2CB
330
1F
100
AcDbEntity
  8
0
  6
Continuous
 62
     7
370
    25
100
AcDbSpline
210
0.0
220
0.0
230
1.0
 70
     8
 71
     3
 72
    12
 73
     8
 74
     0
 42
0.00000001
 43
0.00000001
 40
0.0
 40
0.0
 40
0.0
 40
0.0
 40
0.0055634992845847
 40
0.1916631996124151
 40
0.6291220910311073
 40
0.8147446662968211
 40
1.0
 40
1.0
 40
1.0
 40
1.0
 10
44.94635848086033
 20
112.3612555507214
 30
0.0
 10
44.94116459261861
 20
112.3626395359068
 30
0.0
 10
44.76223453656618
 20
112.4103179870527
 30
0.0
 10
44.17499067087822
 20
112.5669835997345
 30
0.0
 10
43.4205045440397
 20
112.7469882445982
 30
0.0
 10
42.68174799574998
 20
112.8594149224505
 30
0.0
 10
42.3529991596038
 20
112.8576616498113
 30
0.0
 10
42.18878750430702
 20
112.8567858815328
 30
0.0
  0
SPLINE
  5
2CC
330
1F
100
AcDbEntity
  8
0
  6
Continuous
 62
     7
370
    25
100
AcDbSpline
210
0.0
220
0.0
230
1.0
 70
     8
 71
     3
 72
    12
 73
     8
 74
     0
 42
0.00000001
 43
0.00000001
 40
0.0
 40
0.0
 40
0.0
 40
0.0
 40
0.1852553337031798
 40
0.3708779089688949
 40
0.8083368003875823
 40
0.9944365007154161
 40
1.0
 40
1.0
 40
1.0
 40
1.0
 10
47.70392945741366
 20
112.8567858815328
 30
0.0
 10
47.53971780211687
 20
112.8576616498113
 30
0.0
 10
47.21096896597069
 20
112.8594149224505
 30
0.0
 10
46.47221241768096
 20
112.7469882445982
 30
0.0
 10
45.71772629084253
 20
112.5669835997344
 30
0.0
 10
45.13048242515441
 20
112.4103179870528
 30
0.0
 10
44.95155236910205
 20
112.3626395359068
 30
0.0
 10
44.94635848086033
 20
112.3612555507214
 30
0.0
  0
ELLIPSE
  5
2CD
330
1F
100
AcDbEntity
  8
0
  6
Continuous
 62
     7
370
    25
100
AcDbEllipse
 10
44.9463584809
 20
112.1253809208
 30
0.0
 11
6.5
 21
0.0
 31
0.0
210
0.0
220
0.0
230
1.0
 40
0.124260355
 41
0.5546419378370073
 42
1.132672010655782
  0
LINE
  5
2CE
330
1F
100
AcDbEntity
  8
0
  6
Continuous
 62
     7
370
    25
100
AcDbLine
 10
50.4719373984
 20
112.550743149
 30
0.0
 11
50.4719373984
 21
107.4590386635
 31
0.0
  0
ELLIPSE
  5
2CF
330
1F
100
AcDbEntity
  8
0
  6
Continuous
 62
     7
370
    25
100
AcDbEllipse
 10
44.9463584809
 20
107.8844008918
 30
0.0
 11
6.5
 21
0.0
 31
0.0
210
0.0
220
0.0
230
1.0
 40
0.124260355
 41
5.150513296523812
 42
5.728543369342637
  0
SPLINE
  5
2D0
330
1F
100
AcDbEntity
  8
0
  6
Continuous
 62
     7
370
    25
100
AcDbSpline
210
0.0
220
0.0
230
1.0
 70
     8
 71
     3
 72
    12
 73
     8
 74
     0
 42
0.00000001
 43
0.00000001
 40
0.0
 40
0.0
 40
0.0
 40
0.0
 40
0.0055634992845842
 40
0.1916631996124148
 40
0.6291220910311054
 40
0.8147446662968201
 40
0.9999999999999999
 40
0.9999999999999999
 40
0.9999999999999999
 40
0.9999999999999999
 10
44.94635848086033
 20
107.6485262618514
 30
0.0
 10
44.95155236910206
 20
107.647142276666
 30
0.0
 10
45.13048242515453
 20
107.5994638255205
 30
0.0
 10
45.7177262908424
 20
107.4427982128379
 30
0.0
 10
46.47221241768097
 20
107.2627935679747
 30
0.0
 10
47.21096896597069
 20
107.1503668901223
 30
0.0
 10
47.53971780211687
 20
107.1521201627615
 30
0.0
 10
47.70392945741366
 20
107.15299593104
 30
0.0
  0
SPLINE
  5
2D1
330
1F
100
AcDbEntity
  8
0
  6
Continuous
 62
     7
370
    25
100
AcDbSpline
210
0.0
220
0.0
230
1.0
 70
     8
 71
     3
 72
    12
 73
     8
 74
     0
 42
0.00000001
 43
0.00000001
 40
0.0
 40
0.0
 40
0.0
 40
0.0
 40
0.185255333703179
 40
0.3708779089688945
 40
0.8083368003875852
 40
0.9944365007154158
 40
1.0
 40
1.0
 40
1.0
 40
1.0
 10
42.188787504307
 20
107.15299593104
 30
0.0
 10
42.35299915960379
 20
107.1521201627615
 30
0.0
 10
42.68174799574998
 20
107.1503668901223
 30
0.0
 10
43.4205045440397
 20
107.2627935679747
 30
0.0
 10
44.17499067087832
 20
107.4427982128379
 30
0.0
 10
44.76223453656608
 20
107.5994638255205
 30
0.0
 10
44.94116459261861
 20
107.647142276666
 30
0.0
 10
44.94635848086033
 20
107.6485262618514
 30
0.0
  0
LINE
  5
2D2
330
1F
100
AcDbEntity
  8
0
  6
Continuous
 62
     7
370
    25
100
AcDbLine
 10
47.4918086131
 20
113.3523162123
 30
0.0
 11
47.5229613563
 21
113.3558139798
 31
0.0
  0
LINE
  5
2D3
330
1F
100
AcDbEntity
  8
0
  6
Continuous
 62
     7
370
    25
100
AcDbLine
 10
71.3694191433
 20
113.3557933247
 30
0.0
 11
71.4009083487
 21
113.3523162123
 31
0.0
  0
LINE
  5
2D4
330
1F
100
AcDbEntity
  8
0
  6
Continuous
 62
     7
370
    25
100
AcDbLine
 10
76.5232978184
 20
106.6539884879
 30
0.0
 11
76.4918086131
 21
106.6574656002
 31
0.0
  0
LINE
  5
2D5
330
1F
100
AcDbEntity
  8
0
  6
Continuous
 62
     7
370
    25
100
AcDbLine
 10
42.4009083487
 20
106.6574656002
 30
0.0
 11
42.3697556054
 21
106.6539678327
 31
0.0
  0
LINE
  5
2D6
330
1F
100
AcDbEntity
  8
0
  6
Continuous
 62
     7
370
    25
100
AcDbLine
 10
71.4009083487
 20
106.6574656002
 30
0.0
 11
71.3697556054
 21
106.6539678327
 31
0.0
  0
CIRCLE
  5
2D7
330
1F
100
AcDbEntity
  8
0
  6
Continuous
 62
     7
370
    25
100
AcDbCircle
 10
59.4463584809
 20
110.0048909063
 30
0.0
 40
5.584181783769409
  0
CIRCLE
  5
2D8
330
1F
100
AcDbEntity
  8
0
  6
Continuous
 62
     7
370
    25
100
AcDbCircle
 10
59.4463584809
 20
110.0048909063
 30
0.0
 40
5.095107983402499
  0
CIRCLE
  5
2D9
330
1F
100
AcDbEntity
  8
0
  6
Continuous
 62
     7
370
    25
100
AcDbCircle
 10
59.4463584809
 20
110.0048909063
 30
0.0
 40
4.500000000000028
  0
ARC
  5
2DA
330
1F
100
AcDbEntity
  8
0
  6
Continuous
 62
     7
370
    25
100
AcDbCircle
 10
59.4463584809
 20
110.0048909063
 30
0.0
 40
5.925113123340048
100
AcDbArc
 50
210.7429878176
 51
329.2570121825
  0
ARC
  5
2DB
330
1F
100
AcDbEntity
  8
0
  6
Continuous
 62
     7
370
    25
100
AcDbCircle
 10
59.4463584809
 20
110.0048909063
 30
0.0
 40
5.925113123340048
100
AcDbArc
 50
180.0
 51
210.7429878176
  0
ARC
  5
2DC
330
1F
100
AcDbEntity
  8
0
  6
Continuous
 62
     7
370
    25
100
AcDbCircle
 10
59.4463584809
 20
110.0048909063
 30
0.0
 40
5.925113123340047
100
AcDbArc
 50
149.2570121825
 51
180.0
  0
ARC
  5
2DD
330
1F
100
AcDbEntity
  8
0
  6
Continuous
 62
     7
370
    25
100
AcDbCircle
 10
59.4463584809
 20
110.0048909063
 30
0.0
 40
5.925113123340041
100
AcDbArc
 50
30.7429878175
 51
149.2570121825
  0
ARC
  5
2DE
330
1F
100
AcDbEntity
  8
0
  6
Continuous
 62
     7
370
    25
100
AcDbCircle
 10
59.4463584809
 20
110.0048909063
 30
0.0
 40
5.925113123340041
100
AcDbArc
 50
0.0
 51
30.7429878175
  0
ARC
  5
2DF
330
1F
100
AcDbEntity
  8
0
  6
Continuous
 62
     7
370
    25
100
AcDbCircle
 10
59.4463584809
 20
110.0048909063
 30
0.0
 40
5.925113123340048
100
AcDbArc
 50
329.2570121825
 51
0.0
  0
ELLIPSE
  5
2E0
330
1F
100
AcDbEntity
  8
0
  6
Continuous
 62
     7
370
    25
100
AcDbEllipse
 10
52.1721155269
 20
112.7279774108
 30
0.0
 11
2.0
 21
0.0
 31
0.0
210
0.0
220
0.0
230
1.0
 40
0.1682692308
 41
3.69623459142691
 42
5.452764150231705
  0
SPLINE
  5
2E1
330
1F
100
AcDbEntity
  8
0
  6
Continuous
 62
     7
370
    25
100
AcDbSpline
210
0.0
220
0.0
230
1.0
 70
     8
 71
     3
 72
    12
 73
     8
 74
     0
 42
0.00000001
 43
0.00000001
 40
0.0
 40
0.0
 40
0.0
 40
0.0
 40
0.2571943124574411
 40
0.5245503439757947
 40
0.7385170215182971
 40
0.8882338470637767
 40
1.0
 40
1.0
 40
1.0
 40
1.0
 10
54.23674025025386
 20
113.0337370601326
 30
0.0
 10
54.15204197273273
 20
113.0251217858897
 30
0.0
 10
53.97929899804032
 20
113.007550848864
 30
0.0
 10
53.76007396927548
 20
112.8890404431361
 30
0.0
 10
53.61069419389611
 20
112.7430522984571
 30
0.0
 10
53.53329767730204
 20
112.6024698354676
 30
0.0
 10
53.52485431813822
 20
112.5163498956988
 30
0.0
 10
53.52124535752029
 20
112.4795394906202
 30
0.0
  0
ELLIPSE
  5
2E2
330
1F
100
AcDbEntity
  8
0
  6
Continuous
 62
     7
370
    25
100
AcDbEllipse
 10
52.1721155269
 20
113.2235077416
 30
0.0
 11
2.5
 21
0.0
 31
0.0
210
0.0
220
0.0
230
1.0
 40
0.1346153846
 41
3.758597353714985
 42
5.582829206150801
  0
ELLIPSE
  5
2E3
330
1F
100
AcDbEntity
  8
0
  6
Continuous
 62
     7
370
    25
100
AcDbEllipse
 10
66.7206014348
 20
112.7279774108
 30
0.0
 11
2.0
 21
0.0
 31
0.0
210
0.0
220
0.0
230
1.0
 40
0.1682692308
 41
3.972013810537745
 42
5.728543369342614
  0
SPLINE
  5
2E4
330
1F
100
AcDbEntity
  8
0
  6
Continuous
 62
     7
370
    25
100
AcDbSpline
210
0.0
220
0.0
230
1.0
 70
     8
 71
     3
 72
    12
 73
     8
 74
     0
 42
0.00000001
 43
0.00000001
 40
0.0
 40
0.0
 40
0.0
 40
0.0
 40
0.1443005026356243
 40
0.2873275205918756
 40
0.5201185386439744
 40
0.7602843466484758
 40
1.0
 40
1.0
 40
1.0
 40
1.0
 10
65.37147160420038
 20
112.4795394906202
 30
0.0
 10
65.36548734417588
 20
112.5271109410662
 30
0.0
 10
65.35357163657952
 20
112.6218340131134
 30
0.0
 10
65.26018641438314
 20
112.7698909764395
 30
0.0
 10
65.10742847098147
 20
112.9053905729779
 30
0.0
 10
64.8929625557932
 20
113.0112862540826
 30
0.0
 10
64.73492257623846
 20
113.0262581395942
 30
0.0
 10
64.65597671146682
 20
113.0337370601326
 30
0.0
  0
ELLIPSE
  5
2E5
330
1F
100
AcDbEntity
  8
0
  6
Continuous
 62
     7
370
    25
100
AcDbEllipse
 10
66.7206014348
 20
113.2235077416
 30
0.0
 11
2.5
 21
0.0
 31
0.0
210
0.0
220
0.0
230
1.0
 40
0.1346153846
 41
3.823965729593713
 42
5.634717552490853
  0
ELLIPSE
  5
2E6
330
1F
100
AcDbEntity
  8
0
  6
Continuous
 62
     7
370
    25
100
AcDbEllipse
 10
66.7206014348
 20
107.2818044018
 30
0.0
 11
2.0
 21
0.0
 31
0.0
210
0.0
220
0.0
230
1.0
 40
0.1682692308
 41
0.5546419378370153
 42
2.311171496641902
  0
LINE
  5
2E7
330
1F
100
AcDbEntity
  8
0
  6
Continuous
 62
     7
370
    25
100
AcDbLine
 10
65.3714716042
 20
110.0048909063
 30
0.0
 11
65.3714716042
 21
107.530242322
 31
0.0
  0
LINE
  5
2E8
330
1F
100
AcDbEntity
  8
0
  6
Continuous
 62
     7
370
    25
100
AcDbLine
 10
65.3714716042
 20
112.4795394906
 30
0.0
 11
65.3714716042
 21
110.0048909063
 31
0.0
  0
LINE
  5
2E9
330
1F
100
AcDbEntity
  8
0
  6
Continuous
 62
     7
370
    25
100
AcDbLine
 10
53.5212453575
 20
110.0048909063
 30
0.0
 11
53.5212453575
 21
107.530242322
 31
0.0
  0
ELLIPSE
  5
2EA
330
1F
100
AcDbEntity
  8
0
  6
Continuous
 62
     7
370
    25
100
AcDbEllipse
 10
52.1721155269
 20
107.2818044018
 30
0.0
 11
2.0
 21
-1.421085471520200E-14
 31
0.0
210
0.0
220
0.0
230
1.0
 40
0.1682692308
 41
0.8304211569478624
 42
2.58695071575286
  0
LINE
  5
2EB
330
1F
100
AcDbEntity
  8
0
  6
Continuous
 62
     7
370
    25
100
AcDbLine
 10
53.5212453575
 20
112.4795394906
 30
0.0
 11
53.5212453575
 21
110.0048909063
 31
0.0
  0
SPLINE
  5
2EC
330
1F
100
AcDbEntity
  8
0
  6
Continuous
 62
     7
370
    25
100
AcDbSpline
210
0.0
220
0.0
230
1.0
 70
     8
 71
     3
 72
    12
 73
     8
 74
     0
 42
0.00000001
 43
0.00000001
 40
0.0
 40
0.0
 40
0.0
 40
0.0
 40
0.1443005026356249
 40
0.2873275205918763
 40
0.520118538643975
 40
0.7602843466484801
 40
1.0
 40
1.0
 40
1.0
 40
1.0
 10
53.52124535752029
 20
107.5302423219526
 30
0.0
 10
53.52722961754479
 20
107.4826708715066
 30
0.0
 10
53.53914532514117
 20
107.3879477994594
 30
0.0
 10
53.63253054733753
 20
107.2398908361333
 30
0.0
 10
53.78528849073921
 20
107.1043912395949
 30
0.0
 10
53.99975440592748
 20
106.9984955584902
 30
0.0
 10
54.15779438548223
 20
106.9835236729786
 30
0.0
 10
54.23674025025386
 20
106.9760447524402
 30
0.0
  0
ELLIPSE
  5
2ED
330
1F
100
AcDbEntity
  8
0
  6
Continuous
 62
     7
370
    25
100
AcDbEllipse
 10
52.1721155269
 20
106.786274071
 30
0.0
 11
2.5
 21
0.0
 31
0.0
210
0.0
220
0.0
230
1.0
 40
0.1346153846
 41
0.6823730760038926
 42
2.493124898900991
  0
SPLINE
  5
2EE
330
1F
100
AcDbEntity
  8
0
  6
Continuous
 62
     7
370
    25
100
AcDbSpline
210
0.0
220
0.0
230
1.0
 70
     8
 71
     3
 72
    12
 73
     8
 74
     0
 42
0.00000001
 43
0.00000001
 40
0.0
 40
0.0
 40
0.0
 40
0.0
 40
0.2571943124574413
 40
0.5245503439757959
 40
0.7385170215182981
 40
0.8882338470637772
 40
1.0
 40
1.0
 40
1.0
 40
1.0
 10
64.65597671146682
 20
106.9760447524402
 30
0.0
 10
64.74067498898795
 20
106.9846600266831
 30
0.0
 10
64.91341796368036
 20
107.0022309637088
 30
0.0
 10
65.13264299244518
 20
107.1207413694367
 30
0.0
 10
65.28202276782457
 20
107.2667295141157
 30
0.0
 10
65.35941928441864
 20
107.4073119771052
 30
0.0
 10
65.36786264358246
 20
107.493431916874
 30
0.0
 10
65.37147160420038
 20
107.5302423219526
 30
0.0
  0
ELLIPSE
  5
2EF
330
1F
100
AcDbEntity
  8
0
  6
Continuous
 62
     7
370
    25
100
AcDbEllipse
 10
66.7206014348
 20
106.786274071
 30
0.0
 11
2.5
 21
0.0
 31
0.0
210
0.0
220
0.0
230
1.0
 40
0.1346153846
 41
0.6170047001251469
 42
2.441236552560923
  0
ARC
  5
2F0
330
1F
100
AcDbEntity
  8
0
  6
Continuous
 62
     7
370
    25
100
AcDbCircle
 10
59.4463584809
 20
110.0048909063
 30
0.0
 40
7.999999999999982
100
AcDbArc
 50
21.1234840263
 51
158.8765159737
  0
LINE
  5
2F1
330
1F
100
AcDbEntity
  8
0
  6
Continuous
 62
     7
370
    25
100
AcDbLine
 10
64.5388094134
 20
113.0337370601
 30
0.0
 11
64.6559767115
 21
113.0337370601
 31
0.0
  0
LINE
  5
2F2
330
1F
100
AcDbEntity
  8
0
  6
Continuous
 62
     7
370
    25
100
AcDbLine
 10
54.2367402503
 20
113.0337370601
 30
0.0
 11
54.3539075483
 21
113.0337370601
 31
0.0
  0
LINE
  5
2F3
330
1F
100
AcDbEntity
  8
0
  6
Continuous
 62
     7
370
    25
100
AcDbLine
 10
54.3539075483
 20
106.9760447524
 30
0.0
 11
54.2367402503
 21
106.9760447524
 31
0.0
  0
LINE
  5
2F4
330
1F
100
AcDbEntity
  8
0
  6
Continuous
 62
     7
370
    25
100
AcDbLine
 10
64.6559767115
 20
106.9760447524
 30
0.0
 11
64.5388094134
 21
106.9760447524
 31
0.0
  0
ARC
  5
2F5
330
1F
100
AcDbEntity
  8
0
  6
Continuous
 62
     7
370
    25
100
AcDbCircle
 10
59.4463584809
 20
110.0048909063
 30
0.0
 40
7.999999999999987
100
AcDbArc
 50
201.1234840263
 51
338.8765159737
  0
LINE
  5
2F6
330
1F
100
AcDbEntity
  8
0
  6
Continuous
 62
     7
370
    25
100
AcDbLine
 10
57.2088744593
 20
109.0296183613
 30
0.0
 11
57.1760789323
 21
109.0483624005
 31
0.0
  0
SPLINE
  5
2F7
330
1F
100
AcDbEntity
  8
0
  6
Continuous
 62
     7
370
    25
100
AcDbSpline
210
0.0
220
0.0
230
1.0
 70
     8
 71
     3
 72
    15
 73
    11
 74
     0
 42
0.00000001
 43
0.00000001
 40
0.0
 40
0.0
 40
0.0
 40
0.0
 40
0.1241930067305288
 40
0.2496556654892301
 40
0.3743703853151213
 40
0.4998404796364205
 40
0.6240146704162366
 40
0.7475381382242064
 40
0.8745858500551822
 40
1.0
 40
1.0
 40
1.0
 40
1.0
 10
57.98916418099087
 20
109.3020580118722
 30
0.0
 10
57.97360378588117
 20
109.2662108091283
 30
0.0
 10
57.94232391836965
 20
109.1941499299164
 30
0.0
 10
57.86488755888128
 20
109.1042744165736
 30
0.0
 10
57.77153355514236
 20
109.0319506387792
 30
0.0
 10
57.66430794912139
 20
108.9830232202747
 30
0.0
 10
57.54992203840046
 20
108.9566951668199
 30
0.0
 10
57.43225127551513
 20
108.9558360728173
 30
0.0
 10
57.31536755028992
 20
108.9772188334469
 30
0.0
 10
57.24421869939519
 20
109.0122273599077
 30
0.0
 10
57.20887445931177
 20
109.0296183612891
 30
0.0
  0
LINE
  5
2F8
330
1F
100
AcDbEntity
  8
0
  6
Continuous
 62
     7
370
    25
100
AcDbLine
 10
58.9810182257
 20
112.0756372278
 30
0.0
 11
57.989164181
 21
109.3020580119
 31
0.0
  0
SPLINE
  5
2F9
330
1F
100
AcDbEntity
  8
0
  6
Continuous
 62
     7
370
    25
100
AcDbSpline
210
0.0
220
0.0
230
1.0
 70
     8
 71
     3
 72
    15
 73
    11
 74
     0
 42
0.00000001
 43
0.00000001
 40
0.0
 40
0.0
 40
0.0
 40
0.0
 40
0.1233025178081761
 40
0.2485158700387113
 40
0.3756924668130946
 40
0.4999990880429329
 40
0.6243057092728392
 40
0.751482306047304
 40
0.8766757256079954
 40
1.0
 40
1.0
 40
1.0
 40
1.0
 10
59.91169873921201
 20
112.0756372277855
 30
0.0
 10
59.88754776724965
 20
112.1162823637213
 30
0.0
 10
59.83887155271491
 20
112.1982025183092
 30
0.0
 10
59.7235208945098
 20
112.2880214741216
 30
0.0
 10
59.59036127224793
 20
112.3455956222828
 30
0.0
 10
59.44635862887914
 20
112.3647543179529
 30
0.0
 10
59.30235510018065
 20
112.3455962150678
 30
0.0
 10
59.16920522721514
 20
112.2880221013293
 30
0.0
 10
59.05384286968072
 20
112.1982165391826
 30
0.0
 10
59.00517108400953
 20
112.1162916076578
 30
0.0
 10
58.98101822569271
 20
112.0756372277856
 30
0.0
  0
LINE
  5
2FA
330
1F
100
AcDbEntity
  8
0
  6
Continuous
 62
     7
370
    25
100
AcDbLine
 10
60.9033216456
 20
109.3027043574
 30
0.0
 11
59.9116987392
 21
112.0756372278
 31
0.0
  0
SPLINE
  5
2FB
330
1F
100
AcDbEntity
  8
0
  6
Continuous
 62
     7
370
    25
100
AcDbSpline
210
0.0
220
0.0
230
1.0
 70
     8
 71
     3
 72
    15
 73
    11
 74
     0
 42
0.00000001
 43
0.00000001
 40
0.0
 40
0.0
 40
0.0
 40
0.0
 40
0.1253320172137756
 40
0.252297512925176
 40
0.3758847553984063
 40
0.5001929511416489
 40
0.6255758307380155
 40
0.7502289462456486
 40
0.8757444935777828
 40
1.0
 40
1.0
 40
1.0
 40
1.0
 10
61.67602341012584
 20
109.0260085068312
 30
0.0
 10
61.64077249349785
 20
109.0093341983485
 30
0.0
 10
61.56981122764346
 20
108.9757682616192
 30
0.0
 10
61.45382433685508
 20
108.955986645365
 30
0.0
 10
61.3372279706147
 20
108.9580594257116
 30
0.0
 10
61.22410736403322
 20
108.9851374520622
 30
0.0
 10
61.11823164969378
 20
109.0343502677694
 30
0.0
 10
61.02612256507462
 20
109.1064360316433
 30
0.0
 10
60.94969090120622
 20
109.1957235531427
 30
0.0
 10
60.91872599370693
 20
109.2671642235797
 30
0.0
 10
60.90332164558568
 20
109.3027043574378
 30
0.0
  0
LINE
  5
2FC
330
1F
100
AcDbEntity
  8
0
  6
Continuous
 62
     7
370
    25
100
AcDbLine
 10
61.7166380326
 20
109.0483624005
 30
0.0
 11
61.6760234101
 21
109.0260085068
 31
0.0
  0
LINE
  5
2FD
330
1F
100
AcDbEntity
  8
0
  6
Continuous
 62
     7
370
    25
100
AcDbLine
 10
61.0896548361
 20
107.8529512971
 30
0.0
 11
61.7166380326
 21
109.0483624005
 31
0.0
  0
SPLINE
  5
2FE
330
1F
100
AcDbEntity
  8
0
  6
Continuous
 62
     7
370
    25
100
AcDbSpline
210
0.0
220
0.0
230
1.0
 70
     8
 71
     3
 72
    15
 73
    11
 74
     0
 42
0.00000001
 43
0.00000001
 40
0.0
 40
0.0
 40
0.0
 40
0.0
 40
0.124633218643854
 40
0.2519059530189772
 40
0.3765391000744918
 40
0.4994035903146518
 40
0.6264494152300148
 40
0.7526064410610419
 40
0.874680437736327
 40
1.0
 40
1.0
 40
1.0
 40
1.0
 10
60.9844263473168
 20
107.8348341303337
 30
0.0
 10
60.98844082298495
 20
107.8317288954811
 30
0.0
 10
60.99655479396363
 20
107.8254526622793
 30
0.0
 10
61.01099338580017
 20
107.8198396487994
 30
0.0
 10
61.02612683573325
 20
107.8173032961726
 30
0.0
 10
61.04148937801502
 20
107.8181886997405
 30
0.0
 10
61.05641995685171
 20
107.8223197702561
 30
0.0
 10
61.06992185688101
 20
107.829810470202
 30
0.0
 10
61.08160751176742
 20
107.8399490521163
 30
0.0
 10
61.08694903610821
 20
107.8485794744591
 30
0.0
 10
61.08965483610995
 20
107.8529512970514
 30
0.0
  0
SPLINE
  5
2FF
330
1F
100
AcDbEntity
  8
0
  6
Continuous
 62
     7
370
    25
100
AcDbSpline
210
0.0
220
0.0
230
1.0
 70
     8
 71
     3
 72
    11
 73
     7
 74
     0
 42
0.00000001
 43
0.00000001
 40
0.0
 40
0.0
 40
0.0
 40
0.0
 40
0.2506252605986011
 40
0.4999999999996215
 40
0.7493747394010042
 40
1.0
 40
1.0
 40
1.0
 40
1.0
 10
57.90829061758792
 20
107.8348341303337
 30
0.0
 10
58.13801831176123
 20
107.9976884222947
 30
0.0
 10
58.59632744952421
 20
108.3225844275335
 30
0.0
 10
59.44635848246033
 20
108.4563163744706
 30
0.0
 10
60.29638951539057
 20
108.3225844275284
 30
0.0
 10
60.75469865314684
 20
107.997688422293
 30
0.0
 10
60.9844263473168
 20
107.8348341303337
 30
0.0
  0
SPLINE
  5
300
330
1F
100
AcDbEntity
  8
0
  6
Continuous
 62
     7
370
    25
100
AcDbSpline
210
0.0
220
0.0
230
1.0
 70
     8
 71
     3
 72
    15
 73
    11
 74
     0
 42
0.00000001
 43
0.00000001
 40
0.0
 40
0.0
 40
0.0
 40
0.0
 40
0.1253191957979138
 40
0.2473928354984065
 40
0.3734492416489706
 40
0.5005950046079967
 40
0.6235484391777611
 40
0.7480947836179483
 40
0.8753671458153899
 40
1.0
 40
1.0
 40
1.0
 40
1.0
 10
57.80306212879471
 20
107.8529512970514
 30
0.0
 10
57.80576792512714
 20
107.8485794687674
 30
0.0
 10
57.81110944222433
 20
107.8399490351887
 30
0.0
 10
57.8227920148134
 20
107.8298132576889
 30
0.0
 10
57.83629299480067
 20
107.8223211418153
 30
0.0
 10
57.85122702365073
 20
107.8181886965231
 30
0.0
 10
57.86659403483978
 20
107.8173007547496
 30
0.0
 10
57.881726771278
 20
107.8198416970071
 30
0.0
 10
57.89616220105967
 20
107.8254524752743
 30
0.0
 10
57.90427615188892
 20
107.8317288335831
 30
0.0
 10
57.9082906175879
 20
107.8348341303337
 30
0.0
  0
LINE
  5
301
330
1F
100
AcDbEntity
  8
0
  6
Continuous
 62
     7
370
    25
100
AcDbLine
 10
57.1760789323
 20
109.0483624005
 30
0.0
 11
57.8030621288
 21
107.8529512971
 31
0.0
  0
SPLINE
  5
302
330
1F
100
AcDbEntity
  8
0
  6
Continuous
 62
     7
370
    25
100
AcDbSpline
210
0.0
220
0.0
230
1.0
 70
     8
 71
     3
 72
    15
 73
    11
 74
     0
 42
0.00000001
 43
0.00000001
 40
0.0
 40
0.0
 40
0.0
 40
0.0
 40
0.1233867499278388
 40
0.2487396502211602
 40
0.3739317114754985
 40
0.4999973617625659
 40
0.6259591330513601
 40
0.7512551380600303
 40
0.8765613478174267
 40
1.0
 40
1.0
 40
1.0
 40
1.0
 10
59.38347561605426
 20
110.0263003644292
 30
0.0
 10
59.38635381724612
 20
110.0323151605122
 30
0.0
 10
59.39215608335776
 20
110.0444405976008
 30
0.0
 10
59.40768548807851
 20
110.0578318579509
 30
0.0
 10
59.42604006995195
 20
110.0667095695309
 30
0.0
 10
59.44635288643487
 20
110.0694662328273
 30
0.0
 10
59.46667130414998
 20
110.0667115516267
 30
0.0
 10
59.48502417331408
 20
110.0578358533372
 30
0.0
 10
59.50056227770959
 20
110.0444454860835
 30
0.0
 10
59.50636283974087
 20
110.0323183885375
 30
0.0
 10
59.50924134566642
 20
110.0263003644292
 30
0.0
  0
LINE
  5
303
330
1F
100
AcDbEntity
  8
0
  6
Continuous
 62
     7
370
    25
100
AcDbLine
 10
59.1443620903
 20
109.3880463352
 30
0.0
 11
59.3834756161
 21
110.0263003644
 31
0.0
  0
SPLINE
  5
304
330
1F
100
AcDbEntity
  8
0
  6
Continuous
 62
     7
370
    25
100
AcDbSpline
210
0.0
220
0.0
230
1.0
 70
     8
 71
     3
 72
    15
 73
    11
 74
     0
 42
0.00000001
 43
0.00000001
 40
0.0
 40
0.0
 40
0.0
 40
0.0
 40
0.1261585224210644
 40
0.2513121451548803
 40
0.3762846848783795
 40
0.4993062783340879
 40
0.6261594278645743
 40
0.7521171342021308
 40
0.8758196922692789
 40
1.0
 40
1.0
 40
1.0
 40
1.0
 10
59.20724495518257
 20
109.3029819818066
 30
0.0
 10
59.2020138586939
 20
109.303304288399
 30
0.0
 10
59.19159333335124
 20
109.3039463342915
 30
0.0
 10
59.17680678283684
 20
109.3093945746667
 30
0.0
 10
59.16361643021134
 20
109.3176171772523
 30
0.0
 10
59.15274585537007
 20
109.3288737835649
 30
0.0
 10
59.14473826804154
 20
109.342394528906
 30
0.0
 10
59.14057164100884
 20
109.3575314164828
 30
0.0
 10
59.13995058949723
 20
109.3732205480539
 30
0.0
 10
59.14288970185198
 20
109.3830980604126
 30
0.0
 10
59.14436209033472
 20
109.3880463351566
 30
0.0
  0
LINE
  5
305
330
1F
100
AcDbEntity
  8
0
  6
Continuous
 62
     7
370
    25
100
AcDbLine
 10
59.6854720093
 20
109.3029819818
 30
0.0
 11
59.2072449552
 21
109.3029819818
 31
0.0
  0
SPLINE
  5
306
330
1F
100
AcDbEntity
  8
0
  6
Continuous
 62
     7
370
    25
100
AcDbSpline
210
0.0
220
0.0
230
1.0
 70
     8
 71
     3
 72
    15
 73
    11
 74
     0
 42
0.00000001
 43
0.00000001
 40
0.0
 40
0.0
 40
0.0
 40
0.0
 40
0.1241186784437694
 40
0.2478474916628982
 40
0.3736574149478942
 40
0.5005082335853298
 40
0.6234527658309924
 40
0.7484986612277525
 40
0.873697649245277
 40
1.0
 40
1.0
 40
1.0
 40
1.0
 10
59.74835487411192
 20
109.3880463353797
 30
0.0
 10
59.74982594672074
 20
109.3831004897216
 30
0.0
 10
59.75276347119912
 20
109.3732243336434
 30
0.0
 10
59.75214673669903
 20
109.3575429380177
 30
0.0
 10
59.74798477510441
 20
109.3424104059374
 30
0.0
 10
59.73998602730603
 20
109.328895498323
 30
0.0
 10
59.72911993576921
 20
109.317635437127
 30
0.0
 10
59.71593221794458
 20
109.3094057246935
 30
0.0
 10
59.70113777136937
 20
109.3039461543085
 30
0.0
 10
59.69070918046204
 20
109.3033043112515
 30
0.0
 10
59.68547200934763
 20
109.3029819818066
 30
0.0
  0
LINE
  5
307
330
1F
100
AcDbEntity
  8
0
  6
Continuous
 62
     7
370
    25
100
AcDbLine
 10
59.5092413457
 20
110.0263003644
 30
0.0
 11
59.7483548741
 21
109.3880463354
 31
0.0
  0
SPLINE
  5
308
330
1F
100
AcDbEntity
  8
0
  6
Continuous
 62
     7
370
    25
100
AcDbSpline
210
0.0
220
0.0
230
1.0
 70
     8
 71
     3
 72
     9
 73
     5
 74
     0
 42
0.00000001
 43
0.00000001
 40
0.0
 40
0.0
 40
0.0
 40
0.0
 40
0.5312477413782482
 40
1.0
 40
1.0
 40
1.0
 40
1.0
 10
70.94635848086034
 20
114.2548909062864
 30
0.0
 10
70.94696250672878
 20
114.0887121591033
 30
0.0
 10
70.94809950143275
 20
113.7759037756701
 30
0.0
 10
70.9030959393916
 20
113.4655851131934
 30
0.0
 10
70.8820004180388
 20
113.320122539265
 30
0.0
  0
LINE
  5
309
330
1F
100
AcDbEntity
  8
0
  6
Continuous
 62
     7
370
    25
100
AcDbLine
 10
70.9463584809
 20
114.2548909063
 30
0.0
 11
70.9463584809
 21
113.3441779129
 31
0.0
  0
LINE
  5
30A
330
1F
100
AcDbEntity
  8
0
  6
Continuous
 62
     7
370
    25
100
AcDbLine
 10
70.9463584809
 20
106.6679263836
 30
0.0
 11
70.9463584809
 21
105.7548909063
 31
0.0
  0
LINE
  5
30B
330
1F
100
AcDbEntity
  8
0
  6
Continuous
 62
     7
370
    25
100
AcDbLine
 10
70.9031021456
 20
106.6884688233
 30
0.0
 11
70.9463584809
 21
105.7548909063
 31
0.0
  0
SPLINE
  5
30C
330
1F
100
AcDbEntity
  8
0
  6
Continuous
 62
     7
370
    25
100
AcDbSpline
210
0.0
220
0.0
230
1.0
 70
     8
 71
     3
 72
     9
 73
     5
 74
     0
 42
0.00000001
 43
0.00000001
 40
0.0
 40
0.0
 40
0.0
 40
0.0
 40
0.5312477413783331
 40
1.0
 40
1.0
 40
1.0
 40
1.0
 10
47.94635848086034
 20
105.7548909062864
 30
0.0
 10
47.9457544549919
 20
105.9210696534695
 30
0.0
 10
47.94461746028793
 20
106.2338780369027
 30
0.0
 10
47.98962102232906
 20
106.5441966993793
 30
0.0
 10
48.01071654368187
 20
106.6896592733077
 30
0.0
  0
LINE
  5
30D
330
1F
100
AcDbEntity
  8
0
  6
Continuous
 62
     7
370
    25
100
AcDbLine
 10
47.9463584809
 20
114.2548909063
 30
0.0
 11
47.9463584809
 21
113.3433275594
 31
0.0
  0
LINE
  5
30E
330
1F
100
AcDbEntity
  8
0
  6
Continuous
 62
     7
370
    25
100
AcDbLine
 10
47.9463584809
 20
106.6670746269
 30
0.0
 11
47.9463584809
 21
105.7548909063
 31
0.0
  0
LINE
  5
30F
330
1F
100
AcDbEntity
  8
0
  6
Continuous
 62
     7
370
    25
100
AcDbLine
 10
47.9896148161
 20
113.3213129893
 30
0.0
 11
47.9463584809
 21
114.2548909063
 31
0.0
  0
SPLINE
  5
310
330
1F
100
AcDbEntity
  8
0
  6
Continuous
 62
     7
370
    25
100
AcDbSpline
210
0.0
220
0.0
230
1.0
 70
     8
 71
     3
 72
     9
 73
     5
 74
     0
 42
0.00000001
 43
0.00000001
 40
0.0
 40
0.0
 40
0.0
 40
0.0
 40
0.3973273920283519
 40
1.0
 40
1.0
 40
1.0
 40
1.0
 10
65.51697996237344
 20
115.1677038626132
 30
0.0
 10
65.55037053174878
 20
115.582980388233
 30
0.0
 10
65.63440845625456
 20
116.6281550576657
 30
0.0
 10
65.93994274156671
 20
117.643169503242
 30
0.0
 10
66.12407988612053
 20
118.2548909062864
 30
0.0
  0
LINE
  5
311
330
1F
100
AcDbEntity
  8
0
  6
Continuous
 62
     7
370
    25
100
AcDbLine
 10
70.2686370756
 20
118.2548909063
 30
0.0
 11
66.1240798861
 21
118.2548909063
 31
0.0
  0
SPLINE
  5
312
330
1F
100
AcDbEntity
  8
0
  6
Continuous
 62
     7
370
    25
100
AcDbSpline
210
0.0
220
0.0
230
1.0
 70
     8
 71
     3
 72
    10
 73
     6
 74
     0
 42
0.00000001
 43
0.00000001
 40
0.0
 40
0.0
 40
0.0
 40
0.0
 40
0.5
 40
0.5
 40
1.0
 40
1.0
 40
1.0
 40
1.0
 10
70.26863707560061
 20
118.2548909062864
 30
0.0
 10
70.47744700026686
 20
117.5988781396813
 30
0.0
 10
70.64798114001412
 20
116.9386112328236
 30
0.0
 10
70.88276694503305
 20
115.6062647141886
 30
0.0
 10
70.94635848086034
 20
114.9341117327013
 30
0.0
 10
70.94635848086034
 20
114.2548909062864
 30
0.0
  0
SPLINE
  5
313
330
1F
100
AcDbEntity
  8
0
  6
Continuous
 62
     7
370
    25
100
AcDbSpline
210
0.0
220
0.0
230
1.0
 70
     8
 71
     3
 72
    12
 73
     8
 74
     0
 42
0.00000001
 43
0.00000001
 40
0.0
 40
0.0
 40
0.0
 40
0.0
 40
0.2500000000000001
 40
0.2500000000000001
 40
0.5000000000000002
 40
0.5000000000000002
 40
1.0
 40
1.0
 40
1.0
 40
1.0
 10
47.94635848086034
 20
114.2548909062864
 30
0.0
 10
47.94635848086034
 20
114.5926468413092
 30
0.0
 10
47.96210481088229
 20
114.9330548561877
 30
0.0
 10
48.02354983546772
 20
115.6075495405881
 30
0.0
 10
48.06913859472146
 20
115.9426748594553
 30
0.0
 10
48.24558959697806
 20
116.9423861777955
 30
0.0
 10
48.41604729894154
 20
117.6013202808607
 30
0.0
 10
48.62407988612038
 20
118.2548909062864
 30
0.0
  0
LINE
  5
314
330
1F
100
AcDbEntity
  8
0
  6
Continuous
 62
     7
370
    25
100
AcDbLine
 10
52.7686370756
 20
118.2548909063
 30
0.0
 11
48.6240798861
 21
118.2548909063
 31
0.0
  0
SPLINE
  5
315
330
1F
100
AcDbEntity
  8
0
  6
Continuous
 62
     7
370
    25
100
AcDbSpline
210
0.0
220
0.0
230
1.0
 70
     8
 71
     3
 72
    10
 73
     6
 74
     0
 42
0.00000001
 43
0.00000001
 40
0.0
 40
0.0
 40
0.0
 40
0.0
 40
0.6445902043332505
 40
0.9726087852067521
 40
0.9999999999999999
 40
0.9999999999999999
 40
0.9999999999999999
 40
0.9999999999999999
 10
52.76863707560014
 20
118.2548909062864
 30
0.0
 10
52.95015102427021
 20
117.6037291820876
 30
0.0
 10
53.22403365532367
 20
116.6212047669032
 30
0.0
 10
53.38571891551511
 20
115.5884390053168
 30
0.0
 10
53.40174955390009
 20
115.219435443324
 30
0.0
 10
53.40298502536044
 20
115.1909965653042
 30
0.0
  0
SPLINE
  5
316
330
1F
100
AcDbEntity
  8
0
  6
Continuous
 62
     7
370
    25
100
AcDbSpline
210
0.0
220
0.0
230
1.0
 70
     8
 71
     3
 72
     9
 73
     5
 74
     0
 42
0.00000001
 43
0.00000001
 40
0.0
 40
0.0
 40
0.0
 40
0.0
 40
0.3973273920283383
 40
1.0
 40
1.0
 40
1.0
 40
1.0
 10
53.37573699934725
 20
104.8420779499595
 30
0.0
 10
53.34234642997189
 20
104.4268014243397
 30
0.0
 10
53.25830850546611
 20
103.3816267549071
 30
0.0
 10
52.95277422015397
 20
102.3666123093308
 30
0.0
 10
52.76863707560015
 20
101.7548909062864
 30
0.0
  0
LINE
  5
317
330
1F
100
AcDbEntity
  8
0
  6
Continuous
 62
     7
370
    25
100
AcDbLine
 10
48.6240798861
 20
101.7548909063
 30
0.0
 11
52.7686370756
 21
101.7548909063
 31
0.0
  0
SPLINE
  5
318
330
1F
100
AcDbEntity
  8
0
  6
Continuous
 62
     7
370
    25
100
AcDbSpline
210
0.0
220
0.0
230
1.0
 70
     8
 71
     3
 72
    10
 73
     6
 74
     0
 42
0.00000001
 43
0.00000001
 40
0.0
 40
0.0
 40
0.0
 40
0.0
 40
0.5
 40
0.5
 40
1.0
 40
1.0
 40
1.0
 40
1.0
 10
48.62407988612006
 20
101.7548909062863
 30
0.0
 10
48.41526996145381
 20
102.4109036728915
 30
0.0
 10
48.24473582170656
 20
103.0711705797492
 30
0.0
 10
48.00995001668763
 20
104.4035170983842
 30
0.0
 10
47.94635848086034
 20
105.0756700798715
 30
0.0
 10
47.94635848086034
 20
105.7548909062864
 30
0.0
  0
SPLINE
  5
319
330
1F
100
AcDbEntity
  8
0
  6
Continuous
 62
     7
370
    25
100
AcDbSpline
210
0.0
220
0.0
230
1.0
 70
     8
 71
     3
 72
    12
 73
     8
 74
     0
 42
0.00000001
 43
0.00000001
 40
0.0
 40
0.0
 40
0.0
 40
0.0
 40
0.2500000000000001
 40
0.2500000000000001
 40
0.5000000000000002
 40
0.5000000000000002
 40
1.0
 40
1.0
 40
1.0
 40
1.0
 10
70.94635848086034
 20
105.7548909062864
 30
0.0
 10
70.94635848086034
 20
105.4171349712636
 30
0.0
 10
70.93061215083837
 20
105.0767269563851
 30
0.0
 10
70.86916712625295
 20
104.4022322719847
 30
0.0
 10
70.82357836699921
 20
104.0671069531175
 30
0.0
 10
70.64712736474263
 20
103.0673956347773
 30
0.0
 10
70.47666966277913
 20
102.408461531712
 30
0.0
 10
70.26863707560028
 20
101.7548909062864
 30
0.0
  0
LINE
  5
31A
330
1F
100
AcDbEntity
  8
0
  6
Continuous
 62
     7
370
    25
100
AcDbLine
 10
66.1240798861
 20
101.7548909063
 30
0.0
 11
70.2686370756
 21
101.7548909063
 31
0.0
  0
SPLINE
  5
31B
330
1F
100
AcDbEntity
  8
0
  6
Continuous
 62
     7
370
    25
100
AcDbSpline
210
0.0
220
0.0
230
1.0
 70
     8
 71
     3
 72
    10
 73
     6
 74
     0
 42
0.00000001
 43
0.00000001
 40
0.0
 40
0.0
 40
0.0
 40
0.0
 40
0.6445902043332645
 40
0.9726087852067729
 40
0.9999999999999999
 40
0.9999999999999999
 40
0.9999999999999999
 40
0.9999999999999999
 10
66.12407988612054
 20
101.7548909062863
 30
0.0
 10
65.94256593745047
 20
102.4060526304852
 30
0.0
 10
65.668683306397
 20
103.3885770456696
 30
0.0
 10
65.50699804620558
 20
104.4213428072559
 30
0.0
 10
65.49096740782059
 20
104.7903463692487
 30
0.0
 10
65.48973193636023
 20
104.8187852472685
 30
0.0
  0
LINE
  5
31C
330
1F
100
AcDbEntity
  8
0
  6
Continuous
 62
     7
370
    25
100
AcDbLine
 10
65.4463584809
 20
104.7133882842
 30
0.0
 11
65.4463584809
 21
102.5048909063
 31
0.0
  0
LINE
  5
31D
330
1F
100
AcDbEntity
  8
0
  6
Continuous
 62
     7
370
    25
100
AcDbLine
 10
65.4463584809
 20
102.5048909063
 30
0.0
 11
62.2302406623
 21
102.5048909063
 31
0.0
  0
LINE
  5
31E
330
1F
100
AcDbEntity
  8
0
  6
Continuous
 62
     7
370
    25
100
AcDbLine
 10
56.6624762994
 20
102.5048909063
 30
0.0
 11
53.4463584809
 21
102.5048909063
 31
0.0
  0
LINE
  5
31F
330
1F
100
AcDbEntity
  8
0
  6
Continuous
 62
     7
370
    25
100
AcDbLine
 10
53.4463584809
 20
104.7133882842
 30
0.0
 11
53.4463584809
 21
102.5048909063
 31
0.0
  0
LINE
  5
320
330
1F
100
AcDbEntity
  8
0
  6
Continuous
 62
     7
370
    25
100
AcDbLine
 10
53.4463584809
 20
117.5048909063
 30
0.0
 11
53.4463584809
 21
115.2963935284
 31
0.0
  0
LINE
  5
321
330
1F
100
AcDbEntity
  8
0
  6
Continuous
 62
     7
370
    25
100
AcDbLine
 10
53.4463584809
 20
117.5048909063
 30
0.0
 11
56.6624762994
 21
117.5048909063
 31
0.0
  0
LINE
  5
322
330
1F
100
AcDbEntity
  8
0
  6
Continuous
 62
     7
370
    25
100
AcDbLine
 10
62.2302406623
 20
117.5048909063
 30
0.0
 11
65.4463584809
 21
117.5048909063
 31
0.0
  0
LINE
  5
323
330
1F
100
AcDbEntity
  8
0
  6
Continuous
 62
     7
370
    25
100
AcDbLine
 10
65.4463584809
 20
117.5048909063
 30
0.0
 11
65.4463584809
 21
115.2963935284
 31
0.0
  0
SPLINE
  5
324
330
1F
100
AcDbEntity
  8
0
  6
Continuous
 62
     7
370
    25
100
AcDbSpline
210
0.0
220
0.0
230
1.0
 70
     8
 71
     3
 72
     8
 73
     4
 74
     0
 42
0.00000001
 43
0.00000001
 40
0.0
 40
0.0
 40
0.0
 40
0.0
 40
1.0
 40
1.0
 40
1.0
 40
1.0
 10
52.93012240388116
 20
118.5048909062864
 30
0.0
 10
53.10382548010093
 20
118.1723794841509
 30
0.0
 10
53.27612769916364
 20
117.839052384252
 30
0.0
 10
53.44635848086034
 20
117.5048909062864
 30
0.0
  0
SPLINE
  5
325
330
1F
100
AcDbEntity
  8
0
  6
Continuous
 62
     7
370
    25
100
AcDbSpline
210
0.0
220
0.0
230
1.0
 70
     8
 71
     3
 72
    10
 73
     6
 74
     0
 42
0.00000001
 43
0.00000001
 40
0.0
 40
0.0
 40
0.0
 40
0.0
 40
0.5
 40
0.5
 40
1.0
 40
1.0
 40
1.0
 40
1.0
 10
52.7686370756058
 20
118.5048909062864
 30
0.0
 10
52.74496168118149
 20
118.5048909062864
 30
0.0
 10
52.73187057129118
 20
118.4820984569569
 30
0.0
 10
52.73178425000278
 20
118.3941557528639
 30
0.0
 10
52.74495318394661
 20
118.3292979791899
 30
0.0
 10
52.76863707560013
 20
118.2548909062864
 30
0.0
  0
SPLINE
  5
326
330
1F
100
AcDbEntity
  8
0
  6
Continuous
 62
     7
370
    25
100
AcDbSpline
210
0.0
220
0.0
230
1.0
 70
    24
 71
     3
 72
     8
 73
     4
 74
     0
 42
0.00000001
 43
0.00000001
 40
0.0
 40
0.0
 40
0.0
 40
0.0
 40
1.0
 40
1.0
 40
1.0
 40
1.0
 10
52.93012240388116
 20
118.5048909062864
 30
0.0
 10
52.87922368695875
 20
118.5048909062864
 30
0.0
 10
52.82528955070813
 20
118.5048909062864
 30
0.0
 10
52.76863707560053
 20
118.5048909062864
 30
0.0
  0
SPLINE
  5
327
330
1F
100
AcDbEntity
  8
0
  6
Continuous
 62
     7
370
    25
100
AcDbSpline
210
0.0
220
0.0
230
1.0
 70
     8
 71
     3
 72
     8
 73
     4
 74
     0
 42
0.00000001
 43
0.00000001
 40
0.0
 40
0.0
 40
0.0
 40
0.0
 40
1.0
 40
1.0
 40
1.0
 40
1.0
 10
65.44635848086034
 20
117.5048909062864
 30
0.0
 10
65.61663608820406
 20
117.8391443025717
 30
0.0
 10
65.78890783682974
 20
118.1724107921407
 30
0.0
 10
65.9625945578394
 20
118.5048909062862
 30
0.0
  0
SPLINE
  5
328
330
1F
100
AcDbEntity
  8
0
  6
Continuous
 62
     7
370
    25
100
AcDbSpline
210
0.0
220
0.0
230
1.0
 70
    24
 71
     3
 72
     8
 73
     4
 74
     0
 42
0.00000001
 43
0.00000001
 40
0.0
 40
0.0
 40
0.0
 40
0.0
 40
1.0
 40
1.0
 40
1.0
 40
1.0
 10
65.96259455783898
 20
118.5048909062864
 30
0.0
 10
66.01349079109423
 20
118.5048909062864
 30
0.0
 10
66.06742474605807
 20
118.5048909062864
 30
0.0
 10
66.12407988612053
 20
118.5048909062864
 30
0.0
  0
SPLINE
  5
329
330
1F
100
AcDbEntity
  8
0
  6
Continuous
 62
     7
370
    25
100
AcDbSpline
210
0.0
220
0.0
230
1.0
 70
     8
 71
     3
 72
    10
 73
     6
 74
     0
 42
0.00000001
 43
0.00000001
 40
0.0
 40
0.0
 40
0.0
 40
0.0
 40
0.5
 40
0.5
 40
1.0
 40
1.0
 40
1.0
 40
1.0
 10
66.12407988612053
 20
118.2548909062864
 30
0.0
 10
66.14775528054493
 20
118.3292712836637
 30
0.0
 10
66.16084639042955
 20
118.3935719224495
 30
0.0
 10
66.16093271171785
 20
118.4817876072324
 30
0.0
 10
66.147763777774
 20
118.5048909062864
 30
0.0
 10
66.12407988612053
 20
118.5048909062864
 30
0.0
  0
SPLINE
  5
32A
330
1F
100
AcDbEntity
  8
0
  6
Continuous
 62
     7
370
    25
100
AcDbSpline
210
0.0
220
0.0
230
1.0
 70
     8
 71
     3
 72
    10
 73
     6
 74
     0
 42
0.00000001
 43
0.00000001
 40
0.0
 40
0.0
 40
0.0
 40
0.0
 40
0.5
 40
0.5
 40
1.0
 40
1.0
 40
1.0
 40
1.0
 10
48.62407988612053
 20
118.5048909062864
 30
0.0
 10
48.64775378667647
 20
118.5048909062864
 30
0.0
 10
48.66084634385562
 20
118.482100334639
 30
0.0
 10
48.66093275783791
 20
118.3941543373401
 30
0.0
 10
48.64776236623928
 20
118.3292935446074
 30
0.0
 10
48.62407988612053
 20
118.2548909062864
 30
0.0
  0
SPLINE
  5
32B
330
1F
100
AcDbEntity
  8
0
  6
Continuous
 62
     7
370
    25
100
AcDbSpline
210
0.0
220
0.0
230
1.0
 70
    24
 71
     3
 72
    12
 73
     8
 74
     0
 42
0.00000001
 43
0.00000001
 40
0.0
 40
0.0
 40
0.0
 40
0.0
 40
0.2499999999999999
 40
0.2499999999999999
 40
0.4999999999999998
 40
0.4999999999999998
 40
1.0
 40
1.0
 40
1.0
 40
1.0
 10
47.94635848086034
 20
118.5048909062864
 30
0.0
 10
47.94635848086034
 20
118.5048909062864
 30
0.0
 10
47.96235728584141
 20
118.5048909062864
 30
0.0
 10
48.02412742415581
 20
118.5048909062864
 30
0.0
 10
48.0698695484574
 20
118.5048909062864
 30
0.0
 10
48.24653969580424
 20
118.5048909062864
 30
0.0
 10
48.41679476128454
 20
118.5048909062864
 30
0.0
 10
48.62407988612053
 20
118.5048909062864
 30
0.0
  0
LINE
  5
32C
330
1F
100
AcDbEntity
  8
0
  6
Continuous
 62
     7
370
    25
100
AcDbLine
 10
47.9463584809
 20
118.5048909063
 30
0.0
 11
47.9463584809
 21
114.2548909063
 31
0.0
  0
SPLINE
  5
32D
330
1F
100
AcDbEntity
  8
0
  6
Continuous
 62
     7
370
    25
100
AcDbSpline
210
0.0
220
0.0
230
1.0
 70
     8
 71
     3
 72
    10
 73
     6
 74
     0
 42
0.00000001
 43
0.00000001
 40
0.0
 40
0.0
 40
0.0
 40
0.0
 40
0.5
 40
0.5
 40
1.0
 40
1.0
 40
1.0
 40
1.0
 10
70.26863707560014
 20
118.2548909062864
 30
0.0
 10
70.24496483568858
 20
118.329261373212
 30
0.0
 10
70.23187084575333
 20
118.3935669694998
 30
0.0
 10
70.23178397829189
 20
118.4817897573057
 30
0.0
 10
70.24495376805123
 20
118.5048909062864
 30
0.0
 10
70.26863707560014
 20
118.5048909062864
 30
0.0
  0
SPLINE
  5
32E
330
1F
100
AcDbEntity
  8
0
  6
Continuous
 62
     7
370
    25
100
AcDbSpline
210
0.0
220
0.0
230
1.0
 70
    24
 71
     3
 72
    12
 73
     8
 74
     0
 42
0.00000001
 43
0.00000001
 40
0.0
 40
0.0
 40
0.0
 40
0.0
 40
0.25
 40
0.25
 40
0.5
 40
0.5
 40
1.0
 40
1.0
 40
1.0
 40
1.0
 10
70.94635848086034
 20
118.5048909062864
 30
0.0
 10
70.94635848086034
 20
118.5048909062864
 30
0.0
 10
70.93045267519216
 20
118.5048909062864
 30
0.0
 10
70.86860780429974
 20
118.5048909062864
 30
0.0
 10
70.82279446343354
 20
118.5048909062864
 30
0.0
 10
70.64596128953117
 20
118.5048909062864
 30
0.0
 10
70.47568302602754
 20
118.5048909062864
 30
0.0
 10
70.26863707560014
 20
118.5048909062864
 30
0.0
  0
LINE
  5
32F
330
1F
100
AcDbEntity
  8
0
  6
Continuous
 62
     7
370
    25
100
AcDbLine
 10
70.9463584809
 20
118.5048909063
 30
0.0
 11
70.9463584809
 21
114.2548909063
 31
0.0
  0
SPLINE
  5
330
330
1F
100
AcDbEntity
  8
0
  6
Continuous
 62
     7
370
    25
100
AcDbSpline
210
0.0
220
0.0
230
1.0
 70
     8
 71
     3
 72
     8
 73
     4
 74
     0
 42
0.00000001
 43
0.00000001
 40
0.0
 40
0.0
 40
0.0
 40
0.0
 40
1.0
 40
1.0
 40
1.0
 40
1.0
 10
65.96259455783951
 20
101.5048909062864
 30
0.0
 10
65.78889148161974
 20
101.8374023284219
 30
0.0
 10
65.61658926255703
 20
102.1707294283208
 30
0.0
 10
65.44635848086034
 20
102.5048909062864
 30
0.0
  0
SPLINE
  5
331
330
1F
100
AcDbEntity
  8
0
  6
Continuous
 62
     7
370
    25
100
AcDbSpline
210
0.0
220
0.0
230
1.0
 70
     8
 71
     3
 72
    10
 73
     6
 74
     0
 42
0.00000001
 43
0.00000001
 40
0.0
 40
0.0
 40
0.0
 40
0.0
 40
0.5
 40
0.5
 40
1.0
 40
1.0
 40
1.0
 40
1.0
 10
66.12407988612055
 20
101.5048909062864
 30
0.0
 10
66.14775528054494
 20
101.5048909062864
 30
0.0
 10
66.16084639042955
 20
101.5276833556162
 30
0.0
 10
66.16093271171785
 20
101.6156260597092
 30
0.0
 10
66.14776377777402
 20
101.6804838333831
 30
0.0
 10
66.12407988612055
 20
101.7548909062863
 30
0.0
  0
SPLINE
  5
332
330
1F
100
AcDbEntity
  8
0
  6
Continuous
 62
     7
370
    25
100
AcDbSpline
210
0.0
220
0.0
230
1.0
 70
    24
 71
     3
 72
     8
 73
     4
 74
     0
 42
0.00000001
 43
0.00000001
 40
0.0
 40
0.0
 40
0.0
 40
0.0
 40
1.0
 40
1.0
 40
1.0
 40
1.0
 10
65.96259455783952
 20
101.5048909062864
 30
0.0
 10
66.0134907910946
 20
101.5048909062864
 30
0.0
 10
66.06742474605825
 20
101.5048909062864
 30
0.0
 10
66.12407988612053
 20
101.5048909062864
 30
0.0
  0
SPLINE
  5
333
330
1F
100
AcDbEntity
  8
0
  6
Continuous
 62
     7
370
    25
100
AcDbSpline
210
0.0
220
0.0
230
1.0
 70
     8
 71
     3
 72
     8
 73
     4
 74
     0
 42
0.00000001
 43
0.00000001
 40
0.0
 40
0.0
 40
0.0
 40
0.0
 40
1.0
 40
1.0
 40
1.0
 40
1.0
 10
53.44635848086034
 20
102.5048909062864
 30
0.0
 10
53.27608087351658
 20
102.170637510001
 30
0.0
 10
53.10380912489087
 20
101.837371020432
 30
0.0
 10
52.93012240388117
 20
101.5048909062864
 30
0.0
  0
SPLINE
  5
334
330
1F
100
AcDbEntity
  8
0
  6
Continuous
 62
     7
370
    25
100
AcDbSpline
210
0.0
220
0.0
230
1.0
 70
    24
 71
     3
 72
     8
 73
     4
 74
     0
 42
0.00000001
 43
0.00000001
 40
0.0
 40
0.0
 40
0.0
 40
0.0
 40
1.0
 40
1.0
 40
1.0
 40
1.0
 10
52.93012240388117
 20
101.5048909062864
 30
0.0
 10
52.87922368695865
 20
101.5048909062864
 30
0.0
 10
52.82528955070789
 20
101.5048909062864
 30
0.0
 10
52.76863707560015
 20
101.5048909062864
 30
0.0
  0
SPLINE
  5
335
330
1F
100
AcDbEntity
  8
0
  6
Continuous
 62
     7
370
    25
100
AcDbSpline
210
0.0
220
0.0
230
1.0
 70
     8
 71
     3
 72
    10
 73
     6
 74
     0
 42
0.00000001
 43
0.00000001
 40
0.0
 40
0.0
 40
0.0
 40
0.0
 40
0.5
 40
0.5
 40
1.0
 40
1.0
 40
1.0
 40
1.0
 10
52.76863707560015
 20
101.7548909062864
 30
0.0
 10
52.74496168117576
 20
101.6805105289091
 30
0.0
 10
52.73187057129112
 20
101.6162098901233
 30
0.0
 10
52.73178425000284
 20
101.5279942053403
 30
0.0
 10
52.74495318394668
 20
101.5048909062864
 30
0.0
 10
52.76863707560015
 20
101.5048909062864
 30
0.0
  0
SPLINE
  5
336
330
1F
100
AcDbEntity
  8
0
  6
Continuous
 62
     7
370
    25
100
AcDbSpline
210
0.0
220
0.0
230
1.0
 70
    24
 71
     3
 72
    12
 73
     8
 74
     0
 42
0.00000001
 43
0.00000001
 40
0.0
 40
0.0
 40
0.0
 40
0.0
 40
0.25
 40
0.25
 40
0.5
 40
0.5
 40
1.0
 40
1.0
 40
1.0
 40
1.0
 10
70.94635848086034
 20
101.5048909062864
 30
0.0
 10
70.94635848086034
 20
101.5048909062864
 30
0.0
 10
70.93045267519216
 20
101.5048909062864
 30
0.0
 10
70.86860780429974
 20
101.5048909062864
 30
0.0
 10
70.82279446343354
 20
101.5048909062864
 30
0.0
 10
70.64596128953117
 20
101.5048909062864
 30
0.0
 10
70.47568302602754
 20
101.5048909062864
 30
0.0
 10
70.26863707560014
 20
101.5048909062864
 30
0.0
  0
SPLINE
  5
337
330
1F
100
AcDbEntity
  8
0
  6
Continuous
 62
     7
370
    25
100
AcDbSpline
210
0.0
220
0.0
230
1.0
 70
     8
 71
     3
 72
    10
 73
     6
 74
     0
 42
0.00000001
 43
0.00000001
 40
0.0
 40
0.0
 40
0.0
 40
0.0
 40
0.5
 40
0.5
 40
1.0
 40
1.0
 40
1.0
 40
1.0
 10
70.26863707560014
 20
101.5048909062864
 30
0.0
 10
70.24496317504419
 20
101.5048909062864
 30
0.0
 10
70.23187061786506
 20
101.5276814779338
 30
0.0
 10
70.23178420388278
 20
101.6156274752326
 30
0.0
 10
70.2449545954814
 20
101.6804882679654
 30
0.0
 10
70.26863707560014
 20
101.7548909062864
 30
0.0
  0
LINE
  5
338
330
1F
100
AcDbEntity
  8
0
  6
Continuous
 62
     7
370
    25
100
AcDbLine
 10
70.9463584809
 20
105.7548909063
 30
0.0
 11
70.9463584809
 21
101.5048909063
 31
0.0
  0
SPLINE
  5
339
330
1F
100
AcDbEntity
  8
0
  6
Continuous
 62
     7
370
    25
100
AcDbSpline
210
0.0
220
0.0
230
1.0
 70
     8
 71
     3
 72
    10
 73
     6
 74
     0
 42
0.00000001
 43
0.00000001
 40
0.0
 40
0.0
 40
0.0
 40
0.0
 40
0.5
 40
0.5
 40
1.0
 40
1.0
 40
1.0
 40
1.0
 10
48.62407988612053
 20
101.7548909062864
 30
0.0
 10
48.64775212603209
 20
101.6805204393608
 30
0.0
 10
48.66084611596735
 20
101.616214843073
 30
0.0
 10
48.6609329834288
 20
101.5279920552671
 30
0.0
 10
48.64776319366944
 20
101.5048909062864
 30
0.0
 10
48.62407988612053
 20
101.5048909062864
 30
0.0
  0
SPLINE
  5
33A
330
1F
100
AcDbEntity
  8
0
  6
Continuous
 62
     7
370
    25
100
AcDbSpline
210
0.0
220
0.0
230
1.0
 70
    24
 71
     3
 72
    12
 73
     8
 74
     0
 42
0.00000001
 43
0.00000001
 40
0.0
 40
0.0
 40
0.0
 40
0.0
 40
0.2500000000000001
 40
0.2500000000000001
 40
0.5000000000000001
 40
0.5000000000000001
 40
1.0
 40
1.0
 40
1.0
 40
1.0
 10
47.94635848086034
 20
101.5048909062864
 30
0.0
 10
47.94635848086034
 20
101.5048909062864
 30
0.0
 10
47.96235728584141
 20
101.5048909062864
 30
0.0
 10
48.0241274241558
 20
101.5048909062864
 30
0.0
 10
48.06986954845739
 20
101.5048909062864
 30
0.0
 10
48.24653969580424
 20
101.5048909062864
 30
0.0
 10
48.41679476128454
 20
101.5048909062864
 30
0.0
 10
48.62407988612053
 20
101.5048909062864
 30
0.0
  0
LINE
  5
33B
330
1F
100
AcDbEntity
  8
0
  6
Continuous
 62
     7
370
    25
100
AcDbLine
 10
47.9463584809
 20
101.5048909063
 30
0.0
 11
47.9463584809
 21
105.7548909063
 31
0.0
  0
LINE
  5
33C
330
1F
100
AcDbEntity
  8
0
  6
Continuous
 62
     7
370
    25
100
AcDbLine
 10
66.1240798861
 20
118.5048909063
 30
0.0
 11
70.2686370756
 21
118.5048909063
 31
0.0
  0
LINE
  5
33D
330
1F
100
AcDbEntity
  8
0
  6
Continuous
 62
     7
370
    25
100
AcDbLine
 10
48.6240798861
 20
118.5048909063
 30
0.0
 11
52.7686370756
 21
118.5048909063
 31
0.0
  0
LINE
  5
33E
330
1F
100
AcDbEntity
  8
0
  6
Continuous
 62
     7
370
    25
100
AcDbLine
 10
52.7686370756
 20
101.5048909063
 30
0.0
 11
48.6240798861
 21
101.5048909063
 31
0.0
  0
LINE
  5
33F
330
1F
100
AcDbEntity
  8
0
  6
Continuous
 62
     7
370
    25
100
AcDbLine
 10
70.2686370756
 20
101.5048909063
 30
0.0
 11
66.1240798861
 21
101.5048909063
 31
0.0
  0
LINE
  5
340
330
1F
100
AcDbEntity
  8
0
  6
Continuous
 62
     7
370
    25
100
AcDbLine
 10
65.9625945578
 20
118.5048909063
 30
0.0
 11
52.9301224039
 21
118.5048909063
 31
0.0
  0
LINE
  5
341
330
1F
100
AcDbEntity
  8
0
  6
Continuous
 62
     7
370
    25
100
AcDbLine
 10
65.9625945578
 20
101.5048909063
 30
0.0
 11
52.9301224039
 21
101.5048909063
 31
0.0
  0
LINE
  5
342
330
1F
100
AcDbEntity
  8
0
  6
Continuous
 62
     7
370
    25
100
AcDbLine
 10
89.2463584809
 20
103.5048909063
 30
0.0
 11
89.2463584809
 21
116.5048909063
 31
0.0
  0
LINE
  5
343
330
1F
100
AcDbEntity
  8
0
  6
Continuous
 62
     7
370
    25
100
AcDbLine
 10
88.1463584809
 20
116.5048909063
 30
0.0
 11
88.1463584809
 21
103.5048909063
 31
0.0
  0
LINE
  5
344
330
1F
100
AcDbEntity
  8
0
  6
Continuous
 62
     7
370
    25
100
AcDbLine
 10
29.6463584809
 20
116.5048909063
 30
0.0
 11
29.6463584809
 21
103.5048909063
 31
0.0
  0
LINE
  5
345
330
1F
100
AcDbEntity
  8
0
  6
Continuous
 62
     7
370
    25
100
AcDbLine
 10
30.7463584809
 20
103.5048909063
 30
0.0
 11
30.7463584809
 21
116.5048909063
 31
0.0
  0
ELLIPSE
  5
346
330
1F
100
AcDbEntity
  8
0
  6
Continuous
 62
     7
370
    25
100
AcDbEllipse
 10
73.9463584809
 20
107.8844008918
 30
0.0
 11
6.5
 21
0.0
 31
0.0
210
0.0
220
0.0
230
1.0
 40
0.124260355
 41
5.150513296523812
 42
6.283185307179586
  0
ELLIPSE
  5
347
330
1F
100
AcDbEntity
  8
0
  6
Continuous
 62
     7
370
    25
100
AcDbEllipse
 10
73.9463584809
 20
112.1253809208
 30
0.0
 11
6.5
 21
0.0
 31
0.0
210
0.0
220
0.0
230
1.0
 40
0.124260355
 41
0.0
 42
1.132672010655789
  0
LWPOLYLINE
  5
348
330
1F
100
AcDbEntity
  8
0
  6
Continuous
 62
     7
370
    25
100
AcDbPolyline
 90
        9
 70
   128
 43
0.0
 10
42.1887875043
 20
112.8567858815
 10
42.1880945406
 20
112.9615725847
 10
42.1968847037
 20
113.0616899218
 10
42.2147662978
 20
113.1526765968
 10
42.2409425073
 20
113.230478182
 10
42.2742469024
 20
113.2916277864
 10
42.313195417
 20
113.3334005424
 10
42.3560524789
 20
113.3539350279
 10
42.3694191433
 20
113.3557933247
  0
SPLINE
  5
349
330
1F
100
AcDbEntity
  8
0
  6
Continuous
 62
     7
370
    25
100
AcDbSpline
210
0.0
220
0.0
230
1.0
 70
     8
 71
     3
 72
    17
 73
    13
 74
     0
 42
0.00000001
 43
0.00000001
 40
0.0
 40
0.0
 40
0.0
 40
0.0
 40
0.1031713415813624
 40
0.3372764261473556
 40
0.6893852722494028
 40
0.8015064838636118
 40
0.8711967958811786
 40
0.9159352248167844
 40
0.9450049979952843
 40
0.9639868390562077
 40
0.9945222942032249
 40
1.0
 40
1.0
 40
1.0
 40
1.0
 10
42.5599586832126
 20
113.3481770519071
 30
0.0
 10
42.63389562060075
 20
113.3489966701393
 30
0.0
 10
42.87560214123265
 20
113.3516760761053
 30
0.0
 10
43.41634487918947
 20
113.1761336726707
 30
0.0
 10
43.98339967547376
 20
112.9039830270636
 30
0.0
 10
44.42118836856511
 20
112.6617656265523
 30
0.0
 10
44.60751641760473
 20
112.5561744329897
 30
0.0
 10
44.72566566424864
 20
112.4884733478539
 30
0.0
 10
44.80210137677469
 20
112.4444870418785
 30
0.0
 10
44.86684967687394
 20
112.4071563294503
 30
0.0
 10
44.91216858734614
 20
112.3809950964672
 30
0.0
 10
44.94184466390238
 20
112.3638616043581
 30
0.0
 10
44.94635848086033
 20
112.3612555507214
 30
0.0
  0
ELLIPSE
  5
34A
330
1F
100
AcDbEntity
  8
0
  6
Continuous
 62
     7
370
    25
100
AcDbEllipse
 10
44.9463584809
 20
107.8844008918
 30
0.0
 11
6.5
 21
0.0
 31
0.0
210
0.0
220
0.0
230
1.0
 40
0.124260355
 41
3.141592653589792
 42
4.27426466424561
  0
ELLIPSE
  5
34B
330
1F
100
AcDbEntity
  8
0
  6
Continuous
 62
     7
370
    25
100
AcDbEllipse
 10
44.9463584809
 20
112.1253809208
 30
0.0
 11
6.5
 21
0.0
 31
0.0
210
0.0
220
0.0
230
1.0
 40
0.124260355
 41
2.00892064293401
 42
3.141592653589792
  0
LWPOLYLINE
  5
34C
330
1F
100
AcDbEntity
  8
0
  6
Continuous
 62
     7
370
    25
100
AcDbPolyline
 90
        9
 70
   128
 43
0.0
 10
47.5229613563
 20
113.3558139798
 10
47.5366644828
 20
113.3539350279
 10
47.5795215447
 20
113.3334005424
 10
47.6184700593
 20
113.2916277864
 10
47.6517744544
 20
113.230478182
 10
47.6779506639
 20
113.1526765968
 10
47.6958322581
 20
113.0616899218
 10
47.7046224211
 20
112.9615725847
 10
47.7039294574
 20
112.8567858815
  0
SPLINE
  5
34D
330
1F
100
AcDbEntity
  8
0
  6
Continuous
 62
     7
370
    25
100
AcDbSpline
210
0.0
220
0.0
230
1.0
 70
     8
 71
     3
 72
    17
 73
    13
 74
     0
 42
0.00000001
 43
0.00000001
 40
0.0
 40
0.0
 40
0.0
 40
0.0
 40
0.0054764177001344
 40
0.0360046923562067
 40
0.0549820697882074
 40
0.0840450071346129
 40
0.1287729157133142
 40
0.1984468398743132
 40
0.3105416858965502
 40
0.6625677326956292
 40
0.8966177668474244
 40
1.0
 40
1.0
 40
1.0
 40
1.0
 10
44.94635848086033
 20
112.3612555507214
 30
0.0
 10
44.95087229781815
 20
112.3638616043575
 30
0.0
 10
44.98054837437351
 20
112.3809950964632
 30
0.0
 10
45.02586728487178
 20
112.4071563295474
 30
0.0
 10
45.09061558488096
 20
112.4444870416264
 30
0.0
 10
45.16705129796263
 20
112.4884733497555
 30
0.0
 10
45.28520054049322
 20
112.5561744189473
 30
0.0
 10
45.47152862069694
 20
112.6617657333081
 30
0.0
 10
45.90931695341897
 20
112.9039817369567
 30
0.0
 10
46.47637568424065
 20
113.1761476336086
 30
0.0
 10
47.01729288889506
 20
113.351711064415
 30
0.0
 10
47.2591644217915
 20
113.349016038569
 30
0.0
 10
47.33326883215697
 20
113.3481903386661
 30
0.0
  0
LWPOLYLINE
  5
34E
330
1F
100
AcDbEntity
  8
0
  6
Continuous
 62
     7
370
    25
100
AcDbPolyline
 90
        9
 70
   128
 43
0.0
 10
76.7039294574
 20
112.8567858815
 10
76.7046224211
 20
112.9615725847
 10
76.6958322581
 20
113.0616899218
 10
76.6779506639
 20
113.1526765968
 10
76.6517744544
 20
113.230478182
 10
76.6184700593
 20
113.2916277864
 10
76.5795215447
 20
113.3334005424
 10
76.5366644828
 20
113.3539350279
 10
76.523101762
 20
113.3558055148
  0
SPLINE
  5
34F
330
1F
100
AcDbEntity
  8
0
  6
Continuous
 62
     7
370
    25
100
AcDbSpline
210
0.0
220
0.0
230
1.0
 70
     8
 71
     3
 72
    17
 73
    13
 74
     0
 42
0.00000001
 43
0.00000001
 40
0.0
 40
0.0
 40
0.0
 40
0.0
 40
0.0054764177001349
 40
0.0360046923561651
 40
0.0549820697882207
 40
0.0840450071346104
 40
0.1287729157133054
 40
0.1984468398743177
 40
0.3105416858965487
 40
0.6625677326956386
 40
0.8966177668474342
 40
1.0
 40
1.0
 40
1.0
 40
1.0
 10
73.94635848086034
 20
112.3612555507214
 30
0.0
 10
73.95087229781817
 20
112.3638616043575
 30
0.0
 10
73.98054837437348
 20
112.3809950964631
 30
0.0
 10
74.02586728487182
 20
112.4071563295473
 30
0.0
 10
74.09061558488098
 20
112.4444870416263
 30
0.0
 10
74.16705129796262
 20
112.4884733497555
 30
0.0
 10
74.28520054049324
 20
112.5561744189473
 30
0.0
 10
74.47152862069696
 20
112.6617657333081
 30
0.0
 10
74.90931695341897
 20
112.9039817369567
 30
0.0
 10
75.47637568424068
 20
113.1761476336086
 30
0.0
 10
76.01729288889506
 20
113.351711064415
 30
0.0
 10
76.2591644217915
 20
113.349016038569
 30
0.0
 10
76.33326883215695
 20
113.3481903386661
 30
0.0
  0
LWPOLYLINE
  5
350
330
1F
100
AcDbEntity
  8
0
  6
Continuous
 62
     7
370
    25
100
AcDbPolyline
 90
        9
 70
   128
 43
0.0
 10
71.1887875043
 20
112.8567858815
 10
71.1880945406
 20
112.9615725847
 10
71.1968847037
 20
113.0616899218
 10
71.2147662978
 20
113.1526765968
 10
71.2409425073
 20
113.230478182
 10
71.2742469024
 20
113.2916277864
 10
71.313195417
 20
113.3334005424
 10
71.3560524789
 20
113.3539350279
 10
71.3694191433
 20
113.3557933247
  0
SPLINE
  5
351
330
1F
100
AcDbEntity
  8
0
  6
Continuous
 62
     7
370
    25
100
AcDbSpline
210
0.0
220
0.0
230
1.0
 70
     8
 71
     3
 72
    17
 73
    13
 74
     0
 42
0.00000001
 43
0.00000001
 40
0.0
 40
0.0
 40
0.0
 40
0.0
 40
0.1031713415813616
 40
0.3372764261473565
 40
0.6893852722494034
 40
0.8015064838636128
 40
0.8711967958811695
 40
0.915935224816772
 40
0.9450049979952714
 40
0.963986839056191
 40
0.9945222942032246
 40
1.0
 40
1.0
 40
1.0
 40
1.0
 10
71.5599586832126
 20
113.3481770519071
 30
0.0
 10
71.63389562060077
 20
113.3489966701393
 30
0.0
 10
71.87560214123266
 20
113.3516760761053
 30
0.0
 10
72.41634487918947
 20
113.1761336726707
 30
0.0
 10
72.98339967547379
 20
112.9039830270636
 30
0.0
 10
73.42118836856511
 20
112.6617656265523
 30
0.0
 10
73.60751641760473
 20
112.5561744329897
 30
0.0
 10
73.72566566424865
 20
112.4884733478539
 30
0.0
 10
73.80210137677463
 20
112.4444870418785
 30
0.0
 10
73.86684967687393
 20
112.4071563294503
 30
0.0
 10
73.91216858734616
 20
112.3809950964672
 30
0.0
 10
73.9418446639024
 20
112.3638616043581
 30
0.0
 10
73.94635848086034
 20
112.3612555507214
 30
0.0
  0
LWPOLYLINE
  5
352
330
1F
100
AcDbEntity
  8
0
  6
Continuous
 62
     7
370
    25
100
AcDbPolyline
 90
        9
 70
   128
 43
0.0
 10
76.7039294574
 20
107.152995931
 10
76.7046224211
 20
107.0482092278
 10
76.6958322581
 20
106.9480918908
 10
76.6779506639
 20
106.8571052158
 10
76.6517744544
 20
106.7793036306
 10
76.6184700593
 20
106.7181540262
 10
76.5795215447
 20
106.6763812701
 10
76.5366644828
 20
106.6558467847
 10
76.5232978184
 20
106.6539884879
  0
SPLINE
  5
353
330
1F
100
AcDbEntity
  8
0
  6
Continuous
 62
     7
370
    25
100
AcDbSpline
210
0.0
220
0.0
230
1.0
 70
     8
 71
     3
 72
    17
 73
    13
 74
     0
 42
0.00000001
 43
0.00000001
 40
0.0
 40
0.0
 40
0.0
 40
0.0
 40
0.1031713415813817
 40
0.3372764261473705
 40
0.6893852722494099
 40
0.8015064838636159
 40
0.8711967958811627
 40
0.9159352248167796
 40
0.9450049979952806
 40
0.963986839056183
 40
0.9945222942032108
 40
0.9999999999999999
 40
0.9999999999999999
 40
0.9999999999999999
 40
0.9999999999999999
 10
76.33275827850814
 20
106.6616047606657
 30
0.0
 10
76.25882134111995
 20
106.6607851424335
 30
0.0
 10
76.01711482048803
 20
106.6581057364675
 30
0.0
 10
75.47637208253121
 20
106.8336481399021
 30
0.0
 10
74.90931728624693
 20
107.1057987855092
 30
0.0
 10
74.47152859315558
 20
107.3480161860205
 30
0.0
 10
74.28520054411597
 20
107.4536073795831
 30
0.0
 10
74.16705129747209
 20
107.5213084647189
 30
0.0
 10
74.09061558494601
 20
107.5652947706942
 30
0.0
 10
74.02586728484678
 20
107.6026254831225
 30
0.0
 10
73.98054837437465
 20
107.6287867161057
 30
0.0
 10
73.95087229781832
 20
107.6459202082147
 30
0.0
 10
73.94635848086034
 20
107.6485262618514
 30
0.0
  0
LWPOLYLINE
  5
354
330
1F
100
AcDbEntity
  8
0
  6
Continuous
 62
     7
370
    25
100
AcDbPolyline
 90
        9
 70
   128
 43
0.0
 10
42.3697556054
 20
106.6539678327
 10
42.3560524789
 20
106.6558467847
 10
42.313195417
 20
106.6763812701
 10
42.2742469024
 20
106.7181540262
 10
42.2409425073
 20
106.7793036306
 10
42.2147662978
 20
106.8571052158
 10
42.1968847037
 20
106.9480918908
 10
42.1880945406
 20
107.0482092278
 10
42.1887875043
 20
107.152995931
  0
SPLINE
  5
355
330
1F
100
AcDbEntity
  8
0
  6
Continuous
 62
     7
370
    25
100
AcDbSpline
210
0.0
220
0.0
230
1.0
 70
     8
 71
     3
 72
    17
 73
    13
 74
     0
 42
0.00000001
 43
0.00000001
 40
0.0
 40
0.0
 40
0.0
 40
0.0
 40
0.0054764177001488
 40
0.0360046923561671
 40
0.054982069788191
 40
0.0840450071346124
 40
0.1287729157133012
 40
0.1984468398743077
 40
0.3105416858965474
 40
0.6625677326956352
 40
0.8966177668474309
 40
1.0
 40
1.0
 40
1.0
 40
1.0
 10
44.94635848086033
 20
107.6485262618514
 30
0.0
 10
44.94184466390254
 20
107.6459202082152
 30
0.0
 10
44.91216858734741
 20
107.6287867161093
 30
0.0
 10
44.86684967684886
 20
107.6026254830255
 30
0.0
 10
44.80210137683977
 20
107.5652947709464
 30
0.0
 10
44.72566566375804
 20
107.5213084628174
 30
0.0
 10
44.60751642122747
 20
107.4536073936255
 30
0.0
 10
44.42118834102374
 20
107.3480160792647
 30
0.0
 10
43.98340000830171
 20
107.1058000756161
 30
0.0
 10
43.41634127748002
 20
106.8336341789642
 30
0.0
 10
42.87542407282562
 20
106.6580707481578
 30
0.0
 10
42.63355253992918
 20
106.6607657740038
 30
0.0
 10
42.55944812956372
 20
106.6615914739067
 30
0.0
  0
LWPOLYLINE
  5
356
330
1F
100
AcDbEntity
  8
0
  6
Continuous
 62
     7
370
    25
100
AcDbPolyline
 90
        9
 70
   128
 43
0.0
 10
71.3697556054
 20
106.6539678327
 10
71.3560524789
 20
106.6558467847
 10
71.313195417
 20
106.6763812701
 10
71.2742469024
 20
106.7181540262
 10
71.2409425073
 20
106.7793036306
 10
71.2147662978
 20
106.8571052158
 10
71.1968847037
 20
106.9480918908
 10
71.1880945406
 20
107.0482092278
 10
71.1887875043
 20
107.152995931
  0
SPLINE
  5
357
330
1F
100
AcDbEntity
  8
0
  6
Continuous
 62
     7
370
    25
100
AcDbSpline
210
0.0
220
0.0
230
1.0
 70
     8
 71
     3
 72
    17
 73
    13
 74
     0
 42
0.00000001
 43
0.00000001
 40
0.0
 40
0.0
 40
0.0
 40
0.0
 40
0.005476417700149
 40
0.036004692356223
 40
0.0549820697882063
 40
0.0840450071346129
 40
0.1287729157133154
 40
0.1984468398743172
 40
0.3105416858965475
 40
0.6625677326956364
 40
0.8966177668474322
 40
1.0
 40
1.0
 40
1.0
 40
1.0
 10
73.94635848086034
 20
107.6485262618514
 30
0.0
 10
73.94184466390256
 20
107.6459202082152
 30
0.0
 10
73.91216858734737
 20
107.6287867161092
 30
0.0
 10
73.86684967684883
 20
107.6026254830254
 30
0.0
 10
73.80210137683973
 20
107.5652947709463
 30
0.0
 10
73.72566566375805
 20
107.5213084628173
 30
0.0
 10
73.60751642122746
 20
107.4536073936255
 30
0.0
 10
73.42118834102374
 20
107.3480160792647
 30
0.0
 10
72.98340000830171
 20
107.1058000756161
 30
0.0
 10
72.41634127748003
 20
106.8336341789642
 30
0.0
 10
71.87542407282562
 20
106.6580707481578
 30
0.0
 10
71.63355253992918
 20
106.6607657740038
 30
0.0
 10
71.55944812956373
 20
106.6615914739067
 30
0.0
  0
SPLINE
  5
358
330
1F
100
AcDbEntity
  8
0
  6
Continuous
 62
     7
370
    25
100
AcDbSpline
210
0.0
220
0.0
230
1.0
 70
     8
 71
     3
 72
    17
 73
    13
 74
     0
 42
0.00000001
 43
0.00000001
 40
0.0
 40
0.0
 40
0.0
 40
0.0
 40
0.1031713415813891
 40
0.3372764261473769
 40
0.6893852722494126
 40
0.8015064838636287
 40
0.8711967958811785
 40
0.9159352248167764
 40
0.9450049979952717
 40
0.9639868390561372
 40
0.9945222942032111
 40
1.0
 40
1.0
 40
1.0
 40
1.0
 10
47.33275827850813
 20
106.6616047606657
 30
0.0
 10
47.25882134111995
 20
106.6607851424335
 30
0.0
 10
47.01711482048804
 20
106.6581057364675
 30
0.0
 10
46.4763720825312
 20
106.8336481399021
 30
0.0
 10
45.9093172862469
 20
107.1057987855092
 30
0.0
 10
45.47152859315555
 20
107.3480161860205
 30
0.0
 10
45.28520054411594
 20
107.4536073795831
 30
0.0
 10
45.16705129747206
 20
107.5213084647189
 30
0.0
 10
45.09061558494603
 20
107.5652947706941
 30
0.0
 10
45.02586728484684
 20
107.6026254831225
 30
0.0
 10
44.98054837437437
 20
107.6287867161052
 30
0.0
 10
44.95087229781827
 20
107.6459202082147
 30
0.0
 10
44.94635848086033
 20
107.6485262618514
 30
0.0
  0
LWPOLYLINE
  5
359
330
1F
100
AcDbEntity
  8
0
  6
Continuous
 62
     7
370
    25
100
AcDbPolyline
 90
        9
 70
   128
 43
0.0
 10
47.5232722271
 20
106.6539868722
 10
47.5366644828
 20
106.6558467847
 10
47.5795215447
 20
106.6763812701
 10
47.6184700593
 20
106.7181540262
 10
47.6517744544
 20
106.7793036306
 10
47.6779506639
 20
106.8571052158
 10
47.6958322581
 20
106.9480918908
 10
47.7046224211
 20
107.0482092278
 10
47.7039294574
 20
107.152995931
  0
ARC
  5
35A
330
1F
100
AcDbEntity
  8
0
  6
Continuous
 62
     7
370
    25
100
AcDbCircle
 10
50.0336044944
 20
112.6130276852
 30
0.0
 40
0.4427359237485935
100
AcDbArc
 50
351.912744832
 51
74.3422917846
  0
ARC
  5
35B
330
1F
100
AcDbEntity
  8
0
  6
Continuous
 62
     7
370
    25
100
AcDbCircle
 10
68.8713984909
 20
112.6050177596
 30
0.0
 40
0.4538757002141028
100
AcDbArc
 50
106.8911947609
 51
186.8678834361
  0
ARC
  5
35C
330
1F
100
AcDbEntity
  8
0
  6
Continuous
 62
     7
370
    25
100
AcDbCircle
 10
68.8591124673
 20
107.3967541274
 30
0.0
 40
0.442735923748578
100
AcDbArc
 50
171.912744832
 51
254.3422917846
  0
ARC
  5
35D
330
1F
100
AcDbEntity
  8
0
  6
Continuous
 62
     7
370
    25
100
AcDbCircle
 10
50.0213184708
 20
107.404764053
 30
0.0
 40
0.4538757002141485
100
AcDbArc
 50
286.8911947609
 51
6.8678834361
  0
MTEXT
  5
35F
330
1F
100
AcDbEntity
  8
0
  6
Continuous
 62
     7
370
     0
100
AcDbMText
 10
81.1600430331
 20
95.2837858556
 30
0.0
 40
2.6458333333
 41
0.0
 71
     1
 72
     1
  1
エースボール　アングル　BC-5166R
  7
SLDTEXTSTYLE0
 73
     1
 44
1.0
  0
INSERT
  5
36B
330
1F
100
AcDbEntity
  8
0
  6
Continuous
 62
     7
370
    18
100
AcDbBlockReference
  2
SW_CENTERMARKSYMBOL_1
 10
59.4463584809
 20
110.0048909063
 30
0.0
  0
ENDSEC
  0
SECTION
  2
OBJECTS
  0
DICTIONARY
  5
C
330
0
100
AcDbDictionary
281
     1
  3
ACAD_GROUP
350
D
  3
ACAD_LAYOUT
350
1A
  3
ACAD_MLINESTYLE
350
17
  3
ACAD_PLOTSETTINGS
350
19
  3
ACAD_PLOTSTYLENAME
350
E
  3
ACAD_SCALELIST
350
47
  3
DWGPROPS
350
36C
  0
DICTIONARY
  5
D
102
{ACAD_REACTORS
330
C
102
}
330
C
100
AcDbDictionary
281
     1
  0
DICTIONARY
  5
1A
102
{ACAD_REACTORS
330
C
102
}
330
C
100
AcDbDictionary
281
     1
  3
Layout1
350
1E
  3
Layout2
350
26
  3
Model
350
22
  0
DICTIONARY
  5
17
102
{ACAD_REACTORS
330
C
102
}
330
C
100
AcDbDictionary
281
     1
  3
Standard
350
18
  0
DICTIONARY
  5
19
102
{ACAD_REACTORS
330
C
102
}
330
C
100
AcDbDictionary
281
     1
  0
ACDBDICTIONARYWDFLT
  5
E
102
{ACAD_REACTORS
330
C
102
}
330
C
100
AcDbDictionary
281
     1
  3
Normal
350
F
100
AcDbDictionaryWithDefault
340
F
  0
DICTIONARY
  5
47
102
{ACAD_REACTORS
330
C
102
}
330
C
100
AcDbDictionary
281
     1
  3
A0
350
48
  3
A1
350
49
  3
A2
350
4A
  3
A3
350
4B
  3
A4
350
4C
  3
A5
350
4D
  3
A6
350
4E
  3
A7
350
4F
  3
A8
350
50
  3
A9
350
51
  3
B0
350
52
  3
B1
350
53
  3
B2
350
54
  3
B3
350
55
  3
B4
350
56
  3
B5
350
57
  3
B6
350
58
  0
XRECORD
  5
36C
102
{ACAD_REACTORS
330
C
102
}
330
C
100
AcDbXrecord
280
     1
  1
DWGPROPS COOKIE
  2

  3

  4

  6

  7

  8
user52
  9

300
=
301
=
302
=
303
=
304
=
305
=
306
=
307
=
308
=
309
=
 40
0.0
 41
2460236.119865011
 42
2460236.119865798
  1

 90
        0
  0
LAYOUT
  5
1E
102
{ACAD_REACTORS
330
1A
102
}
330
1A
100
AcDbPlotSettings
  1

  2
none_device
  4

  6

 40
0.0
 41
0.0
 42
0.0
 43
0.0
 44
0.0
 45
0.0
 46
0.0
 47
0.0
 48
0.0
 49
0.0
140
0.0
141
0.0
142
1.0
143
1.0
 70
   688
 72
     1
 73
     0
 74
     5
  7

 75
    16
147
1.0
148
0.0
149
0.0
100
AcDbLayout
  1
Layout1
 70
     1
 71
     1
 10
0.0
 20
0.0
 11
420.0
 21
297.0
 12
0.0
 22
0.0
 32
0.0
 14
1.0000000000E+20
 24
1.0000000000E+20
 34
1.0000000000E+20
 15
-1.0000000000E+20
 25
-1.0000000000E+20
 35
-1.0000000000E+20
146
0.0
 13
0.0
 23
0.0
 33
0.0
 16
1.0
 26
0.0
 36
0.0
 17
0.0
 27
1.0
 37
0.0
 76
     0
330
1B
  0
LAYOUT
  5
26
102
{ACAD_REACTORS
330
1A
102
}
330
1A
100
AcDbPlotSettings
  1

  2
none_device
  4

  6

 40
0.0
 41
0.0
 42
0.0
 43
0.0
 44
0.0
 45
0.0
 46
0.0
 47
0.0
 48
0.0
 49
0.0
140
0.0
141
0.0
142
1.0
143
1.0
 70
   688
 72
     1
 73
     0
 74
     5
  7

 75
    16
147
1.0
148
0.0
149
0.0
100
AcDbLayout
  1
Layout2
 70
     1
 71
     2
 10
0.0
 20
0.0
 11
0.0
 21
0.0
 12
0.0
 22
0.0
 32
0.0
 14
0.0
 24
0.0
 34
0.0
 15
0.0
 25
0.0
 35
0.0
146
0.0
 13
0.0
 23
0.0
 33
0.0
 16
1.0
 26
0.0
 36
0.0
 17
0.0
 27
1.0
 37
0.0
 76
     0
330
23
  0
LAYOUT
  5
22
102
{ACAD_REACTORS
330
1A
102
}
330
1A
100
AcDbPlotSettings
  1

  2
none_device
  4
Letter_(8.50_x_11.00_Inches)
  6

 40
6.35
 41
6.35
 42
6.35000508
 43
6.35000508
 44
215.9
 45
279.4
 46
0.0
 47
0.0
 48
0.0
 49
0.0
140
0.0
141
0.0
142
1.0
143
1.0
 70
  1712
 72
     1
 73
     0
 74
     0
  7

 75
     0
147
1.0
148
0.0
149
0.0
100
AcDbLayout
  1
Model
 70
     1
 71
     0
 10
0.0
 20
0.0
 11
431.8
 21
279.4
 12
0.0
 22
0.0
 32
0.0
 14
0.0
 24
0.0
 34
0.0
 15
431.8
 25
279.4
 35
0.0
146
0.0
 13
0.0
 23
0.0
 33
0.0
 16
1.0
 26
0.0
 36
0.0
 17
0.0
 27
1.0
 37
0.0
 76
     0
330
1F
331
29
  0
MLINESTYLE
  5
18
102
{ACAD_REACTORS
330
17
102
}
330
17
100
AcDbMlineStyle
  2
Standard
 70
     0
  3

 62
   256
 51
90.0
 52
90.0
 71
     2
 49
0.5
 62
   256
  6
BYLAYER
 49
-0.5
 62
   256
  6
BYLAYER
  0
ACDBPLACEHOLDER
  5
F
102
{ACAD_REACTORS
330
E
102
}
330
E
  0
SCALE
  5
48
102
{ACAD_REACTORS
330
47
102
}
330
47
100
AcDbScale
 70
     0
300
1:1
140
1.0
141
1.0
290
     1
  0
SCALE
  5
49
102
{ACAD_REACTORS
330
47
102
}
330
47
100
AcDbScale
 70
     0
300
1:2
140
1.0
141
2.0
290
     0
  0
SCALE
  5
4A
102
{ACAD_REACTORS
330
47
102
}
330
47
100
AcDbScale
 70
     0
300
1:4
140
1.0
141
4.0
290
     0
  0
SCALE
  5
4B
102
{ACAD_REACTORS
330
47
102
}
330
47
100
AcDbScale
 70
     0
300
1:5
140
1.0
141
5.0
290
     0
  0
SCALE
  5
4C
102
{ACAD_REACTORS
330
47
102
}
330
47
100
AcDbScale
 70
     0
300
1:8
140
1.0
141
8.0
290
     0
  0
SCALE
  5
4D
102
{ACAD_REACTORS
330
47
102
}
330
47
100
AcDbScale
 70
     0
300
1:10
140
1.0
141
10.0
290
     0
  0
SCALE
  5
4E
102
{ACAD_REACTORS
330
47
102
}
330
47
100
AcDbScale
 70
     0
300
1:16
140
1.0
141
16.0
290
     0
  0
SCALE
  5
4F
102
{ACAD_REACTORS
330
47
102
}
330
47
100
AcDbScale
 70
     0
300
1:20
140
1.0
141
20.0
290
     0
  0
SCALE
  5
50
102
{ACAD_REACTORS
330
47
102
}
330
47
100
AcDbScale
 70
     0
300
1:30
140
1.0
141
30.0
290
     0
  0
SCALE
  5
51
102
{ACAD_REACTORS
330
47
102
}
330
47
100
AcDbScale
 70
     0
300
1:40
140
1.0
141
40.0
290
     0
  0
SCALE
  5
52
102
{ACAD_REACTORS
330
47
102
}
330
47
100
AcDbScale
 70
     0
300
1:50
140
1.0
141
50.0
290
     0
  0
SCALE
  5
53
102
{ACAD_REACTORS
330
47
102
}
330
47
100
AcDbScale
 70
     0
300
1:100
140
1.0
141
100.0
290
     0
  0
SCALE
  5
54
102
{ACAD_REACTORS
330
47
102
}
330
47
100
AcDbScale
 70
     0
300
2:1
140
2.0
141
1.0
290
     0
  0
SCALE
  5
55
102
{ACAD_REACTORS
330
47
102
}
330
47
100
AcDbScale
 70
     0
300
4:1
140
4.0
141
1.0
290
     0
  0
SCALE
  5
56
102
{ACAD_REACTORS
330
47
102
}
330
47
100
AcDbScale
 70
     0
300
8:1
140
8.0
141
1.0
290
     0
  0
SCALE
  5
57
102
{ACAD_REACTORS
330
47
102
}
330
47
100
AcDbScale
 70
     0
300
10:1
140
10.0
141
1.0
290
     0
  0
SCALE
  5
58
102
{ACAD_REACTORS
330
47
102
}
330
47
100
AcDbScale
 70
     0
300
100:1
140
100.0
141
1.0
290
     0
  0
ENDSEC
  0
EOF
