  0
SECTION
  2
HEADER
  9
$ACADVER
  1
AC1015
  9
$ACADMAINTVER
 70
     6
  9
$DWGCODEPAGE
  3
DOS932
  9
$INSBASE
 10
0.0
 20
0.0
 30
0.0
  9
$EXTMIN
 10
0.0
 20
0.0
 30
0.0
  9
$EXTMAX
 10
297.0
 20
210.0
 30
0.0
  9
$LIMMIN
 10
0.0
 20
0.0
  9
$LIMMAX
 10
297.0
 20
210.0
  9
$ORTHOMODE
 70
     0
  9
$REGENMODE
 70
     1
  9
$FILLMODE
 70
     1
  9
$QTEXTMODE
 70
     0
  9
$MIRRTEXT
 70
     1
  9
$LTSCALE
 40
1.0
  9
$ATTMODE
 70
     1
  9
$TEXTSIZE
 40
3.5277777778
  9
$TRACEWID
 40
1.0
  9
$TEXTSTYLE
  7
Standard
  9
$CLAYER
  8
0
  9
$CELTYPE
  6
ByLayer
  9
$CECOLOR
 62
   256
  9
$CELTSCALE
 40
1.0
  9
$DISPSILH
 70
     0
  9
$DIMSCALE
 40
1.0
  9
$DIMASZ
 40
2.728515625
  9
$DIMEXO
 40
1.0
  9
$DIMDLI
 40
3.75
  9
$DIMRND
 40
0.0
  9
$DIMDLE
 40
0.0
  9
$DIMEXE
 40
1.0
  9
$DIMTP
 40
0.0
  9
$DIMTM
 40
0.0
  9
$DIMTXT
 40
3.5277777778
  9
$DIMCEN
 40
2.5
  9
$DIMTSZ
 40
0.0
  9
$DIMTOL
 70
     0
  9
$DIMLIM
 70
     0
  9
$DIMTIH
 70
     1
  9
$DIMTOH
 70
     1
  9
$DIMSE1
 70
     0
  9
$DIMSE2
 70
     0
  9
$DIMTAD
 70
     1
  9
$DIMZIN
 70
     0
  9
$DIMBLK
  1

  9
$DIMASO
 70
     1
  9
$DIMSHO
 70
     1
  9
$DIMPOST
  1

  9
$DIMAPOST
  1

  9
$DIMALT
 70
     0
  9
$DIMALTD
 70
     3
  9
$DIMALTF
 40
0.0393700787
  9
$DIMLFAC
 40
1.0
  9
$DIMTOFL
 70
     1
  9
$DIMTVP
 40
0.0
  9
$DIMTIX
 70
     0
  9
$DIMSOXD
 70
     0
  9
$DIMSAH
 70
     0
  9
$DIMBLK1
  1

  9
$DIMBLK2
  1

  9
$DIMSTYLE
  2
ISO-25
  9
$DIMCLRD
 70
     0
  9
$DIMCLRE
 70
     0
  9
$DIMCLRT
 70
     0
  9
$DIMTFAC
 40
1.0
  9
$DIMGAP
 40
1.524
  9
$DIMJUST
 70
     0
  9
$DIMSD1
 70
     0
  9
$DIMSD2
 70
     0
  9
$DIMTOLJ
 70
     0
  9
$DIMTZIN
 70
     0
  9
$DIMALTZ
 70
     0
  9
$DIMALTTZ
 70
     0
  9
$DIMUPT
 70
     0
  9
$DIMDEC
 70
     2
  9
$DIMTDEC
 70
     2
  9
$DIMALTU
 70
     2
  9
$DIMALTTD
 70
     3
  9
$DIMTXSTY
  7
Standard
  9
$DIMAUNIT
 70
     0
  9
$DIMADEC
 70
     2
  9
$DIMALTRND
 40
0.0
  9
$DIMAZIN
 70
     0
  9
$DIMDSEP
 70
    44
  9
$DIMATFIT
 70
     3
  9
$DIMFRAC
 70
     0
  9
$DIMLDRBLK
  1

  9
$DIMLUNIT
 70
     2
  9
$DIMLWD
 70
    -2
  9
$DIMLWE
 70
    -2
  9
$DIMTMOVE
 70
     0
  9
$LUNITS
 70
     2
  9
$LUPREC
 70
     2
  9
$SKETCHINC
 40
1.0
  9
$FILLETRAD
 40
0.0
  9
$AUNITS
 70
     0
  9
$AUPREC
 70
     2
  9
$MENU
  1
.
  9
$ELEVATION
 40
0.0
  9
$PELEVATION
 40
0.0
  9
$THICKNESS
 40
0.0
  9
$LIMCHECK
 70
     0
  9
$CHAMFERA
 40
0.0
  9
$CHAMFERB
 40
0.0
  9
$CHAMFERC
 40
0.0
  9
$CHAMFERD
 40
0.0
  9
$SKPOLY
 70
     0
  9
$TDCREATE
 40
2460426.48103912
  9
$TDUCREATE
 40
2460426.10603912
  9
$TDUPDATE
 40
2460426.481039896
  9
$TDUUPDATE
 40
2460426.106039896
  9
$TDINDWG
 40
0.0000000116
  9
$TDUSRTIMER
 40
0.0000000116
  9
$USRTIMER
 70
     1
  9
$ANGBASE
 50
0.0
  9
$ANGDIR
 70
     0
  9
$PDMODE
 70
     0
  9
$PDSIZE
 40
-1.0
  9
$PLINEWID
 40
0.0
  9
$SPLFRAME
 70
     0
  9
$SPLINETYPE
 70
     6
  9
$SPLINESEGS
 70
     8
  9
$HANDSEED
  5
28B
  9
$SURFTAB1
 70
     6
  9
$SURFTAB2
 70
     6
  9
$SURFTYPE
 70
     6
  9
$SURFU
 70
     6
  9
$SURFV
 70
     6
  9
$UCSBASE
  2

  9
$UCSNAME
  2

  9
$UCSORG
 10
0.0
 20
0.0
 30
0.0
  9
$UCSXDIR
 10
1.0
 20
0.0
 30
0.0
  9
$UCSYDIR
 10
0.0
 20
1.0
 30
0.0
  9
$UCSORTHOREF
  2

  9
$UCSORTHOVIEW
 70
     0
  9
$UCSORGTOP
 10
0.0
 20
0.0
 30
0.0
  9
$UCSORGBOTTOM
 10
0.0
 20
0.0
 30
0.0
  9
$UCSORGLEFT
 10
0.0
 20
0.0
 30
0.0
  9
$UCSORGRIGHT
 10
0.0
 20
0.0
 30
0.0
  9
$UCSORGFRONT
 10
0.0
 20
0.0
 30
0.0
  9
$UCSORGBACK
 10
0.0
 20
0.0
 30
0.0
  9
$PUCSBASE
  2

  9
$PUCSNAME
  2

  9
$PUCSORG
 10
0.0
 20
0.0
 30
0.0
  9
$PUCSXDIR
 10
1.0
 20
0.0
 30
0.0
  9
$PUCSYDIR
 10
0.0
 20
1.0
 30
0.0
  9
$PUCSORTHOREF
  2

  9
$PUCSORTHOVIEW
 70
     0
  9
$PUCSORGTOP
 10
0.0
 20
0.0
 30
0.0
  9
$PUCSORGBOTTOM
 10
0.0
 20
0.0
 30
0.0
  9
$PUCSORGLEFT
 10
0.0
 20
0.0
 30
0.0
  9
$PUCSORGRIGHT
 10
0.0
 20
0.0
 30
0.0
  9
$PUCSORGFRONT
 10
0.0
 20
0.0
 30
0.0
  9
$PUCSORGBACK
 10
0.0
 20
0.0
 30
0.0
  9
$USERI1
 70
     0
  9
$USERI2
 70
     0
  9
$USERI3
 70
     0
  9
$USERI4
 70
     0
  9
$USERI5
 70
     0
  9
$USERR1
 40
0.0
  9
$USERR2
 40
0.0
  9
$USERR3
 40
0.0
  9
$USERR4
 40
0.0
  9
$USERR5
 40
0.0
  9
$WORLDVIEW
 70
     1
  9
$SHADEDGE
 70
     3
  9
$SHADEDIF
 70
    70
  9
$TILEMODE
 70
     1
  9
$MAXACTVP
 70
    64
  9
$PINSBASE
 10
0.0
 20
0.0
 30
0.0
  9
$PLIMCHECK
 70
     0
  9
$PEXTMIN
 10
1.0000000000E+20
 20
1.0000000000E+20
 30
1.0000000000E+20
  9
$PEXTMAX
 10
-1.0000000000E+20
 20
-1.0000000000E+20
 30
-1.0000000000E+20
  9
$PLIMMIN
 10
0.0
 20
0.0
  9
$PLIMMAX
 10
420.0
 20
297.0
  9
$UNITMODE
 70
     0
  9
$VISRETAIN
 70
     1
  9
$PLINEGEN
 70
     0
  9
$PSLTSCALE
 70
     1
  9
$TREEDEPTH
 70
  3020
  9
$CMLSTYLE
  2
Standard
  9
$CMLJUST
 70
     0
  9
$CMLSCALE
 40
20.0
  9
$PROXYGRAPHICS
 70
     1
  9
$MEASUREMENT
 70
     1
  9
$CELWEIGHT
370
    -1
  9
$ENDCAPS
280
     0
  9
$JOINSTYLE
280
     0
  9
$LWDISPLAY
290
     1
  9
$INSUNITS
 70
     4
  9
$HYPERLINKBASE
  1

  9
$STYLESHEET
  1

  9
$XEDIT
290
     1
  9
$CEPSNTYPE
380
     0
  9
$PSTYLEMODE
290
     1
  9
$FINGERPRINTGUID
  2
{fa2ef921-391b-4392-b978-6bec1829d0cd}
  9
$VERSIONGUID
  2
{FAEB1C32-E019-11D5-929B-00C0DF256EC4}
  9
$EXTNAMES
290
     1
  9
$PSVPSCALE
 40
0.0
  9
$OLESTARTUP
290
     0
  0
ENDSEC
  0
SECTION
  2
CLASSES
  0
CLASS
  1
ACDBDICTIONARYWDFLT
  2
AcDbDictionaryWithDefault
  3
ObjectDBX Classes
 90
        0
280
     0
281
     0
  0
CLASS
  1
VISUALSTYLE
  2
AcDbVisualStyle
  3
ObjectDBX Classes
 90
     4095
280
     0
281
     0
  0
CLASS
  1
MATERIAL
  2
AcDbMaterial
  3
ObjectDBX Classes
 90
     1153
280
     0
281
     0
  0
CLASS
  1
SCALE
  2
AcDbScale
  3
ObjectDBX Classes
 90
     1153
280
     0
281
     0
  0
CLASS
  1
TABLESTYLE
  2
AcDbTableStyle
  3
ObjectDBX Classes
 90
     4095
280
     0
281
     0
  0
CLASS
  1
MLEADERSTYLE
  2
AcDbMLeaderStyle
  3
ACDB_MLEADERSTYLE_CLASS
 90
     4095
280
     0
281
     0
  0
CLASS
  1
SUN
  2
AcDbSun
  3
SCENEOE
 90
     1153
280
     0
281
     0
  0
CLASS
  1
ACDBPLACEHOLDER
  2
AcDbPlaceHolder
  3
ObjectDBX Classes
 90
        0
280
     0
281
     0
  0
CLASS
  1
LAYOUT
  2
AcDbLayout
  3
ObjectDBX Classes
 90
        0
280
     0
281
     0
  0
ENDSEC
  0
SECTION
  2
TABLES
  0
TABLE
  2
VPORT
  5
8
330
0
100
AcDbSymbolTable
 70
     1
  0
VPORT
  5
29
330
8
100
AcDbSymbolTableRecord
100
AcDbViewportTableRecord
  2
*Active
 70
     0
 10
0.0
 20
0.0
 11
1.0
 21
1.0
 12
148.5
 22
105.0
 13
0.0
 23
0.0
 14
10.0
 24
10.0
 15
10.0
 25
10.0
 16
0.0
 26
0.0
 36
1.0
 17
0.0
 27
0.0
 37
0.0
 40
210.0
 41
1.4142857143
 42
50.0
 43
0.0
 44
0.0
 50
0.0
 51
0.0
 71
     0
 72
  2000
 73
     1
 74
     3
 75
     0
 76
     0
 77
     0
 78
     0
281
     0
 65
     1
110
0.0
120
0.0
130
0.0
111
1.0
121
0.0
131
0.0
112
0.0
122
1.0
132
0.0
 79
     0
146
0.0
  0
ENDTAB
  0
TABLE
  2
LTYPE
  5
5
330
0
100
AcDbSymbolTable
 70
     6
  0
LTYPE
  5
14
330
5
100
AcDbSymbolTableRecord
100
AcDbLinetypeTableRecord
  2
ByBlock
 70
     0
  3

 72
    65
 73
     0
 40
0.0
  0
LTYPE
  5
15
330
5
100
AcDbSymbolTableRecord
100
AcDbLinetypeTableRecord
  2
ByLayer
 70
     0
  3

 72
    65
 73
     0
 40
0.0
  0
LTYPE
  5
16
330
5
100
AcDbSymbolTableRecord
100
AcDbLinetypeTableRecord
  2
Continuous
 70
     0
  3
Solid line
 72
    65
 73
     0
 40
0.0
  0
LTYPE
  5
5E
330
5
100
AcDbSymbolTableRecord
100
AcDbLinetypeTableRecord
  2
HIDDEN
 70
     0
  3
Hidden __ __ __ __ __ __ __ __ __ __ __ __ __ __
 72
    65
 73
     2
 40
1.905
 49
1.27
 74
     0
 49
-0.635
 74
     0
  0
LTYPE
  5
5F
330
5
100
AcDbSymbolTableRecord
100
AcDbLinetypeTableRecord
  2
PHANTOM
 70
     0
  3
Phantom ______  __  __  ______  __  __  ______
 72
    65
 73
     6
 40
12.7
 49
6.35
 74
     0
 49
-1.27
 74
     0
 49
1.27
 74
     0
 49
-1.27
 74
     0
 49
1.27
 74
     0
 49
-1.27
 74
     0
  0
LTYPE
  5
60
330
5
100
AcDbSymbolTableRecord
100
AcDbLinetypeTableRecord
  2
CENTER
 70
     0
  3
Center ____ _ ____ _ ____ _ ____ _ ____ _ ____
 72
    65
 73
     4
 40
10.16
 49
6.35
 74
     0
 49
-1.27
 74
     0
 49
1.27
 74
     0
 49
-1.27
 74
     0
  0
LTYPE
  5
61
330
5
100
AcDbSymbolTableRecord
100
AcDbLinetypeTableRecord
  2
CENTERX2
 70
     0
  3
Center (2x) ________  __  ________  __  _____
 72
    65
 73
     4
 40
20.32
 49
12.7
 74
     0
 49
-2.54
 74
     0
 49
2.54
 74
     0
 49
-2.54
 74
     0
  0
LTYPE
  5
62
330
5
100
AcDbSymbolTableRecord
100
AcDbLinetypeTableRecord
  2
DOT2
 70
     0
  3
Dot (.5x) ........................................
 72
    65
 73
     2
 40
0.635
 49
0.0
 74
     0
 49
-0.635
 74
     0
  0
ENDTAB
  0
TABLE
  2
LAYER
  5
2
330
0
100
AcDbSymbolTable
 70
     2
  0
LAYER
  5
10
330
2
100
AcDbSymbolTableRecord
100
AcDbLayerTableRecord
  2
0
 70
     0
 62
     7
  6
Continuous
370
    -3
390
F
  0
LAYER
  5
63
330
2
100
AcDbSymbolTableRecord
100
AcDbLayerTableRecord
  2
FORMAT
 70
     0
 62
     7
  6
Continuous
370
    -3
390
F
  0
ENDTAB
  0
TABLE
  2
STYLE
  5
3
330
0
100
AcDbSymbolTable
 70
     2
  0
STYLE
  5
11
330
3
100
AcDbSymbolTableRecord
100
AcDbTextStyleTableRecord
  2
Standard
 70
     0
 40
0.0
 41
1.0
 50
0.0
 71
     0
 42
3.5277777778
  3
txt
  4
bigfont
  0
STYLE
  5
64
330
3
100
AcDbSymbolTableRecord
100
AcDbTextStyleTableRecord
  2
SLDTEXTSTYLE0
 70
     0
 40
0.0
 41
0.7
 50
0.0
 71
     0
 42
3.5277777778
  3
TXT
  4
bigfont
  0
ENDTAB
  0
TABLE
  2
VIEW
  5
6
330
0
100
AcDbSymbolTable
 70
     0
  0
ENDTAB
  0
TABLE
  2
UCS
  5
7
330
0
100
AcDbSymbolTable
 70
     0
  0
ENDTAB
  0
TABLE
  2
APPID
  5
9
330
0
100
AcDbSymbolTable
 70
     1
  0
APPID
  5
12
330
9
100
AcDbSymbolTableRecord
100
AcDbRegAppTableRecord
  2
ACAD
 70
     0
  0
ENDTAB
  0
TABLE
  2
DIMSTYLE
  5
A
330
0
100
AcDbSymbolTable
 70
     1
100
AcDbDimStyleTable
  0
DIMSTYLE
105
27
330
A
100
AcDbSymbolTableRecord
100
AcDbDimStyleTableRecord
  2
ISO-25
 70
     0
 41
2.5
 42
0.625
 43
3.75
 44
1.25
 73
     0
 74
     0
 77
     1
 78
     8
140
2.5
141
2.5
143
0.0393700787
147
0.625
171
     3
172
     1
178
     0
271
     2
272
     2
274
     3
278
    44
283
     0
284
     8
340
11
  0
ENDTAB
  0
TABLE
  2
BLOCK_RECORD
  5
1
330
0
100
AcDbSymbolTable
 70
     3
  0
BLOCK_RECORD
  5
1F
330
1
100
AcDbSymbolTableRecord
100
AcDbBlockTableRecord
  2
*Model_Space
340
22
  0
BLOCK_RECORD
  5
1B
330
1
100
AcDbSymbolTableRecord
100
AcDbBlockTableRecord
  2
*Paper_Space
340
1E
  0
BLOCK_RECORD
  5
23
330
1
100
AcDbSymbolTableRecord
100
AcDbBlockTableRecord
  2
*Paper_Space0
340
26
  0
BLOCK_RECORD
  5
1DA
330
1
100
AcDbSymbolTableRecord
100
AcDbBlockTableRecord
  2
SW_CENTERMARKSYMBOL_0
340
0
102
{BLKREFS
331
1E5
102
}
  0
BLOCK_RECORD
  5
27E
330
1
100
AcDbSymbolTableRecord
100
AcDbBlockTableRecord
  2
SW_CENTERMARKSYMBOL_1
340
0
102
{BLKREFS
331
289
102
}
  0
ENDTAB
  0
ENDSEC
  0
SECTION
  2
BLOCKS
  0
BLOCK
  5
20
330
1F
100
AcDbEntity
  8
0
100
AcDbBlockBegin
  2
*Model_Space
 70
     0
 10
0.0
 20
0.0
 30
0.0
  3
*Model_Space
  1

  0
ENDBLK
  5
21
330
1F
100
AcDbEntity
  8
0
100
AcDbBlockEnd
  0
BLOCK
  5
1C
330
1B
100
AcDbEntity
 67
     1
  8
0
100
AcDbBlockBegin
  2
*Paper_Space
 70
     0
 10
0.0
 20
0.0
 30
0.0
  3
*Paper_Space
  1

  0
ENDBLK
  5
1D
330
1B
100
AcDbEntity
 67
     1
  8
0
100
AcDbBlockEnd
  0
BLOCK
  5
24
330
23
100
AcDbEntity
  8
0
100
AcDbBlockBegin
  2
*Paper_Space0
 70
     0
 10
0.0
 20
0.0
 30
0.0
  3
*Paper_Space0
  1

  0
ENDBLK
  5
25
330
23
100
AcDbEntity
  8
0
100
AcDbBlockEnd
  0
BLOCK
  5
1DB
330
1DA
100
AcDbEntity
  8
0
100
AcDbBlockBegin
  2
SW_CENTERMARKSYMBOL_0
 70
     0
 10
0.0
 20
0.0
 30
0.0
  3
SW_CENTERMARKSYMBOL_0
  1

  0
LINE
  5
1DD
330
1DA
100
AcDbEntity
  8
FORMAT
 62
     0
100
AcDbLine
 10
0.0
 20
0.0
 30
0.0
 11
0.0
 21
2.5
 31
0.0
  0
LINE
  5
1DE
330
1DA
100
AcDbEntity
  8
FORMAT
 62
     0
100
AcDbLine
 10
0.0
 20
0.0
 30
0.0
 11
-2.5
 21
0.0
 31
0.0
  0
LINE
  5
1DF
330
1DA
100
AcDbEntity
  8
FORMAT
 62
     0
100
AcDbLine
 10
0.0
 20
0.0
 30
0.0
 11
0.0
 21
-2.5
 31
0.0
  0
LINE
  5
1E0
330
1DA
100
AcDbEntity
  8
FORMAT
 62
     0
100
AcDbLine
 10
0.0
 20
0.0
 30
0.0
 11
2.5
 21
0.0
 31
0.0
  0
LINE
  5
1E1
330
1DA
100
AcDbEntity
  8
FORMAT
 62
     0
100
AcDbLine
 10
0.0
 20
5.0
 30
0.0
 11
0.0
 21
29.8875086193
 31
0.0
  0
LINE
  5
1E2
330
1DA
100
AcDbEntity
  8
FORMAT
 62
     0
100
AcDbLine
 10
-5.0
 20
0.0
 30
0.0
 11
-10.75
 21
0.0
 31
0.0
  0
LINE
  5
1E3
330
1DA
100
AcDbEntity
  8
FORMAT
 62
     0
100
AcDbLine
 10
0.0
 20
-5.0
 30
0.0
 11
0.0
 21
-24.9892206018
 31
0.0
  0
LINE
  5
1E4
330
1DA
100
AcDbEntity
  8
FORMAT
 62
     0
100
AcDbLine
 10
5.0
 20
0.0
 30
0.0
 11
10.75
 21
0.0
 31
0.0
  0
ENDBLK
  5
1DC
330
1DA
100
AcDbEntity
  8
0
100
AcDbBlockEnd
  0
BLOCK
  5
27F
330
27E
100
AcDbEntity
  8
0
100
AcDbBlockBegin
  2
SW_CENTERMARKSYMBOL_1
 70
     0
 10
0.0
 20
0.0
 30
0.0
  3
SW_CENTERMARKSYMBOL_1
  1

  0
LINE
  5
281
330
27E
100
AcDbEntity
  8
FORMAT
 62
     0
100
AcDbLine
 10
0.0
 20
0.0
 30
0.0
 11
0.0
 21
2.5
 31
0.0
  0
LINE
  5
282
330
27E
100
AcDbEntity
  8
FORMAT
 62
     0
100
AcDbLine
 10
0.0
 20
0.0
 30
0.0
 11
-2.5
 21
0.0
 31
0.0
  0
LINE
  5
283
330
27E
100
AcDbEntity
  8
FORMAT
 62
     0
100
AcDbLine
 10
0.0
 20
0.0
 30
0.0
 11
0.0
 21
-2.5
 31
0.0
  0
LINE
  5
284
330
27E
100
AcDbEntity
  8
FORMAT
 62
     0
100
AcDbLine
 10
0.0
 20
0.0
 30
0.0
 11
2.5
 21
0.0
 31
0.0
  0
LINE
  5
285
330
27E
100
AcDbEntity
  8
FORMAT
 62
     0
100
AcDbLine
 10
0.0
 20
5.0
 30
0.0
 11
0.0
 21
9.95
 31
0.0
  0
LINE
  5
286
330
27E
100
AcDbEntity
  8
FORMAT
 62
     0
100
AcDbLine
 10
-5.0
 20
0.0
 30
0.0
 11
-41.7076586155
 21
0.0
 31
0.0
  0
LINE
  5
287
330
27E
100
AcDbEntity
  8
FORMAT
 62
     0
100
AcDbLine
 10
0.0
 20
-5.0
 30
0.0
 11
0.0
 21
-9.95
 31
0.0
  0
LINE
  5
288
330
27E
100
AcDbEntity
  8
FORMAT
 62
     0
100
AcDbLine
 10
5.0
 20
0.0
 30
0.0
 11
13.3094202968
 21
0.0
 31
0.0
  0
ENDBLK
  5
280
330
27E
100
AcDbEntity
  8
0
100
AcDbBlockEnd
  0
ENDSEC
  0
SECTION
  2
ENTITIES
  0
MTEXT
  5
65
330
1F
100
AcDbEntity
  8
FORMAT
100
AcDbMText
 10
122.7807061907
 20
104.6520061506
 30
0.0
 40
3.7041666667
 41
0.0
 71
     1
 72
     1
  1
エースボール　アングル型
  7
SLDTEXTSTYLE0
 73
     1
 44
1.0
  0
MTEXT
  5
66
330
1F
100
AcDbEntity
  8
FORMAT
100
AcDbMText
 10
122.7807061907
 20
98.7131171575
 30
0.0
 40
3.7041666667
 41
0.0
 71
     1
 72
     1
  1
BC-3210R
  7
SLDTEXTSTYLE0
 73
     1
 44
1.0
  0
ARC
  5
67
330
1F
100
AcDbEntity
  8
0
  6
Continuous
 62
     7
370
    25
100
AcDbCircle
 10
84.5141769424
 20
65.5804690078
 30
0.0
 40
0.2999999999999972
100
AcDbArc
 50
90.0
 51
180.0
  0
ARC
  5
68
330
1F
100
AcDbEntity
  8
0
  6
Continuous
 62
     7
370
    25
100
AcDbCircle
 10
84.5141769424
 20
49.6804690078
 30
0.0
 40
0.2999999999999972
100
AcDbArc
 50
180.0
 51
270.0
  0
LINE
  5
69
330
1F
100
AcDbEntity
  8
0
  6
Continuous
 62
     7
370
    25
100
AcDbLine
 10
85.4641769424
 20
65.8804690078
 30
0.0
 11
84.5141769424
 21
65.8804690078
 31
0.0
  0
LINE
  5
6A
330
1F
100
AcDbEntity
  8
0
  6
Continuous
 62
     7
370
    25
100
AcDbLine
 10
84.5141769424
 20
49.3804690078
 30
0.0
 11
85.4641769424
 21
49.3804690078
 31
0.0
  0
LINE
  5
6B
330
1F
100
AcDbEntity
  8
0
  6
Continuous
 62
     7
370
    25
100
AcDbLine
 10
87.2141769424
 20
65.3804690078
 30
0.0
 11
86.4141769424
 21
65.3804690078
 31
0.0
  0
LINE
  5
6C
330
1F
100
AcDbEntity
  8
0
  6
Continuous
 62
     7
370
    25
100
AcDbLine
 10
86.4141769424
 20
49.8804690078
 30
0.0
 11
87.2141769424
 21
49.8804690078
 31
0.0
  0
ARC
  5
6D
330
1F
100
AcDbEntity
  8
0
  6
Continuous
 62
     7
370
    25
100
AcDbCircle
 10
86.4141769424
 20
65.1804690078
 30
0.0
 40
0.2000000000000028
100
AcDbArc
 50
90.0
 51
180.0
  0
ARC
  5
6E
330
1F
100
AcDbEntity
  8
0
  6
Continuous
 62
     7
370
    25
100
AcDbCircle
 10
86.4141769424
 20
50.0804690078
 30
0.0
 40
0.2000000000000028
100
AcDbArc
 50
180.0
 51
270.0
  0
LINE
  5
6F
330
1F
100
AcDbEntity
  8
0
  6
Continuous
 62
     7
370
    25
100
AcDbLine
 10
86.2141769424
 20
64.0054690078
 30
0.0
 11
85.4641769424
 21
64.0054690078
 31
0.0
  0
LINE
  5
70
330
1F
100
AcDbEntity
  8
0
  6
Continuous
 62
     7
370
    25
100
AcDbLine
 10
85.4641769424
 20
51.2554690078
 30
0.0
 11
86.2141769424
 21
51.2554690078
 31
0.0
  0
LINE
  5
71
330
1F
100
AcDbEntity
  8
0
  6
Continuous
 62
     7
370
    25
100
AcDbLine
 10
87.4141769424
 20
67.3804690078
 30
0.0
 11
87.2141769424
 21
67.1804690078
 31
0.0
  0
LINE
  5
72
330
1F
100
AcDbEntity
  8
0
  6
Continuous
 62
     7
370
    25
100
AcDbLine
 10
87.2141769424
 20
48.0804690078
 30
0.0
 11
87.4141769424
 21
47.8804690078
 31
0.0
  0
LINE
  5
73
330
1F
100
AcDbEntity
  8
0
  6
Continuous
 62
     7
370
    25
100
AcDbLine
 10
106.4924891059
 20
47.8804690078
 30
0.0
 11
107.2141769424
 21
49.1304690078
 31
0.0
  0
LINE
  5
74
330
1F
100
AcDbEntity
  8
0
  6
Continuous
 62
     7
370
    25
100
AcDbLine
 10
107.2141769424
 20
66.1304690078
 30
0.0
 11
106.4924891059
 21
67.3804690078
 31
0.0
  0
LINE
  5
75
330
1F
100
AcDbEntity
  8
0
  6
Continuous
 62
     7
370
    25
100
AcDbLine
 10
106.4924891059
 20
67.3804690078
 30
0.0
 11
87.4141769424
 21
67.3804690078
 31
0.0
  0
LINE
  5
76
330
1F
100
AcDbEntity
  8
0
  6
Continuous
 62
     7
370
    25
100
AcDbLine
 10
87.4141769424
 20
47.8804690078
 30
0.0
 11
106.4924891059
 21
47.8804690078
 31
0.0
  0
LINE
  5
77
330
1F
100
AcDbEntity
  8
0
  6
Continuous
 62
     7
370
    25
100
AcDbLine
 10
126.1641769424
 20
76.1304690078
 30
0.0
 11
124.2141769424
 21
84.1304690077
 31
0.0
  0
LINE
  5
78
330
1F
100
AcDbEntity
  8
0
  6
Continuous
 62
     7
370
    25
100
AcDbLine
 10
125.7141769424
 20
68.1304690078
 30
0.0
 11
126.1641769424
 21
76.1304690078
 31
0.0
  0
LINE
  5
79
330
1F
100
AcDbEntity
  8
0
  6
Continuous
 62
     7
370
    25
100
AcDbLine
 10
111.6435203167
 20
69.3865867991
 30
0.0
 11
111.7141769424
 21
68.1304690078
 31
0.0
  0
LINE
  5
7A
330
1F
100
AcDbEntity
  8
0
  6
Continuous
 62
     7
370
    25
100
AcDbLine
 10
113.2141769424
 20
84.1304690077
 30
0.0
 11
112.9609454079
 21
83.0915704046
 31
0.0
  0
LINE
  5
7B
330
1F
100
AcDbEntity
  8
0
  6
Continuous
 62
     7
370
    25
100
AcDbLine
 10
129.8553081953
 20
47.8928647007
 30
0.0
 11
130.7141769424
 21
49.3804690078
 31
0.0
  0
LINE
  5
7C
330
1F
100
AcDbEntity
  8
0
  6
Continuous
 62
     7
370
    25
100
AcDbLine
 10
130.7141769424
 20
65.8804690078
 30
0.0
 11
129.8553081953
 21
67.3680733148
 31
0.0
  0
LINE
  5
7D
330
1F
100
AcDbEntity
  8
0
  6
Continuous
 62
     7
370
    25
100
AcDbLine
 10
111.9559894424
 20
45.6304690078
 30
0.0
 11
112.2496248839
 21
36.2341348816
 31
0.0
  0
LINE
  5
7E
330
1F
100
AcDbEntity
  8
0
  6
Continuous
 62
     7
370
    25
100
AcDbLine
 10
125.178729001
 20
36.2341348816
 30
0.0
 11
125.4723644424
 21
45.6304690078
 31
0.0
  0
SPLINE
  5
7F
330
1F
100
AcDbEntity
  8
0
  6
Continuous
 62
     7
370
    25
100
AcDbSpline
210
0.0
220
0.0
230
1.0
 70
     8
 71
     3
 72
    11
 73
     7
 74
     0
 42
0.00000001
 43
0.00000001
 40
0.0
 40
0.0
 40
0.0
 40
0.0
 40
0.1938427411800586
 40
0.4530233903228436
 40
0.7169693185797155
 40
1.0
 40
1.0
 40
1.0
 40
1.0
 10
112.8246548360418
 20
67.13244294130612
 30
0.0
 10
112.8247141891796
 20
67.08146331903555
 30
0.0
 10
112.8248529014136
 20
66.96232054805638
 30
0.0
 10
112.7766989582149
 20
66.77869111237258
 30
0.0
 10
112.6886580909272
 20
66.58437337776984
 30
0.0
 10
112.5949760618607
 20
66.4748433914839
 30
0.0
 10
112.5465007010237
 20
66.41816757371402
 30
0.0
  0
SPLINE
  5
80
330
1F
100
AcDbEntity
  8
0
  6
Continuous
 62
     7
370
    25
100
AcDbSpline
210
0.0
220
0.0
230
1.0
 70
     8
 71
     3
 72
    12
 73
     8
 74
     0
 42
0.00000001
 43
0.00000001
 40
0.0
 40
0.0
 40
0.0
 40
0.0
 40
0.1038355413829016
 40
0.3986846474316255
 40
0.6671848830322868
 40
0.9142061116068729
 40
1.0
 40
1.0
 40
1.0
 40
1.0
 10
124.9000207045669
 20
66.43633770650281
 30
0.0
 10
124.8806218777973
 20
66.45444116236999
 30
0.0
 10
124.8061385717129
 20
66.52395079099585
 30
0.0
 10
124.7166602434634
 20
66.67267163317031
 30
0.0
 10
124.6432815870023
 20
66.86580520814755
 30
0.0
 10
124.6130680344599
 20
67.01842206936753
 30
0.0
 10
124.6162683770442
 20
67.1033652070845
 30
0.0
 10
124.6170933691209
 20
67.12526205523083
 30
0.0
  0
LINE
  5
81
330
1F
100
AcDbEntity
  8
0
  6
Continuous
 62
     7
370
    25
100
AcDbLine
 10
112.2496248839
 20
36.2341348816
 30
0.0
 11
113.4641769424
 21
34.1304690078
 31
0.0
  0
LINE
  5
82
330
1F
100
AcDbEntity
  8
0
  6
Continuous
 62
     7
370
    25
100
AcDbLine
 10
123.9641769424
 20
34.1304690078
 30
0.0
 11
125.178729001
 21
36.2341348816
 31
0.0
  0
LINE
  5
83
330
1F
100
AcDbEntity
  8
0
  6
Continuous
 62
     7
370
    25
100
AcDbLine
 10
124.6141769424
 20
67.1259381877
 30
0.0
 11
124.6141769424
 21
68.1304690078
 31
0.0
  0
LINE
  5
84
330
1F
100
AcDbEntity
  8
0
  6
Continuous
 62
     7
370
    25
100
AcDbLine
 10
112.8141769424
 20
68.1304690078
 30
0.0
 11
112.8141769424
 21
67.1304690078
 31
0.0
  0
LINE
  5
85
330
1F
100
AcDbEntity
  8
0
  6
Continuous
 62
     7
370
    25
100
AcDbLine
 10
112.5440100351
 20
66.425206737
 30
0.0
 11
111.9996457626
 21
67.3680733148
 31
0.0
  0
LINE
  5
86
330
1F
100
AcDbEntity
  8
0
  6
Continuous
 62
     7
370
    25
100
AcDbLine
 10
107.9287081222
 20
67.3680733148
 30
0.0
 11
107.2141769424
 21
66.1304690078
 31
0.0
  0
LINE
  5
87
330
1F
100
AcDbEntity
  8
0
  6
Continuous
 62
     7
370
    25
100
AcDbLine
 10
125.4287081222
 20
67.3680733148
 30
0.0
 11
124.8843438498
 21
66.425206737
 31
0.0
  0
LINE
  5
88
330
1F
100
AcDbEntity
  8
0
  6
Continuous
 62
     7
370
    25
100
AcDbLine
 10
127.2141769424
 20
45.6304690078
 30
0.0
 11
128.4517812495
 21
46.3450001876
 31
0.0
  0
LINE
  5
89
330
1F
100
AcDbEntity
  8
0
  6
Continuous
 62
     7
370
    25
100
AcDbLine
 10
108.9765726354
 20
46.3450001876
 30
0.0
 11
110.2141769424
 21
45.6304690078
 31
0.0
  0
LINE
  5
8A
330
1F
100
AcDbEntity
  8
0
  6
Continuous
 62
     7
370
    25
100
AcDbLine
 10
107.2141769424
 20
49.1304690078
 30
0.0
 11
107.9287081222
 21
47.8928647007
 31
0.0
  0
LINE
  5
8B
330
1F
100
AcDbEntity
  8
0
  6
Continuous
 62
     7
370
    25
100
AcDbLine
 10
128.4517812495
 20
47.8928647007
 30
0.0
 11
129.8578762508
 21
47.8928647007
 31
0.0
  0
LINE
  5
8C
330
1F
100
AcDbEntity
  8
0
  6
Continuous
 62
     7
370
    25
100
AcDbLine
 10
128.4517812495
 20
46.3424398062
 30
0.0
 11
128.4517812495
 21
47.8928647007
 31
0.0
  0
LINE
  5
8D
330
1F
100
AcDbEntity
  8
0
  6
Continuous
 62
     7
370
    25
100
AcDbLine
 10
112.0022138181
 20
67.3680733148
 30
0.0
 11
107.9261477409
 21
67.3680733148
 31
0.0
  0
LINE
  5
8E
330
1F
100
AcDbEntity
  8
0
  6
Continuous
 62
     7
370
    25
100
AcDbLine
 10
129.8578762508
 20
67.3680733148
 30
0.0
 11
125.4261400668
 21
67.3680733148
 31
0.0
  0
LINE
  5
8F
330
1F
100
AcDbEntity
  8
0
  6
Continuous
 62
     7
370
    25
100
AcDbLine
 10
108.9765726354
 20
47.8928647007
 30
0.0
 11
108.9765726354
 21
46.3424398062
 31
0.0
  0
LINE
  5
90
330
1F
100
AcDbEntity
  8
0
  6
Continuous
 62
     7
370
    25
100
AcDbLine
 10
107.9261477409
 20
47.8928647007
 30
0.0
 11
108.9765726354
 21
47.8928647007
 31
0.0
  0
LINE
  5
91
330
1F
100
AcDbEntity
  8
0
  6
Continuous
 62
     7
370
    25
100
AcDbLine
 10
84.2141769424
 20
49.6804690078
 30
0.0
 11
84.2141769424
 21
65.5804690078
 31
0.0
  0
LINE
  5
92
330
1F
100
AcDbEntity
  8
0
  6
Continuous
 62
     7
370
    25
100
AcDbLine
 10
85.4641769424
 20
65.8804690078
 30
0.0
 11
85.4641769424
 21
49.3804690078
 31
0.0
  0
LINE
  5
93
330
1F
100
AcDbEntity
  8
0
  6
Continuous
 62
     7
370
    25
100
AcDbLine
 10
86.2141769424
 20
50.0804690078
 30
0.0
 11
86.2141769424
 21
65.1804690078
 31
0.0
  0
LINE
  5
94
330
1F
100
AcDbEntity
  8
0
  6
Continuous
 62
     7
370
    25
100
AcDbLine
 10
87.2141769424
 20
54.0185728018
 30
0.0
 11
87.2141769424
 21
67.1804690078
 31
0.0
  0
LINE
  5
95
330
1F
100
AcDbEntity
  8
0
  6
Continuous
 62
     7
370
    25
100
AcDbLine
 10
87.2141769424
 20
48.0804690078
 30
0.0
 11
87.2141769424
 21
54.0185728018
 31
0.0
  0
LINE
  5
96
330
1F
100
AcDbEntity
  8
0
  6
Continuous
 62
     7
370
    25
100
AcDbLine
 10
87.4141769424
 20
53.9429309965
 30
0.0
 11
87.4141769424
 21
47.8804690078
 31
0.0
  0
LINE
  5
97
330
1F
100
AcDbEntity
  8
0
  6
Continuous
 62
     7
370
    25
100
AcDbLine
 10
87.4141769424
 20
67.3804690078
 30
0.0
 11
87.4141769424
 21
53.9429309965
 31
0.0
  0
LINE
  5
98
330
1F
100
AcDbEntity
  8
0
  6
Continuous
 62
     7
370
    25
100
AcDbLine
 10
106.4924891059
 20
53.9429309965
 30
0.0
 11
106.4924891059
 21
47.8804690078
 31
0.0
  0
LINE
  5
99
330
1F
100
AcDbEntity
  8
0
  6
Continuous
 62
     7
370
    25
100
AcDbLine
 10
106.4924891059
 20
67.3804690078
 30
0.0
 11
106.4924891059
 21
53.9429309965
 31
0.0
  0
LINE
  5
9A
330
1F
100
AcDbEntity
  8
0
  6
Continuous
 62
     7
370
    25
100
AcDbLine
 10
107.2141769424
 20
66.1304690078
 30
0.0
 11
107.2141769424
 21
49.1304690078
 31
0.0
  0
LINE
  5
9B
330
1F
100
AcDbEntity
  8
0
  6
Continuous
 62
     7
370
    25
100
AcDbLine
 10
123.9532622751
 20
84.1304690078
 30
0.0
 11
123.9532622751
 21
84.7304690078
 31
0.0
  0
LINE
  5
9C
330
1F
100
AcDbEntity
  8
0
  6
Continuous
 62
     7
370
    25
100
AcDbLine
 10
113.4750916098
 20
84.7304690078
 30
0.0
 11
113.4750916098
 21
84.1304690078
 31
0.0
  0
LINE
  5
9D
330
1F
100
AcDbEntity
  8
0
  6
Continuous
 62
     7
370
    25
100
AcDbLine
 10
123.9532622751
 20
84.7304690078
 30
0.0
 11
113.4750916098
 21
84.7304690078
 31
0.0
  0
LINE
  5
9E
330
1F
100
AcDbEntity
  8
0
  6
Continuous
 62
     7
370
    25
100
AcDbLine
 10
113.4750916098
 20
84.1304690078
 30
0.0
 11
123.9532622751
 21
84.1304690078
 31
0.0
  0
SPLINE
  5
9F
330
1F
100
AcDbEntity
  8
0
  6
Continuous
 62
     7
370
    25
100
AcDbSpline
210
0.0
220
0.0
230
1.0
 70
     8
 71
     3
 72
    15
 73
    11
 74
     0
 42
0.00000001
 43
0.00000001
 40
0.0
 40
0.0
 40
0.0
 40
0.0
 40
0.0090459071881971
 40
0.1032433785236816
 40
0.1542564497735189
 40
0.31331690267151
 40
0.5243720399414428
 40
0.6678060008509183
 40
0.9918332554187028
 40
1.0
 40
1.0
 40
1.0
 40
1.0
 10
123.9532622750864
 20
84.73046900775319
 30
0.0
 10
123.9532565831197
 20
84.73215010633761
 30
0.0
 10
123.9531916191689
 20
84.75133693789313
 30
0.0
 10
123.951195932733
 20
84.78003121741312
 30
0.0
 10
123.9433789365166
 20
84.83070725738503
 30
0.0
 10
123.9262091127616
 20
84.88858355696193
 30
0.0
 10
123.8996252161941
 20
84.93344907169663
 30
0.0
 10
123.8617959177054
 20
84.97081145495116
 30
0.0
 10
123.8335151376952
 20
84.98035746722063
 30
0.0
 10
123.8136839901639
 20
84.9804663314074
 30
0.0
 10
123.8131964560211
 20
84.98046900775319
 30
0.0
  0
SPLINE
  5
A0
330
1F
100
AcDbEntity
  8
0
  6
Continuous
 62
     7
370
    25
100
AcDbSpline
210
0.0
220
0.0
230
1.0
 70
     8
 71
     3
 72
    15
 73
    11
 74
     0
 42
0.00000001
 43
0.00000001
 40
0.0
 40
0.0
 40
0.0
 40
0.0
 40
0.0081667445812973
 40
0.3321939991490804
 40
0.475627960058556
 40
0.6866830973284891
 40
0.8457435502264751
 40
0.8967566214763124
 40
0.9909540928118028
 40
1.0
 40
1.0
 40
1.0
 40
1.0
 10
113.6151574288355
 20
84.98046900775319
 30
0.0
 10
113.6146698946926
 20
84.9804663314074
 30
0.0
 10
113.5948387471613
 20
84.98035746722057
 30
0.0
 10
113.5665579671511
 20
84.97081145495117
 30
0.0
 10
113.5287286686625
 20
84.93344907169663
 30
0.0
 10
113.5021447720949
 20
84.88858355696193
 30
0.0
 10
113.48497494834
 20
84.83070725738504
 30
0.0
 10
113.4771579521235
 20
84.78003121741312
 30
0.0
 10
113.4751622656876
 20
84.7513369378931
 30
0.0
 10
113.4750973017368
 20
84.73215010633761
 30
0.0
 10
113.4750916097701
 20
84.73046900775319
 30
0.0
  0
LINE
  5
A1
330
1F
100
AcDbEntity
  8
0
  6
Continuous
 62
     7
370
    25
100
AcDbLine
 10
113.6151574288
 20
84.9804690078
 30
0.0
 11
123.813196456
 21
84.9804690078
 31
0.0
  0
SPLINE
  5
A2
330
1F
100
AcDbEntity
  8
0
  6
Continuous
 62
     7
370
    25
100
AcDbSpline
210
0.0
220
0.0
230
1.0
 70
     8
 71
     3
 72
    15
 73
    11
 74
     0
 42
0.00000001
 43
0.00000001
 40
0.0
 40
0.0
 40
0.0
 40
0.0
 40
0.0089557228015919
 40
0.0999003359608209
 40
0.1531632460581751
 40
0.3125636920784904
 40
0.5249666935695061
 40
0.6689893599351777
 40
0.991915253381045
 40
1.0
 40
1.0
 40
1.0
 40
1.0
 10
113.2369513673766
 20
84.73046900775319
 30
0.0
 10
113.2369671229552
 20
84.7321501333261
 30
0.0
 10
113.2371428751118
 20
84.75090294795051
 30
0.0
 10
113.2425718911313
 20
84.77966517705804
 30
0.0
 10
113.2641073748386
 20
84.83055225052635
 30
0.0
 10
113.3118128031034
 20
84.888687900659
 30
0.0
 10
113.3842037480954
 20
84.9333957738424
 30
0.0
 10
113.486122860113
 20
84.97067759730416
 30
0.0
 10
113.5614779515681
 20
84.98035675214179
 30
0.0
 10
113.6138775972914
 20
84.98046633134351
 30
0.0
 10
113.6151574288355
 20
84.98046900775319
 30
0.0
  0
LINE
  5
A3
330
1F
100
AcDbEntity
  8
0
  6
Continuous
 62
     7
370
    25
100
AcDbLine
 10
113.2369513674
 20
84.7304690078
 30
0.0
 11
113.4750916098
 21
84.7304690078
 31
0.0
  0
SPLINE
  5
A4
330
1F
100
AcDbEntity
  8
0
  6
Continuous
 62
     7
370
    25
100
AcDbSpline
210
0.0
220
0.0
230
1.0
 70
     8
 71
     3
 72
    15
 73
    11
 74
     0
 42
0.00000001
 43
0.00000001
 40
0.0
 40
0.0
 40
0.0
 40
0.0
 40
0.0080847466189582
 40
0.3310106400648243
 40
0.4750333064304948
 40
0.6874363079215142
 40
0.8468367539418303
 40
0.9000996640391847
 40
0.9910442771984082
 40
1.0
 40
1.0
 40
1.0
 40
1.0
 10
123.8131964560211
 20
84.98046900775319
 30
0.0
 10
123.8144762875652
 20
84.98046633134351
 30
0.0
 10
123.8668759332884
 20
84.98035675214179
 30
0.0
 10
123.9422310247435
 20
84.97067759730415
 30
0.0
 10
124.0441501367612
 20
84.9333957738424
 30
0.0
 10
124.1165410817531
 20
84.888687900659
 30
0.0
 10
124.1642465100179
 20
84.83055225052635
 30
0.0
 10
124.1857819937252
 20
84.77966517705802
 30
0.0
 10
124.1912110097448
 20
84.75090294795052
 30
0.0
 10
124.1913867619013
 20
84.7321501333261
 30
0.0
 10
124.1914025174799
 20
84.73046900775319
 30
0.0
  0
LINE
  5
A5
330
1F
100
AcDbEntity
  8
0
  6
Continuous
 62
     7
370
    25
100
AcDbLine
 10
123.9532622751
 20
84.7304690078
 30
0.0
 11
124.1914025175
 21
84.7304690078
 31
0.0
  0
LINE
  5
A6
330
1F
100
AcDbEntity
  8
0
  6
Continuous
 62
     7
370
    25
100
AcDbLine
 10
113.2369513674
 20
84.1304690078
 30
0.0
 11
113.2369513674
 21
84.7304690078
 31
0.0
  0
LINE
  5
A7
330
1F
100
AcDbEntity
  8
0
  6
Continuous
 62
     7
370
    25
100
AcDbLine
 10
113.4750916098
 20
84.1304690078
 30
0.0
 11
113.2369513674
 21
84.1304690078
 31
0.0
  0
LINE
  5
A8
330
1F
100
AcDbEntity
  8
0
  6
Continuous
 62
     7
370
    25
100
AcDbLine
 10
124.1914025175
 20
84.7304690078
 30
0.0
 11
124.1914025175
 21
84.1304690078
 31
0.0
  0
LINE
  5
A9
330
1F
100
AcDbEntity
  8
0
  6
Continuous
 62
     7
370
    25
100
AcDbLine
 10
124.1914025175
 20
84.1304690078
 30
0.0
 11
123.9532622751
 21
84.1304690078
 31
0.0
  0
LINE
  5
AA
330
1F
100
AcDbEntity
  8
0
  6
Continuous
 62
     7
370
    25
100
AcDbLine
 10
112.7141769424
 20
84.1304690078
 30
0.0
 11
112.7141769424
 21
84.7304690078
 31
0.0
  0
LINE
  5
AB
330
1F
100
AcDbEntity
  8
0
  6
Continuous
 62
     7
370
    25
100
AcDbLine
 10
112.7141769424
 20
84.7304690078
 30
0.0
 11
112.9641769424
 21
84.7304690078
 31
0.0
  0
LINE
  5
AC
330
1F
100
AcDbEntity
  8
0
  6
Continuous
 62
     7
370
    25
100
AcDbLine
 10
112.9641769424
 20
84.7304690078
 30
0.0
 11
112.9641769424
 21
84.1304690078
 31
0.0
  0
LINE
  5
AD
330
1F
100
AcDbEntity
  8
0
  6
Continuous
 62
     7
370
    25
100
AcDbLine
 10
112.9641769424
 20
84.1304690078
 30
0.0
 11
112.7141769424
 21
84.1304690078
 31
0.0
  0
ARC
  5
AE
330
1F
100
AcDbEntity
  8
0
  6
Continuous
 62
     7
370
    25
100
AcDbCircle
 10
112.9641769424
 20
84.7304690078
 30
0.0
 40
0.25
100
AcDbArc
 50
90.0
 51
180.0
  0
LINE
  5
AF
330
1F
100
AcDbEntity
  8
0
  6
Continuous
 62
     7
370
    25
100
AcDbLine
 10
112.9641769424
 20
84.9804690078
 30
0.0
 11
112.9641769424
 21
84.7304690078
 31
0.0
  0
LINE
  5
B0
330
1F
100
AcDbEntity
  8
0
  6
Continuous
 62
     7
370
    25
100
AcDbLine
 10
113.2369513674
 20
84.7304690078
 30
0.0
 11
112.9641769424
 21
84.7304690078
 31
0.0
  0
LINE
  5
B1
330
1F
100
AcDbEntity
  8
0
  6
Continuous
 62
     7
370
    25
100
AcDbLine
 10
112.9641769424
 20
84.9804690078
 30
0.0
 11
113.6151574288
 21
84.9804690078
 31
0.0
  0
LINE
  5
B2
330
1F
100
AcDbEntity
  8
0
  6
Continuous
 62
     7
370
    25
100
AcDbLine
 10
112.9641769424
 20
84.1304690078
 30
0.0
 11
113.2369513674
 21
84.1304690078
 31
0.0
  0
LINE
  5
B3
330
1F
100
AcDbEntity
  8
0
  6
Continuous
 62
     7
370
    25
100
AcDbLine
 10
124.4641769424
 20
84.7304690078
 30
0.0
 11
124.4641769424
 21
84.9804690078
 31
0.0
  0
LINE
  5
B4
330
1F
100
AcDbEntity
  8
0
  6
Continuous
 62
     7
370
    25
100
AcDbLine
 10
124.4641769424
 20
84.7304690078
 30
0.0
 11
124.1914025175
 21
84.7304690078
 31
0.0
  0
LINE
  5
B5
330
1F
100
AcDbEntity
  8
0
  6
Continuous
 62
     7
370
    25
100
AcDbLine
 10
123.813196456
 20
84.9804690078
 30
0.0
 11
124.4641769424
 21
84.9804690078
 31
0.0
  0
LINE
  5
B6
330
1F
100
AcDbEntity
  8
0
  6
Continuous
 62
     7
370
    25
100
AcDbLine
 10
124.4641769424
 20
84.1304690078
 30
0.0
 11
124.4641769424
 21
84.7304690078
 31
0.0
  0
LINE
  5
B7
330
1F
100
AcDbEntity
  8
0
  6
Continuous
 62
     7
370
    25
100
AcDbLine
 10
124.4641769424
 20
84.7304690078
 30
0.0
 11
124.7141769424
 21
84.7304690078
 31
0.0
  0
LINE
  5
B8
330
1F
100
AcDbEntity
  8
0
  6
Continuous
 62
     7
370
    25
100
AcDbLine
 10
124.7141769424
 20
84.7304690078
 30
0.0
 11
124.7141769424
 21
84.1304690078
 31
0.0
  0
LINE
  5
B9
330
1F
100
AcDbEntity
  8
0
  6
Continuous
 62
     7
370
    25
100
AcDbLine
 10
124.7141769424
 20
84.1304690078
 30
0.0
 11
124.4641769424
 21
84.1304690078
 31
0.0
  0
ARC
  5
BA
330
1F
100
AcDbEntity
  8
0
  6
Continuous
 62
     7
370
    25
100
AcDbCircle
 10
124.4641769424
 20
84.7304690078
 30
0.0
 40
0.25
100
AcDbArc
 50
0.0
 51
90.0
  0
LINE
  5
BB
330
1F
100
AcDbEntity
  8
0
  6
Continuous
 62
     7
370
    25
100
AcDbLine
 10
124.1914025175
 20
84.1304690078
 30
0.0
 11
124.4641769424
 21
84.1304690078
 31
0.0
  0
LINE
  5
BC
330
1F
100
AcDbEntity
  8
0
  6
Continuous
 62
     7
370
    25
100
AcDbLine
 10
123.7141769424
 20
84.9804690078
 30
0.0
 11
123.7141769424
 21
84.9904690078
 31
0.0
  0
LINE
  5
BD
330
1F
100
AcDbEntity
  8
0
  6
Continuous
 62
     7
370
    25
100
AcDbLine
 10
113.7141769424
 20
84.9804690078
 30
0.0
 11
113.7141769424
 21
84.9904690078
 31
0.0
  0
LINE
  5
BE
330
1F
100
AcDbEntity
  8
0
  6
Continuous
 62
     7
370
    25
100
AcDbLine
 10
113.7141769424
 20
84.9904690078
 30
0.0
 11
123.7141769424
 21
84.9904690078
 31
0.0
  0
LINE
  5
BF
330
1F
100
AcDbEntity
  8
0
  6
Continuous
 62
     7
370
    25
100
AcDbLine
 10
114.2396300583
 20
76.1304690078
 30
0.0
 11
126.1641769424
 21
76.1304690077
 31
0.0
  0
SPLINE
  5
C0
330
1F
100
AcDbEntity
  8
0
  6
Continuous
 62
     7
370
    25
100
AcDbSpline
210
0.0
220
0.0
230
1.0
 70
     8
 71
     3
 72
     9
 73
     5
 74
     0
 42
0.00000001
 43
0.00000001
 40
0.0
 40
0.0
 40
0.0
 40
0.0
 40
0.4978401817595071
 40
1.0
 40
1.0
 40
1.0
 40
1.0
 10
114.9998408141079
 20
77.12521258572012
 30
0.0
 10
114.8635189057372
 20
76.96870140302751
 30
0.0
 10
114.5896922574163
 20
76.65432102870851
 30
0.0
 10
114.3566530063197
 20
76.30558848068223
 30
0.0
 10
114.2396300583461
 20
76.13046900775082
 30
0.0
  0
LINE
  5
C1
330
1F
100
AcDbEntity
  8
0
  6
Continuous
 62
     7
370
    25
100
AcDbLine
 10
113.4903747681
 20
84.1304690077
 30
0.0
 11
111.7622361041
 21
77.1252125857
 31
0.0
  0
LINE
  5
C2
330
1F
100
AcDbEntity
  8
0
  6
Continuous
 62
     7
370
    25
100
AcDbLine
 10
123.9532622751
 20
84.1304690077
 30
0.0
 11
113.4903747681
 21
84.1304690077
 31
0.0
  0
LINE
  5
C3
330
1F
100
AcDbEntity
  8
0
  6
Continuous
 62
     7
370
    25
100
AcDbLine
 10
116.7141769424
 20
68.1304690078
 30
0.0
 11
125.7141769424
 21
68.1304690078
 31
0.0
  0
LINE
  5
C4
330
1F
100
AcDbEntity
  8
0
  6
Continuous
 62
     7
370
    25
100
AcDbLine
 10
116.7141769424
 20
68.1682859316
 30
0.0
 11
116.7141769424
 21
68.1304690078
 31
0.0
  0
SPLINE
  5
C5
330
1F
100
AcDbEntity
  8
0
  6
Continuous
 62
     7
370
    25
100
AcDbSpline
210
0.0
220
0.0
230
1.0
 70
     8
 71
     3
 72
     9
 73
     5
 74
     0
 42
0.00000001
 43
0.00000001
 40
0.0
 40
0.0
 40
0.0
 40
0.0
 40
0.4875141023677128
 40
0.9999999999999999
 40
0.9999999999999999
 40
0.9999999999999999
 40
0.9999999999999999
 10
116.5582316920011
 20
68.13046900775325
 30
0.0
 10
116.5845382659237
 20
68.13219635372496
 30
0.0
 10
116.6384989078719
 20
68.13573952501643
 30
0.0
 10
116.6885344385667
 20
68.15725801096573
 30
0.0
 10
116.7141769424283
 20
68.16828593155316
 30
0.0
  0
SPLINE
  5
C6
330
1F
100
AcDbEntity
  8
0
  6
Continuous
 62
     7
370
    25
100
AcDbSpline
210
0.0
220
0.0
230
1.0
 70
     8
 71
     3
 72
    17
 73
    13
 74
     0
 42
0.00000001
 43
0.00000001
 40
0.0
 40
0.0
 40
0.0
 40
0.0
 40
0.3241697628029873
 40
0.5422758463620719
 40
0.689509052693928
 40
0.7894036290694505
 40
0.8577090008137825
 40
0.9049823971474137
 40
0.9551712229700868
 40
0.9753097783197817
 40
0.9919572060138848
 40
1.0
 40
1.0
 40
1.0
 40
1.0
 10
114.2396300583461
 20
76.13046900775082
 30
0.0
 10
114.3823454183633
 20
75.21785550514515
 30
0.0
 10
114.6210817273053
 20
73.69122249888379
 30
0.0
 10
115.0006689217569
 20
71.76444959660283
 30
0.0
 10
115.309803130104
 20
70.47681412567007
 30
0.0
 10
115.5659166583041
 20
69.61766215894832
 30
0.0
 10
115.7802276611991
 20
69.04419427057091
 30
0.0
 10
115.983461882227
 20
68.62266211654097
 30
0.0
 10
116.1680071467696
 20
68.34216957374554
 30
0.0
 10
116.3540782331377
 20
68.18662090516486
 30
0.0
 10
116.4692888323937
 20
68.13601030596736
 30
0.0
 10
116.5363776378665
 20
68.13183055416272
 30
0.0
 10
116.5582316920011
 20
68.13046900775325
 30
0.0
  0
SPLINE
  5
C7
330
1F
100
AcDbEntity
  8
0
  6
Continuous
 62
     7
370
    25
100
AcDbSpline
210
0.0
220
0.0
230
1.0
 70
     8
 71
     3
 72
    14
 73
    10
 74
     0
 42
0.00000001
 43
0.00000001
 40
0.0
 40
0.0
 40
0.0
 40
0.0
 40
0.1576095309202822
 40
0.3152382602707096
 40
0.4726926441579499
 40
0.6301650083177254
 40
0.7907313191165901
 40
0.9513050385928076
 40
1.0
 40
1.0
 40
1.0
 40
1.0
 10
112.2141769424283
 20
68.13046900775319
 30
0.0
 10
112.1476059276463
 20
68.34397079623058
 30
0.0
 10
112.0144557890613
 20
68.7710003798561
 30
0.0
 10
111.6858888273106
 20
69.35624745871242
 30
0.0
 10
111.2724991865786
 20
69.87840199953483
 30
0.0
 10
110.7768242676339
 20
70.32738012695471
 30
0.0
 10
110.2105345623494
 20
70.68666185876108
 30
0.0
 10
109.7342839059564
 20
70.89122803786226
 30
0.0
 10
109.4540893377636
 20
70.97202258621357
 30
0.0
 10
109.3888905529906
 20
70.99082275926034
 30
0.0
  0
LINE
  5
C8
330
1F
100
AcDbEntity
  8
0
  6
Continuous
 62
     7
370
    25
100
AcDbLine
 10
109.388890553
 20
70.9908227593
 30
0.0
 11
103.6091337031
 21
72.5594441997
 31
0.0
  0
SPLINE
  5
C9
330
1F
100
AcDbEntity
  8
0
  6
Continuous
 62
     7
370
    25
100
AcDbSpline
210
0.0
220
0.0
230
1.0
 70
     8
 71
     3
 72
    11
 73
     7
 74
     0
 42
0.00000001
 43
0.00000001
 40
0.0
 40
0.0
 40
0.0
 40
0.0
 40
0.2488466353289359
 40
0.4976946020535202
 40
0.7488461225871275
 40
0.9999999999999999
 40
0.9999999999999999
 40
0.9999999999999999
 40
0.9999999999999999
 10
96.53874008089161
 20
73.88264470072873
 30
0.0
 10
97.13317613002788
 20
73.81312032423509
 30
0.0
 10
98.32205140869127
 20
73.67407119927393
 30
0.0
 10
100.0967760794003
 20
73.37374246114864
 30
0.0
 10
101.8633567211427
 20
73.0118328428935
 30
0.0
 10
103.0272062221623
 20
72.71024088582895
 30
0.0
 10
103.6091337031353
 20
72.55944419974323
 30
0.0
  0
LINE
  5
CA
330
1F
100
AcDbEntity
  8
0
  6
Continuous
 62
     7
370
    25
100
AcDbLine
 10
96.5387400809
 20
73.8826447007
 30
0.0
 11
96.5387400809
 21
77.1252125857
 31
0.0
  0
LINE
  5
CB
330
1F
100
AcDbEntity
  8
0
  6
Continuous
 62
     7
370
    25
100
AcDbLine
 10
96.5387400809
 20
77.1252125857
 30
0.0
 11
114.9998408141
 21
77.1252125857
 31
0.0
  0
LINE
  5
CC
330
1F
100
AcDbEntity
  8
0
  6
Continuous
 62
     7
370
    25
100
AcDbLine
 10
116.558231692
 20
68.1304690078
 30
0.0
 11
112.2141769424
 21
68.1304690078
 31
0.0
  0
LINE
  5
CD
330
1F
100
AcDbEntity
  8
0
  6
Continuous
 62
     7
370
    25
100
AcDbLine
 10
116.7141769424
 20
68.1682859316
 30
0.0
 11
116.7073775845
 21
68.1304690078
 31
0.0
  0
LINE
  5
CE
330
1F
100
AcDbEntity
  8
0
  6
Continuous
 62
     7
370
    25
100
AcDbLine
 10
116.7141769424
 20
68.1304690078
 30
0.0
 11
116.7073775845
 21
68.1304690078
 31
0.0
  0
LINE
  5
CF
330
1F
100
AcDbEntity
  8
0
  6
Continuous
 62
     7
370
    25
100
AcDbLine
 10
116.7073775845
 20
68.1304690078
 30
0.0
 11
116.558231692
 21
68.1304690078
 31
0.0
  0
LINE
  5
D0
330
1F
100
AcDbEntity
  8
0
  6
Continuous
 62
     7
370
    25
100
AcDbLine
 10
78.7141769424
 20
86.1304690078
 30
0.0
 11
96.5387400809
 21
86.1304690078
 31
0.0
  0
LINE
  5
D1
330
1F
100
AcDbEntity
  8
0
  6
Continuous
 62
     7
370
    25
100
AcDbLine
 10
96.5387400809
 20
86.1304690078
 30
0.0
 11
96.5387400809
 21
77.1252125857
 31
0.0
  0
LINE
  5
D2
330
1F
100
AcDbEntity
  8
0
  6
Continuous
 62
     7
370
    25
100
AcDbLine
 10
91.8225090847
 20
74.1304690078
 30
0.0
 11
83.7141769424
 21
74.1304690078
 31
0.0
  0
ARC
  5
D3
330
1F
100
AcDbEntity
  8
0
  6
Continuous
 62
     7
370
    25
100
AcDbCircle
 10
83.7141769424
 20
79.1304690078
 30
0.0
 40
5.0
100
AcDbArc
 50
180.0
 51
270.0
  0
LINE
  5
D4
330
1F
100
AcDbEntity
  8
0
  6
Continuous
 62
     7
370
    25
100
AcDbLine
 10
78.7141769424
 20
79.1304690078
 30
0.0
 11
78.7141769424
 21
86.1304690078
 31
0.0
  0
ARC
  5
D5
330
1F
100
AcDbEntity
  8
0
  6
Continuous
 62
     7
370
    25
100
AcDbCircle
 10
91.8225090847
 20
29.1303397536
 30
0.0
 40
45.00012925418374
100
AcDbArc
 50
83.9840777705
 51
90.0
  0
LINE
  5
D6
330
1F
100
AcDbEntity
  8
0
  6
Continuous
 62
     7
370
    25
100
AcDbLine
 10
98.7141769424
 20
86.1304690078
 30
0.0
 11
98.7141769424
 21
84.1494245311
 31
0.0
  0
ARC
  5
D7
330
1F
100
AcDbEntity
  8
0
  6
Continuous
 62
     7
370
    25
100
AcDbCircle
 10
104.7141769424
 20
84.1494245311
 30
0.0
 40
6.000000000000004
100
AcDbArc
 50
180.0
 51
275.5801667845
  0
ARC
  5
D8
330
1F
100
AcDbEntity
  8
0
  6
Continuous
 62
     7
370
    25
100
AcDbCircle
 10
104.3252233782
 20
88.1304690078
 30
0.0
 40
10.00000000000848
100
AcDbArc
 50
275.5801667845
 51
336.4218215217
  0
LINE
  5
D9
330
1F
100
AcDbEntity
  8
0
  6
Continuous
 62
     7
370
    25
100
AcDbLine
 10
96.5387400809
 20
86.1304690078
 30
0.0
 11
98.7141769424
 21
86.1304690078
 31
0.0
  0
LINE
  5
DA
330
1F
100
AcDbEntity
  8
0
  6
Continuous
 62
     7
370
    25
100
AcDbLine
 10
112.2141769424
 20
68.1304690078
 30
0.0
 11
111.7141769424
 21
68.1304690078
 31
0.0
  0
LINE
  5
DB
330
1F
100
AcDbEntity
  8
0
  6
Continuous
 62
     7
370
    25
100
AcDbLine
 10
113.4750916098
 20
84.1304690077
 30
0.0
 11
113.4903747681
 21
84.1304690077
 31
0.0
  0
SPLINE
  5
DC
330
1F
100
AcDbEntity
  8
0
  6
Continuous
 62
     7
370
    25
100
AcDbSpline
210
0.0
220
0.0
230
1.0
 70
     8
 71
     3
 72
    10
 73
     6
 74
     0
 42
0.00000001
 43
0.00000001
 40
0.0
 40
0.0
 40
0.0
 40
0.0
 40
0.5000000000000001
 40
0.5000000000000001
 40
1.0
 40
1.0
 40
1.0
 40
1.0
 10
114.0953747889113
 20
46.30819041301335
 30
0.0
 10
114.8460534884071
 20
46.10126035948066
 30
0.0
 10
115.6103344326297
 20
45.92945474910695
 30
0.0
 10
117.1649091667173
 20
45.69250424257558
 30
0.0
 10
117.9404841342334
 20
45.63046900775318
 30
0.0
 10
118.7141769424283
 20
45.63046900775319
 30
0.0
  0
LINE
  5
DD
330
1F
100
AcDbEntity
  8
0
  6
Continuous
 62
     7
370
    25
100
AcDbLine
 10
114.0953747889
 20
49.6640724679
 30
0.0
 11
114.0953747889
 21
46.308190413
 31
0.0
  0
SPLINE
  5
DE
330
1F
100
AcDbEntity
  8
0
  6
Continuous
 62
     7
370
    25
100
AcDbSpline
210
0.0
220
0.0
230
1.0
 70
     8
 71
     3
 72
     8
 73
     4
 74
     0
 42
0.00000001
 43
0.00000001
 40
0.0
 40
0.0
 40
0.0
 40
0.0
 40
1.0
 40
1.0
 40
1.0
 40
1.0
 10
114.0953747889112
 20
49.66407246789819
 30
0.0
 10
114.3005606114545
 20
49.72063343502241
 30
0.0
 10
114.5067838121618
 20
49.77457350643625
 30
0.0
 10
114.7141769424283
 20
49.82555779617921
 30
0.0
  0
LINE
  5
DF
330
1F
100
AcDbEntity
  8
0
  6
Continuous
 62
     7
370
    25
100
AcDbLine
 10
114.7141769424
 20
49.8255577962
 30
0.0
 11
114.7141769424
 21
53.6304690078
 31
0.0
  0
SPLINE
  5
E0
330
1F
100
AcDbEntity
  8
0
  6
Continuous
 62
     7
370
    25
100
AcDbSpline
210
0.0
220
0.0
230
1.0
 70
     8
 71
     3
 72
     8
 73
     4
 74
     0
 42
0.00000001
 43
0.00000001
 40
0.0
 40
0.0
 40
0.0
 40
0.0
 40
1.0
 40
1.0
 40
1.0
 40
1.0
 10
112.0364555371681
 20
53.01166685423615
 30
0.0
 10
112.0930189066363
 20
53.21686139174592
 30
0.0
 10
112.1469588294576
 20
53.42308504526308
 30
0.0
 10
112.1979408654491
 20
53.63046900775318
 30
0.0
  0
LINE
  5
E1
330
1F
100
AcDbEntity
  8
0
  6
Continuous
 62
     7
370
    25
100
AcDbLine
 10
107.8918983477
 20
53.0116668542
 30
0.0
 11
112.0364555372
 21
53.0116668542
 31
0.0
  0
SPLINE
  5
E2
330
1F
100
AcDbEntity
  8
0
  6
Continuous
 62
     7
370
    25
100
AcDbSpline
210
0.0
220
0.0
230
1.0
 70
     8
 71
     3
 72
    10
 73
     6
 74
     0
 42
0.00000001
 43
0.00000001
 40
0.0
 40
0.0
 40
0.0
 40
0.0
 40
0.5
 40
0.5
 40
1.0
 40
1.0
 40
1.0
 40
1.0
 10
107.8918983476885
 20
53.01166685423618
 30
0.0
 10
107.6838296714572
 20
53.76647612728546
 30
0.0
 10
107.5134306654327
 20
54.52722251451737
 30
0.0
 10
107.2782706857339
 20
56.06536489214063
 30
0.0
 10
107.2141769424283
 20
56.84286604466544
 30
0.0
 10
107.2141769424283
 20
57.63046900775319
 30
0.0
  0
SPLINE
  5
E3
330
1F
100
AcDbEntity
  8
0
  6
Continuous
 62
     7
370
    25
100
AcDbSpline
210
0.0
220
0.0
230
1.0
 70
     8
 71
     3
 72
    12
 73
     8
 74
     0
 42
0.00000001
 43
0.00000001
 40
0.0
 40
0.0
 40
0.0
 40
0.0
 40
0.2500000000000001
 40
0.2500000000000001
 40
0.5000000000000001
 40
0.5000000000000001
 40
1.0
 40
1.0
 40
1.0
 40
1.0
 10
107.2141769424283
 20
57.63046900775319
 30
0.0
 10
107.2141769424283
 20
58.02478708842503
 30
0.0
 10
107.2301757474093
 20
58.41844613237546
 30
0.0
 10
107.2919458857237
 20
59.1979821319208
 30
0.0
 10
107.3376880100253
 20
59.58493532004623
 30
0.0
 10
107.5143581573722
 20
60.73832188290023
 30
0.0
 10
107.6846132228525
 20
61.49730437210527
 30
0.0
 10
107.8918983476885
 20
62.2492711612702
 30
0.0
  0
LINE
  5
E4
330
1F
100
AcDbEntity
  8
0
  6
Continuous
 62
     7
370
    25
100
AcDbLine
 10
112.0364555372
 20
62.2492711613
 30
0.0
 11
107.8918983477
 21
62.2492711613
 31
0.0
  0
SPLINE
  5
E5
330
1F
100
AcDbEntity
  8
0
  6
Continuous
 62
     7
370
    25
100
AcDbSpline
210
0.0
220
0.0
230
1.0
 70
     8
 71
     3
 72
     8
 73
     4
 74
     0
 42
0.00000001
 43
0.00000001
 40
0.0
 40
0.0
 40
0.0
 40
0.0
 40
1.0
 40
1.0
 40
1.0
 40
1.0
 10
112.1979408654491
 20
61.63046900775319
 30
0.0
 10
112.1470421485266
 20
61.83751404618219
 30
0.0
 10
112.0931080122758
 20
62.04375337585882
 30
0.0
 10
112.0364555371681
 20
62.2492711612702
 30
0.0
  0
SPLINE
  5
E6
330
1F
100
AcDbEntity
  8
0
  6
Continuous
 62
     7
370
    25
100
AcDbSpline
210
0.0
220
0.0
230
1.0
 70
     8
 71
     3
 72
     8
 73
     4
 74
     0
 42
0.00000001
 43
0.00000001
 40
0.0
 40
0.0
 40
0.0
 40
0.0
 40
1.0
 40
1.0
 40
1.0
 40
1.0
 10
125.2304130194075
 20
61.63046900775326
 30
0.0
 10
125.2813092526625
 20
61.83750394315702
 30
0.0
 10
125.3352432076262
 20
62.04374370822202
 30
0.0
 10
125.3918983476885
 20
62.24927116127021
 30
0.0
  0
LINE
  5
E7
330
1F
100
AcDbEntity
  8
0
  6
Continuous
 62
     7
370
    25
100
AcDbLine
 10
129.8921179699
 20
62.2492711613
 30
0.0
 11
125.3918983477
 21
62.2492711613
 31
0.0
  0
SPLINE
  5
E8
330
1F
100
AcDbEntity
  8
0
  6
Continuous
 62
     7
370
    25
100
AcDbSpline
210
0.0
220
0.0
230
1.0
 70
     8
 71
     3
 72
    14
 73
    10
 74
     0
 42
0.00000001
 43
0.00000001
 40
0.0
 40
0.0
 40
0.0
 40
0.0
 40
0.25
 40
0.25
 40
0.5
 40
0.5
 40
0.75
 40
0.75
 40
1.0
 40
1.0
 40
1.0
 40
1.0
 10
129.8921179698707
 20
53.01166685423614
 30
0.0
 10
130.1000683305765
 20
53.76604691488613
 30
0.0
 10
130.2722901392653
 20
54.53548808235162
 30
0.0
 10
130.5069252620162
 20
56.07599944329278
 30
0.0
 10
130.5698693206439
 20
56.8508538232998
 30
0.0
 10
130.5698094079124
 20
58.41121477818536
 30
0.0
 10
130.5051947416203
 20
59.20167097097038
 30
0.0
 10
130.2686354022191
 20
60.74395063377885
 30
0.0
 10
130.0982902621396
 20
61.50134138698004
 30
0.0
 10
129.8921179698707
 20
62.2492711612702
 30
0.0
  0
LINE
  5
E9
330
1F
100
AcDbEntity
  8
0
  6
Continuous
 62
     7
370
    25
100
AcDbLine
 10
125.3918983477
 20
53.0116668542
 30
0.0
 11
129.8921179699
 21
53.0116668542
 31
0.0
  0
SPLINE
  5
EA
330
1F
100
AcDbEntity
  8
0
  6
Continuous
 62
     7
370
    25
100
AcDbSpline
210
0.0
220
0.0
230
1.0
 70
     8
 71
     3
 72
     8
 73
     4
 74
     0
 42
0.00000001
 43
0.00000001
 40
0.0
 40
0.0
 40
0.0
 40
0.0
 40
1.0
 40
1.0
 40
1.0
 40
1.0
 10
125.3918983476885
 20
53.01166685423616
 30
0.0
 10
125.3353365042515
 20
53.21685585577298
 30
0.0
 10
125.2813964869951
 20
53.42307922183767
 30
0.0
 10
125.2304130194075
 20
53.63046900775313
 30
0.0
  0
LINE
  5
EB
330
1F
100
AcDbEntity
  8
0
  6
Continuous
 62
     7
370
    25
100
AcDbLine
 10
125.2304130194
 20
53.6304690078
 30
0.0
 11
122.7141769424
 21
53.6304690078
 31
0.0
  0
LINE
  5
EC
330
1F
100
AcDbEntity
  8
0
  6
Continuous
 62
     7
370
    25
100
AcDbLine
 10
122.7141769424
 20
49.8255577962
 30
0.0
 11
122.7141769424
 21
53.6304690078
 31
0.0
  0
SPLINE
  5
ED
330
1F
100
AcDbEntity
  8
0
  6
Continuous
 62
     7
370
    25
100
AcDbSpline
210
0.0
220
0.0
230
1.0
 70
     8
 71
     3
 72
     8
 73
     4
 74
     0
 42
0.00000001
 43
0.00000001
 40
0.0
 40
0.0
 40
0.0
 40
0.0
 40
1.0
 40
1.0
 40
1.0
 40
1.0
 10
122.7141769424283
 20
49.8255577961792
 30
0.0
 10
122.9212060057637
 20
49.77466300647838
 30
0.0
 10
123.127446023033
 20
49.72072915711694
 30
0.0
 10
123.3329790959453
 20
49.66407246789819
 30
0.0
  0
LINE
  5
EE
330
1F
100
AcDbEntity
  8
0
  6
Continuous
 62
     7
370
    25
100
AcDbLine
 10
123.3329790959
 20
46.308190413
 30
0.0
 11
123.3329790959
 21
49.6640724679
 31
0.0
  0
SPLINE
  5
EF
330
1F
100
AcDbEntity
  8
0
  6
Continuous
 62
     7
370
    25
100
AcDbSpline
210
0.0
220
0.0
230
1.0
 70
     8
 71
     3
 72
    10
 73
     6
 74
     0
 42
0.00000001
 43
0.00000001
 40
0.0
 40
0.0
 40
0.0
 40
0.0
 40
0.5
 40
0.5
 40
1.0
 40
1.0
 40
1.0
 40
1.0
 10
118.7141769424283
 20
45.63046900775319
 30
0.0
 10
119.4897568790352
 20
45.63046900775319
 30
0.0
 10
120.2634470977617
 20
45.69275336973171
 30
0.0
 10
121.8074816400945
 20
45.92760148773873
 30
0.0
 10
122.5807903162493
 20
46.10084409486993
 30
0.0
 10
123.3329790959453
 20
46.30819041301338
 30
0.0
  0
ARC
  5
F0
330
1F
100
AcDbEntity
  8
0
  6
Continuous
 62
     7
370
    25
100
AcDbCircle
 10
120.2649082981
 20
57.0535500144
 30
0.0
 40
0.889000000000007
100
AcDbArc
 50
45.0
 51
315.0
  0
LINE
  5
F1
330
1F
100
AcDbEntity
  8
0
  6
Continuous
 62
     7
370
    25
100
AcDbLine
 10
120.8935262266
 20
57.6821679429
 30
0.0
 11
121.3601366122
 21
58.1487783285
 31
0.0
  0
ARC
  5
F2
330
1F
100
AcDbEntity
  8
0
  6
Continuous
 62
     7
370
    25
100
AcDbCircle
 10
120.2649082981
 20
57.0535500144
 30
0.0
 40
1.548886735692404
100
AcDbArc
 50
45.0
 51
315.0
  0
LINE
  5
F3
330
1F
100
AcDbEntity
  8
0
  6
Continuous
 62
     7
370
    25
100
AcDbLine
 10
121.3601366122
 20
55.9583217003
 30
0.0
 11
120.8935262266
 21
56.424932086
 31
0.0
  0
ARC
  5
F4
330
1F
100
AcDbEntity
  8
0
  6
Continuous
 62
     7
370
    25
100
AcDbCircle
 10
123.6070528945
 20
57.0535500144
 30
0.0
 40
0.8889999999999969
100
AcDbArc
 50
45.0
 51
159.0751675724
  0
LINE
  5
F5
330
1F
100
AcDbEntity
  8
0
  6
Continuous
 62
     7
370
    25
100
AcDbLine
 10
124.235670823
 20
57.6821679429
 30
0.0
 11
124.7022812086
 21
58.1487783285
 31
0.0
  0
ARC
  5
F6
330
1F
100
AcDbEntity
  8
0
  6
Continuous
 62
     7
370
    25
100
AcDbCircle
 10
123.6070528945
 20
57.0535500144
 30
0.0
 40
1.548886735692379
100
AcDbArc
 50
45.0
 51
315.0
  0
LINE
  5
F7
330
1F
100
AcDbEntity
  8
0
  6
Continuous
 62
     7
370
    25
100
AcDbLine
 10
124.7022812086
 20
55.9583217003
 30
0.0
 11
124.235670823
 21
56.424932086
 31
0.0
  0
ARC
  5
F8
330
1F
100
AcDbEntity
  8
0
  6
Continuous
 62
     7
370
    25
100
AcDbCircle
 10
123.6070528945
 20
57.0535500144
 30
0.0
 40
0.889000000000007
100
AcDbArc
 50
200.9248324276
 51
315.0
  0
LINE
  5
F9
330
1F
100
AcDbEntity
  8
0
  6
Continuous
 62
     7
370
    25
100
AcDbLine
 10
122.7766826458
 20
56.7360500144
 30
0.0
 11
124.7022812086
 21
56.7360500144
 31
0.0
  0
LINE
  5
FA
330
1F
100
AcDbEntity
  8
0
  6
Continuous
 62
     7
370
    25
100
AcDbLine
 10
124.7022812086
 20
56.7360500144
 30
0.0
 11
124.7022812086
 21
57.3710500144
 31
0.0
  0
LINE
  5
FB
330
1F
100
AcDbEntity
  8
0
  6
Continuous
 62
     7
370
    25
100
AcDbLine
 10
124.7022812086
 20
57.3710500144
 30
0.0
 11
122.7766826458
 21
57.3710500144
 31
0.0
  0
LINE
  5
FC
330
1F
100
AcDbEntity
  8
0
  6
Continuous
 62
     7
370
    25
100
AcDbLine
 10
117.8124180285
 20
56.2080959902
 30
0.0
 11
117.7707677092
 21
56.1842910603
 31
0.0
  0
ELLIPSE
  5
FD
330
1F
100
AcDbEntity
  8
0
  6
Continuous
 62
     7
370
    25
100
AcDbEllipse
 10
117.4219245296
 20
56.7389735315
 30
0.0
 11
0.678412947925267
 21
6.110667527536863E-13
 31
0.0
210
0.0
220
0.0
230
1.0
 40
0.9533039403
 41
3.470145824140261
 42
5.252469180536287
  0
LINE
  5
FE
330
1F
100
AcDbEntity
  8
0
  6
Continuous
 62
     7
370
    25
100
AcDbLine
 10
116.7797997626
 20
56.5302894166
 30
0.0
 11
115.5201455577
 21
60.0527338132
 31
0.0
  0
ELLIPSE
  5
FF
330
1F
100
AcDbEntity
  8
0
  6
Continuous
 62
     7
370
    25
100
AcDbEllipse
 10
114.9291629998
 20
59.7903945771
 30
0.0
 11
0.6519124952381503
 21
6.110667527536862E-13
 31
0.0
210
0.0
220
0.0
230
1.0
 40
0.9533023292
 41
0.4357905044354821
 42
2.705800116361509
  0
LINE
  5
100
330
1F
100
AcDbEntity
  8
0
  6
Continuous
 62
     7
370
    25
100
AcDbLine
 10
114.3381810013
 20
60.0527349585
 30
0.0
 11
113.0788161996
 21
56.5311115567
 31
0.0
  0
ELLIPSE
  5
101
330
1F
100
AcDbEntity
  8
0
  6
Continuous
 62
     7
370
    25
100
AcDbEllipse
 10
112.4366950156
 20
56.7397943904
 30
0.0
 11
-0.6784085062757867
 21
3.268496584496461E-13
 31
0.0
210
0.0
220
0.0
230
1.0
 40
0.9533122623
 41
1.047193771187948
 42
2.813042320199934
  0
LINE
  5
102
330
1F
100
AcDbEntity
  8
0
  6
Continuous
 62
     7
370
    25
100
AcDbLine
 10
112.0974885416
 20
56.1797065452
 30
0.0
 11
112.0459079711
 21
56.2080959902
 31
0.0
  0
LINE
  5
103
330
1F
100
AcDbEntity
  8
0
  6
Continuous
 62
     7
370
    25
100
AcDbLine
 10
112.0459079711
 20
56.2080959902
 30
0.0
 11
112.8421766306
 21
54.6899238887
 31
0.0
  0
ELLIPSE
  5
104
330
1F
100
AcDbEntity
  8
0
  6
Continuous
 62
     7
370
    25
100
AcDbEllipse
 10
112.918025504
 20
54.7260774037
 30
0.0
 11
0.08480161849065837
 21
-2.131628207280301E-14
 31
0.0
210
0.0
220
0.0
230
1.0
 40
0.9533039403
 41
3.605240262590861
 42
5.462183310215296
  0
ELLIPSE
  5
105
330
1F
100
AcDbEntity
  8
0
  6
Continuous
 62
     7
370
    25
100
AcDbEllipse
 10
114.9291629998
 20
52.6672287832
 30
0.0
 11
2.866293551216202
 21
-1.492139745096210E-12
 31
0.0
210
0.0
220
0.0
230
1.0
 40
0.9533046568
 41
0.8210016221243804
 42
2.320591031466445
  0
ELLIPSE
  5
106
330
1F
100
AcDbEntity
  8
0
  6
Continuous
 62
     7
370
    25
100
AcDbEllipse
 10
116.9403004955
 20
54.7260774037
 30
0.0
 11
0.08480161849060153
 21
-7.105427357601002E-15
 31
0.0
210
0.0
220
0.0
230
1.0
 40
0.9533039403
 41
3.962594650556384
 42
5.819537698177291
  0
LINE
  5
107
330
1F
100
AcDbEntity
  8
0
  6
Continuous
 62
     7
370
    25
100
AcDbLine
 10
117.0161493689
 20
54.6899238887
 30
0.0
 11
117.8124180285
 21
56.2080959902
 31
0.0
  0
LINE
  5
108
330
1F
100
AcDbEntity
  8
0
  6
Continuous
 62
     7
370
    25
100
AcDbLine
 10
125.2304130194
 20
61.6304690078
 30
0.0
 11
112.1979408654
 21
61.6304690078
 31
0.0
  0
LINE
  5
109
330
1F
100
AcDbEntity
  8
0
  6
Continuous
 62
     7
370
    25
100
AcDbLine
 10
114.7141769424
 20
53.6304690078
 30
0.0
 11
112.1979408654
 21
53.6304690078
 31
0.0
  0
LINE
  5
10A
330
1F
100
AcDbEntity
  8
0
  6
Continuous
 62
     7
370
    25
100
AcDbLine
 10
112.7141769424
 20
64.9916849399
 30
0.0
 11
112.7141769424
 21
61.6304690078
 31
0.0
  0
SPLINE
  5
10B
330
1F
100
AcDbEntity
  8
0
  6
Continuous
 62
     7
370
    25
100
AcDbSpline
210
0.0
220
0.0
230
1.0
 70
     8
 71
     3
 72
    10
 73
     6
 74
     0
 42
0.00000001
 43
0.00000001
 40
0.0
 40
0.0
 40
0.0
 40
0.0
 40
0.5
 40
0.5
 40
1.0
 40
1.0
 40
1.0
 40
1.0
 10
112.0364555371681
 20
62.68228386316243
 30
0.0
 10
112.0127801427437
 20
62.63934033226119
 30
0.0
 10
111.9996890328591
 20
62.57589788763707
 30
0.0
 10
111.9996027115708
 20
62.4234190505181
 30
0.0
 10
112.0127716455146
 20
62.33518904841083
 30
0.0
 10
112.0364555371681
 20
62.2492711612702
 30
0.0
  0
SPLINE
  5
10C
330
1F
100
AcDbEntity
  8
0
  6
Continuous
 62
     7
370
    25
100
AcDbSpline
210
0.0
220
0.0
230
1.0
 70
     8
 71
     3
 72
    12
 73
     8
 74
     0
 42
0.00000001
 43
0.00000001
 40
0.0
 40
0.0
 40
0.0
 40
0.0
 40
0.2500000000000001
 40
0.2500000000000001
 40
0.5000000000000002
 40
0.5000000000000002
 40
1.0
 40
1.0
 40
1.0
 40
1.0
 10
112.7141769424283
 20
64.99168493992093
 30
0.0
 10
112.7141769424283
 20
64.79594267704141
 30
0.0
 10
112.6983340063393
 20
64.59927606785085
 30
0.0
 10
112.6368311461017
 20
64.21000784052256
 30
0.0
 10
112.591227505058
 20
64.01660380756964
 30
0.0
 10
112.4147764875687
 20
63.43967475631289
 30
0.0
 10
112.2443791203169
 20
63.05942532310988
 30
0.0
 10
112.0364555371681
 20
62.68228386316243
 30
0.0
  0
LINE
  5
10D
330
1F
100
AcDbEntity
  8
0
  6
Continuous
 62
     7
370
    25
100
AcDbLine
 10
124.7141769424
 20
64.9916849399
 30
0.0
 11
124.7141769424
 21
61.6304690078
 31
0.0
  0
SPLINE
  5
10E
330
1F
100
AcDbEntity
  8
0
  6
Continuous
 62
     7
370
    25
100
AcDbSpline
210
0.0
220
0.0
230
1.0
 70
     8
 71
     3
 72
    10
 73
     6
 74
     0
 42
0.00000001
 43
0.00000001
 40
0.0
 40
0.0
 40
0.0
 40
0.0
 40
0.5
 40
0.5
 40
1.0
 40
1.0
 40
1.0
 40
1.0
 10
125.3918983476885
 20
62.6822838631624
 30
0.0
 10
125.1834775948711
 20
63.06032711256456
 30
0.0
 10
125.0130137595936
 20
63.4410966173604
 30
0.0
 10
124.7780313246552
 20
64.21024514291796
 30
0.0
 10
124.7141769424283
 20
64.59867187109319
 30
0.0
 10
124.7141769424283
 20
64.99168493992093
 30
0.0
  0
SPLINE
  5
10F
330
1F
100
AcDbEntity
  8
0
  6
Continuous
 62
     7
370
    25
100
AcDbSpline
210
0.0
220
0.0
230
1.0
 70
     8
 71
     3
 72
    10
 73
     6
 74
     0
 42
0.00000001
 43
0.00000001
 40
0.0
 40
0.0
 40
0.0
 40
0.0
 40
0.5
 40
0.5
 40
1.0
 40
1.0
 40
1.0
 40
1.0
 10
125.3918983476885
 20
62.2492711612702
 30
0.0
 10
125.4155737421129
 20
62.33515822307265
 30
0.0
 10
125.4286648519975
 20
62.42256543205276
 30
0.0
 10
125.4287511732858
 20
62.57520187464649
 30
0.0
 10
125.4155822393419
 20
62.63932491959206
 30
0.0
 10
125.3918983476885
 20
62.6822838631624
 30
0.0
  0
SPLINE
  5
110
330
1F
100
AcDbEntity
  8
0
  6
Continuous
 62
     7
370
    25
100
AcDbSpline
210
0.0
220
0.0
230
1.0
 70
     8
 71
     3
 72
     8
 73
     4
 74
     0
 42
0.00000001
 43
0.00000001
 40
0.0
 40
0.0
 40
0.0
 40
0.0
 40
1.0
 40
1.0
 40
1.0
 40
1.0
 10
111.4248007578116
 20
50.34109282312446
 30
0.0
 10
111.7338179004534
 20
50.44209793095458
 30
0.0
 10
112.0491356567714
 20
50.53875472002051
 30
0.0
 10
112.3716149836144
 20
50.63046900775319
 30
0.0
  0
SPLINE
  5
111
330
1F
100
AcDbEntity
  8
0
  6
Continuous
 62
     7
370
    25
100
AcDbSpline
210
0.0
220
0.0
230
1.0
 70
     8
 71
     3
 72
    10
 73
     6
 74
     0
 42
0.00000001
 43
0.00000001
 40
0.0
 40
0.0
 40
0.0
 40
0.0
 40
0.5
 40
0.5
 40
1.0
 40
1.0
 40
1.0
 40
1.0
 10
113.662362087019
 20
49.66407246789819
 30
0.0
 10
113.7053056179203
 20
49.6403970734738
 30
0.0
 10
113.7687480625444
 20
49.62730596358917
 30
0.0
 10
113.9212268996634
 20
49.62721964230088
 30
0.0
 10
114.0094569017706
 20
49.64038857624472
 30
0.0
 10
114.0953747889113
 20
49.66407246789818
 30
0.0
  0
SPLINE
  5
112
330
1F
100
AcDbEntity
  8
0
  6
Continuous
 62
     7
370
    25
100
AcDbSpline
210
0.0
220
0.0
230
1.0
 70
     8
 71
     3
 72
    12
 73
     8
 74
     0
 42
0.00000001
 43
0.00000001
 40
0.0
 40
0.0
 40
0.0
 40
0.0
 40
0.2500000000000002
 40
0.2500000000000002
 40
0.5000000000000004
 40
0.5000000000000004
 40
1.0
 40
1.0
 40
1.0
 40
1.0
 10
111.4248007578064
 20
50.34109282311833
 30
0.0
 10
111.6148269331096
 20
50.33738433726189
 30
0.0
 10
111.8050419957954
 20
50.31880183442422
 30
0.0
 10
112.1819787549278
 20
50.25393479745807
 30
0.0
 10
112.3693015461873
 20
50.2076692442078
 30
0.0
 10
112.9282115025014
 20
50.03194471390084
 30
0.0
 10
113.2967471606117
 20
49.86564130512409
 30
0.0
 10
113.662362087019
 20
49.66407246789819
 30
0.0
  0
SPLINE
  5
113
330
1F
100
AcDbEntity
  8
0
  6
Continuous
 62
     7
370
    25
100
AcDbSpline
210
0.0
220
0.0
230
1.0
 70
     8
 71
     3
 72
     8
 73
     4
 74
     0
 42
0.00000001
 43
0.00000001
 40
0.0
 40
0.0
 40
0.0
 40
0.0
 40
1.0
 40
1.0
 40
1.0
 40
1.0
 10
125.0567389012421
 20
50.63046900775319
 30
0.0
 10
125.3792182280914
 20
50.53875472001873
 30
0.0
 10
125.6945359844154
 20
50.44209793095083
 30
0.0
 10
126.0035531270629
 20
50.34109282311858
 30
0.0
  0
SPLINE
  5
114
330
1F
100
AcDbEntity
  8
0
  6
Continuous
 62
     7
370
    25
100
AcDbSpline
210
0.0
220
0.0
230
1.0
 70
     8
 71
     3
 72
    10
 73
     6
 74
     0
 42
0.00000001
 43
0.00000001
 40
0.0
 40
0.0
 40
0.0
 40
0.0
 40
0.5
 40
0.5
 40
1.0
 40
1.0
 40
1.0
 40
1.0
 10
123.7659917978378
 20
49.66407246789834
 30
0.0
 10
124.1325097446783
 20
49.86613915344926
 30
0.0
 10
124.5015899701441
 20
50.03253192571991
 30
0.0
 10
125.2468423183715
 20
50.26657889958997
 30
0.0
 10
125.6230550903193
 20
50.33366715354879
 30
0.0
 10
126.0035531270629
 20
50.34109282311858
 30
0.0
  0
SPLINE
  5
115
330
1F
100
AcDbEntity
  8
0
  6
Continuous
 62
     7
370
    25
100
AcDbSpline
210
0.0
220
0.0
230
1.0
 70
     8
 71
     3
 72
    10
 73
     6
 74
     0
 42
0.00000001
 43
0.00000001
 40
0.0
 40
0.0
 40
0.0
 40
0.0
 40
0.5
 40
0.5
 40
1.0
 40
1.0
 40
1.0
 40
1.0
 10
123.3329790959453
 20
49.66407246789817
 30
0.0
 10
123.4188661577478
 20
49.64039707347376
 30
0.0
 10
123.506273366728
 20
49.62730596358913
 30
0.0
 10
123.6589098093219
 20
49.62721964230091
 30
0.0
 10
123.7230328542676
 20
49.64038857624485
 30
0.0
 10
123.7659917978379
 20
49.66407246789841
 30
0.0
  0
SPLINE
  5
116
330
1F
100
AcDbEntity
  8
0
  6
Continuous
 62
     7
370
    25
100
AcDbSpline
210
0.0
220
0.0
230
1.0
 70
     8
 71
     3
 72
    10
 73
     6
 74
     0
 42
0.00000001
 43
0.00000001
 40
0.0
 40
0.0
 40
0.0
 40
0.0
 40
0.5
 40
0.5
 40
1.0
 40
1.0
 40
1.0
 40
1.0
 10
113.662362087019
 20
46.30819041301338
 30
0.0
 10
113.7052998961183
 20
46.33186265292495
 30
0.0
 10
113.7687404860105
 20
46.3449566428602
 30
0.0
 10
113.9212296315193
 20
46.34504351032164
 30
0.0
 10
114.0094590207226
 20
46.33187372056229
 30
0.0
 10
114.0953747889113
 20
46.30819041301338
 30
0.0
  0
LINE
  5
117
330
1F
100
AcDbEntity
  8
0
  6
Continuous
 62
     7
370
    25
100
AcDbLine
 10
113.662362087
 20
46.308190413
 30
0.0
 11
113.662362087
 21
49.6640724679
 31
0.0
  0
SPLINE
  5
118
330
1F
100
AcDbEntity
  8
0
  6
Continuous
 62
     7
370
    25
100
AcDbSpline
210
0.0
220
0.0
230
1.0
 70
     8
 71
     3
 72
    10
 73
     6
 74
     0
 42
0.00000001
 43
0.00000001
 40
0.0
 40
0.0
 40
0.0
 40
0.0
 40
0.5
 40
0.5
 40
1.0
 40
1.0
 40
1.0
 40
1.0
 10
123.3329790959453
 20
46.30819041301338
 30
0.0
 10
123.4188607384517
 20
46.33186431356933
 30
0.0
 10
123.5062699444172
 20
46.34495687074848
 30
0.0
 10
123.6589124294921
 20
46.34504328473076
 30
0.0
 10
123.7230354145745
 20
46.33187289313214
 30
0.0
 10
123.7659917978375
 20
46.30819041301338
 30
0.0
  0
SPLINE
  5
119
330
1F
100
AcDbEntity
  8
0
  6
Continuous
 62
     7
370
    25
100
AcDbSpline
210
0.0
220
0.0
230
1.0
 70
     8
 71
     3
 72
    12
 73
     8
 74
     0
 42
0.00000001
 43
0.00000001
 40
0.0
 40
0.0
 40
0.0
 40
0.0
 40
0.2499999999999998
 40
0.2499999999999998
 40
0.4999999999999996
 40
0.4999999999999996
 40
1.0
 40
1.0
 40
1.0
 40
1.0
 10
126.075392874596
 20
45.63046900775319
 30
0.0
 10
125.8803893945902
 20
45.63046900775318
 30
0.0
 10
125.6838547355658
 20
45.64621533777515
 30
0.0
 10
125.2944350479602
 20
45.70766036236058
 30
0.0
 10
125.1009503549
 20
45.7532491216143
 30
0.0
 10
124.5237667561444
 20
45.9297001238709
 30
0.0
 10
124.1433309743614
 20
46.10015782583439
 30
0.0
 10
123.7659917978375
 20
46.30819041301324
 30
0.0
  0
LINE
  5
11A
330
1F
100
AcDbEntity
  8
0
  6
Continuous
 62
     7
370
    25
100
AcDbLine
 10
118.7141769424
 20
45.6304690078
 30
0.0
 11
126.0753928746
 21
45.6304690078
 31
0.0
  0
LINE
  5
11B
330
1F
100
AcDbEntity
  8
0
  6
Continuous
 62
     7
370
    25
100
AcDbLine
 10
111.3529610103
 20
45.6304690078
 30
0.0
 11
118.7141769424
 21
45.6304690078
 31
0.0
  0
SPLINE
  5
11C
330
1F
100
AcDbEntity
  8
0
  6
Continuous
 62
     7
370
    25
100
AcDbSpline
210
0.0
220
0.0
230
1.0
 70
     8
 71
     3
 72
    10
 73
     6
 74
     0
 42
0.00000001
 43
0.00000001
 40
0.0
 40
0.0
 40
0.0
 40
0.0
 40
0.5
 40
0.5
 40
1.0
 40
1.0
 40
1.0
 40
1.0
 10
113.6623620870191
 20
46.30819041301292
 30
0.0
 10
113.2836129396278
 20
46.09938048834665
 30
0.0
 10
112.9024076632165
 20
45.9288463485994
 30
0.0
 10
112.1331770420287
 20
45.69406054358048
 30
0.0
 10
111.7451093372304
 20
45.63046900775318
 30
0.0
 10
111.3529610102605
 20
45.63046900775319
 30
0.0
  0
ELLIPSE
  5
11D
330
1F
100
AcDbEntity
  8
0
  6
Continuous
 62
     7
370
    25
100
AcDbEllipse
 10
114.6604159359
 20
57.1368788683
 30
0.0
 11
0.08480161849065837
 21
-7.105427357601002E-15
 31
0.0
210
0.0
220
0.0
230
1.0
 40
0.9533039403
 41
2.798568711308354
 42
4.712388980384782
  0
ELLIPSE
  5
11E
330
1F
100
AcDbEntity
  8
0
  6
Continuous
 62
     7
370
    25
100
AcDbEllipse
 10
114.9640901171
 20
57.9474614854
 30
0.0
 11
0.08480161849064416
 21
0.0
 31
0.0
210
0.0
220
0.0
230
1.0
 40
0.9533039403
 41
0.3430239404205573
 42
2.798568713169266
  0
LINE
  5
11F
330
1F
100
AcDbEntity
  8
0
  6
Continuous
 62
     7
370
    25
100
AcDbLine
 10
114.6604159359
 20
57.0560371513
 30
0.0
 11
115.2677642947
 21
57.0560371513
 31
0.0
  0
LINE
  5
120
330
1F
100
AcDbEntity
  8
0
  6
Continuous
 62
     7
370
    25
100
AcDbLine
 10
115.3476255331
 20
57.16406888
 30
0.0
 11
115.0439513554
 21
57.9746514972
 31
0.0
  0
ELLIPSE
  5
121
330
1F
100
AcDbEntity
  8
0
  6
Continuous
 62
     7
370
    25
100
AcDbEllipse
 10
115.2677642947
 20
57.1368788683
 30
0.0
 11
-0.08480161849067258
 21
-4.973799150320701E-14
 31
0.0
210
0.0
220
0.0
230
1.0
 40
0.9533039403
 41
1.570796326794337
 42
3.484616592149193
  0
LINE
  5
122
330
1F
100
AcDbEntity
  8
0
  6
Continuous
 62
     7
370
    25
100
AcDbLine
 10
114.8842288788
 20
57.9746514972
 30
0.0
 11
114.5805546977
 21
57.1640688803
 31
0.0
  0
SPLINE
  5
123
330
1F
100
AcDbEntity
  8
0
  6
Continuous
 62
     7
370
    25
100
AcDbSpline
210
0.0
220
0.0
230
1.0
 70
     8
 71
     3
 72
    10
 73
     6
 74
     0
 42
0.00000001
 43
0.00000001
 40
0.0
 40
0.0
 40
0.0
 40
0.0
 40
0.5
 40
0.5
 40
1.0
 40
1.0
 40
1.0
 40
1.0
 10
112.036455537168
 20
53.01166685423618
 30
0.0
 10
112.0127801427436
 20
52.92577979243373
 30
0.0
 10
111.9996890328591
 20
52.8383725834536
 30
0.0
 10
111.9996027115708
 20
52.68573614085986
 30
0.0
 10
112.0127716455146
 20
52.62161309591428
 30
0.0
 10
112.0364555371681
 20
52.57865415234397
 30
0.0
  0
LINE
  5
124
330
1F
100
AcDbEntity
  8
0
  6
Continuous
 62
     7
370
    25
100
AcDbLine
 10
112.0364555372
 20
52.5786541523
 30
0.0
 11
107.8918983477
 21
52.5786541523
 31
0.0
  0
SPLINE
  5
125
330
1F
100
AcDbEntity
  8
0
  6
Continuous
 62
     7
370
    25
100
AcDbSpline
210
0.0
220
0.0
230
1.0
 70
     8
 71
     3
 72
    10
 73
     6
 74
     0
 42
0.00000001
 43
0.00000001
 40
0.0
 40
0.0
 40
0.0
 40
0.0
 40
0.5
 40
0.5
 40
1.0
 40
1.0
 40
1.0
 40
1.0
 10
107.8918983476885
 20
53.01166685423618
 30
0.0
 10
107.9155722482444
 20
52.92578521172972
 30
0.0
 10
107.9286648054236
 20
52.83837600576429
 30
0.0
 10
107.9287512194058
 20
52.68573352068936
 30
0.0
 10
107.9155808278072
 20
52.62161053560699
 30
0.0
 10
107.8918983476885
 20
52.57865415234397
 30
0.0
  0
LINE
  5
126
330
1F
100
AcDbEntity
  8
0
  6
Continuous
 62
     7
370
    25
100
AcDbLine
 10
123.7659917978
 20
49.6640724679
 30
0.0
 11
123.7659917978
 21
46.308190413
 31
0.0
  0
SPLINE
  5
127
330
1F
100
AcDbEntity
  8
0
  6
Continuous
 62
     7
370
    25
100
AcDbSpline
210
0.0
220
0.0
230
1.0
 70
     8
 71
     3
 72
    10
 73
     6
 74
     0
 42
0.00000001
 43
0.00000001
 40
0.0
 40
0.0
 40
0.0
 40
0.0
 40
0.5
 40
0.5
 40
1.0
 40
1.0
 40
1.0
 40
1.0
 10
107.891898347688
 20
62.6822838631624
 30
0.0
 10
107.6830884230217
 20
63.06103301055367
 30
0.0
 10
107.5125542832745
 20
63.44223828696498
 30
0.0
 10
107.2777684782556
 20
64.21146890815275
 30
0.0
 10
107.2141769424283
 20
64.59953661295108
 30
0.0
 10
107.2141769424283
 20
64.99168493992093
 30
0.0
  0
SPLINE
  5
128
330
1F
100
AcDbEntity
  8
0
  6
Continuous
 62
     7
370
    25
100
AcDbSpline
210
0.0
220
0.0
230
1.0
 70
     8
 71
     3
 72
    10
 73
     6
 74
     0
 42
0.00000001
 43
0.00000001
 40
0.0
 40
0.0
 40
0.0
 40
0.0
 40
0.5
 40
0.5
 40
1.0
 40
1.0
 40
1.0
 40
1.0
 10
107.8918983476885
 20
62.68228386316243
 30
0.0
 10
107.9155705876
 20
62.63934605406318
 30
0.0
 10
107.9286645775353
 20
62.57590546417098
 30
0.0
 10
107.9287514449967
 20
62.42341631866214
 30
0.0
 10
107.9155816552374
 20
62.33518692945883
 30
0.0
 10
107.8918983476885
 20
62.2492711612702
 30
0.0
  0
LINE
  5
129
330
1F
100
AcDbEntity
  8
0
  6
Continuous
 62
     7
370
    25
100
AcDbLine
 10
107.2141769424
 20
57.6304690078
 30
0.0
 11
107.2141769424
 21
64.9916849399
 31
0.0
  0
SPLINE
  5
12A
330
1F
100
AcDbEntity
  8
0
  6
Continuous
 62
     7
370
    25
100
AcDbSpline
210
0.0
220
0.0
230
1.0
 70
     8
 71
     3
 72
     8
 73
     4
 74
     0
 42
0.00000001
 43
0.00000001
 40
0.0
 40
0.0
 40
0.0
 40
0.0
 40
1.0
 40
1.0
 40
1.0
 40
1.0
 10
124.8355604339244
 20
51.22034747442795
 30
0.0
 10
124.7944451582832
 20
51.3563778689175
 30
0.0
 10
124.7539561754153
 20
51.49308193355493
 30
0.0
 10
124.7141769424283
 20
51.63046900775318
 30
0.0
  0
LINE
  5
12B
330
1F
100
AcDbEntity
  8
0
  6
Continuous
 62
     7
370
    25
100
AcDbLine
 10
124.7141769424
 20
53.6304690078
 30
0.0
 11
124.7141769424
 21
51.6304690078
 31
0.0
  0
SPLINE
  5
12C
330
1F
100
AcDbEntity
  8
0
  6
Continuous
 62
     7
370
    25
100
AcDbSpline
210
0.0
220
0.0
230
1.0
 70
     8
 71
     3
 72
    10
 73
     6
 74
     0
 42
0.00000001
 43
0.00000001
 40
0.0
 40
0.0
 40
0.0
 40
0.0
 40
0.5
 40
0.5
 40
1.0
 40
1.0
 40
1.0
 40
1.0
 10
125.3918983476852
 20
52.57865415234397
 30
0.0
 10
125.4155737421095
 20
52.62159768324512
 30
0.0
 10
125.4286648519974
 20
52.68504012786891
 30
0.0
 10
125.4287511732858
 20
52.837518964988
 30
0.0
 10
125.415582239342
 20
52.92574896709542
 30
0.0
 10
125.3918983476885
 20
53.01166685423618
 30
0.0
  0
SPLINE
  5
12D
330
1F
100
AcDbEntity
  8
0
  6
Continuous
 62
     7
370
    25
100
AcDbSpline
210
0.0
220
0.0
230
1.0
 70
     8
 71
     3
 72
     8
 73
     4
 74
     0
 42
0.00000001
 43
0.00000001
 40
0.0
 40
0.0
 40
0.0
 40
0.0
 40
1.0
 40
1.0
 40
1.0
 40
1.0
 10
124.8355604339244
 20
51.22034747442795
 30
0.0
 10
124.9511930439535
 20
51.67889840648571
 30
0.0
 10
125.1450824487739
 20
52.13096800224395
 30
0.0
 10
125.3918983476883
 20
52.57865415234371
 30
0.0
  0
LINE
  5
12E
330
1F
100
AcDbEntity
  8
0
  6
Continuous
 62
     7
370
    25
100
AcDbLine
 10
129.8921179699
 20
52.5786541523
 30
0.0
 11
125.3918983477
 21
52.5786541523
 31
0.0
  0
SPLINE
  5
12F
330
1F
100
AcDbEntity
  8
0
  6
Continuous
 62
     7
370
    25
100
AcDbSpline
210
0.0
220
0.0
230
1.0
 70
     8
 71
     3
 72
    10
 73
     6
 74
     0
 42
0.00000001
 43
0.00000001
 40
0.0
 40
0.0
 40
0.0
 40
0.0
 40
0.5
 40
0.5
 40
1.0
 40
1.0
 40
1.0
 40
1.0
 10
129.8921179698706
 20
53.01166685423618
 30
0.0
 10
129.8684425754462
 20
52.92577979243372
 30
0.0
 10
129.8553514655617
 20
52.83837258345358
 30
0.0
 10
129.8552651442734
 20
52.68573614085985
 30
0.0
 10
129.8684340782172
 20
52.62161309591428
 30
0.0
 10
129.8921179698707
 20
52.57865415234397
 30
0.0
  0
LINE
  5
130
330
1F
100
AcDbEntity
  8
0
  6
Continuous
 62
     7
370
    25
100
AcDbLine
 10
112.7141769424
 20
53.6304690078
 30
0.0
 11
112.7141769424
 21
51.6304690078
 31
0.0
  0
SPLINE
  5
131
330
1F
100
AcDbEntity
  8
0
  6
Continuous
 62
     7
370
    25
100
AcDbSpline
210
0.0
220
0.0
230
1.0
 70
     8
 71
     3
 72
     8
 73
     4
 74
     0
 42
0.00000001
 43
0.00000001
 40
0.0
 40
0.0
 40
0.0
 40
0.0
 40
1.0
 40
1.0
 40
1.0
 40
1.0
 10
112.7141769424283
 20
51.63046900775318
 30
0.0
 10
112.6743982842381
 20
51.49308391875308
 30
0.0
 10
112.6339093214099
 20
51.35637983694131
 30
0.0
 10
112.5927934509321
 20
51.22034747442794
 30
0.0
  0
SPLINE
  5
132
330
1F
100
AcDbEntity
  8
0
  6
Continuous
 62
     7
370
    25
100
AcDbSpline
210
0.0
220
0.0
230
1.0
 70
     8
 71
     3
 72
     8
 73
     4
 74
     0
 42
0.00000001
 43
0.00000001
 40
0.0
 40
0.0
 40
0.0
 40
0.0
 40
1.0
 40
1.0
 40
1.0
 40
1.0
 10
112.0364555371681
 20
52.57865415234397
 30
0.0
 10
112.283629318052
 20
52.13031885929264
 30
0.0
 10
112.477350986356
 20
51.67814436854905
 30
0.0
 10
112.5927934509321
 20
51.22034747442794
 30
0.0
  0
SPLINE
  5
133
330
1F
100
AcDbEntity
  8
0
  6
Continuous
 62
     7
370
    25
100
AcDbSpline
210
0.0
220
0.0
230
1.0
 70
     8
 71
     3
 72
    10
 73
     6
 74
     0
 42
0.00000001
 43
0.00000001
 40
0.0
 40
0.0
 40
0.0
 40
0.0
 40
0.5
 40
0.5
 40
1.0
 40
1.0
 40
1.0
 40
1.0
 10
129.8921179698707
 20
62.68228386316243
 30
0.0
 10
129.8684425754463
 20
62.63934033226119
 30
0.0
 10
129.8553514655617
 20
62.57589788763707
 30
0.0
 10
129.8552651442734
 20
62.4234190505181
 30
0.0
 10
129.8684340782172
 20
62.33518904841083
 30
0.0
 10
129.8921179698707
 20
62.2492711612702
 30
0.0
  0
SPLINE
  5
134
330
1F
100
AcDbEntity
  8
0
  6
Continuous
 62
     7
370
    25
100
AcDbSpline
210
0.0
220
0.0
230
1.0
 70
     8
 71
     3
 72
    16
 73
    12
 74
     0
 42
0.00000001
 43
0.00000001
 40
0.0
 40
0.0
 40
0.0
 40
0.0
 40
0.2500000000000001
 40
0.2500000000000001
 40
0.5000000000000001
 40
0.5000000000000001
 40
0.6250000000000001
 40
0.6250000000000001
 40
0.7500000000000002
 40
0.7500000000000002
 40
1.0
 40
1.0
 40
1.0
 40
1.0
 10
129.8921179698707
 20
67.30108601667943
 30
0.0
 10
130.1001334179765
 20
66.92377792780293
 30
0.0
 10
130.2703397229494
 20
66.54375419742873
 30
0.0
 10
130.505275754517
 20
65.77613088201802
 30
0.0
 10
130.5693478861806
 20
65.38848406522924
 30
0.0
 10
130.5700808351017
 20
64.80016351334139
 30
0.0
 10
130.5544213550186
 20
64.60309032078575
 30
0.0
 10
130.4931462283817
 20
64.21303334323164
 30
0.0
 10
130.4475899558826
 20
64.0192404426436
 30
0.0
 10
130.2711039231263
 20
63.44115945788018
 30
0.0
 10
130.1004474696406
 20
63.06016159354535
 30
0.0
 10
129.8921179698707
 20
62.68228386316243
 30
0.0
  0
SPLINE
  5
135
330
1F
100
AcDbEntity
  8
0
  6
Continuous
 62
     7
370
    25
100
AcDbSpline
210
0.0
220
0.0
230
1.0
 70
     8
 71
     3
 72
    10
 73
     6
 74
     0
 42
0.00000001
 43
0.00000001
 40
0.0
 40
0.0
 40
0.0
 40
0.0
 40
0.1601790552921226
 40
0.7197651707803578
 40
1.0
 40
1.0
 40
1.0
 40
1.0
 10
129.8578885367538
 20
67.36336429542918
 30
0.0
 10
129.8571257466605
 20
67.36475652345554
 30
0.0
 10
129.8536981465868
 20
67.37101250518386
 30
0.0
 10
129.8682056113851
 20
67.34450524045596
 30
0.0
 10
129.8861351645029
 20
67.3119493853108
 30
0.0
 10
129.8921179698707
 20
67.30108601667943
 30
0.0
  0
SPLINE
  5
136
330
1F
100
AcDbEntity
  8
0
  6
Continuous
 62
     7
370
    25
100
AcDbSpline
210
0.0
220
0.0
230
1.0
 70
     8
 71
     3
 72
     9
 73
     5
 74
     0
 42
0.00000001
 43
0.00000001
 40
0.0
 40
0.0
 40
0.0
 40
0.0
 40
0.5797912171256352
 40
1.0
 40
1.0
 40
1.0
 40
1.0
 10
129.8921179698707
 20
47.95985199882696
 30
0.0
 10
129.8797593665242
 20
47.93737835058582
 30
0.0
 10
129.8584437567298
 20
47.898616728165
 30
0.0
 10
129.858052814227
 20
47.8978823234068
 30
0.0
 10
129.8578885367538
 20
47.89757372007721
 30
0.0
  0
SPLINE
  5
137
330
1F
100
AcDbEntity
  8
0
  6
Continuous
 62
     7
370
    25
100
AcDbSpline
210
0.0
220
0.0
230
1.0
 70
     8
 71
     3
 72
    16
 73
    12
 74
     0
 42
0.00000001
 43
0.00000001
 40
0.0
 40
0.0
 40
0.0
 40
0.0
 40
0.2500000000000001
 40
0.2500000000000001
 40
0.5000000000000002
 40
0.5000000000000002
 40
0.6250000000000001
 40
0.6250000000000001
 40
0.7500000000000001
 40
0.7500000000000001
 40
1.0
 40
1.0
 40
1.0
 40
1.0
 10
129.8921179698707
 20
52.57865415234397
 30
0.0
 10
130.1001334179765
 20
52.20134606346747
 30
0.0
 10
130.2703397229494
 20
51.82132233309326
 30
0.0
 10
130.505275754517
 20
51.05369901768257
 30
0.0
 10
130.5693478861807
 20
50.66605220089378
 30
0.0
 10
130.5700808351017
 20
50.07773164900593
 30
0.0
 10
130.5544213550187
 20
49.88065845645028
 30
0.0
 10
130.4931462283817
 20
49.49060147889617
 30
0.0
 10
130.4475899558826
 20
49.29680857830814
 30
0.0
 10
130.2711039231263
 20
48.71872759354471
 30
0.0
 10
130.1004474696406
 20
48.33772972920989
 30
0.0
 10
129.8921179698707
 20
47.95985199882696
 30
0.0
  0
LINE
  5
138
330
1F
100
AcDbEntity
  8
0
  6
Continuous
 62
     7
370
    25
100
AcDbLine
 10
130.7141769424
 20
65.8804690078
 30
0.0
 11
130.7141769424
 21
49.3804690078
 31
0.0
  0
LINE
  5
139
330
1F
100
AcDbEntity
  8
0
  6
Continuous
 62
     7
370
    25
100
AcDbLine
 10
107.8918983477
 20
62.6822838632
 30
0.0
 11
112.0364555372
 21
62.6822838632
 31
0.0
  0
SPLINE
  5
13A
330
1F
100
AcDbEntity
  8
0
  6
Continuous
 62
     7
370
    25
100
AcDbSpline
210
0.0
220
0.0
230
1.0
 70
     8
 71
     3
 72
    12
 73
     8
 74
     0
 42
0.00000001
 43
0.00000001
 40
0.0
 40
0.0
 40
0.0
 40
0.0
 40
0.2499999999999999
 40
0.2499999999999999
 40
0.4999999999999998
 40
0.4999999999999998
 40
1.0
 40
1.0
 40
1.0
 40
1.0
 10
107.2141769424283
 20
50.26925307558545
 30
0.0
 10
107.2141769424283
 20
50.46425655559126
 30
0.0
 10
107.2299232724502
 20
50.66079121461566
 30
0.0
 10
107.2913682970357
 20
51.05021090222121
 30
0.0
 10
107.3369570562894
 20
51.24369559528147
 30
0.0
 10
107.513408058546
 20
51.82087919403708
 30
0.0
 10
107.6838657605095
 20
52.20131497582003
 30
0.0
 10
107.8918983476883
 20
52.57865415234398
 30
0.0
  0
LINE
  5
13B
330
1F
100
AcDbEntity
  8
0
  6
Continuous
 62
     7
370
    25
100
AcDbLine
 10
107.2141769424
 20
57.6304690078
 30
0.0
 11
107.2141769424
 21
50.2692530756
 31
0.0
  0
LINE
  5
13C
330
1F
100
AcDbEntity
  8
0
  6
Continuous
 62
     7
370
    25
100
AcDbLine
 10
125.3918983477
 20
62.6822838632
 30
0.0
 11
129.8921179699
 21
62.6822838632
 31
0.0
  0
SPLINE
  5
13D
330
1F
100
AcDbEntity
  8
0
  6
Continuous
 62
     7
370
    25
100
AcDbSpline
210
0.0
220
0.0
230
1.0
 70
     8
 71
     3
 72
    12
 73
     8
 74
     0
 42
0.00000001
 43
0.00000001
 40
0.0
 40
0.0
 40
0.0
 40
0.0
 40
0.2499999999999999
 40
0.2499999999999999
 40
0.4999999999999998
 40
0.4999999999999998
 40
1.0
 40
1.0
 40
1.0
 40
1.0
 10
124.7141769424283
 20
64.99168493992093
 30
0.0
 10
124.7141769424283
 20
65.18742720280044
 30
0.0
 10
124.7300198785172
 20
65.384093811991
 30
0.0
 10
124.7915227387549
 20
65.77336203931927
 30
0.0
 10
124.8371263797986
 20
65.9667660722722
 30
0.0
 10
125.0135773972878
 20
66.54369512352895
 30
0.0
 10
125.1839747645397
 20
66.92394455673197
 30
0.0
 10
125.3918983476885
 20
67.30108601667943
 30
0.0
  0
LINE
  5
13E
330
1F
100
AcDbEntity
  8
0
  6
Continuous
 62
     7
370
    25
100
AcDbLine
 10
129.8921179699
 20
67.3010860167
 30
0.0
 11
125.3918983477
 21
67.3010860167
 31
0.0
  0
ELLIPSE
  5
13F
330
1F
100
AcDbEntity
  8
0
  6
Continuous
 62
     7
370
    25
100
AcDbEllipse
 10
118.7141769424
 20
47.8155144315
 30
0.0
 11
8.499999999999986
 21
0.0
 31
0.0
210
0.0
220
0.0
230
1.0
 40
0.5773502692
 41
2.374833212873086
 42
2.530692279913059
  0
LINE
  5
140
330
1F
100
AcDbEntity
  8
0
  6
Continuous
 62
     7
370
    25
100
AcDbLine
 10
111.4248007578
 20
50.3410928231
 30
0.0
 11
109.0435599335
 21
47.9598519988
 31
0.0
  0
LINE
  5
141
330
1F
100
AcDbEntity
  8
0
  6
Continuous
 62
     7
370
    25
100
AcDbLine
 10
107.8918983477
 20
47.9598519988
 30
0.0
 11
109.0435599335
 21
47.9598519988
 31
0.0
  0
SPLINE
  5
142
330
1F
100
AcDbEntity
  8
0
  6
Continuous
 62
     7
370
    25
100
AcDbSpline
210
0.0
220
0.0
230
1.0
 70
     8
 71
     3
 72
    10
 73
     6
 74
     0
 42
0.00000001
 43
0.00000001
 40
0.0
 40
0.0
 40
0.0
 40
0.0
 40
0.5
 40
0.5
 40
1.0
 40
1.0
 40
1.0
 40
1.0
 10
107.891898347688
 20
47.95985199882692
 30
0.0
 10
107.6830884230217
 20
48.33860114621821
 30
0.0
 10
107.5125542832745
 20
48.71980642262952
 30
0.0
 10
107.2777684782556
 20
49.4890370438173
 30
0.0
 10
107.2141769424283
 20
49.87710474861562
 30
0.0
 10
107.2141769424283
 20
50.26925307558545
 30
0.0
  0
ELLIPSE
  5
143
330
1F
100
AcDbEntity
  8
0
  6
Continuous
 62
     7
370
    25
100
AcDbEllipse
 10
118.7141769424
 20
47.8155144315
 30
0.0
 11
8.499999999999986
 21
0.0
 31
0.0
210
0.0
220
0.0
230
1.0
 40
0.5773502692
 41
0.6109003736767331
 42
0.7667594407167057
  0
LINE
  5
144
330
1F
100
AcDbEntity
  8
0
  6
Continuous
 62
     7
370
    25
100
AcDbLine
 10
128.3847939514
 20
47.9598519988
 30
0.0
 11
129.8921179699
 21
47.9598519988
 31
0.0
  0
LINE
  5
145
330
1F
100
AcDbEntity
  8
0
  6
Continuous
 62
     7
370
    25
100
AcDbLine
 10
128.3847939514
 20
47.9598519988
 30
0.0
 11
126.0035531271
 21
50.3410928231
 31
0.0
  0
SPLINE
  5
146
330
1F
100
AcDbEntity
  8
0
  6
Continuous
 62
     7
370
    25
100
AcDbSpline
210
0.0
220
0.0
230
1.0
 70
     8
 71
     3
 72
    12
 73
     8
 74
     0
 42
0.00000001
 43
0.00000001
 40
0.0
 40
0.0
 40
0.0
 40
0.0
 40
0.2499999999999999
 40
0.2499999999999999
 40
0.5
 40
0.5
 40
1.0
 40
1.0
 40
1.0
 40
1.0
 10
107.2141769424283
 20
64.99168493992093
 30
0.0
 10
107.2141769424283
 20
65.18668841992671
 30
0.0
 10
107.2299232724502
 20
65.38322307895113
 30
0.0
 10
107.2913682970357
 20
65.77264276655667
 30
0.0
 10
107.3369570562894
 20
65.96612745961694
 30
0.0
 10
107.513408058546
 20
66.54331105837254
 30
0.0
 10
107.6838657605095
 20
66.9237468401555
 30
0.0
 10
107.8918983476883
 20
67.30108601667943
 30
0.0
  0
LINE
  5
147
330
1F
100
AcDbEntity
  8
0
  6
Continuous
 62
     7
370
    25
100
AcDbLine
 10
112.0364555372
 20
67.3010860167
 30
0.0
 11
107.8918983477
 21
67.3010860167
 31
0.0
  0
SPLINE
  5
148
330
1F
100
AcDbEntity
  8
0
  6
Continuous
 62
     7
370
    25
100
AcDbSpline
210
0.0
220
0.0
230
1.0
 70
     8
 71
     3
 72
    10
 73
     6
 74
     0
 42
0.00000001
 43
0.00000001
 40
0.0
 40
0.0
 40
0.0
 40
0.0
 40
0.5
 40
0.5
 40
1.0
 40
1.0
 40
1.0
 40
1.0
 10
112.0364555371681
 20
67.30108601667945
 30
0.0
 10
112.2448762899855
 20
66.92304276727728
 30
0.0
 10
112.4153401252629
 20
66.54227326248144
 30
0.0
 10
112.6503225602013
 20
65.7731247369239
 30
0.0
 10
112.7141769424283
 20
65.38469800874866
 30
0.0
 10
112.7141769424283
 20
64.99168493992093
 30
0.0
  0
LINE
  5
149
330
1F
100
AcDbEntity
  8
0
  6
Continuous
 62
     7
370
    25
100
AcDbLine
 10
128.3847939514
 20
46.308190413
 30
0.0
 11
128.3847939514
 21
47.9598519988
 31
0.0
  0
SPLINE
  5
14A
330
1F
100
AcDbEntity
  8
0
  6
Continuous
 62
     7
370
    25
100
AcDbSpline
210
0.0
220
0.0
230
1.0
 70
     8
 71
     3
 72
    10
 73
     6
 74
     0
 42
0.00000001
 43
0.00000001
 40
0.0
 40
0.0
 40
0.0
 40
0.0
 40
0.5
 40
0.5
 40
1.0
 40
1.0
 40
1.0
 40
1.0
 10
128.3847939513545
 20
46.30819041301292
 30
0.0
 10
128.0060448039632
 20
46.09938048834665
 30
0.0
 10
127.6248395275519
 20
45.92884634859941
 30
0.0
 10
126.8556089063642
 20
45.69406054358048
 30
0.0
 10
126.4675412015658
 20
45.63046900775319
 30
0.0
 10
126.075392874596
 20
45.63046900775319
 30
0.0
  0
SPLINE
  5
14B
330
1F
100
AcDbEntity
  8
0
  6
Continuous
 62
     7
370
    25
100
AcDbSpline
210
0.0
220
0.0
230
1.0
 70
     8
 71
     3
 72
    12
 73
     8
 74
     0
 42
0.00000001
 43
0.00000001
 40
0.0
 40
0.0
 40
0.0
 40
0.0
 40
0.2500000000000002
 40
0.2500000000000002
 40
0.5000000000000001
 40
0.5000000000000001
 40
1.0
 40
1.0
 40
1.0
 40
1.0
 10
111.3529610102605
 20
45.63046900775319
 30
0.0
 10
111.1579575302547
 20
45.63046900775319
 30
0.0
 10
110.9614228712303
 20
45.64621533777515
 30
0.0
 10
110.5720031836248
 20
45.70766036236058
 30
0.0
 10
110.3785184905645
 20
45.7532491216143
 30
0.0
 10
109.8013348918089
 20
45.92970012387089
 30
0.0
 10
109.420899110026
 20
46.10015782583439
 30
0.0
 10
109.043559933502
 20
46.30819041301324
 30
0.0
  0
LINE
  5
14C
330
1F
100
AcDbEntity
  8
0
  6
Continuous
 62
     7
370
    25
100
AcDbLine
 10
109.0435599335
 20
47.9598519988
 30
0.0
 11
109.0435599335
 21
46.308190413
 31
0.0
  0
LINE
  5
14D
330
1F
100
AcDbEntity
  8
0
  6
Continuous
 62
     7
370
    25
100
AcDbLine
 10
124.7141769424
 20
51.6304690078
 30
0.0
 11
122.7141769424
 21
53.6304690078
 31
0.0
  0
LINE
  5
14E
330
1F
100
AcDbEntity
  8
0
  6
Continuous
 62
     7
370
    25
100
AcDbLine
 10
122.7141769424
 20
50.6304690078
 30
0.0
 11
125.6767980151
 21
50.6304690078
 31
0.0
  0
LINE
  5
14F
330
1F
100
AcDbEntity
  8
0
  6
Continuous
 62
     7
370
    25
100
AcDbLine
 10
114.7141769424
 20
53.6304690078
 30
0.0
 11
112.7141769424
 21
51.6304690078
 31
0.0
  0
LINE
  5
150
330
1F
100
AcDbEntity
  8
0
  6
Continuous
 62
     7
370
    25
100
AcDbLine
 10
111.7515558698
 20
50.6304690078
 30
0.0
 11
114.7141769424
 21
50.6304690078
 31
0.0
  0
LINE
  5
151
330
1F
100
AcDbEntity
  8
0
  6
Continuous
 62
     7
370
    25
100
AcDbLine
 10
112.7141769424
 20
65.564923486
 30
0.0
 11
112.7141769424
 21
64.9916849399
 31
0.0
  0
SPLINE
  5
152
330
1F
100
AcDbEntity
  8
0
  6
Continuous
 62
     7
370
    25
100
AcDbSpline
210
0.0
220
0.0
230
1.0
 70
     8
 71
     3
 72
    32
 73
    28
 74
     0
 42
0.00000001
 43
0.00000001
 40
0.0
 40
0.0
 40
0.0
 40
0.0
 40
0.0625000000000001
 40
0.0625000000000001
 40
0.1250000000000001
 40
0.1250000000000001
 40
0.1875000000000002
 40
0.1875000000000002
 40
0.2500000000000003
 40
0.2500000000000003
 40
0.3750000000000003
 40
0.3750000000000003
 40
0.4375000000000003
 40
0.4375000000000003
 40
0.5000000000000002
 40
0.5000000000000002
 40
0.5625000000000002
 40
0.5625000000000002
 40
0.6250000000000001
 40
0.6250000000000001
 40
0.7500000000000001
 40
0.7500000000000001
 40
0.8750000000000002
 40
0.8750000000000002
 40
0.9375000000000001
 40
0.9375000000000001
 40
1.0
 40
1.0
 40
1.0
 40
1.0
 10
124.7141769424198
 20
65.56492348597384
 30
0.0
 10
124.5573206065029
 20
65.46996650807816
 30
0.0
 10
124.3843221723473
 20
65.36721333345297
 30
0.0
 10
124.0076175857215
 20
65.15050213180469
 30
0.0
 10
123.8047648052648
 20
65.03708342131469
 30
0.0
 10
123.3787835424622
 20
64.80899328461652
 30
0.0
 10
123.1546055821742
 20
64.69368640216466
 30
0.0
 10
122.6832544885978
 20
64.46536329978989
 30
0.0
 10
122.4345689732327
 20
64.35171328365612
 30
0.0
 10
121.663996488541
 20
64.02864925242208
 30
0.0
 10
121.1183590784589
 20
63.83575072825859
 30
0.0
 10
120.2355793299625
 20
63.62415680298488
 30
0.0
 10
119.9369402300897
 20
63.56851441686715
 30
0.0
 10
119.3304386293739
 20
63.49284634750331
 30
0.0
 10
119.020291390708
 20
63.47287310172699
 30
0.0
 10
118.4002059020242
 20
63.47320686798023
 30
0.0
 10
118.0936348645562
 20
63.49320583330302
 30
0.0
 10
117.486980117248
 20
63.56924461949949
 30
0.0
 10
117.1846070526227
 20
63.62589771963103
 30
0.0
 10
116.3079707498697
 20
63.83667626967689
 30
0.0
 10
115.7599166178928
 20
64.03022210024864
 30
0.0
 10
114.7294193506495
 20
64.46284139352443
 30
0.0
 10
114.2618593153701
 20
64.69531803821486
 30
0.0
 10
113.6236457117421
 20
65.0370560391339
 30
0.0
 10
113.4204359735523
 20
65.15067355456229
 30
0.0
 10
113.0440990471579
 20
65.36717594691854
 30
0.0
 10
112.8711204386664
 20
65.46991374336292
 30
0.0
 10
112.7141769424283
 20
65.56492348597901
 30
0.0
  0
LINE
  5
153
330
1F
100
AcDbEntity
  8
0
  6
Continuous
 62
     7
370
    25
100
AcDbLine
 10
124.7141769424
 20
65.564923486
 30
0.0
 11
124.7141769424
 21
64.9916849399
 31
0.0
  0
LINE
  5
154
330
1F
100
AcDbEntity
  8
0
  6
Continuous
 62
     7
370
    25
100
AcDbLine
 10
112.2496248839
 20
36.2341348816
 30
0.0
 11
125.178729001
 21
36.2341348816
 31
0.0
  0
SPLINE
  5
155
330
1F
100
AcDbEntity
  8
0
  6
Continuous
 62
     7
370
    25
100
AcDbSpline
210
0.0
220
0.0
230
1.0
 70
     8
 71
     3
 72
    12
 73
     8
 74
     0
 42
0.00000001
 43
0.00000001
 40
0.0
 40
0.0
 40
0.0
 40
0.0
 40
0.0821682142679489
 40
0.3096894787769371
 40
0.5425025100710911
 40
0.7710669954520313
 40
0.9999999999999999
 40
0.9999999999999999
 40
0.9999999999999999
 40
0.9999999999999999
 10
124.8876161873729
 20
66.423678660424
 30
0.0
 10
124.8887481624107
 20
66.42744828574392
 30
0.0
 10
124.8930145416012
 20
66.44165588792812
 30
0.0
 10
124.8605592337439
 20
66.33429959330695
 30
0.0
 10
124.804594679636
 20
66.12836149349916
 30
0.0
 10
124.7363852729167
 20
65.84506610676739
 30
0.0
 10
124.7215836935351
 20
65.65835449231074
 30
0.0
 10
124.7141769424283
 20
65.56492348597187
 30
0.0
  0
SPLINE
  5
156
330
1F
100
AcDbEntity
  8
0
  6
Continuous
 62
     7
370
    25
100
AcDbSpline
210
0.0
220
0.0
230
1.0
 70
     8
 71
     3
 72
    11
 73
     7
 74
     0
 42
0.00000001
 43
0.00000001
 40
0.0
 40
0.0
 40
0.0
 40
0.0
 40
0.3176426818556392
 40
0.6359725109733426
 40
0.865706612787582
 40
1.0
 40
1.0
 40
1.0
 40
1.0
 10
112.7141769424283
 20
65.56492348597891
 30
0.0
 10
112.7005381654743
 20
65.69618818627238
 30
0.0
 10
112.6732311071932
 20
65.9590015480036
 30
0.0
 10
112.5852267281126
 20
66.27064512311424
 30
0.0
 10
112.5406670058782
 20
66.42438938057472
 30
0.0
 10
112.5410154504252
 20
66.42287697661354
 30
0.0
 10
112.541143995109
 20
66.4223190356423
 30
0.0
  0
LINE
  5
157
330
1F
100
AcDbEntity
  8
0
  6
Continuous
 62
     7
370
    25
100
AcDbLine
 10
123.9641769424
 20
34.1304690078
 30
0.0
 11
113.4641769424
 21
34.1304690078
 31
0.0
  0
SPLINE
  5
158
330
1F
100
AcDbEntity
  8
0
  6
Continuous
 62
     7
370
    25
100
AcDbSpline
210
0.0
220
0.0
230
1.0
 70
     8
 71
     3
 72
    10
 73
     6
 74
     0
 42
0.00000001
 43
0.00000001
 40
0.0
 40
0.0
 40
0.0
 40
0.0
 40
0.1601790552921523
 40
0.7197651707804853
 40
1.0
 40
1.0
 40
1.0
 40
1.0
 10
112.0022261040512
 20
67.36336429542916
 30
0.0
 10
112.0014633139579
 20
67.36475652345554
 30
0.0
 10
111.9980357138842
 20
67.37101250518387
 30
0.0
 10
112.0125431786825
 20
67.34450524045596
 30
0.0
 10
112.0304727318003
 20
67.31194938531081
 30
0.0
 10
112.0364555371681
 20
67.30108601667945
 30
0.0
  0
SPLINE
  5
159
330
1F
100
AcDbEntity
  8
0
  6
Continuous
 62
     7
370
    25
100
AcDbSpline
210
0.0
220
0.0
230
1.0
 70
     8
 71
     3
 72
    10
 73
     6
 74
     0
 42
0.00000001
 43
0.00000001
 40
0.0
 40
0.0
 40
0.0
 40
0.0
 40
0.1593935212994522
 40
0.7189934545690309
 40
1.0
 40
1.0
 40
1.0
 40
1.0
 10
107.9261353372659
 20
67.36337809614588
 30
0.0
 10
107.9268968642634
 20
67.3647680149725
 30
0.0
 10
107.9303319657793
 20
67.37103767091943
 30
0.0
 10
107.9158373433128
 20
67.34455372909565
 30
0.0
 10
107.8978959728201
 20
67.31197632504878
 30
0.0
 10
107.8918983476885
 20
67.30108601667942
 30
0.0
  0
LINE
  5
15A
330
1F
100
AcDbEntity
  8
0
  6
Continuous
 62
     7
370
    25
100
AcDbLine
 10
107.2141769424
 20
66.1304690078
 30
0.0
 11
107.2141769424
 21
64.9916849399
 31
0.0
  0
SPLINE
  5
15B
330
1F
100
AcDbEntity
  8
0
  6
Continuous
 62
     7
370
    25
100
AcDbSpline
210
0.0
220
0.0
230
1.0
 70
     8
 71
     3
 72
     9
 73
     5
 74
     0
 42
0.00000001
 43
0.00000001
 40
0.0
 40
0.0
 40
0.0
 40
0.0
 40
0.5797912171256431
 40
1.0
 40
1.0
 40
1.0
 40
1.0
 10
125.3918983476885
 20
67.30108601667943
 30
0.0
 10
125.4042569510349
 20
67.32355966492055
 30
0.0
 10
125.4255725608293
 20
67.36232128734137
 30
0.0
 10
125.4259635033321
 20
67.36305569209959
 30
0.0
 10
125.4261277808054
 20
67.36336429542918
 30
0.0
  0
SPLINE
  5
15C
330
1F
100
AcDbEntity
  8
0
  6
Continuous
 62
     7
370
    25
100
AcDbSpline
210
0.0
220
0.0
230
1.0
 70
     8
 71
     3
 72
     9
 73
     5
 74
     0
 42
0.00000001
 43
0.00000001
 40
0.0
 40
0.0
 40
0.0
 40
0.0
 40
0.5789479223911498
 40
1.0
 40
1.0
 40
1.0
 40
1.0
 10
128.3847939513545
 20
46.30819041301339
 30
0.0
 10
128.4072353185472
 20
46.32053130332779
 30
0.0
 10
128.4459976429717
 20
46.3418473662017
 30
0.0
 10
128.4467635458308
 20
46.34225554011609
 30
0.0
 10
128.4470860308208
 20
46.34242740259076
 30
0.0
  0
LINE
  5
15D
330
1F
100
AcDbEntity
  8
0
  6
Continuous
 62
     7
370
    25
100
AcDbLine
 10
126.0753928746
 20
45.6304690078
 30
0.0
 11
127.2141769424
 21
45.6304690078
 31
0.0
  0
SPLINE
  5
15E
330
1F
100
AcDbEntity
  8
0
  6
Continuous
 62
     7
370
    25
100
AcDbSpline
210
0.0
220
0.0
230
1.0
 70
     8
 71
     3
 72
    10
 73
     6
 74
     0
 42
0.00000001
 43
0.00000001
 40
0.0
 40
0.0
 40
0.0
 40
0.0
 40
0.1593935213061655
 40
0.7189934545756295
 40
1.0
 40
1.0
 40
1.0
 40
1.0
 10
108.9812678540357
 20
46.34242740259076
 30
0.0
 10
108.979877935209
 20
46.34318892958822
 30
0.0
 10
108.9736082792622
 20
46.34662403110408
 30
0.0
 10
109.0000922210862
 20
46.33212940863748
 30
0.0
 10
109.0326696251329
 20
46.31418803814487
 30
0.0
 10
109.043559933502
 20
46.30819041301338
 30
0.0
  0
LINE
  5
15F
330
1F
100
AcDbEntity
  8
0
  6
Continuous
 62
     7
370
    25
100
AcDbLine
 10
110.2141769424
 20
45.6304690078
 30
0.0
 11
111.3529610103
 21
45.6304690078
 31
0.0
  0
SPLINE
  5
160
330
1F
100
AcDbEntity
  8
0
  6
Continuous
 62
     7
370
    25
100
AcDbSpline
210
0.0
220
0.0
230
1.0
 70
     8
 71
     3
 72
     9
 73
     5
 74
     0
 42
0.00000001
 43
0.00000001
 40
0.0
 40
0.0
 40
0.0
 40
0.0
 40
0.5789479223839474
 40
0.9999999999999999
 40
0.9999999999999999
 40
0.9999999999999999
 40
0.9999999999999999
 10
107.8918983476885
 20
47.95985199882695
 30
0.0
 10
107.9042392380027
 20
47.93741063163458
 30
0.0
 10
107.9255553008766
 20
47.89864830721003
 30
0.0
 10
107.9259634747912
 20
47.89788240435067
 30
0.0
 10
107.9261353372659
 20
47.89755991936049
 30
0.0
  0
LINE
  5
161
330
1F
100
AcDbEntity
  8
0
  6
Continuous
 62
     7
370
    25
100
AcDbLine
 10
107.2141769424
 20
50.2692530756
 30
0.0
 11
107.2141769424
 21
49.1304690078
 31
0.0
  0
LINE
  5
162
330
1F
100
AcDbEntity
  8
0
  6
Continuous
 62
     7
370
    25
100
AcDbLine
 10
128.4517812495
 20
47.8928647007
 30
0.0
 11
128.3847939514
 21
47.9598519988
 31
0.0
  0
LINE
  5
163
330
1F
100
AcDbEntity
  8
0
  6
Continuous
 62
     7
370
    25
100
AcDbLine
 10
109.0435599335
 20
47.9598519988
 30
0.0
 11
108.9765726354
 21
47.8928647007
 31
0.0
  0
LINE
  5
164
330
1F
100
AcDbEntity
  8
0
  6
Continuous
 62
     7
370
    25
100
AcDbLine
 10
84.5141769424
 20
65.8804690078
 30
0.0
 11
84.5141769424
 21
49.3804690078
 31
0.0
  0
LINE
  5
165
330
1F
100
AcDbEntity
  8
0
  6
Continuous
 62
     7
370
    25
100
AcDbLine
 10
86.4141769424
 20
65.3804690078
 30
0.0
 11
86.4141769424
 21
49.8804690078
 31
0.0
  0
SPLINE
  5
166
330
1F
100
AcDbEntity
  8
0
  6
Continuous
 62
     7
370
    25
100
AcDbSpline
210
0.0
220
0.0
230
1.0
 70
     8
 71
     3
 72
    31
 73
    27
 74
     0
 42
0.00000001
 43
0.00000001
 40
0.0
 40
0.0
 40
0.0
 40
0.0
 40
0.0110620248792692
 40
0.053426152342489
 40
0.0958174940768056
 40
0.1336710108772321
 40
0.1717143340154468
 40
0.2096369876325603
 40
0.2168866422975865
 40
0.2777920133351345
 40
0.3386966084573554
 40
0.385931391486264
 40
0.4330711542106637
 40
0.4701730429684134
 40
0.5072360841007588
 40
0.5442569293736539
 40
0.5813269887543726
 40
0.6310001556472703
 40
0.6807653299696174
 40
0.7339487799536905
 40
0.7871235223337452
 40
0.8318868613311547
 40
0.8766153032241841
 40
0.9192140617116251
 40
0.9617777141497316
 40
1.0
 40
1.0
 40
1.0
 40
1.0
 10
112.8141769424283
 20
67.13046900775319
 30
0.0
 10
112.8150009032417
 20
67.12977126644698
 30
0.0
 10
112.8189803786471
 20
67.12640139214922
 30
0.0
 10
112.8897721980881
 20
67.06604116381811
 30
0.0
 10
113.0813833736537
 20
66.90540184357496
 30
0.0
 10
113.3562346529325
 20
66.67916694755806
 30
0.0
 10
113.6886701096113
 20
66.41378152283359
 30
0.0
 10
113.9757291030875
 20
66.19370629478075
 30
0.0
 10
114.3716768284277
 20
65.89990705293523
 30
0.0
 10
114.9072958395567
 20
65.51948487550575
 30
0.0
 10
115.7230494117316
 20
65.0214603225962
 30
0.0
 10
116.5646085516177
 20
64.60934265848212
 30
0.0
 10
117.3480156257501
 20
64.33234349366018
 30
0.0
 10
118.1210004695393
 20
64.18092635103704
 30
0.0
 10
118.8515907837411
 20
64.14277687956745
 30
0.0
 10
119.5763132370216
 20
64.22210877073432
 30
0.0
 10
120.3496828565934
 20
64.41461197853516
 30
0.0
 10
121.1400776788122
 20
64.73177144773332
 30
0.0
 10
121.9368822255166
 20
65.15704998548057
 30
0.0
 10
122.6642493326099
 20
65.61951069624891
 30
0.0
 10
123.2784551659578
 20
66.05992406945265
 30
0.0
 10
123.7719134039568
 20
66.43838326057691
 30
0.0
 10
124.1469816740852
 20
66.74015412541355
 30
0.0
 10
124.4171708132847
 20
66.96374382292286
 30
0.0
 10
124.5856301906517
 20
67.10623523007304
 30
0.0
 10
124.6010445657893
 20
67.11925403642047
 30
0.0
 10
124.6083375757511
 20
67.12541362988664
 30
0.0
  0
LINE
  5
167
330
1F
100
AcDbEntity
  8
FORMAT
100
AcDbLine
 10
112.9646386386
 20
34.9956947303
 30
0.0
 11
112.6479269424
 21
45.1304690078
 31
0.0
  0
LINE
  5
168
330
1F
100
AcDbEntity
  8
FORMAT
100
AcDbLine
 10
124.4637152463
 20
34.9956947303
 30
0.0
 11
124.7804269424
 21
45.1304690078
 31
0.0
  0
LINE
  5
169
330
1F
100
AcDbEntity
  8
FORMAT
100
AcDbLine
 10
125.4567394424
 20
45.1304690078
 30
0.0
 11
111.9716144424
 21
45.1304690078
 31
0.0
  0
LINE
  5
16A
330
1F
100
AcDbEntity
  8
FORMAT
  6
CENTERX2
370
    18
100
AcDbLine
 10
82.48015628
 20
57.6304690078
 30
0.0
 11
133.0060450769
 21
57.6304690078
 31
0.0
  0
LINE
  5
16B
330
1F
100
AcDbEntity
  8
FORMAT
  6
CENTERX2
370
    18
100
AcDbLine
 10
118.7141769424
 20
32.2201993326
 30
0.0
 11
118.7141769424
 21
87.2372782449
 31
0.0
  0
ARC
  5
16C
330
1F
100
AcDbEntity
  8
0
  6
Continuous
 62
     7
370
    25
100
AcDbCircle
 10
161.1818959296
 20
84.7304690078
 30
0.0
 40
0.25
100
AcDbArc
 50
90.0
 51
180.0
  0
ARC
  5
16D
330
1F
100
AcDbEntity
  8
0
  6
Continuous
 62
     7
370
    25
100
AcDbCircle
 10
171.6818959296
 20
84.7304690078
 30
0.0
 40
0.2500000000000284
100
AcDbArc
 50
0.0
 51
90.0
  0
LINE
  5
16E
330
1F
100
AcDbEntity
  8
0
  6
Continuous
 62
     7
370
    25
100
AcDbLine
 10
160.9318959296
 20
84.7304690078
 30
0.0
 11
160.9318959296
 21
84.1304690078
 31
0.0
  0
LINE
  5
16F
330
1F
100
AcDbEntity
  8
0
  6
Continuous
 62
     7
370
    25
100
AcDbLine
 10
171.9318959296
 20
84.1304690078
 30
0.0
 11
171.9318959296
 21
84.7304690078
 31
0.0
  0
LINE
  5
170
330
1F
100
AcDbEntity
  8
0
  6
Continuous
 62
     7
370
    25
100
AcDbLine
 10
173.8818959296
 20
76.1304690078
 30
0.0
 11
171.9318959296
 21
84.1304690077
 31
0.0
  0
LINE
  5
171
330
1F
100
AcDbEntity
  8
0
  6
Continuous
 62
     7
370
    25
100
AcDbLine
 10
160.9318959296
 20
84.1304690077
 30
0.0
 11
158.9818959296
 21
76.1304690078
 31
0.0
  0
LINE
  5
172
330
1F
100
AcDbEntity
  8
0
  6
Continuous
 62
     7
370
    25
100
AcDbLine
 10
158.9818959296
 20
76.1304690078
 30
0.0
 11
159.4318959296
 21
68.1304690078
 31
0.0
  0
LINE
  5
173
330
1F
100
AcDbEntity
  8
0
  6
Continuous
 62
     7
370
    25
100
AcDbLine
 10
173.4318959296
 20
68.1304690078
 30
0.0
 11
173.8818959296
 21
76.1304690078
 31
0.0
  0
LINE
  5
174
330
1F
100
AcDbEntity
  8
0
  6
Continuous
 62
     7
370
    25
100
AcDbLine
 10
159.6737084296
 20
45.6304690078
 30
0.0
 11
159.967343871
 21
36.2341348816
 31
0.0
  0
LINE
  5
175
330
1F
100
AcDbEntity
  8
0
  6
Continuous
 62
     7
370
    25
100
AcDbLine
 10
172.8964479881
 20
36.2341348816
 30
0.0
 11
173.1900834296
 21
45.6304690078
 31
0.0
  0
LINE
  5
176
330
1F
100
AcDbEntity
  8
0
  6
Continuous
 62
     7
370
    25
100
AcDbLine
 10
159.967343871
 20
36.2341348816
 30
0.0
 11
161.1818959296
 21
34.1304690078
 31
0.0
  0
LINE
  5
177
330
1F
100
AcDbEntity
  8
0
  6
Continuous
 62
     7
370
    25
100
AcDbLine
 10
171.6818959296
 20
34.1304690078
 30
0.0
 11
172.8964479881
 21
36.2341348816
 31
0.0
  0
LINE
  5
178
330
1F
100
AcDbEntity
  8
0
  6
Continuous
 62
     7
370
    25
100
AcDbLine
 10
172.3435377662
 20
64.0323355782
 30
0.0
 11
172.3328592396
 21
64.1632805076
 31
0.0
  0
SPLINE
  5
179
330
1F
100
AcDbEntity
  8
0
  6
Continuous
 62
     7
370
    25
100
AcDbSpline
210
0.0
220
0.0
230
1.0
 70
     8
 71
     3
 72
     9
 73
     5
 74
     0
 42
0.00000001
 43
0.00000001
 40
0.0
 40
0.0
 40
0.0
 40
0.0
 40
0.9840487795983311
 40
1.0
 40
1.0
 40
1.0
 40
1.0
 10
160.5313633236568
 20
64.17025242535671
 30
0.0
 10
160.5325743073192
 20
64.12542575528988
 30
0.0
 10
160.5338049207681
 20
64.07987245448184
 30
0.0
 10
160.5248285545017
 20
64.03560017444248
 30
0.0
 10
160.524685370505
 20
64.03489397754588
 30
0.0
  0
LINE
  5
17A
330
1F
100
AcDbEntity
  8
0
  6
Continuous
 62
     7
370
    25
100
AcDbLine
 10
172.3318959296
 20
64.1636952609
 30
0.0
 11
172.3318959296
 21
68.1304690078
 31
0.0
  0
LINE
  5
17B
330
1F
100
AcDbEntity
  8
0
  6
Continuous
 62
     7
370
    25
100
AcDbLine
 10
160.5318959296
 20
68.1304690078
 30
0.0
 11
160.5318959296
 21
64.1689976717
 31
0.0
  0
LWPOLYLINE
  5
17C
330
1F
100
AcDbEntity
  8
0
  6
Continuous
 62
     7
370
    25
100
AcDbPolyline
 90
        3
 70
   128
 43
0.0
 10
157.4061237512
 20
53.9429309965
 10
157.7069317015
 20
53.2787453011
 10
157.9318959296
 20
52.8542257141
  0
ARC
  5
17D
330
1F
100
AcDbEntity
  8
0
  6
Continuous
 62
     7
370
    25
100
AcDbCircle
 10
166.4318959296
 20
57.6304690078
 30
0.0
 40
9.750000000000025
100
AcDbArc
 50
330.6678898323
 51
52.7619320169
  0
ARC
  5
17E
330
1F
100
AcDbEntity
  8
0
  6
Continuous
 62
     7
370
    25
100
AcDbCircle
 10
166.4318959296
 20
57.6304690078
 30
0.0
 40
9.749999999999977
100
AcDbArc
 50
127.2380679831
 51
202.2227896966
  0
LINE
  5
17F
330
1F
100
AcDbEntity
  8
0
  6
Continuous
 62
     7
370
    25
100
AcDbLine
 10
167.6818959296
 20
84.7304690078
 30
0.0
 11
167.9318959296
 21
84.7304690078
 31
0.0
  0
LINE
  5
180
330
1F
100
AcDbEntity
  8
0
  6
Continuous
 62
     7
370
    25
100
AcDbLine
 10
167.6818959296
 20
84.7304690078
 30
0.0
 11
167.6818959296
 21
84.9804690078
 31
0.0
  0
ARC
  5
181
330
1F
100
AcDbEntity
  8
0
  6
Continuous
 62
     7
370
    25
100
AcDbCircle
 10
167.6818959296
 20
84.7304690078
 30
0.0
 40
0.25
100
AcDbArc
 50
0.0
 51
90.0
  0
LINE
  5
182
330
1F
100
AcDbEntity
  8
0
  6
Continuous
 62
     7
370
    25
100
AcDbLine
 10
167.6818959296
 20
84.1304690078
 30
0.0
 11
167.6818959296
 21
84.7304690078
 31
0.0
  0
LINE
  5
183
330
1F
100
AcDbEntity
  8
0
  6
Continuous
 62
     7
370
    25
100
AcDbLine
 10
167.9318959296
 20
84.7304690078
 30
0.0
 11
167.9318959296
 21
84.1304690078
 31
0.0
  0
LINE
  5
184
330
1F
100
AcDbEntity
  8
0
  6
Continuous
 62
     7
370
    25
100
AcDbLine
 10
167.9318959296
 20
84.1304690078
 30
0.0
 11
167.6818959296
 21
84.1304690078
 31
0.0
  0
LINE
  5
185
330
1F
100
AcDbEntity
  8
0
  6
Continuous
 62
     7
370
    25
100
AcDbLine
 10
165.1818959296
 20
84.7304690078
 30
0.0
 11
165.1818959296
 21
84.1304690078
 31
0.0
  0
LINE
  5
186
330
1F
100
AcDbEntity
  8
0
  6
Continuous
 62
     7
370
    25
100
AcDbLine
 10
167.6818959296
 20
84.7304690078
 30
0.0
 11
165.1818959296
 21
84.7304690078
 31
0.0
  0
LINE
  5
187
330
1F
100
AcDbEntity
  8
0
  6
Continuous
 62
     7
370
    25
100
AcDbLine
 10
165.1818959296
 20
84.1304690078
 30
0.0
 11
167.6818959296
 21
84.1304690078
 31
0.0
  0
LINE
  5
188
330
1F
100
AcDbEntity
  8
0
  6
Continuous
 62
     7
370
    25
100
AcDbLine
 10
165.1818959296
 20
84.9804690078
 30
0.0
 11
165.1818959296
 21
84.7304690078
 31
0.0
  0
LINE
  5
189
330
1F
100
AcDbEntity
  8
0
  6
Continuous
 62
     7
370
    25
100
AcDbLine
 10
165.1818959296
 20
84.9804690078
 30
0.0
 11
167.6818959296
 21
84.9804690078
 31
0.0
  0
LINE
  5
18A
330
1F
100
AcDbEntity
  8
0
  6
Continuous
 62
     7
370
    25
100
AcDbLine
 10
164.9318959296
 20
84.7304690078
 30
0.0
 11
165.1818959296
 21
84.7304690078
 31
0.0
  0
ARC
  5
18B
330
1F
100
AcDbEntity
  8
0
  6
Continuous
 62
     7
370
    25
100
AcDbCircle
 10
165.1818959296
 20
84.7304690078
 30
0.0
 40
0.25
100
AcDbArc
 50
90.0
 51
180.0
  0
LINE
  5
18C
330
1F
100
AcDbEntity
  8
0
  6
Continuous
 62
     7
370
    25
100
AcDbLine
 10
164.9318959296
 20
84.1304690078
 30
0.0
 11
164.9318959296
 21
84.7304690078
 31
0.0
  0
LINE
  5
18D
330
1F
100
AcDbEntity
  8
0
  6
Continuous
 62
     7
370
    25
100
AcDbLine
 10
165.1818959296
 20
84.1304690078
 30
0.0
 11
164.9318959296
 21
84.1304690078
 31
0.0
  0
SPLINE
  5
18E
330
1F
100
AcDbEntity
  8
0
  6
Continuous
 62
     7
370
    25
100
AcDbSpline
210
0.0
220
0.0
230
1.0
 70
     8
 71
     3
 72
    15
 73
    11
 74
     0
 42
0.00000001
 43
0.00000001
 40
0.0
 40
0.0
 40
0.0
 40
0.0
 40
0.0090459071881971
 40
0.1032433785236816
 40
0.1542564497735189
 40
0.31331690267151
 40
0.5243720399414428
 40
0.6678060008509183
 40
0.9918332554187028
 40
1.0
 40
1.0
 40
1.0
 40
1.0
 10
164.7579828860829
 20
84.73046900775319
 30
0.0
 10
164.7580005318074
 20
84.73215010633761
 30
0.0
 10
164.7582019272199
 20
84.75133693789313
 30
0.0
 10
164.7643915478861
 20
84.78003121741312
 30
0.0
 10
164.7885934797303
 20
84.83070725738503
 30
0.0
 10
164.8416124717319
 20
84.88858355696193
 30
0.0
 10
164.9229833589285
 20
84.93344907169663
 30
0.0
 10
165.037562430951
 20
84.97081145495116
 30
0.0
 10
165.1219876086701
 20
84.98035746722063
 30
0.0
 10
165.1804584666222
 20
84.9804663314074
 30
0.0
 10
165.1818959295612
 20
84.98046900775319
 30
0.0
  0
LINE
  5
18F
330
1F
100
AcDbEntity
  8
0
  6
Continuous
 62
     7
370
    25
100
AcDbLine
 10
164.7579828861
 20
84.7304690078
 30
0.0
 11
164.9318959296
 21
84.7304690078
 31
0.0
  0
LINE
  5
190
330
1F
100
AcDbEntity
  8
0
  6
Continuous
 62
     7
370
    25
100
AcDbLine
 10
167.9318959296
 20
84.7304690078
 30
0.0
 11
168.105808973
 21
84.7304690078
 31
0.0
  0
SPLINE
  5
191
330
1F
100
AcDbEntity
  8
0
  6
Continuous
 62
     7
370
    25
100
AcDbSpline
210
0.0
220
0.0
230
1.0
 70
     8
 71
     3
 72
    15
 73
    11
 74
     0
 42
0.00000001
 43
0.00000001
 40
0.0
 40
0.0
 40
0.0
 40
0.0
 40
0.0081667445812695
 40
0.3321939991490083
 40
0.4756279600585602
 40
0.6866830973284899
 40
0.8457435502264811
 40
0.8967566214763185
 40
0.9909540928118029
 40
1.0
 40
1.0
 40
1.0
 40
1.0
 10
167.6818959295612
 20
84.98046900775319
 30
0.0
 10
167.6833333925002
 20
84.9804663314074
 30
0.0
 10
167.7418042504519
 20
84.98035746722057
 30
0.0
 10
167.8262294281714
 20
84.97081145495117
 30
0.0
 10
167.9408085001938
 20
84.93344907169663
 30
0.0
 10
168.0221793873904
 20
84.88858355696195
 30
0.0
 10
168.0751983793921
 20
84.83070725738504
 30
0.0
 10
168.0994003112363
 20
84.78003121741312
 30
0.0
 10
168.1055899319024
 20
84.7513369378931
 30
0.0
 10
168.105791327315
 20
84.73215010633761
 30
0.0
 10
168.1058089730394
 20
84.73046900775319
 30
0.0
  0
LINE
  5
192
330
1F
100
AcDbEntity
  8
0
  6
Continuous
 62
     7
370
    25
100
AcDbLine
 10
168.105808973
 20
84.7304690078
 30
0.0
 11
168.105808973
 21
84.1304690078
 31
0.0
  0
LINE
  5
193
330
1F
100
AcDbEntity
  8
0
  6
Continuous
 62
     7
370
    25
100
AcDbLine
 10
168.105808973
 20
84.1304690078
 30
0.0
 11
167.9318959296
 21
84.1304690078
 31
0.0
  0
LINE
  5
194
330
1F
100
AcDbEntity
  8
0
  6
Continuous
 62
     7
370
    25
100
AcDbLine
 10
164.7579828861
 20
84.1304690078
 30
0.0
 11
164.7579828861
 21
84.7304690078
 31
0.0
  0
LINE
  5
195
330
1F
100
AcDbEntity
  8
0
  6
Continuous
 62
     7
370
    25
100
AcDbLine
 10
164.9318959296
 20
84.1304690078
 30
0.0
 11
164.7579828861
 21
84.1304690078
 31
0.0
  0
LINE
  5
196
330
1F
100
AcDbEntity
  8
0
  6
Continuous
 62
     7
370
    25
100
AcDbLine
 10
161.1818959296
 20
84.9804690078
 30
0.0
 11
165.1818959296
 21
84.9804690078
 31
0.0
  0
LINE
  5
197
330
1F
100
AcDbEntity
  8
0
  6
Continuous
 62
     7
370
    25
100
AcDbLine
 10
167.6818959296
 20
84.9804690078
 30
0.0
 11
171.6818959296
 21
84.9804690078
 31
0.0
  0
LINE
  5
198
330
1F
100
AcDbEntity
  8
0
  6
Continuous
 62
     7
370
    25
100
AcDbLine
 10
160.9318959296
 20
84.1304690078
 30
0.0
 11
164.7579828861
 21
84.1304690078
 31
0.0
  0
LINE
  5
199
330
1F
100
AcDbEntity
  8
0
  6
Continuous
 62
     7
370
    25
100
AcDbLine
 10
168.105808973
 20
84.1304690078
 30
0.0
 11
171.9318959296
 21
84.1304690078
 31
0.0
  0
LINE
  5
19A
330
1F
100
AcDbEntity
  8
0
  6
Continuous
 62
     7
370
    25
100
AcDbLine
 10
165.8318959296
 20
84.9904690078
 30
0.0
 11
167.0318959296
 21
84.9904690078
 31
0.0
  0
LINE
  5
19B
330
1F
100
AcDbEntity
  8
0
  6
Continuous
 62
     7
370
    25
100
AcDbLine
 10
167.0318959296
 20
84.9804690078
 30
0.0
 11
167.0318959296
 21
84.9904690078
 31
0.0
  0
LINE
  5
19C
330
1F
100
AcDbEntity
  8
0
  6
Continuous
 62
     7
370
    25
100
AcDbLine
 10
165.8318959296
 20
84.9804690078
 30
0.0
 11
165.8318959296
 21
84.9904690078
 31
0.0
  0
LINE
  5
19D
330
1F
100
AcDbEntity
  8
0
  6
Continuous
 62
     7
370
    25
100
AcDbLine
 10
158.9818959296
 20
76.1304690077
 30
0.0
 11
173.8818959296
 21
76.1304690077
 31
0.0
  0
LINE
  5
19E
330
1F
100
AcDbEntity
  8
0
  6
Continuous
 62
     7
370
    25
100
AcDbLine
 10
159.4318959296
 20
68.1304690078
 30
0.0
 11
173.4318959296
 21
68.1304690078
 31
0.0
  0
LINE
  5
19F
330
1F
100
AcDbEntity
  8
0
  6
Continuous
 62
     7
370
    25
100
AcDbLine
 10
162.9318959296
 20
86.1304690078
 30
0.0
 11
162.9318959296
 21
84.9804690078
 31
0.0
  0
LINE
  5
1A0
330
1F
100
AcDbEntity
  8
0
  6
Continuous
 62
     7
370
    25
100
AcDbLine
 10
162.9318959296
 20
86.1304690078
 30
0.0
 11
163.1601966655
 21
86.1304690078
 31
0.0
  0
LINE
  5
1A1
330
1F
100
AcDbEntity
  8
0
  6
Continuous
 62
     7
370
    25
100
AcDbLine
 10
163.1601966655
 20
86.1304690078
 30
0.0
 11
163.1601966655
 21
84.9804690078
 31
0.0
  0
LINE
  5
1A2
330
1F
100
AcDbEntity
  8
0
  6
Continuous
 62
     7
370
    25
100
AcDbLine
 10
169.7035951936
 20
86.1304690078
 30
0.0
 11
169.7035951936
 21
84.9804690078
 31
0.0
  0
LINE
  5
1A3
330
1F
100
AcDbEntity
  8
0
  6
Continuous
 62
     7
370
    25
100
AcDbLine
 10
169.7035951936
 20
86.1304690078
 30
0.0
 11
169.9318959296
 21
86.1304690078
 31
0.0
  0
LINE
  5
1A4
330
1F
100
AcDbEntity
  8
0
  6
Continuous
 62
     7
370
    25
100
AcDbLine
 10
169.9318959296
 20
84.9804690078
 30
0.0
 11
169.9318959296
 21
86.1304690078
 31
0.0
  0
LINE
  5
1A5
330
1F
100
AcDbEntity
  8
0
  6
Continuous
 62
     7
370
    25
100
AcDbLine
 10
163.1601966655
 20
86.1304690078
 30
0.0
 11
169.7035951936
 21
86.1304690078
 31
0.0
  0
SPLINE
  5
1A6
330
1F
100
AcDbEntity
  8
0
  6
Continuous
 62
     7
370
    25
100
AcDbSpline
210
0.0
220
0.0
230
1.0
 70
     8
 71
     3
 72
    10
 73
     6
 74
     0
 42
0.00000001
 43
0.00000001
 40
0.0
 40
0.0
 40
0.0
 40
0.0
 40
0.5
 40
0.5
 40
1.0
 40
1.0
 40
1.0
 40
1.0
 10
157.9318959295612
 20
53.01166685423618
 30
0.0
 10
157.9318959295612
 20
52.92577979243372
 30
0.0
 10
157.954688378891
 20
52.83837258345358
 30
0.0
 10
158.0426310829841
 20
52.68573614085985
 30
0.0
 10
158.1074888566579
 20
52.62161309591428
 30
0.0
 10
158.1818959295612
 20
52.57865415234397
 30
0.0
  0
SPLINE
  5
1A7
330
1F
100
AcDbEntity
  8
0
  6
Continuous
 62
     7
370
    25
100
AcDbSpline
210
0.0
220
0.0
230
1.0
 70
    24
 71
     3
 72
    14
 73
    10
 74
     0
 42
0.00000001
 43
0.00000001
 40
0.0
 40
0.0
 40
0.0
 40
0.0
 40
0.25
 40
0.25
 40
0.5
 40
0.5
 40
0.75
 40
0.75
 40
1.0
 40
1.0
 40
1.0
 40
1.0
 10
157.9318959295612
 20
53.01166685423614
 30
0.0
 10
157.9318959295612
 20
53.76604691488613
 30
0.0
 10
157.9318959295612
 20
54.53548808235162
 30
0.0
 10
157.9318959295612
 20
56.07599944329278
 30
0.0
 10
157.9318959295612
 20
56.8508538232998
 30
0.0
 10
157.9318959295612
 20
58.41121477818536
 30
0.0
 10
157.9318959295612
 20
59.20167097097038
 30
0.0
 10
157.9318959295612
 20
60.74395063377885
 30
0.0
 10
157.9318959295612
 20
61.50134138698004
 30
0.0
 10
157.9318959295612
 20
62.2492711612702
 30
0.0
  0
SPLINE
  5
1A8
330
1F
100
AcDbEntity
  8
0
  6
Continuous
 62
     7
370
    25
100
AcDbSpline
210
0.0
220
0.0
230
1.0
 70
     8
 71
     3
 72
    10
 73
     6
 74
     0
 42
0.00000001
 43
0.00000001
 40
0.0
 40
0.0
 40
0.0
 40
0.0
 40
0.5
 40
0.5
 40
1.0
 40
1.0
 40
1.0
 40
1.0
 10
158.1818959295612
 20
62.68228386316243
 30
0.0
 10
158.1075155521838
 20
62.63934033226119
 30
0.0
 10
158.0432149133981
 20
62.57589788763707
 30
0.0
 10
157.9549992286152
 20
62.4234190505181
 30
0.0
 10
157.9318959295612
 20
62.33518904841083
 30
0.0
 10
157.9318959295612
 20
62.2492711612702
 30
0.0
  0
SPLINE
  5
1A9
330
1F
100
AcDbEntity
  8
0
  6
Continuous
 62
     7
370
    25
100
AcDbSpline
210
0.0
220
0.0
230
1.0
 70
    24
 71
     3
 72
    16
 73
    12
 74
     0
 42
0.00000001
 43
0.00000001
 40
0.0
 40
0.0
 40
0.0
 40
0.0
 40
0.2500000000000001
 40
0.2500000000000001
 40
0.5000000000000001
 40
0.5000000000000001
 40
0.6250000000000001
 40
0.6250000000000001
 40
0.7500000000000002
 40
0.7500000000000002
 40
1.0
 40
1.0
 40
1.0
 40
1.0
 10
166.1818959295612
 20
67.30108601667943
 30
0.0
 10
165.5283791495204
 20
66.92377792780293
 30
0.0
 10
164.8701587404304
 20
66.54375419742873
 30
0.0
 10
163.5405961570646
 20
65.77613088201802
 30
0.0
 10
162.869172174994
 20
65.38848406522924
 30
0.0
 10
161.8501710879873
 20
64.80016351334139
 30
0.0
 10
161.5088303056712
 20
64.60309032078575
 30
0.0
 10
160.8332318027007
 20
64.21303334323164
 30
0.0
 10
160.4975726527361
 20
64.0192404426436
 30
0.0
 10
159.4963070162364
 20
63.44115945788018
 30
0.0
 10
158.8363993576332
 20
63.06016159354535
 30
0.0
 10
158.1818959295612
 20
62.68228386316243
 30
0.0
  0
SPLINE
  5
1AA
330
1F
100
AcDbEntity
  8
0
  6
Continuous
 62
     7
370
    25
100
AcDbSpline
210
0.0
220
0.0
230
1.0
 70
     8
 71
     3
 72
    10
 73
     6
 74
     0
 42
0.00000001
 43
0.00000001
 40
0.0
 40
0.0
 40
0.0
 40
0.0
 40
0.5
 40
0.5
 40
1.0
 40
1.0
 40
1.0
 40
1.0
 10
166.6818959295612
 20
67.30108601667943
 30
0.0
 10
166.6075155521838
 20
67.34402954758065
 30
0.0
 10
166.5204224640683
 20
67.36799431193664
 30
0.0
 10
166.3442640751923
 20
67.36815191741141
 30
0.0
 10
166.2563030024644
 20
67.34404496024973
 30
0.0
 10
166.1818959295612
 20
67.30108601667943
 30
0.0
  0
SPLINE
  5
1AB
330
1F
100
AcDbEntity
  8
0
  6
Continuous
 62
     7
370
    25
100
AcDbSpline
210
0.0
220
0.0
230
1.0
 70
    24
 71
     3
 72
    16
 73
    12
 74
     0
 42
0.00000001
 43
0.00000001
 40
0.0
 40
0.0
 40
0.0
 40
0.0
 40
0.2499999999999997
 40
0.2499999999999997
 40
0.4999999999999993
 40
0.4999999999999993
 40
0.6249999999999993
 40
0.6249999999999993
 40
0.7499999999999996
 40
0.7499999999999996
 40
1.0
 40
1.0
 40
1.0
 40
1.0
 10
174.6818959295612
 20
62.68228386316243
 30
0.0
 10
174.0283791495204
 20
63.05959195203891
 30
0.0
 10
173.3701587404304
 20
63.43961568241312
 30
0.0
 10
172.0405961570646
 20
64.20723899782381
 30
0.0
 10
171.369172174994
 20
64.59488581461262
 30
0.0
 10
170.3501710879873
 20
65.18320636650046
 30
0.0
 10
170.0088303056712
 20
65.3802795590561
 30
0.0
 10
169.3332318027007
 20
65.77033653661022
 30
0.0
 10
168.9975726527361
 20
65.96412943719825
 30
0.0
 10
167.9963070162364
 20
66.54221042196168
 30
0.0
 10
167.3363993576332
 20
66.9232082862965
 30
0.0
 10
166.6818959295612
 20
67.30108601667943
 30
0.0
  0
SPLINE
  5
1AC
330
1F
100
AcDbEntity
  8
0
  6
Continuous
 62
     7
370
    25
100
AcDbSpline
210
0.0
220
0.0
230
1.0
 70
     8
 71
     3
 72
    10
 73
     6
 74
     0
 42
0.00000001
 43
0.00000001
 40
0.0
 40
0.0
 40
0.0
 40
0.0
 40
0.5
 40
0.5
 40
1.0
 40
1.0
 40
1.0
 40
1.0
 10
174.9318959295612
 20
62.2492711612702
 30
0.0
 10
174.9318959295612
 20
62.33515822307266
 30
0.0
 10
174.9091034802314
 20
62.42256543205277
 30
0.0
 10
174.8211607761383
 20
62.57520187464652
 30
0.0
 10
174.7563030024644
 20
62.63932491959211
 30
0.0
 10
174.6818959295612
 20
62.68228386316243
 30
0.0
  0
SPLINE
  5
1AD
330
1F
100
AcDbEntity
  8
0
  6
Continuous
 62
     7
370
    25
100
AcDbSpline
210
0.0
220
0.0
230
1.0
 70
    24
 71
     3
 72
    14
 73
    10
 74
     0
 42
0.00000001
 43
0.00000001
 40
0.0
 40
0.0
 40
0.0
 40
0.0
 40
0.25
 40
0.25
 40
0.5
 40
0.5
 40
0.75
 40
0.75
 40
1.0
 40
1.0
 40
1.0
 40
1.0
 10
174.9318959295612
 20
53.01166685423613
 30
0.0
 10
174.9318959295612
 20
53.76604691488611
 30
0.0
 10
174.9318959295612
 20
54.53548808235161
 30
0.0
 10
174.9318959295612
 20
56.07599944329277
 30
0.0
 10
174.9318959295612
 20
56.85085382329979
 30
0.0
 10
174.9318959295612
 20
58.41121477818535
 30
0.0
 10
174.9318959295612
 20
59.20167097097038
 30
0.0
 10
174.9318959295612
 20
60.74395063377885
 30
0.0
 10
174.9318959295612
 20
61.50134138698004
 30
0.0
 10
174.9318959295612
 20
62.2492711612702
 30
0.0
  0
SPLINE
  5
1AE
330
1F
100
AcDbEntity
  8
0
  6
Continuous
 62
     7
370
    25
100
AcDbSpline
210
0.0
220
0.0
230
1.0
 70
     8
 71
     3
 72
    10
 73
     6
 74
     0
 42
0.00000001
 43
0.00000001
 40
0.0
 40
0.0
 40
0.0
 40
0.0
 40
0.5
 40
0.5
 40
1.0
 40
1.0
 40
1.0
 40
1.0
 10
174.6818959295612
 20
52.57865415234397
 30
0.0
 10
174.7562763069383
 20
52.62159768324509
 30
0.0
 10
174.8205769457238
 20
52.68504012786877
 30
0.0
 10
174.9087926305071
 20
52.83751896498789
 30
0.0
 10
174.9318959295612
 20
52.92574896709537
 30
0.0
 10
174.9318959295612
 20
53.01166685423616
 30
0.0
  0
SPLINE
  5
1AF
330
1F
100
AcDbEntity
  8
0
  6
Continuous
 62
     7
370
    25
100
AcDbSpline
210
0.0
220
0.0
230
1.0
 70
    24
 71
     3
 72
    16
 73
    12
 74
     0
 42
0.00000001
 43
0.00000001
 40
0.0
 40
0.0
 40
0.0
 40
0.0
 40
0.2500000000000002
 40
0.2500000000000002
 40
0.5000000000000004
 40
0.5000000000000004
 40
0.6250000000000003
 40
0.6250000000000003
 40
0.7500000000000002
 40
0.7500000000000002
 40
1.0
 40
1.0
 40
1.0
 40
1.0
 10
166.6818959295612
 20
47.95985199882696
 30
0.0
 10
167.3354127096019
 20
48.33716008770342
 30
0.0
 10
167.9936331186918
 20
48.7171838180776
 30
0.0
 10
169.3231957020575
 20
49.48480713348824
 30
0.0
 10
169.994619684128
 20
49.87245395027701
 30
0.0
 10
171.0136207711347
 20
50.4607745021648
 30
0.0
 10
171.3549615534508
 20
50.65784769472043
 30
0.0
 10
172.0305600564212
 20
51.04790467227451
 30
0.0
 10
172.3662192063858
 20
51.24169757286253
 30
0.0
 10
173.3674848428855
 20
51.81977855762592
 30
0.0
 10
174.0273925014886
 20
52.2007764219607
 30
0.0
 10
174.6818959295606
 20
52.57865415234361
 30
0.0
  0
SPLINE
  5
1B0
330
1F
100
AcDbEntity
  8
0
  6
Continuous
 62
     7
370
    25
100
AcDbSpline
210
0.0
220
0.0
230
1.0
 70
     8
 71
     3
 72
    10
 73
     6
 74
     0
 42
0.00000001
 43
0.00000001
 40
0.0
 40
0.0
 40
0.0
 40
0.0
 40
0.5
 40
0.5
 40
1.0
 40
1.0
 40
1.0
 40
1.0
 10
166.1818959295612
 20
47.95985199882696
 30
0.0
 10
166.2562763069385
 20
47.91690846792573
 30
0.0
 10
166.3433693950541
 20
47.89294370356974
 30
0.0
 10
166.5195277839301
 20
47.89278609809496
 30
0.0
 10
166.6074888566579
 20
47.91689305525665
 30
0.0
 10
166.6818959295612
 20
47.95985199882696
 30
0.0
  0
SPLINE
  5
1B1
330
1F
100
AcDbEntity
  8
0
  6
Continuous
 62
     7
370
    25
100
AcDbSpline
210
0.0
220
0.0
230
1.0
 70
    24
 71
     3
 72
    16
 73
    12
 74
     0
 42
0.00000001
 43
0.00000001
 40
0.0
 40
0.0
 40
0.0
 40
0.0
 40
0.2500000000000001
 40
0.2500000000000001
 40
0.5000000000000002
 40
0.5000000000000002
 40
0.6250000000000001
 40
0.6250000000000001
 40
0.7500000000000001
 40
0.7500000000000001
 40
1.0
 40
1.0
 40
1.0
 40
1.0
 10
158.1818959295612
 20
52.57865415234397
 30
0.0
 10
158.835412709602
 20
52.20134606346747
 30
0.0
 10
159.4936331186919
 20
51.82132233309326
 30
0.0
 10
160.8231957020577
 20
51.05369901768257
 30
0.0
 10
161.4946196841283
 20
50.66605220089378
 30
0.0
 10
162.513620771135
 20
50.07773164900593
 30
0.0
 10
162.8549615534512
 20
49.88065845645028
 30
0.0
 10
163.5305600564216
 20
49.49060147889617
 30
0.0
 10
163.8662192063863
 20
49.29680857830814
 30
0.0
 10
164.867484842886
 20
48.71872759354471
 30
0.0
 10
165.5273925014891
 20
48.33772972920989
 30
0.0
 10
166.1818959295612
 20
47.95985199882696
 30
0.0
  0
CIRCLE
  5
1B2
330
1F
100
AcDbEntity
  8
0
  6
Continuous
 62
     7
370
    25
100
AcDbCircle
 10
166.4318959296
 20
57.6304690078
 30
0.0
 40
8.250000000000028
  0
LINE
  5
1B3
330
1F
100
AcDbEntity
  8
0
  6
Continuous
 62
     7
370
    25
100
AcDbLine
 10
166.6818959296
 20
47.9598519988
 30
0.0
 11
166.6818959296
 21
46.308190413
 31
0.0
  0
SPLINE
  5
1B4
330
1F
100
AcDbEntity
  8
0
  6
Continuous
 62
     7
370
    25
100
AcDbSpline
210
0.0
220
0.0
230
1.0
 70
     8
 71
     3
 72
    10
 73
     6
 74
     0
 42
0.00000001
 43
0.00000001
 40
0.0
 40
0.0
 40
0.0
 40
0.0
 40
0.5
 40
0.5
 40
1.0
 40
1.0
 40
1.0
 40
1.0
 10
166.1818959295612
 20
46.30819041301339
 30
0.0
 10
166.2562706835512
 20
46.33186401750451
 30
0.0
 10
166.3433644151171
 20
46.34495679329773
 30
0.0
 10
166.5195302436616
 20
46.34504336139869
 30
0.0
 10
166.6074912675519
 20
46.3318735372754
 30
0.0
 10
166.6818959295612
 20
46.30819041301338
 30
0.0
  0
LINE
  5
1B5
330
1F
100
AcDbEntity
  8
0
  6
Continuous
 62
     7
370
    25
100
AcDbLine
 10
166.1818959296
 20
46.308190413
 30
0.0
 11
166.1818959296
 21
47.9598519988
 31
0.0
  0
SPLINE
  5
1B6
330
1F
100
AcDbEntity
  8
0
  6
Continuous
 62
     7
370
    25
100
AcDbSpline
210
0.0
220
0.0
230
1.0
 70
     8
 71
     3
 72
    12
 73
     8
 74
     0
 42
0.00000001
 43
0.00000001
 40
0.0
 40
0.0
 40
0.0
 40
0.0
 40
0.2500000000000003
 40
0.2500000000000003
 40
0.5000000000000002
 40
0.5000000000000002
 40
1.0
 40
1.0
 40
1.0
 40
1.0
 10
170.6818959295612
 20
45.63046900775319
 30
0.0
 10
170.3441399945384
 20
45.63046900775319
 30
0.0
 10
170.0037319796599
 20
45.64621533777515
 30
0.0
 10
169.3292372952595
 20
45.70766036236058
 30
0.0
 10
168.9941119763922
 20
45.7532491216143
 30
0.0
 10
167.9944006580521
 20
45.9297001238709
 30
0.0
 10
167.3354665549868
 20
46.10015782583439
 30
0.0
 10
166.6818959295611
 20
46.30819041301324
 30
0.0
  0
LINE
  5
1B7
330
1F
100
AcDbEntity
  8
0
  6
Continuous
 62
     7
370
    25
100
AcDbLine
 10
162.1818959296
 20
45.6304690078
 30
0.0
 11
170.6818959296
 21
45.6304690078
 31
0.0
  0
SPLINE
  5
1B8
330
1F
100
AcDbEntity
  8
0
  6
Continuous
 62
     7
370
    25
100
AcDbSpline
210
0.0
220
0.0
230
1.0
 70
     8
 71
     3
 72
    10
 73
     6
 74
     0
 42
0.00000001
 43
0.00000001
 40
0.0
 40
0.0
 40
0.0
 40
0.0
 40
0.5
 40
0.5
 40
1.0
 40
1.0
 40
1.0
 40
1.0
 10
166.1818959295612
 20
46.30819041301292
 30
0.0
 10
165.5258831629561
 20
46.09938048834665
 30
0.0
 10
164.8656162560984
 20
45.92884634859941
 30
0.0
 10
163.5332697374634
 20
45.69406054358048
 30
0.0
 10
162.8611167559761
 20
45.63046900775319
 30
0.0
 10
162.1818959295612
 20
45.63046900775319
 30
0.0
  0
SPLINE
  5
1B9
330
1F
100
AcDbEntity
  8
0
  6
Continuous
 62
     7
370
    25
100
AcDbSpline
210
0.0
220
0.0
230
1.0
 70
     8
 71
     3
 72
    12
 73
     8
 74
     0
 42
0.00000001
 43
0.00000001
 40
0.0
 40
0.0
 40
0.0
 40
0.0
 40
0.2499999999999999
 40
0.2499999999999999
 40
0.4999999999999998
 40
0.4999999999999998
 40
1.0
 40
1.0
 40
1.0
 40
1.0
 10
170.8063260223136
 20
50.34109282311833
 30
0.0
 10
171.1354610127067
 20
50.33738433726189
 30
0.0
 10
171.4649231656434
 20
50.31880183442422
 30
0.0
 10
172.1177967837011
 20
50.25393479745807
 30
0.0
 10
172.4422493755782
 20
50.2076692442078
 30
0.0
 10
173.4103098167703
 20
50.03194471390084
 30
0.0
 10
174.0486323010182
 20
49.86564130512409
 30
0.0
 10
174.6818959295612
 20
49.66407246789819
 30
0.0
  0
LINE
  5
1BA
330
1F
100
AcDbEntity
  8
0
  6
Continuous
 62
     7
370
    25
100
AcDbLine
 10
174.6818959296
 20
46.308190413
 30
0.0
 11
174.6818959296
 21
49.6640724679
 31
0.0
  0
SPLINE
  5
1BB
330
1F
100
AcDbEntity
  8
0
  6
Continuous
 62
     7
370
    25
100
AcDbSpline
210
0.0
220
0.0
230
1.0
 70
     8
 71
     3
 72
    10
 73
     6
 74
     0
 42
0.00000001
 43
0.00000001
 40
0.0
 40
0.0
 40
0.0
 40
0.0
 40
0.5
 40
0.5
 40
1.0
 40
1.0
 40
1.0
 40
1.0
 10
174.6818959295613
 20
46.30819041301292
 30
0.0
 10
174.0258831629561
 20
46.09938048834665
 30
0.0
 10
173.3656162560984
 20
45.92884634859941
 30
0.0
 10
172.0332697374634
 20
45.69406054358048
 30
0.0
 10
171.3611167559761
 20
45.63046900775319
 30
0.0
 10
170.6818959295612
 20
45.63046900775319
 30
0.0
  0
SPLINE
  5
1BC
330
1F
100
AcDbEntity
  8
0
  6
Continuous
 62
     7
370
    25
100
AcDbSpline
210
0.0
220
0.0
230
1.0
 70
     8
 71
     3
 72
    12
 73
     8
 74
     0
 42
0.00000001
 43
0.00000001
 40
0.0
 40
0.0
 40
0.0
 40
0.0
 40
0.2499999999999998
 40
0.2499999999999998
 40
0.4999999999999996
 40
0.4999999999999996
 40
1.0
 40
1.0
 40
1.0
 40
1.0
 10
162.1818959295612
 20
45.63046900775319
 30
0.0
 10
161.8441399945384
 20
45.63046900775318
 30
0.0
 10
161.5037319796599
 20
45.64621533777515
 30
0.0
 10
160.8292372952595
 20
45.70766036236058
 30
0.0
 10
160.4941119763922
 20
45.7532491216143
 30
0.0
 10
159.4944006580521
 20
45.9297001238709
 30
0.0
 10
158.8354665549868
 20
46.10015782583439
 30
0.0
 10
158.1818959295612
 20
46.30819041301324
 30
0.0
  0
LINE
  5
1BD
330
1F
100
AcDbEntity
  8
0
  6
Continuous
 62
     7
370
    25
100
AcDbLine
 10
158.1818959296
 20
49.6640724679
 30
0.0
 11
158.1818959296
 21
46.308190413
 31
0.0
  0
SPLINE
  5
1BE
330
1F
100
AcDbEntity
  8
0
  6
Continuous
 62
     7
370
    25
100
AcDbSpline
210
0.0
220
0.0
230
1.0
 70
     8
 71
     3
 72
    10
 73
     6
 74
     0
 42
0.00000001
 43
0.00000001
 40
0.0
 40
0.0
 40
0.0
 40
0.0
 40
0.5
 40
0.5
 40
1.0
 40
1.0
 40
1.0
 40
1.0
 10
158.1818959295616
 20
49.66407246789834
 30
0.0
 10
158.8167236353753
 20
49.86613915344926
 30
0.0
 10
159.4559893379511
 20
50.03253192571991
 30
0.0
 10
160.746804269541
 20
50.26657889958997
 30
0.0
 10
161.3984239050108
 20
50.33366715354879
 30
0.0
 10
162.0574658368309
 20
50.34109282311858
 30
0.0
  0
SPLINE
  5
1BF
330
1F
100
AcDbEntity
  8
0
  6
Continuous
 62
     7
370
    25
100
AcDbSpline
210
0.0
220
0.0
230
1.0
 70
     8
 71
     3
 72
    10
 73
     6
 74
     0
 42
0.00000001
 43
0.00000001
 40
0.0
 40
0.0
 40
0.0
 40
0.0
 40
0.5
 40
0.5
 40
1.0
 40
1.0
 40
1.0
 40
1.0
 10
157.9318959295612
 20
46.30819041301338
 30
0.0
 10
157.9318959295612
 20
46.33186431356933
 30
0.0
 10
157.9546865012086
 20
46.34495687074848
 30
0.0
 10
158.0426324985074
 20
46.34504328473076
 30
0.0
 10
158.1074932912402
 20
46.33187289313214
 30
0.0
 10
158.1818959295612
 20
46.30819041301338
 30
0.0
  0
LINE
  5
1C0
330
1F
100
AcDbEntity
  8
0
  6
Continuous
 62
     7
370
    25
100
AcDbLine
 10
157.9318959296
 20
45.6304690078
 30
0.0
 11
162.1818959296
 21
45.6304690078
 31
0.0
  0
SPLINE
  5
1C1
330
1F
100
AcDbEntity
  8
0
  6
Continuous
 62
     7
370
    25
100
AcDbSpline
210
0.0
220
0.0
230
1.0
 70
    24
 71
     3
 72
    10
 73
     6
 74
     0
 42
0.00000001
 43
0.00000001
 40
0.0
 40
0.0
 40
0.0
 40
0.0
 40
0.5
 40
0.5
 40
1.0
 40
1.0
 40
1.0
 40
1.0
 10
157.9318959295612
 20
45.63046900775319
 30
0.0
 10
157.9318959295612
 20
45.63046900775319
 30
0.0
 10
157.9318959295612
 20
45.69275336973171
 30
0.0
 10
157.9318959295612
 20
45.92760148773873
 30
0.0
 10
157.9318959295612
 20
46.10084409486993
 30
0.0
 10
157.9318959295612
 20
46.30819041301338
 30
0.0
  0
SPLINE
  5
1C2
330
1F
100
AcDbEntity
  8
0
  6
Continuous
 62
     7
370
    25
100
AcDbSpline
210
0.0
220
0.0
230
1.0
 70
     8
 71
     3
 72
    10
 73
     6
 74
     0
 42
0.00000001
 43
0.00000001
 40
0.0
 40
0.0
 40
0.0
 40
0.0
 40
0.5
 40
0.5
 40
1.0
 40
1.0
 40
1.0
 40
1.0
 10
174.6818959295612
 20
46.30819041301339
 30
0.0
 10
174.7562663964868
 20
46.33186265292495
 30
0.0
 10
174.8205719927746
 20
46.3449566428602
 30
0.0
 10
174.9087947805805
 20
46.34504351032164
 30
0.0
 10
174.9318959295612
 20
46.33187372056229
 30
0.0
 10
174.9318959295612
 20
46.30819041301338
 30
0.0
  0
LINE
  5
1C3
330
1F
100
AcDbEntity
  8
0
  6
Continuous
 62
     7
370
    25
100
AcDbLine
 10
170.6818959296
 20
45.6304690078
 30
0.0
 11
174.9318959296
 21
45.6304690078
 31
0.0
  0
SPLINE
  5
1C4
330
1F
100
AcDbEntity
  8
0
  6
Continuous
 62
     7
370
    25
100
AcDbSpline
210
0.0
220
0.0
230
1.0
 70
    24
 71
     3
 72
    10
 73
     6
 74
     0
 42
0.00000001
 43
0.00000001
 40
0.0
 40
0.0
 40
0.0
 40
0.0
 40
0.4999999999999999
 40
0.4999999999999999
 40
1.0
 40
1.0
 40
1.0
 40
1.0
 10
174.9318959295612
 20
45.63046900775319
 30
0.0
 10
174.9318959295612
 20
45.63046900775319
 30
0.0
 10
174.9318959295612
 20
45.69275336973171
 30
0.0
 10
174.9318959295612
 20
45.92760148773873
 30
0.0
 10
174.9318959295612
 20
46.10084409486994
 30
0.0
 10
174.9318959295612
 20
46.30819041301339
 30
0.0
  0
SPLINE
  5
1C5
330
1F
100
AcDbEntity
  8
0
  6
Continuous
 62
     7
370
    25
100
AcDbSpline
210
0.0
220
0.0
230
1.0
 70
     8
 71
     3
 72
     8
 73
     4
 74
     0
 42
0.00000001
 43
0.00000001
 40
0.0
 40
0.0
 40
0.0
 40
0.0
 40
1.0
 40
1.0
 40
1.0
 40
1.0
 10
157.9318959295612
 20
49.8255577961792
 30
0.0
 10
158.453702080863
 20
50.09814793184856
 30
0.0
 10
158.9773555497192
 20
50.36730043296996
 30
0.0
 10
159.5036926992857
 20
50.63046900775319
 30
0.0
  0
SPLINE
  5
1C6
330
1F
100
AcDbEntity
  8
0
  6
Continuous
 62
     7
370
    25
100
AcDbSpline
210
0.0
220
0.0
230
1.0
 70
     8
 71
     3
 72
    10
 73
     6
 74
     0
 42
0.00000001
 43
0.00000001
 40
0.0
 40
0.0
 40
0.0
 40
0.0
 40
0.5
 40
0.5
 40
1.0
 40
1.0
 40
1.0
 40
1.0
 10
157.9318959295612
 20
49.66407246789817
 30
0.0
 10
157.9318959295612
 20
49.64039707347376
 30
0.0
 10
157.954688378891
 20
49.62730596358913
 30
0.0
 10
158.0426310829843
 20
49.62721964230091
 30
0.0
 10
158.1074888566584
 20
49.64038857624485
 30
0.0
 10
158.1818959295618
 20
49.66407246789841
 30
0.0
  0
SPLINE
  5
1C7
330
1F
100
AcDbEntity
  8
0
  6
Continuous
 62
     7
370
    25
100
AcDbSpline
210
0.0
220
0.0
230
1.0
 70
    24
 71
     3
 72
     8
 73
     4
 74
     0
 42
0.00000001
 43
0.00000001
 40
0.0
 40
0.0
 40
0.0
 40
0.0
 40
1.0
 40
1.0
 40
1.0
 40
1.0
 10
157.9318959295612
 20
49.8255577961792
 30
0.0
 10
157.9318959295612
 20
49.77466300647838
 30
0.0
 10
157.9318959295612
 20
49.72072915711694
 30
0.0
 10
157.9318959295612
 20
49.66407246789819
 30
0.0
  0
SPLINE
  5
1C8
330
1F
100
AcDbEntity
  8
0
  6
Continuous
 62
     7
370
    25
100
AcDbSpline
210
0.0
220
0.0
230
1.0
 70
     8
 71
     3
 72
     8
 73
     4
 74
     0
 42
0.00000001
 43
0.00000001
 40
0.0
 40
0.0
 40
0.0
 40
0.0
 40
1.0
 40
1.0
 40
1.0
 40
1.0
 10
173.3600991598367
 20
50.63046900775318
 30
0.0
 10
173.8865200210459
 20
50.36725857714858
 30
0.0
 10
174.4100644777596
 20
50.09816114876188
 30
0.0
 10
174.9318959295612
 20
49.82555779617923
 30
0.0
  0
SPLINE
  5
1C9
330
1F
100
AcDbEntity
  8
0
  6
Continuous
 62
     7
370
    25
100
AcDbSpline
210
0.0
220
0.0
230
1.0
 70
     8
 71
     3
 72
    10
 73
     6
 74
     0
 42
0.00000001
 43
0.00000001
 40
0.0
 40
0.0
 40
0.0
 40
0.0
 40
0.5
 40
0.5
 40
1.0
 40
1.0
 40
1.0
 40
1.0
 10
174.6818959295612
 20
49.66407246789819
 30
0.0
 10
174.7562763069385
 20
49.6403970734738
 30
0.0
 10
174.8205769457243
 20
49.62730596358917
 30
0.0
 10
174.9087926305072
 20
49.62721964230088
 30
0.0
 10
174.9318959295612
 20
49.64038857624472
 30
0.0
 10
174.9318959295612
 20
49.66407246789818
 30
0.0
  0
SPLINE
  5
1CA
330
1F
100
AcDbEntity
  8
0
  6
Continuous
 62
     7
370
    25
100
AcDbSpline
210
0.0
220
0.0
230
1.0
 70
    24
 71
     3
 72
     8
 73
     4
 74
     0
 42
0.00000001
 43
0.00000001
 40
0.0
 40
0.0
 40
0.0
 40
0.0
 40
1.0
 40
1.0
 40
1.0
 40
1.0
 10
174.9318959295612
 20
49.8255577961792
 30
0.0
 10
174.9318959295612
 20
49.77466300647838
 30
0.0
 10
174.9318959295612
 20
49.72072915711694
 30
0.0
 10
174.9318959295612
 20
49.66407246789819
 30
0.0
  0
LINE
  5
1CB
330
1F
100
AcDbEntity
  8
0
  6
Continuous
 62
     7
370
    25
100
AcDbLine
 10
158.9318959296
 20
50.6304690078
 30
0.0
 11
161.5562515825
 21
50.6304690078
 31
0.0
  0
LINE
  5
1CC
330
1F
100
AcDbEntity
  8
0
  6
Continuous
 62
     7
370
    25
100
AcDbLine
 10
158.9318959296
 20
50.6304690078
 30
0.0
 11
158.9318959296
 21
52.1456414505
 31
0.0
  0
LINE
  5
1CD
330
1F
100
AcDbEntity
  8
0
  6
Continuous
 62
     7
370
    25
100
AcDbLine
 10
173.9318959296
 20
52.1456414505
 30
0.0
 11
173.9318959296
 21
50.6304690078
 31
0.0
  0
LINE
  5
1CE
330
1F
100
AcDbEntity
  8
0
  6
Continuous
 62
     7
370
    25
100
AcDbLine
 10
171.3075402766
 20
50.6304690078
 30
0.0
 11
173.9318959296
 21
50.6304690078
 31
0.0
  0
LINE
  5
1CF
330
1F
100
AcDbEntity
  8
0
  6
Continuous
 62
     7
370
    25
100
AcDbLine
 10
166.4318959296
 20
36.2341348816
 30
0.0
 11
172.8964479881
 21
36.2341348816
 31
0.0
  0
LINE
  5
1D0
330
1F
100
AcDbEntity
  8
0
  6
Continuous
 62
     7
370
    25
100
AcDbLine
 10
159.967343871
 20
36.2341348816
 30
0.0
 11
166.4318959296
 21
36.2341348816
 31
0.0
  0
LINE
  5
1D1
330
1F
100
AcDbEntity
  8
0
  6
Continuous
 62
     7
370
    25
100
AcDbLine
 10
171.6818959296
 20
34.1304690078
 30
0.0
 11
161.1818959296
 21
34.1304690078
 31
0.0
  0
LINE
  5
1D2
330
1F
100
AcDbEntity
  8
0
  6
Continuous
 62
     7
370
    25
100
AcDbLine
 10
157.9318959296
 20
46.308190413
 30
0.0
 11
157.9318959296
 21
49.6640724679
 31
0.0
  0
LINE
  5
1D3
330
1F
100
AcDbEntity
  8
0
  6
Continuous
 62
     7
370
    25
100
AcDbLine
 10
174.9318959296
 20
49.6640724679
 30
0.0
 11
174.9318959296
 21
46.308190413
 31
0.0
  0
LINE
  5
1D4
330
1F
100
AcDbEntity
  8
0
  6
Continuous
 62
     7
370
    25
100
AcDbLine
 10
157.9318959296
 20
49.8255577962
 30
0.0
 11
157.9318959296
 21
52.984820544
 31
0.0
  0
LINE
  5
1D5
330
1F
100
AcDbEntity
  8
0
  6
Continuous
 62
     7
370
    25
100
AcDbLine
 10
174.9318959296
 20
49.8255577962
 30
0.0
 11
174.9318959296
 21
52.984820544
 31
0.0
  0
LINE
  5
1D6
330
1F
100
AcDbEntity
  8
0
  6
Continuous
 62
     7
370
    25
100
AcDbLine
 10
164.7579828861
 20
84.7304690078
 30
0.0
 11
160.9318959296
 21
84.7304690078
 31
0.0
  0
LINE
  5
1D7
330
1F
100
AcDbEntity
  8
0
  6
Continuous
 62
     7
370
    25
100
AcDbLine
 10
171.9318959296
 20
84.7304690078
 30
0.0
 11
168.105808973
 21
84.7304690078
 31
0.0
  0
SPLINE
  5
1D8
330
1F
100
AcDbEntity
  8
0
  6
Continuous
 62
     7
370
    25
100
AcDbSpline
210
0.0
220
0.0
230
1.0
 70
     8
 71
     3
 72
    19
 73
    15
 74
     0
 42
0.00000001
 43
0.00000001
 40
0.0
 40
0.0
 40
0.0
 40
0.0
 40
0.0167726369500615
 40
0.0954895390662051
 40
0.174311084446967
 40
0.2799304399015518
 40
0.3857454294580737
 40
0.4988286504308861
 40
0.611893356547862
 40
0.7070730140699085
 40
0.802178470370201
 40
0.8927556108273427
 40
0.9832581057860154
 40
1.0
 40
1.0
 40
1.0
 40
1.0
 10
160.5395415474585
 20
64.16987528537786
 30
0.0
 10
160.5370160148123
 20
64.16674061872469
 30
0.0
 10
160.5226377182456
 20
64.14889441632194
 30
0.0
 10
160.5860830617643
 20
64.22795742065634
 30
0.0
 10
160.7411885210561
 20
64.41244173975521
 30
0.0
 10
161.0294862193859
 20
64.73242088809772
 30
0.0
 10
161.4619200897224
 20
65.15686909514814
 30
0.0
 10
162.0163528588992
 20
65.61953369145716
 30
0.0
 10
162.6592484097322
 20
66.0600136818303
 30
0.0
 10
163.358685335593
 20
66.4380746165029
 30
0.0
 10
164.0806856554118
 20
66.74129814619513
 30
0.0
 10
164.8584050447253
 20
66.95969726442561
 30
0.0
 10
165.4464535174755
 20
67.08109702419378
 30
0.0
 10
165.7760436959896
 20
67.0943968515429
 30
0.0
 10
165.8274959346123
 20
67.0964730841949
 30
0.0
  0
SPLINE
  5
1D9
330
1F
100
AcDbEntity
  8
0
  6
Continuous
 62
     7
370
    25
100
AcDbSpline
210
0.0
220
0.0
230
1.0
 70
     8
 71
     3
 72
    19
 73
    15
 74
     0
 42
0.00000001
 43
0.00000001
 40
0.0
 40
0.0
 40
0.0
 40
0.0
 40
0.0313541899069433
 40
0.0973968723470126
 40
0.1974104965896382
 40
0.2975363862868677
 40
0.4181240862978319
 40
0.5388082291203921
 40
0.6564393875206866
 40
0.773904151426702
 40
0.85043878952959
 40
0.9268727180625499
 40
0.9967396774207604
 40
1.0
 40
1.0
 40
1.0
 40
1.0
 10
167.0440931395023
 20
67.09197136002022
 30
0.0
 10
167.1399650611247
 20
67.0867513204879
 30
0.0
 10
167.4377761460114
 20
67.07053608655951
 30
0.0
 10
168.0206615479669
 20
66.95616362167986
 30
0.0
 10
168.7699058864383
 20
66.7468911161669
 30
0.0
 10
169.5903706120691
 20
66.40256922383578
 30
0.0
 10
170.3575172987565
 20
65.96697018204328
 30
0.0
 10
171.0388078915728
 20
65.47157128967834
 30
0.0
 10
171.5895179937619
 20
64.98117524771305
 30
0.0
 10
171.9582555272089
 20
64.59821925080021
 30
0.0
 10
172.1862809148478
 20
64.33746728033412
 30
0.0
 10
172.2973866916632
 20
64.2030106109269
 30
0.0
 10
172.3413629773786
 20
64.14911266355614
 30
0.0
 10
172.3304380276743
 20
64.16244603869373
 30
0.0
 10
172.32995094735
 20
64.16304049677923
 30
0.0
  0
INSERT
  5
1E5
330
1F
100
AcDbEntity
  8
FORMAT
100
AcDbBlockReference
  2
SW_CENTERMARKSYMBOL_0
 10
166.4318959296
 20
57.6304690078
 30
0.0
  0
ARC
  5
1E6
330
1F
100
AcDbEntity
  8
FORMAT
100
AcDbCircle
 10
166.4318959296
 20
57.6304690078
 30
0.0
 40
7.000000000000014
100
AcDbArc
 50
75.0
 51
345.0
  0
LINE
  5
1E7
330
1F
100
AcDbEntity
  8
FORMAT
100
AcDbLine
 10
160.6823576257
 20
34.9956947303
 30
0.0
 11
160.3656459296
 21
45.1304690078
 31
0.0
  0
LINE
  5
1E8
330
1F
100
AcDbEntity
  8
FORMAT
100
AcDbLine
 10
172.1814342334
 20
34.9956947303
 30
0.0
 11
172.4981459296
 21
45.1304690078
 31
0.0
  0
LINE
  5
1E9
330
1F
100
AcDbEntity
  8
FORMAT
100
AcDbLine
 10
173.1744584296
 20
45.1304690078
 30
0.0
 11
159.6893334296
 21
45.1304690078
 31
0.0
  0
ARC
  5
1EA
330
1F
100
AcDbEntity
  8
0
  6
Continuous
 62
     7
370
    25
100
AcDbCircle
 10
84.5141769424
 20
129.4038255732
 30
0.0
 40
0.2999999999999972
100
AcDbArc
 50
90.0
 51
180.0
  0
ARC
  5
1EB
330
1F
100
AcDbEntity
  8
0
  6
Continuous
 62
     7
370
    25
100
AcDbCircle
 10
84.5141769424
 20
113.5038255732
 30
0.0
 40
0.3000000000000114
100
AcDbArc
 50
180.0
 51
270.0
  0
LINE
  5
1EC
330
1F
100
AcDbEntity
  8
0
  6
Continuous
 62
     7
370
    25
100
AcDbLine
 10
85.4641769424
 20
129.7038255732
 30
0.0
 11
84.5141769424
 21
129.7038255732
 31
0.0
  0
LINE
  5
1ED
330
1F
100
AcDbEntity
  8
0
  6
Continuous
 62
     7
370
    25
100
AcDbLine
 10
84.5141769424
 20
113.2038255732
 30
0.0
 11
85.4641769424
 21
113.2038255732
 31
0.0
  0
LINE
  5
1EE
330
1F
100
AcDbEntity
  8
0
  6
Continuous
 62
     7
370
    25
100
AcDbLine
 10
87.2141769424
 20
129.2038255732
 30
0.0
 11
86.4141769424
 21
129.2038255732
 31
0.0
  0
LINE
  5
1EF
330
1F
100
AcDbEntity
  8
0
  6
Continuous
 62
     7
370
    25
100
AcDbLine
 10
86.4141769424
 20
113.7038255732
 30
0.0
 11
87.2141769424
 21
113.7038255732
 31
0.0
  0
ARC
  5
1F0
330
1F
100
AcDbEntity
  8
0
  6
Continuous
 62
     7
370
    25
100
AcDbCircle
 10
86.4141769424
 20
129.0038255732
 30
0.0
 40
0.2000000000000028
100
AcDbArc
 50
90.0
 51
180.0
  0
ARC
  5
1F1
330
1F
100
AcDbEntity
  8
0
  6
Continuous
 62
     7
370
    25
100
AcDbCircle
 10
86.4141769424
 20
113.9038255732
 30
0.0
 40
0.2000000000000028
100
AcDbArc
 50
180.0
 51
270.0
  0
LINE
  5
1F2
330
1F
100
AcDbEntity
  8
0
  6
Continuous
 62
     7
370
    25
100
AcDbLine
 10
86.2141769424
 20
127.8288255732
 30
0.0
 11
85.4641769424
 21
127.8288255732
 31
0.0
  0
LINE
  5
1F3
330
1F
100
AcDbEntity
  8
0
  6
Continuous
 62
     7
370
    25
100
AcDbLine
 10
85.4641769424
 20
115.0788255732
 30
0.0
 11
86.2141769424
 21
115.0788255732
 31
0.0
  0
LINE
  5
1F4
330
1F
100
AcDbEntity
  8
0
  6
Continuous
 62
     7
370
    25
100
AcDbLine
 10
106.4924891059
 20
131.2038255732
 30
0.0
 11
87.4141769424
 21
131.2038255732
 31
0.0
  0
LINE
  5
1F5
330
1F
100
AcDbEntity
  8
0
  6
Continuous
 62
     7
370
    25
100
AcDbLine
 10
87.4141769424
 20
111.7038255732
 30
0.0
 11
106.4924891059
 21
111.7038255732
 31
0.0
  0
LINE
  5
1F6
330
1F
100
AcDbEntity
  8
0
  6
Continuous
 62
     7
370
    25
100
AcDbLine
 10
106.4924891059
 20
111.7038255732
 30
0.0
 11
107.2141769424
 21
112.9538255732
 31
0.0
  0
LINE
  5
1F7
330
1F
100
AcDbEntity
  8
0
  6
Continuous
 62
     7
370
    25
100
AcDbLine
 10
107.2141769424
 20
129.9538255732
 30
0.0
 11
106.4924891059
 21
131.2038255732
 31
0.0
  0
LINE
  5
1F8
330
1F
100
AcDbEntity
  8
0
  6
Continuous
 62
     7
370
    25
100
AcDbLine
 10
87.4141769424
 20
131.2038255732
 30
0.0
 11
87.2141769424
 21
131.0038255732
 31
0.0
  0
LINE
  5
1F9
330
1F
100
AcDbEntity
  8
0
  6
Continuous
 62
     7
370
    25
100
AcDbLine
 10
87.2141769424
 20
111.9038255732
 30
0.0
 11
87.4141769424
 21
111.7038255732
 31
0.0
  0
LINE
  5
1FA
330
1F
100
AcDbEntity
  8
0
  6
Continuous
 62
     7
370
    25
100
AcDbLine
 10
130.5698393751
 20
112.9538255732
 30
0.0
 11
130.7141769424
 21
113.2038255732
 31
0.0
  0
LINE
  5
1FB
330
1F
100
AcDbEntity
  8
0
  6
Continuous
 62
     7
370
    25
100
AcDbLine
 10
130.7141769424
 20
129.7038255732
 30
0.0
 11
130.5698393751
 21
129.9538255732
 31
0.0
  0
LINE
  5
1FC
330
1F
100
AcDbEntity
  8
0
  6
Continuous
 62
     7
370
    25
100
AcDbLine
 10
84.2141769424
 20
113.5038255732
 30
0.0
 11
84.2141769424
 21
117.9538255732
 31
0.0
  0
LINE
  5
1FD
330
1F
100
AcDbEntity
  8
0
  6
Continuous
 62
     7
370
    25
100
AcDbLine
 10
84.2141769424
 20
124.9538255732
 30
0.0
 11
84.2141769424
 21
129.4038255732
 31
0.0
  0
LINE
  5
1FE
330
1F
100
AcDbEntity
  8
0
  6
Continuous
 62
     7
370
    25
100
AcDbLine
 10
85.4641769424
 20
129.7038255732
 30
0.0
 11
85.4641769424
 21
124.9538255732
 31
0.0
  0
LINE
  5
1FF
330
1F
100
AcDbEntity
  8
0
  6
Continuous
 62
     7
370
    25
100
AcDbLine
 10
85.4641769424
 20
117.9538255732
 30
0.0
 11
85.4641769424
 21
113.2038255732
 31
0.0
  0
LINE
  5
200
330
1F
100
AcDbEntity
  8
0
  6
Continuous
 62
     7
370
    25
100
AcDbLine
 10
86.2141769424
 20
113.9038255732
 30
0.0
 11
86.2141769424
 21
117.9538255732
 31
0.0
  0
LINE
  5
201
330
1F
100
AcDbEntity
  8
0
  6
Continuous
 62
     7
370
    25
100
AcDbLine
 10
86.2141769424
 20
124.9538255732
 30
0.0
 11
86.2141769424
 21
129.0038255732
 31
0.0
  0
LINE
  5
202
330
1F
100
AcDbEntity
  8
0
  6
Continuous
 62
     7
370
    25
100
AcDbLine
 10
106.4924891059
 20
131.2038255732
 30
0.0
 11
106.4924891059
 21
125.720478468
 31
0.0
  0
LINE
  5
203
330
1F
100
AcDbEntity
  8
0
  6
Continuous
 62
     7
370
    25
100
AcDbLine
 10
106.4924891059
 20
117.1871726785
 30
0.0
 11
106.4924891059
 21
111.7038255732
 31
0.0
  0
LINE
  5
204
330
1F
100
AcDbEntity
  8
0
  6
Continuous
 62
     7
370
    25
100
AcDbLine
 10
87.4141769424
 20
131.2038255732
 30
0.0
 11
87.4141769424
 21
124.9538255732
 31
0.0
  0
LINE
  5
205
330
1F
100
AcDbEntity
  8
0
  6
Continuous
 62
     7
370
    25
100
AcDbLine
 10
87.4141769424
 20
117.9538255732
 30
0.0
 11
87.4141769424
 21
111.7038255732
 31
0.0
  0
LINE
  5
206
330
1F
100
AcDbEntity
  8
0
  6
Continuous
 62
     7
370
    25
100
AcDbLine
 10
107.2141769424
 20
129.3224474723
 30
0.0
 11
107.2141769424
 21
125.8364718551
 31
0.0
  0
LINE
  5
207
330
1F
100
AcDbEntity
  8
0
  6
Continuous
 62
     7
370
    25
100
AcDbLine
 10
107.2141769424
 20
117.0711792914
 30
0.0
 11
107.2141769424
 21
112.9538255732
 31
0.0
  0
LINE
  5
208
330
1F
100
AcDbEntity
  8
0
  6
Continuous
 62
     7
370
    25
100
AcDbLine
 10
107.2141769424
 20
129.9538255732
 30
0.0
 11
107.2141769424
 21
129.3224474723
 31
0.0
  0
LINE
  5
209
330
1F
100
AcDbEntity
  8
0
  6
Continuous
 62
     7
370
    25
100
AcDbLine
 10
87.2141769424
 20
111.9038255732
 30
0.0
 11
87.2141769424
 21
117.9538255732
 31
0.0
  0
LINE
  5
20A
330
1F
100
AcDbEntity
  8
0
  6
Continuous
 62
     7
370
    25
100
AcDbLine
 10
87.2141769424
 20
124.9538255732
 30
0.0
 11
87.2141769424
 21
131.0038255732
 31
0.0
  0
SPLINE
  5
20B
330
1F
100
AcDbEntity
  8
0
  6
Continuous
 62
     7
370
    25
100
AcDbSpline
210
0.0
220
0.0
230
1.0
 70
     8
 71
     3
 72
    15
 73
    11
 74
     0
 42
0.00000001
 43
0.00000001
 40
0.0
 40
0.0
 40
0.0
 40
0.0
 40
0.0081667445812695
 40
0.3321939991490083
 40
0.4756279600585602
 40
0.6866830973284899
 40
0.8457435502264811
 40
0.8967566214763185
 40
0.9909540928118029
 40
1.0
 40
1.0
 40
1.0
 40
1.0
 10
123.8131964560211
 20
122.7038255732431
 30
0.0
 10
123.8136839901639
 20
122.7052630361821
 30
0.0
 10
123.833515137696
 20
122.7637338941338
 30
0.0
 10
123.8617959177053
 20
122.8481590718533
 30
0.0
 10
123.8996252161941
 20
122.9627381438758
 30
0.0
 10
123.9262091127616
 20
123.0441090310724
 30
0.0
 10
123.9433789365166
 20
123.097128023074
 30
0.0
 10
123.951195932733
 20
123.1213299549182
 30
0.0
 10
123.9531916191689
 20
123.1275195755844
 30
0.0
 10
123.9532565831197
 20
123.1277209709969
 30
0.0
 10
123.9532622750864
 20
123.1277386167214
 30
0.0
  0
ARC
  5
20C
330
1F
100
AcDbEntity
  8
0
  6
Continuous
 62
     7
370
    25
100
AcDbCircle
 10
118.7141769424
 20
121.4538255732
 30
0.0
 40
5.250000000000009
100
AcDbArc
 50
13.774146998
 51
166.225853002
  0
SPLINE
  5
20D
330
1F
100
AcDbEntity
  8
0
  6
Continuous
 62
     7
370
    25
100
AcDbSpline
210
0.0
220
0.0
230
1.0
 70
     8
 71
     3
 72
    15
 73
    11
 74
     0
 42
0.00000001
 43
0.00000001
 40
0.0
 40
0.0
 40
0.0
 40
0.0
 40
0.0090459071881971
 40
0.1032433785236874
 40
0.1542564497735246
 40
0.313316902671511
 40
0.5243720399414428
 40
0.6678060008509903
 40
0.9918332554187292
 40
1.0
 40
1.0
 40
1.0
 40
1.0
 10
113.4750916097701
 20
123.1277386167214
 30
0.0
 10
113.4750973017368
 20
123.1277209709969
 30
0.0
 10
113.4751622656876
 20
123.1275195755844
 30
0.0
 10
113.4771579521235
 20
123.1213299549182
 30
0.0
 10
113.48497494834
 20
123.097128023074
 30
0.0
 10
113.5021447720949
 20
123.0441090310724
 30
0.0
 10
113.5287286686624
 20
122.9627381438758
 30
0.0
 10
113.5665579671513
 20
122.8481590718533
 30
0.0
 10
113.5948387471605
 20
122.7637338941338
 30
0.0
 10
113.6146698946926
 20
122.7052630361821
 30
0.0
 10
113.6151574288355
 20
122.7038255732431
 30
0.0
  0
ARC
  5
20E
330
1F
100
AcDbEntity
  8
0
  6
Continuous
 62
     7
370
    25
100
AcDbCircle
 10
118.7141769424
 20
121.4538255732
 30
0.0
 40
5.500000000000007
100
AcDbArc
 50
17.7189318734
 51
162.2810681266
  0
ARC
  5
20F
330
1F
100
AcDbEntity
  8
0
  6
Continuous
 62
     7
370
    25
100
AcDbCircle
 10
113.2369513674
 20
123.2038255732
 30
0.0
 40
0.25
100
AcDbArc
 50
270.0
 51
342.2810681266
  0
SPLINE
  5
210
330
1F
100
AcDbEntity
  8
0
  6
Continuous
 62
     7
370
    25
100
AcDbSpline
210
0.0
220
0.0
230
1.0
 70
     8
 71
     3
 72
    15
 73
    11
 74
     0
 42
0.00000001
 43
0.00000001
 40
0.0
 40
0.0
 40
0.0
 40
0.0
 40
0.0080847466189818
 40
0.3310106400647567
 40
0.4750333064304972
 40
0.6874363079215137
 40
0.8468367539418253
 40
0.9000996640391794
 40
0.9910442771984082
 40
1.0
 40
1.0
 40
1.0
 40
1.0
 10
113.6151574288355
 20
122.7038255732431
 30
0.0
 10
113.6138775972913
 20
122.7046415092314
 30
0.0
 10
113.5614779515676
 20
122.738048059425
 30
0.0
 10
113.4861228601131
 20
122.7868616241599
 30
0.0
 10
113.3842037480953
 20
122.854232096428
 30
0.0
 10
113.3118128031034
 20
122.9028161367715
 30
0.0
 10
113.2641073748386
 20
122.9352649982301
 30
0.0
 10
113.2425718911313
 20
122.9499760392963
 30
0.0
 10
113.2371428751118
 20
122.9536944902145
 30
0.0
 10
113.2369671229552
 20
122.95381478888
 30
0.0
 10
113.2369513673766
 20
122.9538255732431
 30
0.0
  0
SPLINE
  5
211
330
1F
100
AcDbEntity
  8
0
  6
Continuous
 62
     7
370
    25
100
AcDbSpline
210
0.0
220
0.0
230
1.0
 70
     8
 71
     3
 72
    15
 73
    11
 74
     0
 42
0.00000001
 43
0.00000001
 40
0.0
 40
0.0
 40
0.0
 40
0.0
 40
0.0089557228015919
 40
0.0999003359608209
 40
0.1531632460581751
 40
0.3125636920784904
 40
0.5249666935695061
 40
0.6689893599351777
 40
0.991915253381045
 40
1.0
 40
1.0
 40
1.0
 40
1.0
 10
113.2369513673766
 20
119.9538255732431
 30
0.0
 10
113.2369671229552
 20
119.9538363576063
 30
0.0
 10
113.2371428751118
 20
119.9539566562718
 30
0.0
 10
113.2425718911313
 20
119.9576751071899
 30
0.0
 10
113.2641073748386
 20
119.9723861482562
 30
0.0
 10
113.3118128031034
 20
120.0048350097147
 30
0.0
 10
113.3842037480954
 20
120.0534190500582
 30
0.0
 10
113.486122860113
 20
120.1207895223265
 30
0.0
 10
113.5614779515681
 20
120.1696030870604
 30
0.0
 10
113.6138775972914
 20
120.2030096372548
 30
0.0
 10
113.6151574288355
 20
120.2038255732431
 30
0.0
  0
SPLINE
  5
212
330
1F
100
AcDbEntity
  8
0
  6
Continuous
 62
     7
370
    25
100
AcDbSpline
210
0.0
220
0.0
230
1.0
 70
     8
 71
     3
 72
    15
 73
    11
 74
     0
 42
0.00000001
 43
0.00000001
 40
0.0
 40
0.0
 40
0.0
 40
0.0
 40
0.0081667445812973
 40
0.3321939991490804
 40
0.475627960058556
 40
0.6866830973284891
 40
0.8457435502264751
 40
0.8967566214763124
 40
0.9909540928118028
 40
1.0
 40
1.0
 40
1.0
 40
1.0
 10
113.6151574288355
 20
120.2038255732431
 30
0.0
 10
113.6146698946926
 20
120.2023881103041
 30
0.0
 10
113.5948387471613
 20
120.1439172523521
 30
0.0
 10
113.5665579671511
 20
120.0594920746329
 30
0.0
 10
113.5287286686625
 20
119.9449130026104
 30
0.0
 10
113.5021447720949
 20
119.8635421154139
 30
0.0
 10
113.48497494834
 20
119.8105231234122
 30
0.0
 10
113.4771579521235
 20
119.786321191568
 30
0.0
 10
113.4751622656876
 20
119.7801315709019
 30
0.0
 10
113.4750973017368
 20
119.7799301754893
 30
0.0
 10
113.4750916097701
 20
119.7799125297649
 30
0.0
  0
ARC
  5
213
330
1F
100
AcDbEntity
  8
0
  6
Continuous
 62
     7
370
    25
100
AcDbCircle
 10
113.2369513674
 20
119.7038255732
 30
0.0
 40
0.25
100
AcDbArc
 50
17.7189318734
 51
90.0
  0
SPLINE
  5
214
330
1F
100
AcDbEntity
  8
0
  6
Continuous
 62
     7
370
    25
100
AcDbSpline
210
0.0
220
0.0
230
1.0
 70
     8
 71
     3
 72
    15
 73
    11
 74
     0
 42
0.00000001
 43
0.00000001
 40
0.0
 40
0.0
 40
0.0
 40
0.0
 40
0.0090459071881971
 40
0.1032433785236816
 40
0.1542564497735189
 40
0.31331690267151
 40
0.5243720399414428
 40
0.6678060008509183
 40
0.9918332554187028
 40
1.0
 40
1.0
 40
1.0
 40
1.0
 10
123.9532622750864
 20
119.7799125297649
 30
0.0
 10
123.9532565831197
 20
119.7799301754893
 30
0.0
 10
123.9531916191689
 20
119.7801315709019
 30
0.0
 10
123.951195932733
 20
119.786321191568
 30
0.0
 10
123.9433789365166
 20
119.8105231234122
 30
0.0
 10
123.9262091127616
 20
119.8635421154139
 30
0.0
 10
123.8996252161941
 20
119.9449130026104
 30
0.0
 10
123.8617959177054
 20
120.0594920746329
 30
0.0
 10
123.8335151376952
 20
120.1439172523521
 30
0.0
 10
123.8136839901639
 20
120.2023881103041
 30
0.0
 10
123.8131964560211
 20
120.2038255732431
 30
0.0
  0
SPLINE
  5
215
330
1F
100
AcDbEntity
  8
0
  6
Continuous
 62
     7
370
    25
100
AcDbSpline
210
0.0
220
0.0
230
1.0
 70
     8
 71
     3
 72
    15
 73
    11
 74
     0
 42
0.00000001
 43
0.00000001
 40
0.0
 40
0.0
 40
0.0
 40
0.0
 40
0.0080847466189582
 40
0.3310106400648243
 40
0.4750333064304948
 40
0.6874363079215142
 40
0.8468367539418303
 40
0.9000996640391847
 40
0.9910442771984082
 40
1.0
 40
1.0
 40
1.0
 40
1.0
 10
123.8131964560211
 20
120.2038255732431
 30
0.0
 10
123.8144762875652
 20
120.2030096372548
 30
0.0
 10
123.8668759332884
 20
120.1696030870603
 30
0.0
 10
123.9422310247435
 20
120.1207895223265
 30
0.0
 10
124.0441501367612
 20
120.0534190500582
 30
0.0
 10
124.1165410817531
 20
120.0048350097147
 30
0.0
 10
124.1642465100179
 20
119.9723861482562
 30
0.0
 10
124.1857819937252
 20
119.9576751071899
 30
0.0
 10
124.1912110097448
 20
119.9539566562718
 30
0.0
 10
124.1913867619013
 20
119.9538363576063
 30
0.0
 10
124.1914025174799
 20
119.9538255732431
 30
0.0
  0
ARC
  5
216
330
1F
100
AcDbEntity
  8
0
  6
Continuous
 62
     7
370
    25
100
AcDbCircle
 10
124.1914025175
 20
119.7038255732
 30
0.0
 40
0.2500000000000034
100
AcDbArc
 50
90.0
 51
162.2810681266
  0
ARC
  5
217
330
1F
100
AcDbEntity
  8
0
  6
Continuous
 62
     7
370
    25
100
AcDbCircle
 10
118.7141769424
 20
121.4538255732
 30
0.0
 40
5.500000000000011
100
AcDbArc
 50
197.7189318734
 51
342.2810681266
  0
ARC
  5
218
330
1F
100
AcDbEntity
  8
0
  6
Continuous
 62
     7
370
    25
100
AcDbCircle
 10
118.7141769424
 20
121.4538255732
 30
0.0
 40
5.250000000000009
100
AcDbArc
 50
193.774146998
 51
346.225853002
  0
ARC
  5
219
330
1F
100
AcDbEntity
  8
0
  6
Continuous
 62
     7
370
    25
100
AcDbCircle
 10
124.1914025175
 20
123.2038255732
 30
0.0
 40
0.2500000000000034
100
AcDbArc
 50
197.7189318734
 51
270.0
  0
SPLINE
  5
21A
330
1F
100
AcDbEntity
  8
0
  6
Continuous
 62
     7
370
    25
100
AcDbSpline
210
0.0
220
0.0
230
1.0
 70
     8
 71
     3
 72
    15
 73
    11
 74
     0
 42
0.00000001
 43
0.00000001
 40
0.0
 40
0.0
 40
0.0
 40
0.0
 40
0.0089557228015919
 40
0.0999003359608148
 40
0.153163246058169
 40
0.3125636920784848
 40
0.5249666935694999
 40
0.6689893599352451
 40
0.9919152533810159
 40
1.0
 40
1.0
 40
1.0
 40
1.0
 10
124.1914025174799
 20
122.9538255732431
 30
0.0
 10
124.1913867619013
 20
122.95381478888
 30
0.0
 10
124.1912110097448
 20
122.9536944902145
 30
0.0
 10
124.1857819937252
 20
122.9499760392963
 30
0.0
 10
124.1642465100179
 20
122.9352649982301
 30
0.0
 10
124.1165410817531
 20
122.9028161367715
 30
0.0
 10
124.0441501367612
 20
122.854232096428
 30
0.0
 10
123.9422310247434
 20
122.7868616241599
 30
0.0
 10
123.866875933289
 20
122.7380480594251
 30
0.0
 10
123.8144762875652
 20
122.7046415092314
 30
0.0
 10
123.8131964560211
 20
122.7038255732431
 30
0.0
  0
LINE
  5
21B
330
1F
100
AcDbEntity
  8
0
  6
Continuous
 62
     7
370
    25
100
AcDbLine
 10
123.7141769424
 20
122.0538255732
 30
0.0
 11
113.7141769424
 21
122.0538255732
 31
0.0
  0
LINE
  5
21C
330
1F
100
AcDbEntity
  8
0
  6
Continuous
 62
     7
370
    25
100
AcDbLine
 10
123.7141769424
 20
120.8538255732
 30
0.0
 11
123.7141769424
 21
122.0538255732
 31
0.0
  0
LINE
  5
21D
330
1F
100
AcDbEntity
  8
0
  6
Continuous
 62
     7
370
    25
100
AcDbLine
 10
113.7141769424
 20
120.8538255732
 30
0.0
 11
123.7141769424
 21
120.8538255732
 31
0.0
  0
LINE
  5
21E
330
1F
100
AcDbEntity
  8
0
  6
Continuous
 62
     7
370
    25
100
AcDbLine
 10
113.7141769424
 20
122.0538255732
 30
0.0
 11
113.7141769424
 21
120.8538255732
 31
0.0
  0
LINE
  5
21F
330
1F
100
AcDbEntity
  8
0
  6
Continuous
 62
     7
370
    25
100
AcDbLine
 10
124.4641769424
 20
122.7038255732
 30
0.0
 11
123.813196456
 21
122.7038255732
 31
0.0
  0
LINE
  5
220
330
1F
100
AcDbEntity
  8
0
  6
Continuous
 62
     7
370
    25
100
AcDbLine
 10
124.4641769424
 20
120.2038255732
 30
0.0
 11
124.4641769424
 21
122.7038255732
 31
0.0
  0
LINE
  5
221
330
1F
100
AcDbEntity
  8
0
  6
Continuous
 62
     7
370
    25
100
AcDbLine
 10
123.813196456
 20
120.2038255732
 30
0.0
 11
124.4641769424
 21
120.2038255732
 31
0.0
  0
LINE
  5
222
330
1F
100
AcDbEntity
  8
0
  6
Continuous
 62
     7
370
    25
100
AcDbLine
 10
112.9641769424
 20
120.2038255732
 30
0.0
 11
113.6151574288
 21
120.2038255732
 31
0.0
  0
LINE
  5
223
330
1F
100
AcDbEntity
  8
0
  6
Continuous
 62
     7
370
    25
100
AcDbLine
 10
112.9641769424
 20
122.7038255732
 30
0.0
 11
112.9641769424
 21
120.2038255732
 31
0.0
  0
LINE
  5
224
330
1F
100
AcDbEntity
  8
0
  6
Continuous
 62
     7
370
    25
100
AcDbLine
 10
113.6151574288
 20
122.7038255732
 30
0.0
 11
112.9641769424
 21
122.7038255732
 31
0.0
  0
LINE
  5
225
330
1F
100
AcDbEntity
  8
0
  6
Continuous
 62
     7
370
    25
100
AcDbLine
 10
124.4641769424
 20
122.7038255732
 30
0.0
 11
124.4641769424
 21
122.9538255732
 31
0.0
  0
LINE
  5
226
330
1F
100
AcDbEntity
  8
0
  6
Continuous
 62
     7
370
    25
100
AcDbLine
 10
124.1914025175
 20
122.9538255732
 30
0.0
 11
124.4641769424
 21
122.9538255732
 31
0.0
  0
ARC
  5
227
330
1F
100
AcDbEntity
  8
0
  6
Continuous
 62
     7
370
    25
100
AcDbCircle
 10
124.4641769424
 20
122.7038255732
 30
0.0
 40
0.25
100
AcDbArc
 50
0.0
 51
90.0
  0
LINE
  5
228
330
1F
100
AcDbEntity
  8
0
  6
Continuous
 62
     7
370
    25
100
AcDbLine
 10
124.7141769424
 20
122.7038255732
 30
0.0
 11
124.4641769424
 21
122.7038255732
 31
0.0
  0
LINE
  5
229
330
1F
100
AcDbEntity
  8
0
  6
Continuous
 62
     7
370
    25
100
AcDbLine
 10
112.9641769424
 20
122.9538255732
 30
0.0
 11
112.9641769424
 21
122.7038255732
 31
0.0
  0
LINE
  5
22A
330
1F
100
AcDbEntity
  8
0
  6
Continuous
 62
     7
370
    25
100
AcDbLine
 10
112.9641769424
 20
122.7038255732
 30
0.0
 11
112.7141769424
 21
122.7038255732
 31
0.0
  0
ARC
  5
22B
330
1F
100
AcDbEntity
  8
0
  6
Continuous
 62
     7
370
    25
100
AcDbCircle
 10
112.9641769424
 20
122.7038255732
 30
0.0
 40
0.25
100
AcDbArc
 50
90.0
 51
180.0
  0
LINE
  5
22C
330
1F
100
AcDbEntity
  8
0
  6
Continuous
 62
     7
370
    25
100
AcDbLine
 10
112.9641769424
 20
122.9538255732
 30
0.0
 11
113.2369513674
 21
122.9538255732
 31
0.0
  0
LINE
  5
22D
330
1F
100
AcDbEntity
  8
0
  6
Continuous
 62
     7
370
    25
100
AcDbLine
 10
112.7141769424
 20
120.2038255732
 30
0.0
 11
112.9641769424
 21
120.2038255732
 31
0.0
  0
LINE
  5
22E
330
1F
100
AcDbEntity
  8
0
  6
Continuous
 62
     7
370
    25
100
AcDbLine
 10
112.7141769424
 20
120.2038255732
 30
0.0
 11
112.7141769424
 21
122.7038255732
 31
0.0
  0
LINE
  5
22F
330
1F
100
AcDbEntity
  8
0
  6
Continuous
 62
     7
370
    25
100
AcDbLine
 10
124.7141769424
 20
122.7038255732
 30
0.0
 11
124.7141769424
 21
120.2038255732
 31
0.0
  0
LINE
  5
230
330
1F
100
AcDbEntity
  8
0
  6
Continuous
 62
     7
370
    25
100
AcDbLine
 10
124.4641769424
 20
120.2038255732
 30
0.0
 11
124.7141769424
 21
120.2038255732
 31
0.0
  0
LINE
  5
231
330
1F
100
AcDbEntity
  8
0
  6
Continuous
 62
     7
370
    25
100
AcDbLine
 10
124.4641769424
 20
119.9538255732
 30
0.0
 11
124.4641769424
 21
120.2038255732
 31
0.0
  0
LINE
  5
232
330
1F
100
AcDbEntity
  8
0
  6
Continuous
 62
     7
370
    25
100
AcDbLine
 10
124.4641769424
 20
119.9538255732
 30
0.0
 11
124.1914025175
 21
119.9538255732
 31
0.0
  0
ARC
  5
233
330
1F
100
AcDbEntity
  8
0
  6
Continuous
 62
     7
370
    25
100
AcDbCircle
 10
124.4641769424
 20
120.2038255732
 30
0.0
 40
0.25
100
AcDbArc
 50
270.0
 51
0.0
  0
LINE
  5
234
330
1F
100
AcDbEntity
  8
0
  6
Continuous
 62
     7
370
    25
100
AcDbLine
 10
113.2369513674
 20
119.9538255732
 30
0.0
 11
112.9641769424
 21
119.9538255732
 31
0.0
  0
LINE
  5
235
330
1F
100
AcDbEntity
  8
0
  6
Continuous
 62
     7
370
    25
100
AcDbLine
 10
112.9641769424
 20
120.2038255732
 30
0.0
 11
112.9641769424
 21
119.9538255732
 31
0.0
  0
ARC
  5
236
330
1F
100
AcDbEntity
  8
0
  6
Continuous
 62
     7
370
    25
100
AcDbCircle
 10
112.9641769424
 20
120.2038255732
 30
0.0
 40
0.25
100
AcDbArc
 50
180.0
 51
270.0
  0
LINE
  5
237
330
1F
100
AcDbEntity
  8
0
  6
Continuous
 62
     7
370
    25
100
AcDbLine
 10
98.7141769424
 20
124.7255248373
 30
0.0
 11
96.5387400809
 21
124.9538255732
 31
0.0
  0
LINE
  5
238
330
1F
100
AcDbEntity
  8
0
  6
Continuous
 62
     7
370
    25
100
AcDbLine
 10
98.7141769424
 20
118.1821263092
 30
0.0
 11
98.7141769424
 21
124.7255248373
 31
0.0
  0
LINE
  5
239
330
1F
100
AcDbEntity
  8
0
  6
Continuous
 62
     7
370
    25
100
AcDbLine
 10
96.5387400809
 20
117.9538255732
 30
0.0
 11
98.7141769424
 21
118.1821263092
 31
0.0
  0
LINE
  5
23A
330
1F
100
AcDbEntity
  8
0
  6
Continuous
 62
     7
370
    25
100
AcDbLine
 10
78.7141769424
 20
117.9538255732
 30
0.0
 11
96.5387400809
 21
117.9538255732
 31
0.0
  0
LINE
  5
23B
330
1F
100
AcDbEntity
  8
0
  6
Continuous
 62
     7
370
    25
100
AcDbLine
 10
78.7141769424
 20
124.9538255732
 30
0.0
 11
78.7141769424
 21
117.9538255732
 31
0.0
  0
LINE
  5
23C
330
1F
100
AcDbEntity
  8
0
  6
Continuous
 62
     7
370
    25
100
AcDbLine
 10
96.5387400809
 20
124.9538255732
 30
0.0
 11
78.7141769424
 21
124.9538255732
 31
0.0
  0
LINE
  5
23D
330
1F
100
AcDbEntity
  8
0
  6
Continuous
 62
     7
370
    25
100
AcDbLine
 10
113.4903747681
 20
123.1748400541
 30
0.0
 11
113.3619657294
 21
122.9906984206
 31
0.0
  0
LINE
  5
23E
330
1F
100
AcDbEntity
  8
0
  6
Continuous
 62
     7
370
    25
100
AcDbLine
 10
113.3715330702
 20
119.9086079059
 30
0.0
 11
113.4903747681
 21
119.7328110924
 31
0.0
  0
LINE
  5
23F
330
1F
100
AcDbEntity
  8
0
  6
Continuous
 62
     7
370
    25
100
AcDbLine
 10
105.2976072888
 20
124.0346282088
 30
0.0
 11
105.2976072888
 21
118.8730229377
 31
0.0
  0
LINE
  5
240
330
1F
100
AcDbEntity
  8
0
  6
Continuous
 62
     7
370
    25
100
AcDbLine
 10
113.4903747681
 20
119.7328110924
 30
0.0
 11
105.2976072888
 21
118.8730229377
 31
0.0
  0
LINE
  5
241
330
1F
100
AcDbEntity
  8
0
  6
Continuous
 62
     7
370
    25
100
AcDbLine
 10
105.2976072888
 20
124.0346282088
 30
0.0
 11
113.4903747681
 21
123.1748400541
 31
0.0
  0
LINE
  5
242
330
1F
100
AcDbEntity
  8
0
  6
Continuous
 62
     7
370
    25
100
AcDbLine
 10
105.2976072888
 20
118.8730229377
 30
0.0
 11
98.7141769424
 21
118.1821263092
 31
0.0
  0
LINE
  5
243
330
1F
100
AcDbEntity
  8
0
  6
Continuous
 62
     7
370
    25
100
AcDbLine
 10
98.7141769424
 20
124.7255248373
 30
0.0
 11
105.2976072888
 21
124.0346282088
 31
0.0
  0
ARC
  5
244
330
1F
100
AcDbEntity
  8
0
  6
Continuous
 62
     7
370
    25
100
AcDbCircle
 10
118.7141769424
 20
121.4538255732
 30
0.0
 40
7.450000000000653
100
AcDbArc
 50
233.0863788866
 51
126.9136211134
  0
ARC
  5
245
330
1F
100
AcDbEntity
  8
0
  6
Continuous
 62
     7
370
    25
100
AcDbCircle
 10
118.7141769424
 20
121.4538255732
 30
0.0
 40
7.207531252870791
100
AcDbArc
 50
195.3041237151
 51
238.9797515565
  0
ARC
  5
246
330
1F
100
AcDbEntity
  8
0
  6
Continuous
 62
     7
370
    25
100
AcDbCircle
 10
118.7141769424
 20
121.4538255732
 30
0.0
 40
7.207531252872426
100
AcDbArc
 50
121.0202484435
 51
164.6958762849
  0
ARC
  5
247
330
1F
100
AcDbEntity
  8
0
  6
Continuous
 62
     7
370
    25
100
AcDbCircle
 10
96.5387400809
 20
189.9538255732
 30
0.0
 40
65.0
100
AcDbArc
 50
270.0
 51
286.5000949923
  0
ARC
  5
248
330
1F
100
AcDbEntity
  8
0
  6
Continuous
 62
     7
370
    25
100
AcDbCircle
 10
96.5387400809
 20
52.9538255732
 30
0.0
 40
65.0
100
AcDbArc
 50
73.4999050077
 51
90.0
  0
SPLINE
  5
249
330
1F
100
AcDbEntity
  8
0
  6
Continuous
 62
     7
370
    25
100
AcDbSpline
210
0.0
220
0.0
230
1.0
 70
    24
 71
     3
 72
    10
 73
     6
 74
     0
 42
0.00000001
 43
0.00000001
 40
0.0
 40
0.0
 40
0.0
 40
0.0
 40
0.3696333052042208
 40
0.742312288231073
 40
1.0
 40
1.0
 40
1.0
 40
1.0
 10
129.8921179698707
 20
112.9538255732431
 30
0.0
 10
130.0333205324002
 20
112.9538255732431
 30
0.0
 10
130.3168891281398
 20
112.9538255732431
 30
0.0
 10
130.536022768291
 20
112.9538255732431
 30
0.0
 10
130.5584136898395
 20
112.9538255732431
 30
0.0
 10
130.5675668785879
 20
112.9538255732431
 30
0.0
  0
SPLINE
  5
24A
330
1F
100
AcDbEntity
  8
0
  6
Continuous
 62
     7
370
    25
100
AcDbSpline
210
0.0
220
0.0
230
1.0
 70
     8
 71
     3
 72
    10
 73
     6
 74
     0
 42
0.00000001
 43
0.00000001
 40
0.0
 40
0.0
 40
0.0
 40
0.0
 40
0.5
 40
0.5
 40
1.0
 40
1.0
 40
1.0
 40
1.0
 10
129.8921179698707
 20
113.2038255732431
 30
0.0
 10
129.8684425754463
 20
113.1294451958658
 30
0.0
 10
129.8553514655617
 20
113.06514455708
 30
0.0
 10
129.8552651442734
 20
112.9769288722971
 30
0.0
 10
129.8684340782172
 20
112.9538255732431
 30
0.0
 10
129.8921179698707
 20
112.9538255732431
 30
0.0
  0
SPLINE
  5
24B
330
1F
100
AcDbEntity
  8
0
  6
Continuous
 62
     7
370
    25
100
AcDbSpline
210
0.0
220
0.0
230
1.0
 70
     8
 71
     3
 72
    16
 73
    12
 74
     0
 42
0.00000001
 43
0.00000001
 40
0.0
 40
0.0
 40
0.0
 40
0.0
 40
0.2500000000000001
 40
0.2500000000000001
 40
0.5000000000000001
 40
0.5000000000000001
 40
0.6250000000000001
 40
0.6250000000000001
 40
0.7500000000000002
 40
0.7500000000000002
 40
1.0
 40
1.0
 40
1.0
 40
1.0
 10
129.8921179698707
 20
121.2038255732431
 30
0.0
 10
130.1001334179765
 20
120.5503087932023
 30
0.0
 10
130.2703397229494
 20
119.8920883841123
 30
0.0
 10
130.505275754517
 20
118.5625258007465
 30
0.0
 10
130.5693478861806
 20
117.891101818676
 30
0.0
 10
130.5700808351017
 20
116.8721007316693
 30
0.0
 10
130.5544213550186
 20
116.5307599493531
 30
0.0
 10
130.4931462283817
 20
115.8551614463826
 30
0.0
 10
130.4475899558826
 20
115.519502296418
 30
0.0
 10
130.2711039231263
 20
114.5182366599183
 30
0.0
 10
130.1004474696406
 20
113.8583290013152
 30
0.0
 10
129.8921179698707
 20
113.2038255732431
 30
0.0
  0
SPLINE
  5
24C
330
1F
100
AcDbEntity
  8
0
  6
Continuous
 62
     7
370
    25
100
AcDbSpline
210
0.0
220
0.0
230
1.0
 70
     8
 71
     3
 72
    10
 73
     6
 74
     0
 42
0.00000001
 43
0.00000001
 40
0.0
 40
0.0
 40
0.0
 40
0.0
 40
0.5
 40
0.5
 40
1.0
 40
1.0
 40
1.0
 40
1.0
 10
129.8921179698707
 20
121.7038255732431
 30
0.0
 10
129.8684425754463
 20
121.6294451958658
 30
0.0
 10
129.8553514655617
 20
121.5423521077502
 30
0.0
 10
129.8552651442734
 20
121.3661937188742
 30
0.0
 10
129.8684340782172
 20
121.2782326461464
 30
0.0
 10
129.8921179698707
 20
121.2038255732431
 30
0.0
  0
SPLINE
  5
24D
330
1F
100
AcDbEntity
  8
0
  6
Continuous
 62
     7
370
    25
100
AcDbSpline
210
0.0
220
0.0
230
1.0
 70
     8
 71
     3
 72
    16
 73
    12
 74
     0
 42
0.00000001
 43
0.00000001
 40
0.0
 40
0.0
 40
0.0
 40
0.0
 40
0.2499999999999997
 40
0.2499999999999997
 40
0.4999999999999993
 40
0.4999999999999993
 40
0.6249999999999993
 40
0.6249999999999993
 40
0.7499999999999996
 40
0.7499999999999996
 40
1.0
 40
1.0
 40
1.0
 40
1.0
 10
129.8921179698707
 20
129.7038255732431
 30
0.0
 10
130.1001334179764
 20
129.0503087932023
 30
0.0
 10
130.2703397229494
 20
128.3920883841123
 30
0.0
 10
130.505275754517
 20
127.0625258007465
 30
0.0
 10
130.5693478861807
 20
126.391101818676
 30
0.0
 10
130.5700808351017
 20
125.3721007316693
 30
0.0
 10
130.5544213550186
 20
125.0307599493531
 30
0.0
 10
130.4931462283817
 20
124.3551614463826
 30
0.0
 10
130.4475899558826
 20
124.019502296418
 30
0.0
 10
130.2711039231263
 20
123.0182366599183
 30
0.0
 10
130.1004474696406
 20
122.3583290013152
 30
0.0
 10
129.8921179698707
 20
121.7038255732431
 30
0.0
  0
SPLINE
  5
24E
330
1F
100
AcDbEntity
  8
0
  6
Continuous
 62
     7
370
    25
100
AcDbSpline
210
0.0
220
0.0
230
1.0
 70
     8
 71
     3
 72
    10
 73
     6
 74
     0
 42
0.00000001
 43
0.00000001
 40
0.0
 40
0.0
 40
0.0
 40
0.0
 40
0.5
 40
0.5
 40
1.0
 40
1.0
 40
1.0
 40
1.0
 10
129.8921179698707
 20
129.9538255732431
 30
0.0
 10
129.8684425754463
 20
129.9538255732431
 30
0.0
 10
129.8553514655617
 20
129.9310331239133
 30
0.0
 10
129.8552651442734
 20
129.8430904198202
 30
0.0
 10
129.8684340782172
 20
129.7782326461464
 30
0.0
 10
129.8921179698707
 20
129.7038255732431
 30
0.0
  0
SPLINE
  5
24F
330
1F
100
AcDbEntity
  8
0
  6
Continuous
 62
     7
370
    25
100
AcDbSpline
210
0.0
220
0.0
230
1.0
 70
    24
 71
     3
 72
    10
 73
     6
 74
     0
 42
0.00000001
 43
0.00000001
 40
0.0
 40
0.0
 40
0.0
 40
0.0
 40
0.2576845977863296
 40
0.6270644940575981
 40
1.0
 40
1.0
 40
1.0
 40
1.0
 10
130.5662254706496
 20
129.9538255732431
 30
0.0
 10
130.557622610642
 20
129.9538255732431
 30
0.0
 10
130.5366879172047
 20
129.9538255732431
 30
0.0
 10
130.3177234480349
 20
129.9538255732431
 30
0.0
 10
130.0344387634878
 20
129.9538255732431
 30
0.0
 10
129.8921179698707
 20
129.9538255732431
 30
0.0
  0
LINE
  5
250
330
1F
100
AcDbEntity
  8
0
  6
Continuous
 62
     7
370
    25
100
AcDbLine
 10
130.7141769424
 20
129.7038255732
 30
0.0
 11
130.7141769424
 21
113.2038255732
 31
0.0
  0
SPLINE
  5
251
330
1F
100
AcDbEntity
  8
0
  6
Continuous
 62
     7
370
    25
100
AcDbSpline
210
0.0
220
0.0
230
1.0
 70
     8
 71
     3
 72
    12
 73
     8
 74
     0
 42
0.00000001
 43
0.00000001
 40
0.0
 40
0.0
 40
0.0
 40
0.0
 40
0.0438023726578443
 40
0.2808910652177751
 40
0.5180092040531654
 40
0.7589848743648541
 40
1.0
 40
1.0
 40
1.0
 40
1.0
 10
124.7159598096212
 20
125.8341581113239
 30
0.0
 10
124.716550952469
 20
125.8914556445108
 30
0.0
 10
124.7203417686773
 20
126.2588869993587
 30
0.0
 10
124.7711551092315
 20
126.9359238507505
 30
0.0
 10
124.9098752236949
 20
127.8641569479098
 30
0.0
 10
125.1154606964036
 20
128.7886593360327
 30
0.0
 10
125.2997474354125
 20
129.3987535135901
 30
0.0
 10
125.3918983476885
 20
129.7038255732431
 30
0.0
  0
LINE
  5
252
330
1F
100
AcDbEntity
  8
0
  6
Continuous
 62
     7
370
    25
100
AcDbLine
 10
129.8921179699
 20
129.7038255732
 30
0.0
 11
125.3918983477
 21
129.7038255732
 31
0.0
  0
SPLINE
  5
253
330
1F
100
AcDbEntity
  8
0
  6
Continuous
 62
     7
370
    25
100
AcDbSpline
210
0.0
220
0.0
230
1.0
 70
     8
 71
     3
 72
    12
 73
     8
 74
     0
 42
0.00000001
 43
0.00000001
 40
0.0
 40
0.0
 40
0.0
 40
0.0
 40
0.089984321509525
 40
0.3158515233112828
 40
0.5417447060369777
 40
0.7708565370274261
 40
1.0
 40
1.0
 40
1.0
 40
1.0
 10
107.2174687365716
 20
125.850014684717
 30
0.0
 10
107.2192669164156
 20
125.9672508248669
 30
0.0
 10
107.2255786586547
 20
126.3787582167358
 30
0.0
 10
107.28973294876
 20
127.0832193122518
 30
0.0
 10
107.4299260908568
 20
127.9622741368772
 30
0.0
 10
107.6294456597284
 20
128.8374105533042
 30
0.0
 10
107.8044100926126
 20
129.4150072766763
 30
0.0
 10
107.8918983476885
 20
129.7038255732431
 30
0.0
  0
LINE
  5
254
330
1F
100
AcDbEntity
  8
0
  6
Continuous
 62
     7
370
    25
100
AcDbLine
 10
112.0364555372
 20
129.7038255732
 30
0.0
 11
107.8918983477
 21
129.7038255732
 31
0.0
  0
SPLINE
  5
255
330
1F
100
AcDbEntity
  8
0
  6
Continuous
 62
     7
370
    25
100
AcDbSpline
210
0.0
220
0.0
230
1.0
 70
     8
 71
     3
 72
    10
 73
     6
 74
     0
 42
0.00000001
 43
0.00000001
 40
0.0
 40
0.0
 40
0.0
 40
0.0
 40
0.364982535386253
 40
0.7298928654911163
 40
0.9999999999999999
 40
0.9999999999999999
 40
0.9999999999999999
 40
0.9999999999999999
 10
112.0364555371681
 20
129.7038255732432
 30
0.0
 10
112.1335248435769
 20
129.3795183663744
 30
0.0
 10
112.3276442529645
 20
128.7309681110303
 30
0.0
 10
112.5299527679899
 20
127.8285123316766
 30
0.0
 10
112.5997929166493
 20
127.2485978096097
 30
0.0
 10
112.629499693989
 20
127.0019289248243
 30
0.0
  0
SPLINE
  5
256
330
1F
100
AcDbEntity
  8
0
  6
Continuous
 62
     7
370
    25
100
AcDbSpline
210
0.0
220
0.0
230
1.0
 70
     8
 71
     3
 72
    10
 73
     6
 74
     0
 42
0.00000001
 43
0.00000001
 40
0.0
 40
0.0
 40
0.0
 40
0.0
 40
0.3127766111016653
 40
0.6563601778134105
 40
1.0
 40
1.0
 40
1.0
 40
1.0
 10
112.6355508825451
 20
115.9037618654013
 30
0.0
 10
112.5972778672605
 20
115.6186423814487
 30
0.0
 10
112.5169621331998
 20
115.0203205487324
 30
0.0
 10
112.3119690473612
 20
114.1190839838013
 30
0.0
 10
112.128298385603
 20
113.508928359022
 30
0.0
 10
112.0364555371681
 20
113.2038255732431
 30
0.0
  0
LINE
  5
257
330
1F
100
AcDbEntity
  8
0
  6
Continuous
 62
     7
370
    25
100
AcDbLine
 10
107.8918983477
 20
113.2038255732
 30
0.0
 11
112.0364555372
 21
113.2038255732
 31
0.0
  0
SPLINE
  5
258
330
1F
100
AcDbEntity
  8
0
  6
Continuous
 62
     7
370
    25
100
AcDbSpline
210
0.0
220
0.0
230
1.0
 70
     8
 71
     3
 72
    11
 73
     7
 74
     0
 42
0.00000001
 43
0.00000001
 40
0.0
 40
0.0
 40
0.0
 40
0.0
 40
0.2571424372947443
 40
0.5142340035470633
 40
0.7758067815163677
 40
1.0
 40
1.0
 40
1.0
 40
1.0
 10
107.8918983476885
 20
113.2038255732431
 30
0.0
 10
107.7941362345473
 20
113.528079453089
 30
0.0
 10
107.5986313487543
 20
114.176523064937
 30
0.0
 10
107.3863064066309
 20
115.1710789905277
 30
0.0
 10
107.2474084370212
 20
116.1328313429959
 30
0.0
 10
107.2292943358101
 20
116.7658382661176
 30
0.0
 10
107.2209342227513
 20
117.0579868735816
 30
0.0
  0
LINE
  5
259
330
1F
100
AcDbEntity
  8
0
  6
Continuous
 62
     7
370
    25
100
AcDbLine
 10
125.3918983477
 20
113.2038255732
 30
0.0
 11
129.8921179699
 21
113.2038255732
 31
0.0
  0
SPLINE
  5
25A
330
1F
100
AcDbEntity
  8
0
  6
Continuous
 62
     7
370
    25
100
AcDbSpline
210
0.0
220
0.0
230
1.0
 70
     8
 71
     3
 72
    11
 73
     7
 74
     0
 42
0.00000001
 43
0.00000001
 40
0.0
 40
0.0
 40
0.0
 40
0.0
 40
0.2553105609688295
 40
0.5105706132992743
 40
0.7702799533059198
 40
1.0
 40
1.0
 40
1.0
 40
1.0
 10
125.3918983476885
 20
113.2038255732431
 30
0.0
 10
125.2941433877823
 20
113.5280798566511
 30
0.0
 10
125.0986528070443
 20
114.1765242755437
 30
0.0
 10
124.8862199700593
 20
115.1710741140585
 30
0.0
 10
124.7463811698165
 20
116.1421384203954
 30
0.0
 10
124.728179194268
 20
116.784505418396
 30
0.0
 10
124.7196358603641
 20
117.0860087216002
 30
0.0
  0
LINE
  5
25B
330
1F
100
AcDbEntity
  8
0
  6
Continuous
 62
     7
370
    25
100
AcDbLine
 10
124.7141769424
 20
117.0376620799
 30
0.0
 11
124.7141769424
 21
113.9538255732
 31
0.0
  0
LINE
  5
25C
330
1F
100
AcDbEntity
  8
0
  6
Continuous
 62
     7
370
    25
100
AcDbLine
 10
124.7141769424
 20
113.9538255732
 30
0.0
 11
112.7141769424
 21
113.9538255732
 31
0.0
  0
LINE
  5
25D
330
1F
100
AcDbEntity
  8
0
  6
Continuous
 62
     7
370
    25
100
AcDbLine
 10
112.7141769424
 20
115.9090099693
 30
0.0
 11
112.7141769424
 21
113.9538255732
 31
0.0
  0
LINE
  5
25E
330
1F
100
AcDbEntity
  8
0
  6
Continuous
 62
     7
370
    25
100
AcDbLine
 10
112.7141769424
 20
128.9538255732
 30
0.0
 11
112.7141769424
 21
126.9986411772
 31
0.0
  0
LINE
  5
25F
330
1F
100
AcDbEntity
  8
0
  6
Continuous
 62
     7
370
    25
100
AcDbLine
 10
112.7141769424
 20
128.9538255732
 30
0.0
 11
124.7141769424
 21
128.9538255732
 31
0.0
  0
LINE
  5
260
330
1F
100
AcDbEntity
  8
0
  6
Continuous
 62
     7
370
    25
100
AcDbLine
 10
124.7141769424
 20
128.9538255732
 30
0.0
 11
124.7141769424
 21
125.8699890666
 31
0.0
  0
SPLINE
  5
261
330
1F
100
AcDbEntity
  8
0
  6
Continuous
 62
     7
370
    25
100
AcDbSpline
210
0.0
220
0.0
230
1.0
 70
     8
 71
     3
 72
     8
 73
     4
 74
     0
 42
0.00000001
 43
0.00000001
 40
0.0
 40
0.0
 40
0.0
 40
0.0
 40
1.0
 40
1.0
 40
1.0
 40
1.0
 10
112.1979408654491
 20
129.9538255732431
 30
0.0
 10
112.3716439416689
 20
129.6213141511076
 30
0.0
 10
112.5439461607316
 20
129.2879870512087
 30
0.0
 10
112.7141769424283
 20
128.9538255732431
 30
0.0
  0
SPLINE
  5
262
330
1F
100
AcDbEntity
  8
0
  6
Continuous
 62
     7
370
    25
100
AcDbSpline
210
0.0
220
0.0
230
1.0
 70
     8
 71
     3
 72
    10
 73
     6
 74
     0
 42
0.00000001
 43
0.00000001
 40
0.0
 40
0.0
 40
0.0
 40
0.0
 40
0.5
 40
0.5
 40
1.0
 40
1.0
 40
1.0
 40
1.0
 10
112.0364555371737
 20
129.9538255732431
 30
0.0
 10
112.0127801427494
 20
129.9538255732431
 30
0.0
 10
111.9996890328591
 20
129.9310331239136
 30
0.0
 10
111.9996027115707
 20
129.8430904198206
 30
0.0
 10
112.0127716455145
 20
129.7782326461466
 30
0.0
 10
112.0364555371681
 20
129.7038255732432
 30
0.0
  0
SPLINE
  5
263
330
1F
100
AcDbEntity
  8
0
  6
Continuous
 62
     7
370
    25
100
AcDbSpline
210
0.0
220
0.0
230
1.0
 70
    24
 71
     3
 72
     8
 73
     4
 74
     0
 42
0.00000001
 43
0.00000001
 40
0.0
 40
0.0
 40
0.0
 40
0.0
 40
1.0
 40
1.0
 40
1.0
 40
1.0
 10
112.1979408654491
 20
129.9538255732431
 30
0.0
 10
112.1470421485267
 20
129.9538255732431
 30
0.0
 10
112.093108012276
 20
129.9538255732431
 30
0.0
 10
112.0364555371685
 20
129.9538255732431
 30
0.0
  0
SPLINE
  5
264
330
1F
100
AcDbEntity
  8
0
  6
Continuous
 62
     7
370
    25
100
AcDbSpline
210
0.0
220
0.0
230
1.0
 70
     8
 71
     3
 72
     8
 73
     4
 74
     0
 42
0.00000001
 43
0.00000001
 40
0.0
 40
0.0
 40
0.0
 40
0.0
 40
1.0
 40
1.0
 40
1.0
 40
1.0
 10
124.7141769424283
 20
128.9538255732431
 30
0.0
 10
124.884454549772
 20
129.2880789695285
 30
0.0
 10
125.0567262983977
 20
129.6213454590974
 30
0.0
 10
125.2304130194073
 20
129.9538255732429
 30
0.0
  0
SPLINE
  5
265
330
1F
100
AcDbEntity
  8
0
  6
Continuous
 62
     7
370
    25
100
AcDbSpline
210
0.0
220
0.0
230
1.0
 70
    24
 71
     3
 72
     8
 73
     4
 74
     0
 42
0.00000001
 43
0.00000001
 40
0.0
 40
0.0
 40
0.0
 40
0.0
 40
1.0
 40
1.0
 40
1.0
 40
1.0
 10
125.2304130194069
 20
129.9538255732431
 30
0.0
 10
125.2813092526622
 20
129.9538255732431
 30
0.0
 10
125.335243207626
 20
129.9538255732431
 30
0.0
 10
125.3918983476885
 20
129.9538255732431
 30
0.0
  0
SPLINE
  5
266
330
1F
100
AcDbEntity
  8
0
  6
Continuous
 62
     7
370
    25
100
AcDbSpline
210
0.0
220
0.0
230
1.0
 70
     8
 71
     3
 72
    10
 73
     6
 74
     0
 42
0.00000001
 43
0.00000001
 40
0.0
 40
0.0
 40
0.0
 40
0.0
 40
0.5
 40
0.5
 40
1.0
 40
1.0
 40
1.0
 40
1.0
 10
125.3918983476885
 20
129.7038255732431
 30
0.0
 10
125.4155737421128
 20
129.7782059506204
 30
0.0
 10
125.4286648519975
 20
129.8425065894062
 30
0.0
 10
125.4287511732858
 20
129.9307222741892
 30
0.0
 10
125.4155822393419
 20
129.9538255732431
 30
0.0
 10
125.3918983476885
 20
129.9538255732431
 30
0.0
  0
SPLINE
  5
267
330
1F
100
AcDbEntity
  8
0
  6
Continuous
 62
     7
370
    25
100
AcDbSpline
210
0.0
220
0.0
230
1.0
 70
     8
 71
     3
 72
    10
 73
     6
 74
     0
 42
0.00000001
 43
0.00000001
 40
0.0
 40
0.0
 40
0.0
 40
0.0
 40
0.5
 40
0.5
 40
1.0
 40
1.0
 40
1.0
 40
1.0
 10
107.8918983476885
 20
129.9538255732431
 30
0.0
 10
107.9155722482444
 20
129.9538255732431
 30
0.0
 10
107.9286648054236
 20
129.9310350015957
 30
0.0
 10
107.9287512194058
 20
129.8430890042969
 30
0.0
 10
107.9155808278072
 20
129.7782282115641
 30
0.0
 10
107.8918983476885
 20
129.7038255732431
 30
0.0
  0
SPLINE
  5
268
330
1F
100
AcDbEntity
  8
0
  6
Continuous
 62
     7
370
    25
100
AcDbSpline
210
0.0
220
0.0
230
1.0
 70
    24
 71
     3
 72
    12
 73
     8
 74
     0
 42
0.00000001
 43
0.00000001
 40
0.0
 40
0.0
 40
0.0
 40
0.0
 40
0.2499999999999999
 40
0.2499999999999999
 40
0.4999999999999998
 40
0.4999999999999998
 40
1.0
 40
1.0
 40
1.0
 40
1.0
 10
107.2141769424283
 20
129.9538255732431
 30
0.0
 10
107.2141769424283
 20
129.9538255732431
 30
0.0
 10
107.2301757474093
 20
129.9538255732431
 30
0.0
 10
107.2919458857237
 20
129.9538255732431
 30
0.0
 10
107.3376880100253
 20
129.9538255732431
 30
0.0
 10
107.5143581573722
 20
129.9538255732431
 30
0.0
 10
107.6846132228525
 20
129.9538255732431
 30
0.0
 10
107.8918983476885
 20
129.9538255732431
 30
0.0
  0
LINE
  5
269
330
1F
100
AcDbEntity
  8
0
  6
Continuous
 62
     7
370
    25
100
AcDbLine
 10
107.2141769424
 20
129.9538255732
 30
0.0
 11
107.2141769424
 21
125.8364718551
 31
0.0
  0
SPLINE
  5
26A
330
1F
100
AcDbEntity
  8
0
  6
Continuous
 62
     7
370
    25
100
AcDbSpline
210
0.0
220
0.0
230
1.0
 70
     8
 71
     3
 72
     8
 73
     4
 74
     0
 42
0.00000001
 43
0.00000001
 40
0.0
 40
0.0
 40
0.0
 40
0.0
 40
1.0
 40
1.0
 40
1.0
 40
1.0
 10
112.7141769424283
 20
113.9538255732431
 30
0.0
 10
112.5438993350845
 20
113.6195721769577
 30
0.0
 10
112.3716275864588
 20
113.2863056873887
 30
0.0
 10
112.1979408654491
 20
112.9538255732431
 30
0.0
  0
SPLINE
  5
26B
330
1F
100
AcDbEntity
  8
0
  6
Continuous
 62
     7
370
    25
100
AcDbSpline
210
0.0
220
0.0
230
1.0
 70
    24
 71
     3
 72
     8
 73
     4
 74
     0
 42
0.00000001
 43
0.00000001
 40
0.0
 40
0.0
 40
0.0
 40
0.0
 40
1.0
 40
1.0
 40
1.0
 40
1.0
 10
112.1979408654491
 20
112.9538255732431
 30
0.0
 10
112.1470421485266
 20
112.9538255732431
 30
0.0
 10
112.0931080122758
 20
112.9538255732431
 30
0.0
 10
112.0364555371681
 20
112.9538255732431
 30
0.0
  0
SPLINE
  5
26C
330
1F
100
AcDbEntity
  8
0
  6
Continuous
 62
     7
370
    25
100
AcDbSpline
210
0.0
220
0.0
230
1.0
 70
     8
 71
     3
 72
    10
 73
     6
 74
     0
 42
0.00000001
 43
0.00000001
 40
0.0
 40
0.0
 40
0.0
 40
0.0
 40
0.5
 40
0.5
 40
1.0
 40
1.0
 40
1.0
 40
1.0
 10
112.0364555371681
 20
113.2038255732431
 30
0.0
 10
112.0127801427437
 20
113.1294451958658
 30
0.0
 10
111.9996890328591
 20
113.06514455708
 30
0.0
 10
111.9996027115708
 20
112.9769288722971
 30
0.0
 10
112.0127716455146
 20
112.9538255732431
 30
0.0
 10
112.0364555371681
 20
112.9538255732431
 30
0.0
  0
SPLINE
  5
26D
330
1F
100
AcDbEntity
  8
0
  6
Continuous
 62
     7
370
    25
100
AcDbSpline
210
0.0
220
0.0
230
1.0
 70
     8
 71
     3
 72
     8
 73
     4
 74
     0
 42
0.00000001
 43
0.00000001
 40
0.0
 40
0.0
 40
0.0
 40
0.0
 40
1.0
 40
1.0
 40
1.0
 40
1.0
 10
125.2304130194075
 20
112.9538255732431
 30
0.0
 10
125.0567099431877
 20
113.2863369953786
 30
0.0
 10
124.884407724125
 20
113.6196640952775
 30
0.0
 10
124.7141769424283
 20
113.9538255732431
 30
0.0
  0
SPLINE
  5
26E
330
1F
100
AcDbEntity
  8
0
  6
Continuous
 62
     7
370
    25
100
AcDbSpline
210
0.0
220
0.0
230
1.0
 70
     8
 71
     3
 72
    10
 73
     6
 74
     0
 42
0.00000001
 43
0.00000001
 40
0.0
 40
0.0
 40
0.0
 40
0.0
 40
0.5
 40
0.5
 40
1.0
 40
1.0
 40
1.0
 40
1.0
 10
125.3918983476885
 20
112.9538255732431
 30
0.0
 10
125.4155737421129
 20
112.9538255732431
 30
0.0
 10
125.4286648519975
 20
112.9766180225729
 30
0.0
 10
125.4287511732858
 20
113.064560726666
 30
0.0
 10
125.4155822393419
 20
113.1294185003398
 30
0.0
 10
125.3918983476885
 20
113.2038255732431
 30
0.0
  0
SPLINE
  5
26F
330
1F
100
AcDbEntity
  8
0
  6
Continuous
 62
     7
370
    25
100
AcDbSpline
210
0.0
220
0.0
230
1.0
 70
    24
 71
     3
 72
     8
 73
     4
 74
     0
 42
0.00000001
 43
0.00000001
 40
0.0
 40
0.0
 40
0.0
 40
0.0
 40
1.0
 40
1.0
 40
1.0
 40
1.0
 10
125.2304130194075
 20
112.9538255732431
 30
0.0
 10
125.2813092526625
 20
112.9538255732431
 30
0.0
 10
125.3352432076262
 20
112.9538255732431
 30
0.0
 10
125.3918983476885
 20
112.9538255732431
 30
0.0
  0
SPLINE
  5
270
330
1F
100
AcDbEntity
  8
0
  6
Continuous
 62
     7
370
    25
100
AcDbSpline
210
0.0
220
0.0
230
1.0
 70
     8
 71
     3
 72
    10
 73
     6
 74
     0
 42
0.00000001
 43
0.00000001
 40
0.0
 40
0.0
 40
0.0
 40
0.0
 40
0.5
 40
0.5
 40
1.0
 40
1.0
 40
1.0
 40
1.0
 10
107.8918983476885
 20
113.2038255732431
 30
0.0
 10
107.9155705876
 20
113.1294551063176
 30
0.0
 10
107.9286645775353
 20
113.0651495100297
 30
0.0
 10
107.9287514449967
 20
112.9769267222238
 30
0.0
 10
107.9155816552374
 20
112.9538255732431
 30
0.0
 10
107.8918983476885
 20
112.9538255732431
 30
0.0
  0
SPLINE
  5
271
330
1F
100
AcDbEntity
  8
0
  6
Continuous
 62
     7
370
    25
100
AcDbSpline
210
0.0
220
0.0
230
1.0
 70
    24
 71
     3
 72
    12
 73
     8
 74
     0
 42
0.00000001
 43
0.00000001
 40
0.0
 40
0.0
 40
0.0
 40
0.0
 40
0.2500000000000001
 40
0.2500000000000001
 40
0.5000000000000001
 40
0.5000000000000001
 40
1.0
 40
1.0
 40
1.0
 40
1.0
 10
107.2141769424283
 20
112.9538255732431
 30
0.0
 10
107.2141769424283
 20
112.9538255732431
 30
0.0
 10
107.2301757474093
 20
112.9538255732431
 30
0.0
 10
107.2919458857237
 20
112.9538255732431
 30
0.0
 10
107.3376880100253
 20
112.9538255732431
 30
0.0
 10
107.5143581573722
 20
112.9538255732431
 30
0.0
 10
107.6846132228525
 20
112.9538255732431
 30
0.0
 10
107.8918983476885
 20
112.9538255732431
 30
0.0
  0
LINE
  5
272
330
1F
100
AcDbEntity
  8
0
  6
Continuous
 62
     7
370
    25
100
AcDbLine
 10
125.3918983477
 20
129.9538255732
 30
0.0
 11
129.8921179699
 21
129.9538255732
 31
0.0
  0
LINE
  5
273
330
1F
100
AcDbEntity
  8
0
  6
Continuous
 62
     7
370
    25
100
AcDbLine
 10
107.8918983477
 20
129.9538255732
 30
0.0
 11
112.0364555372
 21
129.9538255732
 31
0.0
  0
LINE
  5
274
330
1F
100
AcDbEntity
  8
0
  6
Continuous
 62
     7
370
    25
100
AcDbLine
 10
129.8921179699
 20
112.9538255732
 30
0.0
 11
125.3918983477
 21
112.9538255732
 31
0.0
  0
LINE
  5
275
330
1F
100
AcDbEntity
  8
0
  6
Continuous
 62
     7
370
    25
100
AcDbLine
 10
112.0364555372
 20
112.9538255732
 30
0.0
 11
107.8918983477
 21
112.9538255732
 31
0.0
  0
LINE
  5
276
330
1F
100
AcDbEntity
  8
0
  6
Continuous
 62
     7
370
    25
100
AcDbLine
 10
125.2304130194
 20
129.9538255732
 30
0.0
 11
112.1979408654
 21
129.9538255732
 31
0.0
  0
LINE
  5
277
330
1F
100
AcDbEntity
  8
0
  6
Continuous
 62
     7
370
    25
100
AcDbLine
 10
125.2304130194
 20
112.9538255732
 30
0.0
 11
112.1979408654
 21
112.9538255732
 31
0.0
  0
LINE
  5
278
330
1F
100
AcDbEntity
  8
0
  6
Continuous
 62
     7
370
    25
100
AcDbLine
 10
84.5141769424
 20
129.7038255732
 30
0.0
 11
84.5141769424
 21
124.9538255732
 31
0.0
  0
LINE
  5
279
330
1F
100
AcDbEntity
  8
0
  6
Continuous
 62
     7
370
    25
100
AcDbLine
 10
84.5141769424
 20
117.9538255732
 30
0.0
 11
84.5141769424
 21
113.2038255732
 31
0.0
  0
LINE
  5
27A
330
1F
100
AcDbEntity
  8
0
  6
Continuous
 62
     7
370
    25
100
AcDbLine
 10
86.4141769424
 20
129.2038255732
 30
0.0
 11
86.4141769424
 21
124.9538255732
 31
0.0
  0
LINE
  5
27B
330
1F
100
AcDbEntity
  8
0
  6
Continuous
 62
     7
370
    25
100
AcDbLine
 10
86.4141769424
 20
117.9538255732
 30
0.0
 11
86.4141769424
 21
113.7038255732
 31
0.0
  0
LINE
  5
27C
330
1F
100
AcDbEntity
  8
0
  6
Continuous
 62
     7
370
    25
100
AcDbLine
 10
129.8921179699
 20
121.2038255732
 30
0.0
 11
126.15998113
 21
121.2038255732
 31
0.0
  0
LINE
  5
27D
330
1F
100
AcDbEntity
  8
0
  6
Continuous
 62
     7
370
    25
100
AcDbLine
 10
126.15998113
 20
121.7038255732
 30
0.0
 11
129.8921179699
 21
121.7038255732
 31
0.0
  0
INSERT
  5
289
330
1F
100
AcDbEntity
  8
FORMAT
100
AcDbBlockReference
  2
SW_CENTERMARKSYMBOL_1
 10
118.7141769424
 20
121.4538255732
 30
0.0
  0
ENDSEC
  0
SECTION
  2
OBJECTS
  0
DICTIONARY
  5
C
330
0
100
AcDbDictionary
281
     1
  3
ACAD_GROUP
350
D
  3
ACAD_LAYOUT
350
1A
  3
ACAD_MLINESTYLE
350
17
  3
ACAD_PLOTSETTINGS
350
19
  3
ACAD_PLOTSTYLENAME
350
E
  3
ACAD_SCALELIST
350
47
  3
DWGPROPS
350
28A
  0
DICTIONARY
  5
D
102
{ACAD_REACTORS
330
C
102
}
330
C
100
AcDbDictionary
281
     1
  0
DICTIONARY
  5
1A
102
{ACAD_REACTORS
330
C
102
}
330
C
100
AcDbDictionary
281
     1
  3
Layout1
350
1E
  3
Layout2
350
26
  3
Model
350
22
  0
DICTIONARY
  5
17
102
{ACAD_REACTORS
330
C
102
}
330
C
100
AcDbDictionary
281
     1
  3
Standard
350
18
  0
DICTIONARY
  5
19
102
{ACAD_REACTORS
330
C
102
}
330
C
100
AcDbDictionary
281
     1
  0
ACDBDICTIONARYWDFLT
  5
E
102
{ACAD_REACTORS
330
C
102
}
330
C
100
AcDbDictionary
281
     1
  3
Normal
350
F
100
AcDbDictionaryWithDefault
340
F
  0
DICTIONARY
  5
47
102
{ACAD_REACTORS
330
C
102
}
330
C
100
AcDbDictionary
281
     1
  3
A0
350
48
  3
A1
350
49
  3
A2
350
4A
  3
A3
350
4B
  3
A4
350
4C
  3
A5
350
4D
  3
A6
350
4E
  3
A7
350
4F
  3
A8
350
50
  3
A9
350
51
  3
B0
350
52
  3
B1
350
53
  3
B2
350
54
  3
B3
350
55
  3
B4
350
56
  3
B5
350
57
  3
B6
350
58
  0
XRECORD
  5
28A
102
{ACAD_REACTORS
330
C
102
}
330
C
100
AcDbXrecord
280
     1
  1
DWGPROPS COOKIE
  2

  3

  4

  6

  7

  8
user28
  9

300
=
301
=
302
=
303
=
304
=
305
=
306
=
307
=
308
=
309
=
 40
0.0
 41
2460426.10603912
 42
2460426.106039896
  1

 90
        0
  0
LAYOUT
  5
1E
102
{ACAD_REACTORS
330
1A
102
}
330
1A
100
AcDbPlotSettings
  1

  2
none_device
  4

  6

 40
0.0
 41
0.0
 42
0.0
 43
0.0
 44
0.0
 45
0.0
 46
0.0
 47
0.0
 48
0.0
 49
0.0
140
0.0
141
0.0
142
1.0
143
1.0
 70
   688
 72
     1
 73
     0
 74
     5
  7

 75
    16
147
1.0
148
0.0
149
0.0
100
AcDbLayout
  1
Layout1
 70
     1
 71
     1
 10
0.0
 20
0.0
 11
420.0
 21
297.0
 12
0.0
 22
0.0
 32
0.0
 14
1.0000000000E+20
 24
1.0000000000E+20
 34
1.0000000000E+20
 15
-1.0000000000E+20
 25
-1.0000000000E+20
 35
-1.0000000000E+20
146
0.0
 13
0.0
 23
0.0
 33
0.0
 16
1.0
 26
0.0
 36
0.0
 17
0.0
 27
1.0
 37
0.0
 76
     0
330
1B
  0
LAYOUT
  5
26
102
{ACAD_REACTORS
330
1A
102
}
330
1A
100
AcDbPlotSettings
  1

  2
none_device
  4

  6

 40
0.0
 41
0.0
 42
0.0
 43
0.0
 44
0.0
 45
0.0
 46
0.0
 47
0.0
 48
0.0
 49
0.0
140
0.0
141
0.0
142
1.0
143
1.0
 70
   688
 72
     1
 73
     0
 74
     5
  7

 75
    16
147
1.0
148
0.0
149
0.0
100
AcDbLayout
  1
Layout2
 70
     1
 71
     2
 10
0.0
 20
0.0
 11
0.0
 21
0.0
 12
0.0
 22
0.0
 32
0.0
 14
0.0
 24
0.0
 34
0.0
 15
0.0
 25
0.0
 35
0.0
146
0.0
 13
0.0
 23
0.0
 33
0.0
 16
1.0
 26
0.0
 36
0.0
 17
0.0
 27
1.0
 37
0.0
 76
     0
330
23
  0
LAYOUT
  5
22
102
{ACAD_REACTORS
330
1A
102
}
330
1A
100
AcDbPlotSettings
  1

  2
none_device
  4
Letter_(8.50_x_11.00_Inches)
  6

 40
6.35
 41
6.35
 42
6.35000508
 43
6.35000508
 44
215.9
 45
279.4
 46
0.0
 47
0.0
 48
0.0
 49
0.0
140
0.0
141
0.0
142
1.0
143
1.0
 70
  1712
 72
     1
 73
     0
 74
     0
  7

 75
     0
147
1.0
148
0.0
149
0.0
100
AcDbLayout
  1
Model
 70
     1
 71
     0
 10
0.0
 20
0.0
 11
297.0
 21
210.0
 12
0.0
 22
0.0
 32
0.0
 14
0.0
 24
0.0
 34
0.0
 15
297.0
 25
210.0
 35
0.0
146
0.0
 13
0.0
 23
0.0
 33
0.0
 16
1.0
 26
0.0
 36
0.0
 17
0.0
 27
1.0
 37
0.0
 76
     0
330
1F
331
29
  0
MLINESTYLE
  5
18
102
{ACAD_REACTORS
330
17
102
}
330
17
100
AcDbMlineStyle
  2
Standard
 70
     0
  3

 62
   256
 51
90.0
 52
90.0
 71
     2
 49
0.5
 62
   256
  6
BYLAYER
 49
-0.5
 62
   256
  6
BYLAYER
  0
ACDBPLACEHOLDER
  5
F
102
{ACAD_REACTORS
330
E
102
}
330
E
  0
SCALE
  5
48
102
{ACAD_REACTORS
330
47
102
}
330
47
100
AcDbScale
 70
     0
300
1:1
140
1.0
141
1.0
290
     1
  0
SCALE
  5
49
102
{ACAD_REACTORS
330
47
102
}
330
47
100
AcDbScale
 70
     0
300
1:2
140
1.0
141
2.0
290
     0
  0
SCALE
  5
4A
102
{ACAD_REACTORS
330
47
102
}
330
47
100
AcDbScale
 70
     0
300
1:4
140
1.0
141
4.0
290
     0
  0
SCALE
  5
4B
102
{ACAD_REACTORS
330
47
102
}
330
47
100
AcDbScale
 70
     0
300
1:5
140
1.0
141
5.0
290
     0
  0
SCALE
  5
4C
102
{ACAD_REACTORS
330
47
102
}
330
47
100
AcDbScale
 70
     0
300
1:8
140
1.0
141
8.0
290
     0
  0
SCALE
  5
4D
102
{ACAD_REACTORS
330
47
102
}
330
47
100
AcDbScale
 70
     0
300
1:10
140
1.0
141
10.0
290
     0
  0
SCALE
  5
4E
102
{ACAD_REACTORS
330
47
102
}
330
47
100
AcDbScale
 70
     0
300
1:16
140
1.0
141
16.0
290
     0
  0
SCALE
  5
4F
102
{ACAD_REACTORS
330
47
102
}
330
47
100
AcDbScale
 70
     0
300
1:20
140
1.0
141
20.0
290
     0
  0
SCALE
  5
50
102
{ACAD_REACTORS
330
47
102
}
330
47
100
AcDbScale
 70
     0
300
1:30
140
1.0
141
30.0
290
     0
  0
SCALE
  5
51
102
{ACAD_REACTORS
330
47
102
}
330
47
100
AcDbScale
 70
     0
300
1:40
140
1.0
141
40.0
290
     0
  0
SCALE
  5
52
102
{ACAD_REACTORS
330
47
102
}
330
47
100
AcDbScale
 70
     0
300
1:50
140
1.0
141
50.0
290
     0
  0
SCALE
  5
53
102
{ACAD_REACTORS
330
47
102
}
330
47
100
AcDbScale
 70
     0
300
1:100
140
1.0
141
100.0
290
     0
  0
SCALE
  5
54
102
{ACAD_REACTORS
330
47
102
}
330
47
100
AcDbScale
 70
     0
300
2:1
140
2.0
141
1.0
290
     0
  0
SCALE
  5
55
102
{ACAD_REACTORS
330
47
102
}
330
47
100
AcDbScale
 70
     0
300
4:1
140
4.0
141
1.0
290
     0
  0
SCALE
  5
56
102
{ACAD_REACTORS
330
47
102
}
330
47
100
AcDbScale
 70
     0
300
8:1
140
8.0
141
1.0
290
     0
  0
SCALE
  5
57
102
{ACAD_REACTORS
330
47
102
}
330
47
100
AcDbScale
 70
     0
300
10:1
140
10.0
141
1.0
290
     0
  0
SCALE
  5
58
102
{ACAD_REACTORS
330
47
102
}
330
47
100
AcDbScale
 70
     0
300
100:1
140
100.0
141
1.0
290
     0
  0
ENDSEC
  0
EOF
