  0
SECTION
  2
HEADER
  9
$ACADVER
  1
AC1015
  9
$ACADMAINTVER
 70
     6
  9
$DWGCODEPAGE
  3
DOS932
  9
$INSBASE
 10
0.0
 20
0.0
 30
0.0
  9
$EXTMIN
 10
0.0
 20
0.0
 30
0.0
  9
$EXTMAX
 10
594.0
 20
420.0
 30
0.0
  9
$LIMMIN
 10
0.0
 20
0.0
  9
$LIMMAX
 10
594.0
 20
420.0
  9
$ORTHOMODE
 70
     0
  9
$REGENMODE
 70
     1
  9
$FILLMODE
 70
     1
  9
$QTEXTMODE
 70
     0
  9
$MIRRTEXT
 70
     1
  9
$LTSCALE
 40
2.0
  9
$ATTMODE
 70
     1
  9
$TEXTSIZE
 40
7.0555555556
  9
$TRACEWID
 40
1.0
  9
$TEXTSTYLE
  7
Standard
  9
$CLAYER
  8
0
  9
$CELTYPE
  6
ByLayer
  9
$CECOLOR
 62
   256
  9
$CELTSCALE
 40
1.0
  9
$DISPSILH
 70
     0
  9
$DIMSCALE
 40
1.0
  9
$DIMASZ
 40
5.45703125
  9
$DIMEXO
 40
2.0
  9
$DIMDLI
 40
3.75
  9
$DIMRND
 40
0.0
  9
$DIMDLE
 40
0.0
  9
$DIMEXE
 40
2.0
  9
$DIMTP
 40
0.0
  9
$DIMTM
 40
0.0
  9
$DIMTXT
 40
7.0555555556
  9
$DIMCEN
 40
2.5
  9
$DIMTSZ
 40
0.0
  9
$DIMTOL
 70
     0
  9
$DIMLIM
 70
     0
  9
$DIMTIH
 70
     1
  9
$DIMTOH
 70
     1
  9
$DIMSE1
 70
     0
  9
$DIMSE2
 70
     0
  9
$DIMTAD
 70
     1
  9
$DIMZIN
 70
     0
  9
$DIMBLK
  1

  9
$DIMASO
 70
     1
  9
$DIMSHO
 70
     1
  9
$DIMPOST
  1

  9
$DIMAPOST
  1

  9
$DIMALT
 70
     0
  9
$DIMALTD
 70
     3
  9
$DIMALTF
 40
0.0393700787
  9
$DIMLFAC
 40
1.0
  9
$DIMTOFL
 70
     1
  9
$DIMTVP
 40
0.0
  9
$DIMTIX
 70
     0
  9
$DIMSOXD
 70
     0
  9
$DIMSAH
 70
     0
  9
$DIMBLK1
  1

  9
$DIMBLK2
  1

  9
$DIMSTYLE
  2
ISO-25
  9
$DIMCLRD
 70
     0
  9
$DIMCLRE
 70
     0
  9
$DIMCLRT
 70
     0
  9
$DIMTFAC
 40
1.0
  9
$DIMGAP
 40
3.048
  9
$DIMJUST
 70
     0
  9
$DIMSD1
 70
     0
  9
$DIMSD2
 70
     0
  9
$DIMTOLJ
 70
     0
  9
$DIMTZIN
 70
     0
  9
$DIMALTZ
 70
     0
  9
$DIMALTTZ
 70
     0
  9
$DIMUPT
 70
     0
  9
$DIMDEC
 70
     2
  9
$DIMTDEC
 70
     2
  9
$DIMALTU
 70
     2
  9
$DIMALTTD
 70
     3
  9
$DIMTXSTY
  7
Standard
  9
$DIMAUNIT
 70
     0
  9
$DIMADEC
 70
     2
  9
$DIMALTRND
 40
0.0
  9
$DIMAZIN
 70
     0
  9
$DIMDSEP
 70
    44
  9
$DIMATFIT
 70
     3
  9
$DIMFRAC
 70
     0
  9
$DIMLDRBLK
  1

  9
$DIMLUNIT
 70
     2
  9
$DIMLWD
 70
    -2
  9
$DIMLWE
 70
    -2
  9
$DIMTMOVE
 70
     0
  9
$LUNITS
 70
     2
  9
$LUPREC
 70
     2
  9
$SKETCHINC
 40
1.0
  9
$FILLETRAD
 40
0.0
  9
$AUNITS
 70
     0
  9
$AUPREC
 70
     2
  9
$MENU
  1
.
  9
$ELEVATION
 40
0.0
  9
$PELEVATION
 40
0.0
  9
$THICKNESS
 40
0.0
  9
$LIMCHECK
 70
     0
  9
$CHAMFERA
 40
0.0
  9
$CHAMFERB
 40
0.0
  9
$CHAMFERC
 40
0.0
  9
$CHAMFERD
 40
0.0
  9
$SKPOLY
 70
     0
  9
$TDCREATE
 40
2460333.396120972
  9
$TDUCREATE
 40
2460333.021120972
  9
$TDUPDATE
 40
2460333.396121725
  9
$TDUUPDATE
 40
2460333.021121725
  9
$TDINDWG
 40
0.0000000116
  9
$TDUSRTIMER
 40
0.0000000116
  9
$USRTIMER
 70
     1
  9
$ANGBASE
 50
0.0
  9
$ANGDIR
 70
     0
  9
$PDMODE
 70
     0
  9
$PDSIZE
 40
-1.0
  9
$PLINEWID
 40
0.0
  9
$SPLFRAME
 70
     0
  9
$SPLINETYPE
 70
     6
  9
$SPLINESEGS
 70
     8
  9
$HANDSEED
  5
2E7
  9
$SURFTAB1
 70
     6
  9
$SURFTAB2
 70
     6
  9
$SURFTYPE
 70
     6
  9
$SURFU
 70
     6
  9
$SURFV
 70
     6
  9
$UCSBASE
  2

  9
$UCSNAME
  2

  9
$UCSORG
 10
0.0
 20
0.0
 30
0.0
  9
$UCSXDIR
 10
1.0
 20
0.0
 30
0.0
  9
$UCSYDIR
 10
0.0
 20
1.0
 30
0.0
  9
$UCSORTHOREF
  2

  9
$UCSORTHOVIEW
 70
     0
  9
$UCSORGTOP
 10
0.0
 20
0.0
 30
0.0
  9
$UCSORGBOTTOM
 10
0.0
 20
0.0
 30
0.0
  9
$UCSORGLEFT
 10
0.0
 20
0.0
 30
0.0
  9
$UCSORGRIGHT
 10
0.0
 20
0.0
 30
0.0
  9
$UCSORGFRONT
 10
0.0
 20
0.0
 30
0.0
  9
$UCSORGBACK
 10
0.0
 20
0.0
 30
0.0
  9
$PUCSBASE
  2

  9
$PUCSNAME
  2

  9
$PUCSORG
 10
0.0
 20
0.0
 30
0.0
  9
$PUCSXDIR
 10
1.0
 20
0.0
 30
0.0
  9
$PUCSYDIR
 10
0.0
 20
1.0
 30
0.0
  9
$PUCSORTHOREF
  2

  9
$PUCSORTHOVIEW
 70
     0
  9
$PUCSORGTOP
 10
0.0
 20
0.0
 30
0.0
  9
$PUCSORGBOTTOM
 10
0.0
 20
0.0
 30
0.0
  9
$PUCSORGLEFT
 10
0.0
 20
0.0
 30
0.0
  9
$PUCSORGRIGHT
 10
0.0
 20
0.0
 30
0.0
  9
$PUCSORGFRONT
 10
0.0
 20
0.0
 30
0.0
  9
$PUCSORGBACK
 10
0.0
 20
0.0
 30
0.0
  9
$USERI1
 70
     0
  9
$USERI2
 70
     0
  9
$USERI3
 70
     0
  9
$USERI4
 70
     0
  9
$USERI5
 70
     0
  9
$USERR1
 40
0.0
  9
$USERR2
 40
0.0
  9
$USERR3
 40
0.0
  9
$USERR4
 40
0.0
  9
$USERR5
 40
0.0
  9
$WORLDVIEW
 70
     1
  9
$SHADEDGE
 70
     3
  9
$SHADEDIF
 70
    70
  9
$TILEMODE
 70
     1
  9
$MAXACTVP
 70
    64
  9
$PINSBASE
 10
0.0
 20
0.0
 30
0.0
  9
$PLIMCHECK
 70
     0
  9
$PEXTMIN
 10
1.0000000000E+20
 20
1.0000000000E+20
 30
1.0000000000E+20
  9
$PEXTMAX
 10
-1.0000000000E+20
 20
-1.0000000000E+20
 30
-1.0000000000E+20
  9
$PLIMMIN
 10
0.0
 20
0.0
  9
$PLIMMAX
 10
420.0
 20
297.0
  9
$UNITMODE
 70
     0
  9
$VISRETAIN
 70
     1
  9
$PLINEGEN
 70
     0
  9
$PSLTSCALE
 70
     1
  9
$TREEDEPTH
 70
  3020
  9
$CMLSTYLE
  2
Standard
  9
$CMLJUST
 70
     0
  9
$CMLSCALE
 40
20.0
  9
$PROXYGRAPHICS
 70
     1
  9
$MEASUREMENT
 70
     1
  9
$CELWEIGHT
370
    -1
  9
$ENDCAPS
280
     0
  9
$JOINSTYLE
280
     0
  9
$LWDISPLAY
290
     1
  9
$INSUNITS
 70
     4
  9
$HYPERLINKBASE
  1

  9
$STYLESHEET
  1

  9
$XEDIT
290
     1
  9
$CEPSNTYPE
380
     0
  9
$PSTYLEMODE
290
     1
  9
$FINGERPRINTGUID
  2
{c4af8040-3af5-45c5-a878-8639b58ab450}
  9
$VERSIONGUID
  2
{FAEB1C32-E019-11D5-929B-00C0DF256EC4}
  9
$EXTNAMES
290
     1
  9
$PSVPSCALE
 40
0.0
  9
$OLESTARTUP
290
     0
  0
ENDSEC
  0
SECTION
  2
CLASSES
  0
CLASS
  1
ACDBDICTIONARYWDFLT
  2
AcDbDictionaryWithDefault
  3
ObjectDBX Classes
 90
        0
280
     0
281
     0
  0
CLASS
  1
VISUALSTYLE
  2
AcDbVisualStyle
  3
ObjectDBX Classes
 90
     4095
280
     0
281
     0
  0
CLASS
  1
MATERIAL
  2
AcDbMaterial
  3
ObjectDBX Classes
 90
     1153
280
     0
281
     0
  0
CLASS
  1
SCALE
  2
AcDbScale
  3
ObjectDBX Classes
 90
     1153
280
     0
281
     0
  0
CLASS
  1
TABLESTYLE
  2
AcDbTableStyle
  3
ObjectDBX Classes
 90
     4095
280
     0
281
     0
  0
CLASS
  1
MLEADERSTYLE
  2
AcDbMLeaderStyle
  3
ACDB_MLEADERSTYLE_CLASS
 90
     4095
280
     0
281
     0
  0
CLASS
  1
SUN
  2
AcDbSun
  3
SCENEOE
 90
     1153
280
     0
281
     0
  0
CLASS
  1
ACDBPLACEHOLDER
  2
AcDbPlaceHolder
  3
ObjectDBX Classes
 90
        0
280
     0
281
     0
  0
CLASS
  1
LAYOUT
  2
AcDbLayout
  3
ObjectDBX Classes
 90
        0
280
     0
281
     0
  0
ENDSEC
  0
SECTION
  2
TABLES
  0
TABLE
  2
VPORT
  5
8
330
0
100
AcDbSymbolTable
 70
     1
  0
VPORT
  5
29
330
8
100
AcDbSymbolTableRecord
100
AcDbViewportTableRecord
  2
*Active
 70
     0
 10
0.0
 20
0.0
 11
1.0
 21
1.0
 12
297.0
 22
210.0
 13
0.0
 23
0.0
 14
10.0
 24
10.0
 15
10.0
 25
10.0
 16
0.0
 26
0.0
 36
1.0
 17
0.0
 27
0.0
 37
0.0
 40
420.0
 41
1.4142857143
 42
50.0
 43
0.0
 44
0.0
 50
0.0
 51
0.0
 71
     0
 72
  2000
 73
     1
 74
     3
 75
     0
 76
     0
 77
     0
 78
     0
281
     0
 65
     1
110
0.0
120
0.0
130
0.0
111
1.0
121
0.0
131
0.0
112
0.0
122
1.0
132
0.0
 79
     0
146
0.0
  0
ENDTAB
  0
TABLE
  2
LTYPE
  5
5
330
0
100
AcDbSymbolTable
 70
     6
  0
LTYPE
  5
14
330
5
100
AcDbSymbolTableRecord
100
AcDbLinetypeTableRecord
  2
ByBlock
 70
     0
  3

 72
    65
 73
     0
 40
0.0
  0
LTYPE
  5
15
330
5
100
AcDbSymbolTableRecord
100
AcDbLinetypeTableRecord
  2
ByLayer
 70
     0
  3

 72
    65
 73
     0
 40
0.0
  0
LTYPE
  5
16
330
5
100
AcDbSymbolTableRecord
100
AcDbLinetypeTableRecord
  2
Continuous
 70
     0
  3
Solid line
 72
    65
 73
     0
 40
0.0
  0
LTYPE
  5
5E
330
5
100
AcDbSymbolTableRecord
100
AcDbLinetypeTableRecord
  2
HIDDEN
 70
     0
  3
Hidden __ __ __ __ __ __ __ __ __ __ __ __ __ __
 72
    65
 73
     2
 40
1.905
 49
1.27
 74
     0
 49
-0.635
 74
     0
  0
LTYPE
  5
5F
330
5
100
AcDbSymbolTableRecord
100
AcDbLinetypeTableRecord
  2
PHANTOM
 70
     0
  3
Phantom ______  __  __  ______  __  __  ______
 72
    65
 73
     6
 40
12.7
 49
6.35
 74
     0
 49
-1.27
 74
     0
 49
1.27
 74
     0
 49
-1.27
 74
     0
 49
1.27
 74
     0
 49
-1.27
 74
     0
  0
LTYPE
  5
60
330
5
100
AcDbSymbolTableRecord
100
AcDbLinetypeTableRecord
  2
CENTER
 70
     0
  3
Center ____ _ ____ _ ____ _ ____ _ ____ _ ____
 72
    65
 73
     4
 40
10.16
 49
6.35
 74
     0
 49
-1.27
 74
     0
 49
1.27
 74
     0
 49
-1.27
 74
     0
  0
LTYPE
  5
61
330
5
100
AcDbSymbolTableRecord
100
AcDbLinetypeTableRecord
  2
CENTERX2
 70
     0
  3
Center (2x) ________  __  ________  __  _____
 72
    65
 73
     4
 40
20.32
 49
12.7
 74
     0
 49
-2.54
 74
     0
 49
2.54
 74
     0
 49
-2.54
 74
     0
  0
LTYPE
  5
62
330
5
100
AcDbSymbolTableRecord
100
AcDbLinetypeTableRecord
  2
DOT2
 70
     0
  3
Dot (.5x) ........................................
 72
    65
 73
     2
 40
0.635
 49
0.0
 74
     0
 49
-0.635
 74
     0
  0
ENDTAB
  0
TABLE
  2
LAYER
  5
2
330
0
100
AcDbSymbolTable
 70
     2
  0
LAYER
  5
10
330
2
100
AcDbSymbolTableRecord
100
AcDbLayerTableRecord
  2
0
 70
     0
 62
     7
  6
Continuous
370
    -3
390
F
  0
LAYER
  5
63
330
2
100
AcDbSymbolTableRecord
100
AcDbLayerTableRecord
  2
FORMAT
 70
     0
 62
     7
  6
Continuous
370
    -3
390
F
  0
ENDTAB
  0
TABLE
  2
STYLE
  5
3
330
0
100
AcDbSymbolTable
 70
     2
  0
STYLE
  5
11
330
3
100
AcDbSymbolTableRecord
100
AcDbTextStyleTableRecord
  2
Standard
 70
     0
 40
0.0
 41
1.0
 50
0.0
 71
     0
 42
7.0555555556
  3
txt
  4
bigfont
  0
STYLE
  5
64
330
3
100
AcDbSymbolTableRecord
100
AcDbTextStyleTableRecord
  2
SLDTEXTSTYLE0
 70
     0
 40
0.0
 41
0.7
 50
0.0
 71
     0
 42
7.0555555556
  3
TXT
  4
bigfont
  0
ENDTAB
  0
TABLE
  2
VIEW
  5
6
330
0
100
AcDbSymbolTable
 70
     0
  0
ENDTAB
  0
TABLE
  2
UCS
  5
7
330
0
100
AcDbSymbolTable
 70
     0
  0
ENDTAB
  0
TABLE
  2
APPID
  5
9
330
0
100
AcDbSymbolTable
 70
     1
  0
APPID
  5
12
330
9
100
AcDbSymbolTableRecord
100
AcDbRegAppTableRecord
  2
ACAD
 70
     0
  0
ENDTAB
  0
TABLE
  2
DIMSTYLE
  5
A
330
0
100
AcDbSymbolTable
 70
     1
100
AcDbDimStyleTable
  0
DIMSTYLE
105
27
330
A
100
AcDbSymbolTableRecord
100
AcDbDimStyleTableRecord
  2
ISO-25
 70
     0
 41
2.5
 42
0.625
 43
3.75
 44
1.25
 73
     0
 74
     0
 77
     1
 78
     8
140
2.5
141
2.5
143
0.0393700787
147
0.625
171
     3
172
     1
178
     0
271
     2
272
     2
274
     3
278
    44
283
     0
284
     8
340
11
  0
ENDTAB
  0
TABLE
  2
BLOCK_RECORD
  5
1
330
0
100
AcDbSymbolTable
 70
     3
  0
BLOCK_RECORD
  5
1F
330
1
100
AcDbSymbolTableRecord
100
AcDbBlockTableRecord
  2
*Model_Space
340
22
  0
BLOCK_RECORD
  5
1B
330
1
100
AcDbSymbolTableRecord
100
AcDbBlockTableRecord
  2
*Paper_Space
340
1E
  0
BLOCK_RECORD
  5
23
330
1
100
AcDbSymbolTableRecord
100
AcDbBlockTableRecord
  2
*Paper_Space0
340
26
  0
BLOCK_RECORD
  5
20E
330
1
100
AcDbSymbolTableRecord
100
AcDbBlockTableRecord
  2
SW_CENTERMARKSYMBOL_0
340
0
102
{BLKREFS
331
219
102
}
  0
BLOCK_RECORD
  5
2D7
330
1
100
AcDbSymbolTableRecord
100
AcDbBlockTableRecord
  2
SW_CENTERMARKSYMBOL_1
340
0
102
{BLKREFS
331
2E2
102
}
  0
ENDTAB
  0
ENDSEC
  0
SECTION
  2
BLOCKS
  0
BLOCK
  5
20
330
1F
100
AcDbEntity
  8
0
100
AcDbBlockBegin
  2
*Model_Space
 70
     0
 10
0.0
 20
0.0
 30
0.0
  3
*Model_Space
  1

  0
ENDBLK
  5
21
330
1F
100
AcDbEntity
  8
0
100
AcDbBlockEnd
  0
BLOCK
  5
1C
330
1B
100
AcDbEntity
 67
     1
  8
0
100
AcDbBlockBegin
  2
*Paper_Space
 70
     0
 10
0.0
 20
0.0
 30
0.0
  3
*Paper_Space
  1

  0
ENDBLK
  5
1D
330
1B
100
AcDbEntity
 67
     1
  8
0
100
AcDbBlockEnd
  0
BLOCK
  5
24
330
23
100
AcDbEntity
  8
0
100
AcDbBlockBegin
  2
*Paper_Space0
 70
     0
 10
0.0
 20
0.0
 30
0.0
  3
*Paper_Space0
  1

  0
ENDBLK
  5
25
330
23
100
AcDbEntity
  8
0
100
AcDbBlockEnd
  0
BLOCK
  5
20F
330
20E
100
AcDbEntity
  8
0
100
AcDbBlockBegin
  2
SW_CENTERMARKSYMBOL_0
 70
     0
 10
0.0
 20
0.0
 30
0.0
  3
SW_CENTERMARKSYMBOL_0
  1

  0
LINE
  5
211
330
20E
100
AcDbEntity
  8
FORMAT
 62
     0
100
AcDbLine
 10
0.0
 20
0.0
 30
0.0
 11
0.0
 21
2.5
 31
0.0
  0
LINE
  5
212
330
20E
100
AcDbEntity
  8
FORMAT
 62
     0
100
AcDbLine
 10
0.0
 20
0.0
 30
0.0
 11
-2.5
 21
0.0
 31
0.0
  0
LINE
  5
213
330
20E
100
AcDbEntity
  8
FORMAT
 62
     0
100
AcDbLine
 10
0.0
 20
0.0
 30
0.0
 11
0.0
 21
-2.5
 31
0.0
  0
LINE
  5
214
330
20E
100
AcDbEntity
  8
FORMAT
 62
     0
100
AcDbLine
 10
0.0
 20
0.0
 30
0.0
 11
2.5
 21
0.0
 31
0.0
  0
LINE
  5
215
330
20E
100
AcDbEntity
  8
FORMAT
 62
     0
100
AcDbLine
 10
0.0
 20
5.0
 30
0.0
 11
0.0
 21
29.562332296
 31
0.0
  0
LINE
  5
216
330
20E
100
AcDbEntity
  8
FORMAT
 62
     0
100
AcDbLine
 10
-5.0
 20
0.0
 30
0.0
 11
-10.75
 21
0.0
 31
0.0
  0
LINE
  5
217
330
20E
100
AcDbEntity
  8
FORMAT
 62
     0
100
AcDbLine
 10
0.0
 20
-5.0
 30
0.0
 11
0.0
 21
-24.9363923111
 31
0.0
  0
LINE
  5
218
330
20E
100
AcDbEntity
  8
FORMAT
 62
     0
100
AcDbLine
 10
5.0
 20
0.0
 30
0.0
 11
10.75
 21
0.0
 31
0.0
  0
ENDBLK
  5
210
330
20E
100
AcDbEntity
  8
0
100
AcDbBlockEnd
  0
BLOCK
  5
2D8
330
2D7
100
AcDbEntity
  8
0
100
AcDbBlockBegin
  2
SW_CENTERMARKSYMBOL_1
 70
     0
 10
0.0
 20
0.0
 30
0.0
  3
SW_CENTERMARKSYMBOL_1
  1

  0
LINE
  5
2DA
330
2D7
100
AcDbEntity
  8
FORMAT
 62
     0
100
AcDbLine
 10
0.0
 20
0.0
 30
0.0
 11
0.0
 21
2.5
 31
0.0
  0
LINE
  5
2DB
330
2D7
100
AcDbEntity
  8
FORMAT
 62
     0
100
AcDbLine
 10
0.0
 20
0.0
 30
0.0
 11
-2.5
 21
0.0
 31
0.0
  0
LINE
  5
2DC
330
2D7
100
AcDbEntity
  8
FORMAT
 62
     0
100
AcDbLine
 10
0.0
 20
0.0
 30
0.0
 11
0.0
 21
-2.5
 31
0.0
  0
LINE
  5
2DD
330
2D7
100
AcDbEntity
  8
FORMAT
 62
     0
100
AcDbLine
 10
0.0
 20
0.0
 30
0.0
 11
2.5
 21
0.0
 31
0.0
  0
LINE
  5
2DE
330
2D7
100
AcDbEntity
  8
FORMAT
 62
     0
100
AcDbLine
 10
0.0
 20
5.0
 30
0.0
 11
0.0
 21
9.95
 31
0.0
  0
LINE
  5
2DF
330
2D7
100
AcDbEntity
  8
FORMAT
 62
     0
100
AcDbLine
 10
-5.0
 20
0.0
 30
0.0
 11
-58.8658661063
 21
0.0
 31
0.0
  0
LINE
  5
2E0
330
2D7
100
AcDbEntity
  8
FORMAT
 62
     0
100
AcDbLine
 10
0.0
 20
-5.0
 30
0.0
 11
0.0
 21
-9.95
 31
0.0
  0
LINE
  5
2E1
330
2D7
100
AcDbEntity
  8
FORMAT
 62
     0
100
AcDbLine
 10
5.0
 20
0.0
 30
0.0
 11
13.7148019319
 21
0.0
 31
0.0
  0
ENDBLK
  5
2D9
330
2D7
100
AcDbEntity
  8
0
100
AcDbBlockEnd
  0
ENDSEC
  0
SECTION
  2
ENTITIES
  0
MTEXT
  5
65
330
1F
100
AcDbEntity
  8
FORMAT
100
AcDbMText
 10
236.8690336732
 20
166.189554019
 30
0.0
 40
4.7625
 41
0.0
 71
     1
 72
     1
  1
エースボール　アングル型　BY-3310
  7
SLDTEXTSTYLE0
 73
     1
 44
1.0
  0
LINE
  5
66
330
1F
100
AcDbEntity
  8
0
  6
Continuous
 62
     7
370
    25
100
AcDbLine
 10
219.3858637133
 20
129.0754647704
 30
0.0
 11
218.4507553969
 21
127.4558096558
 31
0.0
  0
LINE
  5
67
330
1F
100
AcDbEntity
  8
0
  6
Continuous
 62
     7
370
    25
100
AcDbLine
 10
218.4507553969
 20
108.7558096558
 30
0.0
 11
219.3858637133
 21
107.1361545412
 31
0.0
  0
LINE
  5
68
330
1F
100
AcDbEntity
  8
0
  6
Continuous
 62
     7
370
    25
100
AcDbLine
 10
227.5156470804
 20
107.1361545412
 30
0.0
 11
228.4507553969
 21
108.7558096558
 31
0.0
  0
LINE
  5
69
330
1F
100
AcDbEntity
  8
0
  6
Continuous
 62
     7
370
    25
100
AcDbLine
 10
228.4507553969
 20
127.4558096558
 30
0.0
 11
227.5156470804
 21
129.0754647704
 31
0.0
  0
LINE
  5
6A
330
1F
100
AcDbEntity
  8
0
  6
Continuous
 62
     7
370
    25
100
AcDbLine
 10
216.7507553969
 20
108.7558096558
 30
0.0
 11
218.4507553969
 21
108.7558096558
 31
0.0
  0
LINE
  5
6B
330
1F
100
AcDbEntity
  8
0
  6
Continuous
 62
     7
370
    25
100
AcDbLine
 10
218.4507553969
 20
127.4558096558
 30
0.0
 11
216.7507553969
 21
127.4558096558
 31
0.0
  0
LINE
  5
6C
330
1F
100
AcDbEntity
  8
0
  6
Continuous
 62
     7
370
    25
100
AcDbLine
 10
230.1507553969
 20
127.4558096558
 30
0.0
 11
228.4507553969
 21
127.4558096558
 31
0.0
  0
LINE
  5
6D
330
1F
100
AcDbEntity
  8
0
  6
Continuous
 62
     7
370
    25
100
AcDbLine
 10
228.4507553969
 20
108.7558096558
 30
0.0
 11
230.1507553969
 21
108.7558096558
 31
0.0
  0
ARC
  5
6E
330
1F
100
AcDbEntity
  8
0
  6
Continuous
 62
     7
370
    25
100
AcDbCircle
 10
230.1507553969
 20
109.0558096558
 30
0.0
 40
0.2999999999999972
100
AcDbArc
 50
270.0
 51
360.0
  0
ARC
  5
6F
330
1F
100
AcDbEntity
  8
0
  6
Continuous
 62
     7
370
    25
100
AcDbCircle
 10
230.1507553969
 20
127.1558096558
 30
0.0
 40
0.2999999999999972
100
AcDbArc
 50
0.0
 51
90.0
  0
ARC
  5
70
330
1F
100
AcDbEntity
  8
0
  6
Continuous
 62
     7
370
    25
100
AcDbCircle
 10
216.7507553969
 20
109.0558096558
 30
0.0
 40
0.2999999999999972
100
AcDbArc
 50
180.0
 51
270.0
  0
ARC
  5
71
330
1F
100
AcDbEntity
  8
0
  6
Continuous
 62
     7
370
    25
100
AcDbCircle
 10
216.7507553969
 20
127.1558096558
 30
0.0
 40
0.2999999999999972
100
AcDbArc
 50
90.0
 51
180.0
  0
LINE
  5
72
330
1F
100
AcDbEntity
  8
0
  6
Continuous
 62
     7
370
    25
100
AcDbLine
 10
211.9507553969
 20
123.3558096558
 30
0.0
 11
207.9507553969
 21
122.6058096558
 31
0.0
  0
LINE
  5
73
330
1F
100
AcDbEntity
  8
0
  6
Continuous
 62
     7
370
    25
100
AcDbLine
 10
207.9507553969
 20
113.6058096558
 30
0.0
 11
211.9507553969
 21
112.8558096558
 31
0.0
  0
LINE
  5
74
330
1F
100
AcDbEntity
  8
0
  6
Continuous
 62
     7
370
    25
100
AcDbLine
 10
211.9507553969
 20
112.8558096558
 30
0.0
 11
216.4507553969
 21
112.8558096558
 31
0.0
  0
LINE
  5
75
330
1F
100
AcDbEntity
  8
0
  6
Continuous
 62
     7
370
    25
100
AcDbLine
 10
216.4507553969
 20
123.3558096558
 30
0.0
 11
211.9507553969
 21
123.3558096558
 31
0.0
  0
LINE
  5
76
330
1F
100
AcDbEntity
  8
0
  6
Continuous
 62
     7
370
    25
100
AcDbLine
 10
195.9507553969
 20
123.3558096558
 30
0.0
 11
190.4536125397
 21
122.6686667986
 31
0.0
  0
LINE
  5
77
330
1F
100
AcDbEntity
  8
0
  6
Continuous
 62
     7
370
    25
100
AcDbLine
 10
190.4536125397
 20
113.5429525129
 30
0.0
 11
195.9507553969
 21
112.8558096558
 31
0.0
  0
LINE
  5
78
330
1F
100
AcDbEntity
  8
0
  6
Continuous
 62
     7
370
    25
100
AcDbLine
 10
203.9507553969
 20
123.3558096558
 30
0.0
 11
199.9507553969
 21
122.6058096558
 31
0.0
  0
LINE
  5
79
330
1F
100
AcDbEntity
  8
0
  6
Continuous
 62
     7
370
    25
100
AcDbLine
 10
199.9507553969
 20
113.6058096558
 30
0.0
 11
203.9507553969
 21
112.8558096558
 31
0.0
  0
LINE
  5
7A
330
1F
100
AcDbEntity
  8
0
  6
Continuous
 62
     7
370
    25
100
AcDbLine
 10
207.9507553969
 20
123.3558096558
 30
0.0
 11
203.9507553969
 21
122.6058096558
 31
0.0
  0
LINE
  5
7B
330
1F
100
AcDbEntity
  8
0
  6
Continuous
 62
     7
370
    25
100
AcDbLine
 10
203.9507553969
 20
113.6058096558
 30
0.0
 11
207.9507553969
 21
112.8558096558
 31
0.0
  0
LINE
  5
7C
330
1F
100
AcDbEntity
  8
0
  6
Continuous
 62
     7
370
    25
100
AcDbLine
 10
199.9507553969
 20
123.3558096558
 30
0.0
 11
195.9507553969
 21
122.6058096558
 31
0.0
  0
LINE
  5
7D
330
1F
100
AcDbEntity
  8
0
  6
Continuous
 62
     7
370
    25
100
AcDbLine
 10
195.9507553969
 20
113.6058096558
 30
0.0
 11
199.9507553969
 21
112.8558096558
 31
0.0
  0
LINE
  5
7E
330
1F
100
AcDbEntity
  8
0
  6
Continuous
 62
     7
370
    25
100
AcDbLine
 10
190.4536125397
 20
122.6686667986
 30
0.0
 11
189.9507553969
 21
122.1658096558
 31
0.0
  0
LINE
  5
7F
330
1F
100
AcDbEntity
  8
0
  6
Continuous
 62
     7
370
    25
100
AcDbLine
 10
189.9507553969
 20
114.0458096558
 30
0.0
 11
190.4536125397
 21
113.5429525129
 31
0.0
  0
LINE
  5
80
330
1F
100
AcDbEntity
  8
0
  6
Continuous
 62
     7
370
    25
100
AcDbLine
 10
235.6598588625
 20
126.6058096558
 30
0.0
 11
232.6598588625
 21
126.6058096558
 31
0.0
  0
LINE
  5
81
330
1F
100
AcDbEntity
  8
0
  6
Continuous
 62
     7
370
    25
100
AcDbLine
 10
232.6598588625
 20
109.6058096558
 30
0.0
 11
235.6598588625
 21
109.6058096558
 31
0.0
  0
LINE
  5
82
330
1F
100
AcDbEntity
  8
0
  6
Continuous
 62
     7
370
    25
100
AcDbLine
 10
232.6598588625
 20
126.4368096558
 30
0.0
 11
230.4507553969
 21
126.4368096558
 31
0.0
  0
LINE
  5
83
330
1F
100
AcDbEntity
  8
0
  6
Continuous
 62
     7
370
    25
100
AcDbLine
 10
230.4507553969
 20
109.7748096558
 30
0.0
 11
232.6598588625
 21
109.7748096558
 31
0.0
  0
LINE
  5
84
330
1F
100
AcDbEntity
  8
0
  6
Continuous
 62
     7
370
    25
100
AcDbLine
 10
258.3009901154
 20
108.3682053487
 30
0.0
 11
259.1598588625
 21
109.8558096558
 31
0.0
  0
LINE
  5
85
330
1F
100
AcDbEntity
  8
0
  6
Continuous
 62
     7
370
    25
100
AcDbLine
 10
259.1598588625
 20
126.3558096558
 30
0.0
 11
258.3009901154
 21
127.8434139628
 31
0.0
  0
LINE
  5
86
330
1F
100
AcDbEntity
  8
0
  6
Continuous
 62
     7
370
    25
100
AcDbLine
 10
238.6335463625
 20
107.6058096558
 30
0.0
 11
238.9591828679
 21
97.1854414818
 31
0.0
  0
LINE
  5
87
330
1F
100
AcDbEntity
  8
0
  6
Continuous
 62
     7
370
    25
100
AcDbLine
 10
255.360534857
 20
97.1854414818
 30
0.0
 11
255.6861713625
 21
107.6058096558
 31
0.0
  0
LINE
  5
88
330
1F
100
AcDbEntity
  8
0
  6
Continuous
 62
     7
370
    25
100
AcDbLine
 10
238.9591828679
 20
97.1854414818
 30
0.0
 11
240.1598588625
 21
95.1058096558
 31
0.0
  0
LINE
  5
89
330
1F
100
AcDbEntity
  8
0
  6
Continuous
 62
     7
370
    25
100
AcDbLine
 10
254.1598588625
 20
95.1058096558
 30
0.0
 11
255.360534857
 21
97.1854414818
 31
0.0
  0
SPLINE
  5
8A
330
1F
100
AcDbEntity
  8
0
  6
Continuous
 62
     7
370
    25
100
AcDbSpline
210
0.0
220
0.0
230
1.0
 70
     8
 71
     3
 72
    12
 73
     8
 74
     0
 42
0.00000001
 43
0.00000001
 40
0.0
 40
0.0
 40
0.0
 40
0.0
 40
0.1191260528789591
 40
0.3912449648629128
 40
0.6705291291232199
 40
0.9807392426024273
 40
1.0
 40
1.0
 40
1.0
 40
1.0
 10
241.2686984211487
 20
127.6054462936503
 30
0.0
 10
241.2702640178071
 20
127.5742463758115
 30
0.0
 10
241.2754058973103
 20
127.4717766770046
 30
0.0
 10
241.2377963284388
 20
127.2969961353143
 30
0.0
 10
241.148319712428
 20
127.0907271727654
 30
0.0
 10
241.0603304547369
 20
126.9522490514639
 30
0.0
 10
240.9943090818043
 20
126.8966559334809
 30
0.0
 10
240.9904494943279
 20
126.8934059783162
 30
0.0
  0
SPLINE
  5
8B
330
1F
100
AcDbEntity
  8
0
  6
Continuous
 62
     7
370
    25
100
AcDbSpline
210
0.0
220
0.0
230
1.0
 70
     8
 71
     3
 72
    12
 73
     8
 74
     0
 42
0.00000001
 43
0.00000001
 40
0.0
 40
0.0
 40
0.0
 40
0.0
 40
0.1395822517407616
 40
0.4487757828411712
 40
0.7276346527753924
 40
0.9824244643568177
 40
1.0
 40
1.0
 40
1.0
 40
1.0
 10
253.3466539205261
 20
126.9120950917846
 30
0.0
 10
253.3209333900718
 20
126.93681966058
 30
0.0
 10
253.2382384124095
 20
127.0163124870549
 30
0.0
 10
253.1448765664126
 20
127.1812770609758
 30
0.0
 10
253.0786704669117
 20
127.3853201791566
 30
0.0
 10
253.0546029518071
 20
127.5265353323839
 30
0.0
 10
253.0599457142314
 20
127.5958254917725
 30
0.0
 10
253.0602904787632
 20
127.6002967348233
 30
0.0
  0
LINE
  5
8C
330
1F
100
AcDbEntity
  8
0
  6
Continuous
 62
     7
370
    25
100
AcDbLine
 10
253.0598588625
 20
127.6012788357
 30
0.0
 11
253.0598588625
 21
128.6058096558
 31
0.0
  0
LINE
  5
8D
330
1F
100
AcDbEntity
  8
0
  6
Continuous
 62
     7
370
    25
100
AcDbLine
 10
241.2598588625
 20
128.6058096558
 30
0.0
 11
241.2598588625
 21
127.6058096558
 31
0.0
  0
LINE
  5
8E
330
1F
100
AcDbEntity
  8
0
  6
Continuous
 62
     7
370
    25
100
AcDbLine
 10
240.9896919551
 20
126.9005473851
 30
0.0
 11
240.4453276827
 21
127.8434139628
 31
0.0
  0
LINE
  5
8F
330
1F
100
AcDbEntity
  8
0
  6
Continuous
 62
     7
370
    25
100
AcDbLine
 10
253.8743900423
 20
127.8434139628
 30
0.0
 11
253.3300257698
 21
126.9005473851
 31
0.0
  0
LINE
  5
90
330
1F
100
AcDbEntity
  8
0
  6
Continuous
 62
     7
370
    25
100
AcDbLine
 10
236.3743900423
 20
127.8434139628
 30
0.0
 11
235.6598588625
 21
126.6058096558
 31
0.0
  0
LINE
  5
91
330
1F
100
AcDbEntity
  8
0
  6
Continuous
 62
     7
370
    25
100
AcDbLine
 10
235.6598588625
 20
109.6058096558
 30
0.0
 11
236.3743900423
 21
108.3682053487
 31
0.0
  0
LINE
  5
92
330
1F
100
AcDbEntity
  8
0
  6
Continuous
 62
     7
370
    25
100
AcDbLine
 10
256.8974631695
 20
108.3682053487
 30
0.0
 11
258.3035581708
 21
108.3682053487
 31
0.0
  0
LINE
  5
93
330
1F
100
AcDbEntity
  8
0
  6
Continuous
 62
     7
370
    25
100
AcDbLine
 10
256.8974631695
 20
107.6058096558
 30
0.0
 11
256.8974631695
 21
108.3682053487
 31
0.0
  0
LINE
  5
94
330
1F
100
AcDbEntity
  8
0
  6
Continuous
 62
     7
370
    25
100
AcDbLine
 10
240.4478957381
 20
127.8434139628
 30
0.0
 11
236.371829661
 21
127.8434139628
 31
0.0
  0
LINE
  5
95
330
1F
100
AcDbEntity
  8
0
  6
Continuous
 62
     7
370
    25
100
AcDbLine
 10
258.3035581708
 20
127.8434139628
 30
0.0
 11
253.8718219868
 21
127.8434139628
 31
0.0
  0
LINE
  5
96
330
1F
100
AcDbEntity
  8
0
  6
Continuous
 62
     7
370
    25
100
AcDbLine
 10
236.371829661
 20
108.3682053487
 30
0.0
 11
237.4222545554
 21
108.3682053487
 31
0.0
  0
LINE
  5
97
330
1F
100
AcDbEntity
  8
0
  6
Continuous
 62
     7
370
    25
100
AcDbLine
 10
237.4222545554
 20
108.3682053487
 30
0.0
 11
237.4222545554
 21
107.6058096558
 31
0.0
  0
LINE
  5
98
330
1F
100
AcDbEntity
  8
0
  6
Continuous
 62
     7
370
    25
100
AcDbLine
 10
254.1598588625
 20
128.6058096558
 30
0.0
 11
254.6098588625
 21
136.6058096558
 31
0.0
  0
LINE
  5
99
330
1F
100
AcDbEntity
  8
0
  6
Continuous
 62
     7
370
    25
100
AcDbLine
 10
254.6098588625
 20
136.6058096558
 30
0.0
 11
252.6598588625
 21
144.6058096558
 31
0.0
  0
LINE
  5
9A
330
1F
100
AcDbEntity
  8
0
  6
Continuous
 62
     7
370
    25
100
AcDbLine
 10
240.0892022367
 20
129.8619274471
 30
0.0
 11
240.1598588625
 21
128.6058096558
 31
0.0
  0
LINE
  5
9B
330
1F
100
AcDbEntity
  8
0
  6
Continuous
 62
     7
370
    25
100
AcDbLine
 10
241.6598588625
 20
144.6058096558
 30
0.0
 11
241.4066273279
 21
143.5669110526
 31
0.0
  0
SPLINE
  5
9C
330
1F
100
AcDbEntity
  8
0
  6
Continuous
 62
     7
370
    25
100
AcDbSpline
210
0.0
220
0.0
230
1.0
 70
     8
 71
     3
 72
    15
 73
    11
 74
     0
 42
0.00000001
 43
0.00000001
 40
0.0
 40
0.0
 40
0.0
 40
0.0
 40
0.1323056949471115
 40
0.264573981964715
 40
0.3998011884071367
 40
0.5350039926534295
 40
0.6501943985256676
 40
0.7654027729264451
 40
0.8826900467077622
 40
1.0
 40
1.0
 40
1.0
 40
1.0
 10
227.5156470804487
 20
112.6209820984746
 30
0.0
 10
227.6448139408823
 20
112.384014903643
 30
0.0
 10
227.9031111412897
 20
111.9101475137574
 30
0.0
 10
228.1810286504247
 20
111.1804335877792
 30
0.0
 10
228.3481319799796
 20
110.4369643751223
 30
0.0
 10
228.3812242736727
 20
109.7204279426121
 30
0.0
 10
228.2953636624329
 20
109.0426040520555
 30
0.0
 10
228.1194352090352
 20
108.4029069354277
 30
0.0
 10
227.8613684448555
 20
107.7661021012134
 30
0.0
 10
227.6308949622013
 20
107.3461505940188
 30
0.0
 10
227.5156470804487
 20
107.1361545411731
 30
0.0
  0
LINE
  5
9D
330
1F
100
AcDbEntity
  8
0
  6
Continuous
 62
     7
370
    25
100
AcDbLine
 10
219.3858637133
 20
107.1361545412
 30
0.0
 11
227.5156470804
 21
107.1361545412
 31
0.0
  0
SPLINE
  5
9E
330
1F
100
AcDbEntity
  8
0
  6
Continuous
 62
     7
370
    25
100
AcDbSpline
210
0.0
220
0.0
230
1.0
 70
     8
 71
     3
 72
    15
 73
    11
 74
     0
 42
0.00000001
 43
0.00000001
 40
0.0
 40
0.0
 40
0.0
 40
0.0
 40
0.1323056949471116
 40
0.2645739819647152
 40
0.3998011884071369
 40
0.5350039926534295
 40
0.6501943985256675
 40
0.765402772926445
 40
0.8826900467077622
 40
1.0
 40
1.0
 40
1.0
 40
1.0
 10
219.3858637132693
 20
112.6209820984746
 30
0.0
 10
219.2566968528357
 20
112.384014903643
 30
0.0
 10
218.9983996524283
 20
111.9101475137574
 30
0.0
 10
218.7204821432934
 20
111.1804335877792
 30
0.0
 10
218.5533788137384
 20
110.4369643751223
 30
0.0
 10
218.5202865200453
 20
109.7204279426121
 30
0.0
 10
218.6061471312852
 20
109.0426040520555
 30
0.0
 10
218.7820755846828
 20
108.4029069354277
 30
0.0
 10
219.0401423488626
 20
107.7661021012134
 30
0.0
 10
219.2706158315167
 20
107.3461505940188
 30
0.0
 10
219.3858637132693
 20
107.1361545411731
 30
0.0
  0
LINE
  5
9F
330
1F
100
AcDbEntity
  8
0
  6
Continuous
 62
     7
370
    25
100
AcDbLine
 10
219.3858637133
 20
112.6209820985
 30
0.0
 11
227.5156470804
 21
112.6209820985
 31
0.0
  0
SPLINE
  5
A0
330
1F
100
AcDbEntity
  8
0
  6
Continuous
 62
     7
370
    25
100
AcDbSpline
210
0.0
220
0.0
230
1.0
 70
     8
 71
     3
 72
    15
 73
    11
 74
     0
 42
0.00000001
 43
0.00000001
 40
0.0
 40
0.0
 40
0.0
 40
0.0
 40
0.1323056949471132
 40
0.2645739819647182
 40
0.3998011884071416
 40
0.5350039926534358
 40
0.6501943985256725
 40
0.7654027729264483
 40
0.8826900467077637
 40
1.0
 40
1.0
 40
1.0
 40
1.0
 10
219.3858637132693
 20
129.0754647703789
 30
0.0
 10
219.2566968528357
 20
128.8384975755473
 30
0.0
 10
218.9983996524283
 20
128.3646301856617
 30
0.0
 10
218.7204821432934
 20
127.6349162596835
 30
0.0
 10
218.5533788137384
 20
126.8914470470266
 30
0.0
 10
218.5202865200453
 20
126.1749106145164
 30
0.0
 10
218.6061471312852
 20
125.4970867239599
 30
0.0
 10
218.7820755846828
 20
124.8573896073322
 30
0.0
 10
219.0401423488625
 20
124.2205847731178
 30
0.0
 10
219.2706158315167
 20
123.8006332659233
 30
0.0
 10
219.3858637132693
 20
123.5906372130775
 30
0.0
  0
SPLINE
  5
A1
330
1F
100
AcDbEntity
  8
0
  6
Continuous
 62
     7
370
    25
100
AcDbSpline
210
0.0
220
0.0
230
1.0
 70
     8
 71
     3
 72
    15
 73
    11
 74
     0
 42
0.00000001
 43
0.00000001
 40
0.0
 40
0.0
 40
0.0
 40
0.0
 40
0.1859340646112758
 40
0.2797722834992567
 40
0.3736006606664237
 40
0.4988283314689407
 40
0.6240557756286883
 40
0.7526217100068395
 40
0.8812229730944863
 40
1.0
 40
1.0
 40
1.0
 40
1.0
 10
219.3858637132693
 20
123.5906372130775
 30
0.0
 10
219.2075215603608
 20
122.9234144144571
 30
0.0
 10
218.9391727160126
 20
121.9194539709362
 30
0.0
 10
218.707071051592
 20
120.5512402738997
 30
0.0
 10
218.5726904408058
 20
119.3971520852966
 30
0.0
 10
218.5185535606502
 20
118.1188139517625
 30
0.0
 10
218.5759266488859
 20
116.7114724457167
 30
0.0
 10
218.7546398577041
 20
115.3020348528748
 30
0.0
 10
219.0262900327402
 20
113.9319343281287
 30
0.0
 10
219.269221701654
 20
113.0462415473127
 30
0.0
 10
219.3858637132693
 20
112.6209820984746
 30
0.0
  0
LINE
  5
A2
330
1F
100
AcDbEntity
  8
0
  6
Continuous
 62
     7
370
    25
100
AcDbLine
 10
218.4507553969
 20
127.4558096558
 30
0.0
 11
218.4507553969
 21
108.7558096558
 31
0.0
  0
SPLINE
  5
A3
330
1F
100
AcDbEntity
  8
0
  6
Continuous
 62
     7
370
    25
100
AcDbSpline
210
0.0
220
0.0
230
1.0
 70
     8
 71
     3
 72
    15
 73
    11
 74
     0
 42
0.00000001
 43
0.00000001
 40
0.0
 40
0.0
 40
0.0
 40
0.0
 40
0.1859340646112759
 40
0.2797722834992568
 40
0.3736006606664237
 40
0.4988283314689407
 40
0.6240557756286882
 40
0.7526217100068395
 40
0.8812229730944862
 40
1.0
 40
1.0
 40
1.0
 40
1.0
 10
227.5156470804487
 20
123.5906372130775
 30
0.0
 10
227.6939892333572
 20
122.9234144144571
 30
0.0
 10
227.9623380777054
 20
121.9194539709362
 30
0.0
 10
228.194439742126
 20
120.5512402738997
 30
0.0
 10
228.3288203529123
 20
119.3971520852966
 30
0.0
 10
228.3829572330678
 20
118.1188139517625
 30
0.0
 10
228.3255841448321
 20
116.7114724457167
 30
0.0
 10
228.1468709360139
 20
115.3020348528748
 30
0.0
 10
227.8752207609778
 20
113.9319343281288
 30
0.0
 10
227.632289092064
 20
113.0462415473127
 30
0.0
 10
227.5156470804487
 20
112.6209820984746
 30
0.0
  0
LINE
  5
A4
330
1F
100
AcDbEntity
  8
0
  6
Continuous
 62
     7
370
    25
100
AcDbLine
 10
219.3858637133
 20
123.5906372131
 30
0.0
 11
227.5156470804
 21
123.5906372131
 31
0.0
  0
SPLINE
  5
A5
330
1F
100
AcDbEntity
  8
0
  6
Continuous
 62
     7
370
    25
100
AcDbSpline
210
0.0
220
0.0
230
1.0
 70
     8
 71
     3
 72
    15
 73
    11
 74
     0
 42
0.00000001
 43
0.00000001
 40
0.0
 40
0.0
 40
0.0
 40
0.0
 40
0.1323056949471132
 40
0.2645739819647182
 40
0.3998011884071416
 40
0.5350039926534359
 40
0.6501943985256727
 40
0.7654027729264484
 40
0.8826900467077637
 40
1.0
 40
1.0
 40
1.0
 40
1.0
 10
227.5156470804487
 20
129.0754647703789
 30
0.0
 10
227.6448139408823
 20
128.8384975755473
 30
0.0
 10
227.9031111412897
 20
128.3646301856617
 30
0.0
 10
228.1810286504247
 20
127.6349162596835
 30
0.0
 10
228.3481319799796
 20
126.8914470470266
 30
0.0
 10
228.3812242736727
 20
126.1749106145164
 30
0.0
 10
228.2953636624328
 20
125.4970867239599
 30
0.0
 10
228.1194352090352
 20
124.8573896073322
 30
0.0
 10
227.8613684448555
 20
124.2205847731178
 30
0.0
 10
227.6308949622013
 20
123.8006332659233
 30
0.0
 10
227.5156470804487
 20
123.5906372130775
 30
0.0
  0
LINE
  5
A6
330
1F
100
AcDbEntity
  8
0
  6
Continuous
 62
     7
370
    25
100
AcDbLine
 10
228.4507553969
 20
127.4558096558
 30
0.0
 11
228.4507553969
 21
108.7558096558
 31
0.0
  0
LINE
  5
A7
330
1F
100
AcDbEntity
  8
0
  6
Continuous
 62
     7
370
    25
100
AcDbLine
 10
219.3858637133
 20
129.0754647704
 30
0.0
 11
227.5156470804
 21
129.0754647704
 31
0.0
  0
LINE
  5
A8
330
1F
100
AcDbEntity
  8
0
  6
Continuous
 62
     7
370
    25
100
AcDbLine
 10
230.4507553969
 20
118.1058096558
 30
0.0
 11
230.4507553969
 21
109.0558096558
 31
0.0
  0
LINE
  5
A9
330
1F
100
AcDbEntity
  8
0
  6
Continuous
 62
     7
370
    25
100
AcDbLine
 10
230.4507553969
 20
127.1558096558
 30
0.0
 11
230.4507553969
 21
118.1058096558
 31
0.0
  0
LINE
  5
AA
330
1F
100
AcDbEntity
  8
0
  6
Continuous
 62
     7
370
    25
100
AcDbLine
 10
216.4507553969
 20
118.1058096558
 30
0.0
 11
216.4507553969
 21
127.1558096558
 31
0.0
  0
LINE
  5
AB
330
1F
100
AcDbEntity
  8
0
  6
Continuous
 62
     7
370
    25
100
AcDbLine
 10
216.4507553969
 20
109.0558096558
 30
0.0
 11
216.4507553969
 21
118.1058096558
 31
0.0
  0
LINE
  5
AC
330
1F
100
AcDbEntity
  8
0
  6
Continuous
 62
     7
370
    25
100
AcDbLine
 10
211.9507553969
 20
122.9553817678
 30
0.0
 11
211.9507553969
 21
123.3558096558
 31
0.0
  0
LINE
  5
AD
330
1F
100
AcDbEntity
  8
0
  6
Continuous
 62
     7
370
    25
100
AcDbLine
 10
211.9507553969
 20
112.8558096558
 30
0.0
 11
211.9507553969
 21
122.9553817678
 31
0.0
  0
LINE
  5
AE
330
1F
100
AcDbEntity
  8
0
  6
Continuous
 62
     7
370
    25
100
AcDbLine
 10
190.4536125397
 20
122.320648656
 30
0.0
 11
190.4536125397
 21
113.5429525129
 31
0.0
  0
LINE
  5
AF
330
1F
100
AcDbEntity
  8
0
  6
Continuous
 62
     7
370
    25
100
AcDbLine
 10
190.4536125397
 20
122.6686667986
 30
0.0
 11
190.4536125397
 21
122.320648656
 31
0.0
  0
LINE
  5
B0
330
1F
100
AcDbEntity
  8
0
  6
Continuous
 62
     7
370
    25
100
AcDbLine
 10
195.9507553969
 20
122.9553817678
 30
0.0
 11
195.9507553969
 21
123.3558096558
 31
0.0
  0
LINE
  5
B1
330
1F
100
AcDbEntity
  8
0
  6
Continuous
 62
     7
370
    25
100
AcDbLine
 10
195.9507553969
 20
112.8558096558
 30
0.0
 11
195.9507553969
 21
122.9553817678
 31
0.0
  0
LINE
  5
B2
330
1F
100
AcDbEntity
  8
0
  6
Continuous
 62
     7
370
    25
100
AcDbLine
 10
203.9507553969
 20
122.9553817678
 30
0.0
 11
203.9507553969
 21
123.3558096558
 31
0.0
  0
LINE
  5
B3
330
1F
100
AcDbEntity
  8
0
  6
Continuous
 62
     7
370
    25
100
AcDbLine
 10
203.9507553969
 20
112.8558096558
 30
0.0
 11
203.9507553969
 21
122.9553817678
 31
0.0
  0
LINE
  5
B4
330
1F
100
AcDbEntity
  8
0
  6
Continuous
 62
     7
370
    25
100
AcDbLine
 10
207.9507553969
 20
122.9553817678
 30
0.0
 11
207.9507553969
 21
123.3558096558
 31
0.0
  0
LINE
  5
B5
330
1F
100
AcDbEntity
  8
0
  6
Continuous
 62
     7
370
    25
100
AcDbLine
 10
207.9507553969
 20
112.8558096558
 30
0.0
 11
207.9507553969
 21
122.9553817678
 31
0.0
  0
LINE
  5
B6
330
1F
100
AcDbEntity
  8
0
  6
Continuous
 62
     7
370
    25
100
AcDbLine
 10
199.9507553969
 20
122.9553817678
 30
0.0
 11
199.9507553969
 21
123.3558096558
 31
0.0
  0
LINE
  5
B7
330
1F
100
AcDbEntity
  8
0
  6
Continuous
 62
     7
370
    25
100
AcDbLine
 10
199.9507553969
 20
112.8558096558
 30
0.0
 11
199.9507553969
 21
122.9553817678
 31
0.0
  0
LINE
  5
B8
330
1F
100
AcDbEntity
  8
0
  6
Continuous
 62
     7
370
    25
100
AcDbLine
 10
189.9507553969
 20
121.8561454224
 30
0.0
 11
189.9507553969
 21
122.1658096558
 31
0.0
  0
LINE
  5
B9
330
1F
100
AcDbEntity
  8
0
  6
Continuous
 62
     7
370
    25
100
AcDbLine
 10
189.9507553969
 20
114.0458096558
 30
0.0
 11
189.9507553969
 21
121.8561454224
 31
0.0
  0
LINE
  5
BA
330
1F
100
AcDbEntity
  8
0
  6
Continuous
 62
     7
370
    25
100
AcDbLine
 10
235.6598588625
 20
119.2353752215
 30
0.0
 11
235.6598588625
 21
126.6058096558
 31
0.0
  0
LINE
  5
BB
330
1F
100
AcDbEntity
  8
0
  6
Continuous
 62
     7
370
    25
100
AcDbLine
 10
235.6598588625
 20
109.6058096558
 30
0.0
 11
235.6598588625
 21
119.2353752215
 31
0.0
  0
LINE
  5
BC
330
1F
100
AcDbEntity
  8
0
  6
Continuous
 62
     7
370
    25
100
AcDbLine
 10
232.6598588625
 20
119.2353752215
 30
0.0
 11
232.6598588625
 21
126.6058096558
 31
0.0
  0
LINE
  5
BD
330
1F
100
AcDbEntity
  8
0
  6
Continuous
 62
     7
370
    25
100
AcDbLine
 10
232.6598588625
 20
109.6058096558
 30
0.0
 11
232.6598588625
 21
119.2353752215
 31
0.0
  0
LINE
  5
BE
330
1F
100
AcDbEntity
  8
0
  6
Continuous
 62
     7
370
    25
100
AcDbLine
 10
241.1598588625
 20
125.4670255879
 30
0.0
 11
241.1598588625
 21
122.1058096558
 31
0.0
  0
SPLINE
  5
BF
330
1F
100
AcDbEntity
  8
0
  6
Continuous
 62
     7
370
    25
100
AcDbSpline
210
0.0
220
0.0
230
1.0
 70
     8
 71
     3
 72
     8
 73
     4
 74
     0
 42
0.00000001
 43
0.00000001
 40
0.0
 40
0.0
 40
0.0
 40
0.0
 40
1.0
 40
1.0
 40
1.0
 40
1.0
 10
240.643622785499
 20
122.105809655776
 30
0.0
 10
240.5927240685764
 20
122.312854694205
 30
0.0
 10
240.5387899323257
 20
122.5190940238816
 30
0.0
 10
240.482137457218
 20
122.724611809293
 30
0.0
  0
SPLINE
  5
C0
330
1F
100
AcDbEntity
  8
0
  6
Continuous
 62
     7
370
    25
100
AcDbSpline
210
0.0
220
0.0
230
1.0
 70
     8
 71
     3
 72
    10
 73
     6
 74
     0
 42
0.00000001
 43
0.00000001
 40
0.0
 40
0.0
 40
0.0
 40
0.0
 40
0.5
 40
0.5
 40
1.0
 40
1.0
 40
1.0
 40
1.0
 10
240.482137457218
 20
123.1576245111852
 30
0.0
 10
240.4584620627936
 20
123.114680980284
 30
0.0
 10
240.4453709529089
 20
123.0512385356598
 30
0.0
 10
240.4452846316207
 20
122.8987596985409
 30
0.0
 10
240.4584535655645
 20
122.8105296964336
 30
0.0
 10
240.482137457218
 20
122.724611809293
 30
0.0
  0
SPLINE
  5
C1
330
1F
100
AcDbEntity
  8
0
  6
Continuous
 62
     7
370
    25
100
AcDbSpline
210
0.0
220
0.0
230
1.0
 70
     8
 71
     3
 72
    12
 73
     8
 74
     0
 42
0.00000001
 43
0.00000001
 40
0.0
 40
0.0
 40
0.0
 40
0.0
 40
0.2500000000000001
 40
0.2500000000000001
 40
0.5000000000000002
 40
0.5000000000000002
 40
1.0
 40
1.0
 40
1.0
 40
1.0
 10
241.1598588624782
 20
125.4670255879437
 30
0.0
 10
241.1598588624782
 20
125.2712833250642
 30
0.0
 10
241.1440159263892
 20
125.0746167158736
 30
0.0
 10
241.0825130661515
 20
124.6853484885453
 30
0.0
 10
241.0369094251079
 20
124.4919444555924
 30
0.0
 10
240.8604584076186
 20
123.9150154043357
 30
0.0
 10
240.6900610403668
 20
123.5347659711327
 30
0.0
 10
240.482137457218
 20
123.1576245111852
 30
0.0
  0
SPLINE
  5
C2
330
1F
100
AcDbEntity
  8
0
  6
Continuous
 62
     7
370
    25
100
AcDbSpline
210
0.0
220
0.0
230
1.0
 70
     8
 71
     3
 72
    22
 73
    18
 74
     0
 42
0.00000001
 43
0.00000001
 40
0.0
 40
0.0
 40
0.0
 40
0.0
 40
0.2499999999999979
 40
0.2499999999999979
 40
0.3749999999999969
 40
0.3749999999999969
 40
0.4374999999999972
 40
0.4374999999999972
 40
0.4999999999999974
 40
0.4999999999999974
 40
0.5624999999999978
 40
0.5624999999999978
 40
0.6249999999999982
 40
0.6249999999999982
 40
0.7499999999999988
 40
0.7499999999999988
 40
1.0
 40
1.0
 40
1.0
 40
1.0
 10
246.4905272199748
 20
107.605809655776
 30
0.0
 10
246.5599723115618
 20
107.4313593865765
 30
0.0
 10
246.6370444112512
 20
107.2592226763484
 30
0.0
 10
246.7865309442881
 20
107.0213761000087
 30
0.0
 10
246.8426745078334
 20
106.9442247068009
 30
0.0
 10
246.9458661164103
 20
106.8477698500471
 30
0.0
 10
246.9839662415091
 20
106.8187440458551
 30
0.0
 10
247.0676754484703
 20
106.7765084830954
 30
0.0
 10
247.1145440431811
 20
106.7634657726075
 30
0.0
 10
247.2091193208418
 20
106.7641681912432
 30
0.0
 10
247.2558320670501
 20
106.7778216139336
 30
0.0
 10
247.3399100612747
 20
106.8215007097904
 30
0.0
 10
247.3772765624774
 20
106.8505570382163
 30
0.0
 10
247.4803122408873
 20
106.948172822158
 30
0.0
 10
247.534934310552
 20
107.0238584156436
 30
0.0
 10
247.6840558279092
 20
107.2620335778583
 30
0.0
 10
247.7605224384599
 20
107.4333113205251
 30
0.0
 10
247.8291905049815
 20
107.605809655776
 30
0.0
  0
LINE
  5
C3
330
1F
100
AcDbEntity
  8
0
  6
Continuous
 62
     7
370
    25
100
AcDbLine
 10
246.49052722
 20
107.6058096558
 30
0.0
 11
242.541056709
 21
107.6058096558
 31
0.0
  0
LINE
  5
C4
330
1F
100
AcDbEntity
  8
0
  6
Continuous
 62
     7
370
    25
100
AcDbLine
 10
242.541056709
 20
110.1394131159
 30
0.0
 11
242.541056709
 21
107.6058096558
 31
0.0
  0
SPLINE
  5
C5
330
1F
100
AcDbEntity
  8
0
  6
Continuous
 62
     7
370
    25
100
AcDbSpline
210
0.0
220
0.0
230
1.0
 70
     8
 71
     3
 72
     8
 73
     4
 74
     0
 42
0.00000001
 43
0.00000001
 40
0.0
 40
0.0
 40
0.0
 40
0.0
 40
1.0
 40
1.0
 40
1.0
 40
1.0
 10
242.5410567089612
 20
110.139413115921
 30
0.0
 10
242.7462425315044
 20
110.1959740830452
 30
0.0
 10
242.9524657322117
 20
110.249914154459
 30
0.0
 10
243.1598588624782
 20
110.300898444202
 30
0.0
  0
LINE
  5
C6
330
1F
100
AcDbEntity
  8
0
  6
Continuous
 62
     7
370
    25
100
AcDbLine
 10
243.1598588625
 20
114.1058096558
 30
0.0
 11
240.6436227855
 21
114.1058096558
 31
0.0
  0
SPLINE
  5
C7
330
1F
100
AcDbEntity
  8
0
  6
Continuous
 62
     7
370
    25
100
AcDbSpline
210
0.0
220
0.0
230
1.0
 70
     8
 71
     3
 72
     8
 73
     4
 74
     0
 42
0.00000001
 43
0.00000001
 40
0.0
 40
0.0
 40
0.0
 40
0.0
 40
1.0
 40
1.0
 40
1.0
 40
1.0
 10
240.482137457218
 20
113.4870075022589
 30
0.0
 10
240.5387008266862
 20
113.6922020397687
 30
0.0
 10
240.5926407495074
 20
113.8984256932859
 30
0.0
 10
240.643622785499
 20
114.105809655776
 30
0.0
  0
LINE
  5
C8
330
1F
100
AcDbEntity
  8
0
  6
Continuous
 62
     7
370
    25
100
AcDbLine
 10
236.3375802677
 20
113.4870075023
 30
0.0
 11
240.4821374572
 21
113.4870075023
 31
0.0
  0
SPLINE
  5
C9
330
1F
100
AcDbEntity
  8
0
  6
Continuous
 62
     7
370
    25
100
AcDbSpline
210
0.0
220
0.0
230
1.0
 70
     8
 71
     3
 72
    10
 73
     6
 74
     0
 42
0.00000001
 43
0.00000001
 40
0.0
 40
0.0
 40
0.0
 40
0.0
 40
0.5
 40
0.5
 40
1.0
 40
1.0
 40
1.0
 40
1.0
 10
236.3375802677384
 20
113.487007502259
 30
0.0
 10
236.1295115915071
 20
114.2418167753082
 30
0.0
 10
235.9591125854826
 20
115.0025631625402
 30
0.0
 10
235.7239526057838
 20
116.5407055401634
 30
0.0
 10
235.6598588624781
 20
117.3182066926882
 30
0.0
 10
235.6598588624781
 20
118.105809655776
 30
0.0
  0
SPLINE
  5
CA
330
1F
100
AcDbEntity
  8
0
  6
Continuous
 62
     7
370
    25
100
AcDbSpline
210
0.0
220
0.0
230
1.0
 70
     8
 71
     3
 72
    12
 73
     8
 74
     0
 42
0.00000001
 43
0.00000001
 40
0.0
 40
0.0
 40
0.0
 40
0.0
 40
0.2500000000000001
 40
0.2500000000000001
 40
0.5000000000000001
 40
0.5000000000000001
 40
1.0
 40
1.0
 40
1.0
 40
1.0
 10
235.6598588624781
 20
118.105809655776
 30
0.0
 10
235.6598588624781
 20
118.5001277364478
 30
0.0
 10
235.6758576674592
 20
118.8937867803982
 30
0.0
 10
235.7376278057736
 20
119.6733227799436
 30
0.0
 10
235.7833699300752
 20
120.060275968069
 30
0.0
 10
235.9600400774221
 20
121.213662530923
 30
0.0
 10
236.1302951429024
 20
121.972645020128
 30
0.0
 10
236.3375802677384
 20
122.724611809293
 30
0.0
  0
LINE
  5
CB
330
1F
100
AcDbEntity
  8
0
  6
Continuous
 62
     7
370
    25
100
AcDbLine
 10
240.4821374572
 20
122.7246118093
 30
0.0
 11
236.3375802677
 21
122.7246118093
 31
0.0
  0
SPLINE
  5
CC
330
1F
100
AcDbEntity
  8
0
  6
Continuous
 62
     7
370
    25
100
AcDbSpline
210
0.0
220
0.0
230
1.0
 70
     8
 71
     3
 72
     8
 73
     4
 74
     0
 42
0.00000001
 43
0.00000001
 40
0.0
 40
0.0
 40
0.0
 40
0.0
 40
1.0
 40
1.0
 40
1.0
 40
1.0
 10
253.6760949394574
 20
122.105809655776
 30
0.0
 10
253.7269911727124
 20
122.3128445911798
 30
0.0
 10
253.7809251276761
 20
122.5190843562448
 30
0.0
 10
253.8375802677383
 20
122.724611809293
 30
0.0
  0
LINE
  5
CD
330
1F
100
AcDbEntity
  8
0
  6
Continuous
 62
     7
370
    25
100
AcDbLine
 10
258.3377998899
 20
122.7246118093
 30
0.0
 11
253.8375802677
 21
122.7246118093
 31
0.0
  0
SPLINE
  5
CE
330
1F
100
AcDbEntity
  8
0
  6
Continuous
 62
     7
370
    25
100
AcDbSpline
210
0.0
220
0.0
230
1.0
 70
     8
 71
     3
 72
    14
 73
    10
 74
     0
 42
0.00000001
 43
0.00000001
 40
0.0
 40
0.0
 40
0.0
 40
0.0
 40
0.25
 40
0.25
 40
0.5
 40
0.5
 40
0.75
 40
0.75
 40
1.0
 40
1.0
 40
1.0
 40
1.0
 10
258.3377998899206
 20
113.4870075022589
 30
0.0
 10
258.5457502506263
 20
114.2413875629089
 30
0.0
 10
258.7179720593152
 20
115.0108287303744
 30
0.0
 10
258.9526071820661
 20
116.5513400913156
 30
0.0
 10
259.0155512406938
 20
117.3261944713226
 30
0.0
 10
259.0154913279623
 20
118.8865554262081
 30
0.0
 10
258.9508766616702
 20
119.6770116189932
 30
0.0
 10
258.714317322269
 20
121.2192912818016
 30
0.0
 10
258.5439721821896
 20
121.9766820350028
 30
0.0
 10
258.3377998899206
 20
122.724611809293
 30
0.0
  0
LINE
  5
CF
330
1F
100
AcDbEntity
  8
0
  6
Continuous
 62
     7
370
    25
100
AcDbLine
 10
253.8375802677
 20
113.4870075023
 30
0.0
 11
258.3377998899
 21
113.4870075023
 31
0.0
  0
SPLINE
  5
D0
330
1F
100
AcDbEntity
  8
0
  6
Continuous
 62
     7
370
    25
100
AcDbSpline
210
0.0
220
0.0
230
1.0
 70
     8
 71
     3
 72
     8
 73
     4
 74
     0
 42
0.00000001
 43
0.00000001
 40
0.0
 40
0.0
 40
0.0
 40
0.0
 40
1.0
 40
1.0
 40
1.0
 40
1.0
 10
253.8375802677383
 20
113.4870075022589
 30
0.0
 10
253.7810184243014
 20
113.6921965037958
 30
0.0
 10
253.727078407045
 20
113.8984198698604
 30
0.0
 10
253.6760949394574
 20
114.1058096557759
 30
0.0
  0
SPLINE
  5
D1
330
1F
100
AcDbEntity
  8
0
  6
Continuous
 62
     7
370
    25
100
AcDbSpline
210
0.0
220
0.0
230
1.0
 70
     8
 71
     3
 72
     8
 73
     4
 74
     0
 42
0.00000001
 43
0.00000001
 40
0.0
 40
0.0
 40
0.0
 40
0.0
 40
1.0
 40
1.0
 40
1.0
 40
1.0
 10
251.1598588624782
 20
110.300898444202
 30
0.0
 10
251.3668879258135
 20
110.2500036545012
 30
0.0
 10
251.5731279430829
 20
110.1960698051397
 30
0.0
 10
251.7786610159952
 20
110.139413115921
 30
0.0
  0
LINE
  5
D2
330
1F
100
AcDbEntity
  8
0
  6
Continuous
 62
     7
370
    25
100
AcDbLine
 10
251.778661016
 20
107.6058096558
 30
0.0
 11
251.778661016
 21
110.1394131159
 31
0.0
  0
LINE
  5
D3
330
1F
100
AcDbEntity
  8
0
  6
Continuous
 62
     7
370
    25
100
AcDbLine
 10
251.778661016
 20
107.6058096558
 30
0.0
 11
247.829190505
 21
107.6058096558
 31
0.0
  0
LINE
  5
D4
330
1F
100
AcDbEntity
  8
0
  6
Continuous
 62
     7
370
    25
100
AcDbLine
 10
246.2580999485
 20
116.6834366382
 30
0.0
 11
246.2164496292
 21
116.6596317083
 31
0.0
  0
ELLIPSE
  5
D5
330
1F
100
AcDbEntity
  8
0
  6
Continuous
 62
     7
370
    25
100
AcDbEllipse
 10
245.8676064497
 20
117.2143141796
 30
0.0
 11
0.6784129479252385
 21
6.110667527536862E-13
 31
0.0
210
0.0
220
0.0
230
1.0
 40
0.9533039403
 41
3.470145824140252
 42
5.252469180536291
  0
LINE
  5
D6
330
1F
100
AcDbEntity
  8
0
  6
Continuous
 62
     7
370
    25
100
AcDbLine
 10
245.2254816827
 20
117.0056300646
 30
0.0
 11
243.9658274777
 21
120.5280744612
 31
0.0
  0
ELLIPSE
  5
D7
330
1F
100
AcDbEntity
  8
0
  6
Continuous
 62
     7
370
    25
100
AcDbEllipse
 10
243.3748449198
 20
120.2657352252
 30
0.0
 11
0.6519124952381503
 21
6.110667527536862E-13
 31
0.0
210
0.0
220
0.0
230
1.0
 40
0.9533023292
 41
0.4357905044354566
 42
2.705800116361515
  0
LINE
  5
D8
330
1F
100
AcDbEntity
  8
0
  6
Continuous
 62
     7
370
    25
100
AcDbLine
 10
242.7838629213
 20
120.5280756065
 30
0.0
 11
241.5244981196
 21
117.0064522048
 31
0.0
  0
ELLIPSE
  5
D9
330
1F
100
AcDbEntity
  8
0
  6
Continuous
 62
     7
370
    25
100
AcDbEllipse
 10
240.8823769356
 20
117.2151350384
 30
0.0
 11
-0.6784085062757867
 21
3.268496584496461E-13
 31
0.0
210
0.0
220
0.0
230
1.0
 40
0.9533122623
 41
1.04719377118793
 42
2.813042320199924
  0
LINE
  5
DA
330
1F
100
AcDbEntity
  8
0
  6
Continuous
 62
     7
370
    25
100
AcDbLine
 10
240.5431704617
 20
116.6550471932
 30
0.0
 11
240.4915898911
 21
116.6834366382
 31
0.0
  0
LINE
  5
DB
330
1F
100
AcDbEntity
  8
0
  6
Continuous
 62
     7
370
    25
100
AcDbLine
 10
240.4915898911
 20
116.6834366382
 30
0.0
 11
241.2878585507
 21
115.1652645368
 31
0.0
  0
ELLIPSE
  5
DC
330
1F
100
AcDbEntity
  8
0
  6
Continuous
 62
     7
370
    25
100
AcDbEllipse
 10
241.3637074241
 20
115.2014180517
 30
0.0
 11
0.08480161849064416
 21
-2.842170943040401E-14
 31
0.0
210
0.0
220
0.0
230
1.0
 40
0.9533039403
 41
3.60524026259077
 42
5.462183310215691
  0
ELLIPSE
  5
DD
330
1F
100
AcDbEntity
  8
0
  6
Continuous
 62
     7
370
    25
100
AcDbEllipse
 10
243.3748449198
 20
113.1425694312
 30
0.0
 11
2.866293551216216
 21
-1.477928890381008E-12
 31
0.0
210
0.0
220
0.0
230
1.0
 40
0.9533046568
 41
0.8210016221243804
 42
2.320591031466428
  0
ELLIPSE
  5
DE
330
1F
100
AcDbEntity
  8
0
  6
Continuous
 62
     7
370
    25
100
AcDbEllipse
 10
245.3859824155
 20
115.2014180517
 30
0.0
 11
0.08480161849061574
 21
0.0
 31
0.0
210
0.0
220
0.0
230
1.0
 40
0.9533039403
 41
3.962594650556491
 42
5.819537698177178
  0
LINE
  5
DF
330
1F
100
AcDbEntity
  8
0
  6
Continuous
 62
     7
370
    25
100
AcDbLine
 10
245.461831289
 20
115.1652645368
 30
0.0
 11
246.2580999485
 21
116.6834366382
 31
0.0
  0
ARC
  5
E0
330
1F
100
AcDbEntity
  8
0
  6
Continuous
 62
     7
370
    25
100
AcDbCircle
 10
252.0527348146
 20
117.5288906625
 30
0.0
 40
0.8889999999999969
100
AcDbArc
 50
45.0
 51
159.0751675724
  0
LINE
  5
E1
330
1F
100
AcDbEntity
  8
0
  6
Continuous
 62
     7
370
    25
100
AcDbLine
 10
252.681352743
 20
118.1575085909
 30
0.0
 11
253.1479631287
 21
118.6241189766
 31
0.0
  0
ARC
  5
E2
330
1F
100
AcDbEntity
  8
0
  6
Continuous
 62
     7
370
    25
100
AcDbCircle
 10
252.0527348146
 20
117.5288906625
 30
0.0
 40
1.548886735692384
100
AcDbArc
 50
45.0
 51
315.0
  0
LINE
  5
E3
330
1F
100
AcDbEntity
  8
0
  6
Continuous
 62
     7
370
    25
100
AcDbLine
 10
253.1479631287
 20
116.4336623484
 30
0.0
 11
252.681352743
 21
116.900272734
 31
0.0
  0
ARC
  5
E4
330
1F
100
AcDbEntity
  8
0
  6
Continuous
 62
     7
370
    25
100
AcDbCircle
 10
252.0527348146
 20
117.5288906625
 30
0.0
 40
0.889000000000017
100
AcDbArc
 50
200.9248324276
 51
315.0
  0
LINE
  5
E5
330
1F
100
AcDbEntity
  8
0
  6
Continuous
 62
     7
370
    25
100
AcDbLine
 10
251.2223645658
 20
117.2113906625
 30
0.0
 11
253.1479631287
 21
117.2113906625
 31
0.0
  0
LINE
  5
E6
330
1F
100
AcDbEntity
  8
0
  6
Continuous
 62
     7
370
    25
100
AcDbLine
 10
253.1479631287
 20
117.2113906625
 30
0.0
 11
253.1479631287
 21
117.8463906625
 31
0.0
  0
LINE
  5
E7
330
1F
100
AcDbEntity
  8
0
  6
Continuous
 62
     7
370
    25
100
AcDbLine
 10
253.1479631287
 20
117.8463906625
 30
0.0
 11
251.2223645658
 21
117.8463906625
 31
0.0
  0
ARC
  5
E8
330
1F
100
AcDbEntity
  8
0
  6
Continuous
 62
     7
370
    25
100
AcDbCircle
 10
248.7105902182
 20
117.5288906625
 30
0.0
 40
0.8889999999999868
100
AcDbArc
 50
45.0
 51
315.0
  0
LINE
  5
E9
330
1F
100
AcDbEntity
  8
0
  6
Continuous
 62
     7
370
    25
100
AcDbLine
 10
249.3392081467
 20
118.1575085909
 30
0.0
 11
249.8058185323
 21
118.6241189766
 31
0.0
  0
ARC
  5
EA
330
1F
100
AcDbEntity
  8
0
  6
Continuous
 62
     7
370
    25
100
AcDbCircle
 10
248.7105902182
 20
117.5288906625
 30
0.0
 40
1.548886735692394
100
AcDbArc
 50
45.0
 51
315.0
  0
LINE
  5
EB
330
1F
100
AcDbEntity
  8
0
  6
Continuous
 62
     7
370
    25
100
AcDbLine
 10
249.8058185323
 20
116.4336623484
 30
0.0
 11
249.3392081467
 21
116.900272734
 31
0.0
  0
LINE
  5
EC
330
1F
100
AcDbEntity
  8
0
  6
Continuous
 62
     7
370
    25
100
AcDbLine
 10
251.1598588625
 20
110.3008984442
 30
0.0
 11
251.1598588625
 21
114.1058096558
 31
0.0
  0
LINE
  5
ED
330
1F
100
AcDbEntity
  8
0
  6
Continuous
 62
     7
370
    25
100
AcDbLine
 10
253.6760949395
 20
122.1058096558
 30
0.0
 11
240.6436227855
 21
122.1058096558
 31
0.0
  0
LINE
  5
EE
330
1F
100
AcDbEntity
  8
0
  6
Continuous
 62
     7
370
    25
100
AcDbLine
 10
253.6760949395
 20
114.1058096558
 30
0.0
 11
251.1598588625
 21
114.1058096558
 31
0.0
  0
LINE
  5
EF
330
1F
100
AcDbEntity
  8
0
  6
Continuous
 62
     7
370
    25
100
AcDbLine
 10
243.1598588625
 20
110.3008984442
 30
0.0
 11
243.1598588625
 21
114.1058096558
 31
0.0
  0
SPLINE
  5
F0
330
1F
100
AcDbEntity
  8
0
  6
Continuous
 62
     7
370
    25
100
AcDbSpline
210
0.0
220
0.0
230
1.0
 70
     8
 71
     3
 72
    10
 73
     6
 74
     0
 42
0.00000001
 43
0.00000001
 40
0.0
 40
0.0
 40
0.0
 40
0.0
 40
0.5
 40
0.5
 40
1.0
 40
1.0
 40
1.0
 40
1.0
 10
251.7786610159952
 20
110.1394131159209
 30
0.0
 10
251.8645480777977
 20
110.1157377214965
 30
0.0
 10
251.9519552867779
 20
110.1026466116119
 30
0.0
 10
252.1045917293718
 20
110.1025602903237
 30
0.0
 10
252.1687147743175
 20
110.1157292242676
 30
0.0
 10
252.2116737178878
 20
110.1394131159212
 30
0.0
  0
LINE
  5
F1
330
1F
100
AcDbEntity
  8
0
  6
Continuous
 62
     7
370
    25
100
AcDbLine
 10
252.2116737179
 20
110.1394131159
 30
0.0
 11
252.2116737179
 21
107.6058096558
 31
0.0
  0
LINE
  5
F2
330
1F
100
AcDbEntity
  8
0
  6
Continuous
 62
     7
370
    25
100
AcDbLine
 10
251.778661016
 20
107.6058096558
 30
0.0
 11
252.2116737179
 21
107.6058096558
 31
0.0
  0
LINE
  5
F3
330
1F
100
AcDbEntity
  8
0
  6
Continuous
 62
     7
370
    25
100
AcDbLine
 10
235.6598588625
 20
118.1058096558
 30
0.0
 11
235.6598588625
 21
110.7445937236
 31
0.0
  0
SPLINE
  5
F4
330
1F
100
AcDbEntity
  8
0
  6
Continuous
 62
     7
370
    25
100
AcDbSpline
210
0.0
220
0.0
230
1.0
 70
     8
 71
     3
 72
    10
 73
     6
 74
     0
 42
0.00000001
 43
0.00000001
 40
0.0
 40
0.0
 40
0.0
 40
0.0
 40
0.5
 40
0.5
 40
1.0
 40
1.0
 40
1.0
 40
1.0
 10
236.3375802677384
 20
113.487007502259
 30
0.0
 10
236.3612541682943
 20
113.4011258597525
 30
0.0
 10
236.3743467254735
 20
113.3137166537871
 30
0.0
 10
236.3744331394557
 20
113.1610741687121
 30
0.0
 10
236.3612627478571
 20
113.0969511836298
 30
0.0
 10
236.3375802677384
 20
113.0539948003668
 30
0.0
  0
SPLINE
  5
F5
330
1F
100
AcDbEntity
  8
0
  6
Continuous
 62
     7
370
    25
100
AcDbSpline
210
0.0
220
0.0
230
1.0
 70
     8
 71
     3
 72
    12
 73
     8
 74
     0
 42
0.00000001
 43
0.00000001
 40
0.0
 40
0.0
 40
0.0
 40
0.0
 40
0.2499999999999999
 40
0.2499999999999999
 40
0.4999999999999998
 40
0.4999999999999998
 40
1.0
 40
1.0
 40
1.0
 40
1.0
 10
235.6598588624782
 20
110.7445937236082
 30
0.0
 10
235.6598588624782
 20
110.939597203614
 30
0.0
 10
235.6756051925001
 20
111.1361318626385
 30
0.0
 10
235.7370502170855
 20
111.525551550244
 30
0.0
 10
235.7826389763393
 20
111.7190362433043
 30
0.0
 10
235.9590899785959
 20
112.2962198420599
 30
0.0
 10
236.1295476805593
 20
112.6766556238428
 30
0.0
 10
236.3375802677382
 20
113.0539948003668
 30
0.0
  0
LINE
  5
F6
330
1F
100
AcDbEntity
  8
0
  6
Continuous
 62
     7
370
    25
100
AcDbLine
 10
235.6598588625
 20
118.1058096558
 30
0.0
 11
235.6598588625
 21
125.4670255879
 31
0.0
  0
SPLINE
  5
F7
330
1F
100
AcDbEntity
  8
0
  6
Continuous
 62
     7
370
    25
100
AcDbSpline
210
0.0
220
0.0
230
1.0
 70
     8
 71
     3
 72
    10
 73
     6
 74
     0
 42
0.00000001
 43
0.00000001
 40
0.0
 40
0.0
 40
0.0
 40
0.0
 40
0.5
 40
0.5
 40
1.0
 40
1.0
 40
1.0
 40
1.0
 10
236.3375802677379
 20
123.1576245111852
 30
0.0
 10
236.1287703430716
 20
123.5363736585765
 30
0.0
 10
235.9582362033244
 20
123.9175789349878
 30
0.0
 10
235.7234503983054
 20
124.6868095561755
 30
0.0
 10
235.6598588624781
 20
125.0748772609738
 30
0.0
 10
235.6598588624781
 20
125.4670255879437
 30
0.0
  0
SPLINE
  5
F8
330
1F
100
AcDbEntity
  8
0
  6
Continuous
 62
     7
370
    25
100
AcDbSpline
210
0.0
220
0.0
230
1.0
 70
     8
 71
     3
 72
    10
 73
     6
 74
     0
 42
0.00000001
 43
0.00000001
 40
0.0
 40
0.0
 40
0.0
 40
0.0
 40
0.5
 40
0.5
 40
1.0
 40
1.0
 40
1.0
 40
1.0
 10
236.3375802677384
 20
123.1576245111852
 30
0.0
 10
236.3612525076499
 20
123.114686702086
 30
0.0
 10
236.3743464975852
 20
123.0512461121938
 30
0.0
 10
236.3744333650466
 20
122.8987569666849
 30
0.0
 10
236.3612635752872
 20
122.8105275774816
 30
0.0
 10
236.3375802677384
 20
122.724611809293
 30
0.0
  0
LINE
  5
F9
330
1F
100
AcDbEntity
  8
0
  6
Continuous
 62
     7
370
    25
100
AcDbLine
 10
258.3377998899
 20
113.0539948004
 30
0.0
 11
253.8375802677
 21
113.0539948004
 31
0.0
  0
SPLINE
  5
FA
330
1F
100
AcDbEntity
  8
0
  6
Continuous
 62
     7
370
    25
100
AcDbSpline
210
0.0
220
0.0
230
1.0
 70
     8
 71
     3
 72
    10
 73
     6
 74
     0
 42
0.00000001
 43
0.00000001
 40
0.0
 40
0.0
 40
0.0
 40
0.0
 40
0.5
 40
0.5
 40
1.0
 40
1.0
 40
1.0
 40
1.0
 10
253.8375802677351
 20
113.0539948003668
 30
0.0
 10
253.8612556621594
 20
113.0969383312679
 30
0.0
 10
253.8743467720473
 20
113.1603807758917
 30
0.0
 10
253.8744330933357
 20
113.3128596130108
 30
0.0
 10
253.8612641593919
 20
113.4010896151182
 30
0.0
 10
253.8375802677383
 20
113.487007502259
 30
0.0
  0
SPLINE
  5
FB
330
1F
100
AcDbEntity
  8
0
  6
Continuous
 62
     7
370
    25
100
AcDbSpline
210
0.0
220
0.0
230
1.0
 70
     8
 71
     3
 72
    10
 73
     6
 74
     0
 42
0.00000001
 43
0.00000001
 40
0.0
 40
0.0
 40
0.0
 40
0.0
 40
0.5
 40
0.5
 40
1.0
 40
1.0
 40
1.0
 40
1.0
 10
258.3377998899205
 20
113.487007502259
 30
0.0
 10
258.3141244954961
 20
113.4011204404565
 30
0.0
 10
258.3010333856115
 20
113.3137132314764
 30
0.0
 10
258.3009470643233
 20
113.1610767888826
 30
0.0
 10
258.3141159982671
 20
113.096953743937
 30
0.0
 10
258.3377998899206
 20
113.0539948003668
 30
0.0
  0
SPLINE
  5
FC
330
1F
100
AcDbEntity
  8
0
  6
Continuous
 62
     7
370
    25
100
AcDbSpline
210
0.0
220
0.0
230
1.0
 70
     8
 71
     3
 72
     8
 73
     4
 74
     0
 42
0.00000001
 43
0.00000001
 40
0.0
 40
0.0
 40
0.0
 40
0.0
 40
1.0
 40
1.0
 40
1.0
 40
1.0
 10
253.2812423539743
 20
111.6956881224507
 30
0.0
 10
253.240127078333
 20
111.8317185169403
 30
0.0
 10
253.1996380954652
 20
111.9684225815777
 30
0.0
 10
253.1598588624782
 20
112.105809655776
 30
0.0
  0
LINE
  5
FD
330
1F
100
AcDbEntity
  8
0
  6
Continuous
 62
     7
370
    25
100
AcDbLine
 10
253.1598588625
 20
114.1058096558
 30
0.0
 11
253.1598588625
 21
112.1058096558
 31
0.0
  0
SPLINE
  5
FE
330
1F
100
AcDbEntity
  8
0
  6
Continuous
 62
     7
370
    25
100
AcDbSpline
210
0.0
220
0.0
230
1.0
 70
     8
 71
     3
 72
     8
 73
     4
 74
     0
 42
0.00000001
 43
0.00000001
 40
0.0
 40
0.0
 40
0.0
 40
0.0
 40
1.0
 40
1.0
 40
1.0
 40
1.0
 10
253.2812423539743
 20
111.6956881224507
 30
0.0
 10
253.3968749640034
 20
112.1542390545085
 30
0.0
 10
253.5907643688238
 20
112.6063086502667
 30
0.0
 10
253.8375802677382
 20
113.0539948003665
 30
0.0
  0
LINE
  5
FF
330
1F
100
AcDbEntity
  8
0
  6
Continuous
 62
     7
370
    25
100
AcDbLine
 10
241.1598588625
 20
114.1058096558
 30
0.0
 11
241.1598588625
 21
112.1058096558
 31
0.0
  0
SPLINE
  5
100
330
1F
100
AcDbEntity
  8
0
  6
Continuous
 62
     7
370
    25
100
AcDbSpline
210
0.0
220
0.0
230
1.0
 70
     8
 71
     3
 72
     8
 73
     4
 74
     0
 42
0.00000001
 43
0.00000001
 40
0.0
 40
0.0
 40
0.0
 40
0.0
 40
1.0
 40
1.0
 40
1.0
 40
1.0
 10
241.1598588624782
 20
112.105809655776
 30
0.0
 10
241.120080204288
 20
111.9684245667759
 30
0.0
 10
241.0795912414598
 20
111.8317204849641
 30
0.0
 10
241.038475370982
 20
111.6956881224507
 30
0.0
  0
SPLINE
  5
101
330
1F
100
AcDbEntity
  8
0
  6
Continuous
 62
     7
370
    25
100
AcDbSpline
210
0.0
220
0.0
230
1.0
 70
     8
 71
     3
 72
     8
 73
     4
 74
     0
 42
0.00000001
 43
0.00000001
 40
0.0
 40
0.0
 40
0.0
 40
0.0
 40
1.0
 40
1.0
 40
1.0
 40
1.0
 10
240.482137457218
 20
113.0539948003668
 30
0.0
 10
240.7293112381019
 20
112.6056595073154
 30
0.0
 10
240.9230329064059
 20
112.1534850165718
 30
0.0
 10
241.038475370982
 20
111.6956881224507
 30
0.0
  0
SPLINE
  5
102
330
1F
100
AcDbEntity
  8
0
  6
Continuous
 62
     7
370
    25
100
AcDbSpline
210
0.0
220
0.0
230
1.0
 70
     8
 71
     3
 72
    10
 73
     6
 74
     0
 42
0.00000001
 43
0.00000001
 40
0.0
 40
0.0
 40
0.0
 40
0.0
 40
0.5
 40
0.5
 40
1.0
 40
1.0
 40
1.0
 40
1.0
 10
240.4821374572179
 20
113.487007502259
 30
0.0
 10
240.4584620627935
 20
113.4011204404565
 30
0.0
 10
240.4453709529089
 20
113.3137132314764
 30
0.0
 10
240.4452846316207
 20
113.1610767888826
 30
0.0
 10
240.4584535655645
 20
113.096953743937
 30
0.0
 10
240.482137457218
 20
113.0539948003668
 30
0.0
  0
SPLINE
  5
103
330
1F
100
AcDbEntity
  8
0
  6
Continuous
 62
     7
370
    25
100
AcDbSpline
210
0.0
220
0.0
230
1.0
 70
     8
 71
     3
 72
    10
 73
     6
 74
     0
 42
0.00000001
 43
0.00000001
 40
0.0
 40
0.0
 40
0.0
 40
0.0
 40
0.5
 40
0.5
 40
1.0
 40
1.0
 40
1.0
 40
1.0
 10
253.8375802677384
 20
122.724611809293
 30
0.0
 10
253.8612556621628
 20
122.8104988710954
 30
0.0
 10
253.8743467720474
 20
122.8979060800755
 30
0.0
 10
253.8744330933357
 20
123.0505425226693
 30
0.0
 10
253.8612641593918
 20
123.1146655676148
 30
0.0
 10
253.8375802677384
 20
123.1576245111852
 30
0.0
  0
LINE
  5
104
330
1F
100
AcDbEntity
  8
0
  6
Continuous
 62
     7
370
    25
100
AcDbLine
 10
253.8375802677
 20
123.1576245112
 30
0.0
 11
258.3377998899
 21
123.1576245112
 31
0.0
  0
SPLINE
  5
105
330
1F
100
AcDbEntity
  8
0
  6
Continuous
 62
     7
370
    25
100
AcDbSpline
210
0.0
220
0.0
230
1.0
 70
     8
 71
     3
 72
    10
 73
     6
 74
     0
 42
0.00000001
 43
0.00000001
 40
0.0
 40
0.0
 40
0.0
 40
0.0
 40
0.5
 40
0.5
 40
1.0
 40
1.0
 40
1.0
 40
1.0
 10
258.3377998899206
 20
123.1576245111852
 30
0.0
 10
258.3141244954962
 20
123.114680980284
 30
0.0
 10
258.3010333856115
 20
123.0512385356598
 30
0.0
 10
258.3009470643233
 20
122.8987596985409
 30
0.0
 10
258.3141159982671
 20
122.8105296964336
 30
0.0
 10
258.3377998899206
 20
122.724611809293
 30
0.0
  0
SPLINE
  5
106
330
1F
100
AcDbEntity
  8
0
  6
Continuous
 62
     7
370
    25
100
AcDbSpline
210
0.0
220
0.0
230
1.0
 70
     8
 71
     3
 72
    16
 73
    12
 74
     0
 42
0.00000001
 43
0.00000001
 40
0.0
 40
0.0
 40
0.0
 40
0.0
 40
0.2500000000000001
 40
0.2500000000000001
 40
0.5000000000000001
 40
0.5000000000000001
 40
0.6250000000000001
 40
0.6250000000000001
 40
0.7500000000000002
 40
0.7500000000000002
 40
1.0
 40
1.0
 40
1.0
 40
1.0
 10
258.3377998899206
 20
127.7764266647022
 30
0.0
 10
258.5458153380263
 20
127.3991185758257
 30
0.0
 10
258.7160216429993
 20
127.0190948454515
 30
0.0
 10
258.9509576745669
 20
126.2514715300408
 30
0.0
 10
259.0150298062305
 20
125.863824713252
 30
0.0
 10
259.0157627551515
 20
125.2755041613642
 30
0.0
 10
259.0001032750685
 20
125.0784309688085
 30
0.0
 10
258.9388281484316
 20
124.6883739912544
 30
0.0
 10
258.8932718759325
 20
124.4945810906664
 30
0.0
 10
258.7167858431762
 20
123.916500105903
 30
0.0
 10
258.5461293896905
 20
123.5355022415681
 30
0.0
 10
258.3377998899206
 20
123.1576245111852
 30
0.0
  0
SPLINE
  5
107
330
1F
100
AcDbEntity
  8
0
  6
Continuous
 62
     7
370
    25
100
AcDbSpline
210
0.0
220
0.0
230
1.0
 70
     8
 71
     3
 72
    10
 73
     6
 74
     0
 42
0.00000001
 43
0.00000001
 40
0.0
 40
0.0
 40
0.0
 40
0.0
 40
0.1601790552921226
 40
0.7197651707803578
 40
1.0
 40
1.0
 40
1.0
 40
1.0
 10
258.3035704568036
 20
127.838704943452
 30
0.0
 10
258.3028076667104
 20
127.8400971714783
 30
0.0
 10
258.2993800666367
 20
127.8463531532066
 30
0.0
 10
258.3138875314349
 20
127.8198458884788
 30
0.0
 10
258.3318170845528
 20
127.7872900333336
 30
0.0
 10
258.3377998899206
 20
127.7764266647022
 30
0.0
  0
SPLINE
  5
108
330
1F
100
AcDbEntity
  8
0
  6
Continuous
 62
     7
370
    25
100
AcDbSpline
210
0.0
220
0.0
230
1.0
 70
     8
 71
     3
 72
     9
 73
     5
 74
     0
 42
0.00000001
 43
0.00000001
 40
0.0
 40
0.0
 40
0.0
 40
0.0
 40
0.5797912171256352
 40
1.0
 40
1.0
 40
1.0
 40
1.0
 10
258.3377998899206
 20
108.4351926468497
 30
0.0
 10
258.3254412865741
 20
108.4127189986086
 30
0.0
 10
258.3041256767797
 20
108.3739573761878
 30
0.0
 10
258.3037347342769
 20
108.3732229714296
 30
0.0
 10
258.3035704568036
 20
108.3729143681
 30
0.0
  0
SPLINE
  5
109
330
1F
100
AcDbEntity
  8
0
  6
Continuous
 62
     7
370
    25
100
AcDbSpline
210
0.0
220
0.0
230
1.0
 70
     8
 71
     3
 72
    16
 73
    12
 74
     0
 42
0.00000001
 43
0.00000001
 40
0.0
 40
0.0
 40
0.0
 40
0.0
 40
0.2500000000000001
 40
0.2500000000000001
 40
0.5000000000000002
 40
0.5000000000000002
 40
0.6250000000000001
 40
0.6250000000000001
 40
0.7500000000000001
 40
0.7500000000000001
 40
1.0
 40
1.0
 40
1.0
 40
1.0
 10
258.3377998899206
 20
113.0539948003668
 30
0.0
 10
258.5458153380263
 20
112.6766867114902
 30
0.0
 10
258.7160216429993
 20
112.296662981116
 30
0.0
 10
258.9509576745669
 20
111.5290396657054
 30
0.0
 10
259.0150298062305
 20
111.1413928489166
 30
0.0
 10
259.0157627551516
 20
110.5530722970287
 30
0.0
 10
259.0001032750685
 20
110.3559991044731
 30
0.0
 10
258.9388281484316
 20
109.965942126919
 30
0.0
 10
258.8932718759325
 20
109.7721492263309
 30
0.0
 10
258.7167858431762
 20
109.1940682415675
 30
0.0
 10
258.5461293896905
 20
108.8130703772327
 30
0.0
 10
258.3377998899206
 20
108.4351926468497
 30
0.0
  0
LINE
  5
10A
330
1F
100
AcDbEntity
  8
0
  6
Continuous
 62
     7
370
    25
100
AcDbLine
 10
259.1598588625
 20
126.3558096558
 30
0.0
 11
259.1598588625
 21
109.8558096558
 31
0.0
  0
LINE
  5
10B
330
1F
100
AcDbEntity
  8
0
  6
Continuous
 62
     7
370
    25
100
AcDbLine
 10
253.1598588625
 20
125.4670255879
 30
0.0
 11
253.1598588625
 21
122.1058096558
 31
0.0
  0
SPLINE
  5
10C
330
1F
100
AcDbEntity
  8
0
  6
Continuous
 62
     7
370
    25
100
AcDbSpline
210
0.0
220
0.0
230
1.0
 70
     8
 71
     3
 72
    10
 73
     6
 74
     0
 42
0.00000001
 43
0.00000001
 40
0.0
 40
0.0
 40
0.0
 40
0.0
 40
0.5
 40
0.5
 40
1.0
 40
1.0
 40
1.0
 40
1.0
 10
253.8375802677383
 20
123.1576245111852
 30
0.0
 10
253.6291595149209
 20
123.5356677605873
 30
0.0
 10
253.4586956796435
 20
123.9164372653832
 30
0.0
 10
253.2237132447051
 20
124.6855857909407
 30
0.0
 10
253.1598588624782
 20
125.074012519116
 30
0.0
 10
253.1598588624782
 20
125.4670255879437
 30
0.0
  0
LINE
  5
10D
330
1F
100
AcDbEntity
  8
0
  6
Continuous
 62
     7
370
    25
100
AcDbLine
 10
240.4821374572
 20
113.0539948004
 30
0.0
 11
236.3375802677
 21
113.0539948004
 31
0.0
  0
SPLINE
  5
10E
330
1F
100
AcDbEntity
  8
0
  6
Continuous
 62
     7
370
    25
100
AcDbSpline
210
0.0
220
0.0
230
1.0
 70
     8
 71
     3
 72
     8
 73
     4
 74
     0
 42
0.00000001
 43
0.00000001
 40
0.0
 40
0.0
 40
0.0
 40
0.0
 40
1.0
 40
1.0
 40
1.0
 40
1.0
 10
253.502420821292
 20
111.105809655776
 30
0.0
 10
253.8249001481413
 20
111.0140953680415
 30
0.0
 10
254.1402179044653
 20
110.9174385789736
 30
0.0
 10
254.4492350471128
 20
110.8164334711414
 30
0.0
  0
SPLINE
  5
10F
330
1F
100
AcDbEntity
  8
0
  6
Continuous
 62
     7
370
    25
100
AcDbSpline
210
0.0
220
0.0
230
1.0
 70
     8
 71
     3
 72
    10
 73
     6
 74
     0
 42
0.00000001
 43
0.00000001
 40
0.0
 40
0.0
 40
0.0
 40
0.0
 40
0.5
 40
0.5
 40
1.0
 40
1.0
 40
1.0
 40
1.0
 10
252.2116737178877
 20
110.1394131159211
 30
0.0
 10
252.5781916647282
 20
110.341479801472
 30
0.0
 10
252.947271890194
 20
110.5078725737427
 30
0.0
 10
253.6925242384214
 20
110.7419195476127
 30
0.0
 10
254.0687370103692
 20
110.8090078015716
 30
0.0
 10
254.4492350471128
 20
110.8164334711414
 30
0.0
  0
ELLIPSE
  5
110
330
1F
100
AcDbEntity
  8
0
  6
Continuous
 62
     7
370
    25
100
AcDbEllipse
 10
243.106097856
 20
117.6122195164
 30
0.0
 11
0.08480161849064416
 21
-1.421085471520200E-14
 31
0.0
210
0.0
220
0.0
230
1.0
 40
0.9533039403
 41
2.798568711308604
 42
4.712388980384862
  0
LINE
  5
111
330
1F
100
AcDbEntity
  8
0
  6
Continuous
 62
     7
370
    25
100
AcDbLine
 10
243.3299107988
 20
118.4499921452
 30
0.0
 11
243.0262366177
 21
117.6394095283
 31
0.0
  0
LINE
  5
112
330
1F
100
AcDbEntity
  8
0
  6
Continuous
 62
     7
370
    25
100
AcDbLine
 10
243.106097856
 20
117.5313777993
 30
0.0
 11
243.7134462148
 21
117.5313777993
 31
0.0
  0
ELLIPSE
  5
113
330
1F
100
AcDbEntity
  8
0
  6
Continuous
 62
     7
370
    25
100
AcDbEllipse
 10
243.4097720371
 20
118.4228021334
 30
0.0
 11
0.08480161849064416
 21
0.0
 31
0.0
210
0.0
220
0.0
230
1.0
 40
0.9533039403
 41
0.3430239404205852
 42
2.798568713169321
  0
LINE
  5
114
330
1F
100
AcDbEntity
  8
0
  6
Continuous
 62
     7
370
    25
100
AcDbLine
 10
243.7933074531
 20
117.6394095281
 30
0.0
 11
243.4896332754
 21
118.4499921452
 31
0.0
  0
ELLIPSE
  5
115
330
1F
100
AcDbEntity
  8
0
  6
Continuous
 62
     7
370
    25
100
AcDbEllipse
 10
243.7134462148
 20
117.6122195164
 30
0.0
 11
-0.08480161849067258
 21
-4.263256414560601E-14
 31
0.0
210
0.0
220
0.0
230
1.0
 40
0.9533039403
 41
1.570796326794417
 42
3.484616592149365
  0
SPLINE
  5
116
330
1F
100
AcDbEntity
  8
0
  6
Continuous
 62
     7
370
    25
100
AcDbSpline
210
0.0
220
0.0
230
1.0
 70
     8
 71
     3
 72
    10
 73
     6
 74
     0
 42
0.00000001
 43
0.00000001
 40
0.0
 40
0.0
 40
0.0
 40
0.0
 40
0.5
 40
0.5
 40
1.0
 40
1.0
 40
1.0
 40
1.0
 10
242.1080440070689
 20
110.139413115921
 30
0.0
 10
242.1509875379701
 20
110.1157377214966
 30
0.0
 10
242.2144299825943
 20
110.1026466116119
 30
0.0
 10
242.3669088197132
 20
110.1025602903237
 30
0.0
 10
242.4551388218205
 20
110.1157292242675
 30
0.0
 10
242.5410567089612
 20
110.139413115921
 30
0.0
  0
LINE
  5
117
330
1F
100
AcDbEntity
  8
0
  6
Continuous
 62
     7
370
    25
100
AcDbLine
 10
242.1080440071
 20
107.6058096558
 30
0.0
 11
242.541056709
 21
107.6058096558
 31
0.0
  0
LINE
  5
118
330
1F
100
AcDbEntity
  8
0
  6
Continuous
 62
     7
370
    25
100
AcDbLine
 10
242.1080440071
 20
107.6058096558
 30
0.0
 11
242.1080440071
 21
110.1394131159
 31
0.0
  0
LINE
  5
119
330
1F
100
AcDbEntity
  8
0
  6
Continuous
 62
     7
370
    25
100
AcDbLine
 10
238.9591828679
 20
97.1854414818
 30
0.0
 11
255.360534857
 21
97.1854414818
 31
0.0
  0
SPLINE
  5
11A
330
1F
100
AcDbEntity
  8
0
  6
Continuous
 62
     7
370
    25
100
AcDbSpline
210
0.0
220
0.0
230
1.0
 70
     8
 71
     3
 72
    22
 73
    18
 74
     0
 42
0.00000001
 43
0.00000001
 40
0.0
 40
0.0
 40
0.0
 40
0.0
 40
0.249999999999999
 40
0.249999999999999
 40
0.3749999999999976
 40
0.3749999999999976
 40
0.4374999999999975
 40
0.4374999999999975
 40
0.4999999999999973
 40
0.4999999999999973
 40
0.5624999999999972
 40
0.5624999999999972
 40
0.6249999999999971
 40
0.6249999999999971
 40
0.7499999999999972
 40
0.7499999999999972
 40
1.0
 40
1.0
 40
1.0
 40
1.0
 10
240.1333087515621
 20
107.605809655776
 30
0.0
 10
240.0985745761847
 20
107.4313009581404
 30
0.0
 10
240.0599821246659
 20
107.2589625012405
 30
0.0
 10
239.9852531796202
 20
107.0212270679335
 30
0.0
 10
239.9573102583266
 20
106.9444444985514
 30
0.0
 10
239.9058316816601
 20
106.8480901020419
 30
0.0
 10
239.8869759555531
 20
106.8193165015798
 30
0.0
 10
239.8454993619484
 20
106.7771029365508
 30
0.0
 10
239.8221207503232
 20
106.7637298385883
 30
0.0
 10
239.774715739921
 20
106.7638902331848
 30
0.0
 10
239.7512969445578
 20
106.7773949253042
 30
0.0
 10
239.7094679350895
 20
106.8203863680417
 30
0.0
 10
239.6905507199189
 20
106.8495710042124
 30
0.0
 10
239.6392687487393
 20
106.9462036546791
 30
0.0
 10
239.6114524064659
 20
107.0228649001752
 30
0.0
 10
239.5367727302471
 20
107.2610753402091
 30
0.0
 10
239.4986356521156
 20
107.4316809440647
 30
0.0
 10
239.4639771090586
 20
107.6058096557758
 30
0.0
  0
SPLINE
  5
11B
330
1F
100
AcDbEntity
  8
0
  6
Continuous
 62
     7
370
    25
100
AcDbSpline
210
0.0
220
0.0
230
1.0
 70
     8
 71
     3
 72
    22
 73
    18
 74
     0
 42
0.00000001
 43
0.00000001
 40
0.0
 40
0.0
 40
0.0
 40
0.0
 40
0.2499999999999977
 40
0.2499999999999977
 40
0.3749999999999955
 40
0.3749999999999955
 40
0.4374999999999958
 40
0.4374999999999958
 40
0.4999999999999961
 40
0.4999999999999961
 40
0.5624999999999964
 40
0.5624999999999964
 40
0.6249999999999967
 40
0.6249999999999967
 40
0.7499999999999978
 40
0.7499999999999978
 40
1.0
 40
1.0
 40
1.0
 40
1.0
 10
254.8557406158976
 20
107.605809655776
 30
0.0
 10
254.8210064405201
 20
107.4313009581404
 30
0.0
 10
254.7824139890013
 20
107.2589625012404
 30
0.0
 10
254.7076850439556
 20
107.0212270679333
 30
0.0
 10
254.6797421226619
 20
106.9444444985513
 30
0.0
 10
254.6282635459954
 20
106.8480901020417
 30
0.0
 10
254.6094078198885
 20
106.8193165015796
 30
0.0
 10
254.5679312262836
 20
106.7771029365506
 30
0.0
 10
254.5445526146585
 20
106.7637298385882
 30
0.0
 10
254.4971476042562
 20
106.7638902331849
 30
0.0
 10
254.4737288088931
 20
106.7773949253044
 30
0.0
 10
254.4318997994248
 20
106.8203863680419
 30
0.0
 10
254.4129825842542
 20
106.8495710042127
 30
0.0
 10
254.3617006130747
 20
106.9462036546793
 30
0.0
 10
254.3338842708012
 20
107.0228649001756
 30
0.0
 10
254.2592045945825
 20
107.2610753402093
 30
0.0
 10
254.2210675164511
 20
107.4316809440648
 30
0.0
 10
254.1864089733941
 20
107.6058096557758
 30
0.0
  0
LINE
  5
11C
330
1F
100
AcDbEntity
  8
0
  6
Continuous
 62
     7
370
    25
100
AcDbLine
 10
236.3375802677
 20
123.1576245112
 30
0.0
 11
240.4821374572
 21
123.1576245112
 31
0.0
  0
SPLINE
  5
11D
330
1F
100
AcDbEntity
  8
0
  6
Continuous
 62
     7
370
    25
100
AcDbSpline
210
0.0
220
0.0
230
1.0
 70
     8
 71
     3
 72
     8
 73
     4
 74
     0
 42
0.00000001
 43
0.00000001
 40
0.0
 40
0.0
 40
0.0
 40
0.0
 40
1.0
 40
1.0
 40
1.0
 40
1.0
 10
239.8704826778615
 20
110.8164334711472
 30
0.0
 10
240.1794998205033
 20
110.9174385789774
 30
0.0
 10
240.4948175768213
 20
111.0140953680433
 30
0.0
 10
240.8172969036643
 20
111.105809655776
 30
0.0
  0
SPLINE
  5
11E
330
1F
100
AcDbEntity
  8
0
  6
Continuous
 62
     7
370
    25
100
AcDbSpline
210
0.0
220
0.0
230
1.0
 70
     8
 71
     3
 72
    12
 73
     8
 74
     0
 42
0.00000001
 43
0.00000001
 40
0.0
 40
0.0
 40
0.0
 40
0.0
 40
0.2500000000000002
 40
0.2500000000000002
 40
0.5000000000000004
 40
0.5000000000000004
 40
1.0
 40
1.0
 40
1.0
 40
1.0
 10
239.8704826778563
 20
110.8164334711411
 30
0.0
 10
240.0605088531595
 20
110.8127249852847
 30
0.0
 10
240.2507239158454
 20
110.794142482447
 30
0.0
 10
240.6276606749777
 20
110.7292754454809
 30
0.0
 10
240.8149834662372
 20
110.6830098922306
 30
0.0
 10
241.3738934225513
 20
110.5072853619236
 30
0.0
 10
241.7424290806617
 20
110.3409819531469
 30
0.0
 10
242.1080440070689
 20
110.139413115921
 30
0.0
  0
SPLINE
  5
11F
330
1F
100
AcDbEntity
  8
0
  6
Continuous
 62
     7
370
    25
100
AcDbSpline
210
0.0
220
0.0
230
1.0
 70
     8
 71
     3
 72
    12
 73
     8
 74
     0
 42
0.00000001
 43
0.00000001
 40
0.0
 40
0.0
 40
0.0
 40
0.0
 40
0.2499999999999999
 40
0.2499999999999999
 40
0.4999999999999998
 40
0.4999999999999998
 40
1.0
 40
1.0
 40
1.0
 40
1.0
 10
253.1598588624782
 20
125.4670255879437
 30
0.0
 10
253.1598588624782
 20
125.6627678508232
 30
0.0
 10
253.1757017985671
 20
125.8594344600138
 30
0.0
 10
253.2372046588048
 20
126.2487026873421
 30
0.0
 10
253.2828082998485
 20
126.442106720295
 30
0.0
 10
253.4592593173377
 20
127.0190357715517
 30
0.0
 10
253.6296566845895
 20
127.3992852047547
 30
0.0
 10
253.8375802677383
 20
127.7764266647022
 30
0.0
  0
LINE
  5
120
330
1F
100
AcDbEntity
  8
0
  6
Continuous
 62
     7
370
    25
100
AcDbLine
 10
258.3377998899
 20
127.7764266647
 30
0.0
 11
253.8375802677
 21
127.7764266647
 31
0.0
  0
ELLIPSE
  5
121
330
1F
100
AcDbEntity
  8
0
  6
Continuous
 62
     7
370
    25
100
AcDbEllipse
 10
247.1598588625
 20
108.2908550796
 30
0.0
 11
8.5
 21
0.0
 31
0.0
210
0.0
220
0.0
230
1.0
 40
0.5773502692
 41
2.374833212873085
 42
2.530692279913058
  0
LINE
  5
122
330
1F
100
AcDbEntity
  8
0
  6
Continuous
 62
     7
370
    25
100
AcDbLine
 10
239.8704826779
 20
110.8164334711
 30
0.0
 11
237.4892418536
 21
108.4351926468
 31
0.0
  0
LINE
  5
123
330
1F
100
AcDbEntity
  8
0
  6
Continuous
 62
     7
370
    25
100
AcDbLine
 10
236.3375802677
 20
108.4351926468
 30
0.0
 11
237.4892418536
 21
108.4351926468
 31
0.0
  0
SPLINE
  5
124
330
1F
100
AcDbEntity
  8
0
  6
Continuous
 62
     7
370
    25
100
AcDbSpline
210
0.0
220
0.0
230
1.0
 70
     8
 71
     3
 72
    10
 73
     6
 74
     0
 42
0.00000001
 43
0.00000001
 40
0.0
 40
0.0
 40
0.0
 40
0.0
 40
0.5
 40
0.5
 40
1.0
 40
1.0
 40
1.0
 40
1.0
 10
236.3375802677379
 20
108.4351926468497
 30
0.0
 10
236.1287703430716
 20
108.813941794241
 30
0.0
 10
235.9582362033244
 20
109.1951470706523
 30
0.0
 10
235.7234503983054
 20
109.9643776918401
 30
0.0
 10
235.6598588624782
 20
110.3524453966384
 30
0.0
 10
235.6598588624782
 20
110.7445937236082
 30
0.0
  0
ELLIPSE
  5
125
330
1F
100
AcDbEntity
  8
0
  6
Continuous
 62
     7
370
    25
100
AcDbEllipse
 10
247.1598588625
 20
108.2908550796
 30
0.0
 11
8.5
 21
0.0
 31
0.0
210
0.0
220
0.0
230
1.0
 40
0.5773502692
 41
0.6109003736767357
 42
0.7667594407167105
  0
LINE
  5
126
330
1F
100
AcDbEntity
  8
0
  6
Continuous
 62
     7
370
    25
100
AcDbLine
 10
256.8304758714
 20
108.4351926468
 30
0.0
 11
258.3377998899
 21
108.4351926468
 31
0.0
  0
LINE
  5
127
330
1F
100
AcDbEntity
  8
0
  6
Continuous
 62
     7
370
    25
100
AcDbLine
 10
256.8304758714
 20
108.4351926468
 30
0.0
 11
254.4492350471
 21
110.8164334711
 31
0.0
  0
LINE
  5
128
330
1F
100
AcDbEntity
  8
0
  6
Continuous
 62
     7
370
    25
100
AcDbLine
 10
239.4639771091
 20
107.6058096558
 30
0.0
 11
237.4892418536
 21
107.6058096558
 31
0.0
  0
LINE
  5
129
330
1F
100
AcDbEntity
  8
0
  6
Continuous
 62
     7
370
    25
100
AcDbLine
 10
237.4892418536
 20
108.4351926468
 30
0.0
 11
237.4892418536
 21
107.6058096558
 31
0.0
  0
LINE
  5
12A
330
1F
100
AcDbEntity
  8
0
  6
Continuous
 62
     7
370
    25
100
AcDbLine
 10
242.1080440071
 20
107.6058096558
 30
0.0
 11
240.1333087516
 21
107.6058096558
 31
0.0
  0
SPLINE
  5
12B
330
1F
100
AcDbEntity
  8
0
  6
Continuous
 62
     7
370
    25
100
AcDbSpline
210
0.0
220
0.0
230
1.0
 70
     8
 71
     3
 72
    12
 73
     8
 74
     0
 42
0.00000001
 43
0.00000001
 40
0.0
 40
0.0
 40
0.0
 40
0.0
 40
0.2499999999999999
 40
0.2499999999999999
 40
0.5
 40
0.5
 40
1.0
 40
1.0
 40
1.0
 40
1.0
 10
235.6598588624781
 20
125.4670255879437
 30
0.0
 10
235.6598588624782
 20
125.6620290679495
 30
0.0
 10
235.6756051925001
 20
125.8585637269739
 30
0.0
 10
235.7370502170855
 20
126.2479834145795
 30
0.0
 10
235.7826389763393
 20
126.4414681076397
 30
0.0
 10
235.9590899785959
 20
127.0186517063953
 30
0.0
 10
236.1295476805593
 20
127.3990874881783
 30
0.0
 10
236.3375802677382
 20
127.7764266647022
 30
0.0
  0
LINE
  5
12C
330
1F
100
AcDbEntity
  8
0
  6
Continuous
 62
     7
370
    25
100
AcDbLine
 10
240.4821374572
 20
127.7764266647
 30
0.0
 11
236.3375802677
 21
127.7764266647
 31
0.0
  0
SPLINE
  5
12D
330
1F
100
AcDbEntity
  8
0
  6
Continuous
 62
     7
370
    25
100
AcDbSpline
210
0.0
220
0.0
230
1.0
 70
     8
 71
     3
 72
    10
 73
     6
 74
     0
 42
0.00000001
 43
0.00000001
 40
0.0
 40
0.0
 40
0.0
 40
0.0
 40
0.5
 40
0.5
 40
1.0
 40
1.0
 40
1.0
 40
1.0
 10
240.4821374572179
 20
127.7764266647022
 30
0.0
 10
240.6905582100354
 20
127.3983834153001
 30
0.0
 10
240.8610220453128
 20
127.0176139105042
 30
0.0
 10
241.0960044802512
 20
126.2484653849467
 30
0.0
 10
241.1598588624782
 20
125.8600386567714
 30
0.0
 10
241.1598588624782
 20
125.4670255879437
 30
0.0
  0
LINE
  5
12E
330
1F
100
AcDbEntity
  8
0
  6
Continuous
 62
     7
370
    25
100
AcDbLine
 10
256.8304758714
 20
107.6058096558
 30
0.0
 11
256.8304758714
 21
108.4351926468
 31
0.0
  0
LINE
  5
12F
330
1F
100
AcDbEntity
  8
0
  6
Continuous
 62
     7
370
    25
100
AcDbLine
 10
256.8304758714
 20
107.6058096558
 30
0.0
 11
254.8557406159
 21
107.6058096558
 31
0.0
  0
LINE
  5
130
330
1F
100
AcDbEntity
  8
0
  6
Continuous
 62
     7
370
    25
100
AcDbLine
 10
254.1864089734
 20
107.6058096558
 30
0.0
 11
252.2116737179
 21
107.6058096558
 31
0.0
  0
LINE
  5
131
330
1F
100
AcDbEntity
  8
0
  6
Continuous
 62
     7
370
    25
100
AcDbLine
 10
254.1598588625
 20
95.1058096558
 30
0.0
 11
240.1598588625
 21
95.1058096558
 31
0.0
  0
LINE
  5
132
330
1F
100
AcDbEntity
  8
0
  6
Continuous
 62
     7
370
    25
100
AcDbLine
 10
253.1598588625
 20
112.1058096558
 30
0.0
 11
251.1598588625
 21
114.1058096558
 31
0.0
  0
LINE
  5
133
330
1F
100
AcDbEntity
  8
0
  6
Continuous
 62
     7
370
    25
100
AcDbLine
 10
251.1598588625
 20
111.1058096558
 30
0.0
 11
254.1224799351
 21
111.1058096558
 31
0.0
  0
LINE
  5
134
330
1F
100
AcDbEntity
  8
0
  6
Continuous
 62
     7
370
    25
100
AcDbLine
 10
243.1598588625
 20
114.1058096558
 30
0.0
 11
241.1598588625
 21
112.1058096558
 31
0.0
  0
LINE
  5
135
330
1F
100
AcDbEntity
  8
0
  6
Continuous
 62
     7
370
    25
100
AcDbLine
 10
240.1972377898
 20
111.1058096558
 30
0.0
 11
243.1598588625
 21
111.1058096558
 31
0.0
  0
LINE
  5
136
330
1F
100
AcDbEntity
  8
0
  6
Continuous
 62
     7
370
    25
100
AcDbLine
 10
241.1598588625
 20
126.040264134
 30
0.0
 11
241.1598588625
 21
125.4670255879
 31
0.0
  0
SPLINE
  5
137
330
1F
100
AcDbEntity
  8
0
  6
Continuous
 62
     7
370
    25
100
AcDbSpline
210
0.0
220
0.0
230
1.0
 70
     8
 71
     3
 72
    32
 73
    28
 74
     0
 42
0.00000001
 43
0.00000001
 40
0.0
 40
0.0
 40
0.0
 40
0.0
 40
0.0625000000000001
 40
0.0625000000000001
 40
0.1250000000000001
 40
0.1250000000000001
 40
0.1875000000000002
 40
0.1875000000000002
 40
0.2500000000000003
 40
0.2500000000000003
 40
0.3750000000000003
 40
0.3750000000000003
 40
0.4375000000000003
 40
0.4375000000000003
 40
0.5000000000000002
 40
0.5000000000000002
 40
0.5625000000000002
 40
0.5625000000000002
 40
0.6250000000000001
 40
0.6250000000000001
 40
0.7500000000000001
 40
0.7500000000000001
 40
0.8750000000000002
 40
0.8750000000000002
 40
0.9375000000000001
 40
0.9375000000000001
 40
1.0
 40
1.0
 40
1.0
 40
1.0
 10
253.1598588624697
 20
126.0402641339966
 30
0.0
 10
253.0030025265528
 20
125.9453071561009
 30
0.0
 10
252.8300040923971
 20
125.8425539814758
 30
0.0
 10
252.4532995057713
 20
125.6258427798275
 30
0.0
 10
252.2504467253146
 20
125.5124240693375
 30
0.0
 10
251.8244654625121
 20
125.2843339326393
 30
0.0
 10
251.6002875022241
 20
125.1690270501875
 30
0.0
 10
251.1289364086476
 20
124.9407039478127
 30
0.0
 10
250.8802508932826
 20
124.8270539316789
 30
0.0
 10
250.109678408591
 20
124.5039899004449
 30
0.0
 10
249.5640409985088
 20
124.3110913762814
 30
0.0
 10
248.6812612500124
 20
124.0994974510077
 30
0.0
 10
248.3826221501396
 20
124.0438550648899
 30
0.0
 10
247.7761205494238
 20
123.9681869955261
 30
0.0
 10
247.4659733107579
 20
123.9482137497498
 30
0.0
 10
246.8458878220741
 20
123.948547516003
 30
0.0
 10
246.5393167846061
 20
123.9685464813258
 30
0.0
 10
245.9326620372979
 20
124.0445852675223
 30
0.0
 10
245.6302889726726
 20
124.1012383676538
 30
0.0
 10
244.7536526699196
 20
124.3120169176997
 30
0.0
 10
244.2055985379427
 20
124.5055627482714
 30
0.0
 10
243.1751012706994
 20
124.9381820415472
 30
0.0
 10
242.70754123542
 20
125.1706586862376
 30
0.0
 10
242.069327631792
 20
125.5123966871567
 30
0.0
 10
241.8661178936022
 20
125.6260142025851
 30
0.0
 10
241.4897809672077
 20
125.8425165949413
 30
0.0
 10
241.3168023587162
 20
125.9452543913857
 30
0.0
 10
241.1598588624782
 20
126.0402641340018
 30
0.0
  0
LINE
  5
138
330
1F
100
AcDbEntity
  8
0
  6
Continuous
 62
     7
370
    25
100
AcDbLine
 10
253.1598588625
 20
126.040264134
 30
0.0
 11
253.1598588625
 21
125.4670255879
 31
0.0
  0
SPLINE
  5
139
330
1F
100
AcDbEntity
  8
0
  6
Continuous
 62
     7
370
    25
100
AcDbSpline
210
0.0
220
0.0
230
1.0
 70
     8
 71
     3
 72
    12
 73
     8
 74
     0
 42
0.00000001
 43
0.00000001
 40
0.0
 40
0.0
 40
0.0
 40
0.0
 40
0.0821632803394709
 40
0.3096857679196839
 40
0.5425000507316683
 40
0.7710657647918078
 40
1.0
 40
1.0
 40
1.0
 40
1.0
 10
253.3332982246145
 20
126.8990197006145
 30
0.0
 10
253.3344301008916
 20
126.9027889974959
 30
0.0
 10
253.3386963129098
 20
126.9169960446637
 30
0.0
 10
253.3062410887357
 20
126.8096400258576
 30
0.0
 10
253.2502766168456
 20
126.6037021983548
 30
0.0
 10
253.1820671887016
 20
126.3204067406646
 30
0.0
 10
253.1672656121625
 20
126.1336951356225
 30
0.0
 10
253.1598588624782
 20
126.0402641339946
 30
0.0
  0
SPLINE
  5
13A
330
1F
100
AcDbEntity
  8
0
  6
Continuous
 62
     7
370
    25
100
AcDbSpline
210
0.0
220
0.0
230
1.0
 70
     8
 71
     3
 72
    11
 73
     7
 74
     0
 42
0.00000001
 43
0.00000001
 40
0.0
 40
0.0
 40
0.0
 40
0.0
 40
0.3176442405532598
 40
0.6359756317404696
 40
0.8657108608780139
 40
1.0
 40
1.0
 40
1.0
 40
1.0
 10
241.1598588624782
 20
126.0402641340017
 30
0.0
 10
241.146220080498
 20
126.1715288517018
 30
0.0
 10
241.1189130121535
 20
126.4343422482839
 30
0.0
 10
241.0309087016546
 20
126.7459855858856
 30
0.0
 10
240.9863491306053
 20
126.8997293238891
 30
0.0
 10
240.986697505128
 20
126.8982171665535
 30
0.0
 10
240.9868260210155
 20
126.897659329429
 30
0.0
  0
LINE
  5
13B
330
1F
100
AcDbEntity
  8
0
  6
Continuous
 62
     7
370
    25
100
AcDbLine
 10
241.2598588625
 20
127.6058096558
 30
0.0
 11
241.2605087838
 21
127.6052576878
 31
0.0
  0
SPLINE
  5
13C
330
1F
100
AcDbEntity
  8
0
  6
Continuous
 62
     7
370
    25
100
AcDbSpline
210
0.0
220
0.0
230
1.0
 70
     8
 71
     3
 72
    10
 73
     6
 74
     0
 42
0.00000001
 43
0.00000001
 40
0.0
 40
0.0
 40
0.0
 40
0.0
 40
0.1601790552921523
 40
0.7197651707804853
 40
1.0
 40
1.0
 40
1.0
 40
1.0
 10
240.4479080241011
 20
127.838704943452
 30
0.0
 10
240.4471452340078
 20
127.8400971714783
 30
0.0
 10
240.4437176339341
 20
127.8463531532066
 30
0.0
 10
240.4582250987324
 20
127.8198458884788
 30
0.0
 10
240.4761546518502
 20
127.7872900333336
 30
0.0
 10
240.4821374572179
 20
127.7764266647022
 30
0.0
  0
SPLINE
  5
13D
330
1F
100
AcDbEntity
  8
0
  6
Continuous
 62
     7
370
    25
100
AcDbSpline
210
0.0
220
0.0
230
1.0
 70
     8
 71
     3
 72
     9
 73
     5
 74
     0
 42
0.00000001
 43
0.00000001
 40
0.0
 40
0.0
 40
0.0
 40
0.0
 40
0.5797912171256431
 40
1.0
 40
1.0
 40
1.0
 40
1.0
 10
253.8375802677383
 20
127.7764266647022
 30
0.0
 10
253.8499388710848
 20
127.7989003129433
 30
0.0
 10
253.8712544808792
 20
127.8376619353642
 30
0.0
 10
253.871645423382
 20
127.8383963401224
 30
0.0
 10
253.8718097008553
 20
127.838704943452
 30
0.0
  0
SPLINE
  5
13E
330
1F
100
AcDbEntity
  8
0
  6
Continuous
 62
     7
370
    25
100
AcDbSpline
210
0.0
220
0.0
230
1.0
 70
     8
 71
     3
 72
    10
 73
     6
 74
     0
 42
0.00000001
 43
0.00000001
 40
0.0
 40
0.0
 40
0.0
 40
0.0
 40
0.1593935212994522
 40
0.7189934545690309
 40
1.0
 40
1.0
 40
1.0
 40
1.0
 10
236.3718172573158
 20
127.8387187441687
 30
0.0
 10
236.3725787843132
 20
127.8401086629953
 30
0.0
 10
236.3760138858292
 20
127.8463783189422
 30
0.0
 10
236.3615192633627
 20
127.8198943771184
 30
0.0
 10
236.34357789287
 20
127.7873169730716
 30
0.0
 10
236.3375802677384
 20
127.7764266647022
 30
0.0
  0
LINE
  5
13F
330
1F
100
AcDbEntity
  8
0
  6
Continuous
 62
     7
370
    25
100
AcDbLine
 10
235.6598588625
 20
126.6058096558
 30
0.0
 11
235.6598588625
 21
125.4670255879
 31
0.0
  0
SPLINE
  5
140
330
1F
100
AcDbEntity
  8
0
  6
Continuous
 62
     7
370
    25
100
AcDbSpline
210
0.0
220
0.0
230
1.0
 70
     8
 71
     3
 72
     9
 73
     5
 74
     0
 42
0.00000001
 43
0.00000001
 40
0.0
 40
0.0
 40
0.0
 40
0.0
 40
0.5789479223839474
 40
0.9999999999999999
 40
0.9999999999999999
 40
0.9999999999999999
 40
0.9999999999999999
 10
236.3375802677384
 20
108.4351926468497
 30
0.0
 10
236.3499211580526
 20
108.4127512796574
 30
0.0
 10
236.3712372209265
 20
108.3739889552328
 30
0.0
 10
236.3716453948411
 20
108.3732230523735
 30
0.0
 10
236.3718172573158
 20
108.3729005673833
 30
0.0
  0
LINE
  5
141
330
1F
100
AcDbEntity
  8
0
  6
Continuous
 62
     7
370
    25
100
AcDbLine
 10
235.6598588625
 20
110.7445937236
 30
0.0
 11
235.6598588625
 21
109.6058096558
 31
0.0
  0
LINE
  5
142
330
1F
100
AcDbEntity
  8
0
  6
Continuous
 62
     7
370
    25
100
AcDbLine
 10
256.8974631695
 20
108.3682053487
 30
0.0
 11
256.8304758714
 21
108.4351926468
 31
0.0
  0
LINE
  5
143
330
1F
100
AcDbEntity
  8
0
  6
Continuous
 62
     7
370
    25
100
AcDbLine
 10
256.8304758714
 20
107.6058096558
 30
0.0
 11
256.8974631695
 21
107.6058096558
 31
0.0
  0
LINE
  5
144
330
1F
100
AcDbEntity
  8
0
  6
Continuous
 62
     7
370
    25
100
AcDbLine
 10
237.4892418536
 20
108.4351926468
 30
0.0
 11
237.4222545554
 21
108.3682053487
 31
0.0
  0
LINE
  5
145
330
1F
100
AcDbEntity
  8
0
  6
Continuous
 62
     7
370
    25
100
AcDbLine
 10
237.4222545554
 20
107.6058096558
 30
0.0
 11
237.4892418536
 21
107.6058096558
 31
0.0
  0
LINE
  5
146
330
1F
100
AcDbEntity
  8
0
  6
Continuous
 62
     7
370
    25
100
AcDbLine
 10
252.3989441951
 20
144.6058096558
 30
0.0
 11
252.3989441951
 21
145.2058096558
 31
0.0
  0
LINE
  5
147
330
1F
100
AcDbEntity
  8
0
  6
Continuous
 62
     7
370
    25
100
AcDbLine
 10
241.9207735298
 20
144.6058096558
 30
0.0
 11
252.3989441951
 21
144.6058096558
 31
0.0
  0
LINE
  5
148
330
1F
100
AcDbEntity
  8
0
  6
Continuous
 62
     7
370
    25
100
AcDbLine
 10
241.9207735298
 20
145.2058096558
 30
0.0
 11
241.9207735298
 21
144.6058096558
 31
0.0
  0
LINE
  5
149
330
1F
100
AcDbEntity
  8
0
  6
Continuous
 62
     7
370
    25
100
AcDbLine
 10
252.3989441951
 20
145.2058096558
 30
0.0
 11
241.9207735298
 21
145.2058096558
 31
0.0
  0
SPLINE
  5
14A
330
1F
100
AcDbEntity
  8
0
  6
Continuous
 62
     7
370
    25
100
AcDbSpline
210
0.0
220
0.0
230
1.0
 70
     8
 71
     3
 72
    15
 73
    11
 74
     0
 42
0.00000001
 43
0.00000001
 40
0.0
 40
0.0
 40
0.0
 40
0.0
 40
0.0090459071881971
 40
0.1032433785236816
 40
0.1542564497735189
 40
0.31331690267151
 40
0.5243720399414428
 40
0.6678060008509183
 40
0.9918332554187028
 40
1.0
 40
1.0
 40
1.0
 40
1.0
 10
252.3989441951363
 20
145.2058096557759
 30
0.0
 10
252.3989385031696
 20
145.2074907543603
 30
0.0
 10
252.3988735392188
 20
145.2266775859158
 30
0.0
 10
252.3968778527829
 20
145.2553718654358
 30
0.0
 10
252.3890608565665
 20
145.3060479054078
 30
0.0
 10
252.3718910328115
 20
145.3639242049847
 30
0.0
 10
252.345307136244
 20
145.4087897197194
 30
0.0
 10
252.3074778377553
 20
145.4461521029739
 30
0.0
 10
252.2791970577451
 20
145.4556981152433
 30
0.0
 10
252.2593659102138
 20
145.4558069794302
 30
0.0
 10
252.258878376071
 20
145.4558096557759
 30
0.0
  0
SPLINE
  5
14B
330
1F
100
AcDbEntity
  8
0
  6
Continuous
 62
     7
370
    25
100
AcDbSpline
210
0.0
220
0.0
230
1.0
 70
     8
 71
     3
 72
    15
 73
    11
 74
     0
 42
0.00000001
 43
0.00000001
 40
0.0
 40
0.0
 40
0.0
 40
0.0
 40
0.0081667445812973
 40
0.3321939991490804
 40
0.475627960058556
 40
0.6866830973284891
 40
0.8457435502264751
 40
0.8967566214763124
 40
0.9909540928118028
 40
1.0
 40
1.0
 40
1.0
 40
1.0
 10
242.0608393488854
 20
145.4558096557759
 30
0.0
 10
242.0603518147425
 20
145.4558069794301
 30
0.0
 10
242.0405206672112
 20
145.4556981152433
 30
0.0
 10
242.012239887201
 20
145.4461521029739
 30
0.0
 10
241.9744105887123
 20
145.4087897197193
 30
0.0
 10
241.9478266921448
 20
145.3639242049847
 30
0.0
 10
241.9306568683899
 20
145.3060479054078
 30
0.0
 10
241.9228398721734
 20
145.2553718654358
 30
0.0
 10
241.9208441857375
 20
145.2266775859158
 30
0.0
 10
241.9207792217867
 20
145.2074907543604
 30
0.0
 10
241.9207735298201
 20
145.2058096557759
 30
0.0
  0
LINE
  5
14C
330
1F
100
AcDbEntity
  8
0
  6
Continuous
 62
     7
370
    25
100
AcDbLine
 10
242.0608393489
 20
145.4558096558
 30
0.0
 11
252.2588783761
 21
145.4558096558
 31
0.0
  0
SPLINE
  5
14D
330
1F
100
AcDbEntity
  8
0
  6
Continuous
 62
     7
370
    25
100
AcDbSpline
210
0.0
220
0.0
230
1.0
 70
     8
 71
     3
 72
    15
 73
    11
 74
     0
 42
0.00000001
 43
0.00000001
 40
0.0
 40
0.0
 40
0.0
 40
0.0
 40
0.0089557228015919
 40
0.0999003359608209
 40
0.1531632460581751
 40
0.3125636920784904
 40
0.5249666935695061
 40
0.6689893599351777
 40
0.991915253381045
 40
1.0
 40
1.0
 40
1.0
 40
1.0
 10
241.6826332874265
 20
145.2058096557759
 30
0.0
 10
241.6826490430051
 20
145.2074907813488
 30
0.0
 10
241.6828247951617
 20
145.2262435959732
 30
0.0
 10
241.6882538111812
 20
145.2550058250808
 30
0.0
 10
241.7097892948885
 20
145.305892898549
 30
0.0
 10
241.7574947231533
 20
145.3640285486817
 30
0.0
 10
241.8298856681453
 20
145.4087364218651
 30
0.0
 10
241.9318047801629
 20
145.4460182453269
 30
0.0
 10
242.0071598716179
 20
145.4556974001645
 30
0.0
 10
242.0595595173413
 20
145.4558069793662
 30
0.0
 10
242.0608393488854
 20
145.4558096557759
 30
0.0
  0
LINE
  5
14E
330
1F
100
AcDbEntity
  8
0
  6
Continuous
 62
     7
370
    25
100
AcDbLine
 10
241.6826332874
 20
145.2058096558
 30
0.0
 11
241.9207735298
 21
145.2058096558
 31
0.0
  0
SPLINE
  5
14F
330
1F
100
AcDbEntity
  8
0
  6
Continuous
 62
     7
370
    25
100
AcDbSpline
210
0.0
220
0.0
230
1.0
 70
     8
 71
     3
 72
    15
 73
    11
 74
     0
 42
0.00000001
 43
0.00000001
 40
0.0
 40
0.0
 40
0.0
 40
0.0
 40
0.0080847466189582
 40
0.3310106400648243
 40
0.4750333064304948
 40
0.6874363079215142
 40
0.8468367539418303
 40
0.9000996640391847
 40
0.9910442771984082
 40
1.0
 40
1.0
 40
1.0
 40
1.0
 10
252.258878376071
 20
145.4558096557759
 30
0.0
 10
252.260158207615
 20
145.4558069793662
 30
0.0
 10
252.3125578533383
 20
145.4556974001645
 30
0.0
 10
252.3879129447934
 20
145.4460182453269
 30
0.0
 10
252.4898320568111
 20
145.4087364218651
 30
0.0
 10
252.562223001803
 20
145.3640285486817
 30
0.0
 10
252.6099284300678
 20
145.305892898549
 30
0.0
 10
252.6314639137751
 20
145.2550058250808
 30
0.0
 10
252.6368929297946
 20
145.2262435959732
 30
0.0
 10
252.6370686819512
 20
145.2074907813488
 30
0.0
 10
252.6370844375298
 20
145.2058096557759
 30
0.0
  0
LINE
  5
150
330
1F
100
AcDbEntity
  8
0
  6
Continuous
 62
     7
370
    25
100
AcDbLine
 10
252.3989441951
 20
145.2058096558
 30
0.0
 11
252.6370844375
 21
145.2058096558
 31
0.0
  0
LINE
  5
151
330
1F
100
AcDbEntity
  8
0
  6
Continuous
 62
     7
370
    25
100
AcDbLine
 10
241.6826332874
 20
144.6058096558
 30
0.0
 11
241.6826332874
 21
145.2058096558
 31
0.0
  0
LINE
  5
152
330
1F
100
AcDbEntity
  8
0
  6
Continuous
 62
     7
370
    25
100
AcDbLine
 10
241.9207735298
 20
144.6058096558
 30
0.0
 11
241.6826332874
 21
144.6058096558
 31
0.0
  0
LINE
  5
153
330
1F
100
AcDbEntity
  8
0
  6
Continuous
 62
     7
370
    25
100
AcDbLine
 10
252.6370844375
 20
145.2058096558
 30
0.0
 11
252.6370844375
 21
144.6058096558
 31
0.0
  0
LINE
  5
154
330
1F
100
AcDbEntity
  8
0
  6
Continuous
 62
     7
370
    25
100
AcDbLine
 10
252.6370844375
 20
144.6058096558
 30
0.0
 11
252.3989441951
 21
144.6058096558
 31
0.0
  0
LINE
  5
155
330
1F
100
AcDbEntity
  8
0
  6
Continuous
 62
     7
370
    25
100
AcDbLine
 10
241.6826332874
 20
145.2058096558
 30
0.0
 11
241.4098588625
 21
145.2058096558
 31
0.0
  0
LINE
  5
156
330
1F
100
AcDbEntity
  8
0
  6
Continuous
 62
     7
370
    25
100
AcDbLine
 10
241.4098588625
 20
145.4558096558
 30
0.0
 11
241.4098588625
 21
145.2058096558
 31
0.0
  0
LINE
  5
157
330
1F
100
AcDbEntity
  8
0
  6
Continuous
 62
     7
370
    25
100
AcDbLine
 10
241.4098588625
 20
145.4558096558
 30
0.0
 11
242.0608393489
 21
145.4558096558
 31
0.0
  0
LINE
  5
158
330
1F
100
AcDbEntity
  8
0
  6
Continuous
 62
     7
370
    25
100
AcDbLine
 10
252.9098588625
 20
145.2058096558
 30
0.0
 11
253.1598588625
 21
145.2058096558
 31
0.0
  0
LINE
  5
159
330
1F
100
AcDbEntity
  8
0
  6
Continuous
 62
     7
370
    25
100
AcDbLine
 10
252.9098588625
 20
145.2058096558
 30
0.0
 11
252.9098588625
 21
145.4558096558
 31
0.0
  0
ARC
  5
15A
330
1F
100
AcDbEntity
  8
0
  6
Continuous
 62
     7
370
    25
100
AcDbCircle
 10
252.9098588625
 20
145.2058096558
 30
0.0
 40
0.25
100
AcDbArc
 50
0.0
 51
90.0
  0
LINE
  5
15B
330
1F
100
AcDbEntity
  8
0
  6
Continuous
 62
     7
370
    25
100
AcDbLine
 10
241.4098588625
 20
145.2058096558
 30
0.0
 11
241.4098588625
 21
144.6058096558
 31
0.0
  0
LINE
  5
15C
330
1F
100
AcDbEntity
  8
0
  6
Continuous
 62
     7
370
    25
100
AcDbLine
 10
241.4098588625
 20
144.6058096558
 30
0.0
 11
241.6826332874
 21
144.6058096558
 31
0.0
  0
LINE
  5
15D
330
1F
100
AcDbEntity
  8
0
  6
Continuous
 62
     7
370
    25
100
AcDbLine
 10
252.9098588625
 20
145.2058096558
 30
0.0
 11
252.6370844375
 21
145.2058096558
 31
0.0
  0
LINE
  5
15E
330
1F
100
AcDbEntity
  8
0
  6
Continuous
 62
     7
370
    25
100
AcDbLine
 10
252.2588783761
 20
145.4558096558
 30
0.0
 11
252.9098588625
 21
145.4558096558
 31
0.0
  0
LINE
  5
15F
330
1F
100
AcDbEntity
  8
0
  6
Continuous
 62
     7
370
    25
100
AcDbLine
 10
252.9098588625
 20
144.6058096558
 30
0.0
 11
252.9098588625
 21
145.2058096558
 31
0.0
  0
LINE
  5
160
330
1F
100
AcDbEntity
  8
0
  6
Continuous
 62
     7
370
    25
100
AcDbLine
 10
253.1598588625
 20
145.2058096558
 30
0.0
 11
253.1598588625
 21
144.6058096558
 31
0.0
  0
LINE
  5
161
330
1F
100
AcDbEntity
  8
0
  6
Continuous
 62
     7
370
    25
100
AcDbLine
 10
253.1598588625
 20
144.6058096558
 30
0.0
 11
252.9098588625
 21
144.6058096558
 31
0.0
  0
LINE
  5
162
330
1F
100
AcDbEntity
  8
0
  6
Continuous
 62
     7
370
    25
100
AcDbLine
 10
241.1598588625
 20
144.6058096558
 30
0.0
 11
241.1598588625
 21
145.2058096558
 31
0.0
  0
LINE
  5
163
330
1F
100
AcDbEntity
  8
0
  6
Continuous
 62
     7
370
    25
100
AcDbLine
 10
241.1598588625
 20
145.2058096558
 30
0.0
 11
241.4098588625
 21
145.2058096558
 31
0.0
  0
LINE
  5
164
330
1F
100
AcDbEntity
  8
0
  6
Continuous
 62
     7
370
    25
100
AcDbLine
 10
241.4098588625
 20
144.6058096558
 30
0.0
 11
241.1598588625
 21
144.6058096558
 31
0.0
  0
LINE
  5
165
330
1F
100
AcDbEntity
  8
0
  6
Continuous
 62
     7
370
    25
100
AcDbLine
 10
252.6370844375
 20
144.6058096558
 30
0.0
 11
252.9098588625
 21
144.6058096558
 31
0.0
  0
ARC
  5
166
330
1F
100
AcDbEntity
  8
0
  6
Continuous
 62
     7
370
    25
100
AcDbCircle
 10
241.4098588625
 20
145.2058096558
 30
0.0
 40
0.25
100
AcDbArc
 50
90.0
 51
180.0
  0
LINE
  5
167
330
1F
100
AcDbEntity
  8
0
  6
Continuous
 62
     7
370
    25
100
AcDbLine
 10
242.1598588625
 20
145.4558096558
 30
0.0
 11
242.1598588625
 21
145.4658096558
 31
0.0
  0
LINE
  5
168
330
1F
100
AcDbEntity
  8
0
  6
Continuous
 62
     7
370
    25
100
AcDbLine
 10
252.1598588625
 20
145.4558096558
 30
0.0
 11
252.1598588625
 21
145.4658096558
 31
0.0
  0
LINE
  5
169
330
1F
100
AcDbEntity
  8
0
  6
Continuous
 62
     7
370
    25
100
AcDbLine
 10
242.1598588625
 20
145.4658096558
 30
0.0
 11
252.1598588625
 21
145.4658096558
 31
0.0
  0
LINE
  5
16A
330
1F
100
AcDbEntity
  8
0
  6
Continuous
 62
     7
370
    25
100
AcDbLine
 10
245.1598588625
 20
128.6058096558
 30
0.0
 11
254.1598588625
 21
128.6058096558
 31
0.0
  0
LINE
  5
16B
330
1F
100
AcDbEntity
  8
0
  6
Continuous
 62
     7
370
    25
100
AcDbLine
 10
245.1598588625
 20
128.6436265796
 30
0.0
 11
245.1598588625
 21
128.6058096558
 31
0.0
  0
SPLINE
  5
16C
330
1F
100
AcDbEntity
  8
0
  6
Continuous
 62
     7
370
    25
100
AcDbSpline
210
0.0
220
0.0
230
1.0
 70
     8
 71
     3
 72
     9
 73
     5
 74
     0
 42
0.00000001
 43
0.00000001
 40
0.0
 40
0.0
 40
0.0
 40
0.0
 40
0.4875141023677128
 40
0.9999999999999999
 40
0.9999999999999999
 40
0.9999999999999999
 40
0.9999999999999999
 10
245.003913612051
 20
128.605809655776
 30
0.0
 10
245.0302201859735
 20
128.6075370017477
 30
0.0
 10
245.0841808279218
 20
128.6110801730391
 30
0.0
 10
245.1342163586165
 20
128.6325986589885
 30
0.0
 10
245.1598588624782
 20
128.6436265795759
 30
0.0
  0
SPLINE
  5
16D
330
1F
100
AcDbEntity
  8
0
  6
Continuous
 62
     7
370
    25
100
AcDbSpline
210
0.0
220
0.0
230
1.0
 70
     8
 71
     3
 72
    17
 73
    13
 74
     0
 42
0.00000001
 43
0.00000001
 40
0.0
 40
0.0
 40
0.0
 40
0.0
 40
0.3241697628029873
 40
0.5422758463620719
 40
0.689509052693928
 40
0.7894036290694505
 40
0.8577090008137825
 40
0.9049823971474137
 40
0.9551712229700868
 40
0.9753097783197817
 40
0.9919572060138848
 40
1.0
 40
1.0
 40
1.0
 40
1.0
 10
242.685311978396
 20
136.6058096557736
 30
0.0
 10
242.8280273384132
 20
135.6931961531679
 30
0.0
 10
243.0667636473551
 20
134.1665631469065
 30
0.0
 10
243.4463508418068
 20
132.2397902446255
 30
0.0
 10
243.7554850501539
 20
130.9521547736928
 30
0.0
 10
244.011598578354
 20
130.093002806971
 30
0.0
 10
244.225909581249
 20
129.5195349185936
 30
0.0
 10
244.4291438022769
 20
129.0980027645637
 30
0.0
 10
244.6136890668195
 20
128.8175102217682
 30
0.0
 10
244.7997601531876
 20
128.6619615531876
 30
0.0
 10
244.9149707524435
 20
128.6113509539901
 30
0.0
 10
244.9820595579164
 20
128.6071712021854
 30
0.0
 10
245.003913612051
 20
128.605809655776
 30
0.0
  0
LINE
  5
16E
330
1F
100
AcDbEntity
  8
0
  6
Continuous
 62
     7
370
    25
100
AcDbLine
 10
242.6853119784
 20
136.6058096558
 30
0.0
 11
254.6098588625
 21
136.6058096558
 31
0.0
  0
SPLINE
  5
16F
330
1F
100
AcDbEntity
  8
0
  6
Continuous
 62
     7
370
    25
100
AcDbSpline
210
0.0
220
0.0
230
1.0
 70
     8
 71
     3
 72
     9
 73
     5
 74
     0
 42
0.00000001
 43
0.00000001
 40
0.0
 40
0.0
 40
0.0
 40
0.0
 40
0.4978401817595073
 40
1.0
 40
1.0
 40
1.0
 40
1.0
 10
243.4455227341577
 20
137.6005532337429
 30
0.0
 10
243.3092008257871
 20
137.4440420510502
 30
0.0
 10
243.0353741774662
 20
137.1296616767312
 30
0.0
 10
242.8023349263696
 20
136.780929128705
 30
0.0
 10
242.685311978396
 20
136.6058096557736
 30
0.0
  0
LINE
  5
170
330
1F
100
AcDbEntity
  8
0
  6
Continuous
 62
     7
370
    25
100
AcDbLine
 10
241.9360566881
 20
144.6058096558
 30
0.0
 11
240.2079180242
 21
137.6005532337
 31
0.0
  0
LINE
  5
171
330
1F
100
AcDbEntity
  8
0
  6
Continuous
 62
     7
370
    25
100
AcDbLine
 10
252.3989441951
 20
144.6058096557
 30
0.0
 11
241.9360566881
 21
144.6058096558
 31
0.0
  0
SPLINE
  5
172
330
1F
100
AcDbEntity
  8
0
  6
Continuous
 62
     7
370
    25
100
AcDbSpline
210
0.0
220
0.0
230
1.0
 70
     8
 71
     3
 72
    14
 73
    10
 74
     0
 42
0.00000001
 43
0.00000001
 40
0.0
 40
0.0
 40
0.0
 40
0.0
 40
0.1576095309202822
 40
0.3152382602707094
 40
0.4726926441579498
 40
0.6301650083177254
 40
0.7907313191165901
 40
0.9513050385928076
 40
1.0
 40
1.0
 40
1.0
 40
1.0
 10
240.6598588624782
 20
128.6058096557759
 30
0.0
 10
240.5932878476961
 20
128.8193114442533
 30
0.0
 10
240.4601377091112
 20
129.2463410278788
 30
0.0
 10
240.1315707473605
 20
129.8315881067351
 30
0.0
 10
239.7181811066285
 20
130.3537426475576
 30
0.0
 10
239.2225061876838
 20
130.8027207749774
 30
0.0
 10
238.6562164823993
 20
131.1620025067838
 30
0.0
 10
238.1799658260063
 20
131.366568685885
 30
0.0
 10
237.8997712578135
 20
131.4473632342363
 30
0.0
 10
237.8345724730405
 20
131.4661634072831
 30
0.0
  0
LINE
  5
173
330
1F
100
AcDbEntity
  8
0
  6
Continuous
 62
     7
370
    25
100
AcDbLine
 10
237.834572473
 20
131.4661634073
 30
0.0
 11
232.0548156232
 21
133.0347848478
 31
0.0
  0
SPLINE
  5
174
330
1F
100
AcDbEntity
  8
0
  6
Continuous
 62
     7
370
    25
100
AcDbSpline
210
0.0
220
0.0
230
1.0
 70
     8
 71
     3
 72
    11
 73
     7
 74
     0
 42
0.00000001
 43
0.00000001
 40
0.0
 40
0.0
 40
0.0
 40
0.0
 40
0.2488466353289361
 40
0.4976946020535204
 40
0.7488461225871278
 40
1.0
 40
1.0
 40
1.0
 40
1.0
 10
224.9844220009415
 20
134.3579853487515
 30
0.0
 10
225.5788580500778
 20
134.2884609722578
 30
0.0
 10
226.7677333287412
 20
134.1494118472966
 30
0.0
 10
228.5424579994502
 20
133.8490831091714
 30
0.0
 10
230.3090386411926
 20
133.4871734909162
 30
0.0
 10
231.4728881422123
 20
133.1855815338517
 30
0.0
 10
232.0548156231852
 20
133.0347848477659
 30
0.0
  0
LINE
  5
175
330
1F
100
AcDbEntity
  8
0
  6
Continuous
 62
     7
370
    25
100
AcDbLine
 10
224.9844220009
 20
134.3579853488
 30
0.0
 11
224.9844220009
 21
137.6005532338
 31
0.0
  0
LINE
  5
176
330
1F
100
AcDbEntity
  8
0
  6
Continuous
 62
     7
370
    25
100
AcDbLine
 10
224.9844220009
 20
137.6005532338
 30
0.0
 11
243.4455227342
 21
137.6005532337
 31
0.0
  0
LINE
  5
177
330
1F
100
AcDbEntity
  8
0
  6
Continuous
 62
     7
370
    25
100
AcDbLine
 10
245.0039136121
 20
128.6058096558
 30
0.0
 11
240.6598588625
 21
128.6058096558
 31
0.0
  0
LINE
  5
178
330
1F
100
AcDbEntity
  8
0
  6
Continuous
 62
     7
370
    25
100
AcDbLine
 10
245.1598588625
 20
128.6436265796
 30
0.0
 11
245.1530595046
 21
128.6058096558
 31
0.0
  0
LINE
  5
179
330
1F
100
AcDbEntity
  8
0
  6
Continuous
 62
     7
370
    25
100
AcDbLine
 10
245.1598588625
 20
128.6058096558
 30
0.0
 11
245.1530595046
 21
128.6058096558
 31
0.0
  0
LINE
  5
17A
330
1F
100
AcDbEntity
  8
0
  6
Continuous
 62
     7
370
    25
100
AcDbLine
 10
245.1530595046
 20
128.6058096558
 30
0.0
 11
245.0039136121
 21
128.6058096558
 31
0.0
  0
LINE
  5
17B
330
1F
100
AcDbEntity
  8
0
  6
Continuous
 62
     7
370
    25
100
AcDbLine
 10
207.1598588625
 20
146.6058096558
 30
0.0
 11
224.9844220009
 21
146.6058096558
 31
0.0
  0
LINE
  5
17C
330
1F
100
AcDbEntity
  8
0
  6
Continuous
 62
     7
370
    25
100
AcDbLine
 10
224.9844220009
 20
146.6058096558
 30
0.0
 11
224.9844220009
 21
137.6005532338
 31
0.0
  0
LINE
  5
17D
330
1F
100
AcDbEntity
  8
0
  6
Continuous
 62
     7
370
    25
100
AcDbLine
 10
220.2681910047
 20
134.6058096558
 30
0.0
 11
212.1598588625
 21
134.6058096558
 31
0.0
  0
ARC
  5
17E
330
1F
100
AcDbEntity
  8
0
  6
Continuous
 62
     7
370
    25
100
AcDbCircle
 10
212.1598588625
 20
139.6058096558
 30
0.0
 40
5.000000000000028
100
AcDbArc
 50
180.0
 51
270.0
  0
LINE
  5
17F
330
1F
100
AcDbEntity
  8
0
  6
Continuous
 62
     7
370
    25
100
AcDbLine
 10
207.1598588625
 20
139.6058096558
 30
0.0
 11
207.1598588625
 21
146.6058096558
 31
0.0
  0
ARC
  5
180
330
1F
100
AcDbEntity
  8
0
  6
Continuous
 62
     7
370
    25
100
AcDbCircle
 10
220.2681910047
 20
89.6056804016
 30
0.0
 40
45.00012925418375
100
AcDbArc
 50
83.9840777705
 51
90.0
  0
LINE
  5
181
330
1F
100
AcDbEntity
  8
0
  6
Continuous
 62
     7
370
    25
100
AcDbLine
 10
224.9844220009
 20
146.6058096558
 30
0.0
 11
227.1598588625
 21
146.6058096558
 31
0.0
  0
LINE
  5
182
330
1F
100
AcDbEntity
  8
0
  6
Continuous
 62
     7
370
    25
100
AcDbLine
 10
227.1598588625
 20
146.6058096558
 30
0.0
 11
227.1598588625
 21
144.6247651792
 31
0.0
  0
ARC
  5
183
330
1F
100
AcDbEntity
  8
0
  6
Continuous
 62
     7
370
    25
100
AcDbCircle
 10
233.1598588625
 20
144.6247651792
 30
0.0
 40
6.000000000000005
100
AcDbArc
 50
180.0
 51
275.5801667845
  0
ARC
  5
184
330
1F
100
AcDbEntity
  8
0
  6
Continuous
 62
     7
370
    25
100
AcDbCircle
 10
232.7709052982
 20
148.6058096558
 30
0.0
 40
10.00000000000848
100
AcDbArc
 50
275.5801667845
 51
336.4218215217
  0
LINE
  5
185
330
1F
100
AcDbEntity
  8
0
  6
Continuous
 62
     7
370
    25
100
AcDbLine
 10
240.6598588625
 20
128.6058096558
 30
0.0
 11
240.1598588625
 21
128.6058096558
 31
0.0
  0
LINE
  5
186
330
1F
100
AcDbEntity
  8
0
  6
Continuous
 62
     7
370
    25
100
AcDbLine
 10
241.9207735298
 20
144.6058096557
 30
0.0
 11
241.9360566881
 21
144.6058096558
 31
0.0
  0
LINE
  5
187
330
1F
100
AcDbEntity
  8
0
  6
Continuous
 62
     7
370
    25
100
AcDbLine
 10
216.7507553969
 20
118.1058096558
 30
0.0
 11
216.7507553969
 21
108.7558096558
 31
0.0
  0
LINE
  5
188
330
1F
100
AcDbEntity
  8
0
  6
Continuous
 62
     7
370
    25
100
AcDbLine
 10
216.7507553969
 20
127.4558096558
 30
0.0
 11
216.7507553969
 21
118.1058096558
 31
0.0
  0
LINE
  5
189
330
1F
100
AcDbEntity
  8
0
  6
Continuous
 62
     7
370
    25
100
AcDbLine
 10
230.1507553969
 20
118.1058096558
 30
0.0
 11
230.1507553969
 21
127.4558096558
 31
0.0
  0
LINE
  5
18A
330
1F
100
AcDbEntity
  8
0
  6
Continuous
 62
     7
370
    25
100
AcDbLine
 10
230.1507553969
 20
108.7558096558
 30
0.0
 11
230.1507553969
 21
118.1058096558
 31
0.0
  0
SPLINE
  5
18B
330
1F
100
AcDbEntity
  8
0
  6
Continuous
 62
     7
370
    25
100
AcDbSpline
210
0.0
220
0.0
230
1.0
 70
     8
 71
     3
 72
    31
 73
    27
 74
     0
 42
0.00000001
 43
0.00000001
 40
0.0
 40
0.0
 40
0.0
 40
0.0
 40
0.0092785172096734
 40
0.0517194225594959
 40
0.0941875915017241
 40
0.1321097114622874
 40
0.1702219817528405
 40
0.2082133638289932
 40
0.2154761572790508
 40
0.2764919091022074
 40
0.3375068836038203
 40
0.3848272717668897
 40
0.4320524674170607
 40
0.4692215971349897
 40
0.5063518088226989
 40
0.5434397481780288
 40
0.5805769908335112
 40
0.6303401820229841
 40
0.6801955473899644
 40
0.7334753834708727
 40
0.7867464961666888
 40
0.8315909612198275
 40
0.8764004659234284
 40
0.9190764275269113
 40
0.9617172194572244
 40
1.0
 40
1.0
 40
1.0
 40
1.0
 10
241.2605087838395
 20
127.6052576877725
 30
0.0
 10
241.2612538237725
 20
127.6046264199882
 30
0.0
 10
241.2654067540573
 20
127.6011076675251
 30
0.0
 10
241.3356895520481
 20
127.5411809165972
 30
0.0
 10
241.5270096618304
 20
127.3807899621543
 30
0.0
 10
241.8019308852704
 20
127.1544953829366
 30
0.0
 10
242.1343480350622
 20
126.889125579439
 30
0.0
 10
242.4214111765798
 20
126.6690468118715
 30
0.0
 10
242.8173585838982
 20
126.3752478413932
 30
0.0
 10
243.3529778305349
 20
125.9948254630056
 30
0.0
 10
244.1687313174494
 20
125.4968009828485
 30
0.0
 10
245.010290475108
 20
125.084683303569
 30
0.0
 10
245.7936975450949
 20
124.8076841422854
 30
0.0
 10
246.5666823897574
 20
124.6562669989142
 30
0.0
 10
247.2972727037504
 20
124.6181175276328
 30
0.0
 10
248.021995157066
 20
124.697449418732
 30
0.0
 10
248.7953647767135
 20
124.889952626625
 30
0.0
 10
249.5857595984766
 20
125.2071120954277
 30
0.0
 10
250.3825641470405
 20
125.6323906347511
 30
0.0
 10
251.1099312467399
 20
126.094851339263
 30
0.0
 10
251.7241371065731
 20
126.5352647348749
 30
0.0
 10
252.2175952606661
 20
126.91372385501
 30
0.0
 10
252.5926638269031
 20
127.215494970371
 30
0.0
 10
252.8628519104859
 20
127.4390837747702
 30
0.0
 10
253.0313030897472
 20
127.5815682483219
 30
0.0
 10
253.0467174774211
 20
127.5945870677273
 30
0.0
 10
253.0540096124874
 20
127.6007459234351
 30
0.0
  0
LINE
  5
18C
330
1F
100
AcDbEntity
  8
FORMAT
100
AcDbLine
 10
239.6576774988
 20
95.9756132922
 30
0.0
 11
239.3098588625
 21
107.1058096558
 31
0.0
  0
LINE
  5
18D
330
1F
100
AcDbEntity
  8
FORMAT
100
AcDbLine
 10
254.6620402261
 20
95.9756132922
 30
0.0
 11
255.0098588625
 21
107.1058096558
 31
0.0
  0
LINE
  5
18E
330
1F
100
AcDbEntity
  8
FORMAT
100
AcDbLine
 10
255.6705463625
 20
107.1058096558
 30
0.0
 11
238.6491713625
 21
107.1058096558
 31
0.0
  0
LINE
  5
18F
330
1F
100
AcDbEntity
  8
FORMAT
100
AcDbLine
 10
222.8038588625
 20
125.5808096558
 30
0.0
 11
232.6598588625
 21
125.5808096558
 31
0.0
  0
LINE
  5
190
330
1F
100
AcDbEntity
  8
FORMAT
100
AcDbLine
 10
222.8038588625
 20
110.6308096558
 30
0.0
 11
232.6598588625
 21
110.6308096558
 31
0.0
  0
LINE
  5
191
330
1F
100
AcDbEntity
  8
FORMAT
100
AcDbLine
 10
232.6598588625
 20
109.7748096558
 30
0.0
 11
232.6598588625
 21
126.4368096558
 31
0.0
  0
LINE
  5
192
330
1F
100
AcDbEntity
  8
FORMAT
  6
CENTERX2
370
    18
100
AcDbLine
 10
185.9507553969
 20
118.1058096558
 30
0.0
 11
261.5204661728
 21
118.1058096558
 31
0.0
  0
LINE
  5
193
330
1F
100
AcDbEntity
  8
FORMAT
  6
CENTERX2
370
    18
100
AcDbLine
 10
247.1598588625
 20
93.1854414818
 30
0.0
 11
247.1598588625
 21
148.1060221442
 31
0.0
  0
LINE
  5
194
330
1F
100
AcDbEntity
  8
0
  6
Continuous
 62
     7
370
    25
100
AcDbLine
 10
309.2475020219
 20
106.7638096558
 30
0.0
 11
309.5468260273
 21
97.1854414818
 31
0.0
  0
LINE
  5
195
330
1F
100
AcDbEntity
  8
0
  6
Continuous
 62
     7
370
    25
100
AcDbLine
 10
325.9481780164
 20
97.1854414818
 30
0.0
 11
326.2475020219
 21
106.7638096558
 31
0.0
  0
LINE
  5
196
330
1F
100
AcDbEntity
  8
0
  6
Continuous
 62
     7
370
    25
100
AcDbLine
 10
309.5468260273
 20
97.1854414818
 30
0.0
 11
310.7475020219
 21
95.1058096558
 31
0.0
  0
LINE
  5
197
330
1F
100
AcDbEntity
  8
0
  6
Continuous
 62
     7
370
    25
100
AcDbLine
 10
324.7475020219
 20
95.1058096558
 30
0.0
 11
325.9481780164
 21
97.1854414818
 31
0.0
  0
SPLINE
  5
198
330
1F
100
AcDbEntity
  8
0
  6
Continuous
 62
     7
370
    25
100
AcDbSpline
210
0.0
220
0.0
230
1.0
 70
     8
 71
     3
 72
     9
 73
     5
 74
     0
 42
0.00000001
 43
0.00000001
 40
0.0
 40
0.0
 40
0.0
 40
0.0
 40
0.1288446165975385
 40
1.0
 40
1.0
 40
1.0
 40
1.0
 10
323.6565675065451
 20
124.509163683752
 30
0.0
 10
323.6553418455362
 20
124.5146019343013
 30
0.0
 10
323.6458291391365
 20
124.5568097555742
 30
0.0
 10
323.6489178717366
 20
124.6004483289326
 30
0.0
 10
323.6516086377689
 20
124.6384643070377
 30
0.0
  0
SPLINE
  5
199
330
1F
100
AcDbEntity
  8
0
  6
Continuous
 62
     7
370
    25
100
AcDbSpline
210
0.0
220
0.0
230
1.0
 70
     8
 71
     3
 72
     9
 73
     5
 74
     0
 42
0.00000001
 43
0.00000001
 40
0.0
 40
0.0
 40
0.0
 40
0.0
 40
0.9309351016389047
 40
0.9999999999999999
 40
0.9999999999999999
 40
0.9999999999999999
 40
0.9999999999999999
 10
311.8461002553842
 20
124.6455304363021
 30
0.0
 10
311.8476867487727
 20
124.6030258235448
 30
0.0
 10
311.8493909421002
 20
124.5573678472987
 30
0.0
 10
311.8403566444421
 20
124.512977812132
 30
0.0
 10
311.8397326915925
 20
124.509912018865
 30
0.0
  0
LINE
  5
19A
330
1F
100
AcDbEntity
  8
0
  6
Continuous
 62
     7
370
    25
100
AcDbLine
 10
323.6475020219
 20
124.639035909
 30
0.0
 11
323.6475020219
 21
128.6058096558
 31
0.0
  0
LINE
  5
19B
330
1F
100
AcDbEntity
  8
0
  6
Continuous
 62
     7
370
    25
100
AcDbLine
 10
311.8475020219
 20
128.6058096558
 30
0.0
 11
311.8475020219
 21
124.6443383197
 31
0.0
  0
ARC
  5
19C
330
1F
100
AcDbEntity
  8
0
  6
Continuous
 62
     7
370
    25
100
AcDbCircle
 10
312.4975020219
 20
145.2058096558
 30
0.0
 40
0.25
100
AcDbArc
 50
90.0
 51
180.0
  0
ARC
  5
19D
330
1F
100
AcDbEntity
  8
0
  6
Continuous
 62
     7
370
    25
100
AcDbCircle
 10
322.9975020219
 20
145.2058096558
 30
0.0
 40
0.2500000000000568
100
AcDbArc
 50
0.0
 51
90.0
  0
LINE
  5
19E
330
1F
100
AcDbEntity
  8
0
  6
Continuous
 62
     7
370
    25
100
AcDbLine
 10
323.2475020219
 20
144.6058096558
 30
0.0
 11
323.2475020219
 21
145.2058096558
 31
0.0
  0
LINE
  5
19F
330
1F
100
AcDbEntity
  8
0
  6
Continuous
 62
     7
370
    25
100
AcDbLine
 10
312.2475020219
 20
145.2058096558
 30
0.0
 11
312.2475020219
 21
144.6058096558
 31
0.0
  0
LINE
  5
1A0
330
1F
100
AcDbEntity
  8
0
  6
Continuous
 62
     7
370
    25
100
AcDbLine
 10
325.1975020219
 20
136.6058096558
 30
0.0
 11
323.2475020218
 21
144.6058096558
 31
0.0
  0
LINE
  5
1A1
330
1F
100
AcDbEntity
  8
0
  6
Continuous
 62
     7
370
    25
100
AcDbLine
 10
312.2475020219
 20
144.6058096558
 30
0.0
 11
310.2975020218
 21
136.6058096558
 31
0.0
  0
LINE
  5
1A2
330
1F
100
AcDbEntity
  8
0
  6
Continuous
 62
     7
370
    25
100
AcDbLine
 10
310.2975020219
 20
136.6058096558
 30
0.0
 11
310.7475020219
 21
128.6058096558
 31
0.0
  0
LINE
  5
1A3
330
1F
100
AcDbEntity
  8
0
  6
Continuous
 62
     7
370
    25
100
AcDbLine
 10
324.7475020219
 20
128.6058096558
 30
0.0
 11
325.1975020219
 21
136.6058096558
 31
0.0
  0
ARC
  5
1A4
330
1F
100
AcDbEntity
  8
0
  6
Continuous
 62
     7
370
    25
100
AcDbCircle
 10
317.7475020219
 20
118.1058096558
 30
0.0
 40
9.350000000000023
100
AcDbArc
 50
155.760897138
 51
180.0
  0
ARC
  5
1A5
330
1F
100
AcDbEntity
  8
0
  6
Continuous
 62
     7
370
    25
100
AcDbCircle
 10
317.7475020219
 20
118.1058096558
 30
0.0
 40
9.350000000000023
100
AcDbArc
 50
129.1251241731
 51
144.432759713
  0
ARC
  5
1A6
330
1F
100
AcDbEntity
  8
0
  6
Continuous
 62
     7
370
    25
100
AcDbCircle
 10
317.7475020219
 20
118.1058096558
 30
0.0
 40
9.35000000000002
100
AcDbArc
 50
35.7424334647
 51
50.8748758269
  0
ARC
  5
1A7
330
1F
100
AcDbEntity
  8
0
  6
Continuous
 62
     7
370
    25
100
AcDbCircle
 10
317.7475020219
 20
118.1058096558
 30
0.0
 40
9.350000000000023
100
AcDbArc
 50
335.6364641225
 51
24.471474347
  0
ARC
  5
1A8
330
1F
100
AcDbEntity
  8
0
  6
Continuous
 62
     7
370
    25
100
AcDbCircle
 10
317.7475020219
 20
118.1058096558
 30
0.0
 40
9.350000000000028
100
AcDbArc
 50
180.0
 51
204.2126946462
  0
SPLINE
  5
1A9
330
1F
100
AcDbEntity
  8
0
  6
Continuous
 62
     7
370
    25
100
AcDbSpline
210
0.0
220
0.0
230
1.0
 70
    24
 71
     3
 72
    10
 73
     6
 74
     0
 42
0.00000001
 43
0.00000001
 40
0.0
 40
0.0
 40
0.0
 40
0.0
 40
0.3476485480001185
 40
0.6951988023297913
 40
1.0
 40
1.0
 40
1.0
 40
1.0
 10
327.2475020218504
 20
123.5906372130774
 30
0.0
 10
326.8370138338156
 20
123.8276326789385
 30
0.0
 10
326.0161535186095
 20
124.3015566028898
 30
0.0
 10
324.8137422191684
 20
124.9957690902988
 30
0.0
 10
324.0188862613822
 20
125.4546793914935
 30
0.0
 10
323.6475020218504
 20
125.6690981821601
 30
0.0
  0
SPLINE
  5
1AA
330
1F
100
AcDbEntity
  8
0
  6
Continuous
 62
     7
370
    25
100
AcDbSpline
210
0.0
220
0.0
230
1.0
 70
    24
 71
     3
 72
    15
 73
    11
 74
     0
 42
0.00000001
 43
0.00000001
 40
0.0
 40
0.0
 40
0.0
 40
0.0
 40
0.1187773235929181
 40
0.2441598194589119
 40
0.3695102609851927
 40
0.4979551415033571
 40
0.6263995824888644
 40
0.7193198252847627
 40
0.8122495246674859
 40
1.0
 40
1.0
 40
1.0
 40
1.0
 10
327.2475020218504
 20
112.6209820984745
 30
0.0
 10
327.2475020218504
 20
113.046240056313
 30
0.0
 10
327.2475020218504
 20
113.9204044428182
 30
0.0
 10
327.2475020218504
 20
115.2667692210803
 30
0.0
 10
327.2475020218504
 20
116.6637339662225
 30
0.0
 10
327.2475020218504
 20
118.0829161231041
 30
0.0
 10
327.2475020218504
 20
119.3819199828079
 30
0.0
 10
327.2475020218504
 20
120.5411931888516
 30
0.0
 10
327.2475020218504
 20
121.9095743993629
 30
0.0
 10
327.2475020218504
 20
122.9168547816619
 30
0.0
 10
327.2475020218504
 20
123.5906372130774
 30
0.0
  0
LINE
  5
1AB
330
1F
100
AcDbEntity
  8
0
  6
Continuous
 62
     7
370
    25
100
AcDbLine
 10
326.2475020219
 20
112.0436318293
 30
0.0
 11
327.2475020219
 21
112.6209820985
 31
0.0
  0
LINE
  5
1AC
330
1F
100
AcDbEntity
  8
0
  6
Continuous
 62
     7
370
    25
100
AcDbLine
 10
308.2475020219
 20
112.6209820985
 30
0.0
 11
309.2475020219
 21
112.0436318293
 31
0.0
  0
SPLINE
  5
1AD
330
1F
100
AcDbEntity
  8
0
  6
Continuous
 62
     7
370
    25
100
AcDbSpline
210
0.0
220
0.0
230
1.0
 70
    24
 71
     3
 72
    15
 73
    11
 74
     0
 42
0.00000001
 43
0.00000001
 40
0.0
 40
0.0
 40
0.0
 40
0.0
 40
0.1859340646112759
 40
0.2797722834992568
 40
0.3736006606664237
 40
0.4988283314689407
 40
0.6240557756286882
 40
0.7526217100068395
 40
0.8812229730944862
 40
1.0
 40
1.0
 40
1.0
 40
1.0
 10
308.2475020218504
 20
123.5906372130775
 30
0.0
 10
308.2475020218504
 20
122.9234144144571
 30
0.0
 10
308.2475020218504
 20
121.9194539709362
 30
0.0
 10
308.2475020218504
 20
120.5512402738997
 30
0.0
 10
308.2475020218504
 20
119.3971520852966
 30
0.0
 10
308.2475020218504
 20
118.1188139517625
 30
0.0
 10
308.2475020218504
 20
116.7114724457167
 30
0.0
 10
308.2475020218504
 20
115.3020348528748
 30
0.0
 10
308.2475020218503
 20
113.9319343281288
 30
0.0
 10
308.2475020218503
 20
113.0462415473127
 30
0.0
 10
308.2475020218503
 20
112.6209820984746
 30
0.0
  0
SPLINE
  5
1AE
330
1F
100
AcDbEntity
  8
0
  6
Continuous
 62
     7
370
    25
100
AcDbSpline
210
0.0
220
0.0
230
1.0
 70
    24
 71
     3
 72
    11
 73
     7
 74
     0
 42
0.00000001
 43
0.00000001
 40
0.0
 40
0.0
 40
0.0
 40
0.0
 40
0.0809298338605163
 40
0.3836253291725085
 40
0.6917828708068204
 40
1.0
 40
1.0
 40
1.0
 40
1.0
 10
311.8475020218503
 20
125.6690981821601
 30
0.0
 10
311.7486208373896
 20
125.6120091036939
 30
0.0
 10
311.2799021322069
 20
125.3413942330825
 30
0.0
 10
310.4418745360273
 20
124.8575587748399
 30
0.0
 10
309.3385293886122
 20
124.2205421569707
 30
0.0
 10
308.6112012487384
 20
123.8006190596254
 30
0.0
 10
308.2475020218504
 20
123.5906372130775
 30
0.0
  0
SPLINE
  5
1AF
330
1F
100
AcDbEntity
  8
0
  6
Continuous
 62
     7
370
    25
100
AcDbSpline
210
0.0
220
0.0
230
1.0
 70
     8
 71
     3
 72
    10
 73
     6
 74
     0
 42
0.00000001
 43
0.00000001
 40
0.0
 40
0.0
 40
0.0
 40
0.0
 40
0.5
 40
0.5
 40
1.0
 40
1.0
 40
1.0
 40
1.0
 10
309.2475020218504
 20
113.487007502259
 30
0.0
 10
309.2475020218504
 20
113.4011204404565
 30
0.0
 10
309.2702944711801
 20
113.3137132314764
 30
0.0
 10
309.3582371752732
 20
113.1610767888826
 30
0.0
 10
309.4230949489471
 20
113.096953743937
 30
0.0
 10
309.4975020218504
 20
113.0539948003668
 30
0.0
  0
SPLINE
  5
1B0
330
1F
100
AcDbEntity
  8
0
  6
Continuous
 62
     7
370
    25
100
AcDbSpline
210
0.0
220
0.0
230
1.0
 70
    24
 71
     3
 72
    14
 73
    10
 74
     0
 42
0.00000001
 43
0.00000001
 40
0.0
 40
0.0
 40
0.0
 40
0.0
 40
0.25
 40
0.25
 40
0.5
 40
0.5
 40
0.75
 40
0.75
 40
1.0
 40
1.0
 40
1.0
 40
1.0
 10
309.2475020218504
 20
113.4870075022589
 30
0.0
 10
309.2475020218504
 20
114.2413875629089
 30
0.0
 10
309.2475020218504
 20
115.0108287303744
 30
0.0
 10
309.2475020218504
 20
116.5513400913156
 30
0.0
 10
309.2475020218504
 20
117.3261944713226
 30
0.0
 10
309.2475020218504
 20
118.8865554262081
 30
0.0
 10
309.2475020218504
 20
119.6770116189932
 30
0.0
 10
309.2475020218504
 20
121.2192912818016
 30
0.0
 10
309.2475020218504
 20
121.9766820350028
 30
0.0
 10
309.2475020218504
 20
122.724611809293
 30
0.0
  0
SPLINE
  5
1B1
330
1F
100
AcDbEntity
  8
0
  6
Continuous
 62
     7
370
    25
100
AcDbSpline
210
0.0
220
0.0
230
1.0
 70
     8
 71
     3
 72
    10
 73
     6
 74
     0
 42
0.00000001
 43
0.00000001
 40
0.0
 40
0.0
 40
0.0
 40
0.0
 40
0.5
 40
0.5
 40
1.0
 40
1.0
 40
1.0
 40
1.0
 10
309.4975020218504
 20
123.1576245111852
 30
0.0
 10
309.423121644473
 20
123.114680980284
 30
0.0
 10
309.3588210056873
 20
123.0512385356598
 30
0.0
 10
309.2706053209043
 20
122.8987596985409
 30
0.0
 10
309.2475020218504
 20
122.8105296964336
 30
0.0
 10
309.2475020218504
 20
122.724611809293
 30
0.0
  0
SPLINE
  5
1B2
330
1F
100
AcDbEntity
  8
0
  6
Continuous
 62
     7
370
    25
100
AcDbSpline
210
0.0
220
0.0
230
1.0
 70
    24
 71
     3
 72
    16
 73
    12
 74
     0
 42
0.00000001
 43
0.00000001
 40
0.0
 40
0.0
 40
0.0
 40
0.0
 40
0.2500000000000001
 40
0.2500000000000001
 40
0.5000000000000001
 40
0.5000000000000001
 40
0.6250000000000001
 40
0.6250000000000001
 40
0.7500000000000002
 40
0.7500000000000002
 40
1.0
 40
1.0
 40
1.0
 40
1.0
 10
317.4975020218504
 20
127.7764266647022
 30
0.0
 10
316.8439852418095
 20
127.3991185758257
 30
0.0
 10
316.1857648327196
 20
127.0190948454515
 30
0.0
 10
314.8562022493538
 20
126.2514715300408
 30
0.0
 10
314.1847782672833
 20
125.863824713252
 30
0.0
 10
313.1657771802766
 20
125.2755041613642
 30
0.0
 10
312.8244363979604
 20
125.0784309688085
 30
0.0
 10
312.1488378949899
 20
124.6883739912544
 30
0.0
 10
311.8131787450253
 20
124.4945810906664
 30
0.0
 10
310.8119131085256
 20
123.916500105903
 30
0.0
 10
310.1520054499225
 20
123.5355022415681
 30
0.0
 10
309.4975020218504
 20
123.1576245111852
 30
0.0
  0
SPLINE
  5
1B3
330
1F
100
AcDbEntity
  8
0
  6
Continuous
 62
     7
370
    25
100
AcDbSpline
210
0.0
220
0.0
230
1.0
 70
     8
 71
     3
 72
    10
 73
     6
 74
     0
 42
0.00000001
 43
0.00000001
 40
0.0
 40
0.0
 40
0.0
 40
0.0
 40
0.5
 40
0.5
 40
1.0
 40
1.0
 40
1.0
 40
1.0
 10
317.9975020218504
 20
127.7764266647022
 30
0.0
 10
317.923121644473
 20
127.8193701956034
 30
0.0
 10
317.8360285563575
 20
127.8433349599594
 30
0.0
 10
317.6598701674815
 20
127.8434925654342
 30
0.0
 10
317.5719090947536
 20
127.8193856082725
 30
0.0
 10
317.4975020218504
 20
127.7764266647022
 30
0.0
  0
SPLINE
  5
1B4
330
1F
100
AcDbEntity
  8
0
  6
Continuous
 62
     7
370
    25
100
AcDbSpline
210
0.0
220
0.0
230
1.0
 70
    24
 71
     3
 72
    16
 73
    12
 74
     0
 42
0.00000001
 43
0.00000001
 40
0.0
 40
0.0
 40
0.0
 40
0.0
 40
0.2499999999999997
 40
0.2499999999999997
 40
0.4999999999999993
 40
0.4999999999999993
 40
0.6249999999999993
 40
0.6249999999999993
 40
0.7499999999999996
 40
0.7499999999999996
 40
1.0
 40
1.0
 40
1.0
 40
1.0
 10
325.9975020218503
 20
123.1576245111852
 30
0.0
 10
325.3439852418095
 20
123.5349326000617
 30
0.0
 10
324.6857648327196
 20
123.9149563304359
 30
0.0
 10
323.3562022493538
 20
124.6825796458466
 30
0.0
 10
322.6847782672833
 20
125.0702264626354
 30
0.0
 10
321.6657771802766
 20
125.6585470145233
 30
0.0
 10
321.3244363979604
 20
125.8556202070789
 30
0.0
 10
320.6488378949899
 20
126.245677184633
 30
0.0
 10
320.3131787450253
 20
126.439470085221
 30
0.0
 10
319.3119131085256
 20
127.0175510699845
 30
0.0
 10
318.6520054499225
 20
127.3985489343193
 30
0.0
 10
317.9975020218504
 20
127.7764266647022
 30
0.0
  0
SPLINE
  5
1B5
330
1F
100
AcDbEntity
  8
0
  6
Continuous
 62
     7
370
    25
100
AcDbSpline
210
0.0
220
0.0
230
1.0
 70
     8
 71
     3
 72
    10
 73
     6
 74
     0
 42
0.00000001
 43
0.00000001
 40
0.0
 40
0.0
 40
0.0
 40
0.0
 40
0.5
 40
0.5
 40
1.0
 40
1.0
 40
1.0
 40
1.0
 10
326.2475020218504
 20
122.724611809293
 30
0.0
 10
326.2475020218504
 20
122.8104988710954
 30
0.0
 10
326.2247095725206
 20
122.8979060800755
 30
0.0
 10
326.1367668684275
 20
123.0505425226693
 30
0.0
 10
326.0719090947537
 20
123.1146655676149
 30
0.0
 10
325.9975020218503
 20
123.1576245111852
 30
0.0
  0
SPLINE
  5
1B6
330
1F
100
AcDbEntity
  8
0
  6
Continuous
 62
     7
370
    25
100
AcDbSpline
210
0.0
220
0.0
230
1.0
 70
    24
 71
     3
 72
    14
 73
    10
 74
     0
 42
0.00000001
 43
0.00000001
 40
0.0
 40
0.0
 40
0.0
 40
0.0
 40
0.25
 40
0.25
 40
0.5
 40
0.5
 40
0.75
 40
0.75
 40
1.0
 40
1.0
 40
1.0
 40
1.0
 10
326.2475020218504
 20
113.4870075022589
 30
0.0
 10
326.2475020218504
 20
114.2413875629089
 30
0.0
 10
326.2475020218504
 20
115.0108287303744
 30
0.0
 10
326.2475020218504
 20
116.5513400913156
 30
0.0
 10
326.2475020218504
 20
117.3261944713226
 30
0.0
 10
326.2475020218504
 20
118.8865554262081
 30
0.0
 10
326.2475020218504
 20
119.6770116189932
 30
0.0
 10
326.2475020218504
 20
121.2192912818016
 30
0.0
 10
326.2475020218504
 20
121.9766820350028
 30
0.0
 10
326.2475020218504
 20
122.724611809293
 30
0.0
  0
SPLINE
  5
1B7
330
1F
100
AcDbEntity
  8
0
  6
Continuous
 62
     7
370
    25
100
AcDbSpline
210
0.0
220
0.0
230
1.0
 70
     8
 71
     3
 72
    10
 73
     6
 74
     0
 42
0.00000001
 43
0.00000001
 40
0.0
 40
0.0
 40
0.0
 40
0.0
 40
0.5
 40
0.5
 40
1.0
 40
1.0
 40
1.0
 40
1.0
 10
325.9975020218503
 20
113.0539948003668
 30
0.0
 10
326.0718823992275
 20
113.0969383312679
 30
0.0
 10
326.1361830380131
 20
113.1603807758916
 30
0.0
 10
326.2243987227963
 20
113.3128596130107
 30
0.0
 10
326.2475020218504
 20
113.4010896151182
 30
0.0
 10
326.2475020218504
 20
113.4870075022589
 30
0.0
  0
SPLINE
  5
1B8
330
1F
100
AcDbEntity
  8
0
  6
Continuous
 62
     7
370
    25
100
AcDbSpline
210
0.0
220
0.0
230
1.0
 70
    24
 71
     3
 72
    16
 73
    12
 74
     0
 42
0.00000001
 43
0.00000001
 40
0.0
 40
0.0
 40
0.0
 40
0.0
 40
0.2500000000000002
 40
0.2500000000000002
 40
0.5000000000000004
 40
0.5000000000000004
 40
0.6250000000000003
 40
0.6250000000000003
 40
0.7500000000000002
 40
0.7500000000000002
 40
1.0
 40
1.0
 40
1.0
 40
1.0
 10
317.9975020218503
 20
108.4351926468497
 30
0.0
 10
318.6510188018911
 20
108.8125007357262
 30
0.0
 10
319.309239210981
 20
109.1925244661004
 30
0.0
 10
320.6388017943467
 20
109.960147781511
 30
0.0
 10
321.3102257764172
 20
110.3477945982998
 30
0.0
 10
322.3292268634239
 20
110.9361151501876
 30
0.0
 10
322.6705676457401
 20
111.1331883427432
 30
0.0
 10
323.3461661487104
 20
111.5232453202973
 30
0.0
 10
323.681825298675
 20
111.7170382208853
 30
0.0
 10
324.6830909351747
 20
112.2951192056487
 30
0.0
 10
325.3429985937777
 20
112.6761170699835
 30
0.0
 10
325.9975020218498
 20
113.0539948003664
 30
0.0
  0
SPLINE
  5
1B9
330
1F
100
AcDbEntity
  8
0
  6
Continuous
 62
     7
370
    25
100
AcDbSpline
210
0.0
220
0.0
230
1.0
 70
     8
 71
     3
 72
    10
 73
     6
 74
     0
 42
0.00000001
 43
0.00000001
 40
0.0
 40
0.0
 40
0.0
 40
0.0
 40
0.5
 40
0.5
 40
1.0
 40
1.0
 40
1.0
 40
1.0
 10
317.4975020218503
 20
108.4351926468497
 30
0.0
 10
317.5718823992277
 20
108.3922491159485
 30
0.0
 10
317.6589754873433
 20
108.3682843515925
 30
0.0
 10
317.8351338762192
 20
108.3681267461178
 30
0.0
 10
317.9230949489471
 20
108.3922337032794
 30
0.0
 10
317.9975020218503
 20
108.4351926468497
 30
0.0
  0
SPLINE
  5
1BA
330
1F
100
AcDbEntity
  8
0
  6
Continuous
 62
     7
370
    25
100
AcDbSpline
210
0.0
220
0.0
230
1.0
 70
    24
 71
     3
 72
    16
 73
    12
 74
     0
 42
0.00000001
 43
0.00000001
 40
0.0
 40
0.0
 40
0.0
 40
0.0
 40
0.2500000000000001
 40
0.2500000000000001
 40
0.5000000000000002
 40
0.5000000000000002
 40
0.6250000000000001
 40
0.6250000000000001
 40
0.7500000000000001
 40
0.7500000000000001
 40
1.0
 40
1.0
 40
1.0
 40
1.0
 10
309.4975020218504
 20
113.0539948003668
 30
0.0
 10
310.1510188018912
 20
112.6766867114902
 30
0.0
 10
310.8092392109812
 20
112.296662981116
 30
0.0
 10
312.1388017943469
 20
111.5290396657054
 30
0.0
 10
312.8102257764175
 20
111.1413928489166
 30
0.0
 10
313.8292268634242
 20
110.5530722970287
 30
0.0
 10
314.1705676457403
 20
110.3559991044731
 30
0.0
 10
314.8461661487108
 20
109.965942126919
 30
0.0
 10
315.1818252986754
 20
109.7721492263309
 30
0.0
 10
316.1830909351752
 20
109.1940682415675
 30
0.0
 10
316.8429985937783
 20
108.8130703772327
 30
0.0
 10
317.4975020218503
 20
108.4351926468497
 30
0.0
  0
CIRCLE
  5
1BB
330
1F
100
AcDbEntity
  8
0
  6
Continuous
 62
     7
370
    25
100
AcDbCircle
 10
317.7475020219
 20
118.1058096558
 30
0.0
 40
8.249999999999943
  0
LINE
  5
1BC
330
1F
100
AcDbEntity
  8
0
  6
Continuous
 62
     7
370
    25
100
AcDbLine
 10
317.9975020219
 20
108.4351926468
 30
0.0
 11
317.9975020219
 21
107.6058096558
 31
0.0
  0
LINE
  5
1BD
330
1F
100
AcDbEntity
  8
0
  6
Continuous
 62
     7
370
    25
100
AcDbLine
 10
317.4975020219
 20
107.6058096558
 30
0.0
 11
317.4975020219
 21
108.4351926468
 31
0.0
  0
LINE
  5
1BE
330
1F
100
AcDbEntity
  8
0
  6
Continuous
 62
     7
370
    25
100
AcDbLine
 10
317.4975020219
 20
107.6058096558
 30
0.0
 11
317.9975020219
 21
107.6058096558
 31
0.0
  0
SPLINE
  5
1BF
330
1F
100
AcDbEntity
  8
0
  6
Continuous
 62
     7
370
    25
100
AcDbSpline
210
0.0
220
0.0
230
1.0
 70
     8
 71
     3
 72
    22
 73
    18
 74
     0
 42
0.00000001
 43
0.00000001
 40
0.0
 40
0.0
 40
0.0
 40
0.0
 40
0.2499999999999984
 40
0.2499999999999984
 40
0.3749999999999976
 40
0.3749999999999976
 40
0.4374999999999972
 40
0.4374999999999972
 40
0.4999999999999968
 40
0.4999999999999968
 40
0.5624999999999963
 40
0.5624999999999963
 40
0.624999999999996
 40
0.624999999999996
 40
0.7499999999999974
 40
0.7499999999999974
 40
1.0
 40
1.0
 40
1.0
 40
1.0
 10
322.577160227815
 20
107.605809655776
 30
0.0
 10
322.5169988713022
 20
107.4313009581404
 30
0.0
 10
322.4501547844831
 20
107.2589625012405
 30
0.0
 10
322.320720454868
 20
107.0212270679335
 30
0.0
 10
322.2723218954754
 20
106.9444444985514
 30
0.0
 10
322.1831583851878
 20
106.8480901020419
 30
0.0
 10
322.1504993095569
 20
106.8193165015798
 30
0.0
 10
322.0786597421086
 20
106.7771029365508
 30
0.0
 10
322.0381667989634
 20
106.7637298385883
 30
0.0
 10
321.9560589124134
 20
106.7638902331849
 30
0.0
 10
321.9154963689924
 20
106.7773949253043
 30
0.0
 10
321.8430463993631
 20
106.8203863680418
 30
0.0
 10
321.8102808215497
 20
106.8495710042125
 30
0.0
 10
321.7214578419544
 20
106.9462036546792
 30
0.0
 10
321.6732785238562
 20
107.0228649001753
 30
0.0
 10
321.5439295303525
 20
107.2610753402092
 30
0.0
 10
321.4778741733764
 20
107.4316809440647
 30
0.0
 10
321.4178438158855
 20
107.6058096557758
 30
0.0
  0
SPLINE
  5
1C0
330
1F
100
AcDbEntity
  8
0
  6
Continuous
 62
     7
370
    25
100
AcDbSpline
210
0.0
220
0.0
230
1.0
 70
     8
 71
     3
 72
    12
 73
     8
 74
     0
 42
0.00000001
 43
0.00000001
 40
0.0
 40
0.0
 40
0.0
 40
0.0
 40
0.2499999999999999
 40
0.2499999999999999
 40
0.4999999999999998
 40
0.4999999999999998
 40
1.0
 40
1.0
 40
1.0
 40
1.0
 10
322.1219321146027
 20
110.8164334711411
 30
0.0
 10
322.4510671049959
 20
110.8127249852847
 30
0.0
 10
322.7805292579326
 20
110.794142482447
 30
0.0
 10
323.4334028759903
 20
110.7292754454809
 30
0.0
 10
323.7578554678674
 20
110.6830098922306
 30
0.0
 10
324.7259159090595
 20
110.5072853619236
 30
0.0
 10
325.3642383933074
 20
110.3409819531469
 30
0.0
 10
325.9975020218503
 20
110.139413115921
 30
0.0
  0
LINE
  5
1C1
330
1F
100
AcDbEntity
  8
0
  6
Continuous
 62
     7
370
    25
100
AcDbLine
 10
325.9975020219
 20
107.6058096558
 30
0.0
 11
325.9975020219
 21
110.1394131159
 31
0.0
  0
LINE
  5
1C2
330
1F
100
AcDbEntity
  8
0
  6
Continuous
 62
     7
370
    25
100
AcDbLine
 10
325.9975020219
 20
107.6058096558
 30
0.0
 11
322.5771602278
 21
107.6058096558
 31
0.0
  0
LINE
  5
1C3
330
1F
100
AcDbEntity
  8
0
  6
Continuous
 62
     7
370
    25
100
AcDbLine
 10
321.4178438159
 20
107.6058096558
 30
0.0
 11
317.9975020219
 21
107.6058096558
 31
0.0
  0
SPLINE
  5
1C4
330
1F
100
AcDbEntity
  8
0
  6
Continuous
 62
     7
370
    25
100
AcDbSpline
210
0.0
220
0.0
230
1.0
 70
     8
 71
     3
 72
    22
 73
    18
 74
     0
 42
0.00000001
 43
0.00000001
 40
0.0
 40
0.0
 40
0.0
 40
0.0
 40
0.2499999999999977
 40
0.2499999999999977
 40
0.3749999999999955
 40
0.3749999999999955
 40
0.4374999999999958
 40
0.4374999999999958
 40
0.4999999999999961
 40
0.4999999999999961
 40
0.5624999999999964
 40
0.5624999999999964
 40
0.6249999999999967
 40
0.6249999999999967
 40
0.7499999999999978
 40
0.7499999999999978
 40
1.0
 40
1.0
 40
1.0
 40
1.0
 10
314.0771602278151
 20
107.605809655776
 30
0.0
 10
314.0169988713023
 20
107.4313009581404
 30
0.0
 10
313.9501547844831
 20
107.2589625012404
 30
0.0
 10
313.8207204548679
 20
107.0212270679333
 30
0.0
 10
313.7723218954754
 20
106.9444444985513
 30
0.0
 10
313.6831583851877
 20
106.8480901020417
 30
0.0
 10
313.6504993095568
 20
106.8193165015796
 30
0.0
 10
313.5786597421083
 20
106.7771029365506
 30
0.0
 10
313.5381667989631
 20
106.7637298385882
 30
0.0
 10
313.456058912413
 20
106.7638902331849
 30
0.0
 10
313.4154963689921
 20
106.7773949253044
 30
0.0
 10
313.3430463993628
 20
106.8203863680419
 30
0.0
 10
313.3102808215494
 20
106.8495710042127
 30
0.0
 10
313.2214578419543
 20
106.9462036546793
 30
0.0
 10
313.173278523856
 20
107.0228649001756
 30
0.0
 10
313.0439295303524
 20
107.2610753402093
 30
0.0
 10
312.9778741733764
 20
107.4316809440648
 30
0.0
 10
312.9178438158855
 20
107.6058096557758
 30
0.0
  0
LINE
  5
1C5
330
1F
100
AcDbEntity
  8
0
  6
Continuous
 62
     7
370
    25
100
AcDbLine
 10
312.9178438159
 20
107.6058096558
 30
0.0
 11
309.4975020219
 21
107.6058096558
 31
0.0
  0
LINE
  5
1C6
330
1F
100
AcDbEntity
  8
0
  6
Continuous
 62
     7
370
    25
100
AcDbLine
 10
309.4975020219
 20
110.1394131159
 30
0.0
 11
309.4975020219
 21
107.6058096558
 31
0.0
  0
SPLINE
  5
1C7
330
1F
100
AcDbEntity
  8
0
  6
Continuous
 62
     7
370
    25
100
AcDbSpline
210
0.0
220
0.0
230
1.0
 70
     8
 71
     3
 72
    10
 73
     6
 74
     0
 42
0.00000001
 43
0.00000001
 40
0.0
 40
0.0
 40
0.0
 40
0.0
 40
0.5
 40
0.5
 40
1.0
 40
1.0
 40
1.0
 40
1.0
 10
309.4975020218508
 20
110.1394131159211
 30
0.0
 10
310.1323297276645
 20
110.341479801472
 30
0.0
 10
310.7715954302403
 20
110.5078725737427
 30
0.0
 10
312.0624103618301
 20
110.7419195476127
 30
0.0
 10
312.7140299973
 20
110.8090078015716
 30
0.0
 10
313.3730719291201
 20
110.8164334711414
 30
0.0
  0
LINE
  5
1C8
330
1F
100
AcDbEntity
  8
0
  6
Continuous
 62
     7
370
    25
100
AcDbLine
 10
317.4975020219
 20
107.6058096558
 30
0.0
 11
314.0771602278
 21
107.6058096558
 31
0.0
  0
LINE
  5
1C9
330
1F
100
AcDbEntity
  8
0
  6
Continuous
 62
     7
370
    25
100
AcDbLine
 10
317.7475020219
 20
97.1854414818
 30
0.0
 11
325.9481780164
 21
97.1854414818
 31
0.0
  0
LINE
  5
1CA
330
1F
100
AcDbEntity
  8
0
  6
Continuous
 62
     7
370
    25
100
AcDbLine
 10
309.5468260273
 20
97.1854414818
 30
0.0
 11
317.7475020219
 21
97.1854414818
 31
0.0
  0
SPLINE
  5
1CB
330
1F
100
AcDbEntity
  8
0
  6
Continuous
 62
     7
370
    25
100
AcDbSpline
210
0.0
220
0.0
230
1.0
 70
    24
 71
     3
 72
    12
 73
     8
 74
     0
 42
0.00000001
 43
0.00000001
 40
0.0
 40
0.0
 40
0.0
 40
0.0
 40
0.0172073635514045
 40
0.1110927745623553
 40
0.2410723793581151
 40
0.5664571612505844
 40
1.0
 40
1.0
 40
1.0
 40
1.0
 10
326.2475020218504
 20
106.7668978410701
 30
0.0
 10
326.2475020218504
 20
106.7659735211582
 30
0.0
 10
326.2475020218504
 20
106.7600060024683
 30
0.0
 10
326.2475020218504
 20
106.7944150252339
 30
0.0
 10
326.2475020218504
 20
106.9131105936718
 30
0.0
 10
326.2475020218504
 20
107.1974478991468
 30
0.0
 10
326.2475020218504
 20
107.4573428205505
 30
0.0
 10
326.2475020218504
 20
107.605809655776
 30
0.0
  0
SPLINE
  5
1CC
330
1F
100
AcDbEntity
  8
0
  6
Continuous
 62
     7
370
    25
100
AcDbSpline
210
0.0
220
0.0
230
1.0
 70
    24
 71
     3
 72
    12
 73
     8
 74
     0
 42
0.00000001
 43
0.00000001
 40
0.0
 40
0.0
 40
0.0
 40
0.0
 40
0.4335428387494156
 40
0.758927620641885
 40
0.8889072254376447
 40
0.9827926364485956
 40
1.0
 40
1.0
 40
1.0
 40
1.0
 10
309.2475020218504
 20
107.605809655776
 30
0.0
 10
309.2475020218504
 20
107.4573428205505
 30
0.0
 10
309.2475020218504
 20
107.1974478991468
 30
0.0
 10
309.2475020218504
 20
106.9131105936718
 30
0.0
 10
309.2475020218504
 20
106.7944150252339
 30
0.0
 10
309.2475020218504
 20
106.7600060024683
 30
0.0
 10
309.2475020218504
 20
106.7659735211582
 30
0.0
 10
309.2475020218504
 20
106.7668978410701
 30
0.0
  0
LINE
  5
1CD
330
1F
100
AcDbEntity
  8
0
  6
Continuous
 62
     7
370
    25
100
AcDbLine
 10
324.7475020219
 20
95.1058096558
 30
0.0
 11
310.7475020219
 21
95.1058096558
 31
0.0
  0
SPLINE
  5
1CE
330
1F
100
AcDbEntity
  8
0
  6
Continuous
 62
     7
370
    25
100
AcDbSpline
210
0.0
220
0.0
230
1.0
 70
     8
 71
     3
 72
     8
 73
     4
 74
     0
 42
0.00000001
 43
0.00000001
 40
0.0
 40
0.0
 40
0.0
 40
0.0
 40
1.0
 40
1.0
 40
1.0
 40
1.0
 10
309.2475020218504
 20
110.300898444202
 30
0.0
 10
309.7693081731522
 20
110.5734885798713
 30
0.0
 10
310.2929616420084
 20
110.8426410809927
 30
0.0
 10
310.8192987915749
 20
111.105809655776
 30
0.0
  0
SPLINE
  5
1CF
330
1F
100
AcDbEntity
  8
0
  6
Continuous
 62
     7
370
    25
100
AcDbSpline
210
0.0
220
0.0
230
1.0
 70
     8
 71
     3
 72
    10
 73
     6
 74
     0
 42
0.00000001
 43
0.00000001
 40
0.0
 40
0.0
 40
0.0
 40
0.0
 40
0.5
 40
0.5
 40
1.0
 40
1.0
 40
1.0
 40
1.0
 10
309.2475020218504
 20
110.1394131159209
 30
0.0
 10
309.2475020218504
 20
110.1157377214965
 30
0.0
 10
309.2702944711802
 20
110.1026466116119
 30
0.0
 10
309.3582371752734
 20
110.1025602903237
 30
0.0
 10
309.4230949489477
 20
110.1157292242676
 30
0.0
 10
309.4975020218511
 20
110.1394131159212
 30
0.0
  0
SPLINE
  5
1D0
330
1F
100
AcDbEntity
  8
0
  6
Continuous
 62
     7
370
    25
100
AcDbSpline
210
0.0
220
0.0
230
1.0
 70
    24
 71
     3
 72
     8
 73
     4
 74
     0
 42
0.00000001
 43
0.00000001
 40
0.0
 40
0.0
 40
0.0
 40
0.0
 40
1.0
 40
1.0
 40
1.0
 40
1.0
 10
309.2475020218504
 20
110.300898444202
 30
0.0
 10
309.2475020218504
 20
110.2500036545012
 30
0.0
 10
309.2475020218504
 20
110.1960698051397
 30
0.0
 10
309.2475020218504
 20
110.139413115921
 30
0.0
  0
SPLINE
  5
1D1
330
1F
100
AcDbEntity
  8
0
  6
Continuous
 62
     7
370
    25
100
AcDbSpline
210
0.0
220
0.0
230
1.0
 70
     8
 71
     3
 72
     8
 73
     4
 74
     0
 42
0.00000001
 43
0.00000001
 40
0.0
 40
0.0
 40
0.0
 40
0.0
 40
1.0
 40
1.0
 40
1.0
 40
1.0
 10
324.6757052521259
 20
111.105809655776
 30
0.0
 10
325.2021261133351
 20
110.8425992251714
 30
0.0
 10
325.7256705700487
 20
110.5735017967847
 30
0.0
 10
326.2475020218504
 20
110.300898444202
 30
0.0
  0
SPLINE
  5
1D2
330
1F
100
AcDbEntity
  8
0
  6
Continuous
 62
     7
370
    25
100
AcDbSpline
210
0.0
220
0.0
230
1.0
 70
     8
 71
     3
 72
    10
 73
     6
 74
     0
 42
0.00000001
 43
0.00000001
 40
0.0
 40
0.0
 40
0.0
 40
0.0
 40
0.5
 40
0.5
 40
1.0
 40
1.0
 40
1.0
 40
1.0
 10
325.9975020218503
 20
110.139413115921
 30
0.0
 10
326.0718823992277
 20
110.1157377214966
 30
0.0
 10
326.1361830380134
 20
110.1026466116119
 30
0.0
 10
326.2243987227964
 20
110.1025602903237
 30
0.0
 10
326.2475020218504
 20
110.1157292242675
 30
0.0
 10
326.2475020218504
 20
110.139413115921
 30
0.0
  0
SPLINE
  5
1D3
330
1F
100
AcDbEntity
  8
0
  6
Continuous
 62
     7
370
    25
100
AcDbSpline
210
0.0
220
0.0
230
1.0
 70
    24
 71
     3
 72
     8
 73
     4
 74
     0
 42
0.00000001
 43
0.00000001
 40
0.0
 40
0.0
 40
0.0
 40
0.0
 40
1.0
 40
1.0
 40
1.0
 40
1.0
 10
326.2475020218504
 20
110.300898444202
 30
0.0
 10
326.2475020218504
 20
110.2500036545012
 30
0.0
 10
326.2475020218504
 20
110.1960698051397
 30
0.0
 10
326.2475020218504
 20
110.139413115921
 30
0.0
  0
LINE
  5
1D4
330
1F
100
AcDbEntity
  8
0
  6
Continuous
 62
     7
370
    25
100
AcDbLine
 10
310.2475020219
 20
111.1058096558
 30
0.0
 11
312.8718576748
 21
111.1058096558
 31
0.0
  0
LINE
  5
1D5
330
1F
100
AcDbEntity
  8
0
  6
Continuous
 62
     7
370
    25
100
AcDbLine
 10
310.2475020219
 20
111.1058096558
 30
0.0
 11
310.2475020219
 21
112.6209820985
 31
0.0
  0
LINE
  5
1D6
330
1F
100
AcDbEntity
  8
0
  6
Continuous
 62
     7
370
    25
100
AcDbLine
 10
325.2475020219
 20
112.6209820985
 30
0.0
 11
325.2475020219
 21
111.1058096558
 31
0.0
  0
LINE
  5
1D7
330
1F
100
AcDbEntity
  8
0
  6
Continuous
 62
     7
370
    25
100
AcDbLine
 10
322.6231463689
 20
111.1058096558
 30
0.0
 11
325.2475020219
 21
111.1058096558
 31
0.0
  0
LINE
  5
1D8
330
1F
100
AcDbEntity
  8
0
  6
Continuous
 62
     7
370
    25
100
AcDbLine
 10
309.2475020219
 20
107.6058096558
 30
0.0
 11
309.4975020219
 21
107.6058096558
 31
0.0
  0
LINE
  5
1D9
330
1F
100
AcDbEntity
  8
0
  6
Continuous
 62
     7
370
    25
100
AcDbLine
 10
309.2475020219
 20
107.6058096558
 30
0.0
 11
309.2475020219
 21
110.1394131159
 31
0.0
  0
LINE
  5
1DA
330
1F
100
AcDbEntity
  8
0
  6
Continuous
 62
     7
370
    25
100
AcDbLine
 10
325.9975020219
 20
107.6058096558
 30
0.0
 11
326.2475020219
 21
107.6058096558
 31
0.0
  0
LINE
  5
1DB
330
1F
100
AcDbEntity
  8
0
  6
Continuous
 62
     7
370
    25
100
AcDbLine
 10
326.2475020219
 20
110.1394131159
 30
0.0
 11
326.2475020219
 21
107.6058096558
 31
0.0
  0
LINE
  5
1DC
330
1F
100
AcDbEntity
  8
0
  6
Continuous
 62
     7
370
    25
100
AcDbLine
 10
309.2475020219
 20
110.3008984442
 30
0.0
 11
309.2475020219
 21
113.4568450585
 31
0.0
  0
LINE
  5
1DD
330
1F
100
AcDbEntity
  8
0
  6
Continuous
 62
     7
370
    25
100
AcDbLine
 10
326.2475020219
 20
110.3008984442
 30
0.0
 11
326.2475020219
 21
113.4568450585
 31
0.0
  0
LINE
  5
1DE
330
1F
100
AcDbEntity
  8
0
  6
Continuous
 62
     7
370
    25
100
AcDbLine
 10
316.2475020219
 20
145.2058096558
 30
0.0
 11
316.4975020219
 21
145.2058096558
 31
0.0
  0
ARC
  5
1DF
330
1F
100
AcDbEntity
  8
0
  6
Continuous
 62
     7
370
    25
100
AcDbCircle
 10
316.4975020219
 20
145.2058096558
 30
0.0
 40
0.25
100
AcDbArc
 50
90.0
 51
180.0
  0
LINE
  5
1E0
330
1F
100
AcDbEntity
  8
0
  6
Continuous
 62
     7
370
    25
100
AcDbLine
 10
316.4975020219
 20
145.4558096558
 30
0.0
 11
316.4975020219
 21
145.2058096558
 31
0.0
  0
LINE
  5
1E1
330
1F
100
AcDbEntity
  8
0
  6
Continuous
 62
     7
370
    25
100
AcDbLine
 10
318.9975020219
 20
144.6058096558
 30
0.0
 11
318.9975020219
 21
145.2058096558
 31
0.0
  0
LINE
  5
1E2
330
1F
100
AcDbEntity
  8
0
  6
Continuous
 62
     7
370
    25
100
AcDbLine
 10
316.4975020219
 20
144.6058096558
 30
0.0
 11
318.9975020219
 21
144.6058096558
 31
0.0
  0
LINE
  5
1E3
330
1F
100
AcDbEntity
  8
0
  6
Continuous
 62
     7
370
    25
100
AcDbLine
 10
316.4975020219
 20
145.2058096558
 30
0.0
 11
316.4975020219
 21
144.6058096558
 31
0.0
  0
LINE
  5
1E4
330
1F
100
AcDbEntity
  8
0
  6
Continuous
 62
     7
370
    25
100
AcDbLine
 10
318.9975020219
 20
145.2058096558
 30
0.0
 11
316.4975020219
 21
145.2058096558
 31
0.0
  0
LINE
  5
1E5
330
1F
100
AcDbEntity
  8
0
  6
Continuous
 62
     7
370
    25
100
AcDbLine
 10
318.9975020219
 20
145.2058096558
 30
0.0
 11
318.9975020219
 21
145.4558096558
 31
0.0
  0
LINE
  5
1E6
330
1F
100
AcDbEntity
  8
0
  6
Continuous
 62
     7
370
    25
100
AcDbLine
 10
316.4975020219
 20
145.4558096558
 30
0.0
 11
318.9975020219
 21
145.4558096558
 31
0.0
  0
LINE
  5
1E7
330
1F
100
AcDbEntity
  8
0
  6
Continuous
 62
     7
370
    25
100
AcDbLine
 10
316.2475020219
 20
144.6058096558
 30
0.0
 11
316.2475020219
 21
145.2058096558
 31
0.0
  0
LINE
  5
1E8
330
1F
100
AcDbEntity
  8
0
  6
Continuous
 62
     7
370
    25
100
AcDbLine
 10
316.4975020219
 20
144.6058096558
 30
0.0
 11
316.2475020219
 21
144.6058096558
 31
0.0
  0
LINE
  5
1E9
330
1F
100
AcDbEntity
  8
0
  6
Continuous
 62
     7
370
    25
100
AcDbLine
 10
318.9975020219
 20
145.2058096558
 30
0.0
 11
319.2475020219
 21
145.2058096558
 31
0.0
  0
ARC
  5
1EA
330
1F
100
AcDbEntity
  8
0
  6
Continuous
 62
     7
370
    25
100
AcDbCircle
 10
318.9975020219
 20
145.2058096558
 30
0.0
 40
0.2500000000000568
100
AcDbArc
 50
0.0
 51
90.0
  0
LINE
  5
1EB
330
1F
100
AcDbEntity
  8
0
  6
Continuous
 62
     7
370
    25
100
AcDbLine
 10
319.2475020219
 20
145.2058096558
 30
0.0
 11
319.2475020219
 21
144.6058096558
 31
0.0
  0
LINE
  5
1EC
330
1F
100
AcDbEntity
  8
0
  6
Continuous
 62
     7
370
    25
100
AcDbLine
 10
319.2475020219
 20
144.6058096558
 30
0.0
 11
318.9975020219
 21
144.6058096558
 31
0.0
  0
SPLINE
  5
1ED
330
1F
100
AcDbEntity
  8
0
  6
Continuous
 62
     7
370
    25
100
AcDbSpline
210
0.0
220
0.0
230
1.0
 70
     8
 71
     3
 72
    15
 73
    11
 74
     0
 42
0.00000001
 43
0.00000001
 40
0.0
 40
0.0
 40
0.0
 40
0.0
 40
0.0090459071881971
 40
0.1032433785236816
 40
0.1542564497735189
 40
0.31331690267151
 40
0.5243720399414428
 40
0.6678060008509183
 40
0.9918332554187028
 40
1.0
 40
1.0
 40
1.0
 40
1.0
 10
316.0735889783721
 20
145.2058096557759
 30
0.0
 10
316.0736066240966
 20
145.2074907543603
 30
0.0
 10
316.0738080195091
 20
145.2266775859158
 30
0.0
 10
316.0799976401753
 20
145.2553718654358
 30
0.0
 10
316.1041995720195
 20
145.3060479054078
 30
0.0
 10
316.1572185640212
 20
145.3639242049847
 30
0.0
 10
316.2385894512177
 20
145.4087897197194
 30
0.0
 10
316.3531685232402
 20
145.4461521029739
 30
0.0
 10
316.4375937009594
 20
145.4556981152433
 30
0.0
 10
316.4960645589113
 20
145.4558069794302
 30
0.0
 10
316.4975020218504
 20
145.4558096557759
 30
0.0
  0
LINE
  5
1EE
330
1F
100
AcDbEntity
  8
0
  6
Continuous
 62
     7
370
    25
100
AcDbLine
 10
316.0735889784
 20
145.2058096558
 30
0.0
 11
316.2475020219
 21
145.2058096558
 31
0.0
  0
LINE
  5
1EF
330
1F
100
AcDbEntity
  8
0
  6
Continuous
 62
     7
370
    25
100
AcDbLine
 10
319.2475020219
 20
145.2058096558
 30
0.0
 11
319.4214150653
 21
145.2058096558
 31
0.0
  0
SPLINE
  5
1F0
330
1F
100
AcDbEntity
  8
0
  6
Continuous
 62
     7
370
    25
100
AcDbSpline
210
0.0
220
0.0
230
1.0
 70
     8
 71
     3
 72
    15
 73
    11
 74
     0
 42
0.00000001
 43
0.00000001
 40
0.0
 40
0.0
 40
0.0
 40
0.0
 40
0.0081667445812695
 40
0.3321939991490083
 40
0.4756279600585602
 40
0.6866830973284899
 40
0.8457435502264811
 40
0.8967566214763185
 40
0.9909540928118029
 40
1.0
 40
1.0
 40
1.0
 40
1.0
 10
318.9975020218503
 20
145.4558096557759
 30
0.0
 10
318.9989394847893
 20
145.4558069794302
 30
0.0
 10
319.0574103427411
 20
145.4556981152433
 30
0.0
 10
319.1418355204606
 20
145.4461521029739
 30
0.0
 10
319.256414592483
 20
145.4087897197194
 30
0.0
 10
319.3377854796796
 20
145.3639242049847
 30
0.0
 10
319.3908044716813
 20
145.3060479054078
 30
0.0
 10
319.4150064035254
 20
145.2553718654358
 30
0.0
 10
319.4211960241916
 20
145.2266775859158
 30
0.0
 10
319.4213974196042
 20
145.2074907543603
 30
0.0
 10
319.4214150653286
 20
145.2058096557759
 30
0.0
  0
LINE
  5
1F1
330
1F
100
AcDbEntity
  8
0
  6
Continuous
 62
     7
370
    25
100
AcDbLine
 10
319.4214150653
 20
145.2058096558
 30
0.0
 11
319.4214150653
 21
144.6058096558
 31
0.0
  0
LINE
  5
1F2
330
1F
100
AcDbEntity
  8
0
  6
Continuous
 62
     7
370
    25
100
AcDbLine
 10
319.4214150653
 20
144.6058096558
 30
0.0
 11
319.2475020219
 21
144.6058096558
 31
0.0
  0
LINE
  5
1F3
330
1F
100
AcDbEntity
  8
0
  6
Continuous
 62
     7
370
    25
100
AcDbLine
 10
316.0735889784
 20
144.6058096558
 30
0.0
 11
316.0735889784
 21
145.2058096558
 31
0.0
  0
LINE
  5
1F4
330
1F
100
AcDbEntity
  8
0
  6
Continuous
 62
     7
370
    25
100
AcDbLine
 10
316.2475020219
 20
144.6058096558
 30
0.0
 11
316.0735889784
 21
144.6058096558
 31
0.0
  0
LINE
  5
1F5
330
1F
100
AcDbEntity
  8
0
  6
Continuous
 62
     7
370
    25
100
AcDbLine
 10
312.4975020219
 20
145.4558096558
 30
0.0
 11
316.4975020219
 21
145.4558096558
 31
0.0
  0
LINE
  5
1F6
330
1F
100
AcDbEntity
  8
0
  6
Continuous
 62
     7
370
    25
100
AcDbLine
 10
318.9975020219
 20
145.4558096558
 30
0.0
 11
322.9975020219
 21
145.4558096558
 31
0.0
  0
LINE
  5
1F7
330
1F
100
AcDbEntity
  8
0
  6
Continuous
 62
     7
370
    25
100
AcDbLine
 10
319.4214150653
 20
144.6058096558
 30
0.0
 11
323.2475020219
 21
144.6058096558
 31
0.0
  0
LINE
  5
1F8
330
1F
100
AcDbEntity
  8
0
  6
Continuous
 62
     7
370
    25
100
AcDbLine
 10
312.2475020219
 20
144.6058096558
 30
0.0
 11
316.0735889784
 21
144.6058096558
 31
0.0
  0
LINE
  5
1F9
330
1F
100
AcDbEntity
  8
0
  6
Continuous
 62
     7
370
    25
100
AcDbLine
 10
318.3475020219
 20
145.4558096558
 30
0.0
 11
318.3475020219
 21
145.4658096558
 31
0.0
  0
LINE
  5
1FA
330
1F
100
AcDbEntity
  8
0
  6
Continuous
 62
     7
370
    25
100
AcDbLine
 10
317.1475020219
 20
145.4558096558
 30
0.0
 11
317.1475020219
 21
145.4658096558
 31
0.0
  0
LINE
  5
1FB
330
1F
100
AcDbEntity
  8
0
  6
Continuous
 62
     7
370
    25
100
AcDbLine
 10
317.1475020219
 20
145.4658096558
 30
0.0
 11
318.3475020219
 21
145.4658096558
 31
0.0
  0
LINE
  5
1FC
330
1F
100
AcDbEntity
  8
0
  6
Continuous
 62
     7
370
    25
100
AcDbLine
 10
310.2975020218
 20
136.6058096558
 30
0.0
 11
325.1975020219
 21
136.6058096558
 31
0.0
  0
LINE
  5
1FD
330
1F
100
AcDbEntity
  8
0
  6
Continuous
 62
     7
370
    25
100
AcDbLine
 10
310.7475020219
 20
128.6058096558
 30
0.0
 11
324.7475020219
 21
128.6058096558
 31
0.0
  0
LINE
  5
1FE
330
1F
100
AcDbEntity
  8
0
  6
Continuous
 62
     7
370
    25
100
AcDbLine
 10
314.2475020219
 20
146.6058096558
 30
0.0
 11
314.2475020219
 21
145.4558096558
 31
0.0
  0
LINE
  5
1FF
330
1F
100
AcDbEntity
  8
0
  6
Continuous
 62
     7
370
    25
100
AcDbLine
 10
314.2475020219
 20
146.6058096558
 30
0.0
 11
314.4758027578
 21
146.6058096558
 31
0.0
  0
LINE
  5
200
330
1F
100
AcDbEntity
  8
0
  6
Continuous
 62
     7
370
    25
100
AcDbLine
 10
314.4758027578
 20
146.6058096558
 30
0.0
 11
314.4758027578
 21
145.4558096558
 31
0.0
  0
LINE
  5
201
330
1F
100
AcDbEntity
  8
0
  6
Continuous
 62
     7
370
    25
100
AcDbLine
 10
321.0192012859
 20
146.6058096558
 30
0.0
 11
321.0192012859
 21
145.4558096558
 31
0.0
  0
LINE
  5
202
330
1F
100
AcDbEntity
  8
0
  6
Continuous
 62
     7
370
    25
100
AcDbLine
 10
321.0192012859
 20
146.6058096558
 30
0.0
 11
321.2475020219
 21
146.6058096558
 31
0.0
  0
LINE
  5
203
330
1F
100
AcDbEntity
  8
0
  6
Continuous
 62
     7
370
    25
100
AcDbLine
 10
321.2475020219
 20
145.4558096558
 30
0.0
 11
321.2475020219
 21
146.6058096558
 31
0.0
  0
LINE
  5
204
330
1F
100
AcDbEntity
  8
0
  6
Continuous
 62
     7
370
    25
100
AcDbLine
 10
314.4758027578
 20
146.6058096558
 30
0.0
 11
321.0192012859
 21
146.6058096558
 31
0.0
  0
ARC
  5
205
330
1F
100
AcDbEntity
  8
0
  6
Continuous
 62
     7
370
    25
100
AcDbCircle
 10
317.7475020219
 20
118.1058096558
 30
0.0
 40
9.050000000000042
100
AcDbArc
 50
180.0
 51
199.8560440853
  0
ARC
  5
206
330
1F
100
AcDbEntity
  8
0
  6
Continuous
 62
     7
370
    25
100
AcDbCircle
 10
317.7475020219
 20
118.1058096558
 30
0.0
 40
9.049999999999999
100
AcDbArc
 50
340.1387364365
 51
19.6102349906
  0
ARC
  5
207
330
1F
100
AcDbEntity
  8
0
  6
Continuous
 62
     7
370
    25
100
AcDbCircle
 10
317.7475020219
 20
118.1058096558
 30
0.0
 40
9.05000000000002
100
AcDbArc
 50
40.4438398118
 51
49.3124461556
  0
ARC
  5
208
330
1F
100
AcDbEntity
  8
0
  6
Continuous
 62
     7
370
    25
100
AcDbCircle
 10
317.7475020219
 20
118.1058096558
 30
0.0
 40
9.05000000000002
100
AcDbArc
 50
130.6875538444
 51
139.776299654
  0
ARC
  5
209
330
1F
100
AcDbEntity
  8
0
  6
Continuous
 62
     7
370
    25
100
AcDbCircle
 10
317.7475020219
 20
118.1058096558
 30
0.0
 40
9.050000000000018
100
AcDbArc
 50
160.4254911576
 51
180.0
  0
SPLINE
  5
20A
330
1F
100
AcDbEntity
  8
0
  6
Continuous
 62
     7
370
    25
100
AcDbSpline
210
0.0
220
0.0
230
1.0
 70
     8
 71
     3
 72
    19
 73
    15
 74
     0
 42
0.00000001
 43
0.00000001
 40
0.0
 40
0.0
 40
0.0
 40
0.0
 40
0.0167646395403735
 40
0.0954821819268546
 40
0.1743043684291051
 40
0.279924582974159
 40
0.3857404332124056
 40
0.4988245739855419
 40
0.6118901997522449
 40
0.7070706314499743
 40
0.802176861322409
 40
0.8927547385191165
 40
0.9832579696102007
 40
0.9999999999999999
 40
0.9999999999999999
 40
0.9999999999999999
 40
0.9999999999999999
 10
311.8551447006657
 20
124.6452122880246
 30
0.0
 10
311.852620589403
 20
124.6420793862698
 30
0.0
 10
311.8382446375543
 20
124.6242360980451
 30
0.0
 10
311.9016900026868
 20
124.7032991249774
 30
0.0
 10
312.056794298397
 20
124.8877819957603
 30
0.0
 10
312.3450924061829
 20
125.2077616537549
 30
0.0
 10
312.7775261547128
 20
125.632209709192
 30
0.0
 10
313.3319589587493
 20
126.0948743488911
 30
0.0
 10
313.9748545003488
 20
126.5353543277711
 30
0.0
 10
314.6742914282979
 20
126.913415265043
 30
0.0
 10
315.3962917475953
 20
127.2166387940862
 30
0.0
 10
316.1740111370434
 20
127.4350379124844
 30
0.0
 10
316.7620596097636
 20
127.5564376722153
 30
0.0
 10
317.0916497882787
 20
127.5697374995655
 30
0.0
 10
317.1431020269015
 20
127.5718137322177
 30
0.0
  0
SPLINE
  5
20B
330
1F
100
AcDbEntity
  8
0
  6
Continuous
 62
     7
370
    25
100
AcDbSpline
210
0.0
220
0.0
230
1.0
 70
     8
 71
     3
 72
    19
 73
    15
 74
     0
 42
0.00000001
 43
0.00000001
 40
0.0
 40
0.0
 40
0.0
 40
0.0
 40
0.0313543198930005
 40
0.0973972761283083
 40
0.1974113150005807
 40
0.2975376197928793
 40
0.4181258197280874
 40
0.5388104628747172
 40
0.6564421089422275
 40
0.7739073598256315
 40
0.8504423152205904
 40
0.9268765606281066
 40
0.9967438096359813
 40
1.0
 40
1.0
 40
1.0
 40
1.0
 10
318.3596992317914
 20
127.567312008043
 30
0.0
 10
318.4555711534142
 20
127.5620919685103
 30
0.0
 10
318.7533822383019
 20
127.5458767345807
 30
0.0
 10
319.3362676402411
 20
127.4315042697209
 30
0.0
 10
320.0855119788138
 20
127.2222317640841
 30
0.0
 10
320.9059767040131
 20
126.8779098722811
 30
0.0
 10
321.673123392629
 20
126.4423108281283
 30
0.0
 10
322.3544139780474
 20
125.9469119448174
 30
0.0
 10
322.9051241071188
 20
125.4565158699516
 30
0.0
 10
323.2738615524988
 20
125.0735599808218
 30
0.0
 10
323.5018871624446
 20
124.8128077382798
 30
0.0
 10
323.6129922181765
 20
124.6783519513884
 30
0.0
 10
323.6569689995104
 20
124.6244533995629
 30
0.0
 10
323.6460452508109
 20
124.6377853069409
 30
0.0
 10
323.6455588157422
 20
124.6383789774344
 30
0.0
  0
LINE
  5
20C
330
1F
100
AcDbEntity
  8
0
  6
Continuous
 62
     7
370
    25
100
AcDbLine
 10
316.0735889784
 20
145.2058096558
 30
0.0
 11
312.2475020219
 21
145.2058096558
 31
0.0
  0
LINE
  5
20D
330
1F
100
AcDbEntity
  8
0
  6
Continuous
 62
     7
370
    25
100
AcDbLine
 10
323.2475020219
 20
145.2058096558
 30
0.0
 11
319.4214150653
 21
145.2058096558
 31
0.0
  0
INSERT
  5
219
330
1F
100
AcDbEntity
  8
FORMAT
100
AcDbBlockReference
  2
SW_CENTERMARKSYMBOL_0
 10
317.7475020219
 20
118.1058096558
 30
0.0
  0
ARC
  5
21A
330
1F
100
AcDbEntity
  8
FORMAT
100
AcDbCircle
 10
317.7475020219
 20
118.1058096558
 30
0.0
 40
7.000000000000016
100
AcDbArc
 50
75.0
 51
345.0
  0
LINE
  5
21B
330
1F
100
AcDbEntity
  8
FORMAT
100
AcDbLine
 10
310.2453206582
 20
95.9756132922
 30
0.0
 11
309.8975020219
 21
107.1058096558
 31
0.0
  0
LINE
  5
21C
330
1F
100
AcDbEntity
  8
FORMAT
100
AcDbLine
 10
325.2496833855
 20
95.9756132922
 30
0.0
 11
325.5975020219
 21
107.1058096558
 31
0.0
  0
LINE
  5
21D
330
1F
100
AcDbEntity
  8
FORMAT
100
AcDbLine
 10
326.2581895219
 20
107.1058096558
 30
0.0
 11
309.2368145219
 21
107.1058096558
 31
0.0
  0
LINE
  5
21E
330
1F
100
AcDbEntity
  8
0
  6
Continuous
 62
     7
370
    25
100
AcDbLine
 10
218.5373579372
 20
200.2499558249
 30
0.0
 11
218.4507553969
 21
200.0999558249
 31
0.0
  0
LINE
  5
21F
330
1F
100
AcDbEntity
  8
0
  6
Continuous
 62
     7
370
    25
100
AcDbLine
 10
218.4507553969
 20
181.3999558249
 30
0.0
 11
218.5373579372
 21
181.2499558249
 31
0.0
  0
LINE
  5
220
330
1F
100
AcDbEntity
  8
0
  6
Continuous
 62
     7
370
    25
100
AcDbLine
 10
228.3641528565
 20
181.2499558249
 30
0.0
 11
228.4507553969
 21
181.3999558249
 31
0.0
  0
LINE
  5
221
330
1F
100
AcDbEntity
  8
0
  6
Continuous
 62
     7
370
    25
100
AcDbLine
 10
228.4507553969
 20
200.0999558249
 30
0.0
 11
228.3641528565
 21
200.2499558249
 31
0.0
  0
LINE
  5
222
330
1F
100
AcDbEntity
  8
0
  6
Continuous
 62
     7
370
    25
100
AcDbLine
 10
216.7507553969
 20
181.3999558249
 30
0.0
 11
218.4507553969
 21
181.3999558249
 31
0.0
  0
LINE
  5
223
330
1F
100
AcDbEntity
  8
0
  6
Continuous
 62
     7
370
    25
100
AcDbLine
 10
218.4507553969
 20
200.0999558249
 30
0.0
 11
216.7507553969
 21
200.0999558249
 31
0.0
  0
LINE
  5
224
330
1F
100
AcDbEntity
  8
0
  6
Continuous
 62
     7
370
    25
100
AcDbLine
 10
230.1507553969
 20
200.0999558249
 30
0.0
 11
228.4507553969
 21
200.0999558249
 31
0.0
  0
LINE
  5
225
330
1F
100
AcDbEntity
  8
0
  6
Continuous
 62
     7
370
    25
100
AcDbLine
 10
228.4507553969
 20
181.3999558249
 30
0.0
 11
230.1507553969
 21
181.3999558249
 31
0.0
  0
ARC
  5
226
330
1F
100
AcDbEntity
  8
0
  6
Continuous
 62
     7
370
    25
100
AcDbCircle
 10
230.1507553969
 20
181.6999558249
 30
0.0
 40
0.3000000000000398
100
AcDbArc
 50
270.0
 51
360.0
  0
ARC
  5
227
330
1F
100
AcDbEntity
  8
0
  6
Continuous
 62
     7
370
    25
100
AcDbCircle
 10
230.1507553969
 20
199.7999558249
 30
0.0
 40
0.3000000000000114
100
AcDbArc
 50
0.0
 51
90.0
  0
ARC
  5
228
330
1F
100
AcDbEntity
  8
0
  6
Continuous
 62
     7
370
    25
100
AcDbCircle
 10
216.7507553969
 20
181.6999558249
 30
0.0
 40
0.3000000000000398
100
AcDbArc
 50
180.0
 51
270.0
  0
ARC
  5
229
330
1F
100
AcDbEntity
  8
0
  6
Continuous
 62
     7
370
    25
100
AcDbCircle
 10
216.7507553969
 20
199.7999558249
 30
0.0
 40
0.3000000000000114
100
AcDbArc
 50
90.0
 51
180.0
  0
LINE
  5
22A
330
1F
100
AcDbEntity
  8
0
  6
Continuous
 62
     7
370
    25
100
AcDbLine
 10
211.9507553969
 20
195.9999558249
 30
0.0
 11
207.9507553969
 21
195.2499558249
 31
0.0
  0
LINE
  5
22B
330
1F
100
AcDbEntity
  8
0
  6
Continuous
 62
     7
370
    25
100
AcDbLine
 10
207.9507553969
 20
186.2499558249
 30
0.0
 11
211.9507553969
 21
185.4999558249
 31
0.0
  0
LINE
  5
22C
330
1F
100
AcDbEntity
  8
0
  6
Continuous
 62
     7
370
    25
100
AcDbLine
 10
211.9507553969
 20
185.4999558249
 30
0.0
 11
216.4507553969
 21
185.4999558249
 31
0.0
  0
LINE
  5
22D
330
1F
100
AcDbEntity
  8
0
  6
Continuous
 62
     7
370
    25
100
AcDbLine
 10
216.4507553969
 20
195.9999558249
 30
0.0
 11
211.9507553969
 21
195.9999558249
 31
0.0
  0
LINE
  5
22E
330
1F
100
AcDbEntity
  8
0
  6
Continuous
 62
     7
370
    25
100
AcDbLine
 10
203.9507553969
 20
195.9999558249
 30
0.0
 11
199.9507553969
 21
195.2499558249
 31
0.0
  0
LINE
  5
22F
330
1F
100
AcDbEntity
  8
0
  6
Continuous
 62
     7
370
    25
100
AcDbLine
 10
199.9507553969
 20
186.2499558249
 30
0.0
 11
203.9507553969
 21
185.4999558249
 31
0.0
  0
LINE
  5
230
330
1F
100
AcDbEntity
  8
0
  6
Continuous
 62
     7
370
    25
100
AcDbLine
 10
207.9507553969
 20
195.9999558249
 30
0.0
 11
203.9507553969
 21
195.2499558249
 31
0.0
  0
LINE
  5
231
330
1F
100
AcDbEntity
  8
0
  6
Continuous
 62
     7
370
    25
100
AcDbLine
 10
203.9507553969
 20
186.2499558249
 30
0.0
 11
207.9507553969
 21
185.4999558249
 31
0.0
  0
LINE
  5
232
330
1F
100
AcDbEntity
  8
0
  6
Continuous
 62
     7
370
    25
100
AcDbLine
 10
195.9507553969
 20
195.9999558249
 30
0.0
 11
190.4536125397
 21
195.3128129678
 31
0.0
  0
LINE
  5
233
330
1F
100
AcDbEntity
  8
0
  6
Continuous
 62
     7
370
    25
100
AcDbLine
 10
190.4536125397
 20
186.1870986821
 30
0.0
 11
195.9507553969
 21
185.4999558249
 31
0.0
  0
LINE
  5
234
330
1F
100
AcDbEntity
  8
0
  6
Continuous
 62
     7
370
    25
100
AcDbLine
 10
199.9507553969
 20
195.9999558249
 30
0.0
 11
195.9507553969
 21
195.2499558249
 31
0.0
  0
LINE
  5
235
330
1F
100
AcDbEntity
  8
0
  6
Continuous
 62
     7
370
    25
100
AcDbLine
 10
195.9507553969
 20
186.2499558249
 30
0.0
 11
199.9507553969
 21
185.4999558249
 31
0.0
  0
LINE
  5
236
330
1F
100
AcDbEntity
  8
0
  6
Continuous
 62
     7
370
    25
100
AcDbLine
 10
190.4536125397
 20
195.3128129678
 30
0.0
 11
189.9507553969
 21
194.8099558249
 31
0.0
  0
LINE
  5
237
330
1F
100
AcDbEntity
  8
0
  6
Continuous
 62
     7
370
    25
100
AcDbLine
 10
189.9507553969
 20
186.6899558249
 30
0.0
 11
190.4536125397
 21
186.1870986821
 31
0.0
  0
LINE
  5
238
330
1F
100
AcDbEntity
  8
0
  6
Continuous
 62
     7
370
    25
100
AcDbLine
 10
235.6598588625
 20
199.2499558249
 30
0.0
 11
232.6598588625
 21
199.2499558249
 31
0.0
  0
LINE
  5
239
330
1F
100
AcDbEntity
  8
0
  6
Continuous
 62
     7
370
    25
100
AcDbLine
 10
232.6598588625
 20
182.2499558249
 30
0.0
 11
235.6598588625
 21
182.2499558249
 31
0.0
  0
LINE
  5
23A
330
1F
100
AcDbEntity
  8
0
  6
Continuous
 62
     7
370
    25
100
AcDbLine
 10
232.6598588625
 20
199.0809558249
 30
0.0
 11
230.4507553969
 21
199.0809558249
 31
0.0
  0
LINE
  5
23B
330
1F
100
AcDbEntity
  8
0
  6
Continuous
 62
     7
370
    25
100
AcDbLine
 10
230.4507553969
 20
182.4189558249
 30
0.0
 11
232.6598588625
 21
182.4189558249
 31
0.0
  0
LINE
  5
23C
330
1F
100
AcDbEntity
  8
0
  6
Continuous
 62
     7
370
    25
100
AcDbLine
 10
259.0155212952
 20
182.2499558249
 30
0.0
 11
259.1598588625
 21
182.4999558249
 31
0.0
  0
LINE
  5
23D
330
1F
100
AcDbEntity
  8
0
  6
Continuous
 62
     7
370
    25
100
AcDbLine
 10
259.1598588625
 20
198.9999558249
 30
0.0
 11
259.0155212952
 21
199.2499558249
 31
0.0
  0
SPLINE
  5
23E
330
1F
100
AcDbEntity
  8
0
  6
Continuous
 62
     7
370
    25
100
AcDbSpline
210
0.0
220
0.0
230
1.0
 70
     8
 71
     3
 72
    13
 73
     9
 74
     0
 42
0.00000001
 43
0.00000001
 40
0.0
 40
0.0
 40
0.0
 40
0.0
 40
0.0470912328121951
 40
0.2617466686881086
 40
0.4446293161233307
 40
0.6275404913864119
 40
0.8137522420714272
 40
1.0
 40
1.0
 40
1.0
 40
1.0
 10
218.6118687871153
 20
187.2499558249122
 30
0.0
 10
218.5990287528935
 20
187.1552450952801
 30
0.0
 10
218.5276601353675
 20
186.6288155140223
 30
0.0
 10
218.5259027060279
 20
185.7255621408948
 30
0.0
 10
218.6047462726144
 20
184.552144592662
 30
0.0
 10
218.7824567043735
 20
183.444002316938
 30
0.0
 10
219.0400463383872
 20
182.3410653221504
 30
0.0
 10
219.2705838259624
 20
181.6136824303901
 30
0.0
 10
219.3858637132693
 20
181.2499558249124
 30
0.0
  0
SPLINE
  5
23F
330
1F
100
AcDbEntity
  8
0
  6
Continuous
 62
     7
370
    25
100
AcDbSpline
210
0.0
220
0.0
230
1.0
 70
    24
 71
     3
 72
    12
 73
     8
 74
     0
 42
0.00000001
 43
0.00000001
 40
0.0
 40
0.0
 40
0.0
 40
0.0
 40
0.3718936504907545
 40
0.5595829684796935
 40
0.7472526016761323
 40
0.9977251320033064
 40
1.0
 40
1.0
 40
1.0
 40
1.0
 10
219.3858637132693
 20
181.2499558249124
 30
0.0
 10
219.2078497048517
 20
181.2499558249123
 30
0.0
 10
218.9399946147476
 20
181.2499558249123
 30
0.0
 10
218.7055759691017
 20
181.2499558249123
 30
0.0
 10
218.5792251572879
 20
181.2499558249123
 30
0.0
 10
218.5188636472731
 20
181.2499558249123
 30
0.0
 10
218.538221311638
 20
181.2499558249123
 30
0.0
 10
218.5383955414479
 20
181.2499558249123
 30
0.0
  0
SPLINE
  5
240
330
1F
100
AcDbEntity
  8
0
  6
Continuous
 62
     7
370
    25
100
AcDbSpline
210
0.0
220
0.0
230
1.0
 70
    24
 71
     3
 72
    11
 73
     7
 74
     0
 42
0.00000001
 43
0.00000001
 40
0.0
 40
0.0
 40
0.0
 40
0.0
 40
0.2528350469902039
 40
0.4386666081666226
 40
0.6245170816084444
 40
0.9999999999999999
 40
0.9999999999999999
 40
0.9999999999999999
 40
0.9999999999999999
 10
218.5388729389709
 20
200.2499558249123
 30
0.0
 10
218.5495625617812
 20
200.2499558249123
 30
0.0
 10
218.5681089644124
 20
200.2499558249123
 30
0.0
 10
218.7066854587784
 20
200.2499558249123
 30
0.0
 10
218.936339796738
 20
200.2499558249123
 30
0.0
 10
219.2056911968179
 20
200.2499558249123
 30
0.0
 10
219.3858637132693
 20
200.2499558249123
 30
0.0
  0
SPLINE
  5
241
330
1F
100
AcDbEntity
  8
0
  6
Continuous
 62
     7
370
    25
100
AcDbSpline
210
0.0
220
0.0
230
1.0
 70
     8
 71
     3
 72
    12
 73
     8
 74
     0
 42
0.00000001
 43
0.00000001
 40
0.0
 40
0.0
 40
0.0
 40
0.0
 40
0.2100818139499467
 40
0.4201042296578876
 40
0.6348249704103105
 40
0.849506964095729
 40
0.9999999999999999
 40
0.9999999999999999
 40
0.9999999999999999
 40
0.9999999999999999
 10
219.3858637132693
 20
200.2499558249123
 30
0.0
 10
219.2567435452498
 20
199.8395199351845
 30
0.0
 10
218.9985397164687
 20
199.0187642018055
 30
0.0
 10
218.7199168516125
 20
197.7548122807399
 30
0.0
 10
218.555551538703
 20
196.4672811847437
 30
0.0
 10
218.5149584990998
 20
195.2912393833778
 30
0.0
 10
218.5805783472229
 20
194.5538449629774
 30
0.0
 10
218.6076210784051
 20
194.2499558249123
 30
0.0
  0
LINE
  5
242
330
1F
100
AcDbEntity
  8
0
  6
Continuous
 62
     7
370
    25
100
AcDbLine
 10
218.4507553969
 20
200.0999558249
 30
0.0
 11
218.4507553969
 21
194.2499558249
 31
0.0
  0
LINE
  5
243
330
1F
100
AcDbEntity
  8
0
  6
Continuous
 62
     7
370
    25
100
AcDbLine
 10
218.4507553969
 20
187.2499558249
 30
0.0
 11
218.4507553969
 21
181.3999558249
 31
0.0
  0
SPLINE
  5
244
330
1F
100
AcDbEntity
  8
0
  6
Continuous
 62
     7
370
    25
100
AcDbSpline
210
0.0
220
0.0
230
1.0
 70
     8
 71
     3
 72
    12
 73
     8
 74
     0
 42
0.00000001
 43
0.00000001
 40
0.0
 40
0.0
 40
0.0
 40
0.0
 40
0.213482985191546
 40
0.4269056104986256
 40
0.6451026255400548
 40
0.8632602662093004
 40
0.9999999999999999
 40
0.9999999999999999
 40
0.9999999999999999
 40
0.9999999999999999
 10
227.5156470804487
 20
200.2499558249123
 30
0.0
 10
227.6447582218267
 20
199.8395202508653
 30
0.0
 10
227.9029439998768
 20
199.0187651487587
 30
0.0
 10
228.1817032250691
 20
197.7548084588829
 30
0.0
 10
228.3455392208429
 20
196.4672958742295
 30
0.0
 10
228.3867565826214
 20
195.3235033179657
 30
0.0
 10
228.3247352803737
 20
194.6182541277565
 30
0.0
 10
228.3008388613832
 20
194.3465260354535
 30
0.0
  0
LINE
  5
245
330
1F
100
AcDbEntity
  8
0
  6
Continuous
 62
     7
370
    25
100
AcDbLine
 10
219.3858637133
 20
200.2499558249
 30
0.0
 11
227.5156470804
 21
200.2499558249
 31
0.0
  0
SPLINE
  5
246
330
1F
100
AcDbEntity
  8
0
  6
Continuous
 62
     7
370
    25
100
AcDbSpline
210
0.0
220
0.0
230
1.0
 70
    24
 71
     3
 72
    11
 73
     7
 74
     0
 42
0.00000001
 43
0.00000001
 40
0.0
 40
0.0
 40
0.0
 40
0.0
 40
0.2528350469902038
 40
0.4386666081666226
 40
0.6245170816084444
 40
0.9999999999999999
 40
0.9999999999999999
 40
0.9999999999999999
 40
0.9999999999999999
 10
228.3626378547471
 20
200.2499558249123
 30
0.0
 10
228.3519482319369
 20
200.2499558249123
 30
0.0
 10
228.3334018293057
 20
200.2499558249123
 30
0.0
 10
228.1948253349397
 20
200.2499558249123
 30
0.0
 10
227.96517099698
 20
200.2499558249123
 30
0.0
 10
227.6958195969001
 20
200.2499558249123
 30
0.0
 10
227.5156470804487
 20
200.2499558249123
 30
0.0
  0
SPLINE
  5
247
330
1F
100
AcDbEntity
  8
0
  6
Continuous
 62
     7
370
    25
100
AcDbSpline
210
0.0
220
0.0
230
1.0
 70
    24
 71
     3
 72
    12
 73
     8
 74
     0
 42
0.00000001
 43
0.00000001
 40
0.0
 40
0.0
 40
0.0
 40
0.0
 40
0.3718936504907545
 40
0.5595829684796935
 40
0.7472526016761322
 40
0.997725132003306
 40
1.0
 40
1.0
 40
1.0
 40
1.0
 10
227.5156470804487
 20
181.2499558249124
 30
0.0
 10
227.6936610888663
 20
181.2499558249123
 30
0.0
 10
227.9615161789704
 20
181.2499558249123
 30
0.0
 10
228.1959348246163
 20
181.2499558249123
 30
0.0
 10
228.3222856364303
 20
181.2499558249123
 30
0.0
 10
228.3826471464445
 20
181.2499558249123
 30
0.0
 10
228.3632894820799
 20
181.2499558249123
 30
0.0
 10
228.3631152522701
 20
181.2499558249123
 30
0.0
  0
SPLINE
  5
248
330
1F
100
AcDbEntity
  8
0
  6
Continuous
 62
     7
370
    25
100
AcDbSpline
210
0.0
220
0.0
230
1.0
 70
     8
 71
     3
 72
    13
 73
     9
 74
     0
 42
0.00000001
 43
0.00000001
 40
0.0
 40
0.0
 40
0.0
 40
0.0
 40
0.0308617593254368
 40
0.24917310101867
 40
0.4351705157641954
 40
0.6211969442095143
 40
0.8105801618541462
 40
1.0
 40
1.0
 40
1.0
 40
1.0
 10
228.3025307035587
 20
187.1488534576558
 30
0.0
 10
228.3106553930569
 20
187.0878119216052
 30
0.0
 10
228.3762528872163
 20
186.5949719422537
 30
0.0
 10
228.3747788050986
 20
185.7254996240111
 30
0.0
 10
228.2969713710393
 20
184.5521601863974
 30
0.0
 10
228.1189978134438
 20
183.4439980744831
 30
0.0
 10
227.8614786321789
 20
182.3410663908963
 30
0.0
 10
227.6309316936762
 20
181.6136827866617
 30
0.0
 10
227.5156470804487
 20
181.2499558249124
 30
0.0
  0
LINE
  5
249
330
1F
100
AcDbEntity
  8
0
  6
Continuous
 62
     7
370
    25
100
AcDbLine
 10
228.4507553969
 20
200.0999558249
 30
0.0
 11
228.4507553969
 21
194.3424483024
 31
0.0
  0
LINE
  5
24A
330
1F
100
AcDbEntity
  8
0
  6
Continuous
 62
     7
370
    25
100
AcDbLine
 10
228.4507553969
 20
187.1574633475
 30
0.0
 11
228.4507553969
 21
181.3999558249
 31
0.0
  0
LINE
  5
24B
330
1F
100
AcDbEntity
  8
0
  6
Continuous
 62
     7
370
    25
100
AcDbLine
 10
219.3858637133
 20
181.2499558249
 30
0.0
 11
227.5156470804
 21
181.2499558249
 31
0.0
  0
LINE
  5
24C
330
1F
100
AcDbEntity
  8
0
  6
Continuous
 62
     7
370
    25
100
AcDbLine
 10
230.4507553969
 20
194.4802159829
 30
0.0
 11
230.4507553969
 21
199.7999558249
 31
0.0
  0
LINE
  5
24D
330
1F
100
AcDbEntity
  8
0
  6
Continuous
 62
     7
370
    25
100
AcDbLine
 10
230.4507553969
 20
187.0196956669
 30
0.0
 11
230.4507553969
 21
181.6999558249
 31
0.0
  0
LINE
  5
24E
330
1F
100
AcDbEntity
  8
0
  6
Continuous
 62
     7
370
    25
100
AcDbLine
 10
216.4507553969
 20
181.6999558249
 30
0.0
 11
216.4507553969
 21
187.2499558249
 31
0.0
  0
LINE
  5
24F
330
1F
100
AcDbEntity
  8
0
  6
Continuous
 62
     7
370
    25
100
AcDbLine
 10
216.4507553969
 20
194.2499558249
 30
0.0
 11
216.4507553969
 21
199.7999558195
 31
0.0
  0
LINE
  5
250
330
1F
100
AcDbEntity
  8
0
  6
Continuous
 62
     7
370
    25
100
AcDbLine
 10
211.9507553969
 20
194.2499558249
 30
0.0
 11
211.9507553969
 21
195.9999558249
 31
0.0
  0
LINE
  5
251
330
1F
100
AcDbEntity
  8
0
  6
Continuous
 62
     7
370
    25
100
AcDbLine
 10
211.9507553969
 20
185.4999558249
 30
0.0
 11
211.9507553969
 21
187.2499558249
 31
0.0
  0
LINE
  5
252
330
1F
100
AcDbEntity
  8
0
  6
Continuous
 62
     7
370
    25
100
AcDbLine
 10
203.9507553969
 20
188.7389485326
 30
0.0
 11
203.9507553969
 21
195.9999558249
 31
0.0
  0
LINE
  5
253
330
1F
100
AcDbEntity
  8
0
  6
Continuous
 62
     7
370
    25
100
AcDbLine
 10
203.9507553969
 20
185.4999558249
 30
0.0
 11
203.9507553969
 21
188.7389485326
 31
0.0
  0
LINE
  5
254
330
1F
100
AcDbEntity
  8
0
  6
Continuous
 62
     7
370
    25
100
AcDbLine
 10
207.9507553969
 20
194.2499558249
 30
0.0
 11
207.9507553969
 21
195.9999558249
 31
0.0
  0
LINE
  5
255
330
1F
100
AcDbEntity
  8
0
  6
Continuous
 62
     7
370
    25
100
AcDbLine
 10
207.9507553969
 20
185.4999558249
 30
0.0
 11
207.9507553969
 21
187.2499558249
 31
0.0
  0
LINE
  5
256
330
1F
100
AcDbEntity
  8
0
  6
Continuous
 62
     7
370
    25
100
AcDbLine
 10
190.4536125397
 20
189.0021579224
 30
0.0
 11
190.4536125397
 21
186.1870986821
 31
0.0
  0
LINE
  5
257
330
1F
100
AcDbEntity
  8
0
  6
Continuous
 62
     7
370
    25
100
AcDbLine
 10
190.4536125397
 20
195.3128129678
 30
0.0
 11
190.4536125397
 21
189.0021579224
 31
0.0
  0
LINE
  5
258
330
1F
100
AcDbEntity
  8
0
  6
Continuous
 62
     7
370
    25
100
AcDbLine
 10
195.9507553969
 20
188.7389485326
 30
0.0
 11
195.9507553969
 21
195.9999558249
 31
0.0
  0
LINE
  5
259
330
1F
100
AcDbEntity
  8
0
  6
Continuous
 62
     7
370
    25
100
AcDbLine
 10
195.9507553969
 20
185.4999558249
 30
0.0
 11
195.9507553969
 21
188.7389485326
 31
0.0
  0
LINE
  5
25A
330
1F
100
AcDbEntity
  8
0
  6
Continuous
 62
     7
370
    25
100
AcDbLine
 10
199.9507553969
 20
188.7389485326
 30
0.0
 11
199.9507553969
 21
195.9999558249
 31
0.0
  0
LINE
  5
25B
330
1F
100
AcDbEntity
  8
0
  6
Continuous
 62
     7
370
    25
100
AcDbLine
 10
199.9507553969
 20
185.4999558249
 30
0.0
 11
199.9507553969
 21
188.7389485326
 31
0.0
  0
LINE
  5
25C
330
1F
100
AcDbEntity
  8
0
  6
Continuous
 62
     7
370
    25
100
AcDbLine
 10
189.9507553969
 20
189.1947768522
 30
0.0
 11
189.9507553969
 21
194.8099558249
 31
0.0
  0
LINE
  5
25D
330
1F
100
AcDbEntity
  8
0
  6
Continuous
 62
     7
370
    25
100
AcDbLine
 10
189.9507553969
 20
186.6899558249
 30
0.0
 11
189.9507553969
 21
189.1947768522
 31
0.0
  0
LINE
  5
25E
330
1F
100
AcDbEntity
  8
0
  6
Continuous
 62
     7
370
    25
100
AcDbLine
 10
235.6598588625
 20
182.3253441643
 30
0.0
 11
235.6598588625
 21
186.367309543
 31
0.0
  0
LINE
  5
25F
330
1F
100
AcDbEntity
  8
0
  6
Continuous
 62
     7
370
    25
100
AcDbLine
 10
235.6598588625
 20
195.1326021068
 30
0.0
 11
235.6598588625
 21
199.2499558249
 31
0.0
  0
LINE
  5
260
330
1F
100
AcDbEntity
  8
0
  6
Continuous
 62
     7
370
    25
100
AcDbLine
 10
235.6598588625
 20
182.2499558249
 30
0.0
 11
235.6598588625
 21
182.3253441643
 31
0.0
  0
LINE
  5
261
330
1F
100
AcDbEntity
  8
0
  6
Continuous
 62
     7
370
    25
100
AcDbLine
 10
232.6598588625
 20
182.3253441643
 30
0.0
 11
232.6598588625
 21
186.7951932091
 31
0.0
  0
LINE
  5
262
330
1F
100
AcDbEntity
  8
0
  6
Continuous
 62
     7
370
    25
100
AcDbLine
 10
232.6598588625
 20
194.7047184407
 30
0.0
 11
232.6598588625
 21
199.2499558249
 31
0.0
  0
LINE
  5
263
330
1F
100
AcDbEntity
  8
0
  6
Continuous
 62
     7
370
    25
100
AcDbLine
 10
232.6598588625
 20
182.2499558249
 30
0.0
 11
232.6598588625
 21
182.3253441643
 31
0.0
  0
SPLINE
  5
264
330
1F
100
AcDbEntity
  8
0
  6
Continuous
 62
     7
370
    25
100
AcDbSpline
210
0.0
220
0.0
230
1.0
 70
    24
 71
     3
 72
    10
 73
     6
 74
     0
 42
0.00000001
 43
0.00000001
 40
0.0
 40
0.0
 40
0.0
 40
0.0
 40
0.3696307589415869
 40
0.7423071747252942
 40
1.0
 40
1.0
 40
1.0
 40
1.0
 10
258.3377998899206
 20
182.2499558249123
 30
0.0
 10
258.4790024917572
 20
182.2499558249123
 30
0.0
 10
258.762571166435
 20
182.2499558249123
 30
0.0
 10
258.9817057817878
 20
182.2499558249123
 30
0.0
 10
259.0040967125756
 20
182.2499558249123
 30
0.0
 10
259.0132500497618
 20
182.2499558249123
 30
0.0
  0
SPLINE
  5
265
330
1F
100
AcDbEntity
  8
0
  6
Continuous
 62
     7
370
    25
100
AcDbSpline
210
0.0
220
0.0
230
1.0
 70
     8
 71
     3
 72
    10
 73
     6
 74
     0
 42
0.00000001
 43
0.00000001
 40
0.0
 40
0.0
 40
0.0
 40
0.0
 40
0.5
 40
0.5
 40
1.0
 40
1.0
 40
1.0
 40
1.0
 10
258.3377998899206
 20
182.4999558249123
 30
0.0
 10
258.3141244954962
 20
182.425575447535
 30
0.0
 10
258.3010333856115
 20
182.3612748087492
 30
0.0
 10
258.3009470643233
 20
182.2730591239663
 30
0.0
 10
258.3141159982671
 20
182.2499558249123
 30
0.0
 10
258.3377998899206
 20
182.2499558249123
 30
0.0
  0
SPLINE
  5
266
330
1F
100
AcDbEntity
  8
0
  6
Continuous
 62
     7
370
    25
100
AcDbSpline
210
0.0
220
0.0
230
1.0
 70
     8
 71
     3
 72
    16
 73
    12
 74
     0
 42
0.00000001
 43
0.00000001
 40
0.0
 40
0.0
 40
0.0
 40
0.0
 40
0.2500000000000001
 40
0.2500000000000001
 40
0.5000000000000001
 40
0.5000000000000001
 40
0.6250000000000001
 40
0.6250000000000001
 40
0.7500000000000002
 40
0.7500000000000002
 40
1.0
 40
1.0
 40
1.0
 40
1.0
 10
258.3377998899206
 20
190.4999558249123
 30
0.0
 10
258.5458153380263
 20
189.8464390448715
 30
0.0
 10
258.7160216429993
 20
189.1882186357815
 30
0.0
 10
258.9509576745669
 20
187.8586560524157
 30
0.0
 10
259.0150298062305
 20
187.1872320703452
 30
0.0
 10
259.0157627551515
 20
186.1682309833385
 30
0.0
 10
259.0001032750685
 20
185.8268902010223
 30
0.0
 10
258.9388281484316
 20
185.1512916980518
 30
0.0
 10
258.8932718759325
 20
184.8156325480872
 30
0.0
 10
258.7167858431762
 20
183.8143669115875
 30
0.0
 10
258.5461293896905
 20
183.1544592529844
 30
0.0
 10
258.3377998899206
 20
182.4999558249123
 30
0.0
  0
SPLINE
  5
267
330
1F
100
AcDbEntity
  8
0
  6
Continuous
 62
     7
370
    25
100
AcDbSpline
210
0.0
220
0.0
230
1.0
 70
     8
 71
     3
 72
    10
 73
     6
 74
     0
 42
0.00000001
 43
0.00000001
 40
0.0
 40
0.0
 40
0.0
 40
0.0
 40
0.5
 40
0.5
 40
1.0
 40
1.0
 40
1.0
 40
1.0
 10
258.3377998899206
 20
190.9999558249123
 30
0.0
 10
258.3141244954962
 20
190.925575447535
 30
0.0
 10
258.3010333856115
 20
190.8384823594194
 30
0.0
 10
258.3009470643233
 20
190.6623239705434
 30
0.0
 10
258.3141159982671
 20
190.5743628978156
 30
0.0
 10
258.3377998899206
 20
190.4999558249123
 30
0.0
  0
SPLINE
  5
268
330
1F
100
AcDbEntity
  8
0
  6
Continuous
 62
     7
370
    25
100
AcDbSpline
210
0.0
220
0.0
230
1.0
 70
     8
 71
     3
 72
    16
 73
    12
 74
     0
 42
0.00000001
 43
0.00000001
 40
0.0
 40
0.0
 40
0.0
 40
0.0
 40
0.2499999999999997
 40
0.2499999999999997
 40
0.4999999999999993
 40
0.4999999999999993
 40
0.6249999999999993
 40
0.6249999999999993
 40
0.7499999999999996
 40
0.7499999999999996
 40
1.0
 40
1.0
 40
1.0
 40
1.0
 10
258.3377998899206
 20
198.9999558249123
 30
0.0
 10
258.5458153380263
 20
198.3464390448715
 30
0.0
 10
258.7160216429993
 20
197.6882186357815
 30
0.0
 10
258.9509576745669
 20
196.3586560524157
 30
0.0
 10
259.0150298062305
 20
195.6872320703452
 30
0.0
 10
259.0157627551515
 20
194.6682309833385
 30
0.0
 10
259.0001032750685
 20
194.3268902010223
 30
0.0
 10
258.9388281484316
 20
193.6512916980518
 30
0.0
 10
258.8932718759325
 20
193.3156325480872
 30
0.0
 10
258.7167858431762
 20
192.3143669115875
 30
0.0
 10
258.5461293896905
 20
191.6544592529844
 30
0.0
 10
258.3377998899206
 20
190.9999558249123
 30
0.0
  0
SPLINE
  5
269
330
1F
100
AcDbEntity
  8
0
  6
Continuous
 62
     7
370
    25
100
AcDbSpline
210
0.0
220
0.0
230
1.0
 70
     8
 71
     3
 72
    10
 73
     6
 74
     0
 42
0.00000001
 43
0.00000001
 40
0.0
 40
0.0
 40
0.0
 40
0.0
 40
0.5
 40
0.5
 40
1.0
 40
1.0
 40
1.0
 40
1.0
 10
258.3377998899206
 20
199.2499558249123
 30
0.0
 10
258.3141244954962
 20
199.2499558249123
 30
0.0
 10
258.3010333856115
 20
199.2271633755825
 30
0.0
 10
258.3009470643233
 20
199.1392206714895
 30
0.0
 10
258.3141159982671
 20
199.0743628978156
 30
0.0
 10
258.3377998899206
 20
198.9999558249123
 30
0.0
  0
SPLINE
  5
26A
330
1F
100
AcDbEntity
  8
0
  6
Continuous
 62
     7
370
    25
100
AcDbSpline
210
0.0
220
0.0
230
1.0
 70
    24
 71
     3
 72
    10
 73
     6
 74
     0
 42
0.00000001
 43
0.00000001
 40
0.0
 40
0.0
 40
0.0
 40
0.0
 40
0.2576895832171908
 40
0.6270669987128632
 40
1.0
 40
1.0
 40
1.0
 40
1.0
 10
259.0119085755354
 20
199.2499558249123
 30
0.0
 10
259.0033055863315
 20
199.2499558249123
 30
0.0
 10
258.9823708999048
 20
199.2499558249123
 30
0.0
 10
258.7634054860648
 20
199.2499558249123
 30
0.0
 10
258.4801207229897
 20
199.2499558249123
 30
0.0
 10
258.3377998899206
 20
199.2499558249123
 30
0.0
  0
LINE
  5
26B
330
1F
100
AcDbEntity
  8
0
  6
Continuous
 62
     7
370
    25
100
AcDbLine
 10
259.1598588625
 20
198.9999558249
 30
0.0
 11
259.1598588625
 21
182.4999558249
 31
0.0
  0
SPLINE
  5
26C
330
1F
100
AcDbEntity
  8
0
  6
Continuous
 62
     7
370
    25
100
AcDbSpline
210
0.0
220
0.0
230
1.0
 70
     8
 71
     3
 72
    12
 73
     8
 74
     0
 42
0.00000001
 43
0.00000001
 40
0.0
 40
0.0
 40
0.0
 40
0.0
 40
0.0433459945738934
 40
0.2805478458367356
 40
0.5177791574292812
 40
0.7588698416372093
 40
1.0
 40
1.0
 40
1.0
 40
1.0
 10
253.1616673377315
 20
195.1321603832557
 30
0.0
 10
253.1622537558417
 20
195.1888338603895
 30
0.0
 10
253.1660492238932
 20
195.5556410378981
 30
0.0
 10
253.2168457249204
 20
196.2320539899416
 30
0.0
 10
253.3555547826341
 20
197.16028723012
 30
0.0
 10
253.5611432108082
 20
198.0847895800139
 30
0.0
 10
253.7454295535914
 20
198.6948837626965
 30
0.0
 10
253.8375802677383
 20
198.9999558249123
 30
0.0
  0
LINE
  5
26D
330
1F
100
AcDbEntity
  8
0
  6
Continuous
 62
     7
370
    25
100
AcDbLine
 10
258.3377998899
 20
198.9999558249
 30
0.0
 11
253.8375802677
 21
198.9999558249
 31
0.0
  0
SPLINE
  5
26E
330
1F
100
AcDbEntity
  8
0
  6
Continuous
 62
     7
370
    25
100
AcDbSpline
210
0.0
220
0.0
230
1.0
 70
     8
 71
     3
 72
    12
 73
     8
 74
     0
 42
0.00000001
 43
0.00000001
 40
0.0
 40
0.0
 40
0.0
 40
0.0
 40
0.0925072938893911
 40
0.3177482903134473
 40
0.5430151956306447
 40
0.7714918256732939
 40
1.0
 40
1.0
 40
1.0
 40
1.0
 10
235.6629060186082
 20
195.1352805225619
 30
0.0
 10
235.6647415805718
 20
195.2561392531441
 30
0.0
 10
235.6710464528817
 20
195.6712703568371
 30
0.0
 10
235.7353738276604
 20
196.3793506039453
 30
0.0
 10
235.8756191299726
 20
197.258404106778
 30
0.0
 10
236.0751247831945
 20
198.1335408758416
 30
0.0
 10
236.250091080425
 20
198.7111375519694
 30
0.0
 10
236.3375802677384
 20
198.9999558249123
 30
0.0
  0
LINE
  5
26F
330
1F
100
AcDbEntity
  8
0
  6
Continuous
 62
     7
370
    25
100
AcDbLine
 10
240.4821374572
 20
198.9999558249
 30
0.0
 11
236.3375802677
 21
198.9999558249
 31
0.0
  0
SPLINE
  5
270
330
1F
100
AcDbEntity
  8
0
  6
Continuous
 62
     7
370
    25
100
AcDbSpline
210
0.0
220
0.0
230
1.0
 70
     8
 71
     3
 72
    10
 73
     6
 74
     0
 42
0.00000001
 43
0.00000001
 40
0.0
 40
0.0
 40
0.0
 40
0.0
 40
0.3655467495582453
 40
0.7310211822153956
 40
1.0
 40
1.0
 40
1.0
 40
1.0
 10
240.482137457218
 20
198.9999558249124
 30
0.0
 10
240.579202526349
 20
198.6756481237482
 30
0.0
 10
240.7733134620192
 20
198.0270968799112
 30
0.0
 10
240.9753676690606
 20
197.1260407834284
 30
0.0
 10
241.0450638015156
 20
196.5475388102093
 30
0.0
 10
241.0746117363695
 20
196.3022807447266
 30
0.0
  0
SPLINE
  5
271
330
1F
100
AcDbEntity
  8
0
  6
Continuous
 62
     7
370
    25
100
AcDbSpline
210
0.0
220
0.0
230
1.0
 70
     8
 71
     3
 72
    10
 73
     6
 74
     0
 42
0.00000001
 43
0.00000001
 40
0.0
 40
0.0
 40
0.0
 40
0.0
 40
0.3168785374610805
 40
0.6584113088830784
 40
1.0
 40
1.0
 40
1.0
 40
1.0
 10
241.0836735298656
 20
185.2162836922679
 30
0.0
 10
241.0447047354757
 20
184.9256856104669
 30
0.0
 10
240.9637352412164
 20
184.3218799222353
 30
0.0
 10
240.7576869900755
 20
183.4152097280908
 30
0.0
 10
240.5739923138629
 20
182.8050571081493
 30
0.0
 10
240.482137457218
 20
182.4999558249123
 30
0.0
  0
LINE
  5
272
330
1F
100
AcDbEntity
  8
0
  6
Continuous
 62
     7
370
    25
100
AcDbLine
 10
236.3375802677
 20
182.4999558249
 30
0.0
 11
240.4821374572
 21
182.4999558249
 31
0.0
  0
SPLINE
  5
273
330
1F
100
AcDbEntity
  8
0
  6
Continuous
 62
     7
370
    25
100
AcDbSpline
210
0.0
220
0.0
230
1.0
 70
     8
 71
     3
 72
    11
 73
     7
 74
     0
 42
0.00000001
 43
0.00000001
 40
0.0
 40
0.0
 40
0.0
 40
0.0
 40
0.2580115248666333
 40
0.5159720067573742
 40
0.7784288459219803
 40
1.0
 40
1.0
 40
1.0
 40
1.0
 10
236.3375802677384
 20
182.4999558249123
 30
0.0
 10
236.2398147172844
 20
182.8242095108362
 30
0.0
 10
236.0443029575461
 20
183.4726527348787
 30
0.0
 10
235.832029861668
 20
184.4672115854653
 30
0.0
 10
235.6935718446668
 20
185.4245922659798
 30
0.0
 10
235.6754988549669
 20
186.0532050158349
 30
0.0
 10
235.6672256698591
 20
186.3409620348463
 30
0.0
  0
LINE
  5
274
330
1F
100
AcDbEntity
  8
0
  6
Continuous
 62
     7
370
    25
100
AcDbLine
 10
253.8375802677
 20
182.4999558249
 30
0.0
 11
258.3377998899
 21
182.4999558249
 31
0.0
  0
SPLINE
  5
275
330
1F
100
AcDbEntity
  8
0
  6
Continuous
 62
     7
370
    25
100
AcDbSpline
210
0.0
220
0.0
230
1.0
 70
     8
 71
     3
 72
    11
 73
     7
 74
     0
 42
0.00000001
 43
0.00000001
 40
0.0
 40
0.0
 40
0.0
 40
0.0
 40
0.2558678492984079
 40
0.5116850797088801
 40
0.771961309638602
 40
1.0
 40
1.0
 40
1.0
 40
1.0
 10
253.8375802677383
 20
182.4999558249123
 30
0.0
 10
253.7398231447671
 20
182.8242099862872
 30
0.0
 10
253.5443282383268
 20
183.4726541611378
 30
0.0
 10
253.3319280276446
 20
184.4672058403221
 30
0.0
 10
253.1923773920547
 20
185.4354232076777
 30
0.0
 10
253.174202325401
 20
186.0749285274999
 30
0.0
 10
253.1657147322009
 20
186.3735717791221
 30
0.0
  0
LINE
  5
276
330
1F
100
AcDbEntity
  8
0
  6
Continuous
 62
     7
370
    25
100
AcDbLine
 10
253.1598588625
 20
186.3337923316
 30
0.0
 11
253.1598588625
 21
183.2499558249
 31
0.0
  0
LINE
  5
277
330
1F
100
AcDbEntity
  8
0
  6
Continuous
 62
     7
370
    25
100
AcDbLine
 10
253.1598588625
 20
183.2499558249
 30
0.0
 11
241.1598588625
 21
183.2499558249
 31
0.0
  0
LINE
  5
278
330
1F
100
AcDbEntity
  8
0
  6
Continuous
 62
     7
370
    25
100
AcDbLine
 10
241.1598588625
 20
185.2051402209
 30
0.0
 11
241.1598588625
 21
183.2499558249
 31
0.0
  0
LINE
  5
279
330
1F
100
AcDbEntity
  8
0
  6
Continuous
 62
     7
370
    25
100
AcDbLine
 10
241.1598588625
 20
198.2499558249
 30
0.0
 11
241.1598588625
 21
196.2947714289
 31
0.0
  0
LINE
  5
27A
330
1F
100
AcDbEntity
  8
0
  6
Continuous
 62
     7
370
    25
100
AcDbLine
 10
241.1598588625
 20
198.2499558249
 30
0.0
 11
253.1598588625
 21
198.2499558249
 31
0.0
  0
LINE
  5
27B
330
1F
100
AcDbEntity
  8
0
  6
Continuous
 62
     7
370
    25
100
AcDbLine
 10
253.1598588625
 20
198.2499558249
 30
0.0
 11
253.1598588625
 21
195.1661193183
 31
0.0
  0
SPLINE
  5
27C
330
1F
100
AcDbEntity
  8
0
  6
Continuous
 62
     7
370
    25
100
AcDbSpline
210
0.0
220
0.0
230
1.0
 70
     8
 71
     3
 72
     8
 73
     4
 74
     0
 42
0.00000001
 43
0.00000001
 40
0.0
 40
0.0
 40
0.0
 40
0.0
 40
1.0
 40
1.0
 40
1.0
 40
1.0
 10
240.643622785499
 20
199.2499558249123
 30
0.0
 10
240.8173258617188
 20
198.9174444027768
 30
0.0
 10
240.9896280807814
 20
198.584117302878
 30
0.0
 10
241.1598588624782
 20
198.2499558249123
 30
0.0
  0
SPLINE
  5
27D
330
1F
100
AcDbEntity
  8
0
  6
Continuous
 62
     7
370
    25
100
AcDbSpline
210
0.0
220
0.0
230
1.0
 70
     8
 71
     3
 72
    10
 73
     6
 74
     0
 42
0.00000001
 43
0.00000001
 40
0.0
 40
0.0
 40
0.0
 40
0.0
 40
0.5
 40
0.5
 40
1.0
 40
1.0
 40
1.0
 40
1.0
 10
240.4821374572236
 20
199.2499558249123
 30
0.0
 10
240.4584620627993
 20
199.2499558249123
 30
0.0
 10
240.445370952909
 20
199.2271633755828
 30
0.0
 10
240.4452846316206
 20
199.1392206714898
 30
0.0
 10
240.4584535655644
 20
199.0743628978158
 30
0.0
 10
240.4821374572179
 20
198.9999558249124
 30
0.0
  0
SPLINE
  5
27E
330
1F
100
AcDbEntity
  8
0
  6
Continuous
 62
     7
370
    25
100
AcDbSpline
210
0.0
220
0.0
230
1.0
 70
    24
 71
     3
 72
     8
 73
     4
 74
     0
 42
0.00000001
 43
0.00000001
 40
0.0
 40
0.0
 40
0.0
 40
0.0
 40
1.0
 40
1.0
 40
1.0
 40
1.0
 10
240.643622785499
 20
199.2499558249123
 30
0.0
 10
240.5927240685766
 20
199.2499558249123
 30
0.0
 10
240.538789932326
 20
199.2499558249123
 30
0.0
 10
240.4821374572184
 20
199.2499558249123
 30
0.0
  0
SPLINE
  5
27F
330
1F
100
AcDbEntity
  8
0
  6
Continuous
 62
     7
370
    25
100
AcDbSpline
210
0.0
220
0.0
230
1.0
 70
     8
 71
     3
 72
     8
 73
     4
 74
     0
 42
0.00000001
 43
0.00000001
 40
0.0
 40
0.0
 40
0.0
 40
0.0
 40
1.0
 40
1.0
 40
1.0
 40
1.0
 10
253.1598588624782
 20
198.2499558249123
 30
0.0
 10
253.3301364698219
 20
198.5842092211977
 30
0.0
 10
253.5024082184476
 20
198.9174757107666
 30
0.0
 10
253.6760949394572
 20
199.2499558249121
 30
0.0
  0
SPLINE
  5
280
330
1F
100
AcDbEntity
  8
0
  6
Continuous
 62
     7
370
    25
100
AcDbSpline
210
0.0
220
0.0
230
1.0
 70
    24
 71
     3
 72
     8
 73
     4
 74
     0
 42
0.00000001
 43
0.00000001
 40
0.0
 40
0.0
 40
0.0
 40
0.0
 40
1.0
 40
1.0
 40
1.0
 40
1.0
 10
253.6760949394568
 20
199.2499558249123
 30
0.0
 10
253.726991172712
 20
199.2499558249123
 30
0.0
 10
253.7809251276759
 20
199.2499558249123
 30
0.0
 10
253.8375802677383
 20
199.2499558249123
 30
0.0
  0
SPLINE
  5
281
330
1F
100
AcDbEntity
  8
0
  6
Continuous
 62
     7
370
    25
100
AcDbSpline
210
0.0
220
0.0
230
1.0
 70
     8
 71
     3
 72
    10
 73
     6
 74
     0
 42
0.00000001
 43
0.00000001
 40
0.0
 40
0.0
 40
0.0
 40
0.0
 40
0.5
 40
0.5
 40
1.0
 40
1.0
 40
1.0
 40
1.0
 10
253.8375802677383
 20
198.9999558249123
 30
0.0
 10
253.8612556621627
 20
199.0743362022897
 30
0.0
 10
253.8743467720474
 20
199.1386368410754
 30
0.0
 10
253.8744330933357
 20
199.2268525258584
 30
0.0
 10
253.8612641593918
 20
199.2499558249123
 30
0.0
 10
253.8375802677383
 20
199.2499558249123
 30
0.0
  0
SPLINE
  5
282
330
1F
100
AcDbEntity
  8
0
  6
Continuous
 62
     7
370
    25
100
AcDbSpline
210
0.0
220
0.0
230
1.0
 70
     8
 71
     3
 72
    10
 73
     6
 74
     0
 42
0.00000001
 43
0.00000001
 40
0.0
 40
0.0
 40
0.0
 40
0.0
 40
0.5
 40
0.5
 40
1.0
 40
1.0
 40
1.0
 40
1.0
 10
236.3375802677384
 20
199.2499558249123
 30
0.0
 10
236.3612541682943
 20
199.2499558249123
 30
0.0
 10
236.3743467254735
 20
199.2271652532649
 30
0.0
 10
236.3744331394557
 20
199.1392192559661
 30
0.0
 10
236.3612627478571
 20
199.0743584632333
 30
0.0
 10
236.3375802677384
 20
198.9999558249123
 30
0.0
  0
SPLINE
  5
283
330
1F
100
AcDbEntity
  8
0
  6
Continuous
 62
     7
370
    25
100
AcDbSpline
210
0.0
220
0.0
230
1.0
 70
    24
 71
     3
 72
    12
 73
     8
 74
     0
 42
0.00000001
 43
0.00000001
 40
0.0
 40
0.0
 40
0.0
 40
0.0
 40
0.2499999999999999
 40
0.2499999999999999
 40
0.4999999999999998
 40
0.4999999999999998
 40
1.0
 40
1.0
 40
1.0
 40
1.0
 10
235.6598588624781
 20
199.2499558249123
 30
0.0
 10
235.6598588624782
 20
199.2499558249123
 30
0.0
 10
235.6758576674592
 20
199.2499558249123
 30
0.0
 10
235.7376278057736
 20
199.2499558249123
 30
0.0
 10
235.7833699300752
 20
199.2499558249123
 30
0.0
 10
235.9600400774221
 20
199.2499558249123
 30
0.0
 10
236.1302951429024
 20
199.2499558249123
 30
0.0
 10
236.3375802677384
 20
199.2499558249123
 30
0.0
  0
SPLINE
  5
284
330
1F
100
AcDbEntity
  8
0
  6
Continuous
 62
     7
370
    25
100
AcDbSpline
210
0.0
220
0.0
230
1.0
 70
     8
 71
     3
 72
     8
 73
     4
 74
     0
 42
0.00000001
 43
0.00000001
 40
0.0
 40
0.0
 40
0.0
 40
0.0
 40
1.0
 40
1.0
 40
1.0
 40
1.0
 10
241.1598588624782
 20
183.2499558249123
 30
0.0
 10
240.9895812551344
 20
182.9157024286269
 30
0.0
 10
240.8173095065087
 20
182.5824359390579
 30
0.0
 10
240.643622785499
 20
182.2499558249123
 30
0.0
  0
SPLINE
  5
285
330
1F
100
AcDbEntity
  8
0
  6
Continuous
 62
     7
370
    25
100
AcDbSpline
210
0.0
220
0.0
230
1.0
 70
    24
 71
     3
 72
     8
 73
     4
 74
     0
 42
0.00000001
 43
0.00000001
 40
0.0
 40
0.0
 40
0.0
 40
0.0
 40
1.0
 40
1.0
 40
1.0
 40
1.0
 10
240.643622785499
 20
182.2499558249123
 30
0.0
 10
240.5927240685764
 20
182.2499558249123
 30
0.0
 10
240.5387899323257
 20
182.2499558249123
 30
0.0
 10
240.482137457218
 20
182.2499558249123
 30
0.0
  0
SPLINE
  5
286
330
1F
100
AcDbEntity
  8
0
  6
Continuous
 62
     7
370
    25
100
AcDbSpline
210
0.0
220
0.0
230
1.0
 70
     8
 71
     3
 72
    10
 73
     6
 74
     0
 42
0.00000001
 43
0.00000001
 40
0.0
 40
0.0
 40
0.0
 40
0.0
 40
0.5
 40
0.5
 40
1.0
 40
1.0
 40
1.0
 40
1.0
 10
240.482137457218
 20
182.4999558249123
 30
0.0
 10
240.4584620627936
 20
182.425575447535
 30
0.0
 10
240.4453709529089
 20
182.3612748087492
 30
0.0
 10
240.4452846316207
 20
182.2730591239663
 30
0.0
 10
240.4584535655645
 20
182.2499558249123
 30
0.0
 10
240.482137457218
 20
182.2499558249123
 30
0.0
  0
SPLINE
  5
287
330
1F
100
AcDbEntity
  8
0
  6
Continuous
 62
     7
370
    25
100
AcDbSpline
210
0.0
220
0.0
230
1.0
 70
     8
 71
     3
 72
     8
 73
     4
 74
     0
 42
0.00000001
 43
0.00000001
 40
0.0
 40
0.0
 40
0.0
 40
0.0
 40
1.0
 40
1.0
 40
1.0
 40
1.0
 10
253.6760949394573
 20
182.2499558249123
 30
0.0
 10
253.5023918632376
 20
182.5824672470478
 30
0.0
 10
253.3300896441748
 20
182.9157943469467
 30
0.0
 10
253.1598588624782
 20
183.2499558249123
 30
0.0
  0
SPLINE
  5
288
330
1F
100
AcDbEntity
  8
0
  6
Continuous
 62
     7
370
    25
100
AcDbSpline
210
0.0
220
0.0
230
1.0
 70
     8
 71
     3
 72
    10
 73
     6
 74
     0
 42
0.00000001
 43
0.00000001
 40
0.0
 40
0.0
 40
0.0
 40
0.0
 40
0.5
 40
0.5
 40
1.0
 40
1.0
 40
1.0
 40
1.0
 10
253.8375802677384
 20
182.2499558249123
 30
0.0
 10
253.8612556621628
 20
182.2499558249123
 30
0.0
 10
253.8743467720474
 20
182.2727482742421
 30
0.0
 10
253.8744330933357
 20
182.3606909783352
 30
0.0
 10
253.8612641593918
 20
182.425548752009
 30
0.0
 10
253.8375802677384
 20
182.4999558249123
 30
0.0
  0
SPLINE
  5
289
330
1F
100
AcDbEntity
  8
0
  6
Continuous
 62
     7
370
    25
100
AcDbSpline
210
0.0
220
0.0
230
1.0
 70
    24
 71
     3
 72
     8
 73
     4
 74
     0
 42
0.00000001
 43
0.00000001
 40
0.0
 40
0.0
 40
0.0
 40
0.0
 40
1.0
 40
1.0
 40
1.0
 40
1.0
 10
253.6760949394574
 20
182.2499558249123
 30
0.0
 10
253.7269911727124
 20
182.2499558249123
 30
0.0
 10
253.7809251276761
 20
182.2499558249123
 30
0.0
 10
253.8375802677383
 20
182.2499558249123
 30
0.0
  0
SPLINE
  5
28A
330
1F
100
AcDbEntity
  8
0
  6
Continuous
 62
     7
370
    25
100
AcDbSpline
210
0.0
220
0.0
230
1.0
 70
     8
 71
     3
 72
    10
 73
     6
 74
     0
 42
0.00000001
 43
0.00000001
 40
0.0
 40
0.0
 40
0.0
 40
0.0
 40
0.5
 40
0.5
 40
1.0
 40
1.0
 40
1.0
 40
1.0
 10
236.3375802677384
 20
182.4999558249123
 30
0.0
 10
236.3612525076499
 20
182.4255853579868
 30
0.0
 10
236.3743464975852
 20
182.3612797616989
 30
0.0
 10
236.3744333650466
 20
182.273056973893
 30
0.0
 10
236.3612635752872
 20
182.2499558249123
 30
0.0
 10
236.3375802677384
 20
182.2499558249123
 30
0.0
  0
SPLINE
  5
28B
330
1F
100
AcDbEntity
  8
0
  6
Continuous
 62
     7
370
    25
100
AcDbSpline
210
0.0
220
0.0
230
1.0
 70
    24
 71
     3
 72
    12
 73
     8
 74
     0
 42
0.00000001
 43
0.00000001
 40
0.0
 40
0.0
 40
0.0
 40
0.0
 40
0.2500000000000001
 40
0.2500000000000001
 40
0.5000000000000001
 40
0.5000000000000001
 40
1.0
 40
1.0
 40
1.0
 40
1.0
 10
235.6598588624781
 20
182.2499558249123
 30
0.0
 10
235.6598588624781
 20
182.2499558249123
 30
0.0
 10
235.6758576674592
 20
182.2499558249123
 30
0.0
 10
235.7376278057736
 20
182.2499558249123
 30
0.0
 10
235.7833699300752
 20
182.2499558249123
 30
0.0
 10
235.9600400774221
 20
182.2499558249123
 30
0.0
 10
236.1302951429024
 20
182.2499558249123
 30
0.0
 10
236.3375802677384
 20
182.2499558249123
 30
0.0
  0
LINE
  5
28C
330
1F
100
AcDbEntity
  8
0
  6
Continuous
 62
     7
370
    25
100
AcDbLine
 10
235.6598588625
 20
182.2499558249
 30
0.0
 11
235.6598588625
 21
186.367309543
 31
0.0
  0
LINE
  5
28D
330
1F
100
AcDbEntity
  8
0
  6
Continuous
 62
     7
370
    25
100
AcDbLine
 10
253.8375802677
 20
199.2499558249
 30
0.0
 11
258.3377998899
 21
199.2499558249
 31
0.0
  0
LINE
  5
28E
330
1F
100
AcDbEntity
  8
0
  6
Continuous
 62
     7
370
    25
100
AcDbLine
 10
236.3375802677
 20
199.2499558249
 30
0.0
 11
240.4821374572
 21
199.2499558249
 31
0.0
  0
LINE
  5
28F
330
1F
100
AcDbEntity
  8
0
  6
Continuous
 62
     7
370
    25
100
AcDbLine
 10
258.3377998899
 20
182.2499558249
 30
0.0
 11
253.8375802677
 21
182.2499558249
 31
0.0
  0
LINE
  5
290
330
1F
100
AcDbEntity
  8
0
  6
Continuous
 62
     7
370
    25
100
AcDbLine
 10
240.4821374572
 20
182.2499558249
 30
0.0
 11
236.3375802677
 21
182.2499558249
 31
0.0
  0
LINE
  5
291
330
1F
100
AcDbEntity
  8
0
  6
Continuous
 62
     7
370
    25
100
AcDbLine
 10
253.6760949395
 20
199.2499558249
 30
0.0
 11
240.6436227855
 21
199.2499558249
 31
0.0
  0
LINE
  5
292
330
1F
100
AcDbEntity
  8
0
  6
Continuous
 62
     7
370
    25
100
AcDbLine
 10
253.6760949395
 20
182.2499558249
 30
0.0
 11
240.6436227855
 21
182.2499558249
 31
0.0
  0
SPLINE
  5
293
330
1F
100
AcDbEntity
  8
0
  6
Continuous
 62
     7
370
    25
100
AcDbSpline
210
0.0
220
0.0
230
1.0
 70
     8
 71
     3
 72
    15
 73
    11
 74
     0
 42
0.00000001
 43
0.00000001
 40
0.0
 40
0.0
 40
0.0
 40
0.0
 40
0.0081667445812695
 40
0.3321939991490083
 40
0.4756279600585602
 40
0.6866830973284899
 40
0.8457435502264811
 40
0.8967566214763185
 40
0.9909540928118029
 40
1.0
 40
1.0
 40
1.0
 40
1.0
 10
252.258878376071
 20
191.9999558249123
 30
0.0
 10
252.2593659102138
 20
192.0013932878513
 30
0.0
 10
252.2791970577459
 20
192.059864145803
 30
0.0
 10
252.3074778377552
 20
192.1442893235225
 30
0.0
 10
252.345307136244
 20
192.258868395545
 30
0.0
 10
252.3718910328115
 20
192.3402392827416
 30
0.0
 10
252.3890608565665
 20
192.3932582747432
 30
0.0
 10
252.3968778527829
 20
192.4174602065874
 30
0.0
 10
252.3988735392188
 20
192.4236498272535
 30
0.0
 10
252.3989385031696
 20
192.4238512226661
 30
0.0
 10
252.3989441951363
 20
192.4238688683906
 30
0.0
  0
ARC
  5
294
330
1F
100
AcDbEntity
  8
0
  6
Continuous
 62
     7
370
    25
100
AcDbCircle
 10
247.1598588625
 20
190.7499558249
 30
0.0
 40
5.250000000000036
100
AcDbArc
 50
13.774146998
 51
166.225853002
  0
SPLINE
  5
295
330
1F
100
AcDbEntity
  8
0
  6
Continuous
 62
     7
370
    25
100
AcDbSpline
210
0.0
220
0.0
230
1.0
 70
     8
 71
     3
 72
    15
 73
    11
 74
     0
 42
0.00000001
 43
0.00000001
 40
0.0
 40
0.0
 40
0.0
 40
0.0
 40
0.0090459071881971
 40
0.1032433785236874
 40
0.1542564497735246
 40
0.313316902671511
 40
0.5243720399414428
 40
0.6678060008509903
 40
0.9918332554187292
 40
1.0
 40
1.0
 40
1.0
 40
1.0
 10
241.9207735298201
 20
192.4238688683906
 30
0.0
 10
241.9207792217867
 20
192.4238512226661
 30
0.0
 10
241.9208441857375
 20
192.4236498272536
 30
0.0
 10
241.9228398721734
 20
192.4174602065874
 30
0.0
 10
241.9306568683899
 20
192.3932582747432
 30
0.0
 10
241.9478266921448
 20
192.3402392827415
 30
0.0
 10
241.9744105887123
 20
192.258868395545
 30
0.0
 10
242.0122398872012
 20
192.1442893235225
 30
0.0
 10
242.0405206672104
 20
192.059864145803
 30
0.0
 10
242.0603518147425
 20
192.0013932878513
 30
0.0
 10
242.0608393488854
 20
191.9999558249123
 30
0.0
  0
ARC
  5
296
330
1F
100
AcDbEntity
  8
0
  6
Continuous
 62
     7
370
    25
100
AcDbCircle
 10
247.1598588625
 20
190.7499558249
 30
0.0
 40
5.500000000000002
100
AcDbArc
 50
17.7189318734
 51
162.2810681266
  0
ARC
  5
297
330
1F
100
AcDbEntity
  8
0
  6
Continuous
 62
     7
370
    25
100
AcDbCircle
 10
241.6826332874
 20
192.4999558249
 30
0.0
 40
0.2500000000000284
100
AcDbArc
 50
270.0
 51
342.2810681266
  0
SPLINE
  5
298
330
1F
100
AcDbEntity
  8
0
  6
Continuous
 62
     7
370
    25
100
AcDbSpline
210
0.0
220
0.0
230
1.0
 70
     8
 71
     3
 72
    15
 73
    11
 74
     0
 42
0.00000001
 43
0.00000001
 40
0.0
 40
0.0
 40
0.0
 40
0.0
 40
0.0080847466189818
 40
0.3310106400647567
 40
0.4750333064304972
 40
0.6874363079215137
 40
0.8468367539418253
 40
0.9000996640391794
 40
0.9910442771984082
 40
1.0
 40
1.0
 40
1.0
 40
1.0
 10
242.0608393488854
 20
191.9999558249123
 30
0.0
 10
242.0595595173412
 20
192.0007717609006
 30
0.0
 10
242.0071598716174
 20
192.0341783110942
 30
0.0
 10
241.931804780163
 20
192.0829918758291
 30
0.0
 10
241.8298856681452
 20
192.1503623480972
 30
0.0
 10
241.7574947231533
 20
192.1989463884407
 30
0.0
 10
241.7097892948885
 20
192.2313952498993
 30
0.0
 10
241.6882538111812
 20
192.2461062909655
 30
0.0
 10
241.6828247951617
 20
192.2498247418837
 30
0.0
 10
241.6826490430051
 20
192.2499450405492
 30
0.0
 10
241.6826332874265
 20
192.2499558249123
 30
0.0
  0
SPLINE
  5
299
330
1F
100
AcDbEntity
  8
0
  6
Continuous
 62
     7
370
    25
100
AcDbSpline
210
0.0
220
0.0
230
1.0
 70
     8
 71
     3
 72
    15
 73
    11
 74
     0
 42
0.00000001
 43
0.00000001
 40
0.0
 40
0.0
 40
0.0
 40
0.0
 40
0.0090459071881971
 40
0.1032433785236816
 40
0.1542564497735189
 40
0.31331690267151
 40
0.5243720399414428
 40
0.6678060008509183
 40
0.9918332554187028
 40
1.0
 40
1.0
 40
1.0
 40
1.0
 10
252.3989441951363
 20
189.0760427814341
 30
0.0
 10
252.3989385031696
 20
189.0760604271585
 30
0.0
 10
252.3988735392188
 20
189.0762618225711
 30
0.0
 10
252.3968778527829
 20
189.0824514432373
 30
0.0
 10
252.3890608565665
 20
189.1066533750814
 30
0.0
 10
252.3718910328115
 20
189.1596723670831
 30
0.0
 10
252.345307136244
 20
189.2410432542796
 30
0.0
 10
252.3074778377553
 20
189.3556223263021
 30
0.0
 10
252.2791970577451
 20
189.4400475040213
 30
0.0
 10
252.2593659102138
 20
189.4985183619733
 30
0.0
 10
252.258878376071
 20
189.4999558249123
 30
0.0
  0
SPLINE
  5
29A
330
1F
100
AcDbEntity
  8
0
  6
Continuous
 62
     7
370
    25
100
AcDbSpline
210
0.0
220
0.0
230
1.0
 70
     8
 71
     3
 72
    15
 73
    11
 74
     0
 42
0.00000001
 43
0.00000001
 40
0.0
 40
0.0
 40
0.0
 40
0.0
 40
0.0080847466189582
 40
0.3310106400648243
 40
0.4750333064304948
 40
0.6874363079215142
 40
0.8468367539418303
 40
0.9000996640391847
 40
0.9910442771984082
 40
1.0
 40
1.0
 40
1.0
 40
1.0
 10
252.258878376071
 20
189.4999558249123
 30
0.0
 10
252.260158207615
 20
189.499139888924
 30
0.0
 10
252.3125578533383
 20
189.4657333387295
 30
0.0
 10
252.3879129447934
 20
189.4169197739957
 30
0.0
 10
252.4898320568111
 20
189.3495493017273
 30
0.0
 10
252.562223001803
 20
189.3009652613839
 30
0.0
 10
252.6099284300678
 20
189.2685163999254
 30
0.0
 10
252.6314639137751
 20
189.2538053588591
 30
0.0
 10
252.6368929297946
 20
189.250086907941
 30
0.0
 10
252.6370686819512
 20
189.2499666092754
 30
0.0
 10
252.6370844375298
 20
189.2499558249123
 30
0.0
  0
ARC
  5
29B
330
1F
100
AcDbEntity
  8
0
  6
Continuous
 62
     7
370
    25
100
AcDbCircle
 10
252.6370844375
 20
188.9999558249
 30
0.0
 40
0.2500000000000029
100
AcDbArc
 50
90.0
 51
162.2810681266
  0
ARC
  5
29C
330
1F
100
AcDbEntity
  8
0
  6
Continuous
 62
     7
370
    25
100
AcDbCircle
 10
252.6370844375
 20
192.4999558249
 30
0.0
 40
0.2500000000000284
100
AcDbArc
 50
197.7189318734
 51
270.0
  0
SPLINE
  5
29D
330
1F
100
AcDbEntity
  8
0
  6
Continuous
 62
     7
370
    25
100
AcDbSpline
210
0.0
220
0.0
230
1.0
 70
     8
 71
     3
 72
    15
 73
    11
 74
     0
 42
0.00000001
 43
0.00000001
 40
0.0
 40
0.0
 40
0.0
 40
0.0
 40
0.0089557228015919
 40
0.0999003359608148
 40
0.153163246058169
 40
0.3125636920784848
 40
0.5249666935694999
 40
0.6689893599352451
 40
0.9919152533810159
 40
1.0
 40
1.0
 40
1.0
 40
1.0
 10
252.6370844375298
 20
192.2499558249123
 30
0.0
 10
252.6370686819512
 20
192.2499450405492
 30
0.0
 10
252.6368929297946
 20
192.2498247418837
 30
0.0
 10
252.6314639137751
 20
192.2461062909655
 30
0.0
 10
252.6099284300678
 20
192.2313952498993
 30
0.0
 10
252.562223001803
 20
192.1989463884407
 30
0.0
 10
252.4898320568111
 20
192.1503623480972
 30
0.0
 10
252.3879129447933
 20
192.0829918758291
 30
0.0
 10
252.3125578533388
 20
192.0341783110943
 30
0.0
 10
252.2601582076151
 20
192.0007717609006
 30
0.0
 10
252.258878376071
 20
191.9999558249123
 30
0.0
  0
SPLINE
  5
29E
330
1F
100
AcDbEntity
  8
0
  6
Continuous
 62
     7
370
    25
100
AcDbSpline
210
0.0
220
0.0
230
1.0
 70
     8
 71
     3
 72
    15
 73
    11
 74
     0
 42
0.00000001
 43
0.00000001
 40
0.0
 40
0.0
 40
0.0
 40
0.0
 40
0.0089557228015919
 40
0.0999003359608209
 40
0.1531632460581751
 40
0.3125636920784904
 40
0.5249666935695061
 40
0.6689893599351777
 40
0.991915253381045
 40
1.0
 40
1.0
 40
1.0
 40
1.0
 10
241.6826332874265
 20
189.2499558249123
 30
0.0
 10
241.6826490430051
 20
189.2499666092754
 30
0.0
 10
241.6828247951617
 20
189.250086907941
 30
0.0
 10
241.6882538111812
 20
189.2538053588591
 30
0.0
 10
241.7097892948885
 20
189.2685163999254
 30
0.0
 10
241.7574947231533
 20
189.3009652613839
 30
0.0
 10
241.8298856681453
 20
189.3495493017273
 30
0.0
 10
241.9318047801629
 20
189.4169197739957
 30
0.0
 10
242.0071598716179
 20
189.4657333387296
 30
0.0
 10
242.0595595173413
 20
189.499139888924
 30
0.0
 10
242.0608393488854
 20
189.4999558249123
 30
0.0
  0
SPLINE
  5
29F
330
1F
100
AcDbEntity
  8
0
  6
Continuous
 62
     7
370
    25
100
AcDbSpline
210
0.0
220
0.0
230
1.0
 70
     8
 71
     3
 72
    15
 73
    11
 74
     0
 42
0.00000001
 43
0.00000001
 40
0.0
 40
0.0
 40
0.0
 40
0.0
 40
0.0081667445812973
 40
0.3321939991490804
 40
0.475627960058556
 40
0.6866830973284891
 40
0.8457435502264751
 40
0.8967566214763124
 40
0.9909540928118028
 40
1.0
 40
1.0
 40
1.0
 40
1.0
 10
242.0608393488854
 20
189.4999558249123
 30
0.0
 10
242.0603518147425
 20
189.4985183619733
 30
0.0
 10
242.0405206672112
 20
189.4400475040213
 30
0.0
 10
242.012239887201
 20
189.3556223263021
 30
0.0
 10
241.9744105887123
 20
189.2410432542796
 30
0.0
 10
241.9478266921448
 20
189.1596723670831
 30
0.0
 10
241.9306568683899
 20
189.1066533750814
 30
0.0
 10
241.9228398721734
 20
189.0824514432373
 30
0.0
 10
241.9208441857375
 20
189.0762618225711
 30
0.0
 10
241.9207792217867
 20
189.0760604271585
 30
0.0
 10
241.9207735298201
 20
189.0760427814341
 30
0.0
  0
ARC
  5
2A0
330
1F
100
AcDbEntity
  8
0
  6
Continuous
 62
     7
370
    25
100
AcDbCircle
 10
241.6826332874
 20
188.9999558249
 30
0.0
 40
0.2500000000000029
100
AcDbArc
 50
17.7189318734
 51
90.0
  0
ARC
  5
2A1
330
1F
100
AcDbEntity
  8
0
  6
Continuous
 62
     7
370
    25
100
AcDbCircle
 10
247.1598588625
 20
190.7499558249
 30
0.0
 40
5.499999999999985
100
AcDbArc
 50
197.7189318734
 51
342.2810681266
  0
ARC
  5
2A2
330
1F
100
AcDbEntity
  8
0
  6
Continuous
 62
     7
370
    25
100
AcDbCircle
 10
247.1598588625
 20
190.7499558249
 30
0.0
 40
5.250000000000036
100
AcDbArc
 50
193.774146998
 51
346.225853002
  0
LINE
  5
2A3
330
1F
100
AcDbEntity
  8
0
  6
Continuous
 62
     7
370
    25
100
AcDbLine
 10
242.1598588625
 20
190.1499558249
 30
0.0
 11
252.1598588625
 21
190.1499558249
 31
0.0
  0
LINE
  5
2A4
330
1F
100
AcDbEntity
  8
0
  6
Continuous
 62
     7
370
    25
100
AcDbLine
 10
252.1598588625
 20
190.1499558249
 30
0.0
 11
252.1598588625
 21
191.3499558249
 31
0.0
  0
LINE
  5
2A5
330
1F
100
AcDbEntity
  8
0
  6
Continuous
 62
     7
370
    25
100
AcDbLine
 10
242.1598588625
 20
191.3499558249
 30
0.0
 11
242.1598588625
 21
190.1499558249
 31
0.0
  0
LINE
  5
2A6
330
1F
100
AcDbEntity
  8
0
  6
Continuous
 62
     7
370
    25
100
AcDbLine
 10
252.1598588625
 20
191.3499558249
 30
0.0
 11
242.1598588625
 21
191.3499558249
 31
0.0
  0
LINE
  5
2A7
330
1F
100
AcDbEntity
  8
0
  6
Continuous
 62
     7
370
    25
100
AcDbLine
 10
252.9098588625
 20
191.9999558249
 30
0.0
 11
252.2588783761
 21
191.9999558249
 31
0.0
  0
LINE
  5
2A8
330
1F
100
AcDbEntity
  8
0
  6
Continuous
 62
     7
370
    25
100
AcDbLine
 10
252.9098588625
 20
189.4999558249
 30
0.0
 11
252.9098588625
 21
191.9999558249
 31
0.0
  0
LINE
  5
2A9
330
1F
100
AcDbEntity
  8
0
  6
Continuous
 62
     7
370
    25
100
AcDbLine
 10
252.2588783761
 20
189.4999558249
 30
0.0
 11
252.9098588625
 21
189.4999558249
 31
0.0
  0
LINE
  5
2AA
330
1F
100
AcDbEntity
  8
0
  6
Continuous
 62
     7
370
    25
100
AcDbLine
 10
241.4098588625
 20
189.4999558249
 30
0.0
 11
242.0608393489
 21
189.4999558249
 31
0.0
  0
LINE
  5
2AB
330
1F
100
AcDbEntity
  8
0
  6
Continuous
 62
     7
370
    25
100
AcDbLine
 10
241.4098588625
 20
191.9999558249
 30
0.0
 11
241.4098588625
 21
189.4999558249
 31
0.0
  0
LINE
  5
2AC
330
1F
100
AcDbEntity
  8
0
  6
Continuous
 62
     7
370
    25
100
AcDbLine
 10
242.0608393489
 20
191.9999558249
 30
0.0
 11
241.4098588625
 21
191.9999558249
 31
0.0
  0
ARC
  5
2AD
330
1F
100
AcDbEntity
  8
0
  6
Continuous
 62
     7
370
    25
100
AcDbCircle
 10
252.9098588625
 20
191.9999558249
 30
0.0
 40
0.25
100
AcDbArc
 50
0.0
 51
90.0
  0
LINE
  5
2AE
330
1F
100
AcDbEntity
  8
0
  6
Continuous
 62
     7
370
    25
100
AcDbLine
 10
253.1598588625
 20
191.9999558249
 30
0.0
 11
252.9098588625
 21
191.9999558249
 31
0.0
  0
LINE
  5
2AF
330
1F
100
AcDbEntity
  8
0
  6
Continuous
 62
     7
370
    25
100
AcDbLine
 10
252.9098588625
 20
191.9999558249
 30
0.0
 11
252.9098588625
 21
192.2499558249
 31
0.0
  0
LINE
  5
2B0
330
1F
100
AcDbEntity
  8
0
  6
Continuous
 62
     7
370
    25
100
AcDbLine
 10
241.4098588625
 20
192.2499558249
 30
0.0
 11
241.4098588625
 21
191.9999558249
 31
0.0
  0
LINE
  5
2B1
330
1F
100
AcDbEntity
  8
0
  6
Continuous
 62
     7
370
    25
100
AcDbLine
 10
241.4098588625
 20
192.2499558249
 30
0.0
 11
241.6826332874
 21
192.2499558249
 31
0.0
  0
LINE
  5
2B2
330
1F
100
AcDbEntity
  8
0
  6
Continuous
 62
     7
370
    25
100
AcDbLine
 10
252.6370844375
 20
192.2499558249
 30
0.0
 11
252.9098588625
 21
192.2499558249
 31
0.0
  0
LINE
  5
2B3
330
1F
100
AcDbEntity
  8
0
  6
Continuous
 62
     7
370
    25
100
AcDbLine
 10
241.4098588625
 20
191.9999558249
 30
0.0
 11
241.1598588625
 21
191.9999558249
 31
0.0
  0
ARC
  5
2B4
330
1F
100
AcDbEntity
  8
0
  6
Continuous
 62
     7
370
    25
100
AcDbCircle
 10
241.4098588625
 20
191.9999558249
 30
0.0
 40
0.25
100
AcDbArc
 50
90.0
 51
180.0
  0
LINE
  5
2B5
330
1F
100
AcDbEntity
  8
0
  6
Continuous
 62
     7
370
    25
100
AcDbLine
 10
241.1598588625
 20
189.4999558249
 30
0.0
 11
241.4098588625
 21
189.4999558249
 31
0.0
  0
LINE
  5
2B6
330
1F
100
AcDbEntity
  8
0
  6
Continuous
 62
     7
370
    25
100
AcDbLine
 10
241.1598588625
 20
189.4999558249
 30
0.0
 11
241.1598588625
 21
191.9999558249
 31
0.0
  0
LINE
  5
2B7
330
1F
100
AcDbEntity
  8
0
  6
Continuous
 62
     7
370
    25
100
AcDbLine
 10
253.1598588625
 20
191.9999558249
 30
0.0
 11
253.1598588625
 21
189.4999558249
 31
0.0
  0
LINE
  5
2B8
330
1F
100
AcDbEntity
  8
0
  6
Continuous
 62
     7
370
    25
100
AcDbLine
 10
252.9098588625
 20
189.4999558249
 30
0.0
 11
253.1598588625
 21
189.4999558249
 31
0.0
  0
ARC
  5
2B9
330
1F
100
AcDbEntity
  8
0
  6
Continuous
 62
     7
370
    25
100
AcDbCircle
 10
252.9098588625
 20
189.4999558249
 30
0.0
 40
0.25
100
AcDbArc
 50
270.0
 51
0.0
  0
LINE
  5
2BA
330
1F
100
AcDbEntity
  8
0
  6
Continuous
 62
     7
370
    25
100
AcDbLine
 10
252.9098588625
 20
189.2499558249
 30
0.0
 11
252.9098588625
 21
189.4999558249
 31
0.0
  0
LINE
  5
2BB
330
1F
100
AcDbEntity
  8
0
  6
Continuous
 62
     7
370
    25
100
AcDbLine
 10
241.4098588625
 20
189.4999558249
 30
0.0
 11
241.4098588625
 21
189.2499558249
 31
0.0
  0
ARC
  5
2BC
330
1F
100
AcDbEntity
  8
0
  6
Continuous
 62
     7
370
    25
100
AcDbCircle
 10
241.4098588625
 20
189.4999558249
 30
0.0
 40
0.25
100
AcDbArc
 50
180.0
 51
270.0
  0
LINE
  5
2BD
330
1F
100
AcDbEntity
  8
0
  6
Continuous
 62
     7
370
    25
100
AcDbLine
 10
252.9098588625
 20
189.2499558249
 30
0.0
 11
252.6370844375
 21
189.2499558249
 31
0.0
  0
LINE
  5
2BE
330
1F
100
AcDbEntity
  8
0
  6
Continuous
 62
     7
370
    25
100
AcDbLine
 10
241.6826332874
 20
189.2499558249
 30
0.0
 11
241.4098588625
 21
189.2499558249
 31
0.0
  0
LINE
  5
2BF
330
1F
100
AcDbEntity
  8
0
  6
Continuous
 62
     7
370
    25
100
AcDbLine
 10
227.1598588625
 20
187.4782565609
 30
0.0
 11
227.1598588625
 21
194.021655089
 31
0.0
  0
LINE
  5
2C0
330
1F
100
AcDbEntity
  8
0
  6
Continuous
 62
     7
370
    25
100
AcDbLine
 10
224.9844220009
 20
187.2499558249
 30
0.0
 11
227.1598588625
 21
187.4782565609
 31
0.0
  0
LINE
  5
2C1
330
1F
100
AcDbEntity
  8
0
  6
Continuous
 62
     7
370
    25
100
AcDbLine
 10
207.1598588625
 20
187.2499558249
 30
0.0
 11
224.9844220009
 21
187.2499558249
 31
0.0
  0
LINE
  5
2C2
330
1F
100
AcDbEntity
  8
0
  6
Continuous
 62
     7
370
    25
100
AcDbLine
 10
224.9844220009
 20
194.2499558249
 30
0.0
 11
207.1598588625
 21
194.2499558249
 31
0.0
  0
LINE
  5
2C3
330
1F
100
AcDbEntity
  8
0
  6
Continuous
 62
     7
370
    25
100
AcDbLine
 10
227.1598588625
 20
194.021655089
 30
0.0
 11
224.9844220009
 21
194.2499558249
 31
0.0
  0
LINE
  5
2C4
330
1F
100
AcDbEntity
  8
0
  6
Continuous
 62
     7
370
    25
100
AcDbLine
 10
207.1598588625
 20
194.2499558249
 30
0.0
 11
207.1598588625
 21
187.2499558249
 31
0.0
  0
LINE
  5
2C5
330
1F
100
AcDbEntity
  8
0
  6
Continuous
 62
     7
370
    25
100
AcDbLine
 10
241.9360566881
 20
192.4709703057
 30
0.0
 11
241.8076476495
 21
192.2868286723
 31
0.0
  0
LINE
  5
2C6
330
1F
100
AcDbEntity
  8
0
  6
Continuous
 62
     7
370
    25
100
AcDbLine
 10
241.8172149902
 20
189.2047381575
 30
0.0
 11
241.9360566881
 21
189.0289413441
 31
0.0
  0
LINE
  5
2C7
330
1F
100
AcDbEntity
  8
0
  6
Continuous
 62
     7
370
    25
100
AcDbLine
 10
233.7432892089
 20
193.3307584605
 30
0.0
 11
233.7432892089
 21
188.1691531893
 31
0.0
  0
LINE
  5
2C8
330
1F
100
AcDbEntity
  8
0
  6
Continuous
 62
     7
370
    25
100
AcDbLine
 10
241.9360566881
 20
189.0289413441
 30
0.0
 11
233.7432892089
 21
188.1691531893
 31
0.0
  0
LINE
  5
2C9
330
1F
100
AcDbEntity
  8
0
  6
Continuous
 62
     7
370
    25
100
AcDbLine
 10
233.7432892089
 20
193.3307584605
 30
0.0
 11
241.9360566881
 21
192.4709703057
 31
0.0
  0
LINE
  5
2CA
330
1F
100
AcDbEntity
  8
0
  6
Continuous
 62
     7
370
    25
100
AcDbLine
 10
233.7432892089
 20
188.1691531893
 30
0.0
 11
227.1598588625
 21
187.4782565609
 31
0.0
  0
LINE
  5
2CB
330
1F
100
AcDbEntity
  8
0
  6
Continuous
 62
     7
370
    25
100
AcDbLine
 10
227.1598588625
 20
194.021655089
 30
0.0
 11
233.7432892089
 21
193.3307584605
 31
0.0
  0
ARC
  5
2CC
330
1F
100
AcDbEntity
  8
0
  6
Continuous
 62
     7
370
    25
100
AcDbCircle
 10
247.1598588625
 20
190.7499558249
 30
0.0
 40
7.450000000000656
100
AcDbArc
 50
233.0863788866
 51
126.9136211134
  0
ARC
  5
2CD
330
1F
100
AcDbEntity
  8
0
  6
Continuous
 62
     7
370
    25
100
AcDbCircle
 10
247.1598588625
 20
190.7499558249
 30
0.0
 40
7.207531252870781
100
AcDbArc
 50
195.3041237151
 51
238.9797515565
  0
ARC
  5
2CE
330
1F
100
AcDbEntity
  8
0
  6
Continuous
 62
     7
370
    25
100
AcDbCircle
 10
247.1598588625
 20
190.7499558249
 30
0.0
 40
7.207531252872434
100
AcDbArc
 50
121.0202484435
 51
164.6958762849
  0
ARC
  5
2CF
330
1F
100
AcDbEntity
  8
0
  6
Continuous
 62
     7
370
    25
100
AcDbCircle
 10
224.9844220009
 20
259.2499558249
 30
0.0
 40
64.99999999999997
100
AcDbArc
 50
270.0
 51
286.5000949923
  0
ARC
  5
2D0
330
1F
100
AcDbEntity
  8
0
  6
Continuous
 62
     7
370
    25
100
AcDbCircle
 10
224.9844220009
 20
122.2499558249
 30
0.0
 40
64.99999999999999
100
AcDbArc
 50
73.4999050077
 51
90.0
  0
LINE
  5
2D1
330
1F
100
AcDbEntity
  8
0
  6
Continuous
 62
     7
370
    25
100
AcDbLine
 10
216.7507553969
 20
200.0999558249
 30
0.0
 11
216.7507553969
 21
194.2499558249
 31
0.0
  0
LINE
  5
2D2
330
1F
100
AcDbEntity
  8
0
  6
Continuous
 62
     7
370
    25
100
AcDbLine
 10
216.7507553969
 20
187.2499558249
 30
0.0
 11
216.7507553969
 21
181.3999558249
 31
0.0
  0
LINE
  5
2D3
330
1F
100
AcDbEntity
  8
0
  6
Continuous
 62
     7
370
    25
100
AcDbLine
 10
230.1507553969
 20
181.3999558249
 30
0.0
 11
230.1507553969
 21
187.0443151415
 31
0.0
  0
LINE
  5
2D4
330
1F
100
AcDbEntity
  8
0
  6
Continuous
 62
     7
370
    25
100
AcDbLine
 10
230.1507553969
 20
194.4555965084
 30
0.0
 11
230.1507553969
 21
200.0999558249
 31
0.0
  0
LINE
  5
2D5
330
1F
100
AcDbEntity
  8
0
  6
Continuous
 62
     7
370
    25
100
AcDbLine
 10
258.3377998899
 20
190.4999558249
 30
0.0
 11
254.6056630501
 21
190.4999558249
 31
0.0
  0
LINE
  5
2D6
330
1F
100
AcDbEntity
  8
0
  6
Continuous
 62
     7
370
    25
100
AcDbLine
 10
254.6056630501
 20
190.9999558249
 30
0.0
 11
258.3377998899
 21
190.9999558249
 31
0.0
  0
INSERT
  5
2E2
330
1F
100
AcDbEntity
  8
FORMAT
100
AcDbBlockReference
  2
SW_CENTERMARKSYMBOL_1
 10
247.1598588625
 20
190.7499558249
 30
0.0
  0
LINE
  5
2E3
330
1F
100
AcDbEntity
  8
FORMAT
100
AcDbLine
 10
222.8038588625
 20
198.2249558249
 30
0.0
 11
232.6598588625
 21
198.2249558249
 31
0.0
  0
LINE
  5
2E4
330
1F
100
AcDbEntity
  8
FORMAT
100
AcDbLine
 10
222.8038588625
 20
183.2749558249
 30
0.0
 11
232.6598588625
 21
183.2749558249
 31
0.0
  0
LINE
  5
2E5
330
1F
100
AcDbEntity
  8
FORMAT
100
AcDbLine
 10
232.6598588625
 20
182.4189558249
 30
0.0
 11
232.6598588625
 21
199.0809558249
 31
0.0
  0
ENDSEC
  0
SECTION
  2
OBJECTS
  0
DICTIONARY
  5
C
330
0
100
AcDbDictionary
281
     1
  3
ACAD_GROUP
350
D
  3
ACAD_LAYOUT
350
1A
  3
ACAD_MLINESTYLE
350
17
  3
ACAD_PLOTSETTINGS
350
19
  3
ACAD_PLOTSTYLENAME
350
E
  3
ACAD_SCALELIST
350
47
  3
DWGPROPS
350
2E6
  0
DICTIONARY
  5
D
102
{ACAD_REACTORS
330
C
102
}
330
C
100
AcDbDictionary
281
     1
  0
DICTIONARY
  5
1A
102
{ACAD_REACTORS
330
C
102
}
330
C
100
AcDbDictionary
281
     1
  3
Layout1
350
1E
  3
Layout2
350
26
  3
Model
350
22
  0
DICTIONARY
  5
17
102
{ACAD_REACTORS
330
C
102
}
330
C
100
AcDbDictionary
281
     1
  3
Standard
350
18
  0
DICTIONARY
  5
19
102
{ACAD_REACTORS
330
C
102
}
330
C
100
AcDbDictionary
281
     1
  0
ACDBDICTIONARYWDFLT
  5
E
102
{ACAD_REACTORS
330
C
102
}
330
C
100
AcDbDictionary
281
     1
  3
Normal
350
F
100
AcDbDictionaryWithDefault
340
F
  0
DICTIONARY
  5
47
102
{ACAD_REACTORS
330
C
102
}
330
C
100
AcDbDictionary
281
     1
  3
A0
350
48
  3
A1
350
49
  3
A2
350
4A
  3
A3
350
4B
  3
A4
350
4C
  3
A5
350
4D
  3
A6
350
4E
  3
A7
350
4F
  3
A8
350
50
  3
A9
350
51
  3
B0
350
52
  3
B1
350
53
  3
B2
350
54
  3
B3
350
55
  3
B4
350
56
  3
B5
350
57
  3
B6
350
58
  0
XRECORD
  5
2E6
102
{ACAD_REACTORS
330
C
102
}
330
C
100
AcDbXrecord
280
     1
  1
DWGPROPS COOKIE
  2

  3

  4

  6

  7

  8
user28
  9

300
=
301
=
302
=
303
=
304
=
305
=
306
=
307
=
308
=
309
=
 40
0.0
 41
2460333.021120972
 42
2460333.021121725
  1

 90
        0
  0
LAYOUT
  5
1E
102
{ACAD_REACTORS
330
1A
102
}
330
1A
100
AcDbPlotSettings
  1

  2
none_device
  4

  6

 40
0.0
 41
0.0
 42
0.0
 43
0.0
 44
0.0
 45
0.0
 46
0.0
 47
0.0
 48
0.0
 49
0.0
140
0.0
141
0.0
142
1.0
143
1.0
 70
   688
 72
     1
 73
     0
 74
     5
  7

 75
    16
147
1.0
148
0.0
149
0.0
100
AcDbLayout
  1
Layout1
 70
     1
 71
     1
 10
0.0
 20
0.0
 11
420.0
 21
297.0
 12
0.0
 22
0.0
 32
0.0
 14
1.0000000000E+20
 24
1.0000000000E+20
 34
1.0000000000E+20
 15
-1.0000000000E+20
 25
-1.0000000000E+20
 35
-1.0000000000E+20
146
0.0
 13
0.0
 23
0.0
 33
0.0
 16
1.0
 26
0.0
 36
0.0
 17
0.0
 27
1.0
 37
0.0
 76
     0
330
1B
  0
LAYOUT
  5
26
102
{ACAD_REACTORS
330
1A
102
}
330
1A
100
AcDbPlotSettings
  1

  2
none_device
  4

  6

 40
0.0
 41
0.0
 42
0.0
 43
0.0
 44
0.0
 45
0.0
 46
0.0
 47
0.0
 48
0.0
 49
0.0
140
0.0
141
0.0
142
1.0
143
1.0
 70
   688
 72
     1
 73
     0
 74
     5
  7

 75
    16
147
1.0
148
0.0
149
0.0
100
AcDbLayout
  1
Layout2
 70
     1
 71
     2
 10
0.0
 20
0.0
 11
0.0
 21
0.0
 12
0.0
 22
0.0
 32
0.0
 14
0.0
 24
0.0
 34
0.0
 15
0.0
 25
0.0
 35
0.0
146
0.0
 13
0.0
 23
0.0
 33
0.0
 16
1.0
 26
0.0
 36
0.0
 17
0.0
 27
1.0
 37
0.0
 76
     0
330
23
  0
LAYOUT
  5
22
102
{ACAD_REACTORS
330
1A
102
}
330
1A
100
AcDbPlotSettings
  1

  2
none_device
  4
Letter_(8.50_x_11.00_Inches)
  6

 40
6.35
 41
6.35
 42
6.35000508
 43
6.35000508
 44
215.9
 45
279.4
 46
0.0
 47
0.0
 48
0.0
 49
0.0
140
0.0
141
0.0
142
1.0
143
1.0
 70
  1712
 72
     1
 73
     0
 74
     0
  7

 75
     0
147
1.0
148
0.0
149
0.0
100
AcDbLayout
  1
Model
 70
     1
 71
     0
 10
0.0
 20
0.0
 11
594.0
 21
420.0
 12
0.0
 22
0.0
 32
0.0
 14
0.0
 24
0.0
 34
0.0
 15
594.0
 25
420.0
 35
0.0
146
0.0
 13
0.0
 23
0.0
 33
0.0
 16
1.0
 26
0.0
 36
0.0
 17
0.0
 27
1.0
 37
0.0
 76
     0
330
1F
331
29
  0
MLINESTYLE
  5
18
102
{ACAD_REACTORS
330
17
102
}
330
17
100
AcDbMlineStyle
  2
Standard
 70
     0
  3

 62
   256
 51
90.0
 52
90.0
 71
     2
 49
0.5
 62
   256
  6
BYLAYER
 49
-0.5
 62
   256
  6
BYLAYER
  0
ACDBPLACEHOLDER
  5
F
102
{ACAD_REACTORS
330
E
102
}
330
E
  0
SCALE
  5
48
102
{ACAD_REACTORS
330
47
102
}
330
47
100
AcDbScale
 70
     0
300
1:1
140
1.0
141
1.0
290
     1
  0
SCALE
  5
49
102
{ACAD_REACTORS
330
47
102
}
330
47
100
AcDbScale
 70
     0
300
1:2
140
1.0
141
2.0
290
     0
  0
SCALE
  5
4A
102
{ACAD_REACTORS
330
47
102
}
330
47
100
AcDbScale
 70
     0
300
1:4
140
1.0
141
4.0
290
     0
  0
SCALE
  5
4B
102
{ACAD_REACTORS
330
47
102
}
330
47
100
AcDbScale
 70
     0
300
1:5
140
1.0
141
5.0
290
     0
  0
SCALE
  5
4C
102
{ACAD_REACTORS
330
47
102
}
330
47
100
AcDbScale
 70
     0
300
1:8
140
1.0
141
8.0
290
     0
  0
SCALE
  5
4D
102
{ACAD_REACTORS
330
47
102
}
330
47
100
AcDbScale
 70
     0
300
1:10
140
1.0
141
10.0
290
     0
  0
SCALE
  5
4E
102
{ACAD_REACTORS
330
47
102
}
330
47
100
AcDbScale
 70
     0
300
1:16
140
1.0
141
16.0
290
     0
  0
SCALE
  5
4F
102
{ACAD_REACTORS
330
47
102
}
330
47
100
AcDbScale
 70
     0
300
1:20
140
1.0
141
20.0
290
     0
  0
SCALE
  5
50
102
{ACAD_REACTORS
330
47
102
}
330
47
100
AcDbScale
 70
     0
300
1:30
140
1.0
141
30.0
290
     0
  0
SCALE
  5
51
102
{ACAD_REACTORS
330
47
102
}
330
47
100
AcDbScale
 70
     0
300
1:40
140
1.0
141
40.0
290
     0
  0
SCALE
  5
52
102
{ACAD_REACTORS
330
47
102
}
330
47
100
AcDbScale
 70
     0
300
1:50
140
1.0
141
50.0
290
     0
  0
SCALE
  5
53
102
{ACAD_REACTORS
330
47
102
}
330
47
100
AcDbScale
 70
     0
300
1:100
140
1.0
141
100.0
290
     0
  0
SCALE
  5
54
102
{ACAD_REACTORS
330
47
102
}
330
47
100
AcDbScale
 70
     0
300
2:1
140
2.0
141
1.0
290
     0
  0
SCALE
  5
55
102
{ACAD_REACTORS
330
47
102
}
330
47
100
AcDbScale
 70
     0
300
4:1
140
4.0
141
1.0
290
     0
  0
SCALE
  5
56
102
{ACAD_REACTORS
330
47
102
}
330
47
100
AcDbScale
 70
     0
300
8:1
140
8.0
141
1.0
290
     0
  0
SCALE
  5
57
102
{ACAD_REACTORS
330
47
102
}
330
47
100
AcDbScale
 70
     0
300
10:1
140
10.0
141
1.0
290
     0
  0
SCALE
  5
58
102
{ACAD_REACTORS
330
47
102
}
330
47
100
AcDbScale
 70
     0
300
100:1
140
100.0
141
1.0
290
     0
  0
ENDSEC
  0
EOF
