  0
SECTION
  2
HEADER
  9
$ACADVER
  1
AC1015
  9
$ACADMAINTVER
 70
     6
  9
$DWGCODEPAGE
  3
DOS932
  9
$INSBASE
 10
0.0
 20
0.0
 30
0.0
  9
$EXTMIN
 10
0.0
 20
0.0
 30
0.0
  9
$EXTMAX
 10
594.0
 20
420.0
 30
0.0
  9
$LIMMIN
 10
0.0
 20
0.0
  9
$LIMMAX
 10
594.0
 20
420.0
  9
$ORTHOMODE
 70
     0
  9
$REGENMODE
 70
     1
  9
$FILLMODE
 70
     1
  9
$QTEXTMODE
 70
     0
  9
$MIRRTEXT
 70
     1
  9
$LTSCALE
 40
2.0
  9
$ATTMODE
 70
     1
  9
$TEXTSIZE
 40
7.0555555556
  9
$TRACEWID
 40
1.0
  9
$TEXTSTYLE
  7
Standard
  9
$CLAYER
  8
0
  9
$CELTYPE
  6
ByLayer
  9
$CECOLOR
 62
   256
  9
$CELTSCALE
 40
1.0
  9
$DISPSILH
 70
     0
  9
$DIMSCALE
 40
1.0
  9
$DIMASZ
 40
5.45703125
  9
$DIMEXO
 40
2.0
  9
$DIMDLI
 40
3.75
  9
$DIMRND
 40
0.0
  9
$DIMDLE
 40
0.0
  9
$DIMEXE
 40
2.0
  9
$DIMTP
 40
0.0
  9
$DIMTM
 40
0.0
  9
$DIMTXT
 40
7.0555555556
  9
$DIMCEN
 40
2.5
  9
$DIMTSZ
 40
0.0
  9
$DIMTOL
 70
     0
  9
$DIMLIM
 70
     0
  9
$DIMTIH
 70
     1
  9
$DIMTOH
 70
     1
  9
$DIMSE1
 70
     0
  9
$DIMSE2
 70
     0
  9
$DIMTAD
 70
     1
  9
$DIMZIN
 70
     0
  9
$DIMBLK
  1

  9
$DIMASO
 70
     1
  9
$DIMSHO
 70
     1
  9
$DIMPOST
  1

  9
$DIMAPOST
  1

  9
$DIMALT
 70
     0
  9
$DIMALTD
 70
     3
  9
$DIMALTF
 40
0.0393700787
  9
$DIMLFAC
 40
1.0
  9
$DIMTOFL
 70
     1
  9
$DIMTVP
 40
0.0
  9
$DIMTIX
 70
     0
  9
$DIMSOXD
 70
     0
  9
$DIMSAH
 70
     0
  9
$DIMBLK1
  1

  9
$DIMBLK2
  1

  9
$DIMSTYLE
  2
ISO-25
  9
$DIMCLRD
 70
     0
  9
$DIMCLRE
 70
     0
  9
$DIMCLRT
 70
     0
  9
$DIMTFAC
 40
1.0
  9
$DIMGAP
 40
3.048
  9
$DIMJUST
 70
     0
  9
$DIMSD1
 70
     0
  9
$DIMSD2
 70
     0
  9
$DIMTOLJ
 70
     0
  9
$DIMTZIN
 70
     0
  9
$DIMALTZ
 70
     0
  9
$DIMALTTZ
 70
     0
  9
$DIMUPT
 70
     0
  9
$DIMDEC
 70
     2
  9
$DIMTDEC
 70
     2
  9
$DIMALTU
 70
     2
  9
$DIMALTTD
 70
     3
  9
$DIMTXSTY
  7
Standard
  9
$DIMAUNIT
 70
     0
  9
$DIMADEC
 70
     2
  9
$DIMALTRND
 40
0.0
  9
$DIMAZIN
 70
     0
  9
$DIMDSEP
 70
    44
  9
$DIMATFIT
 70
     3
  9
$DIMFRAC
 70
     0
  9
$DIMLDRBLK
  1

  9
$DIMLUNIT
 70
     2
  9
$DIMLWD
 70
    -2
  9
$DIMLWE
 70
    -2
  9
$DIMTMOVE
 70
     0
  9
$LUNITS
 70
     2
  9
$LUPREC
 70
     2
  9
$SKETCHINC
 40
1.0
  9
$FILLETRAD
 40
0.0
  9
$AUNITS
 70
     0
  9
$AUPREC
 70
     2
  9
$MENU
  1
.
  9
$ELEVATION
 40
0.0
  9
$PELEVATION
 40
0.0
  9
$THICKNESS
 40
0.0
  9
$LIMCHECK
 70
     0
  9
$CHAMFERA
 40
0.0
  9
$CHAMFERB
 40
0.0
  9
$CHAMFERC
 40
0.0
  9
$CHAMFERD
 40
0.0
  9
$SKPOLY
 70
     0
  9
$TDCREATE
 40
2460333.393470012
  9
$TDUCREATE
 40
2460333.018470012
  9
$TDUPDATE
 40
2460333.393471123
  9
$TDUUPDATE
 40
2460333.018471123
  9
$TDINDWG
 40
0.0000000116
  9
$TDUSRTIMER
 40
0.0000000116
  9
$USRTIMER
 70
     1
  9
$ANGBASE
 50
0.0
  9
$ANGDIR
 70
     0
  9
$PDMODE
 70
     0
  9
$PDSIZE
 40
-1.0
  9
$PLINEWID
 40
0.0
  9
$SPLFRAME
 70
     0
  9
$SPLINETYPE
 70
     6
  9
$SPLINESEGS
 70
     8
  9
$HANDSEED
  5
2D0
  9
$SURFTAB1
 70
     6
  9
$SURFTAB2
 70
     6
  9
$SURFTYPE
 70
     6
  9
$SURFU
 70
     6
  9
$SURFV
 70
     6
  9
$UCSBASE
  2

  9
$UCSNAME
  2

  9
$UCSORG
 10
0.0
 20
0.0
 30
0.0
  9
$UCSXDIR
 10
1.0
 20
0.0
 30
0.0
  9
$UCSYDIR
 10
0.0
 20
1.0
 30
0.0
  9
$UCSORTHOREF
  2

  9
$UCSORTHOVIEW
 70
     0
  9
$UCSORGTOP
 10
0.0
 20
0.0
 30
0.0
  9
$UCSORGBOTTOM
 10
0.0
 20
0.0
 30
0.0
  9
$UCSORGLEFT
 10
0.0
 20
0.0
 30
0.0
  9
$UCSORGRIGHT
 10
0.0
 20
0.0
 30
0.0
  9
$UCSORGFRONT
 10
0.0
 20
0.0
 30
0.0
  9
$UCSORGBACK
 10
0.0
 20
0.0
 30
0.0
  9
$PUCSBASE
  2

  9
$PUCSNAME
  2

  9
$PUCSORG
 10
0.0
 20
0.0
 30
0.0
  9
$PUCSXDIR
 10
1.0
 20
0.0
 30
0.0
  9
$PUCSYDIR
 10
0.0
 20
1.0
 30
0.0
  9
$PUCSORTHOREF
  2

  9
$PUCSORTHOVIEW
 70
     0
  9
$PUCSORGTOP
 10
0.0
 20
0.0
 30
0.0
  9
$PUCSORGBOTTOM
 10
0.0
 20
0.0
 30
0.0
  9
$PUCSORGLEFT
 10
0.0
 20
0.0
 30
0.0
  9
$PUCSORGRIGHT
 10
0.0
 20
0.0
 30
0.0
  9
$PUCSORGFRONT
 10
0.0
 20
0.0
 30
0.0
  9
$PUCSORGBACK
 10
0.0
 20
0.0
 30
0.0
  9
$USERI1
 70
     0
  9
$USERI2
 70
     0
  9
$USERI3
 70
     0
  9
$USERI4
 70
     0
  9
$USERI5
 70
     0
  9
$USERR1
 40
0.0
  9
$USERR2
 40
0.0
  9
$USERR3
 40
0.0
  9
$USERR4
 40
0.0
  9
$USERR5
 40
0.0
  9
$WORLDVIEW
 70
     1
  9
$SHADEDGE
 70
     3
  9
$SHADEDIF
 70
    70
  9
$TILEMODE
 70
     1
  9
$MAXACTVP
 70
    64
  9
$PINSBASE
 10
0.0
 20
0.0
 30
0.0
  9
$PLIMCHECK
 70
     0
  9
$PEXTMIN
 10
1.0000000000E+20
 20
1.0000000000E+20
 30
1.0000000000E+20
  9
$PEXTMAX
 10
-1.0000000000E+20
 20
-1.0000000000E+20
 30
-1.0000000000E+20
  9
$PLIMMIN
 10
0.0
 20
0.0
  9
$PLIMMAX
 10
420.0
 20
297.0
  9
$UNITMODE
 70
     0
  9
$VISRETAIN
 70
     1
  9
$PLINEGEN
 70
     0
  9
$PSLTSCALE
 70
     1
  9
$TREEDEPTH
 70
  3020
  9
$CMLSTYLE
  2
Standard
  9
$CMLJUST
 70
     0
  9
$CMLSCALE
 40
20.0
  9
$PROXYGRAPHICS
 70
     1
  9
$MEASUREMENT
 70
     1
  9
$CELWEIGHT
370
    -1
  9
$ENDCAPS
280
     0
  9
$JOINSTYLE
280
     0
  9
$LWDISPLAY
290
     1
  9
$INSUNITS
 70
     4
  9
$HYPERLINKBASE
  1

  9
$STYLESHEET
  1

  9
$XEDIT
290
     1
  9
$CEPSNTYPE
380
     0
  9
$PSTYLEMODE
290
     1
  9
$FINGERPRINTGUID
  2
{fda6d358-9370-416e-ba28-f59a4a84e3a0}
  9
$VERSIONGUID
  2
{FAEB1C32-E019-11D5-929B-00C0DF256EC4}
  9
$EXTNAMES
290
     1
  9
$PSVPSCALE
 40
0.0
  9
$OLESTARTUP
290
     0
  0
ENDSEC
  0
SECTION
  2
CLASSES
  0
CLASS
  1
ACDBDICTIONARYWDFLT
  2
AcDbDictionaryWithDefault
  3
ObjectDBX Classes
 90
        0
280
     0
281
     0
  0
CLASS
  1
VISUALSTYLE
  2
AcDbVisualStyle
  3
ObjectDBX Classes
 90
     4095
280
     0
281
     0
  0
CLASS
  1
MATERIAL
  2
AcDbMaterial
  3
ObjectDBX Classes
 90
     1153
280
     0
281
     0
  0
CLASS
  1
SCALE
  2
AcDbScale
  3
ObjectDBX Classes
 90
     1153
280
     0
281
     0
  0
CLASS
  1
TABLESTYLE
  2
AcDbTableStyle
  3
ObjectDBX Classes
 90
     4095
280
     0
281
     0
  0
CLASS
  1
MLEADERSTYLE
  2
AcDbMLeaderStyle
  3
ACDB_MLEADERSTYLE_CLASS
 90
     4095
280
     0
281
     0
  0
CLASS
  1
SUN
  2
AcDbSun
  3
SCENEOE
 90
     1153
280
     0
281
     0
  0
CLASS
  1
ACDBPLACEHOLDER
  2
AcDbPlaceHolder
  3
ObjectDBX Classes
 90
        0
280
     0
281
     0
  0
CLASS
  1
LAYOUT
  2
AcDbLayout
  3
ObjectDBX Classes
 90
        0
280
     0
281
     0
  0
ENDSEC
  0
SECTION
  2
TABLES
  0
TABLE
  2
VPORT
  5
8
330
0
100
AcDbSymbolTable
 70
     1
  0
VPORT
  5
29
330
8
100
AcDbSymbolTableRecord
100
AcDbViewportTableRecord
  2
*Active
 70
     0
 10
0.0
 20
0.0
 11
1.0
 21
1.0
 12
297.0
 22
210.0
 13
0.0
 23
0.0
 14
10.0
 24
10.0
 15
10.0
 25
10.0
 16
0.0
 26
0.0
 36
1.0
 17
0.0
 27
0.0
 37
0.0
 40
420.0
 41
1.4142857143
 42
50.0
 43
0.0
 44
0.0
 50
0.0
 51
0.0
 71
     0
 72
  2000
 73
     1
 74
     3
 75
     0
 76
     0
 77
     0
 78
     0
281
     0
 65
     1
110
0.0
120
0.0
130
0.0
111
1.0
121
0.0
131
0.0
112
0.0
122
1.0
132
0.0
 79
     0
146
0.0
  0
ENDTAB
  0
TABLE
  2
LTYPE
  5
5
330
0
100
AcDbSymbolTable
 70
     6
  0
LTYPE
  5
14
330
5
100
AcDbSymbolTableRecord
100
AcDbLinetypeTableRecord
  2
ByBlock
 70
     0
  3

 72
    65
 73
     0
 40
0.0
  0
LTYPE
  5
15
330
5
100
AcDbSymbolTableRecord
100
AcDbLinetypeTableRecord
  2
ByLayer
 70
     0
  3

 72
    65
 73
     0
 40
0.0
  0
LTYPE
  5
16
330
5
100
AcDbSymbolTableRecord
100
AcDbLinetypeTableRecord
  2
Continuous
 70
     0
  3
Solid line
 72
    65
 73
     0
 40
0.0
  0
LTYPE
  5
5E
330
5
100
AcDbSymbolTableRecord
100
AcDbLinetypeTableRecord
  2
HIDDEN
 70
     0
  3
Hidden __ __ __ __ __ __ __ __ __ __ __ __ __ __
 72
    65
 73
     2
 40
1.905
 49
1.27
 74
     0
 49
-0.635
 74
     0
  0
LTYPE
  5
5F
330
5
100
AcDbSymbolTableRecord
100
AcDbLinetypeTableRecord
  2
PHANTOM
 70
     0
  3
Phantom ______  __  __  ______  __  __  ______
 72
    65
 73
     6
 40
12.7
 49
6.35
 74
     0
 49
-1.27
 74
     0
 49
1.27
 74
     0
 49
-1.27
 74
     0
 49
1.27
 74
     0
 49
-1.27
 74
     0
  0
LTYPE
  5
60
330
5
100
AcDbSymbolTableRecord
100
AcDbLinetypeTableRecord
  2
CENTER
 70
     0
  3
Center ____ _ ____ _ ____ _ ____ _ ____ _ ____
 72
    65
 73
     4
 40
10.16
 49
6.35
 74
     0
 49
-1.27
 74
     0
 49
1.27
 74
     0
 49
-1.27
 74
     0
  0
LTYPE
  5
61
330
5
100
AcDbSymbolTableRecord
100
AcDbLinetypeTableRecord
  2
CENTERX2
 70
     0
  3
Center (2x) ________  __  ________  __  _____
 72
    65
 73
     4
 40
20.32
 49
12.7
 74
     0
 49
-2.54
 74
     0
 49
2.54
 74
     0
 49
-2.54
 74
     0
  0
LTYPE
  5
62
330
5
100
AcDbSymbolTableRecord
100
AcDbLinetypeTableRecord
  2
DOT2
 70
     0
  3
Dot (.5x) ........................................
 72
    65
 73
     2
 40
0.635
 49
0.0
 74
     0
 49
-0.635
 74
     0
  0
ENDTAB
  0
TABLE
  2
LAYER
  5
2
330
0
100
AcDbSymbolTable
 70
     2
  0
LAYER
  5
10
330
2
100
AcDbSymbolTableRecord
100
AcDbLayerTableRecord
  2
0
 70
     0
 62
     7
  6
Continuous
370
    -3
390
F
  0
LAYER
  5
63
330
2
100
AcDbSymbolTableRecord
100
AcDbLayerTableRecord
  2
FORMAT
 70
     0
 62
     7
  6
Continuous
370
    -3
390
F
  0
ENDTAB
  0
TABLE
  2
STYLE
  5
3
330
0
100
AcDbSymbolTable
 70
     2
  0
STYLE
  5
11
330
3
100
AcDbSymbolTableRecord
100
AcDbTextStyleTableRecord
  2
Standard
 70
     0
 40
0.0
 41
1.0
 50
0.0
 71
     0
 42
7.0555555556
  3
txt
  4
bigfont
  0
STYLE
  5
64
330
3
100
AcDbSymbolTableRecord
100
AcDbTextStyleTableRecord
  2
SLDTEXTSTYLE0
 70
     0
 40
0.0
 41
0.7
 50
0.0
 71
     0
 42
7.0555555556
  3
TXT
  4
bigfont
  0
ENDTAB
  0
TABLE
  2
VIEW
  5
6
330
0
100
AcDbSymbolTable
 70
     0
  0
ENDTAB
  0
TABLE
  2
UCS
  5
7
330
0
100
AcDbSymbolTable
 70
     0
  0
ENDTAB
  0
TABLE
  2
APPID
  5
9
330
0
100
AcDbSymbolTable
 70
     1
  0
APPID
  5
12
330
9
100
AcDbSymbolTableRecord
100
AcDbRegAppTableRecord
  2
ACAD
 70
     0
  0
ENDTAB
  0
TABLE
  2
DIMSTYLE
  5
A
330
0
100
AcDbSymbolTable
 70
     1
100
AcDbDimStyleTable
  0
DIMSTYLE
105
27
330
A
100
AcDbSymbolTableRecord
100
AcDbDimStyleTableRecord
  2
ISO-25
 70
     0
 41
2.5
 42
0.625
 43
3.75
 44
1.25
 73
     0
 74
     0
 77
     1
 78
     8
140
2.5
141
2.5
143
0.0393700787
147
0.625
171
     3
172
     1
178
     0
271
     2
272
     2
274
     3
278
    44
283
     0
284
     8
340
11
  0
ENDTAB
  0
TABLE
  2
BLOCK_RECORD
  5
1
330
0
100
AcDbSymbolTable
 70
     3
  0
BLOCK_RECORD
  5
1F
330
1
100
AcDbSymbolTableRecord
100
AcDbBlockTableRecord
  2
*Model_Space
340
22
  0
BLOCK_RECORD
  5
1B
330
1
100
AcDbSymbolTableRecord
100
AcDbBlockTableRecord
  2
*Paper_Space
340
1E
  0
BLOCK_RECORD
  5
23
330
1
100
AcDbSymbolTableRecord
100
AcDbBlockTableRecord
  2
*Paper_Space0
340
26
  0
BLOCK_RECORD
  5
1FB
330
1
100
AcDbSymbolTableRecord
100
AcDbBlockTableRecord
  2
SW_CENTERMARKSYMBOL_0
340
0
102
{BLKREFS
331
206
102
}
  0
BLOCK_RECORD
  5
2C0
330
1
100
AcDbSymbolTableRecord
100
AcDbBlockTableRecord
  2
SW_CENTERMARKSYMBOL_1
340
0
102
{BLKREFS
331
2CB
102
}
  0
ENDTAB
  0
ENDSEC
  0
SECTION
  2
BLOCKS
  0
BLOCK
  5
20
330
1F
100
AcDbEntity
  8
0
100
AcDbBlockBegin
  2
*Model_Space
 70
     0
 10
0.0
 20
0.0
 30
0.0
  3
*Model_Space
  1

  0
ENDBLK
  5
21
330
1F
100
AcDbEntity
  8
0
100
AcDbBlockEnd
  0
BLOCK
  5
1C
330
1B
100
AcDbEntity
 67
     1
  8
0
100
AcDbBlockBegin
  2
*Paper_Space
 70
     0
 10
0.0
 20
0.0
 30
0.0
  3
*Paper_Space
  1

  0
ENDBLK
  5
1D
330
1B
100
AcDbEntity
 67
     1
  8
0
100
AcDbBlockEnd
  0
BLOCK
  5
24
330
23
100
AcDbEntity
  8
0
100
AcDbBlockBegin
  2
*Paper_Space0
 70
     0
 10
0.0
 20
0.0
 30
0.0
  3
*Paper_Space0
  1

  0
ENDBLK
  5
25
330
23
100
AcDbEntity
  8
0
100
AcDbBlockEnd
  0
BLOCK
  5
1FC
330
1FB
100
AcDbEntity
  8
0
100
AcDbBlockBegin
  2
SW_CENTERMARKSYMBOL_0
 70
     0
 10
0.0
 20
0.0
 30
0.0
  3
SW_CENTERMARKSYMBOL_0
  1

  0
LINE
  5
1FE
330
1FB
100
AcDbEntity
  8
FORMAT
 62
     0
100
AcDbLine
 10
0.0
 20
0.0
 30
0.0
 11
0.0
 21
2.5
 31
0.0
  0
LINE
  5
1FF
330
1FB
100
AcDbEntity
  8
FORMAT
 62
     0
100
AcDbLine
 10
0.0
 20
0.0
 30
0.0
 11
-2.5
 21
0.0
 31
0.0
  0
LINE
  5
200
330
1FB
100
AcDbEntity
  8
FORMAT
 62
     0
100
AcDbLine
 10
0.0
 20
0.0
 30
0.0
 11
0.0
 21
-2.5
 31
0.0
  0
LINE
  5
201
330
1FB
100
AcDbEntity
  8
FORMAT
 62
     0
100
AcDbLine
 10
0.0
 20
0.0
 30
0.0
 11
2.5
 21
0.0
 31
0.0
  0
LINE
  5
202
330
1FB
100
AcDbEntity
  8
FORMAT
 62
     0
100
AcDbLine
 10
0.0
 20
5.0
 30
0.0
 11
0.0
 21
30.7567717293
 31
0.0
  0
LINE
  5
203
330
1FB
100
AcDbEntity
  8
FORMAT
 62
     0
100
AcDbLine
 10
-5.0
 20
0.0
 30
0.0
 11
-10.75
 21
0.0
 31
0.0
  0
LINE
  5
204
330
1FB
100
AcDbEntity
  8
FORMAT
 62
     0
100
AcDbLine
 10
0.0
 20
-5.0
 30
0.0
 11
0.0
 21
-25.5229942399
 31
0.0
  0
LINE
  5
205
330
1FB
100
AcDbEntity
  8
FORMAT
 62
     0
100
AcDbLine
 10
5.0
 20
0.0
 30
0.0
 11
10.75
 21
0.0
 31
0.0
  0
ENDBLK
  5
1FD
330
1FB
100
AcDbEntity
  8
0
100
AcDbBlockEnd
  0
BLOCK
  5
2C1
330
2C0
100
AcDbEntity
  8
0
100
AcDbBlockBegin
  2
SW_CENTERMARKSYMBOL_1
 70
     0
 10
0.0
 20
0.0
 30
0.0
  3
SW_CENTERMARKSYMBOL_1
  1

  0
LINE
  5
2C3
330
2C0
100
AcDbEntity
  8
FORMAT
 62
     0
100
AcDbLine
 10
0.0
 20
0.0
 30
0.0
 11
0.0
 21
2.5
 31
0.0
  0
LINE
  5
2C4
330
2C0
100
AcDbEntity
  8
FORMAT
 62
     0
100
AcDbLine
 10
0.0
 20
0.0
 30
0.0
 11
-2.5
 21
0.0
 31
0.0
  0
LINE
  5
2C5
330
2C0
100
AcDbEntity
  8
FORMAT
 62
     0
100
AcDbLine
 10
0.0
 20
0.0
 30
0.0
 11
0.0
 21
-2.5
 31
0.0
  0
LINE
  5
2C6
330
2C0
100
AcDbEntity
  8
FORMAT
 62
     0
100
AcDbLine
 10
0.0
 20
0.0
 30
0.0
 11
2.5
 21
0.0
 31
0.0
  0
LINE
  5
2C7
330
2C0
100
AcDbEntity
  8
FORMAT
 62
     0
100
AcDbLine
 10
0.0
 20
5.0
 30
0.0
 11
0.0
 21
9.95
 31
0.0
  0
LINE
  5
2C8
330
2C0
100
AcDbEntity
  8
FORMAT
 62
     0
100
AcDbLine
 10
-5.0
 20
0.0
 30
0.0
 11
-58.3826463872
 21
0.0
 31
0.0
  0
LINE
  5
2C9
330
2C0
100
AcDbEntity
  8
FORMAT
 62
     0
100
AcDbLine
 10
0.0
 20
-5.0
 30
0.0
 11
0.0
 21
-9.95
 31
0.0
  0
LINE
  5
2CA
330
2C0
100
AcDbEntity
  8
FORMAT
 62
     0
100
AcDbLine
 10
5.0
 20
0.0
 30
0.0
 11
14.3481280961
 21
0.0
 31
0.0
  0
ENDBLK
  5
2C2
330
2C0
100
AcDbEntity
  8
0
100
AcDbBlockEnd
  0
ENDSEC
  0
SECTION
  2
ENTITIES
  0
MTEXT
  5
65
330
1F
100
AcDbEntity
  8
FORMAT
100
AcDbMText
 10
236.8690336732
 20
166.189554019
 30
0.0
 40
4.7625
 41
0.0
 71
     1
 72
     1
  1
エースボール　アングル型　BY-3209
  7
SLDTEXTSTYLE0
 73
     1
 44
1.0
  0
LINE
  5
66
330
1F
100
AcDbEntity
  8
0
  6
Continuous
 62
     7
370
    25
100
AcDbLine
 10
201.8077636961
 20
122.0650385287
 30
0.0
 11
197.8077636961
 21
121.4150385287
 31
0.0
  0
LINE
  5
67
330
1F
100
AcDbEntity
  8
0
  6
Continuous
 62
     7
370
    25
100
AcDbLine
 10
197.8077636961
 20
113.7150385287
 30
0.0
 11
201.8077636961
 21
113.0650385287
 31
0.0
  0
LINE
  5
68
330
1F
100
AcDbEntity
  8
0
  6
Continuous
 62
     7
370
    25
100
AcDbLine
 10
205.8077636961
 20
122.0650385287
 30
0.0
 11
201.8077636961
 21
121.4150385287
 31
0.0
  0
LINE
  5
69
330
1F
100
AcDbEntity
  8
0
  6
Continuous
 62
     7
370
    25
100
AcDbLine
 10
201.8077636961
 20
113.7150385287
 30
0.0
 11
205.8077636961
 21
113.0650385287
 31
0.0
  0
LINE
  5
6A
330
1F
100
AcDbEntity
  8
0
  6
Continuous
 62
     7
370
    25
100
AcDbLine
 10
193.8077636961
 20
122.0650385287
 30
0.0
 11
189.0138716602
 21
121.4984876518
 31
0.0
  0
LINE
  5
6B
330
1F
100
AcDbEntity
  8
0
  6
Continuous
 62
     7
370
    25
100
AcDbLine
 10
189.0138716602
 20
113.6315894057
 30
0.0
 11
193.8077636961
 21
113.0650385287
 31
0.0
  0
LINE
  5
6C
330
1F
100
AcDbEntity
  8
0
  6
Continuous
 62
     7
370
    25
100
AcDbLine
 10
197.8077636961
 20
122.0650385287
 30
0.0
 11
193.8077636961
 21
121.4150385287
 31
0.0
  0
LINE
  5
6D
330
1F
100
AcDbEntity
  8
0
  6
Continuous
 62
     7
370
    25
100
AcDbLine
 10
193.8077636961
 20
113.7150385287
 30
0.0
 11
197.8077636961
 21
113.0650385287
 31
0.0
  0
LINE
  5
6E
330
1F
100
AcDbEntity
  8
0
  6
Continuous
 62
     7
370
    25
100
AcDbLine
 10
209.8077636961
 20
122.0650385287
 30
0.0
 11
205.8077636961
 21
121.4150385287
 31
0.0
  0
LINE
  5
6F
330
1F
100
AcDbEntity
  8
0
  6
Continuous
 62
     7
370
    25
100
AcDbLine
 10
205.8077636961
 20
113.7150385287
 30
0.0
 11
209.8077636961
 21
113.0650385287
 31
0.0
  0
LINE
  5
70
330
1F
100
AcDbEntity
  8
0
  6
Continuous
 62
     7
370
    25
100
AcDbLine
 10
209.8077636961
 20
113.0650385287
 30
0.0
 11
214.3077636961
 21
113.0650385287
 31
0.0
  0
LINE
  5
71
330
1F
100
AcDbEntity
  8
0
  6
Continuous
 62
     7
370
    25
100
AcDbLine
 10
214.3077636961
 20
122.0650385287
 30
0.0
 11
209.8077636961
 21
122.0650385287
 31
0.0
  0
ARC
  5
72
330
1F
100
AcDbEntity
  8
0
  6
Continuous
 62
     7
370
    25
100
AcDbCircle
 10
189.1077636961
 20
114.4260604786
 30
0.0
 40
0.7999999999999993
100
AcDbArc
 50
180.0
 51
263.2599439021
  0
ARC
  5
73
330
1F
100
AcDbEntity
  8
0
  6
Continuous
 62
     7
370
    25
100
AcDbCircle
 10
189.1077636961
 20
120.7040165789
 30
0.0
 40
0.7999999999999993
100
AcDbArc
 50
96.7400560979
 51
180.0
  0
LINE
  5
74
330
1F
100
AcDbEntity
  8
0
  6
Continuous
 62
     7
370
    25
100
AcDbLine
 10
217.1088974163
 20
126.8026428358
 30
0.0
 11
216.3077636961
 21
125.4150385287
 31
0.0
  0
LINE
  5
75
330
1F
100
AcDbEntity
  8
0
  6
Continuous
 62
     7
370
    25
100
AcDbLine
 10
216.3077636961
 20
109.7150385287
 30
0.0
 11
217.1088974163
 21
108.3274342217
 31
0.0
  0
LINE
  5
76
330
1F
100
AcDbEntity
  8
0
  6
Continuous
 62
     7
370
    25
100
AcDbLine
 10
224.5066299759
 20
108.3274342217
 30
0.0
 11
225.3077636961
 21
109.7150385287
 31
0.0
  0
LINE
  5
77
330
1F
100
AcDbEntity
  8
0
  6
Continuous
 62
     7
370
    25
100
AcDbLine
 10
225.3077636961
 20
125.4150385287
 30
0.0
 11
224.5066299759
 21
126.8026428358
 31
0.0
  0
ARC
  5
78
330
1F
100
AcDbEntity
  8
0
  6
Continuous
 62
     7
370
    25
100
AcDbCircle
 10
214.6077636961
 20
110.0150385287
 30
0.0
 40
0.2999999999999972
100
AcDbArc
 50
180.0
 51
270.0
  0
ARC
  5
79
330
1F
100
AcDbEntity
  8
0
  6
Continuous
 62
     7
370
    25
100
AcDbCircle
 10
214.6077636961
 20
125.1150385287
 30
0.0
 40
0.2999999999999972
100
AcDbArc
 50
90.0
 51
180.0
  0
LINE
  5
7A
330
1F
100
AcDbEntity
  8
0
  6
Continuous
 62
     7
370
    25
100
AcDbLine
 10
216.3077636961
 20
125.4150385287
 30
0.0
 11
214.6077636961
 21
125.4150385287
 31
0.0
  0
LINE
  5
7B
330
1F
100
AcDbEntity
  8
0
  6
Continuous
 62
     7
370
    25
100
AcDbLine
 10
214.6077636961
 20
109.7150385287
 30
0.0
 11
216.3077636961
 21
109.7150385287
 31
0.0
  0
LINE
  5
7C
330
1F
100
AcDbEntity
  8
0
  6
Continuous
 62
     7
370
    25
100
AcDbLine
 10
225.3077636961
 20
109.7150385287
 30
0.0
 11
227.0077636961
 21
109.7150385287
 31
0.0
  0
LINE
  5
7D
330
1F
100
AcDbEntity
  8
0
  6
Continuous
 62
     7
370
    25
100
AcDbLine
 10
227.0077636961
 20
125.4150385287
 30
0.0
 11
225.3077636961
 21
125.4150385287
 31
0.0
  0
ARC
  5
7E
330
1F
100
AcDbEntity
  8
0
  6
Continuous
 62
     7
370
    25
100
AcDbCircle
 10
227.0077636961
 20
125.1150385287
 30
0.0
 40
0.2999999999999972
100
AcDbArc
 50
0.0
 51
90.0
  0
ARC
  5
7F
330
1F
100
AcDbEntity
  8
0
  6
Continuous
 62
     7
370
    25
100
AcDbCircle
 10
227.0077636961
 20
110.0150385287
 30
0.0
 40
0.2999999999999972
100
AcDbArc
 50
270.0
 51
0.0
  0
LINE
  5
80
330
1F
100
AcDbEntity
  8
0
  6
Continuous
 62
     7
370
    25
100
AcDbLine
 10
230.6858916185
 20
109.0650385287
 30
0.0
 11
233.4858916185
 21
109.0650385287
 31
0.0
  0
LINE
  5
81
330
1F
100
AcDbEntity
  8
0
  6
Continuous
 62
     7
370
    25
100
AcDbLine
 10
233.4858916185
 20
126.0650385287
 30
0.0
 11
230.6858916185
 21
126.0650385287
 31
0.0
  0
LINE
  5
82
330
1F
100
AcDbEntity
  8
0
  6
Continuous
 62
     7
370
    25
100
AcDbLine
 10
230.6858916185
 20
126.0650385287
 30
0.0
 11
230.4858916185
 21
125.8650385287
 31
0.0
  0
LINE
  5
83
330
1F
100
AcDbEntity
  8
0
  6
Continuous
 62
     7
370
    25
100
AcDbLine
 10
230.4858916185
 20
109.2650385287
 30
0.0
 11
230.6858916185
 21
109.0650385287
 31
0.0
  0
LINE
  5
84
330
1F
100
AcDbEntity
  8
0
  6
Continuous
 62
     7
370
    25
100
AcDbLine
 10
230.4858916185
 20
124.1435385287
 30
0.0
 11
227.3077636961
 21
124.1435385287
 31
0.0
  0
LINE
  5
85
330
1F
100
AcDbEntity
  8
0
  6
Continuous
 62
     7
370
    25
100
AcDbLine
 10
227.3077636961
 20
110.9865385287
 30
0.0
 11
230.4858916185
 21
110.9865385287
 31
0.0
  0
LINE
  5
86
330
1F
100
AcDbEntity
  8
0
  6
Continuous
 62
     7
370
    25
100
AcDbLine
 10
256.1270228714
 20
107.8274342217
 30
0.0
 11
256.9858916185
 21
109.3150385287
 31
0.0
  0
LINE
  5
87
330
1F
100
AcDbEntity
  8
0
  6
Continuous
 62
     7
370
    25
100
AcDbLine
 10
256.9858916185
 20
125.8150385287
 30
0.0
 11
256.1270228714
 21
127.3026428358
 31
0.0
  0
LINE
  5
88
330
1F
100
AcDbEntity
  8
0
  6
Continuous
 62
     7
370
    25
100
AcDbLine
 10
238.2277041185
 20
105.5650385287
 30
0.0
 11
238.52133956
 21
96.1687044026
 31
0.0
  0
LINE
  5
89
330
1F
100
AcDbEntity
  8
0
  6
Continuous
 62
     7
370
    25
100
AcDbLine
 10
251.4504436771
 20
96.1687044026
 30
0.0
 11
251.7440791185
 21
105.5650385287
 31
0.0
  0
SPLINE
  5
8A
330
1F
100
AcDbEntity
  8
0
  6
Continuous
 62
     7
370
    25
100
AcDbSpline
210
0.0
220
0.0
230
1.0
 70
     8
 71
     3
 72
    12
 73
     8
 74
     0
 42
0.00000001
 43
0.00000001
 40
0.0
 40
0.0
 40
0.0
 40
0.0
 40
0.1312078946560307
 40
0.4052276549976403
 40
0.6862619958797037
 40
0.9964339890702302
 40
1.0
 40
1.0
 40
1.0
 40
1.0
 10
239.0946210047999
 20
127.0646024004231
 30
0.0
 10
239.0961093427855
 20
127.0302228840564
 30
0.0
 10
239.1007059847278
 20
126.9240438249858
 30
0.0
 10
239.0607871411175
 20
126.7454551983241
 30
0.0
 10
238.968069052372
 20
126.5396942934634
 30
0.0
 10
238.8812018853324
 20
126.4046670361901
 30
0.0
 10
238.8179497208071
 20
126.3522208109701
 30
0.0
 10
238.8172307836459
 20
126.3516246963461
 30
0.0
  0
SPLINE
  5
8B
330
1F
100
AcDbEntity
  8
0
  6
Continuous
 62
     7
370
    25
100
AcDbSpline
210
0.0
220
0.0
230
1.0
 70
     8
 71
     3
 72
    12
 73
     8
 74
     0
 42
0.00000001
 43
0.00000001
 40
0.0
 40
0.0
 40
0.0
 40
0.0
 40
0.1211356148373396
 40
0.4341028917400774
 40
0.7158229659011768
 40
0.9728151641720676
 40
1.0
 40
1.0
 40
1.0
 40
1.0
 10
251.1724277209868
 20
126.3714471317283
 30
0.0
 10
251.1498664949982
 20
126.3926309241737
 30
0.0
 10
251.0690158429748
 20
126.4685453905417
 30
0.0
 10
250.9757974986493
 20
126.630238254395
 30
0.0
 10
250.9064625154079
 20
126.8355293302237
 30
0.0
 10
250.8810860641326
 20
126.9803105445867
 30
0.0
 10
250.8863662002181
 20
127.0526169339016
 30
0.0
 10
250.8868713065969
 20
127.0595338803363
 30
0.0
  0
LINE
  5
8C
330
1F
100
AcDbEntity
  8
0
  6
Continuous
 62
     7
370
    25
100
AcDbLine
 10
238.52133956
 20
96.1687044026
 30
0.0
 11
239.7358916185
 21
94.0650385287
 31
0.0
  0
LINE
  5
8D
330
1F
100
AcDbEntity
  8
0
  6
Continuous
 62
     7
370
    25
100
AcDbLine
 10
250.2358916185
 20
94.0650385287
 30
0.0
 11
251.4504436771
 21
96.1687044026
 31
0.0
  0
LINE
  5
8E
330
1F
100
AcDbEntity
  8
0
  6
Continuous
 62
     7
370
    25
100
AcDbLine
 10
250.8858916185
 20
127.0605077087
 30
0.0
 11
250.8858916185
 21
128.0650385287
 31
0.0
  0
LINE
  5
8F
330
1F
100
AcDbEntity
  8
0
  6
Continuous
 62
     7
370
    25
100
AcDbLine
 10
239.0858916185
 20
128.0650385287
 30
0.0
 11
239.0858916185
 21
127.0650385287
 31
0.0
  0
LINE
  5
90
330
1F
100
AcDbEntity
  8
0
  6
Continuous
 62
     7
370
    25
100
AcDbLine
 10
238.8157247112
 20
126.359776258
 30
0.0
 11
238.2713604387
 21
127.3026428358
 31
0.0
  0
LINE
  5
91
330
1F
100
AcDbEntity
  8
0
  6
Continuous
 62
     7
370
    25
100
AcDbLine
 10
251.7004227983
 20
127.3026428358
 30
0.0
 11
251.1560585259
 21
126.359776258
 31
0.0
  0
LINE
  5
92
330
1F
100
AcDbEntity
  8
0
  6
Continuous
 62
     7
370
    25
100
AcDbLine
 10
234.2004227983
 20
127.3026428358
 30
0.0
 11
233.4858916185
 21
126.0650385287
 31
0.0
  0
LINE
  5
93
330
1F
100
AcDbEntity
  8
0
  6
Continuous
 62
     7
370
    25
100
AcDbLine
 10
253.4858916185
 20
105.5650385287
 30
0.0
 11
254.7234959256
 21
106.2795697085
 31
0.0
  0
LINE
  5
94
330
1F
100
AcDbEntity
  8
0
  6
Continuous
 62
     7
370
    25
100
AcDbLine
 10
233.4858916185
 20
109.0650385287
 30
0.0
 11
234.2004227983
 21
107.8274342217
 31
0.0
  0
LINE
  5
95
330
1F
100
AcDbEntity
  8
0
  6
Continuous
 62
     7
370
    25
100
AcDbLine
 10
235.2482873115
 20
106.2795697085
 30
0.0
 11
236.4858916185
 21
105.5650385287
 31
0.0
  0
LINE
  5
96
330
1F
100
AcDbEntity
  8
0
  6
Continuous
 62
     7
370
    25
100
AcDbLine
 10
254.7234959256
 20
107.8274342217
 30
0.0
 11
256.1295909269
 21
107.8274342217
 31
0.0
  0
LINE
  5
97
330
1F
100
AcDbEntity
  8
0
  6
Continuous
 62
     7
370
    25
100
AcDbLine
 10
254.7234959256
 20
106.2770093272
 30
0.0
 11
254.7234959256
 21
107.8274342217
 31
0.0
  0
LINE
  5
98
330
1F
100
AcDbEntity
  8
0
  6
Continuous
 62
     7
370
    25
100
AcDbLine
 10
238.2739284942
 20
127.3026428358
 30
0.0
 11
234.197862417
 21
127.3026428358
 31
0.0
  0
LINE
  5
99
330
1F
100
AcDbEntity
  8
0
  6
Continuous
 62
     7
370
    25
100
AcDbLine
 10
256.1295909269
 20
127.3026428358
 30
0.0
 11
251.6978547429
 21
127.3026428358
 31
0.0
  0
LINE
  5
9A
330
1F
100
AcDbEntity
  8
0
  6
Continuous
 62
     7
370
    25
100
AcDbLine
 10
235.2482873115
 20
107.8274342217
 30
0.0
 11
235.2482873115
 21
106.2770093272
 31
0.0
  0
LINE
  5
9B
330
1F
100
AcDbEntity
  8
0
  6
Continuous
 62
     7
370
    25
100
AcDbLine
 10
234.197862417
 20
107.8274342217
 30
0.0
 11
235.2482873115
 21
107.8274342217
 31
0.0
  0
LINE
  5
9C
330
1F
100
AcDbEntity
  8
0
  6
Continuous
 62
     7
370
    25
100
AcDbLine
 10
251.9858916185
 20
128.0650385287
 30
0.0
 11
252.4358916185
 21
136.0650385287
 31
0.0
  0
LINE
  5
9D
330
1F
100
AcDbEntity
  8
0
  6
Continuous
 62
     7
370
    25
100
AcDbLine
 10
252.4358916185
 20
136.0650385287
 30
0.0
 11
250.4858916185
 21
144.0650385287
 31
0.0
  0
LINE
  5
9E
330
1F
100
AcDbEntity
  8
0
  6
Continuous
 62
     7
370
    25
100
AcDbLine
 10
237.9152349928
 20
129.3211563201
 30
0.0
 11
237.9858916185
 21
128.0650385287
 31
0.0
  0
LINE
  5
9F
330
1F
100
AcDbEntity
  8
0
  6
Continuous
 62
     7
370
    25
100
AcDbLine
 10
239.4858916185
 20
144.0650385287
 30
0.0
 11
239.232660084
 21
143.0261399256
 31
0.0
  0
LINE
  5
A0
330
1F
100
AcDbEntity
  8
0
  6
Continuous
 62
     7
370
    25
100
AcDbLine
 10
201.8077636961
 20
113.0650385287
 30
0.0
 11
201.8077636961
 21
122.0650385287
 31
0.0
  0
LINE
  5
A1
330
1F
100
AcDbEntity
  8
0
  6
Continuous
 62
     7
370
    25
100
AcDbLine
 10
205.8077636961
 20
113.0650385287
 30
0.0
 11
205.8077636961
 21
122.0650385287
 31
0.0
  0
LINE
  5
A2
330
1F
100
AcDbEntity
  8
0
  6
Continuous
 62
     7
370
    25
100
AcDbLine
 10
193.8077636961
 20
113.0650385287
 30
0.0
 11
193.8077636961
 21
122.0650385287
 31
0.0
  0
LINE
  5
A3
330
1F
100
AcDbEntity
  8
0
  6
Continuous
 62
     7
370
    25
100
AcDbLine
 10
197.8077636961
 20
113.0650385287
 30
0.0
 11
197.8077636961
 21
122.0650385287
 31
0.0
  0
LINE
  5
A4
330
1F
100
AcDbEntity
  8
0
  6
Continuous
 62
     7
370
    25
100
AcDbLine
 10
209.8077636961
 20
113.0650385287
 30
0.0
 11
209.8077636961
 21
122.0650385287
 31
0.0
  0
LINE
  5
A5
330
1F
100
AcDbEntity
  8
0
  6
Continuous
 62
     7
370
    25
100
AcDbLine
 10
188.3077636961
 20
114.4260604786
 30
0.0
 11
188.3077636961
 21
120.7040165789
 31
0.0
  0
LINE
  5
A6
330
1F
100
AcDbEntity
  8
0
  6
Continuous
 62
     7
370
    25
100
AcDbLine
 10
217.1088974163
 20
122.1838406823
 30
0.0
 11
224.5066299759
 21
122.1838406823
 31
0.0
  0
SPLINE
  5
A7
330
1F
100
AcDbEntity
  8
0
  6
Continuous
 62
     7
370
    25
100
AcDbSpline
210
0.0
220
0.0
230
1.0
 70
     8
 71
     3
 72
    14
 73
    10
 74
     0
 42
0.00000001
 43
0.00000001
 40
0.0
 40
0.0
 40
0.0
 40
0.0
 40
0.1900777721210525
 40
0.3819473130959423
 40
0.5077369692713313
 40
0.6335281622950942
 40
0.76267145499516
 40
0.8918509147148282
 40
1.0
 40
1.0
 40
1.0
 40
1.0
 10
224.5066299759024
 20
122.1838406822506
 30
0.0
 10
224.6593193606044
 20
121.6093548440053
 30
0.0
 10
224.9661374570837
 20
120.4549677745391
 30
0.0
 10
225.1851311905668
 20
118.878267028371
 30
0.0
 10
225.2372185444535
 20
117.4920355538138
 30
0.0
 10
225.1809088808355
 20
116.3018754809417
 30
0.0
 10
225.0226892483137
 20
115.1107109892719
 30
0.0
 10
224.7934362533519
 20
113.9873973998245
 30
0.0
 10
224.5964124504846
 20
113.2721637365667
 30
0.0
 10
224.5066299759024
 20
112.9462363752166
 30
0.0
  0
LINE
  5
A8
330
1F
100
AcDbEntity
  8
0
  6
Continuous
 62
     7
370
    25
100
AcDbLine
 10
217.1088974163
 20
112.9462363752
 30
0.0
 11
224.5066299759
 21
112.9462363752
 31
0.0
  0
SPLINE
  5
A9
330
1F
100
AcDbEntity
  8
0
  6
Continuous
 62
     7
370
    25
100
AcDbSpline
210
0.0
220
0.0
230
1.0
 70
     8
 71
     3
 72
    14
 73
    10
 74
     0
 42
0.00000001
 43
0.00000001
 40
0.0
 40
0.0
 40
0.0
 40
0.0
 40
0.1153476033925122
 40
0.2409201295856145
 40
0.366460354008946
 40
0.4950938232858773
 40
0.6237262264450376
 40
0.8108518742853577
 40
1.0
 40
1.0
 40
1.0
 40
1.0
 10
217.108897416292
 20
112.9462363752166
 30
0.0
 10
217.0133886629051
 20
113.2939417855878
 30
0.0
 10
216.8139048369236
 20
114.020174754982
 30
0.0
 10
216.5879549728708
 20
115.1441049546868
 30
0.0
 10
216.4329227855751
 20
116.3218379804765
 30
0.0
 10
216.3774771772585
 20
117.5186456660177
 30
0.0
 10
216.4336660581005
 20
118.9077476272262
 30
0.0
 10
216.6544920653786
 20
120.4749644179839
 30
0.0
 10
216.9568871730541
 20
121.6121777472249
 30
0.0
 10
217.108897416292
 20
122.1838406822506
 30
0.0
  0
SPLINE
  5
AA
330
1F
100
AcDbEntity
  8
0
  6
Continuous
 62
     7
370
    25
100
AcDbSpline
210
0.0
220
0.0
230
1.0
 70
     8
 71
     3
 72
    15
 73
    11
 74
     0
 42
0.00000001
 43
0.00000001
 40
0.0
 40
0.0
 40
0.0
 40
0.0
 40
0.13230496641634
 40
0.264572525757654
 40
0.3997989469058927
 40
0.5350009659368333
 40
0.6501921044151404
 40
0.765401211680801
 40
0.8826892657702317
 40
1.0
 40
1.0
 40
1.0
 40
1.0
 10
217.108897416292
 20
108.3274342216995
 30
0.0
 10
217.0001258887488
 20
108.5269844397686
 30
0.0
 10
216.7826135870407
 20
108.9260284563319
 30
0.0
 10
216.5485783942451
 20
109.5405208718264
 30
0.0
 10
216.4078591382961
 20
110.1665965438333
 30
0.0
 10
216.3799898545726
 20
110.7699942970244
 30
0.0
 10
216.452291652927
 20
111.3407944990405
 30
0.0
 10
216.6004416329062
 20
111.8794903803543
 30
0.0
 10
216.8177617916108
 20
112.4157506736279
 30
0.0
 10
217.0118459536194
 20
112.7693964116345
 30
0.0
 10
217.108897416292
 20
112.9462363752166
 30
0.0
  0
SPLINE
  5
AB
330
1F
100
AcDbEntity
  8
0
  6
Continuous
 62
     7
370
    25
100
AcDbSpline
210
0.0
220
0.0
230
1.0
 70
     8
 71
     3
 72
    15
 73
    11
 74
     0
 42
0.00000001
 43
0.00000001
 40
0.0
 40
0.0
 40
0.0
 40
0.0
 40
0.1323049664163415
 40
0.2645725257576572
 40
0.3997989469058976
 40
0.5350009659368399
 40
0.6501921044151455
 40
0.7654012116808045
 40
0.8826892657702333
 40
1.0
 40
1.0
 40
1.0
 40
1.0
 10
217.108897416292
 20
122.1838406822506
 30
0.0
 10
217.0001258887488
 20
122.3833909003197
 30
0.0
 10
216.7826135870407
 20
122.782434916883
 30
0.0
 10
216.5485783942452
 20
123.3969273323775
 30
0.0
 10
216.4078591382961
 20
124.0230030043844
 30
0.0
 10
216.3799898545726
 20
124.6264007575754
 30
0.0
 10
216.4522916529271
 20
125.1972009595915
 30
0.0
 10
216.6004416329062
 20
125.7358968409053
 30
0.0
 10
216.8177617916108
 20
126.2721571341789
 30
0.0
 10
217.0118459536194
 20
126.6258028721854
 30
0.0
 10
217.108897416292
 20
126.8026428357675
 30
0.0
  0
LINE
  5
AC
330
1F
100
AcDbEntity
  8
0
  6
Continuous
 62
     7
370
    25
100
AcDbLine
 10
216.3077636961
 20
117.5650385287
 30
0.0
 11
216.3077636961
 21
125.4150385287
 31
0.0
  0
LINE
  5
AD
330
1F
100
AcDbEntity
  8
0
  6
Continuous
 62
     7
370
    25
100
AcDbLine
 10
216.3077636961
 20
109.7150385287
 30
0.0
 11
216.3077636961
 21
117.5650385287
 31
0.0
  0
SPLINE
  5
AE
330
1F
100
AcDbEntity
  8
0
  6
Continuous
 62
     7
370
    25
100
AcDbSpline
210
0.0
220
0.0
230
1.0
 70
     8
 71
     3
 72
    15
 73
    11
 74
     0
 42
0.00000001
 43
0.00000001
 40
0.0
 40
0.0
 40
0.0
 40
0.0
 40
0.1323049664163399
 40
0.2645725257576538
 40
0.3997989469058926
 40
0.5350009659368331
 40
0.6501921044151403
 40
0.765401211680801
 40
0.8826892657702315
 40
1.0
 40
1.0
 40
1.0
 40
1.0
 10
224.5066299759024
 20
112.9462363752166
 30
0.0
 10
224.6154015034456
 20
112.7466861571475
 30
0.0
 10
224.8329138051537
 20
112.3476421405842
 30
0.0
 10
225.0669489979493
 20
111.7331497250897
 30
0.0
 10
225.2076682538983
 20
111.1070740530827
 30
0.0
 10
225.2355375376218
 20
110.5036762998917
 30
0.0
 10
225.1632357392674
 20
109.9328760978756
 30
0.0
 10
225.0150857592883
 20
109.3941802165618
 30
0.0
 10
224.7977656005837
 20
108.8579199232882
 30
0.0
 10
224.603681438575
 20
108.5042741852816
 30
0.0
 10
224.5066299759024
 20
108.3274342216995
 30
0.0
  0
LINE
  5
AF
330
1F
100
AcDbEntity
  8
0
  6
Continuous
 62
     7
370
    25
100
AcDbLine
 10
217.1088974163
 20
108.3274342217
 30
0.0
 11
224.5066299759
 21
108.3274342217
 31
0.0
  0
SPLINE
  5
B0
330
1F
100
AcDbEntity
  8
0
  6
Continuous
 62
     7
370
    25
100
AcDbSpline
210
0.0
220
0.0
230
1.0
 70
     8
 71
     3
 72
    15
 73
    11
 74
     0
 42
0.00000001
 43
0.00000001
 40
0.0
 40
0.0
 40
0.0
 40
0.0
 40
0.1323049664163416
 40
0.2645725257576573
 40
0.3997989469058978
 40
0.53500096593684
 40
0.6501921044151456
 40
0.7654012116808045
 40
0.8826892657702333
 40
1.0
 40
1.0
 40
1.0
 40
1.0
 10
224.5066299759024
 20
126.8026428357675
 30
0.0
 10
224.6154015034456
 20
126.6030926176984
 30
0.0
 10
224.8329138051537
 20
126.2040486011352
 30
0.0
 10
225.0669489979493
 20
125.5895561856407
 30
0.0
 10
225.2076682538983
 20
124.9634805136337
 30
0.0
 10
225.2355375376218
 20
124.3600827604427
 30
0.0
 10
225.1632357392673
 20
123.7892825584266
 30
0.0
 10
225.0150857592883
 20
123.2505866771128
 30
0.0
 10
224.7977656005836
 20
122.7143263838393
 30
0.0
 10
224.603681438575
 20
122.3606806458327
 30
0.0
 10
224.5066299759024
 20
122.1838406822506
 30
0.0
  0
LINE
  5
B1
330
1F
100
AcDbEntity
  8
0
  6
Continuous
 62
     7
370
    25
100
AcDbLine
 10
225.3077636961
 20
125.4150385287
 30
0.0
 11
225.3077636961
 21
109.7150385287
 31
0.0
  0
LINE
  5
B2
330
1F
100
AcDbEntity
  8
0
  6
Continuous
 62
     7
370
    25
100
AcDbLine
 10
217.1088974163
 20
126.8026428358
 30
0.0
 11
224.5066299759
 21
126.8026428358
 31
0.0
  0
LINE
  5
B3
330
1F
100
AcDbEntity
  8
0
  6
Continuous
 62
     7
370
    25
100
AcDbLine
 10
214.3077636961
 20
117.5650385287
 30
0.0
 11
214.3077636961
 21
125.1150385287
 31
0.0
  0
LINE
  5
B4
330
1F
100
AcDbEntity
  8
0
  6
Continuous
 62
     7
370
    25
100
AcDbLine
 10
214.3077636961
 20
110.0150385287
 30
0.0
 11
214.3077636961
 21
117.5650385287
 31
0.0
  0
LINE
  5
B5
330
1F
100
AcDbEntity
  8
0
  6
Continuous
 62
     7
370
    25
100
AcDbLine
 10
227.3077636961
 20
125.1150385287
 30
0.0
 11
227.3077636961
 21
110.0150385287
 31
0.0
  0
LINE
  5
B6
330
1F
100
AcDbEntity
  8
0
  6
Continuous
 62
     7
370
    25
100
AcDbLine
 10
233.4858916185
 20
126.0650385287
 30
0.0
 11
233.4858916185
 21
109.0650385287
 31
0.0
  0
LINE
  5
B7
330
1F
100
AcDbEntity
  8
0
  6
Continuous
 62
     7
370
    25
100
AcDbLine
 10
230.6858916185
 20
126.0650385287
 30
0.0
 11
230.6858916185
 21
109.0650385287
 31
0.0
  0
LINE
  5
B8
330
1F
100
AcDbEntity
  8
0
  6
Continuous
 62
     7
370
    25
100
AcDbLine
 10
230.4858916185
 20
109.2650385287
 30
0.0
 11
230.4858916185
 21
125.8650385287
 31
0.0
  0
LINE
  5
B9
330
1F
100
AcDbEntity
  8
0
  6
Continuous
 62
     7
370
    25
100
AcDbLine
 10
238.9858916185
 20
124.9262544609
 30
0.0
 11
238.9858916185
 21
121.5650385287
 31
0.0
  0
SPLINE
  5
BA
330
1F
100
AcDbEntity
  8
0
  6
Continuous
 62
     7
370
    25
100
AcDbSpline
210
0.0
220
0.0
230
1.0
 70
     8
 71
     3
 72
     8
 73
     4
 74
     0
 42
0.00000001
 43
0.00000001
 40
0.0
 40
0.0
 40
0.0
 40
0.0
 40
1.0
 40
1.0
 40
1.0
 40
1.0
 10
238.469655541551
 20
121.5650385287335
 30
0.0
 10
238.4187568246284
 20
121.7720835671625
 30
0.0
 10
238.3648226883777
 20
121.9783228968391
 30
0.0
 10
238.3081702132699
 20
122.1838406822505
 30
0.0
  0
SPLINE
  5
BB
330
1F
100
AcDbEntity
  8
0
  6
Continuous
 62
     7
370
    25
100
AcDbSpline
210
0.0
220
0.0
230
1.0
 70
     8
 71
     3
 72
    10
 73
     6
 74
     0
 42
0.00000001
 43
0.00000001
 40
0.0
 40
0.0
 40
0.0
 40
0.0
 40
0.5
 40
0.5
 40
1.0
 40
1.0
 40
1.0
 40
1.0
 10
238.3081702132699
 20
122.6168533841427
 30
0.0
 10
238.2844948188456
 20
122.5739098532415
 30
0.0
 10
238.2714037089609
 20
122.5104674086174
 30
0.0
 10
238.2713173876726
 20
122.3579885714984
 30
0.0
 10
238.2844863216165
 20
122.2697585693912
 30
0.0
 10
238.3081702132699
 20
122.1838406822505
 30
0.0
  0
SPLINE
  5
BC
330
1F
100
AcDbEntity
  8
0
  6
Continuous
 62
     7
370
    25
100
AcDbSpline
210
0.0
220
0.0
230
1.0
 70
     8
 71
     3
 72
    12
 73
     8
 74
     0
 42
0.00000001
 43
0.00000001
 40
0.0
 40
0.0
 40
0.0
 40
0.0
 40
0.2500000000000001
 40
0.2500000000000001
 40
0.5000000000000002
 40
0.5000000000000002
 40
1.0
 40
1.0
 40
1.0
 40
1.0
 10
238.9858916185301
 20
124.9262544609012
 30
0.0
 10
238.9858916185301
 20
124.7305121980217
 30
0.0
 10
238.9700486824412
 20
124.5338455888312
 30
0.0
 10
238.9085458222035
 20
124.1445773615029
 30
0.0
 10
238.8629421811598
 20
123.95117332855
 30
0.0
 10
238.6864911636706
 20
123.3742442772932
 30
0.0
 10
238.5160937964187
 20
122.9939948440902
 30
0.0
 10
238.3081702132699
 20
122.6168533841427
 30
0.0
  0
SPLINE
  5
BD
330
1F
100
AcDbEntity
  8
0
  6
Continuous
 62
     7
370
    25
100
AcDbSpline
210
0.0
220
0.0
230
1.0
 70
     8
 71
     3
 72
    10
 73
     6
 74
     0
 42
0.00000001
 43
0.00000001
 40
0.0
 40
0.0
 40
0.0
 40
0.0
 40
0.5000000000000001
 40
0.5000000000000001
 40
1.0
 40
1.0
 40
1.0
 40
1.0
 10
240.3670894650131
 20
106.2427599339937
 30
0.0
 10
241.1177681645089
 20
106.035829880461
 30
0.0
 10
241.8820491087316
 20
105.8640242700873
 30
0.0
 10
243.4366238428191
 20
105.6270737635559
 30
0.0
 10
244.2121988103353
 20
105.5650385287335
 30
0.0
 10
244.9858916185301
 20
105.5650385287335
 30
0.0
  0
LINE
  5
BE
330
1F
100
AcDbEntity
  8
0
  6
Continuous
 62
     7
370
    25
100
AcDbLine
 10
240.367089465
 20
109.5986419889
 30
0.0
 11
240.367089465
 21
106.242759934
 31
0.0
  0
SPLINE
  5
BF
330
1F
100
AcDbEntity
  8
0
  6
Continuous
 62
     7
370
    25
100
AcDbSpline
210
0.0
220
0.0
230
1.0
 70
     8
 71
     3
 72
     8
 73
     4
 74
     0
 42
0.00000001
 43
0.00000001
 40
0.0
 40
0.0
 40
0.0
 40
0.0
 40
1.0
 40
1.0
 40
1.0
 40
1.0
 10
240.3670894650131
 20
109.5986419888785
 30
0.0
 10
240.5722752875564
 20
109.6552029560027
 30
0.0
 10
240.7784984882637
 20
109.7091430274166
 30
0.0
 10
240.9858916185301
 20
109.7601273171595
 30
0.0
  0
SPLINE
  5
C0
330
1F
100
AcDbEntity
  8
0
  6
Continuous
 62
     7
370
    25
100
AcDbSpline
210
0.0
220
0.0
230
1.0
 70
     8
 71
     3
 72
     8
 73
     4
 74
     0
 42
0.00000001
 43
0.00000001
 40
0.0
 40
0.0
 40
0.0
 40
0.0
 40
1.0
 40
1.0
 40
1.0
 40
1.0
 10
238.3081702132699
 20
112.9462363752165
 30
0.0
 10
238.3647335827382
 20
113.1514309127262
 30
0.0
 10
238.4186735055594
 20
113.3576545662434
 30
0.0
 10
238.469655541551
 20
113.5650385287335
 30
0.0
  0
LINE
  5
C1
330
1F
100
AcDbEntity
  8
0
  6
Continuous
 62
     7
370
    25
100
AcDbLine
 10
234.1636130238
 20
112.9462363752
 30
0.0
 11
238.3081702133
 21
112.9462363752
 31
0.0
  0
SPLINE
  5
C2
330
1F
100
AcDbEntity
  8
0
  6
Continuous
 62
     7
370
    25
100
AcDbSpline
210
0.0
220
0.0
230
1.0
 70
     8
 71
     3
 72
    10
 73
     6
 74
     0
 42
0.00000001
 43
0.00000001
 40
0.0
 40
0.0
 40
0.0
 40
0.0
 40
0.5
 40
0.5
 40
1.0
 40
1.0
 40
1.0
 40
1.0
 10
234.1636130237903
 20
112.9462363752165
 30
0.0
 10
233.9555443475591
 20
113.7010456482658
 30
0.0
 10
233.7851453415346
 20
114.4617920354977
 30
0.0
 10
233.5499853618357
 20
115.999934413121
 30
0.0
 10
233.4858916185301
 20
116.7774355656458
 30
0.0
 10
233.4858916185301
 20
117.5650385287335
 30
0.0
  0
SPLINE
  5
C3
330
1F
100
AcDbEntity
  8
0
  6
Continuous
 62
     7
370
    25
100
AcDbSpline
210
0.0
220
0.0
230
1.0
 70
     8
 71
     3
 72
    12
 73
     8
 74
     0
 42
0.00000001
 43
0.00000001
 40
0.0
 40
0.0
 40
0.0
 40
0.0
 40
0.2500000000000001
 40
0.2500000000000001
 40
0.5000000000000001
 40
0.5000000000000001
 40
1.0
 40
1.0
 40
1.0
 40
1.0
 10
233.4858916185301
 20
117.5650385287335
 30
0.0
 10
233.4858916185301
 20
117.9593566094053
 30
0.0
 10
233.5018904235112
 20
118.3530156533558
 30
0.0
 10
233.5636605618256
 20
119.1325516529011
 30
0.0
 10
233.6094026861272
 20
119.5195048410265
 30
0.0
 10
233.786072833474
 20
120.6728914038806
 30
0.0
 10
233.9563278989543
 20
121.4318738930856
 30
0.0
 10
234.1636130237903
 20
122.1838406822505
 30
0.0
  0
LINE
  5
C4
330
1F
100
AcDbEntity
  8
0
  6
Continuous
 62
     7
370
    25
100
AcDbLine
 10
238.3081702133
 20
122.1838406823
 30
0.0
 11
234.1636130238
 21
122.1838406823
 31
0.0
  0
SPLINE
  5
C5
330
1F
100
AcDbEntity
  8
0
  6
Continuous
 62
     7
370
    25
100
AcDbSpline
210
0.0
220
0.0
230
1.0
 70
     8
 71
     3
 72
     8
 73
     4
 74
     0
 42
0.00000001
 43
0.00000001
 40
0.0
 40
0.0
 40
0.0
 40
0.0
 40
1.0
 40
1.0
 40
1.0
 40
1.0
 10
251.5021276955093
 20
121.5650385287336
 30
0.0
 10
251.5530239287644
 20
121.7720734641373
 30
0.0
 10
251.6069578837281
 20
121.9783132292023
 30
0.0
 10
251.6636130237903
 20
122.1838406822505
 30
0.0
  0
LINE
  5
C6
330
1F
100
AcDbEntity
  8
0
  6
Continuous
 62
     7
370
    25
100
AcDbLine
 10
256.163832646
 20
122.1838406823
 30
0.0
 11
251.6636130238
 21
122.1838406823
 31
0.0
  0
SPLINE
  5
C7
330
1F
100
AcDbEntity
  8
0
  6
Continuous
 62
     7
370
    25
100
AcDbSpline
210
0.0
220
0.0
230
1.0
 70
     8
 71
     3
 72
    14
 73
    10
 74
     0
 42
0.00000001
 43
0.00000001
 40
0.0
 40
0.0
 40
0.0
 40
0.0
 40
0.25
 40
0.25
 40
0.5
 40
0.5
 40
0.75
 40
0.75
 40
1.0
 40
1.0
 40
1.0
 40
1.0
 10
256.1638326459725
 20
112.9462363752165
 30
0.0
 10
256.3717830066783
 20
113.7006164358665
 30
0.0
 10
256.5440048153672
 20
114.4700576033319
 30
0.0
 10
256.7786399381181
 20
116.0105689642731
 30
0.0
 10
256.8415839967458
 20
116.7854233442801
 30
0.0
 10
256.8415240840143
 20
118.3457842991657
 30
0.0
 10
256.7769094177222
 20
119.1362404919507
 30
0.0
 10
256.540350078321
 20
120.6785201547592
 30
0.0
 10
256.3700049382416
 20
121.4359109079604
 30
0.0
 10
256.1638326459725
 20
122.1838406822505
 30
0.0
  0
LINE
  5
C8
330
1F
100
AcDbEntity
  8
0
  6
Continuous
 62
     7
370
    25
100
AcDbLine
 10
251.6636130238
 20
112.9462363752
 30
0.0
 11
256.163832646
 21
112.9462363752
 31
0.0
  0
SPLINE
  5
C9
330
1F
100
AcDbEntity
  8
0
  6
Continuous
 62
     7
370
    25
100
AcDbSpline
210
0.0
220
0.0
230
1.0
 70
     8
 71
     3
 72
     8
 73
     4
 74
     0
 42
0.00000001
 43
0.00000001
 40
0.0
 40
0.0
 40
0.0
 40
0.0
 40
1.0
 40
1.0
 40
1.0
 40
1.0
 10
251.6636130237903
 20
112.9462363752165
 30
0.0
 10
251.6070511803534
 20
113.1514253767533
 30
0.0
 10
251.553111163097
 20
113.357648742818
 30
0.0
 10
251.5021276955093
 20
113.5650385287335
 30
0.0
  0
SPLINE
  5
CA
330
1F
100
AcDbEntity
  8
0
  6
Continuous
 62
     7
370
    25
100
AcDbSpline
210
0.0
220
0.0
230
1.0
 70
     8
 71
     3
 72
     8
 73
     4
 74
     0
 42
0.00000001
 43
0.00000001
 40
0.0
 40
0.0
 40
0.0
 40
0.0
 40
1.0
 40
1.0
 40
1.0
 40
1.0
 10
248.9858916185301
 20
109.7601273171595
 30
0.0
 10
249.1929206818655
 20
109.7092325274587
 30
0.0
 10
249.3991606991349
 20
109.6552986780973
 30
0.0
 10
249.6046937720471
 20
109.5986419888785
 30
0.0
  0
LINE
  5
CB
330
1F
100
AcDbEntity
  8
0
  6
Continuous
 62
     7
370
    25
100
AcDbLine
 10
249.604693772
 20
106.242759934
 30
0.0
 11
249.604693772
 21
109.5986419889
 31
0.0
  0
SPLINE
  5
CC
330
1F
100
AcDbEntity
  8
0
  6
Continuous
 62
     7
370
    25
100
AcDbSpline
210
0.0
220
0.0
230
1.0
 70
     8
 71
     3
 72
    10
 73
     6
 74
     0
 42
0.00000001
 43
0.00000001
 40
0.0
 40
0.0
 40
0.0
 40
0.0
 40
0.5
 40
0.5
 40
1.0
 40
1.0
 40
1.0
 40
1.0
 10
244.9858916185301
 20
105.5650385287335
 30
0.0
 10
245.7614715551371
 20
105.5650385287335
 30
0.0
 10
246.5351617738635
 20
105.627322890712
 30
0.0
 10
248.0791963161964
 20
105.8621710087191
 30
0.0
 10
248.8525049923512
 20
106.0354136158503
 30
0.0
 10
249.6046937720471
 20
106.2427599339937
 30
0.0
  0
ARC
  5
CD
330
1F
100
AcDbEntity
  8
0
  6
Continuous
 62
     7
370
    25
100
AcDbCircle
 10
246.5366229743
 20
116.9881195354
 30
0.0
 40
0.8889999999999868
100
AcDbArc
 50
45.0
 51
315.0
  0
LINE
  5
CE
330
1F
100
AcDbEntity
  8
0
  6
Continuous
 62
     7
370
    25
100
AcDbLine
 10
247.1652409027
 20
117.6167374639
 30
0.0
 11
247.6318512883
 21
118.0833478495
 31
0.0
  0
ARC
  5
CF
330
1F
100
AcDbEntity
  8
0
  6
Continuous
 62
     7
370
    25
100
AcDbCircle
 10
246.5366229743
 20
116.9881195354
 30
0.0
 40
1.548886735692404
100
AcDbArc
 50
45.0
 51
315.0
  0
LINE
  5
D0
330
1F
100
AcDbEntity
  8
0
  6
Continuous
 62
     7
370
    25
100
AcDbLine
 10
247.6318512883
 20
115.8928912213
 30
0.0
 11
247.1652409027
 21
116.3595016069
 31
0.0
  0
ARC
  5
D1
330
1F
100
AcDbEntity
  8
0
  6
Continuous
 62
     7
370
    25
100
AcDbCircle
 10
249.8787675706
 20
116.9881195354
 30
0.0
 40
0.8889999999999969
100
AcDbArc
 50
45.0
 51
159.0751675724
  0
LINE
  5
D2
330
1F
100
AcDbEntity
  8
0
  6
Continuous
 62
     7
370
    25
100
AcDbLine
 10
250.5073854991
 20
117.6167374639
 30
0.0
 11
250.9739958847
 21
118.0833478495
 31
0.0
  0
ARC
  5
D3
330
1F
100
AcDbEntity
  8
0
  6
Continuous
 62
     7
370
    25
100
AcDbCircle
 10
249.8787675706
 20
116.9881195354
 30
0.0
 40
1.548886735692394
100
AcDbArc
 50
45.0
 51
315.0
  0
LINE
  5
D4
330
1F
100
AcDbEntity
  8
0
  6
Continuous
 62
     7
370
    25
100
AcDbLine
 10
250.9739958847
 20
115.8928912213
 30
0.0
 11
250.5073854991
 21
116.3595016069
 31
0.0
  0
ARC
  5
D5
330
1F
100
AcDbEntity
  8
0
  6
Continuous
 62
     7
370
    25
100
AcDbCircle
 10
249.8787675706
 20
116.9881195354
 30
0.0
 40
0.889000000000017
100
AcDbArc
 50
200.9248324276
 51
315.0
  0
LINE
  5
D6
330
1F
100
AcDbEntity
  8
0
  6
Continuous
 62
     7
370
    25
100
AcDbLine
 10
249.0483973219
 20
116.6706195354
 30
0.0
 11
250.9739958847
 21
116.6706195354
 31
0.0
  0
LINE
  5
D7
330
1F
100
AcDbEntity
  8
0
  6
Continuous
 62
     7
370
    25
100
AcDbLine
 10
250.9739958847
 20
116.6706195354
 30
0.0
 11
250.9739958847
 21
117.3056195354
 31
0.0
  0
LINE
  5
D8
330
1F
100
AcDbEntity
  8
0
  6
Continuous
 62
     7
370
    25
100
AcDbLine
 10
250.9739958847
 20
117.3056195354
 30
0.0
 11
249.0483973219
 21
117.3056195354
 31
0.0
  0
LINE
  5
D9
330
1F
100
AcDbEntity
  8
0
  6
Continuous
 62
     7
370
    25
100
AcDbLine
 10
244.0841327046
 20
116.1426655111
 30
0.0
 11
244.0424823853
 21
116.1188605813
 31
0.0
  0
ELLIPSE
  5
DA
330
1F
100
AcDbEntity
  8
0
  6
Continuous
 62
     7
370
    25
100
AcDbEllipse
 10
243.6936392057
 20
116.6735430525
 30
0.0
 11
0.6784129479252385
 21
6.110667527536862E-13
 31
0.0
210
0.0
220
0.0
230
1.0
 40
0.9533039403
 41
3.470145824140259
 42
5.252469180536282
  0
LINE
  5
DB
330
1F
100
AcDbEntity
  8
0
  6
Continuous
 62
     7
370
    25
100
AcDbLine
 10
243.0515144387
 20
116.4648589375
 30
0.0
 11
241.7918602338
 21
119.9873033342
 31
0.0
  0
ELLIPSE
  5
DC
330
1F
100
AcDbEntity
  8
0
  6
Continuous
 62
     7
370
    25
100
AcDbEllipse
 10
241.2008776759
 20
119.7249640981
 30
0.0
 11
0.6519124952381503
 21
5.968558980384842E-13
 31
0.0
210
0.0
220
0.0
230
1.0
 40
0.9533023292
 41
0.4357905044354998
 42
2.705800116361558
  0
LINE
  5
DD
330
1F
100
AcDbEntity
  8
0
  6
Continuous
 62
     7
370
    25
100
AcDbLine
 10
240.6098956774
 20
119.9873044794
 30
0.0
 11
239.3505308757
 21
116.4656810777
 31
0.0
  0
ELLIPSE
  5
DE
330
1F
100
AcDbEntity
  8
0
  6
Continuous
 62
     7
370
    25
100
AcDbEllipse
 10
238.7084096917
 20
116.6743639114
 30
0.0
 11
-0.6784085062757867
 21
3.126388037344441E-13
 31
0.0
210
0.0
220
0.0
230
1.0
 40
0.9533122623
 41
1.04719377118793
 42
2.813042320199896
  0
LINE
  5
DF
330
1F
100
AcDbEntity
  8
0
  6
Continuous
 62
     7
370
    25
100
AcDbLine
 10
238.3692032177
 20
116.1142760661
 30
0.0
 11
238.3176226472
 21
116.1426655111
 31
0.0
  0
LINE
  5
E0
330
1F
100
AcDbEntity
  8
0
  6
Continuous
 62
     7
370
    25
100
AcDbLine
 10
238.3176226472
 20
116.1426655111
 30
0.0
 11
239.1138913067
 21
114.6244934097
 31
0.0
  0
ELLIPSE
  5
E1
330
1F
100
AcDbEntity
  8
0
  6
Continuous
 62
     7
370
    25
100
AcDbEllipse
 10
239.1897401801
 20
114.6606469247
 30
0.0
 11
0.08480161849064416
 21
-2.842170943040401E-14
 31
0.0
210
0.0
220
0.0
230
1.0
 40
0.9533039403
 41
3.605240262591068
 42
5.462183310215516
  0
ELLIPSE
  5
E2
330
1F
100
AcDbEntity
  8
0
  6
Continuous
 62
     7
370
    25
100
AcDbEllipse
 10
241.2008776759
 20
112.6017983041
 30
0.0
 11
2.866293551216216
 21
-1.506350599811412E-12
 31
0.0
210
0.0
220
0.0
230
1.0
 40
0.9533046568
 41
0.8210016221243815
 42
2.320591031466443
  0
ELLIPSE
  5
E3
330
1F
100
AcDbEntity
  8
0
  6
Continuous
 62
     7
370
    25
100
AcDbEllipse
 10
243.2120151716
 20
114.6606469247
 30
0.0
 11
0.08480161849061574
 21
0.0
 31
0.0
210
0.0
220
0.0
230
1.0
 40
0.9533039403
 41
3.962594650556404
 42
5.819537698177248
  0
LINE
  5
E4
330
1F
100
AcDbEntity
  8
0
  6
Continuous
 62
     7
370
    25
100
AcDbLine
 10
243.287864045
 20
114.6244934097
 30
0.0
 11
244.0841327046
 21
116.1426655111
 31
0.0
  0
LINE
  5
E5
330
1F
100
AcDbEntity
  8
0
  6
Continuous
 62
     7
370
    25
100
AcDbLine
 10
248.9858916185
 20
109.7601273172
 30
0.0
 11
248.9858916185
 21
113.5650385287
 31
0.0
  0
LINE
  5
E6
330
1F
100
AcDbEntity
  8
0
  6
Continuous
 62
     7
370
    25
100
AcDbLine
 10
251.5021276955
 20
113.5650385287
 30
0.0
 11
248.9858916185
 21
113.5650385287
 31
0.0
  0
LINE
  5
E7
330
1F
100
AcDbEntity
  8
0
  6
Continuous
 62
     7
370
    25
100
AcDbLine
 10
251.5021276955
 20
121.5650385287
 30
0.0
 11
238.4696555416
 21
121.5650385287
 31
0.0
  0
LINE
  5
E8
330
1F
100
AcDbEntity
  8
0
  6
Continuous
 62
     7
370
    25
100
AcDbLine
 10
240.9858916185
 20
113.5650385287
 30
0.0
 11
238.4696555416
 21
113.5650385287
 31
0.0
  0
LINE
  5
E9
330
1F
100
AcDbEntity
  8
0
  6
Continuous
 62
     7
370
    25
100
AcDbLine
 10
240.9858916185
 20
109.7601273172
 30
0.0
 11
240.9858916185
 21
113.5650385287
 31
0.0
  0
LINE
  5
EA
330
1F
100
AcDbEntity
  8
0
  6
Continuous
 62
     7
370
    25
100
AcDbLine
 10
233.4858916185
 20
117.5650385287
 30
0.0
 11
233.4858916185
 21
124.9262544609
 31
0.0
  0
SPLINE
  5
EB
330
1F
100
AcDbEntity
  8
0
  6
Continuous
 62
     7
370
    25
100
AcDbSpline
210
0.0
220
0.0
230
1.0
 70
     8
 71
     3
 72
    10
 73
     6
 74
     0
 42
0.00000001
 43
0.00000001
 40
0.0
 40
0.0
 40
0.0
 40
0.0
 40
0.5
 40
0.5
 40
1.0
 40
1.0
 40
1.0
 40
1.0
 10
234.1636130237898
 20
122.6168533841427
 30
0.0
 10
233.9548030991236
 20
122.995602531534
 30
0.0
 10
233.7842689593763
 20
123.3768078079453
 30
0.0
 10
233.5494831543574
 20
124.1460384291331
 30
0.0
 10
233.4858916185301
 20
124.5341061339314
 30
0.0
 10
233.4858916185301
 20
124.9262544609012
 30
0.0
  0
SPLINE
  5
EC
330
1F
100
AcDbEntity
  8
0
  6
Continuous
 62
     7
370
    25
100
AcDbSpline
210
0.0
220
0.0
230
1.0
 70
     8
 71
     3
 72
    10
 73
     6
 74
     0
 42
0.00000001
 43
0.00000001
 40
0.0
 40
0.0
 40
0.0
 40
0.0
 40
0.5
 40
0.5
 40
1.0
 40
1.0
 40
1.0
 40
1.0
 10
234.1636130237903
 20
122.6168533841427
 30
0.0
 10
234.1872852637019
 20
122.5739155750435
 30
0.0
 10
234.2003792536372
 20
122.5104749851513
 30
0.0
 10
234.2004661210986
 20
122.3579858396425
 30
0.0
 10
234.1872963313392
 20
122.2697564504391
 30
0.0
 10
234.1636130237903
 20
122.1838406822505
 30
0.0
  0
SPLINE
  5
ED
330
1F
100
AcDbEntity
  8
0
  6
Continuous
 62
     7
370
    25
100
AcDbSpline
210
0.0
220
0.0
230
1.0
 70
     8
 71
     3
 72
     8
 73
     4
 74
     0
 42
0.00000001
 43
0.00000001
 40
0.0
 40
0.0
 40
0.0
 40
0.0
 40
1.0
 40
1.0
 40
1.0
 40
1.0
 10
251.1072751100263
 20
111.1549169954083
 30
0.0
 10
251.066159834385
 20
111.2909473898978
 30
0.0
 10
251.0256708515172
 20
111.4276514545353
 30
0.0
 10
250.9858916185301
 20
111.5650385287335
 30
0.0
  0
LINE
  5
EE
330
1F
100
AcDbEntity
  8
0
  6
Continuous
 62
     7
370
    25
100
AcDbLine
 10
250.9858916185
 20
113.5650385287
 30
0.0
 11
250.9858916185
 21
111.5650385287
 31
0.0
  0
SPLINE
  5
EF
330
1F
100
AcDbEntity
  8
0
  6
Continuous
 62
     7
370
    25
100
AcDbSpline
210
0.0
220
0.0
230
1.0
 70
     8
 71
     3
 72
    10
 73
     6
 74
     0
 42
0.00000001
 43
0.00000001
 40
0.0
 40
0.0
 40
0.0
 40
0.0
 40
0.5
 40
0.5
 40
1.0
 40
1.0
 40
1.0
 40
1.0
 10
251.663613023787
 20
112.5132236733243
 30
0.0
 10
251.6872884182114
 20
112.5561672042254
 30
0.0
 10
251.7003795280993
 20
112.6196096488492
 30
0.0
 10
251.7004658493877
 20
112.7720884859683
 30
0.0
 10
251.6872969154438
 20
112.8603184880757
 30
0.0
 10
251.6636130237903
 20
112.9462363752165
 30
0.0
  0
SPLINE
  5
F0
330
1F
100
AcDbEntity
  8
0
  6
Continuous
 62
     7
370
    25
100
AcDbSpline
210
0.0
220
0.0
230
1.0
 70
     8
 71
     3
 72
     8
 73
     4
 74
     0
 42
0.00000001
 43
0.00000001
 40
0.0
 40
0.0
 40
0.0
 40
0.0
 40
1.0
 40
1.0
 40
1.0
 40
1.0
 10
251.1072751100263
 20
111.1549169954083
 30
0.0
 10
251.2229077200553
 20
111.613467927466
 30
0.0
 10
251.4167971248758
 20
112.0655375232243
 30
0.0
 10
251.6636130237902
 20
112.513223673324
 30
0.0
  0
LINE
  5
F1
330
1F
100
AcDbEntity
  8
0
  6
Continuous
 62
     7
370
    25
100
AcDbLine
 10
233.4858916185
 20
117.5650385287
 30
0.0
 11
233.4858916185
 21
110.2038225966
 31
0.0
  0
SPLINE
  5
F2
330
1F
100
AcDbEntity
  8
0
  6
Continuous
 62
     7
370
    25
100
AcDbSpline
210
0.0
220
0.0
230
1.0
 70
     8
 71
     3
 72
    10
 73
     6
 74
     0
 42
0.00000001
 43
0.00000001
 40
0.0
 40
0.0
 40
0.0
 40
0.0
 40
0.5
 40
0.5
 40
1.0
 40
1.0
 40
1.0
 40
1.0
 10
234.1636130237903
 20
112.9462363752165
 30
0.0
 10
234.1872869243463
 20
112.86035473271
 30
0.0
 10
234.2003794815254
 20
112.7729455267446
 30
0.0
 10
234.2004658955077
 20
112.6203030416697
 30
0.0
 10
234.1872955039091
 20
112.5561800565873
 30
0.0
 10
234.1636130237903
 20
112.5132236733243
 30
0.0
  0
SPLINE
  5
F3
330
1F
100
AcDbEntity
  8
0
  6
Continuous
 62
     7
370
    25
100
AcDbSpline
210
0.0
220
0.0
230
1.0
 70
     8
 71
     3
 72
    12
 73
     8
 74
     0
 42
0.00000001
 43
0.00000001
 40
0.0
 40
0.0
 40
0.0
 40
0.0
 40
0.2499999999999999
 40
0.2499999999999999
 40
0.4999999999999998
 40
0.4999999999999998
 40
1.0
 40
1.0
 40
1.0
 40
1.0
 10
233.4858916185301
 20
110.2038225965658
 30
0.0
 10
233.4858916185301
 20
110.3988260765716
 30
0.0
 10
233.5016379485521
 20
110.595360735596
 30
0.0
 10
233.5630829731375
 20
110.9847804232015
 30
0.0
 10
233.6086717323913
 20
111.1782651162618
 30
0.0
 10
233.7851227346478
 20
111.7554487150174
 30
0.0
 10
233.9555804366113
 20
112.1358844968004
 30
0.0
 10
234.1636130237902
 20
112.5132236733243
 30
0.0
  0
LINE
  5
F4
330
1F
100
AcDbEntity
  8
0
  6
Continuous
 62
     7
370
    25
100
AcDbLine
 10
250.9858916185
 20
124.9262544609
 30
0.0
 11
250.9858916185
 21
121.5650385287
 31
0.0
  0
SPLINE
  5
F5
330
1F
100
AcDbEntity
  8
0
  6
Continuous
 62
     7
370
    25
100
AcDbSpline
210
0.0
220
0.0
230
1.0
 70
     8
 71
     3
 72
    10
 73
     6
 74
     0
 42
0.00000001
 43
0.00000001
 40
0.0
 40
0.0
 40
0.0
 40
0.0
 40
0.5
 40
0.5
 40
1.0
 40
1.0
 40
1.0
 40
1.0
 10
251.6636130237903
 20
122.6168533841427
 30
0.0
 10
251.4551922709729
 20
122.9948966335449
 30
0.0
 10
251.2847284356955
 20
123.3756661383407
 30
0.0
 10
251.0497460007571
 20
124.1448146638983
 30
0.0
 10
250.9858916185301
 20
124.5332413920735
 30
0.0
 10
250.9858916185301
 20
124.9262544609012
 30
0.0
  0
SPLINE
  5
F6
330
1F
100
AcDbEntity
  8
0
  6
Continuous
 62
     7
370
    25
100
AcDbSpline
210
0.0
220
0.0
230
1.0
 70
     8
 71
     3
 72
    10
 73
     6
 74
     0
 42
0.00000001
 43
0.00000001
 40
0.0
 40
0.0
 40
0.0
 40
0.0
 40
0.5
 40
0.5
 40
1.0
 40
1.0
 40
1.0
 40
1.0
 10
251.6636130237904
 20
122.1838406822505
 30
0.0
 10
251.6872884182148
 20
122.269727744053
 30
0.0
 10
251.7003795280994
 20
122.3571349530331
 30
0.0
 10
251.7004658493877
 20
122.5097713956268
 30
0.0
 10
251.6872969154438
 20
122.5738944405724
 30
0.0
 10
251.6636130237904
 20
122.6168533841427
 30
0.0
  0
SPLINE
  5
F7
330
1F
100
AcDbEntity
  8
0
  6
Continuous
 62
     7
370
    25
100
AcDbSpline
210
0.0
220
0.0
230
1.0
 70
     8
 71
     3
 72
    10
 73
     6
 74
     0
 42
0.00000001
 43
0.00000001
 40
0.0
 40
0.0
 40
0.0
 40
0.0
 40
0.5
 40
0.5
 40
1.0
 40
1.0
 40
1.0
 40
1.0
 10
239.9340767631209
 20
109.5986419888785
 30
0.0
 10
239.9770202940221
 20
109.5749665944541
 30
0.0
 10
240.0404627386463
 20
109.5618754845695
 30
0.0
 10
240.1929415757652
 20
109.5617891632812
 30
0.0
 10
240.2811715778725
 20
109.574958097225
 30
0.0
 10
240.3670894650131
 20
109.5986419888785
 30
0.0
  0
SPLINE
  5
F8
330
1F
100
AcDbEntity
  8
0
  6
Continuous
 62
     7
370
    25
100
AcDbSpline
210
0.0
220
0.0
230
1.0
 70
     8
 71
     3
 72
    10
 73
     6
 74
     0
 42
0.00000001
 43
0.00000001
 40
0.0
 40
0.0
 40
0.0
 40
0.0
 40
0.5
 40
0.5
 40
1.0
 40
1.0
 40
1.0
 40
1.0
 10
239.9340767631209
 20
106.2427599339937
 30
0.0
 10
239.9770145722202
 20
106.2664321739053
 30
0.0
 10
240.0404551621123
 20
106.2795261638405
 30
0.0
 10
240.1929443076212
 20
106.279613031302
 30
0.0
 10
240.2811736968245
 20
106.2664432415426
 30
0.0
 10
240.3670894650131
 20
106.2427599339937
 30
0.0
  0
LINE
  5
F9
330
1F
100
AcDbEntity
  8
0
  6
Continuous
 62
     7
370
    25
100
AcDbLine
 10
239.9340767631
 20
106.242759934
 30
0.0
 11
239.9340767631
 21
109.5986419889
 31
0.0
  0
SPLINE
  5
FA
330
1F
100
AcDbEntity
  8
0
  6
Continuous
 62
     7
370
    25
100
AcDbSpline
210
0.0
220
0.0
230
1.0
 70
     8
 71
     3
 72
    10
 73
     6
 74
     0
 42
0.00000001
 43
0.00000001
 40
0.0
 40
0.0
 40
0.0
 40
0.0
 40
0.5
 40
0.5
 40
1.0
 40
1.0
 40
1.0
 40
1.0
 10
249.6046937720471
 20
109.5986419888785
 30
0.0
 10
249.6905808338497
 20
109.5749665944541
 30
0.0
 10
249.7779880428299
 20
109.5618754845695
 30
0.0
 10
249.9306244854237
 20
109.5617891632812
 30
0.0
 10
249.9947475303695
 20
109.5749580972252
 30
0.0
 10
250.0377064739397
 20
109.5986419888787
 30
0.0
  0
LINE
  5
FB
330
1F
100
AcDbEntity
  8
0
  6
Continuous
 62
     7
370
    25
100
AcDbLine
 10
250.0377064739
 20
109.5986419889
 30
0.0
 11
250.0377064739
 21
106.242759934
 31
0.0
  0
SPLINE
  5
FC
330
1F
100
AcDbEntity
  8
0
  6
Continuous
 62
     7
370
    25
100
AcDbSpline
210
0.0
220
0.0
230
1.0
 70
     8
 71
     3
 72
    10
 73
     6
 74
     0
 42
0.00000001
 43
0.00000001
 40
0.0
 40
0.0
 40
0.0
 40
0.0
 40
0.5
 40
0.5
 40
1.0
 40
1.0
 40
1.0
 40
1.0
 10
249.6046937720471
 20
106.2427599339937
 30
0.0
 10
249.6905754145536
 20
106.2664338345497
 30
0.0
 10
249.777984620519
 20
106.2795263917288
 30
0.0
 10
249.930627105594
 20
106.2796128057111
 30
0.0
 10
249.9947500906763
 20
106.2664424141125
 30
0.0
 10
250.0377064739394
 20
106.2427599339937
 30
0.0
  0
LINE
  5
FD
330
1F
100
AcDbEntity
  8
0
  6
Continuous
 62
     7
370
    25
100
AcDbLine
 10
238.9858916185
 20
113.5650385287
 30
0.0
 11
238.9858916185
 21
111.5650385287
 31
0.0
  0
SPLINE
  5
FE
330
1F
100
AcDbEntity
  8
0
  6
Continuous
 62
     7
370
    25
100
AcDbSpline
210
0.0
220
0.0
230
1.0
 70
     8
 71
     3
 72
     8
 73
     4
 74
     0
 42
0.00000001
 43
0.00000001
 40
0.0
 40
0.0
 40
0.0
 40
0.0
 40
1.0
 40
1.0
 40
1.0
 40
1.0
 10
238.9858916185301
 20
111.5650385287335
 30
0.0
 10
238.94611296034
 20
111.4276534397334
 30
0.0
 10
238.9056239975117
 20
111.2909493579216
 30
0.0
 10
238.864508127034
 20
111.1549169954083
 30
0.0
  0
SPLINE
  5
FF
330
1F
100
AcDbEntity
  8
0
  6
Continuous
 62
     7
370
    25
100
AcDbSpline
210
0.0
220
0.0
230
1.0
 70
     8
 71
     3
 72
     8
 73
     4
 74
     0
 42
0.00000001
 43
0.00000001
 40
0.0
 40
0.0
 40
0.0
 40
0.0
 40
1.0
 40
1.0
 40
1.0
 40
1.0
 10
238.3081702132699
 20
112.5132236733243
 30
0.0
 10
238.5553439941539
 20
112.0648883802729
 30
0.0
 10
238.7490656624578
 20
111.6127138895294
 30
0.0
 10
238.864508127034
 20
111.1549169954083
 30
0.0
  0
SPLINE
  5
100
330
1F
100
AcDbEntity
  8
0
  6
Continuous
 62
     7
370
    25
100
AcDbSpline
210
0.0
220
0.0
230
1.0
 70
     8
 71
     3
 72
    10
 73
     6
 74
     0
 42
0.00000001
 43
0.00000001
 40
0.0
 40
0.0
 40
0.0
 40
0.0
 40
0.5
 40
0.5
 40
1.0
 40
1.0
 40
1.0
 40
1.0
 10
238.3081702132699
 20
112.9462363752165
 30
0.0
 10
238.2844948188455
 20
112.860349313414
 30
0.0
 10
238.2714037089609
 20
112.7729421044339
 30
0.0
 10
238.2713173876726
 20
112.6203056618402
 30
0.0
 10
238.2844863216165
 20
112.5561826168946
 30
0.0
 10
238.3081702132699
 20
112.5132236733243
 30
0.0
  0
LINE
  5
101
330
1F
100
AcDbEntity
  8
0
  6
Continuous
 62
     7
370
    25
100
AcDbLine
 10
240.932130612
 20
116.9906066723
 30
0.0
 11
241.5394789708
 21
116.9906066723
 31
0.0
  0
ELLIPSE
  5
102
330
1F
100
AcDbEntity
  8
0
  6
Continuous
 62
     7
370
    25
100
AcDbEllipse
 10
240.932130612
 20
117.0714483893
 30
0.0
 11
0.08480161849064416
 21
-1.421085471520200E-14
 31
0.0
210
0.0
220
0.0
230
1.0
 40
0.9533039403
 41
2.798568711308549
 42
4.712388980384862
  0
LINE
  5
103
330
1F
100
AcDbEntity
  8
0
  6
Continuous
 62
     7
370
    25
100
AcDbLine
 10
241.1559435549
 20
117.9092210182
 30
0.0
 11
240.8522693738
 21
117.0986384013
 31
0.0
  0
ELLIPSE
  5
104
330
1F
100
AcDbEntity
  8
0
  6
Continuous
 62
     7
370
    25
100
AcDbEllipse
 10
241.2358047932
 20
117.8820310063
 30
0.0
 11
0.08480161849064416
 21
1.421085471520200E-14
 31
0.0
210
0.0
220
0.0
230
1.0
 40
0.9533039403
 41
0.3430239404204655
 42
2.798568713169093
  0
LINE
  5
105
330
1F
100
AcDbEntity
  8
0
  6
Continuous
 62
     7
370
    25
100
AcDbLine
 10
241.6193402092
 20
117.098638401
 30
0.0
 11
241.3156660315
 21
117.9092210182
 31
0.0
  0
ELLIPSE
  5
106
330
1F
100
AcDbEntity
  8
0
  6
Continuous
 62
     7
370
    25
100
AcDbEllipse
 10
241.5394789708
 20
117.0714483893
 30
0.0
 11
-0.08480161849067258
 21
-4.263256414560601E-14
 31
0.0
210
0.0
220
0.0
230
1.0
 40
0.9533039403
 41
1.570796326794417
 42
3.484616592149421
  0
SPLINE
  5
107
330
1F
100
AcDbEntity
  8
0
  6
Continuous
 62
     7
370
    25
100
AcDbSpline
210
0.0
220
0.0
230
1.0
 70
     8
 71
     3
 72
     8
 73
     4
 74
     0
 42
0.00000001
 43
0.00000001
 40
0.0
 40
0.0
 40
0.0
 40
0.0
 40
1.0
 40
1.0
 40
1.0
 40
1.0
 10
237.6965154339135
 20
110.2756623441048
 30
0.0
 10
238.0055325765553
 20
110.3766674519349
 30
0.0
 10
238.3208503328732
 20
110.4733242410008
 30
0.0
 10
238.6433296597163
 20
110.5650385287335
 30
0.0
  0
SPLINE
  5
108
330
1F
100
AcDbEntity
  8
0
  6
Continuous
 62
     7
370
    25
100
AcDbSpline
210
0.0
220
0.0
230
1.0
 70
     8
 71
     3
 72
    12
 73
     8
 74
     0
 42
0.00000001
 43
0.00000001
 40
0.0
 40
0.0
 40
0.0
 40
0.0
 40
0.2500000000000002
 40
0.2500000000000002
 40
0.5000000000000004
 40
0.5000000000000004
 40
1.0
 40
1.0
 40
1.0
 40
1.0
 10
237.6965154339083
 20
110.2756623440986
 30
0.0
 10
237.8865416092115
 20
110.2719538582422
 30
0.0
 10
238.0767566718973
 20
110.2533713554045
 30
0.0
 10
238.4536934310297
 20
110.1885043184384
 30
0.0
 10
238.6410162222892
 20
110.1422387651881
 30
0.0
 10
239.1999261786033
 20
109.9665142348812
 30
0.0
 10
239.5684618367136
 20
109.8002108261044
 30
0.0
 10
239.9340767631209
 20
109.5986419888785
 30
0.0
  0
LINE
  5
109
330
1F
100
AcDbEntity
  8
0
  6
Continuous
 62
     7
370
    25
100
AcDbLine
 10
256.163832646
 20
112.5132236733
 30
0.0
 11
251.6636130238
 21
112.5132236733
 31
0.0
  0
SPLINE
  5
10A
330
1F
100
AcDbEntity
  8
0
  6
Continuous
 62
     7
370
    25
100
AcDbSpline
210
0.0
220
0.0
230
1.0
 70
     8
 71
     3
 72
    10
 73
     6
 74
     0
 42
0.00000001
 43
0.00000001
 40
0.0
 40
0.0
 40
0.0
 40
0.0
 40
0.5
 40
0.5
 40
1.0
 40
1.0
 40
1.0
 40
1.0
 10
256.1638326459724
 20
112.9462363752165
 30
0.0
 10
256.140157251548
 20
112.860349313414
 30
0.0
 10
256.1270661416635
 20
112.7729421044339
 30
0.0
 10
256.1269798203753
 20
112.6203056618402
 30
0.0
 10
256.1401487543191
 20
112.5561826168946
 30
0.0
 10
256.1638326459725
 20
112.5132236733243
 30
0.0
  0
LINE
  5
10B
330
1F
100
AcDbEntity
  8
0
  6
Continuous
 62
     7
370
    25
100
AcDbLine
 10
251.6636130238
 20
122.6168533841
 30
0.0
 11
256.163832646
 21
122.6168533841
 31
0.0
  0
SPLINE
  5
10C
330
1F
100
AcDbEntity
  8
0
  6
Continuous
 62
     7
370
    25
100
AcDbSpline
210
0.0
220
0.0
230
1.0
 70
     8
 71
     3
 72
    10
 73
     6
 74
     0
 42
0.00000001
 43
0.00000001
 40
0.0
 40
0.0
 40
0.0
 40
0.0
 40
0.5
 40
0.5
 40
1.0
 40
1.0
 40
1.0
 40
1.0
 10
256.1638326459725
 20
122.6168533841427
 30
0.0
 10
256.1401572515481
 20
122.5739098532415
 30
0.0
 10
256.1270661416635
 20
122.5104674086174
 30
0.0
 10
256.1269798203753
 20
122.3579885714984
 30
0.0
 10
256.1401487543191
 20
122.2697585693912
 30
0.0
 10
256.1638326459725
 20
122.1838406822505
 30
0.0
  0
LINE
  5
10D
330
1F
100
AcDbEntity
  8
0
  6
Continuous
 62
     7
370
    25
100
AcDbLine
 10
238.3081702133
 20
112.5132236733
 30
0.0
 11
234.1636130238
 21
112.5132236733
 31
0.0
  0
SPLINE
  5
10E
330
1F
100
AcDbEntity
  8
0
  6
Continuous
 62
     7
370
    25
100
AcDbSpline
210
0.0
220
0.0
230
1.0
 70
     8
 71
     3
 72
     8
 73
     4
 74
     0
 42
0.00000001
 43
0.00000001
 40
0.0
 40
0.0
 40
0.0
 40
0.0
 40
1.0
 40
1.0
 40
1.0
 40
1.0
 10
251.328453577344
 20
110.5650385287335
 30
0.0
 10
251.6509329041933
 20
110.473324240999
 30
0.0
 10
251.9662506605173
 20
110.3766674519311
 30
0.0
 10
252.2752678031647
 20
110.2756623440989
 30
0.0
  0
SPLINE
  5
10F
330
1F
100
AcDbEntity
  8
0
  6
Continuous
 62
     7
370
    25
100
AcDbSpline
210
0.0
220
0.0
230
1.0
 70
     8
 71
     3
 72
    10
 73
     6
 74
     0
 42
0.00000001
 43
0.00000001
 40
0.0
 40
0.0
 40
0.0
 40
0.0
 40
0.5
 40
0.5
 40
1.0
 40
1.0
 40
1.0
 40
1.0
 10
250.0377064739396
 20
109.5986419888787
 30
0.0
 10
250.4042244207801
 20
109.8007086744296
 30
0.0
 10
250.773304646246
 20
109.9671014467002
 30
0.0
 10
251.5185569944734
 20
110.2011484205703
 30
0.0
 10
251.8947697664212
 20
110.2682366745291
 30
0.0
 10
252.2752678031647
 20
110.2756623440989
 30
0.0
  0
LINE
  5
110
330
1F
100
AcDbEntity
  8
0
  6
Continuous
 62
     7
370
    25
100
AcDbLine
 10
237.6246756864
 20
105.5650385287
 30
0.0
 11
244.9858916185
 21
105.5650385287
 31
0.0
  0
SPLINE
  5
111
330
1F
100
AcDbEntity
  8
0
  6
Continuous
 62
     7
370
    25
100
AcDbSpline
210
0.0
220
0.0
230
1.0
 70
     8
 71
     3
 72
    10
 73
     6
 74
     0
 42
0.00000001
 43
0.00000001
 40
0.0
 40
0.0
 40
0.0
 40
0.0
 40
0.5
 40
0.5
 40
1.0
 40
1.0
 40
1.0
 40
1.0
 10
239.9340767631209
 20
106.2427599339932
 30
0.0
 10
239.5553276157297
 20
106.033950009327
 30
0.0
 10
239.1741223393183
 20
105.8634158695797
 30
0.0
 10
238.4048917181306
 20
105.6286300645608
 30
0.0
 10
238.0168240133322
 20
105.5650385287335
 30
0.0
 10
237.6246756863624
 20
105.5650385287335
 30
0.0
  0
SPLINE
  5
112
330
1F
100
AcDbEntity
  8
0
  6
Continuous
 62
     7
370
    25
100
AcDbSpline
210
0.0
220
0.0
230
1.0
 70
     8
 71
     3
 72
    16
 73
    12
 74
     0
 42
0.00000001
 43
0.00000001
 40
0.0
 40
0.0
 40
0.0
 40
0.0
 40
0.2500000000000001
 40
0.2500000000000001
 40
0.5000000000000001
 40
0.5000000000000001
 40
0.6250000000000001
 40
0.6250000000000001
 40
0.7500000000000002
 40
0.7500000000000002
 40
1.0
 40
1.0
 40
1.0
 40
1.0
 10
256.1638326459725
 20
127.2356555376598
 30
0.0
 10
256.3718480940783
 20
126.8583474487832
 30
0.0
 10
256.5420543990513
 20
126.4783237184091
 30
0.0
 10
256.7769904306189
 20
125.7107004029984
 30
0.0
 10
256.8410625622825
 20
125.3230535862095
 30
0.0
 10
256.8417955112035
 20
124.7347330343217
 30
0.0
 10
256.8261360311205
 20
124.5376598417661
 30
0.0
 10
256.7648609044836
 20
124.147602864212
 30
0.0
 10
256.7193046319845
 20
123.9538099636239
 30
0.0
 10
256.5428185992282
 20
123.3757289788605
 30
0.0
 10
256.3721621457425
 20
122.9947311145257
 30
0.0
 10
256.1638326459725
 20
122.6168533841427
 30
0.0
  0
SPLINE
  5
113
330
1F
100
AcDbEntity
  8
0
  6
Continuous
 62
     7
370
    25
100
AcDbSpline
210
0.0
220
0.0
230
1.0
 70
     8
 71
     3
 72
    10
 73
     6
 74
     0
 42
0.00000001
 43
0.00000001
 40
0.0
 40
0.0
 40
0.0
 40
0.0
 40
0.1601790552921226
 40
0.7197651707803578
 40
1.0
 40
1.0
 40
1.0
 40
1.0
 10
256.1296032128556
 20
127.2979338164095
 30
0.0
 10
256.1288404227624
 20
127.2993260444359
 30
0.0
 10
256.1254128226886
 20
127.3055820261642
 30
0.0
 10
256.1399202874869
 20
127.2790747614363
 30
0.0
 10
256.1578498406047
 20
127.2465189062911
 30
0.0
 10
256.1638326459725
 20
127.2356555376598
 30
0.0
  0
SPLINE
  5
114
330
1F
100
AcDbEntity
  8
0
  6
Continuous
 62
     7
370
    25
100
AcDbSpline
210
0.0
220
0.0
230
1.0
 70
     8
 71
     3
 72
     9
 73
     5
 74
     0
 42
0.00000001
 43
0.00000001
 40
0.0
 40
0.0
 40
0.0
 40
0.0
 40
0.5797912171256352
 40
1.0
 40
1.0
 40
1.0
 40
1.0
 10
256.1638326459725
 20
107.8944215198073
 30
0.0
 10
256.151474042626
 20
107.8719478715661
 30
0.0
 10
256.1301584328316
 20
107.8331862491453
 30
0.0
 10
256.1297674903289
 20
107.8324518443871
 30
0.0
 10
256.1296032128556
 20
107.8321432410575
 30
0.0
  0
SPLINE
  5
115
330
1F
100
AcDbEntity
  8
0
  6
Continuous
 62
     7
370
    25
100
AcDbSpline
210
0.0
220
0.0
230
1.0
 70
     8
 71
     3
 72
    16
 73
    12
 74
     0
 42
0.00000001
 43
0.00000001
 40
0.0
 40
0.0
 40
0.0
 40
0.0
 40
0.2500000000000001
 40
0.2500000000000001
 40
0.5000000000000002
 40
0.5000000000000002
 40
0.6250000000000001
 40
0.6250000000000001
 40
0.7500000000000001
 40
0.7500000000000001
 40
1.0
 40
1.0
 40
1.0
 40
1.0
 10
256.1638326459725
 20
112.5132236733243
 30
0.0
 10
256.3718480940783
 20
112.1359155844478
 30
0.0
 10
256.5420543990513
 20
111.7558918540736
 30
0.0
 10
256.7769904306189
 20
110.9882685386629
 30
0.0
 10
256.8410625622825
 20
110.6006217218741
 30
0.0
 10
256.8417955112035
 20
110.0123011699863
 30
0.0
 10
256.8261360311205
 20
109.8152279774306
 30
0.0
 10
256.7648609044836
 20
109.4251709998765
 30
0.0
 10
256.7193046319845
 20
109.2313780992885
 30
0.0
 10
256.5428185992282
 20
108.653297114525
 30
0.0
 10
256.3721621457424
 20
108.2722992501902
 30
0.0
 10
256.1638326459725
 20
107.8944215198073
 30
0.0
  0
LINE
  5
116
330
1F
100
AcDbEntity
  8
0
  6
Continuous
 62
     7
370
    25
100
AcDbLine
 10
256.9858916185
 20
125.8150385287
 30
0.0
 11
256.9858916185
 21
109.3150385287
 31
0.0
  0
LINE
  5
117
330
1F
100
AcDbEntity
  8
0
  6
Continuous
 62
     7
370
    25
100
AcDbLine
 10
234.1636130238
 20
122.6168533841
 30
0.0
 11
238.3081702133
 21
122.6168533841
 31
0.0
  0
SPLINE
  5
118
330
1F
100
AcDbEntity
  8
0
  6
Continuous
 62
     7
370
    25
100
AcDbSpline
210
0.0
220
0.0
230
1.0
 70
     8
 71
     3
 72
    12
 73
     8
 74
     0
 42
0.00000001
 43
0.00000001
 40
0.0
 40
0.0
 40
0.0
 40
0.0
 40
0.2499999999999998
 40
0.2499999999999998
 40
0.4999999999999996
 40
0.4999999999999996
 40
1.0
 40
1.0
 40
1.0
 40
1.0
 10
252.3471075506978
 20
105.5650385287335
 30
0.0
 10
252.152104070692
 20
105.5650385287335
 30
0.0
 10
251.9555694116676
 20
105.5807848587555
 30
0.0
 10
251.5661497240621
 20
105.6422298833409
 30
0.0
 10
251.3726650310019
 20
105.6878186425946
 30
0.0
 10
250.7954814322462
 20
105.8642696448512
 30
0.0
 10
250.4150456504633
 20
106.0347273468147
 30
0.0
 10
250.0377064739394
 20
106.2427599339936
 30
0.0
  0
LINE
  5
119
330
1F
100
AcDbEntity
  8
0
  6
Continuous
 62
     7
370
    25
100
AcDbLine
 10
244.9858916185
 20
105.5650385287
 30
0.0
 11
252.3471075507
 21
105.5650385287
 31
0.0
  0
SPLINE
  5
11A
330
1F
100
AcDbEntity
  8
0
  6
Continuous
 62
     7
370
    25
100
AcDbSpline
210
0.0
220
0.0
230
1.0
 70
     8
 71
     3
 72
    12
 73
     8
 74
     0
 42
0.00000001
 43
0.00000001
 40
0.0
 40
0.0
 40
0.0
 40
0.0
 40
0.2499999999999999
 40
0.2499999999999999
 40
0.4999999999999998
 40
0.4999999999999998
 40
1.0
 40
1.0
 40
1.0
 40
1.0
 10
250.9858916185301
 20
124.9262544609012
 30
0.0
 10
250.9858916185301
 20
125.1219967237808
 30
0.0
 10
251.0017345546191
 20
125.3186633329713
 30
0.0
 10
251.0632374148568
 20
125.7079315602996
 30
0.0
 10
251.1088410559004
 20
125.9013355932525
 30
0.0
 10
251.2852920733897
 20
126.4782646445093
 30
0.0
 10
251.4556894406415
 20
126.8585140777123
 30
0.0
 10
251.6636130237903
 20
127.2356555376598
 30
0.0
  0
LINE
  5
11B
330
1F
100
AcDbEntity
  8
0
  6
Continuous
 62
     7
370
    25
100
AcDbLine
 10
256.163832646
 20
127.2356555377
 30
0.0
 11
251.6636130238
 21
127.2356555377
 31
0.0
  0
ELLIPSE
  5
11C
330
1F
100
AcDbEntity
  8
0
  6
Continuous
 62
     7
370
    25
100
AcDbEllipse
 10
244.9858916185
 20
107.7500839525
 30
0.0
 11
8.5
 21
0.0
 31
0.0
210
0.0
220
0.0
230
1.0
 40
0.5773502692
 41
2.374833212873087
 42
2.530692279913058
  0
LINE
  5
11D
330
1F
100
AcDbEntity
  8
0
  6
Continuous
 62
     7
370
    25
100
AcDbLine
 10
237.6965154339
 20
110.2756623441
 30
0.0
 11
235.3152746096
 21
107.8944215198
 31
0.0
  0
LINE
  5
11E
330
1F
100
AcDbEntity
  8
0
  6
Continuous
 62
     7
370
    25
100
AcDbLine
 10
234.1636130238
 20
107.8944215198
 30
0.0
 11
235.3152746096
 21
107.8944215198
 31
0.0
  0
SPLINE
  5
11F
330
1F
100
AcDbEntity
  8
0
  6
Continuous
 62
     7
370
    25
100
AcDbSpline
210
0.0
220
0.0
230
1.0
 70
     8
 71
     3
 72
    10
 73
     6
 74
     0
 42
0.00000001
 43
0.00000001
 40
0.0
 40
0.0
 40
0.0
 40
0.0
 40
0.5
 40
0.5
 40
1.0
 40
1.0
 40
1.0
 40
1.0
 10
234.1636130237898
 20
107.8944215198072
 30
0.0
 10
233.9548030991236
 20
108.2731706671985
 30
0.0
 10
233.7842689593763
 20
108.6543759436098
 30
0.0
 10
233.5494831543574
 20
109.4236065647976
 30
0.0
 10
233.4858916185301
 20
109.8116742695959
 30
0.0
 10
233.4858916185301
 20
110.2038225965658
 30
0.0
  0
ELLIPSE
  5
120
330
1F
100
AcDbEntity
  8
0
  6
Continuous
 62
     7
370
    25
100
AcDbEllipse
 10
244.9858916185
 20
107.7500839525
 30
0.0
 11
8.5
 21
0.0
 31
0.0
210
0.0
220
0.0
230
1.0
 40
0.5773502692
 41
0.6109003736767342
 42
0.7667594407167091
  0
LINE
  5
121
330
1F
100
AcDbEntity
  8
0
  6
Continuous
 62
     7
370
    25
100
AcDbLine
 10
254.6565086275
 20
107.8944215198
 30
0.0
 11
256.163832646
 21
107.8944215198
 31
0.0
  0
LINE
  5
122
330
1F
100
AcDbEntity
  8
0
  6
Continuous
 62
     7
370
    25
100
AcDbLine
 10
254.6565086275
 20
107.8944215198
 30
0.0
 11
252.2752678032
 21
110.2756623441
 31
0.0
  0
SPLINE
  5
123
330
1F
100
AcDbEntity
  8
0
  6
Continuous
 62
     7
370
    25
100
AcDbSpline
210
0.0
220
0.0
230
1.0
 70
     8
 71
     3
 72
    12
 73
     8
 74
     0
 42
0.00000001
 43
0.00000001
 40
0.0
 40
0.0
 40
0.0
 40
0.0
 40
0.2499999999999999
 40
0.2499999999999999
 40
0.5
 40
0.5
 40
1.0
 40
1.0
 40
1.0
 40
1.0
 10
233.4858916185301
 20
124.9262544609012
 30
0.0
 10
233.4858916185301
 20
125.121257940907
 30
0.0
 10
233.5016379485521
 20
125.3177925999315
 30
0.0
 10
233.5630829731375
 20
125.707212287537
 30
0.0
 10
233.6086717323913
 20
125.9006969805972
 30
0.0
 10
233.7851227346478
 20
126.4778805793529
 30
0.0
 10
233.9555804366113
 20
126.8583163611358
 30
0.0
 10
234.1636130237902
 20
127.2356555376598
 30
0.0
  0
LINE
  5
124
330
1F
100
AcDbEntity
  8
0
  6
Continuous
 62
     7
370
    25
100
AcDbLine
 10
238.3081702133
 20
127.2356555377
 30
0.0
 11
234.1636130238
 21
127.2356555377
 31
0.0
  0
SPLINE
  5
125
330
1F
100
AcDbEntity
  8
0
  6
Continuous
 62
     7
370
    25
100
AcDbSpline
210
0.0
220
0.0
230
1.0
 70
     8
 71
     3
 72
    10
 73
     6
 74
     0
 42
0.00000001
 43
0.00000001
 40
0.0
 40
0.0
 40
0.0
 40
0.0
 40
0.5
 40
0.5
 40
1.0
 40
1.0
 40
1.0
 40
1.0
 10
238.3081702132699
 20
127.2356555376598
 30
0.0
 10
238.5165909660873
 20
126.8576122882576
 30
0.0
 10
238.6870548013648
 20
126.4768427834618
 30
0.0
 10
238.9220372363032
 20
125.7076942579042
 30
0.0
 10
238.9858916185301
 20
125.319267529729
 30
0.0
 10
238.9858916185301
 20
124.9262544609012
 30
0.0
  0
LINE
  5
126
330
1F
100
AcDbEntity
  8
0
  6
Continuous
 62
     7
370
    25
100
AcDbLine
 10
254.6565086275
 20
106.242759934
 30
0.0
 11
254.6565086275
 21
107.8944215198
 31
0.0
  0
SPLINE
  5
127
330
1F
100
AcDbEntity
  8
0
  6
Continuous
 62
     7
370
    25
100
AcDbSpline
210
0.0
220
0.0
230
1.0
 70
     8
 71
     3
 72
    10
 73
     6
 74
     0
 42
0.00000001
 43
0.00000001
 40
0.0
 40
0.0
 40
0.0
 40
0.0
 40
0.5
 40
0.5
 40
1.0
 40
1.0
 40
1.0
 40
1.0
 10
254.6565086274564
 20
106.2427599339932
 30
0.0
 10
254.2777594800651
 20
106.033950009327
 30
0.0
 10
253.8965542036538
 20
105.8634158695797
 30
0.0
 10
253.127323582466
 20
105.6286300645608
 30
0.0
 10
252.7392558776677
 20
105.5650385287335
 30
0.0
 10
252.3471075506978
 20
105.5650385287335
 30
0.0
  0
SPLINE
  5
128
330
1F
100
AcDbEntity
  8
0
  6
Continuous
 62
     7
370
    25
100
AcDbSpline
210
0.0
220
0.0
230
1.0
 70
     8
 71
     3
 72
    12
 73
     8
 74
     0
 42
0.00000001
 43
0.00000001
 40
0.0
 40
0.0
 40
0.0
 40
0.0
 40
0.2500000000000002
 40
0.2500000000000002
 40
0.5000000000000001
 40
0.5000000000000001
 40
1.0
 40
1.0
 40
1.0
 40
1.0
 10
237.6246756863624
 20
105.5650385287335
 30
0.0
 10
237.4296722063566
 20
105.5650385287335
 30
0.0
 10
237.2331375473322
 20
105.5807848587555
 30
0.0
 10
236.8437178597267
 20
105.6422298833409
 30
0.0
 10
236.6502331666664
 20
105.6878186425946
 30
0.0
 10
236.0730495679108
 20
105.8642696448512
 30
0.0
 10
235.6926137861278
 20
106.0347273468147
 30
0.0
 10
235.3152746096039
 20
106.2427599339936
 30
0.0
  0
LINE
  5
129
330
1F
100
AcDbEntity
  8
0
  6
Continuous
 62
     7
370
    25
100
AcDbLine
 10
235.3152746096
 20
107.8944215198
 30
0.0
 11
235.3152746096
 21
106.242759934
 31
0.0
  0
LINE
  5
12A
330
1F
100
AcDbEntity
  8
0
  6
Continuous
 62
     7
370
    25
100
AcDbLine
 10
240.9858916185
 20
113.5650385287
 30
0.0
 11
238.9858916185
 21
111.5650385287
 31
0.0
  0
LINE
  5
12B
330
1F
100
AcDbEntity
  8
0
  6
Continuous
 62
     7
370
    25
100
AcDbLine
 10
238.0232705459
 20
110.5650385287
 30
0.0
 11
240.9858916185
 21
110.5650385287
 31
0.0
  0
LINE
  5
12C
330
1F
100
AcDbEntity
  8
0
  6
Continuous
 62
     7
370
    25
100
AcDbLine
 10
250.9858916185
 20
111.5650385287
 30
0.0
 11
248.9858916185
 21
113.5650385287
 31
0.0
  0
LINE
  5
12D
330
1F
100
AcDbEntity
  8
0
  6
Continuous
 62
     7
370
    25
100
AcDbLine
 10
248.9858916185
 20
110.5650385287
 30
0.0
 11
251.9485126912
 21
110.5650385287
 31
0.0
  0
LINE
  5
12E
330
1F
100
AcDbEntity
  8
0
  6
Continuous
 62
     7
370
    25
100
AcDbLine
 10
238.9858916185
 20
125.499493007
 30
0.0
 11
238.9858916185
 21
124.9262544609
 31
0.0
  0
SPLINE
  5
12F
330
1F
100
AcDbEntity
  8
0
  6
Continuous
 62
     7
370
    25
100
AcDbSpline
210
0.0
220
0.0
230
1.0
 70
     8
 71
     3
 72
    32
 73
    28
 74
     0
 42
0.00000001
 43
0.00000001
 40
0.0
 40
0.0
 40
0.0
 40
0.0
 40
0.0625000000000001
 40
0.0625000000000001
 40
0.1250000000000001
 40
0.1250000000000001
 40
0.1875000000000002
 40
0.1875000000000002
 40
0.2500000000000003
 40
0.2500000000000003
 40
0.3750000000000003
 40
0.3750000000000003
 40
0.4375000000000003
 40
0.4375000000000003
 40
0.5000000000000002
 40
0.5000000000000002
 40
0.5625000000000002
 40
0.5625000000000002
 40
0.6250000000000001
 40
0.6250000000000001
 40
0.7500000000000001
 40
0.7500000000000001
 40
0.8750000000000002
 40
0.8750000000000002
 40
0.9375000000000001
 40
0.9375000000000001
 40
1.0
 40
1.0
 40
1.0
 40
1.0
 10
250.9858916185216
 20
125.4994930069542
 30
0.0
 10
250.8290352826048
 20
125.4045360290585
 30
0.0
 10
250.6560368484491
 20
125.3017828544333
 30
0.0
 10
250.2793322618233
 20
125.085071652785
 30
0.0
 10
250.0764794813666
 20
124.971652942295
 30
0.0
 10
249.6504982185641
 20
124.7435628055968
 30
0.0
 10
249.426320258276
 20
124.628255923145
 30
0.0
 10
248.9549691646996
 20
124.3999328207702
 30
0.0
 10
248.7062836493345
 20
124.2862828046365
 30
0.0
 10
247.9357111646429
 20
123.9632187734024
 30
0.0
 10
247.3900737545607
 20
123.7703202492389
 30
0.0
 10
246.5072940060644
 20
123.5587263239652
 30
0.0
 10
246.2086549061915
 20
123.5030839378475
 30
0.0
 10
245.6021533054758
 20
123.4274158684836
 30
0.0
 10
245.2920060668098
 20
123.4074426227073
 30
0.0
 10
244.6719205781261
 20
123.4077763889606
 30
0.0
 10
244.365349540658
 20
123.4277753542833
 30
0.0
 10
243.7586947933499
 20
123.5038141404798
 30
0.0
 10
243.4563217287246
 20
123.5604672406114
 30
0.0
 10
242.5796854259716
 20
123.7712457906572
 30
0.0
 10
242.0316312939947
 20
123.964791621229
 30
0.0
 10
241.0011340267514
 20
124.3974109145047
 30
0.0
 10
240.5335739914719
 20
124.6298875591952
 30
0.0
 10
239.895360387844
 20
124.9716255601142
 30
0.0
 10
239.6921506496542
 20
125.0852430755426
 30
0.0
 10
239.3158137232597
 20
125.3017454678989
 30
0.0
 10
239.1428351147682
 20
125.4044832643433
 30
0.0
 10
238.9858916185302
 20
125.4994930069593
 30
0.0
  0
LINE
  5
130
330
1F
100
AcDbEntity
  8
0
  6
Continuous
 62
     7
370
    25
100
AcDbLine
 10
250.9858916185
 20
125.499493007
 30
0.0
 11
250.9858916185
 21
124.9262544609
 31
0.0
  0
LINE
  5
131
330
1F
100
AcDbEntity
  8
0
  6
Continuous
 62
     7
370
    25
100
AcDbLine
 10
238.52133956
 20
96.1687044026
 30
0.0
 11
251.4504436771
 21
96.1687044026
 31
0.0
  0
SPLINE
  5
132
330
1F
100
AcDbEntity
  8
0
  6
Continuous
 62
     7
370
    25
100
AcDbSpline
210
0.0
220
0.0
230
1.0
 70
     8
 71
     3
 72
    12
 73
     8
 74
     0
 42
0.00000001
 43
0.00000001
 40
0.0
 40
0.0
 40
0.0
 40
0.0
 40
0.0821630624178141
 40
0.309685604018613
 40
0.5424999421076125
 40
0.7710657104360309
 40
0.9999999999999999
 40
0.9999999999999999
 40
0.9999999999999999
 40
0.9999999999999999
 10
251.1593309858426
 20
126.3582485908932
 30
0.0
 10
251.1604628577576
 20
126.3620178732684
 30
0.0
 10
251.1647290623923
 20
126.3762248959223
 30
0.0
 10
251.1322738419142
 20
126.2688688892981
 30
0.0
 10
251.0763093736555
 20
126.0629310738226
 30
0.0
 10
251.0080999445652
 20
125.7796356129982
 30
0.0
 10
250.9932983681516
 20
125.5929240083719
 30
0.0
 10
250.9858916185301
 20
125.4994930069522
 30
0.0
  0
SPLINE
  5
133
330
1F
100
AcDbEntity
  8
0
  6
Continuous
 62
     7
370
    25
100
AcDbSpline
210
0.0
220
0.0
230
1.0
 70
     8
 71
     3
 72
    11
 73
     7
 74
     0
 42
0.00000001
 43
0.00000001
 40
0.0
 40
0.0
 40
0.0
 40
0.0
 40
0.3176465425945492
 40
0.6359802408029879
 40
0.8657171348848804
 40
0.9999999999999999
 40
0.9999999999999999
 40
0.9999999999999999
 40
0.9999999999999999
 10
238.9858916185301
 20
125.4994930069592
 30
0.0
 10
238.9722528291265
 20
125.6307577503678
 30
0.0
 10
238.9449457459192
 20
125.8935711984225
 30
0.0
 10
238.8569415367109
 20
126.2052141852388
 30
0.0
 10
238.8123821889398
 20
126.3589571560809
 30
0.0
 10
238.8127304600446
 20
126.3574453629832
 30
0.0
 10
238.8128589334052
 20
126.3568876792216
 30
0.0
  0
LINE
  5
134
330
1F
100
AcDbEntity
  8
0
  6
Continuous
 62
     7
370
    25
100
AcDbLine
 10
239.0858916185
 20
127.0650385287
 30
0.0
 11
239.0865415535
 21
127.0644865492
 31
0.0
  0
LINE
  5
135
330
1F
100
AcDbEntity
  8
0
  6
Continuous
 62
     7
370
    25
100
AcDbLine
 10
250.2358916185
 20
94.0650385287
 30
0.0
 11
239.7358916185
 21
94.0650385287
 31
0.0
  0
SPLINE
  5
136
330
1F
100
AcDbEntity
  8
0
  6
Continuous
 62
     7
370
    25
100
AcDbSpline
210
0.0
220
0.0
230
1.0
 70
     8
 71
     3
 72
    10
 73
     6
 74
     0
 42
0.00000001
 43
0.00000001
 40
0.0
 40
0.0
 40
0.0
 40
0.0
 40
0.1601790552921523
 40
0.7197651707804853
 40
1.0
 40
1.0
 40
1.0
 40
1.0
 10
238.273940780153
 20
127.2979338164095
 30
0.0
 10
238.2731779900598
 20
127.2993260444359
 30
0.0
 10
238.2697503899861
 20
127.3055820261642
 30
0.0
 10
238.2842578547843
 20
127.2790747614363
 30
0.0
 10
238.3021874079022
 20
127.2465189062911
 30
0.0
 10
238.3081702132699
 20
127.2356555376598
 30
0.0
  0
SPLINE
  5
137
330
1F
100
AcDbEntity
  8
0
  6
Continuous
 62
     7
370
    25
100
AcDbSpline
210
0.0
220
0.0
230
1.0
 70
     8
 71
     3
 72
     9
 73
     5
 74
     0
 42
0.00000001
 43
0.00000001
 40
0.0
 40
0.0
 40
0.0
 40
0.0
 40
0.5797912171256431
 40
1.0
 40
1.0
 40
1.0
 40
1.0
 10
251.6636130237903
 20
127.2356555376598
 30
0.0
 10
251.6759716271368
 20
127.2581291859009
 30
0.0
 10
251.6972872369312
 20
127.2968908083217
 30
0.0
 10
251.697678179434
 20
127.2976252130799
 30
0.0
 10
251.6978424569072
 20
127.2979338164095
 30
0.0
  0
SPLINE
  5
138
330
1F
100
AcDbEntity
  8
0
  6
Continuous
 62
     7
370
    25
100
AcDbSpline
210
0.0
220
0.0
230
1.0
 70
     8
 71
     3
 72
    10
 73
     6
 74
     0
 42
0.00000001
 43
0.00000001
 40
0.0
 40
0.0
 40
0.0
 40
0.0
 40
0.1593935212994522
 40
0.7189934545690309
 40
1.0
 40
1.0
 40
1.0
 40
1.0
 10
234.1978500133678
 20
127.2979476171262
 30
0.0
 10
234.1986115403652
 20
127.2993375359528
 30
0.0
 10
234.2020466418812
 20
127.3056071918998
 30
0.0
 10
234.1875520194147
 20
127.279123250076
 30
0.0
 10
234.1696106489219
 20
127.2465458460291
 30
0.0
 10
234.1636130237903
 20
127.2356555376598
 30
0.0
  0
LINE
  5
139
330
1F
100
AcDbEntity
  8
0
  6
Continuous
 62
     7
370
    25
100
AcDbLine
 10
233.4858916185
 20
126.0650385287
 30
0.0
 11
233.4858916185
 21
124.9262544609
 31
0.0
  0
SPLINE
  5
13A
330
1F
100
AcDbEntity
  8
0
  6
Continuous
 62
     7
370
    25
100
AcDbSpline
210
0.0
220
0.0
230
1.0
 70
     8
 71
     3
 72
     9
 73
     5
 74
     0
 42
0.00000001
 43
0.00000001
 40
0.0
 40
0.0
 40
0.0
 40
0.0
 40
0.5789479223911498
 40
1.0
 40
1.0
 40
1.0
 40
1.0
 10
254.6565086274564
 20
106.2427599339937
 30
0.0
 10
254.678949994649
 20
106.2551008243081
 30
0.0
 10
254.7177123190736
 20
106.276416887182
 30
0.0
 10
254.7184782219327
 20
106.2768250610964
 30
0.0
 10
254.7188007069227
 20
106.2769969235711
 30
0.0
  0
LINE
  5
13B
330
1F
100
AcDbEntity
  8
0
  6
Continuous
 62
     7
370
    25
100
AcDbLine
 10
252.3471075507
 20
105.5650385287
 30
0.0
 11
253.4858916185
 21
105.5650385287
 31
0.0
  0
SPLINE
  5
13C
330
1F
100
AcDbEntity
  8
0
  6
Continuous
 62
     7
370
    25
100
AcDbSpline
210
0.0
220
0.0
230
1.0
 70
     8
 71
     3
 72
     9
 73
     5
 74
     0
 42
0.00000001
 43
0.00000001
 40
0.0
 40
0.0
 40
0.0
 40
0.0
 40
0.5789479223839474
 40
0.9999999999999999
 40
0.9999999999999999
 40
0.9999999999999999
 40
0.9999999999999999
 10
234.1636130237903
 20
107.8944215198073
 30
0.0
 10
234.1759539141046
 20
107.8719801526149
 30
0.0
 10
234.1972699769785
 20
107.8332178281904
 30
0.0
 10
234.197678150893
 20
107.832451925331
 30
0.0
 10
234.1978500133678
 20
107.8321294403408
 30
0.0
  0
LINE
  5
13D
330
1F
100
AcDbEntity
  8
0
  6
Continuous
 62
     7
370
    25
100
AcDbLine
 10
233.4858916185
 20
110.2038225966
 30
0.0
 11
233.4858916185
 21
109.0650385287
 31
0.0
  0
SPLINE
  5
13E
330
1F
100
AcDbEntity
  8
0
  6
Continuous
 62
     7
370
    25
100
AcDbSpline
210
0.0
220
0.0
230
1.0
 70
     8
 71
     3
 72
    10
 73
     6
 74
     0
 42
0.00000001
 43
0.00000001
 40
0.0
 40
0.0
 40
0.0
 40
0.0
 40
0.1593935213061655
 40
0.7189934545756295
 40
1.0
 40
1.0
 40
1.0
 40
1.0
 10
235.2529825301376
 20
106.2769969235711
 30
0.0
 10
235.2515926113109
 20
106.2777584505685
 30
0.0
 10
235.2453229553641
 20
106.2811935520844
 30
0.0
 10
235.2718068971881
 20
106.2666989296178
 30
0.0
 10
235.3043843012348
 20
106.2487575591252
 30
0.0
 10
235.3152746096039
 20
106.2427599339937
 30
0.0
  0
LINE
  5
13F
330
1F
100
AcDbEntity
  8
0
  6
Continuous
 62
     7
370
    25
100
AcDbLine
 10
236.4858916185
 20
105.5650385287
 30
0.0
 11
237.6246756864
 21
105.5650385287
 31
0.0
  0
LINE
  5
140
330
1F
100
AcDbEntity
  8
0
  6
Continuous
 62
     7
370
    25
100
AcDbLine
 10
254.7234959256
 20
107.8274342217
 30
0.0
 11
254.6565086275
 21
107.8944215198
 31
0.0
  0
LINE
  5
141
330
1F
100
AcDbEntity
  8
0
  6
Continuous
 62
     7
370
    25
100
AcDbLine
 10
235.3152746096
 20
107.8944215198
 30
0.0
 11
235.2482873115
 21
107.8274342217
 31
0.0
  0
LINE
  5
142
330
1F
100
AcDbEntity
  8
0
  6
Continuous
 62
     7
370
    25
100
AcDbLine
 10
250.2249769512
 20
144.0650385287
 30
0.0
 11
250.2249769512
 21
144.6650385287
 31
0.0
  0
LINE
  5
143
330
1F
100
AcDbEntity
  8
0
  6
Continuous
 62
     7
370
    25
100
AcDbLine
 10
239.7468062859
 20
144.0650385287
 30
0.0
 11
250.2249769512
 21
144.0650385287
 31
0.0
  0
LINE
  5
144
330
1F
100
AcDbEntity
  8
0
  6
Continuous
 62
     7
370
    25
100
AcDbLine
 10
239.7468062859
 20
144.6650385287
 30
0.0
 11
239.7468062859
 21
144.0650385287
 31
0.0
  0
LINE
  5
145
330
1F
100
AcDbEntity
  8
0
  6
Continuous
 62
     7
370
    25
100
AcDbLine
 10
250.2249769512
 20
144.6650385287
 30
0.0
 11
239.7468062859
 21
144.6650385287
 31
0.0
  0
SPLINE
  5
146
330
1F
100
AcDbEntity
  8
0
  6
Continuous
 62
     7
370
    25
100
AcDbSpline
210
0.0
220
0.0
230
1.0
 70
     8
 71
     3
 72
    15
 73
    11
 74
     0
 42
0.00000001
 43
0.00000001
 40
0.0
 40
0.0
 40
0.0
 40
0.0
 40
0.0090459071881971
 40
0.1032433785236816
 40
0.1542564497735189
 40
0.31331690267151
 40
0.5243720399414428
 40
0.6678060008509183
 40
0.9918332554187028
 40
1.0
 40
1.0
 40
1.0
 40
1.0
 10
250.2249769511882
 20
144.6650385287335
 30
0.0
 10
250.2249712592215
 20
144.6667196273179
 30
0.0
 10
250.2249062952708
 20
144.6859064588734
 30
0.0
 10
250.2229106088349
 20
144.7146007383934
 30
0.0
 10
250.2150936126185
 20
144.7652767783654
 30
0.0
 10
250.1979237888635
 20
144.8231530779423
 30
0.0
 10
250.1713398922959
 20
144.8680185926769
 30
0.0
 10
250.1335105938073
 20
144.9053809759315
 30
0.0
 10
250.1052298137971
 20
144.9149269882009
 30
0.0
 10
250.0853986662658
 20
144.9150358523877
 30
0.0
 10
250.084911132123
 20
144.9150385287335
 30
0.0
  0
SPLINE
  5
147
330
1F
100
AcDbEntity
  8
0
  6
Continuous
 62
     7
370
    25
100
AcDbSpline
210
0.0
220
0.0
230
1.0
 70
     8
 71
     3
 72
    15
 73
    11
 74
     0
 42
0.00000001
 43
0.00000001
 40
0.0
 40
0.0
 40
0.0
 40
0.0
 40
0.0081667445812973
 40
0.3321939991490804
 40
0.475627960058556
 40
0.6866830973284891
 40
0.8457435502264751
 40
0.8967566214763124
 40
0.9909540928118028
 40
1.0
 40
1.0
 40
1.0
 40
1.0
 10
239.8868721049373
 20
144.9150385287335
 30
0.0
 10
239.8863845707945
 20
144.9150358523877
 30
0.0
 10
239.8665534232632
 20
144.9149269882009
 30
0.0
 10
239.838272643253
 20
144.9053809759315
 30
0.0
 10
239.8004433447643
 20
144.8680185926769
 30
0.0
 10
239.7738594481968
 20
144.8231530779423
 30
0.0
 10
239.7566896244418
 20
144.7652767783654
 30
0.0
 10
239.7488726282254
 20
144.7146007383934
 30
0.0
 10
239.7468769417895
 20
144.6859064588734
 30
0.0
 10
239.7468119778387
 20
144.6667196273179
 30
0.0
 10
239.746806285872
 20
144.6650385287335
 30
0.0
  0
LINE
  5
148
330
1F
100
AcDbEntity
  8
0
  6
Continuous
 62
     7
370
    25
100
AcDbLine
 10
239.8868721049
 20
144.9150385287
 30
0.0
 11
250.0849111321
 21
144.9150385287
 31
0.0
  0
SPLINE
  5
149
330
1F
100
AcDbEntity
  8
0
  6
Continuous
 62
     7
370
    25
100
AcDbSpline
210
0.0
220
0.0
230
1.0
 70
     8
 71
     3
 72
    15
 73
    11
 74
     0
 42
0.00000001
 43
0.00000001
 40
0.0
 40
0.0
 40
0.0
 40
0.0
 40
0.0089557228015919
 40
0.0999003359608209
 40
0.1531632460581751
 40
0.3125636920784904
 40
0.5249666935695061
 40
0.6689893599351777
 40
0.991915253381045
 40
1.0
 40
1.0
 40
1.0
 40
1.0
 10
239.5086660434785
 20
144.6650385287335
 30
0.0
 10
239.5086817990571
 20
144.6667196543064
 30
0.0
 10
239.5088575512137
 20
144.6854724689308
 30
0.0
 10
239.5142865672332
 20
144.7142346980384
 30
0.0
 10
239.5358220509405
 20
144.7651217715067
 30
0.0
 10
239.5835274792053
 20
144.8232574216393
 30
0.0
 10
239.6559184241972
 20
144.8679652948227
 30
0.0
 10
239.7578375362149
 20
144.9052471182845
 30
0.0
 10
239.8331926276699
 20
144.9149262731221
 30
0.0
 10
239.8855922733932
 20
144.9150358523239
 30
0.0
 10
239.8868721049373
 20
144.9150385287335
 30
0.0
  0
LINE
  5
14A
330
1F
100
AcDbEntity
  8
0
  6
Continuous
 62
     7
370
    25
100
AcDbLine
 10
239.5086660435
 20
144.6650385287
 30
0.0
 11
239.7468062859
 21
144.6650385287
 31
0.0
  0
SPLINE
  5
14B
330
1F
100
AcDbEntity
  8
0
  6
Continuous
 62
     7
370
    25
100
AcDbSpline
210
0.0
220
0.0
230
1.0
 70
     8
 71
     3
 72
    15
 73
    11
 74
     0
 42
0.00000001
 43
0.00000001
 40
0.0
 40
0.0
 40
0.0
 40
0.0
 40
0.0080847466189582
 40
0.3310106400648243
 40
0.4750333064304948
 40
0.6874363079215142
 40
0.8468367539418303
 40
0.9000996640391847
 40
0.9910442771984082
 40
1.0
 40
1.0
 40
1.0
 40
1.0
 10
250.084911132123
 20
144.9150385287335
 30
0.0
 10
250.086190963667
 20
144.9150358523239
 30
0.0
 10
250.1385906093903
 20
144.9149262731221
 30
0.0
 10
250.2139457008454
 20
144.9052471182845
 30
0.0
 10
250.3158648128631
 20
144.8679652948227
 30
0.0
 10
250.3882557578549
 20
144.8232574216393
 30
0.0
 10
250.4359611861198
 20
144.7651217715067
 30
0.0
 10
250.4574966698271
 20
144.7142346980384
 30
0.0
 10
250.4629256858466
 20
144.6854724689308
 30
0.0
 10
250.4631014380032
 20
144.6667196543064
 30
0.0
 10
250.4631171935818
 20
144.6650385287335
 30
0.0
  0
LINE
  5
14C
330
1F
100
AcDbEntity
  8
0
  6
Continuous
 62
     7
370
    25
100
AcDbLine
 10
250.2249769512
 20
144.6650385287
 30
0.0
 11
250.4631171936
 21
144.6650385287
 31
0.0
  0
LINE
  5
14D
330
1F
100
AcDbEntity
  8
0
  6
Continuous
 62
     7
370
    25
100
AcDbLine
 10
239.5086660435
 20
144.0650385287
 30
0.0
 11
239.5086660435
 21
144.6650385287
 31
0.0
  0
LINE
  5
14E
330
1F
100
AcDbEntity
  8
0
  6
Continuous
 62
     7
370
    25
100
AcDbLine
 10
239.7468062859
 20
144.0650385287
 30
0.0
 11
239.5086660435
 21
144.0650385287
 31
0.0
  0
LINE
  5
14F
330
1F
100
AcDbEntity
  8
0
  6
Continuous
 62
     7
370
    25
100
AcDbLine
 10
250.4631171936
 20
144.6650385287
 30
0.0
 11
250.4631171936
 21
144.0650385287
 31
0.0
  0
LINE
  5
150
330
1F
100
AcDbEntity
  8
0
  6
Continuous
 62
     7
370
    25
100
AcDbLine
 10
250.4631171936
 20
144.0650385287
 30
0.0
 11
250.2249769512
 21
144.0650385287
 31
0.0
  0
LINE
  5
151
330
1F
100
AcDbEntity
  8
0
  6
Continuous
 62
     7
370
    25
100
AcDbLine
 10
250.7358916185
 20
144.0650385287
 30
0.0
 11
250.7358916185
 21
144.6650385287
 31
0.0
  0
LINE
  5
152
330
1F
100
AcDbEntity
  8
0
  6
Continuous
 62
     7
370
    25
100
AcDbLine
 10
250.7358916185
 20
144.6650385287
 30
0.0
 11
250.4631171936
 21
144.6650385287
 31
0.0
  0
LINE
  5
153
330
1F
100
AcDbEntity
  8
0
  6
Continuous
 62
     7
370
    25
100
AcDbLine
 10
250.4631171936
 20
144.0650385287
 30
0.0
 11
250.7358916185
 21
144.0650385287
 31
0.0
  0
LINE
  5
154
330
1F
100
AcDbEntity
  8
0
  6
Continuous
 62
     7
370
    25
100
AcDbLine
 10
239.5086660435
 20
144.6650385287
 30
0.0
 11
239.2358916185
 21
144.6650385287
 31
0.0
  0
LINE
  5
155
330
1F
100
AcDbEntity
  8
0
  6
Continuous
 62
     7
370
    25
100
AcDbLine
 10
239.2358916185
 20
144.9150385287
 30
0.0
 11
239.2358916185
 21
144.6650385287
 31
0.0
  0
LINE
  5
156
330
1F
100
AcDbEntity
  8
0
  6
Continuous
 62
     7
370
    25
100
AcDbLine
 10
239.2358916185
 20
144.9150385287
 30
0.0
 11
239.8868721049
 21
144.9150385287
 31
0.0
  0
LINE
  5
157
330
1F
100
AcDbEntity
  8
0
  6
Continuous
 62
     7
370
    25
100
AcDbLine
 10
250.7358916185
 20
144.6650385287
 30
0.0
 11
250.9858916185
 21
144.6650385287
 31
0.0
  0
LINE
  5
158
330
1F
100
AcDbEntity
  8
0
  6
Continuous
 62
     7
370
    25
100
AcDbLine
 10
250.7358916185
 20
144.6650385287
 30
0.0
 11
250.7358916185
 21
144.9150385287
 31
0.0
  0
ARC
  5
159
330
1F
100
AcDbEntity
  8
0
  6
Continuous
 62
     7
370
    25
100
AcDbCircle
 10
250.7358916185
 20
144.6650385287
 30
0.0
 40
0.2499999999999716
100
AcDbArc
 50
0.0
 51
90.0
  0
LINE
  5
15A
330
1F
100
AcDbEntity
  8
0
  6
Continuous
 62
     7
370
    25
100
AcDbLine
 10
250.9858916185
 20
144.6650385287
 30
0.0
 11
250.9858916185
 21
144.0650385287
 31
0.0
  0
LINE
  5
15B
330
1F
100
AcDbEntity
  8
0
  6
Continuous
 62
     7
370
    25
100
AcDbLine
 10
250.9858916185
 20
144.0650385287
 30
0.0
 11
250.7358916185
 21
144.0650385287
 31
0.0
  0
ARC
  5
15C
330
1F
100
AcDbEntity
  8
0
  6
Continuous
 62
     7
370
    25
100
AcDbCircle
 10
239.2358916185
 20
144.6650385287
 30
0.0
 40
0.25
100
AcDbArc
 50
90.0
 51
180.0
  0
LINE
  5
15D
330
1F
100
AcDbEntity
  8
0
  6
Continuous
 62
     7
370
    25
100
AcDbLine
 10
238.9858916185
 20
144.6650385287
 30
0.0
 11
239.2358916185
 21
144.6650385287
 31
0.0
  0
LINE
  5
15E
330
1F
100
AcDbEntity
  8
0
  6
Continuous
 62
     7
370
    25
100
AcDbLine
 10
238.9858916185
 20
144.0650385287
 30
0.0
 11
238.9858916185
 21
144.6650385287
 31
0.0
  0
LINE
  5
15F
330
1F
100
AcDbEntity
  8
0
  6
Continuous
 62
     7
370
    25
100
AcDbLine
 10
239.2358916185
 20
144.6650385287
 30
0.0
 11
239.2358916185
 21
144.0650385287
 31
0.0
  0
LINE
  5
160
330
1F
100
AcDbEntity
  8
0
  6
Continuous
 62
     7
370
    25
100
AcDbLine
 10
239.2358916185
 20
144.0650385287
 30
0.0
 11
238.9858916185
 21
144.0650385287
 31
0.0
  0
LINE
  5
161
330
1F
100
AcDbEntity
  8
0
  6
Continuous
 62
     7
370
    25
100
AcDbLine
 10
250.0849111321
 20
144.9150385287
 30
0.0
 11
250.7358916185
 21
144.9150385287
 31
0.0
  0
LINE
  5
162
330
1F
100
AcDbEntity
  8
0
  6
Continuous
 62
     7
370
    25
100
AcDbLine
 10
239.2358916185
 20
144.0650385287
 30
0.0
 11
239.5086660435
 21
144.0650385287
 31
0.0
  0
LINE
  5
163
330
1F
100
AcDbEntity
  8
0
  6
Continuous
 62
     7
370
    25
100
AcDbLine
 10
239.9858916185
 20
144.9150385287
 30
0.0
 11
239.9858916185
 21
144.9250385287
 31
0.0
  0
LINE
  5
164
330
1F
100
AcDbEntity
  8
0
  6
Continuous
 62
     7
370
    25
100
AcDbLine
 10
239.9858916185
 20
144.9250385287
 30
0.0
 11
249.9858916185
 21
144.9250385287
 31
0.0
  0
LINE
  5
165
330
1F
100
AcDbEntity
  8
0
  6
Continuous
 62
     7
370
    25
100
AcDbLine
 10
249.9858916185
 20
144.9150385287
 30
0.0
 11
249.9858916185
 21
144.9250385287
 31
0.0
  0
LINE
  5
166
330
1F
100
AcDbEntity
  8
0
  6
Continuous
 62
     7
370
    25
100
AcDbLine
 10
242.9858916185
 20
128.0650385287
 30
0.0
 11
251.9858916185
 21
128.0650385287
 31
0.0
  0
LINE
  5
167
330
1F
100
AcDbEntity
  8
0
  6
Continuous
 62
     7
370
    25
100
AcDbLine
 10
242.9858916185
 20
128.1028554525
 30
0.0
 11
242.9858916185
 21
128.0650385287
 31
0.0
  0
SPLINE
  5
168
330
1F
100
AcDbEntity
  8
0
  6
Continuous
 62
     7
370
    25
100
AcDbSpline
210
0.0
220
0.0
230
1.0
 70
     8
 71
     3
 72
     9
 73
     5
 74
     0
 42
0.00000001
 43
0.00000001
 40
0.0
 40
0.0
 40
0.0
 40
0.0
 40
0.4875141023677128
 40
0.9999999999999999
 40
0.9999999999999999
 40
0.9999999999999999
 40
0.9999999999999999
 10
242.8299463681029
 20
128.0650385287336
 30
0.0
 10
242.8562529420255
 20
128.0667658747053
 30
0.0
 10
242.9102135839738
 20
128.0703090459968
 30
0.0
 10
242.9602491146685
 20
128.0918275319461
 30
0.0
 10
242.9858916185301
 20
128.1028554525335
 30
0.0
  0
SPLINE
  5
169
330
1F
100
AcDbEntity
  8
0
  6
Continuous
 62
     7
370
    25
100
AcDbSpline
210
0.0
220
0.0
230
1.0
 70
     8
 71
     3
 72
    17
 73
    13
 74
     0
 42
0.00000001
 43
0.00000001
 40
0.0
 40
0.0
 40
0.0
 40
0.0
 40
0.3241697628029873
 40
0.5422758463620719
 40
0.689509052693928
 40
0.7894036290694505
 40
0.8577090008137825
 40
0.9049823971474137
 40
0.9551712229700868
 40
0.9753097783197817
 40
0.9919572060138848
 40
1.0
 40
1.0
 40
1.0
 40
1.0
 10
240.511344734448
 20
136.0650385287312
 30
0.0
 10
240.6540600944652
 20
135.1524250261255
 30
0.0
 10
240.8927964034071
 20
133.6257920198641
 30
0.0
 10
241.2723835978588
 20
131.6990191175832
 30
0.0
 10
241.5815178062059
 20
130.4113836466504
 30
0.0
 10
241.837631334406
 20
129.5522316799286
 30
0.0
 10
242.0519423373009
 20
128.9787637915512
 30
0.0
 10
242.2551765583289
 20
128.5572316375213
 30
0.0
 10
242.4397218228715
 20
128.2767390947258
 30
0.0
 10
242.6257929092396
 20
128.1211904261452
 30
0.0
 10
242.7410035084955
 20
128.0705798269477
 30
0.0
 10
242.8080923139684
 20
128.0664000751431
 30
0.0
 10
242.8299463681029
 20
128.0650385287336
 30
0.0
  0
LINE
  5
16A
330
1F
100
AcDbEntity
  8
0
  6
Continuous
 62
     7
370
    25
100
AcDbLine
 10
240.5113447344
 20
136.0650385287
 30
0.0
 11
252.4358916185
 21
136.0650385287
 31
0.0
  0
SPLINE
  5
16B
330
1F
100
AcDbEntity
  8
0
  6
Continuous
 62
     7
370
    25
100
AcDbSpline
210
0.0
220
0.0
230
1.0
 70
     8
 71
     3
 72
     9
 73
     5
 74
     0
 42
0.00000001
 43
0.00000001
 40
0.0
 40
0.0
 40
0.0
 40
0.0
 40
0.4978401817595073
 40
1.0
 40
1.0
 40
1.0
 40
1.0
 10
241.2715554902097
 20
137.0597821067005
 30
0.0
 10
241.1352335818391
 20
136.9032709240078
 30
0.0
 10
240.8614069335182
 20
136.5888905496888
 30
0.0
 10
240.6283676824216
 20
136.2401580016626
 30
0.0
 10
240.511344734448
 20
136.0650385287312
 30
0.0
  0
LINE
  5
16C
330
1F
100
AcDbEntity
  8
0
  6
Continuous
 62
     7
370
    25
100
AcDbLine
 10
239.7620894442
 20
144.0650385287
 30
0.0
 11
238.0339507802
 21
137.0597821067
 31
0.0
  0
LINE
  5
16D
330
1F
100
AcDbEntity
  8
0
  6
Continuous
 62
     7
370
    25
100
AcDbLine
 10
250.2249769512
 20
144.0650385287
 30
0.0
 11
239.7620894442
 21
144.0650385287
 31
0.0
  0
SPLINE
  5
16E
330
1F
100
AcDbEntity
  8
0
  6
Continuous
 62
     7
370
    25
100
AcDbSpline
210
0.0
220
0.0
230
1.0
 70
     8
 71
     3
 72
    14
 73
    10
 74
     0
 42
0.00000001
 43
0.00000001
 40
0.0
 40
0.0
 40
0.0
 40
0.0
 40
0.1576095309202822
 40
0.3152382602707094
 40
0.4726926441579498
 40
0.6301650083177254
 40
0.7907313191165901
 40
0.9513050385928076
 40
1.0
 40
1.0
 40
1.0
 40
1.0
 10
238.4858916185301
 20
128.0650385287335
 30
0.0
 10
238.4193206037481
 20
128.2785403172109
 30
0.0
 10
238.2861704651631
 20
128.7055699008364
 30
0.0
 10
237.9576035034125
 20
129.2908169796927
 30
0.0
 10
237.5442138626805
 20
129.8129715205152
 30
0.0
 10
237.0485389437358
 20
130.261949647935
 30
0.0
 10
236.4822492384513
 20
130.6212313797414
 30
0.0
 10
236.0059985820583
 20
130.8257975588426
 30
0.0
 10
235.7258040138655
 20
130.9065921071939
 30
0.0
 10
235.6606052290925
 20
130.9253922802407
 30
0.0
  0
LINE
  5
16F
330
1F
100
AcDbEntity
  8
0
  6
Continuous
 62
     7
370
    25
100
AcDbLine
 10
235.6606052291
 20
130.9253922802
 30
0.0
 11
229.8808483792
 21
132.4940137207
 31
0.0
  0
SPLINE
  5
170
330
1F
100
AcDbEntity
  8
0
  6
Continuous
 62
     7
370
    25
100
AcDbSpline
210
0.0
220
0.0
230
1.0
 70
     8
 71
     3
 72
    11
 73
     7
 74
     0
 42
0.00000001
 43
0.00000001
 40
0.0
 40
0.0
 40
0.0
 40
0.0
 40
0.2488466353289361
 40
0.4976946020535204
 40
0.7488461225871278
 40
1.0
 40
1.0
 40
1.0
 40
1.0
 10
222.8104547569935
 20
133.8172142217091
 30
0.0
 10
223.4048908061297
 20
133.7476898452154
 30
0.0
 10
224.5937660847931
 20
133.6086407202542
 30
0.0
 10
226.3684907555022
 20
133.308311982129
 30
0.0
 10
228.1350713972445
 20
132.9464023638738
 30
0.0
 10
229.2989208982642
 20
132.6448104068093
 30
0.0
 10
229.8808483792372
 20
132.4940137207235
 30
0.0
  0
LINE
  5
171
330
1F
100
AcDbEntity
  8
0
  6
Continuous
 62
     7
370
    25
100
AcDbLine
 10
222.810454757
 20
133.8172142217
 30
0.0
 11
222.810454757
 21
137.0597821067
 31
0.0
  0
LINE
  5
172
330
1F
100
AcDbEntity
  8
0
  6
Continuous
 62
     7
370
    25
100
AcDbLine
 10
222.810454757
 20
137.0597821067
 30
0.0
 11
241.2715554902
 21
137.0597821067
 31
0.0
  0
LINE
  5
173
330
1F
100
AcDbEntity
  8
0
  6
Continuous
 62
     7
370
    25
100
AcDbLine
 10
242.8299463681
 20
128.0650385287
 30
0.0
 11
238.4858916185
 21
128.0650385287
 31
0.0
  0
LINE
  5
174
330
1F
100
AcDbEntity
  8
0
  6
Continuous
 62
     7
370
    25
100
AcDbLine
 10
242.9858916185
 20
128.1028554525
 30
0.0
 11
242.9790922606
 21
128.0650385287
 31
0.0
  0
LINE
  5
175
330
1F
100
AcDbEntity
  8
0
  6
Continuous
 62
     7
370
    25
100
AcDbLine
 10
242.9790922606
 20
128.0650385287
 30
0.0
 11
242.8299463681
 21
128.0650385287
 31
0.0
  0
LINE
  5
176
330
1F
100
AcDbEntity
  8
0
  6
Continuous
 62
     7
370
    25
100
AcDbLine
 10
242.9858916185
 20
128.0650385287
 30
0.0
 11
242.9790922606
 21
128.0650385287
 31
0.0
  0
LINE
  5
177
330
1F
100
AcDbEntity
  8
0
  6
Continuous
 62
     7
370
    25
100
AcDbLine
 10
204.9858916185
 20
146.0650385287
 30
0.0
 11
222.810454757
 21
146.0650385287
 31
0.0
  0
LINE
  5
178
330
1F
100
AcDbEntity
  8
0
  6
Continuous
 62
     7
370
    25
100
AcDbLine
 10
222.810454757
 20
146.0650385287
 30
0.0
 11
222.810454757
 21
137.0597821067
 31
0.0
  0
LINE
  5
179
330
1F
100
AcDbEntity
  8
0
  6
Continuous
 62
     7
370
    25
100
AcDbLine
 10
218.0942237608
 20
134.0650385287
 30
0.0
 11
209.9858916185
 21
134.0650385287
 31
0.0
  0
ARC
  5
17A
330
1F
100
AcDbEntity
  8
0
  6
Continuous
 62
     7
370
    25
100
AcDbCircle
 10
209.9858916185
 20
139.0650385287
 30
0.0
 40
5.0
100
AcDbArc
 50
180.0
 51
270.0
  0
LINE
  5
17B
330
1F
100
AcDbEntity
  8
0
  6
Continuous
 62
     7
370
    25
100
AcDbLine
 10
204.9858916185
 20
139.0650385287
 30
0.0
 11
204.9858916185
 21
146.0650385287
 31
0.0
  0
ARC
  5
17C
330
1F
100
AcDbEntity
  8
0
  6
Continuous
 62
     7
370
    25
100
AcDbCircle
 10
218.0942237608
 20
89.0649092745
 30
0.0
 40
45.00012925418378
100
AcDbArc
 50
83.9840777705
 51
90.0
  0
LINE
  5
17D
330
1F
100
AcDbEntity
  8
0
  6
Continuous
 62
     7
370
    25
100
AcDbLine
 10
222.810454757
 20
146.0650385287
 30
0.0
 11
224.9858916185
 21
146.0650385287
 31
0.0
  0
LINE
  5
17E
330
1F
100
AcDbEntity
  8
0
  6
Continuous
 62
     7
370
    25
100
AcDbLine
 10
224.9858916185
 20
146.0650385287
 30
0.0
 11
224.9858916185
 21
144.0839940521
 31
0.0
  0
ARC
  5
17F
330
1F
100
AcDbEntity
  8
0
  6
Continuous
 62
     7
370
    25
100
AcDbCircle
 10
230.9858916185
 20
144.0839940521
 30
0.0
 40
6.000000000000005
100
AcDbArc
 50
180.0
 51
275.5801667845
  0
ARC
  5
180
330
1F
100
AcDbEntity
  8
0
  6
Continuous
 62
     7
370
    25
100
AcDbCircle
 10
230.5969380543
 20
148.0650385287
 30
0.0
 40
10.00000000000848
100
AcDbArc
 50
275.5801667845
 51
336.4218215217
  0
LINE
  5
181
330
1F
100
AcDbEntity
  8
0
  6
Continuous
 62
     7
370
    25
100
AcDbLine
 10
238.4858916185
 20
128.0650385287
 30
0.0
 11
237.9858916185
 21
128.0650385287
 31
0.0
  0
LINE
  5
182
330
1F
100
AcDbEntity
  8
0
  6
Continuous
 62
     7
370
    25
100
AcDbLine
 10
239.7468062859
 20
144.0650385287
 30
0.0
 11
239.7620894442
 21
144.0650385287
 31
0.0
  0
LINE
  5
183
330
1F
100
AcDbEntity
  8
0
  6
Continuous
 62
     7
370
    25
100
AcDbLine
 10
189.0138716602
 20
121.4984876518
 30
0.0
 11
189.0138716602
 21
113.6315894057
 31
0.0
  0
LINE
  5
184
330
1F
100
AcDbEntity
  8
0
  6
Continuous
 62
     7
370
    25
100
AcDbLine
 10
214.6077636961
 20
117.5650385287
 30
0.0
 11
214.6077636961
 21
109.7150385287
 31
0.0
  0
LINE
  5
185
330
1F
100
AcDbEntity
  8
0
  6
Continuous
 62
     7
370
    25
100
AcDbLine
 10
214.6077636961
 20
125.4150385287
 30
0.0
 11
214.6077636961
 21
117.5650385287
 31
0.0
  0
LINE
  5
186
330
1F
100
AcDbEntity
  8
0
  6
Continuous
 62
     7
370
    25
100
AcDbLine
 10
227.0077636961
 20
109.7150385287
 30
0.0
 11
227.0077636961
 21
125.4150385287
 31
0.0
  0
SPLINE
  5
187
330
1F
100
AcDbEntity
  8
0
  6
Continuous
 62
     7
370
    25
100
AcDbSpline
210
0.0
220
0.0
230
1.0
 70
     8
 71
     3
 72
    31
 73
    27
 74
     0
 42
0.00000001
 43
0.00000001
 40
0.0
 40
0.0
 40
0.0
 40
0.0
 40
0.0092784630556365
 40
0.0517192933660312
 40
0.0941873872206273
 40
0.1321094401313915
 40
0.1702216430359423
 40
0.208212957939834
 40
0.2154757385486042
 40
0.2764913824902946
 40
0.3375062491118157
 40
0.3848265536080827
 40
0.4320516657597603
 40
0.4692207297592463
 40
0.5063508757973232
 40
0.5434387495777621
 40
0.5805759265711807
 40
0.6303390297747504
 40
0.6801943069928552
 40
0.7334740488701086
 40
0.7867450673776935
 40
0.8315894531416896
 40
0.8763988786179612
 40
0.9190747647664154
 40
0.9617154813038828
 40
1.0
 40
1.0
 40
1.0
 40
1.0
 10
239.0865415534945
 20
127.0644865491772
 30
0.0
 10
239.0872865915964
 20
127.0638552829371
 30
0.0
 10
239.0914395255396
 20
127.0603365273343
 30
0.0
 10
239.1617223132209
 20
127.0004097851852
 30
0.0
 10
239.3530424166723
 20
126.8400188361443
 30
0.0
 10
239.6279636416337
 20
126.6137242556285
 30
0.0
 10
239.9603807910273
 20
126.3483544524707
 30
0.0
 10
240.2474439326351
 20
126.1282756848262
 30
0.0
 10
240.6433913399466
 20
125.8344767143538
 30
0.0
 10
241.1790105865884
 20
125.4540543359618
 30
0.0
 10
241.9947640735011
 20
124.9560298558063
 30
0.0
 10
242.8363232311601
 20
124.5439121765265
 30
0.0
 10
243.6197303011467
 20
124.2669130152429
 30
0.0
 10
244.3927151458097
 20
124.1154958718719
 30
0.0
 10
245.1233054598014
 20
124.0773464005896
 30
0.0
 10
245.8480279131216
 20
124.1566782916926
 30
0.0
 10
246.6213975327501
 20
124.3491814995695
 30
0.0
 10
247.4117923546081
 20
124.6663409684526
 30
0.0
 10
248.2085969027891
 20
125.091619507452
 30
0.0
 10
248.9359640040101
 20
125.5540802132512
 30
0.0
 10
249.5501698583933
 20
125.9944936042522
 30
0.0
 10
250.0436280297517
 20
126.3729527389947
 30
0.0
 10
250.4186965350582
 20
126.6747238028051
 30
0.0
 10
250.6888848358563
 20
126.8983127909805
 30
0.0
 10
250.8573377018661
 20
127.0407986911101
 30
0.0
 10
250.8727520869584
 20
127.0538175078269
 30
0.0
 10
250.8800444020508
 20
127.0599765153423
 30
0.0
  0
LINE
  5
188
330
1F
100
AcDbEntity
  8
FORMAT
100
AcDbLine
 10
239.2363533147
 20
94.9302642513
 30
0.0
 11
238.9196416185
 21
105.0650385287
 31
0.0
  0
LINE
  5
189
330
1F
100
AcDbEntity
  8
FORMAT
100
AcDbLine
 10
250.7354299224
 20
94.9302642513
 30
0.0
 11
251.0521416185
 21
105.0650385287
 31
0.0
  0
LINE
  5
18A
330
1F
100
AcDbEntity
  8
FORMAT
100
AcDbLine
 10
251.7284541185
 20
105.0650385287
 30
0.0
 11
238.2433291185
 21
105.0650385287
 31
0.0
  0
LINE
  5
18B
330
1F
100
AcDbEntity
  8
FORMAT
100
AcDbLine
 10
220.6298916185
 20
123.2875385287
 30
0.0
 11
229.4858916185
 21
123.2875385287
 31
0.0
  0
LINE
  5
18C
330
1F
100
AcDbEntity
  8
FORMAT
100
AcDbLine
 10
220.6298916185
 20
111.8425385287
 30
0.0
 11
229.4858916185
 21
111.8425385287
 31
0.0
  0
LINE
  5
18D
330
1F
100
AcDbEntity
  8
FORMAT
100
AcDbLine
 10
229.4858916185
 20
110.9865385287
 30
0.0
 11
229.4858916185
 21
124.1435385287
 31
0.0
  0
LINE
  5
18E
330
1F
100
AcDbEntity
  8
FORMAT
  6
CENTERX2
370
    18
100
AcDbLine
 10
184.3077636961
 20
117.5650385287
 30
0.0
 11
259.0454055302
 21
117.5650385287
 31
0.0
  0
LINE
  5
18F
330
1F
100
AcDbEntity
  8
FORMAT
  6
CENTERX2
370
    18
100
AcDbLine
 10
244.9858916185
 20
92.1687044026
 30
0.0
 11
244.9858916185
 21
147.1673535202
 31
0.0
  0
LINE
  5
190
330
1F
100
AcDbEntity
  8
0
  6
Continuous
 62
     7
370
    25
100
AcDbLine
 10
306.7688599074
 20
105.5650385287
 30
0.0
 11
307.0624953489
 21
96.1687044026
 31
0.0
  0
LINE
  5
191
330
1F
100
AcDbEntity
  8
0
  6
Continuous
 62
     7
370
    25
100
AcDbLine
 10
319.991599466
 20
96.1687044026
 30
0.0
 11
320.2852349074
 21
105.5650385287
 31
0.0
  0
LINE
  5
192
330
1F
100
AcDbEntity
  8
0
  6
Continuous
 62
     7
370
    25
100
AcDbLine
 10
307.0624953489
 20
96.1687044026
 30
0.0
 11
308.2770474074
 21
94.0650385287
 31
0.0
  0
LINE
  5
193
330
1F
100
AcDbEntity
  8
0
  6
Continuous
 62
     7
370
    25
100
AcDbLine
 10
318.7770474074
 20
94.0650385287
 30
0.0
 11
319.991599466
 21
96.1687044026
 31
0.0
  0
SPLINE
  5
194
330
1F
100
AcDbEntity
  8
0
  6
Continuous
 62
     7
370
    25
100
AcDbSpline
210
0.0
220
0.0
230
1.0
 70
     8
 71
     3
 72
     9
 73
     5
 74
     0
 42
0.00000001
 43
0.00000001
 40
0.0
 40
0.0
 40
0.0
 40
0.0
 40
0.1782450055607364
 40
1.0
 40
1.0
 40
1.0
 40
1.0
 10
319.4366764812694
 20
123.9680671683734
 30
0.0
 10
319.4349770202378
 20
123.9756184529163
 30
0.0
 10
319.4254426098555
 20
124.017983087589
 30
0.0
 10
319.4286296091395
 20
124.0617168100955
 30
0.0
 10
319.4312485417184
 20
124.0976552149906
 30
0.0
  0
SPLINE
  5
195
330
1F
100
AcDbEntity
  8
0
  6
Continuous
 62
     7
370
    25
100
AcDbSpline
210
0.0
220
0.0
230
1.0
 70
     8
 71
     3
 72
     9
 73
     5
 74
     0
 42
0.00000001
 43
0.00000001
 40
0.0
 40
0.0
 40
0.0
 40
0.0
 40
0.6043652625679082
 40
1.0
 40
1.0
 40
1.0
 40
1.0
 10
307.6245192598501
 20
124.1043295771115
 30
0.0
 10
307.6261531497682
 20
124.0765952458398
 30
0.0
 10
307.6288566306255
 20
124.0307052303319
 30
0.0
 10
307.6203480928499
 20
123.9856432369056
 30
0.0
 10
307.6169818197411
 20
123.9678151469682
 30
0.0
  0
LINE
  5
196
330
1F
100
AcDbEntity
  8
0
  6
Continuous
 62
     7
370
    25
100
AcDbLine
 10
319.4270474074
 20
124.0982647819
 30
0.0
 11
319.4270474074
 21
128.0650385287
 31
0.0
  0
LINE
  5
197
330
1F
100
AcDbEntity
  8
0
  6
Continuous
 62
     7
370
    25
100
AcDbLine
 10
307.6270474074
 20
128.0650385287
 30
0.0
 11
307.6270474074
 21
124.1035671926
 31
0.0
  0
ARC
  5
198
330
1F
100
AcDbEntity
  8
0
  6
Continuous
 62
     7
370
    25
100
AcDbCircle
 10
308.2770474074
 20
144.6650385287
 30
0.0
 40
0.2500000000000568
100
AcDbArc
 50
90.0
 51
180.0
  0
ARC
  5
199
330
1F
100
AcDbEntity
  8
0
  6
Continuous
 62
     7
370
    25
100
AcDbCircle
 10
318.7770474074
 20
144.6650385287
 30
0.0
 40
0.25
100
AcDbArc
 50
0.0
 51
90.0
  0
LINE
  5
19A
330
1F
100
AcDbEntity
  8
0
  6
Continuous
 62
     7
370
    25
100
AcDbLine
 10
308.0270474074
 20
144.6650385287
 30
0.0
 11
308.0270474074
 21
144.0650385287
 31
0.0
  0
LINE
  5
19B
330
1F
100
AcDbEntity
  8
0
  6
Continuous
 62
     7
370
    25
100
AcDbLine
 10
319.0270474074
 20
144.0650385287
 30
0.0
 11
319.0270474074
 21
144.6650385287
 31
0.0
  0
LINE
  5
19C
330
1F
100
AcDbEntity
  8
0
  6
Continuous
 62
     7
370
    25
100
AcDbLine
 10
320.9770474074
 20
136.0650385287
 30
0.0
 11
319.0270474074
 21
144.0650385287
 31
0.0
  0
LINE
  5
19D
330
1F
100
AcDbEntity
  8
0
  6
Continuous
 62
     7
370
    25
100
AcDbLine
 10
308.0270474075
 20
144.0650385287
 30
0.0
 11
306.0770474074
 21
136.0650385287
 31
0.0
  0
LINE
  5
19E
330
1F
100
AcDbEntity
  8
0
  6
Continuous
 62
     7
370
    25
100
AcDbLine
 10
306.0770474074
 20
136.0650385287
 30
0.0
 11
306.5270474074
 21
128.0650385287
 31
0.0
  0
LINE
  5
19F
330
1F
100
AcDbEntity
  8
0
  6
Continuous
 62
     7
370
    25
100
AcDbLine
 10
320.5270474074
 20
128.0650385287
 30
0.0
 11
320.9770474074
 21
136.0650385287
 31
0.0
  0
SPLINE
  5
1A0
330
1F
100
AcDbEntity
  8
0
  6
Continuous
 62
     7
370
    25
100
AcDbSpline
210
0.0
220
0.0
230
1.0
 70
     8
 71
     3
 72
    10
 73
     6
 74
     0
 42
0.00000001
 43
0.00000001
 40
0.0
 40
0.0
 40
0.0
 40
0.0
 40
0.5
 40
0.5
 40
1.0
 40
1.0
 40
1.0
 40
1.0
 10
305.0270474074444
 20
112.9462363752165
 30
0.0
 10
305.0270474074444
 20
112.860349313414
 30
0.0
 10
305.0498398567742
 20
112.7729421044339
 30
0.0
 10
305.1377825608673
 20
112.6203056618402
 30
0.0
 10
305.2026403345411
 20
112.5561826168946
 30
0.0
 10
305.2770474074445
 20
112.5132236733243
 30
0.0
  0
SPLINE
  5
1A1
330
1F
100
AcDbEntity
  8
0
  6
Continuous
 62
     7
370
    25
100
AcDbSpline
210
0.0
220
0.0
230
1.0
 70
    24
 71
     3
 72
    14
 73
    10
 74
     0
 42
0.00000001
 43
0.00000001
 40
0.0
 40
0.0
 40
0.0
 40
0.0
 40
0.25
 40
0.25
 40
0.5
 40
0.5
 40
0.75
 40
0.75
 40
1.0
 40
1.0
 40
1.0
 40
1.0
 10
305.0270474074444
 20
112.9462363752165
 30
0.0
 10
305.0270474074444
 20
113.7006164358665
 30
0.0
 10
305.0270474074444
 20
114.4700576033319
 30
0.0
 10
305.0270474074444
 20
116.0105689642731
 30
0.0
 10
305.0270474074444
 20
116.7854233442801
 30
0.0
 10
305.0270474074444
 20
118.3457842991657
 30
0.0
 10
305.0270474074444
 20
119.1362404919507
 30
0.0
 10
305.0270474074444
 20
120.6785201547592
 30
0.0
 10
305.0270474074444
 20
121.4359109079604
 30
0.0
 10
305.0270474074444
 20
122.1838406822505
 30
0.0
  0
SPLINE
  5
1A2
330
1F
100
AcDbEntity
  8
0
  6
Continuous
 62
     7
370
    25
100
AcDbSpline
210
0.0
220
0.0
230
1.0
 70
     8
 71
     3
 72
    10
 73
     6
 74
     0
 42
0.00000001
 43
0.00000001
 40
0.0
 40
0.0
 40
0.0
 40
0.0
 40
0.5
 40
0.5
 40
1.0
 40
1.0
 40
1.0
 40
1.0
 10
305.2770474074445
 20
122.6168533841427
 30
0.0
 10
305.2026670300671
 20
122.5739098532415
 30
0.0
 10
305.1383663912814
 20
122.5104674086174
 30
0.0
 10
305.0501507064984
 20
122.3579885714984
 30
0.0
 10
305.0270474074444
 20
122.2697585693912
 30
0.0
 10
305.0270474074444
 20
122.1838406822505
 30
0.0
  0
SPLINE
  5
1A3
330
1F
100
AcDbEntity
  8
0
  6
Continuous
 62
     7
370
    25
100
AcDbSpline
210
0.0
220
0.0
230
1.0
 70
    24
 71
     3
 72
    16
 73
    12
 74
     0
 42
0.00000001
 43
0.00000001
 40
0.0
 40
0.0
 40
0.0
 40
0.0
 40
0.2500000000000001
 40
0.2500000000000001
 40
0.5000000000000001
 40
0.5000000000000001
 40
0.6250000000000001
 40
0.6250000000000001
 40
0.7500000000000002
 40
0.7500000000000002
 40
1.0
 40
1.0
 40
1.0
 40
1.0
 10
313.2770474074445
 20
127.2356555376598
 30
0.0
 10
312.6235306274036
 20
126.8583474487832
 30
0.0
 10
311.9653102183136
 20
126.4783237184091
 30
0.0
 10
310.6357476349478
 20
125.7107004029984
 30
0.0
 10
309.9643236528773
 20
125.3230535862095
 30
0.0
 10
308.9453225658706
 20
124.7347330343217
 30
0.0
 10
308.6039817835544
 20
124.5376598417661
 30
0.0
 10
307.9283832805839
 20
124.147602864212
 30
0.0
 10
307.5927241306193
 20
123.9538099636239
 30
0.0
 10
306.5914584941196
 20
123.3757289788605
 30
0.0
 10
305.9315508355165
 20
122.9947311145257
 30
0.0
 10
305.2770474074445
 20
122.6168533841427
 30
0.0
  0
SPLINE
  5
1A4
330
1F
100
AcDbEntity
  8
0
  6
Continuous
 62
     7
370
    25
100
AcDbSpline
210
0.0
220
0.0
230
1.0
 70
     8
 71
     3
 72
    10
 73
     6
 74
     0
 42
0.00000001
 43
0.00000001
 40
0.0
 40
0.0
 40
0.0
 40
0.0
 40
0.5
 40
0.5
 40
1.0
 40
1.0
 40
1.0
 40
1.0
 10
313.7770474074445
 20
127.2356555376598
 30
0.0
 10
313.7026670300671
 20
127.278599068561
 30
0.0
 10
313.6155739419515
 20
127.302563832917
 30
0.0
 10
313.4394155530755
 20
127.3027214383917
 30
0.0
 10
313.3514544803477
 20
127.2786144812301
 30
0.0
 10
313.2770474074445
 20
127.2356555376598
 30
0.0
  0
SPLINE
  5
1A5
330
1F
100
AcDbEntity
  8
0
  6
Continuous
 62
     7
370
    25
100
AcDbSpline
210
0.0
220
0.0
230
1.0
 70
    24
 71
     3
 72
    16
 73
    12
 74
     0
 42
0.00000001
 43
0.00000001
 40
0.0
 40
0.0
 40
0.0
 40
0.0
 40
0.2499999999999997
 40
0.2499999999999997
 40
0.4999999999999993
 40
0.4999999999999993
 40
0.6249999999999993
 40
0.6249999999999993
 40
0.7499999999999996
 40
0.7499999999999996
 40
1.0
 40
1.0
 40
1.0
 40
1.0
 10
321.7770474074444
 20
122.6168533841427
 30
0.0
 10
321.1235306274036
 20
122.9941614730192
 30
0.0
 10
320.4653102183137
 20
123.3741852033934
 30
0.0
 10
319.1357476349478
 20
124.1418085188041
 30
0.0
 10
318.4643236528773
 20
124.5294553355929
 30
0.0
 10
317.4453225658706
 20
125.1177758874808
 30
0.0
 10
317.1039817835544
 20
125.3148490800364
 30
0.0
 10
316.4283832805839
 20
125.7049060575905
 30
0.0
 10
316.0927241306193
 20
125.8986989581786
 30
0.0
 10
315.0914584941196
 20
126.476779942942
 30
0.0
 10
314.4315508355165
 20
126.8577778072768
 30
0.0
 10
313.7770474074445
 20
127.2356555376598
 30
0.0
  0
SPLINE
  5
1A6
330
1F
100
AcDbEntity
  8
0
  6
Continuous
 62
     7
370
    25
100
AcDbSpline
210
0.0
220
0.0
230
1.0
 70
     8
 71
     3
 72
    10
 73
     6
 74
     0
 42
0.00000001
 43
0.00000001
 40
0.0
 40
0.0
 40
0.0
 40
0.0
 40
0.5
 40
0.5
 40
1.0
 40
1.0
 40
1.0
 40
1.0
 10
322.0270474074444
 20
122.1838406822505
 30
0.0
 10
322.0270474074444
 20
122.269727744053
 30
0.0
 10
322.0042549581146
 20
122.3571349530331
 30
0.0
 10
321.9163122540216
 20
122.5097713956268
 30
0.0
 10
321.8514544803477
 20
122.5738944405724
 30
0.0
 10
321.7770474074444
 20
122.6168533841427
 30
0.0
  0
SPLINE
  5
1A7
330
1F
100
AcDbEntity
  8
0
  6
Continuous
 62
     7
370
    25
100
AcDbSpline
210
0.0
220
0.0
230
1.0
 70
    24
 71
     3
 72
    14
 73
    10
 74
     0
 42
0.00000001
 43
0.00000001
 40
0.0
 40
0.0
 40
0.0
 40
0.0
 40
0.25
 40
0.25
 40
0.5
 40
0.5
 40
0.75
 40
0.75
 40
1.0
 40
1.0
 40
1.0
 40
1.0
 10
322.0270474074444
 20
112.9462363752164
 30
0.0
 10
322.0270474074444
 20
113.7006164358664
 30
0.0
 10
322.0270474074444
 20
114.4700576033319
 30
0.0
 10
322.0270474074444
 20
116.0105689642731
 30
0.0
 10
322.0270474074444
 20
116.7854233442801
 30
0.0
 10
322.0270474074444
 20
118.3457842991657
 30
0.0
 10
322.0270474074444
 20
119.1362404919507
 30
0.0
 10
322.0270474074444
 20
120.6785201547592
 30
0.0
 10
322.0270474074444
 20
121.4359109079603
 30
0.0
 10
322.0270474074444
 20
122.1838406822505
 30
0.0
  0
SPLINE
  5
1A8
330
1F
100
AcDbEntity
  8
0
  6
Continuous
 62
     7
370
    25
100
AcDbSpline
210
0.0
220
0.0
230
1.0
 70
     8
 71
     3
 72
    10
 73
     6
 74
     0
 42
0.00000001
 43
0.00000001
 40
0.0
 40
0.0
 40
0.0
 40
0.0
 40
0.5
 40
0.5
 40
1.0
 40
1.0
 40
1.0
 40
1.0
 10
321.7770474074444
 20
112.5132236733243
 30
0.0
 10
321.8514277848216
 20
112.5561672042254
 30
0.0
 10
321.9157284236071
 20
112.6196096488491
 30
0.0
 10
322.0039441083903
 20
112.7720884859682
 30
0.0
 10
322.0270474074444
 20
112.8603184880757
 30
0.0
 10
322.0270474074444
 20
112.9462363752165
 30
0.0
  0
SPLINE
  5
1A9
330
1F
100
AcDbEntity
  8
0
  6
Continuous
 62
     7
370
    25
100
AcDbSpline
210
0.0
220
0.0
230
1.0
 70
    24
 71
     3
 72
    16
 73
    12
 74
     0
 42
0.00000001
 43
0.00000001
 40
0.0
 40
0.0
 40
0.0
 40
0.0
 40
0.2500000000000002
 40
0.2500000000000002
 40
0.5000000000000004
 40
0.5000000000000004
 40
0.6250000000000003
 40
0.6250000000000003
 40
0.7500000000000002
 40
0.7500000000000002
 40
1.0
 40
1.0
 40
1.0
 40
1.0
 10
313.7770474074444
 20
107.8944215198073
 30
0.0
 10
314.4305641874852
 20
108.2717296086838
 30
0.0
 10
315.0887845965751
 20
108.6517533390579
 30
0.0
 10
316.4183471799408
 20
109.4193766544686
 30
0.0
 10
317.0897711620112
 20
109.8070234712573
 30
0.0
 10
318.1087722490179
 20
110.3953440231451
 30
0.0
 10
318.4501130313341
 20
110.5924172157008
 30
0.0
 10
319.1257115343045
 20
110.9824741932548
 30
0.0
 10
319.4613706842691
 20
111.1762670938428
 30
0.0
 10
320.4626363207687
 20
111.7543480786062
 30
0.0
 10
321.1225439793718
 20
112.135345942941
 30
0.0
 10
321.7770474074438
 20
112.5132236733239
 30
0.0
  0
SPLINE
  5
1AA
330
1F
100
AcDbEntity
  8
0
  6
Continuous
 62
     7
370
    25
100
AcDbSpline
210
0.0
220
0.0
230
1.0
 70
     8
 71
     3
 72
    10
 73
     6
 74
     0
 42
0.00000001
 43
0.00000001
 40
0.0
 40
0.0
 40
0.0
 40
0.0
 40
0.5
 40
0.5
 40
1.0
 40
1.0
 40
1.0
 40
1.0
 10
313.2770474074444
 20
107.8944215198073
 30
0.0
 10
313.3514277848217
 20
107.8514779889061
 30
0.0
 10
313.4385208729373
 20
107.8275132245501
 30
0.0
 10
313.6146792618133
 20
107.8273556190753
 30
0.0
 10
313.7026403345412
 20
107.851462576237
 30
0.0
 10
313.7770474074444
 20
107.8944215198073
 30
0.0
  0
SPLINE
  5
1AB
330
1F
100
AcDbEntity
  8
0
  6
Continuous
 62
     7
370
    25
100
AcDbSpline
210
0.0
220
0.0
230
1.0
 70
    24
 71
     3
 72
    16
 73
    12
 74
     0
 42
0.00000001
 43
0.00000001
 40
0.0
 40
0.0
 40
0.0
 40
0.0
 40
0.2500000000000001
 40
0.2500000000000001
 40
0.5000000000000002
 40
0.5000000000000002
 40
0.6250000000000001
 40
0.6250000000000001
 40
0.7500000000000001
 40
0.7500000000000001
 40
1.0
 40
1.0
 40
1.0
 40
1.0
 10
305.2770474074445
 20
112.5132236733243
 30
0.0
 10
305.9305641874852
 20
112.1359155844478
 30
0.0
 10
306.5887845965752
 20
111.7558918540736
 30
0.0
 10
307.918347179941
 20
110.9882685386629
 30
0.0
 10
308.5897711620115
 20
110.6006217218741
 30
0.0
 10
309.6087722490182
 20
110.0123011699863
 30
0.0
 10
309.9501130313344
 20
109.8152279774306
 30
0.0
 10
310.6257115343049
 20
109.4251709998765
 30
0.0
 10
310.9613706842695
 20
109.2313780992885
 30
0.0
 10
311.9626363207692
 20
108.653297114525
 30
0.0
 10
312.6225439793723
 20
108.2722992501902
 30
0.0
 10
313.2770474074444
 20
107.8944215198073
 30
0.0
  0
CIRCLE
  5
1AC
330
1F
100
AcDbEntity
  8
0
  6
Continuous
 62
     7
370
    25
100
AcDbCircle
 10
313.5270474074
 20
117.5650385287
 30
0.0
 40
8.25
  0
SPLINE
  5
1AD
330
1F
100
AcDbEntity
  8
0
  6
Continuous
 62
     7
370
    25
100
AcDbSpline
210
0.0
220
0.0
230
1.0
 70
     8
 71
     3
 72
    10
 73
     6
 74
     0
 42
0.00000001
 43
0.00000001
 40
0.0
 40
0.0
 40
0.0
 40
0.0
 40
0.5
 40
0.5
 40
1.0
 40
1.0
 40
1.0
 40
1.0
 10
313.2770474074445
 20
106.2427599339937
 30
0.0
 10
313.3514221614345
 20
106.2664335384848
 30
0.0
 10
313.4385158930004
 20
106.279526314278
 30
0.0
 10
313.6146817215449
 20
106.279612882379
 30
0.0
 10
313.7026427454351
 20
106.2664430582557
 30
0.0
 10
313.7770474074444
 20
106.2427599339937
 30
0.0
  0
SPLINE
  5
1AE
330
1F
100
AcDbEntity
  8
0
  6
Continuous
 62
     7
370
    25
100
AcDbSpline
210
0.0
220
0.0
230
1.0
 70
     8
 71
     3
 72
    12
 73
     8
 74
     0
 42
0.00000001
 43
0.00000001
 40
0.0
 40
0.0
 40
0.0
 40
0.0
 40
0.2500000000000003
 40
0.2500000000000003
 40
0.5000000000000002
 40
0.5000000000000002
 40
1.0
 40
1.0
 40
1.0
 40
1.0
 10
317.7770474074444
 20
105.5650385287335
 30
0.0
 10
317.4392914724216
 20
105.5650385287335
 30
0.0
 10
317.0988834575431
 20
105.5807848587555
 30
0.0
 10
316.4243887731427
 20
105.6422298833409
 30
0.0
 10
316.0892634542755
 20
105.6878186425946
 30
0.0
 10
315.0895521359353
 20
105.8642696448512
 30
0.0
 10
314.43061803287
 20
106.0347273468147
 30
0.0
 10
313.7770474074444
 20
106.2427599339936
 30
0.0
  0
LINE
  5
1AF
330
1F
100
AcDbEntity
  8
0
  6
Continuous
 62
     7
370
    25
100
AcDbLine
 10
309.2770474074
 20
105.5650385287
 30
0.0
 11
317.7770474074
 21
105.5650385287
 31
0.0
  0
SPLINE
  5
1B0
330
1F
100
AcDbEntity
  8
0
  6
Continuous
 62
     7
370
    25
100
AcDbSpline
210
0.0
220
0.0
230
1.0
 70
     8
 71
     3
 72
    10
 73
     6
 74
     0
 42
0.00000001
 43
0.00000001
 40
0.0
 40
0.0
 40
0.0
 40
0.0
 40
0.5
 40
0.5
 40
1.0
 40
1.0
 40
1.0
 40
1.0
 10
313.2770474074445
 20
106.2427599339932
 30
0.0
 10
312.6210346408394
 20
106.033950009327
 30
0.0
 10
311.9607677339816
 20
105.8634158695797
 30
0.0
 10
310.6284212153466
 20
105.6286300645608
 30
0.0
 10
309.9562682338593
 20
105.5650385287335
 30
0.0
 10
309.2770474074445
 20
105.5650385287335
 30
0.0
  0
LINE
  5
1B1
330
1F
100
AcDbEntity
  8
0
  6
Continuous
 62
     7
370
    25
100
AcDbLine
 10
313.7770474074
 20
107.8944215198
 30
0.0
 11
313.7770474074
 21
106.242759934
 31
0.0
  0
LINE
  5
1B2
330
1F
100
AcDbEntity
  8
0
  6
Continuous
 62
     7
370
    25
100
AcDbLine
 10
313.2770474074
 20
106.242759934
 30
0.0
 11
313.2770474074
 21
107.8944215198
 31
0.0
  0
SPLINE
  5
1B3
330
1F
100
AcDbEntity
  8
0
  6
Continuous
 62
     7
370
    25
100
AcDbSpline
210
0.0
220
0.0
230
1.0
 70
     8
 71
     3
 72
    12
 73
     8
 74
     0
 42
0.00000001
 43
0.00000001
 40
0.0
 40
0.0
 40
0.0
 40
0.0
 40
0.2499999999999998
 40
0.2499999999999998
 40
0.4999999999999996
 40
0.4999999999999996
 40
1.0
 40
1.0
 40
1.0
 40
1.0
 10
309.2770474074445
 20
105.5650385287335
 30
0.0
 10
308.9392914724216
 20
105.5650385287335
 30
0.0
 10
308.5988834575431
 20
105.5807848587555
 30
0.0
 10
307.9243887731427
 20
105.6422298833409
 30
0.0
 10
307.5892634542755
 20
105.6878186425946
 30
0.0
 10
306.5895521359354
 20
105.8642696448512
 30
0.0
 10
305.9306180328701
 20
106.0347273468147
 30
0.0
 10
305.2770474074444
 20
106.2427599339936
 30
0.0
  0
LINE
  5
1B4
330
1F
100
AcDbEntity
  8
0
  6
Continuous
 62
     7
370
    25
100
AcDbLine
 10
305.2770474074
 20
109.5986419889
 30
0.0
 11
305.2770474074
 21
106.242759934
 31
0.0
  0
SPLINE
  5
1B5
330
1F
100
AcDbEntity
  8
0
  6
Continuous
 62
     7
370
    25
100
AcDbSpline
210
0.0
220
0.0
230
1.0
 70
     8
 71
     3
 72
    10
 73
     6
 74
     0
 42
0.00000001
 43
0.00000001
 40
0.0
 40
0.0
 40
0.0
 40
0.0
 40
0.5
 40
0.5
 40
1.0
 40
1.0
 40
1.0
 40
1.0
 10
305.2770474074449
 20
109.5986419888787
 30
0.0
 10
305.9118751132585
 20
109.8007086744296
 30
0.0
 10
306.5511408158343
 20
109.9671014467002
 30
0.0
 10
307.8419557474242
 20
110.2011484205703
 30
0.0
 10
308.4935753828941
 20
110.2682366745291
 30
0.0
 10
309.1526173147142
 20
110.2756623440989
 30
0.0
  0
SPLINE
  5
1B6
330
1F
100
AcDbEntity
  8
0
  6
Continuous
 62
     7
370
    25
100
AcDbSpline
210
0.0
220
0.0
230
1.0
 70
     8
 71
     3
 72
    12
 73
     8
 74
     0
 42
0.00000001
 43
0.00000001
 40
0.0
 40
0.0
 40
0.0
 40
0.0
 40
0.2499999999999999
 40
0.2499999999999999
 40
0.4999999999999998
 40
0.4999999999999998
 40
1.0
 40
1.0
 40
1.0
 40
1.0
 10
317.9014775001967
 20
110.2756623440986
 30
0.0
 10
318.2306124905899
 20
110.2719538582422
 30
0.0
 10
318.5600746435267
 20
110.2533713554045
 30
0.0
 10
319.2129482615844
 20
110.1885043184384
 30
0.0
 10
319.5374008534615
 20
110.1422387651881
 30
0.0
 10
320.5054612946535
 20
109.9665142348812
 30
0.0
 10
321.1437837789015
 20
109.8002108261044
 30
0.0
 10
321.7770474074444
 20
109.5986419888785
 30
0.0
  0
LINE
  5
1B7
330
1F
100
AcDbEntity
  8
0
  6
Continuous
 62
     7
370
    25
100
AcDbLine
 10
321.7770474074
 20
106.242759934
 30
0.0
 11
321.7770474074
 21
109.5986419889
 31
0.0
  0
SPLINE
  5
1B8
330
1F
100
AcDbEntity
  8
0
  6
Continuous
 62
     7
370
    25
100
AcDbSpline
210
0.0
220
0.0
230
1.0
 70
     8
 71
     3
 72
    10
 73
     6
 74
     0
 42
0.00000001
 43
0.00000001
 40
0.0
 40
0.0
 40
0.0
 40
0.0
 40
0.5
 40
0.5
 40
1.0
 40
1.0
 40
1.0
 40
1.0
 10
321.7770474074445
 20
106.2427599339932
 30
0.0
 10
321.1210346408394
 20
106.033950009327
 30
0.0
 10
320.4607677339816
 20
105.8634158695797
 30
0.0
 10
319.1284212153466
 20
105.6286300645608
 30
0.0
 10
318.4562682338593
 20
105.5650385287335
 30
0.0
 10
317.7770474074444
 20
105.5650385287335
 30
0.0
  0
SPLINE
  5
1B9
330
1F
100
AcDbEntity
  8
0
  6
Continuous
 62
     7
370
    25
100
AcDbSpline
210
0.0
220
0.0
230
1.0
 70
     8
 71
     3
 72
    10
 73
     6
 74
     0
 42
0.00000001
 43
0.00000001
 40
0.0
 40
0.0
 40
0.0
 40
0.0
 40
0.5
 40
0.5
 40
1.0
 40
1.0
 40
1.0
 40
1.0
 10
321.7770474074444
 20
106.2427599339937
 30
0.0
 10
321.85141787437
 20
106.2664321739053
 30
0.0
 10
321.9157234706578
 20
106.2795261638405
 30
0.0
 10
322.0039462584637
 20
106.279613031302
 30
0.0
 10
322.0270474074444
 20
106.2664432415426
 30
0.0
 10
322.0270474074444
 20
106.2427599339937
 30
0.0
  0
LINE
  5
1BA
330
1F
100
AcDbEntity
  8
0
  6
Continuous
 62
     7
370
    25
100
AcDbLine
 10
317.7770474074
 20
105.5650385287
 30
0.0
 11
322.0270474074
 21
105.5650385287
 31
0.0
  0
SPLINE
  5
1BB
330
1F
100
AcDbEntity
  8
0
  6
Continuous
 62
     7
370
    25
100
AcDbSpline
210
0.0
220
0.0
230
1.0
 70
    24
 71
     3
 72
    10
 73
     6
 74
     0
 42
0.00000001
 43
0.00000001
 40
0.0
 40
0.0
 40
0.0
 40
0.0
 40
0.4999999999999999
 40
0.4999999999999999
 40
1.0
 40
1.0
 40
1.0
 40
1.0
 10
322.0270474074444
 20
105.5650385287335
 30
0.0
 10
322.0270474074444
 20
105.5650385287335
 30
0.0
 10
322.0270474074444
 20
105.627322890712
 30
0.0
 10
322.0270474074444
 20
105.8621710087191
 30
0.0
 10
322.0270474074444
 20
106.0354136158503
 30
0.0
 10
322.0270474074444
 20
106.2427599339937
 30
0.0
  0
SPLINE
  5
1BC
330
1F
100
AcDbEntity
  8
0
  6
Continuous
 62
     7
370
    25
100
AcDbSpline
210
0.0
220
0.0
230
1.0
 70
     8
 71
     3
 72
    10
 73
     6
 74
     0
 42
0.00000001
 43
0.00000001
 40
0.0
 40
0.0
 40
0.0
 40
0.0
 40
0.5
 40
0.5
 40
1.0
 40
1.0
 40
1.0
 40
1.0
 10
305.0270474074444
 20
106.2427599339937
 30
0.0
 10
305.0270474074444
 20
106.2664338345497
 30
0.0
 10
305.0498379790919
 20
106.2795263917288
 30
0.0
 10
305.1377839763907
 20
106.2796128057111
 30
0.0
 10
305.2026447691235
 20
106.2664424141125
 30
0.0
 10
305.2770474074445
 20
106.2427599339937
 30
0.0
  0
LINE
  5
1BD
330
1F
100
AcDbEntity
  8
0
  6
Continuous
 62
     7
370
    25
100
AcDbLine
 10
305.0270474074
 20
105.5650385287
 30
0.0
 11
309.2770474074
 21
105.5650385287
 31
0.0
  0
SPLINE
  5
1BE
330
1F
100
AcDbEntity
  8
0
  6
Continuous
 62
     7
370
    25
100
AcDbSpline
210
0.0
220
0.0
230
1.0
 70
    24
 71
     3
 72
    10
 73
     6
 74
     0
 42
0.00000001
 43
0.00000001
 40
0.0
 40
0.0
 40
0.0
 40
0.0
 40
0.5
 40
0.5
 40
1.0
 40
1.0
 40
1.0
 40
1.0
 10
305.0270474074444
 20
105.5650385287335
 30
0.0
 10
305.0270474074444
 20
105.5650385287335
 30
0.0
 10
305.0270474074444
 20
105.627322890712
 30
0.0
 10
305.0270474074444
 20
105.8621710087191
 30
0.0
 10
305.0270474074444
 20
106.0354136158503
 30
0.0
 10
305.0270474074444
 20
106.2427599339937
 30
0.0
  0
SPLINE
  5
1BF
330
1F
100
AcDbEntity
  8
0
  6
Continuous
 62
     7
370
    25
100
AcDbSpline
210
0.0
220
0.0
230
1.0
 70
     8
 71
     3
 72
     8
 73
     4
 74
     0
 42
0.00000001
 43
0.00000001
 40
0.0
 40
0.0
 40
0.0
 40
0.0
 40
1.0
 40
1.0
 40
1.0
 40
1.0
 10
305.0270474074444
 20
109.7601273171595
 30
0.0
 10
305.5488535587462
 20
110.0327174528289
 30
0.0
 10
306.0725070276024
 20
110.3018699539503
 30
0.0
 10
306.5988441771689
 20
110.5650385287335
 30
0.0
  0
SPLINE
  5
1C0
330
1F
100
AcDbEntity
  8
0
  6
Continuous
 62
     7
370
    25
100
AcDbSpline
210
0.0
220
0.0
230
1.0
 70
     8
 71
     3
 72
    10
 73
     6
 74
     0
 42
0.00000001
 43
0.00000001
 40
0.0
 40
0.0
 40
0.0
 40
0.0
 40
0.5
 40
0.5
 40
1.0
 40
1.0
 40
1.0
 40
1.0
 10
305.0270474074444
 20
109.5986419888785
 30
0.0
 10
305.0270474074444
 20
109.5749665944541
 30
0.0
 10
305.0498398567743
 20
109.5618754845695
 30
0.0
 10
305.1377825608675
 20
109.5617891632812
 30
0.0
 10
305.2026403345417
 20
109.5749580972252
 30
0.0
 10
305.2770474074451
 20
109.5986419888787
 30
0.0
  0
SPLINE
  5
1C1
330
1F
100
AcDbEntity
  8
0
  6
Continuous
 62
     7
370
    25
100
AcDbSpline
210
0.0
220
0.0
230
1.0
 70
    24
 71
     3
 72
     8
 73
     4
 74
     0
 42
0.00000001
 43
0.00000001
 40
0.0
 40
0.0
 40
0.0
 40
0.0
 40
1.0
 40
1.0
 40
1.0
 40
1.0
 10
305.0270474074444
 20
109.7601273171595
 30
0.0
 10
305.0270474074444
 20
109.7092325274587
 30
0.0
 10
305.0270474074444
 20
109.6552986780973
 30
0.0
 10
305.0270474074444
 20
109.5986419888785
 30
0.0
  0
SPLINE
  5
1C2
330
1F
100
AcDbEntity
  8
0
  6
Continuous
 62
     7
370
    25
100
AcDbSpline
210
0.0
220
0.0
230
1.0
 70
     8
 71
     3
 72
     8
 73
     4
 74
     0
 42
0.00000001
 43
0.00000001
 40
0.0
 40
0.0
 40
0.0
 40
0.0
 40
1.0
 40
1.0
 40
1.0
 40
1.0
 10
320.4552506377199
 20
110.5650385287335
 30
0.0
 10
320.9816714989291
 20
110.3018280981289
 30
0.0
 10
321.5052159556428
 20
110.0327306697422
 30
0.0
 10
322.0270474074444
 20
109.7601273171595
 30
0.0
  0
SPLINE
  5
1C3
330
1F
100
AcDbEntity
  8
0
  6
Continuous
 62
     7
370
    25
100
AcDbSpline
210
0.0
220
0.0
230
1.0
 70
     8
 71
     3
 72
    10
 73
     6
 74
     0
 42
0.00000001
 43
0.00000001
 40
0.0
 40
0.0
 40
0.0
 40
0.0
 40
0.5
 40
0.5
 40
1.0
 40
1.0
 40
1.0
 40
1.0
 10
321.7770474074444
 20
109.5986419888785
 30
0.0
 10
321.8514277848217
 20
109.5749665944541
 30
0.0
 10
321.9157284236075
 20
109.5618754845695
 30
0.0
 10
322.0039441083904
 20
109.5617891632812
 30
0.0
 10
322.0270474074444
 20
109.574958097225
 30
0.0
 10
322.0270474074444
 20
109.5986419888785
 30
0.0
  0
SPLINE
  5
1C4
330
1F
100
AcDbEntity
  8
0
  6
Continuous
 62
     7
370
    25
100
AcDbSpline
210
0.0
220
0.0
230
1.0
 70
    24
 71
     3
 72
     8
 73
     4
 74
     0
 42
0.00000001
 43
0.00000001
 40
0.0
 40
0.0
 40
0.0
 40
0.0
 40
1.0
 40
1.0
 40
1.0
 40
1.0
 10
322.0270474074444
 20
109.7601273171595
 30
0.0
 10
322.0270474074444
 20
109.7092325274587
 30
0.0
 10
322.0270474074444
 20
109.6552986780973
 30
0.0
 10
322.0270474074444
 20
109.5986419888785
 30
0.0
  0
LINE
  5
1C5
330
1F
100
AcDbEntity
  8
0
  6
Continuous
 62
     7
370
    25
100
AcDbLine
 10
306.0270474074
 20
110.5650385287
 30
0.0
 11
308.6514030604
 21
110.5650385287
 31
0.0
  0
LINE
  5
1C6
330
1F
100
AcDbEntity
  8
0
  6
Continuous
 62
     7
370
    25
100
AcDbLine
 10
306.0270474074
 20
110.5650385287
 30
0.0
 11
306.0270474074
 21
112.0802109714
 31
0.0
  0
LINE
  5
1C7
330
1F
100
AcDbEntity
  8
0
  6
Continuous
 62
     7
370
    25
100
AcDbLine
 10
318.4026917545
 20
110.5650385287
 30
0.0
 11
321.0270474074
 21
110.5650385287
 31
0.0
  0
LINE
  5
1C8
330
1F
100
AcDbEntity
  8
0
  6
Continuous
 62
     7
370
    25
100
AcDbLine
 10
321.0270474074
 20
112.0802109714
 30
0.0
 11
321.0270474074
 21
110.5650385287
 31
0.0
  0
LINE
  5
1C9
330
1F
100
AcDbEntity
  8
0
  6
Continuous
 62
     7
370
    25
100
AcDbLine
 10
313.5270474074
 20
96.1687044026
 30
0.0
 11
319.991599466
 21
96.1687044026
 31
0.0
  0
LINE
  5
1CA
330
1F
100
AcDbEntity
  8
0
  6
Continuous
 62
     7
370
    25
100
AcDbLine
 10
307.0624953489
 20
96.1687044026
 30
0.0
 11
313.5270474074
 21
96.1687044026
 31
0.0
  0
LINE
  5
1CB
330
1F
100
AcDbEntity
  8
0
  6
Continuous
 62
     7
370
    25
100
AcDbLine
 10
318.7770474074
 20
94.0650385287
 30
0.0
 11
308.2770474074
 21
94.0650385287
 31
0.0
  0
LINE
  5
1CC
330
1F
100
AcDbEntity
  8
0
  6
Continuous
 62
     7
370
    25
100
AcDbLine
 10
305.0270474074
 20
106.242759934
 30
0.0
 11
305.0270474074
 21
109.5986419889
 31
0.0
  0
LINE
  5
1CD
330
1F
100
AcDbEntity
  8
0
  6
Continuous
 62
     7
370
    25
100
AcDbLine
 10
322.0270474074
 20
109.5986419889
 30
0.0
 11
322.0270474074
 21
106.242759934
 31
0.0
  0
LINE
  5
1CE
330
1F
100
AcDbEntity
  8
0
  6
Continuous
 62
     7
370
    25
100
AcDbLine
 10
305.0270474074
 20
109.7601273172
 30
0.0
 11
305.0270474074
 21
112.9157414894
 31
0.0
  0
LINE
  5
1CF
330
1F
100
AcDbEntity
  8
0
  6
Continuous
 62
     7
370
    25
100
AcDbLine
 10
322.0270474074
 20
109.7601273172
 30
0.0
 11
322.0270474074
 21
112.9157414894
 31
0.0
  0
LINE
  5
1D0
330
1F
100
AcDbEntity
  8
0
  6
Continuous
 62
     7
370
    25
100
AcDbLine
 10
314.7770474074
 20
144.0650385287
 30
0.0
 11
314.7770474074
 21
144.6650385287
 31
0.0
  0
LINE
  5
1D1
330
1F
100
AcDbEntity
  8
0
  6
Continuous
 62
     7
370
    25
100
AcDbLine
 10
314.7770474074
 20
144.6650385287
 30
0.0
 11
315.0270474074
 21
144.6650385287
 31
0.0
  0
LINE
  5
1D2
330
1F
100
AcDbEntity
  8
0
  6
Continuous
 62
     7
370
    25
100
AcDbLine
 10
315.0270474074
 20
144.6650385287
 30
0.0
 11
315.0270474074
 21
144.0650385287
 31
0.0
  0
LINE
  5
1D3
330
1F
100
AcDbEntity
  8
0
  6
Continuous
 62
     7
370
    25
100
AcDbLine
 10
315.0270474074
 20
144.0650385287
 30
0.0
 11
314.7770474074
 21
144.0650385287
 31
0.0
  0
LINE
  5
1D4
330
1F
100
AcDbEntity
  8
0
  6
Continuous
 62
     7
370
    25
100
AcDbLine
 10
314.7770474074
 20
144.6650385287
 30
0.0
 11
314.7770474074
 21
144.9150385287
 31
0.0
  0
LINE
  5
1D5
330
1F
100
AcDbEntity
  8
0
  6
Continuous
 62
     7
370
    25
100
AcDbLine
 10
314.7770474074
 20
144.6650385287
 30
0.0
 11
312.2770474074
 21
144.6650385287
 31
0.0
  0
LINE
  5
1D6
330
1F
100
AcDbEntity
  8
0
  6
Continuous
 62
     7
370
    25
100
AcDbLine
 10
312.2770474074
 20
144.9150385287
 30
0.0
 11
312.2770474074
 21
144.6650385287
 31
0.0
  0
LINE
  5
1D7
330
1F
100
AcDbEntity
  8
0
  6
Continuous
 62
     7
370
    25
100
AcDbLine
 10
312.2770474074
 20
144.9150385287
 30
0.0
 11
314.7770474074
 21
144.9150385287
 31
0.0
  0
LINE
  5
1D8
330
1F
100
AcDbEntity
  8
0
  6
Continuous
 62
     7
370
    25
100
AcDbLine
 10
312.0270474074
 20
144.0650385287
 30
0.0
 11
312.0270474074
 21
144.6650385287
 31
0.0
  0
LINE
  5
1D9
330
1F
100
AcDbEntity
  8
0
  6
Continuous
 62
     7
370
    25
100
AcDbLine
 10
312.0270474074
 20
144.6650385287
 30
0.0
 11
312.2770474074
 21
144.6650385287
 31
0.0
  0
LINE
  5
1DA
330
1F
100
AcDbEntity
  8
0
  6
Continuous
 62
     7
370
    25
100
AcDbLine
 10
312.2770474074
 20
144.6650385287
 30
0.0
 11
312.2770474074
 21
144.0650385287
 31
0.0
  0
LINE
  5
1DB
330
1F
100
AcDbEntity
  8
0
  6
Continuous
 62
     7
370
    25
100
AcDbLine
 10
312.2770474074
 20
144.0650385287
 30
0.0
 11
312.0270474074
 21
144.0650385287
 31
0.0
  0
ARC
  5
1DC
330
1F
100
AcDbEntity
  8
0
  6
Continuous
 62
     7
370
    25
100
AcDbCircle
 10
314.7770474074
 20
144.6650385287
 30
0.0
 40
0.25
100
AcDbArc
 50
0.0
 51
90.0
  0
ARC
  5
1DD
330
1F
100
AcDbEntity
  8
0
  6
Continuous
 62
     7
370
    25
100
AcDbCircle
 10
312.2770474074
 20
144.6650385287
 30
0.0
 40
0.2500000000000568
100
AcDbArc
 50
90.0
 51
180.0
  0
LINE
  5
1DE
330
1F
100
AcDbEntity
  8
0
  6
Continuous
 62
     7
370
    25
100
AcDbLine
 10
312.2770474074
 20
144.0650385287
 30
0.0
 11
314.7770474074
 21
144.0650385287
 31
0.0
  0
SPLINE
  5
1DF
330
1F
100
AcDbEntity
  8
0
  6
Continuous
 62
     7
370
    25
100
AcDbSpline
210
0.0
220
0.0
230
1.0
 70
     8
 71
     3
 72
    15
 73
    11
 74
     0
 42
0.00000001
 43
0.00000001
 40
0.0
 40
0.0
 40
0.0
 40
0.0
 40
0.0090459071881971
 40
0.1032433785236816
 40
0.1542564497735189
 40
0.31331690267151
 40
0.5243720399414428
 40
0.6678060008509183
 40
0.9918332554187028
 40
1.0
 40
1.0
 40
1.0
 40
1.0
 10
311.8531343639661
 20
144.6650385287335
 30
0.0
 10
311.8531520096906
 20
144.6667196273179
 30
0.0
 10
311.8533534051032
 20
144.6859064588734
 30
0.0
 10
311.8595430257694
 20
144.7146007383934
 30
0.0
 10
311.8837449576135
 20
144.7652767783654
 30
0.0
 10
311.9367639496152
 20
144.8231530779423
 30
0.0
 10
312.0181348368117
 20
144.8680185926769
 30
0.0
 10
312.1327139088343
 20
144.9053809759315
 30
0.0
 10
312.2171390865533
 20
144.9149269882009
 30
0.0
 10
312.2756099445054
 20
144.9150358523877
 30
0.0
 10
312.2770474074445
 20
144.9150385287335
 30
0.0
  0
LINE
  5
1E0
330
1F
100
AcDbEntity
  8
0
  6
Continuous
 62
     7
370
    25
100
AcDbLine
 10
311.853134364
 20
144.6650385287
 30
0.0
 11
312.0270474074
 21
144.6650385287
 31
0.0
  0
LINE
  5
1E1
330
1F
100
AcDbEntity
  8
0
  6
Continuous
 62
     7
370
    25
100
AcDbLine
 10
315.0270474074
 20
144.6650385287
 30
0.0
 11
315.2009604509
 21
144.6650385287
 31
0.0
  0
SPLINE
  5
1E2
330
1F
100
AcDbEntity
  8
0
  6
Continuous
 62
     7
370
    25
100
AcDbSpline
210
0.0
220
0.0
230
1.0
 70
     8
 71
     3
 72
    15
 73
    11
 74
     0
 42
0.00000001
 43
0.00000001
 40
0.0
 40
0.0
 40
0.0
 40
0.0
 40
0.0081667445812695
 40
0.3321939991490083
 40
0.4756279600585602
 40
0.6866830973284899
 40
0.8457435502264811
 40
0.8967566214763185
 40
0.9909540928118029
 40
1.0
 40
1.0
 40
1.0
 40
1.0
 10
314.7770474074444
 20
144.9150385287335
 30
0.0
 10
314.7784848703834
 20
144.9150358523877
 30
0.0
 10
314.8369557283352
 20
144.9149269882009
 30
0.0
 10
314.9213809060547
 20
144.9053809759315
 30
0.0
 10
315.035959978077
 20
144.8680185926769
 30
0.0
 10
315.1173308652737
 20
144.8231530779423
 30
0.0
 10
315.1703498572753
 20
144.7652767783654
 30
0.0
 10
315.1945517891195
 20
144.7146007383934
 30
0.0
 10
315.2007414097857
 20
144.6859064588734
 30
0.0
 10
315.2009428051982
 20
144.6667196273179
 30
0.0
 10
315.2009604509227
 20
144.6650385287335
 30
0.0
  0
LINE
  5
1E3
330
1F
100
AcDbEntity
  8
0
  6
Continuous
 62
     7
370
    25
100
AcDbLine
 10
311.853134364
 20
144.0650385287
 30
0.0
 11
311.853134364
 21
144.6650385287
 31
0.0
  0
LINE
  5
1E4
330
1F
100
AcDbEntity
  8
0
  6
Continuous
 62
     7
370
    25
100
AcDbLine
 10
312.0270474074
 20
144.0650385287
 30
0.0
 11
311.853134364
 21
144.0650385287
 31
0.0
  0
LINE
  5
1E5
330
1F
100
AcDbEntity
  8
0
  6
Continuous
 62
     7
370
    25
100
AcDbLine
 10
315.2009604509
 20
144.6650385287
 30
0.0
 11
315.2009604509
 21
144.0650385287
 31
0.0
  0
LINE
  5
1E6
330
1F
100
AcDbEntity
  8
0
  6
Continuous
 62
     7
370
    25
100
AcDbLine
 10
315.2009604509
 20
144.0650385287
 30
0.0
 11
315.0270474074
 21
144.0650385287
 31
0.0
  0
LINE
  5
1E7
330
1F
100
AcDbEntity
  8
0
  6
Continuous
 62
     7
370
    25
100
AcDbLine
 10
308.2770474074
 20
144.9150385287
 30
0.0
 11
312.2770474074
 21
144.9150385287
 31
0.0
  0
LINE
  5
1E8
330
1F
100
AcDbEntity
  8
0
  6
Continuous
 62
     7
370
    25
100
AcDbLine
 10
314.7770474074
 20
144.9150385287
 30
0.0
 11
318.7770474074
 21
144.9150385287
 31
0.0
  0
LINE
  5
1E9
330
1F
100
AcDbEntity
  8
0
  6
Continuous
 62
     7
370
    25
100
AcDbLine
 10
308.0270474074
 20
144.0650385287
 30
0.0
 11
311.853134364
 21
144.0650385287
 31
0.0
  0
LINE
  5
1EA
330
1F
100
AcDbEntity
  8
0
  6
Continuous
 62
     7
370
    25
100
AcDbLine
 10
315.2009604509
 20
144.0650385287
 30
0.0
 11
319.0270474074
 21
144.0650385287
 31
0.0
  0
LINE
  5
1EB
330
1F
100
AcDbEntity
  8
0
  6
Continuous
 62
     7
370
    25
100
AcDbLine
 10
314.1270474074
 20
144.9150385287
 30
0.0
 11
314.1270474074
 21
144.9250385287
 31
0.0
  0
LINE
  5
1EC
330
1F
100
AcDbEntity
  8
0
  6
Continuous
 62
     7
370
    25
100
AcDbLine
 10
312.9270474074
 20
144.9150385287
 30
0.0
 11
312.9270474074
 21
144.9250385287
 31
0.0
  0
LINE
  5
1ED
330
1F
100
AcDbEntity
  8
0
  6
Continuous
 62
     7
370
    25
100
AcDbLine
 10
312.9270474074
 20
144.9250385287
 30
0.0
 11
314.1270474074
 21
144.9250385287
 31
0.0
  0
LINE
  5
1EE
330
1F
100
AcDbEntity
  8
0
  6
Continuous
 62
     7
370
    25
100
AcDbLine
 10
306.0770474074
 20
136.0650385287
 30
0.0
 11
320.9770474075
 21
136.0650385287
 31
0.0
  0
LINE
  5
1EF
330
1F
100
AcDbEntity
  8
0
  6
Continuous
 62
     7
370
    25
100
AcDbLine
 10
306.5270474074
 20
128.0650385287
 30
0.0
 11
320.5270474074
 21
128.0650385287
 31
0.0
  0
LINE
  5
1F0
330
1F
100
AcDbEntity
  8
0
  6
Continuous
 62
     7
370
    25
100
AcDbLine
 10
310.0270474074
 20
146.0650385287
 30
0.0
 11
310.0270474074
 21
144.9150385287
 31
0.0
  0
LINE
  5
1F1
330
1F
100
AcDbEntity
  8
0
  6
Continuous
 62
     7
370
    25
100
AcDbLine
 10
310.0270474074
 20
146.0650385287
 30
0.0
 11
310.2553481434
 21
146.0650385287
 31
0.0
  0
LINE
  5
1F2
330
1F
100
AcDbEntity
  8
0
  6
Continuous
 62
     7
370
    25
100
AcDbLine
 10
310.2553481434
 20
146.0650385287
 30
0.0
 11
310.2553481434
 21
144.9150385287
 31
0.0
  0
LINE
  5
1F3
330
1F
100
AcDbEntity
  8
0
  6
Continuous
 62
     7
370
    25
100
AcDbLine
 10
316.7987466715
 20
146.0650385287
 30
0.0
 11
316.7987466715
 21
144.9150385287
 31
0.0
  0
LINE
  5
1F4
330
1F
100
AcDbEntity
  8
0
  6
Continuous
 62
     7
370
    25
100
AcDbLine
 10
316.7987466715
 20
146.0650385287
 30
0.0
 11
317.0270474074
 21
146.0650385287
 31
0.0
  0
LINE
  5
1F5
330
1F
100
AcDbEntity
  8
0
  6
Continuous
 62
     7
370
    25
100
AcDbLine
 10
317.0270474074
 20
144.9150385287
 30
0.0
 11
317.0270474074
 21
146.0650385287
 31
0.0
  0
LINE
  5
1F6
330
1F
100
AcDbEntity
  8
0
  6
Continuous
 62
     7
370
    25
100
AcDbLine
 10
310.2553481434
 20
146.0650385287
 30
0.0
 11
316.7987466715
 21
146.0650385287
 31
0.0
  0
SPLINE
  5
1F7
330
1F
100
AcDbEntity
  8
0
  6
Continuous
 62
     7
370
    25
100
AcDbSpline
210
0.0
220
0.0
230
1.0
 70
     8
 71
     3
 72
    19
 73
    15
 74
     0
 42
0.00000001
 43
0.00000001
 40
0.0
 40
0.0
 40
0.0
 40
0.0
 40
0.0167537368466636
 40
0.0954721520996919
 40
0.1742952126288454
 40
0.2799165983531459
 40
0.3857336219399632
 40
0.4988190166567633
 40
0.6118858961618249
 40
0.70706738327633
 40
0.8021746677427469
 40
0.8927535493203909
 40
0.9832577839646914
 40
1.0
 40
1.0
 40
1.0
 40
1.0
 10
307.6346860795507
 20
124.1044361914161
 30
0.0
 10
307.6321639057448
 20
124.1013056953554
 30
0.0
 10
307.6177911503753
 20
124.0834663799364
 30
0.0
 10
307.6812365454434
 20
124.1625294382613
 30
0.0
 10
307.8363392545402
 20
124.3470103341781
 30
0.0
 10
308.124637920644
 20
124.6669906871139
 30
0.0
 10
308.5570715030834
 20
125.0914385358173
 30
0.0
 10
309.1115043546531
 20
125.5541032346812
 30
0.0
 10
309.754399883662
 20
125.9945831978897
 30
0.0
 10
310.4538368144586
 20
126.3726441387059
 30
0.0
 10
311.175837133045
 20
126.6758676668642
 30
0.0
 10
311.9535565226769
 20
126.894266785491
 30
0.0
 10
312.5416049953563
 20
127.0156665451711
 30
0.0
 10
312.8711951738726
 20
127.0289663725228
 30
0.0
 10
312.9226474124955
 20
127.0310426051752
 30
0.0
  0
SPLINE
  5
1F8
330
1F
100
AcDbEntity
  8
0
  6
Continuous
 62
     7
370
    25
100
AcDbSpline
210
0.0
220
0.0
230
1.0
 70
     8
 71
     3
 72
    19
 73
    15
 74
     0
 42
0.00000001
 43
0.00000001
 40
0.0
 40
0.0
 40
0.0
 40
0.0
 40
0.0313543399888413
 40
0.0973973385528851
 40
0.1974114415268892
 40
0.2975378104928738
 40
0.4181260877163557
 40
0.5388108082130725
 40
0.6564425296739205
 40
0.773907855844015
 40
0.8504428602923191
 40
0.9268771546886326
 40
0.9967444484763373
 40
1.0
 40
1.0
 40
1.0
 40
1.0
 10
314.1392446173855
 20
127.0265408810005
 30
0.0
 10
314.2351165390083
 20
127.0213208414678
 30
0.0
 10
314.5329276238961
 20
127.005105607538
 30
0.0
 10
315.1158130258328
 20
126.8907331426813
 30
0.0
 10
315.8650573644211
 20
126.6814606370253
 30
0.0
 10
316.6855220895537
 20
126.3371387453039
 30
0.0
 10
317.4526687784679
 20
125.9015397007862
 30
0.0
 10
318.1339593627425
 20
125.4061408188752
 30
0.0
 10
318.6846694959701
 20
124.9157447389227
 30
0.0
 10
319.053406927734
 20
124.5327888664572
 30
0.0
 10
319.281432572051
 20
124.2720365818494
 30
0.0
 10
319.3925375162955
 20
124.1375809314045
 30
0.0
 10
319.4365143742629
 20
124.0836822861169
 30
0.0
 10
319.4255908112386
 20
124.0970139665794
 30
0.0
 10
319.4251044759204
 20
124.0976075153186
 30
0.0
  0
LINE
  5
1F9
330
1F
100
AcDbEntity
  8
0
  6
Continuous
 62
     7
370
    25
100
AcDbLine
 10
311.853134364
 20
144.6650385287
 30
0.0
 11
308.0270474074
 21
144.6650385287
 31
0.0
  0
LINE
  5
1FA
330
1F
100
AcDbEntity
  8
0
  6
Continuous
 62
     7
370
    25
100
AcDbLine
 10
319.0270474074
 20
144.6650385287
 30
0.0
 11
315.2009604509
 21
144.6650385287
 31
0.0
  0
INSERT
  5
206
330
1F
100
AcDbEntity
  8
FORMAT
100
AcDbBlockReference
  2
SW_CENTERMARKSYMBOL_0
 10
313.5270474074
 20
117.5650385287
 30
0.0
  0
ARC
  5
207
330
1F
100
AcDbEntity
  8
FORMAT
100
AcDbCircle
 10
313.5270474074
 20
117.5650385287
 30
0.0
 40
7.000000000000016
100
AcDbArc
 50
75.0
 51
345.0
  0
LINE
  5
208
330
1F
100
AcDbEntity
  8
FORMAT
100
AcDbLine
 10
307.7775091036
 20
94.9302642513
 30
0.0
 11
307.4607974074
 21
105.0650385287
 31
0.0
  0
LINE
  5
209
330
1F
100
AcDbEntity
  8
FORMAT
100
AcDbLine
 10
319.2765857113
 20
94.9302642513
 30
0.0
 11
319.5932974074
 21
105.0650385287
 31
0.0
  0
LINE
  5
20A
330
1F
100
AcDbEntity
  8
FORMAT
100
AcDbLine
 10
320.2696099074
 20
105.0650385287
 30
0.0
 11
306.7844849074
 21
105.0650385287
 31
0.0
  0
LINE
  5
20B
330
1F
100
AcDbEntity
  8
0
  6
Continuous
 62
     7
370
    25
100
AcDbLine
 10
193.8077636961
 20
193.4029848921
 30
0.0
 11
189.0138716602
 21
192.8364340151
 31
0.0
  0
LINE
  5
20C
330
1F
100
AcDbEntity
  8
0
  6
Continuous
 62
     7
370
    25
100
AcDbLine
 10
189.0138716602
 20
184.9695357691
 30
0.0
 11
193.8077636961
 21
184.4029848921
 31
0.0
  0
LINE
  5
20D
330
1F
100
AcDbEntity
  8
0
  6
Continuous
 62
     7
370
    25
100
AcDbLine
 10
205.8077636961
 20
193.4029848921
 30
0.0
 11
201.8077636961
 21
192.7529848921
 31
0.0
  0
LINE
  5
20E
330
1F
100
AcDbEntity
  8
0
  6
Continuous
 62
     7
370
    25
100
AcDbLine
 10
201.8077636961
 20
185.0529848921
 30
0.0
 11
205.8077636961
 21
184.4029848921
 31
0.0
  0
LINE
  5
20F
330
1F
100
AcDbEntity
  8
0
  6
Continuous
 62
     7
370
    25
100
AcDbLine
 10
197.8077636961
 20
193.4029848921
 30
0.0
 11
193.8077636961
 21
192.7529848921
 31
0.0
  0
LINE
  5
210
330
1F
100
AcDbEntity
  8
0
  6
Continuous
 62
     7
370
    25
100
AcDbLine
 10
193.8077636961
 20
185.0529848921
 30
0.0
 11
197.8077636961
 21
184.4029848921
 31
0.0
  0
LINE
  5
211
330
1F
100
AcDbEntity
  8
0
  6
Continuous
 62
     7
370
    25
100
AcDbLine
 10
201.8077636961
 20
193.4029848921
 30
0.0
 11
197.8077636961
 21
192.7529848921
 31
0.0
  0
LINE
  5
212
330
1F
100
AcDbEntity
  8
0
  6
Continuous
 62
     7
370
    25
100
AcDbLine
 10
197.8077636961
 20
185.0529848921
 30
0.0
 11
201.8077636961
 21
184.4029848921
 31
0.0
  0
LINE
  5
213
330
1F
100
AcDbEntity
  8
0
  6
Continuous
 62
     7
370
    25
100
AcDbLine
 10
209.8077636961
 20
184.4029848921
 30
0.0
 11
214.3077636961
 21
184.4029848921
 31
0.0
  0
LINE
  5
214
330
1F
100
AcDbEntity
  8
0
  6
Continuous
 62
     7
370
    25
100
AcDbLine
 10
214.3077636961
 20
193.4029848921
 30
0.0
 11
209.8077636961
 21
193.4029848921
 31
0.0
  0
LINE
  5
215
330
1F
100
AcDbEntity
  8
0
  6
Continuous
 62
     7
370
    25
100
AcDbLine
 10
209.8077636961
 20
193.4029848921
 30
0.0
 11
205.8077636961
 21
192.7529848921
 31
0.0
  0
LINE
  5
216
330
1F
100
AcDbEntity
  8
0
  6
Continuous
 62
     7
370
    25
100
AcDbLine
 10
205.8077636961
 20
185.0529848921
 30
0.0
 11
209.8077636961
 21
184.4029848921
 31
0.0
  0
ARC
  5
217
330
1F
100
AcDbEntity
  8
0
  6
Continuous
 62
     7
370
    25
100
AcDbCircle
 10
189.1077636961
 20
185.7640068419
 30
0.0
 40
0.8000000000000135
100
AcDbArc
 50
180.0
 51
263.2599439021
  0
ARC
  5
218
330
1F
100
AcDbEntity
  8
0
  6
Continuous
 62
     7
370
    25
100
AcDbCircle
 10
189.1077636961
 20
192.0419629423
 30
0.0
 40
0.7999999999999853
100
AcDbArc
 50
96.7400560979
 51
180.0
  0
LINE
  5
219
330
1F
100
AcDbEntity
  8
0
  6
Continuous
 62
     7
370
    25
100
AcDbLine
 10
225.2211611557
 20
180.9029848921
 30
0.0
 11
225.3077636961
 21
181.0529848921
 31
0.0
  0
LINE
  5
21A
330
1F
100
AcDbEntity
  8
0
  6
Continuous
 62
     7
370
    25
100
AcDbLine
 10
225.3077636961
 20
196.7529848921
 30
0.0
 11
225.2211611557
 21
196.9029848921
 31
0.0
  0
LINE
  5
21B
330
1F
100
AcDbEntity
  8
0
  6
Continuous
 62
     7
370
    25
100
AcDbLine
 10
216.3943662365
 20
196.9029848921
 30
0.0
 11
216.3077636961
 21
196.7529848921
 31
0.0
  0
LINE
  5
21C
330
1F
100
AcDbEntity
  8
0
  6
Continuous
 62
     7
370
    25
100
AcDbLine
 10
216.3077636961
 20
181.0529848921
 30
0.0
 11
216.3943662365
 21
180.9029848921
 31
0.0
  0
ARC
  5
21D
330
1F
100
AcDbEntity
  8
0
  6
Continuous
 62
     7
370
    25
100
AcDbCircle
 10
227.0077636961
 20
196.4529848921
 30
0.0
 40
0.2999999999999829
100
AcDbArc
 50
0.0
 51
90.0
  0
ARC
  5
21E
330
1F
100
AcDbEntity
  8
0
  6
Continuous
 62
     7
370
    25
100
AcDbCircle
 10
227.0077636961
 20
181.3529848921
 30
0.0
 40
0.2999999999999829
100
AcDbArc
 50
270.0
 51
0.0
  0
LINE
  5
21F
330
1F
100
AcDbEntity
  8
0
  6
Continuous
 62
     7
370
    25
100
AcDbLine
 10
216.3077636961
 20
196.7529848921
 30
0.0
 11
214.6077636961
 21
196.7529848921
 31
0.0
  0
LINE
  5
220
330
1F
100
AcDbEntity
  8
0
  6
Continuous
 62
     7
370
    25
100
AcDbLine
 10
214.6077636961
 20
181.0529848921
 30
0.0
 11
216.3077636961
 21
181.0529848921
 31
0.0
  0
ARC
  5
221
330
1F
100
AcDbEntity
  8
0
  6
Continuous
 62
     7
370
    25
100
AcDbCircle
 10
214.6077636961
 20
181.3529848921
 30
0.0
 40
0.2999999999999829
100
AcDbArc
 50
180.0
 51
270.0
  0
ARC
  5
222
330
1F
100
AcDbEntity
  8
0
  6
Continuous
 62
     7
370
    25
100
AcDbCircle
 10
214.6077636961
 20
196.4529848921
 30
0.0
 40
0.2999999999999829
100
AcDbArc
 50
90.0
 51
180.0
  0
LINE
  5
223
330
1F
100
AcDbEntity
  8
0
  6
Continuous
 62
     7
370
    25
100
AcDbLine
 10
225.3077636961
 20
181.0529848921
 30
0.0
 11
227.0077636961
 21
181.0529848921
 31
0.0
  0
LINE
  5
224
330
1F
100
AcDbEntity
  8
0
  6
Continuous
 62
     7
370
    25
100
AcDbLine
 10
227.0077636961
 20
196.7529848921
 30
0.0
 11
225.3077636961
 21
196.7529848921
 31
0.0
  0
LINE
  5
225
330
1F
100
AcDbEntity
  8
0
  6
Continuous
 62
     7
370
    25
100
AcDbLine
 10
230.6858916185
 20
180.4029848921
 30
0.0
 11
233.4858916185
 21
180.4029848921
 31
0.0
  0
LINE
  5
226
330
1F
100
AcDbEntity
  8
0
  6
Continuous
 62
     7
370
    25
100
AcDbLine
 10
233.4858916185
 20
197.4029848921
 30
0.0
 11
230.6858916185
 21
197.4029848921
 31
0.0
  0
LINE
  5
227
330
1F
100
AcDbEntity
  8
0
  6
Continuous
 62
     7
370
    25
100
AcDbLine
 10
230.6858916185
 20
197.4029848921
 30
0.0
 11
230.4858916185
 21
197.2029848921
 31
0.0
  0
LINE
  5
228
330
1F
100
AcDbEntity
  8
0
  6
Continuous
 62
     7
370
    25
100
AcDbLine
 10
230.4858916185
 20
180.6029848921
 30
0.0
 11
230.6858916185
 21
180.4029848921
 31
0.0
  0
LINE
  5
229
330
1F
100
AcDbEntity
  8
0
  6
Continuous
 62
     7
370
    25
100
AcDbLine
 10
230.4858916185
 20
195.4814848921
 30
0.0
 11
227.3077636961
 21
195.4814848921
 31
0.0
  0
LINE
  5
22A
330
1F
100
AcDbEntity
  8
0
  6
Continuous
 62
     7
370
    25
100
AcDbLine
 10
227.3077636961
 20
182.3244848921
 30
0.0
 11
230.4858916185
 21
182.3244848921
 31
0.0
  0
LINE
  5
22B
330
1F
100
AcDbEntity
  8
0
  6
Continuous
 62
     7
370
    25
100
AcDbLine
 10
256.8415540512
 20
180.4029848921
 30
0.0
 11
256.9858916185
 21
180.6529848921
 31
0.0
  0
LINE
  5
22C
330
1F
100
AcDbEntity
  8
0
  6
Continuous
 62
     7
370
    25
100
AcDbLine
 10
256.9858916185
 20
197.1529848921
 30
0.0
 11
256.8415540512
 21
197.4029848921
 31
0.0
  0
LINE
  5
22D
330
1F
100
AcDbEntity
  8
0
  6
Continuous
 62
     7
370
    25
100
AcDbLine
 10
193.8077636961
 20
184.4029848921
 30
0.0
 11
193.8077636961
 21
193.4029848921
 31
0.0
  0
LINE
  5
22E
330
1F
100
AcDbEntity
  8
0
  6
Continuous
 62
     7
370
    25
100
AcDbLine
 10
205.8077636961
 20
184.4029848921
 30
0.0
 11
205.8077636961
 21
185.4029848921
 31
0.0
  0
LINE
  5
22F
330
1F
100
AcDbEntity
  8
0
  6
Continuous
 62
     7
370
    25
100
AcDbLine
 10
205.8077636961
 20
192.4029848921
 30
0.0
 11
205.8077636961
 21
193.4029848921
 31
0.0
  0
LINE
  5
230
330
1F
100
AcDbEntity
  8
0
  6
Continuous
 62
     7
370
    25
100
AcDbLine
 10
197.8077636961
 20
184.4029848921
 30
0.0
 11
197.8077636961
 21
193.4029848921
 31
0.0
  0
LINE
  5
231
330
1F
100
AcDbEntity
  8
0
  6
Continuous
 62
     7
370
    25
100
AcDbLine
 10
201.8077636961
 20
184.4029848921
 30
0.0
 11
201.8077636961
 21
193.4029848921
 31
0.0
  0
LINE
  5
232
330
1F
100
AcDbEntity
  8
0
  6
Continuous
 62
     7
370
    25
100
AcDbLine
 10
209.8077636961
 20
184.4029848921
 30
0.0
 11
209.8077636961
 21
185.4029848921
 31
0.0
  0
LINE
  5
233
330
1F
100
AcDbEntity
  8
0
  6
Continuous
 62
     7
370
    25
100
AcDbLine
 10
209.8077636961
 20
192.4029848921
 30
0.0
 11
209.8077636961
 21
193.4029848921
 31
0.0
  0
LINE
  5
234
330
1F
100
AcDbEntity
  8
0
  6
Continuous
 62
     7
370
    25
100
AcDbLine
 10
188.3077636961
 20
185.7640068419
 30
0.0
 11
188.3077636961
 21
192.0419629423
 31
0.0
  0
SPLINE
  5
235
330
1F
100
AcDbEntity
  8
0
  6
Continuous
 62
     7
370
    25
100
AcDbSpline
210
0.0
220
0.0
230
1.0
 70
     8
 71
     3
 72
    12
 73
     8
 74
     0
 42
0.00000001
 43
0.00000001
 40
0.0
 40
0.0
 40
0.0
 40
0.0
 40
0.2382799746020416
 40
0.476492579421009
 40
0.7200340659539579
 40
0.9635316045078738
 40
1.0
 40
1.0
 40
1.0
 40
1.0
 10
224.5066299759024
 20
196.9029848921121
 30
0.0
 10
224.6152792043063
 20
196.5573594829415
 30
0.0
 10
224.8325469423139
 20
195.8662063845571
 30
0.0
 10
225.0684296384137
 20
194.8017880848444
 30
0.0
 10
225.2019773450984
 20
193.7177278775935
 30
0.0
 10
225.2422739775278
 20
192.9290264598346
 30
0.0
 10
225.2097034714997
 20
192.5091303543239
 30
0.0
 10
225.2054608335542
 20
192.4544346382414
 30
0.0
  0
SPLINE
  5
236
330
1F
100
AcDbEntity
  8
0
  6
Continuous
 62
     7
370
    25
100
AcDbSpline
210
0.0
220
0.0
230
1.0
 70
    24
 71
     3
 72
    10
 73
     6
 74
     0
 42
0.00000001
 43
0.00000001
 40
0.0
 40
0.0
 40
0.0
 40
0.0
 40
0.2360821294511254
 40
0.6159088308149462
 40
1.0
 40
1.0
 40
1.0
 40
1.0
 10
225.2166308080824
 20
196.9029848921121
 30
0.0
 10
225.209387923981
 20
196.9029848921121
 30
0.0
 10
225.1904921427162
 20
196.9029848921121
 30
0.0
 10
224.9648474749955
 20
196.9029848921121
 30
0.0
 10
224.6599365169454
 20
196.9029848921121
 30
0.0
 10
224.5066299759024
 20
196.9029848921121
 30
0.0
  0
SPLINE
  5
237
330
1F
100
AcDbEntity
  8
0
  6
Continuous
 62
     7
370
    25
100
AcDbSpline
210
0.0
220
0.0
230
1.0
 70
    24
 71
     3
 72
    10
 73
     6
 74
     0
 42
0.00000001
 43
0.00000001
 40
0.0
 40
0.0
 40
0.0
 40
0.0
 40
0.3801653716454216
 40
0.7639143736365736
 40
1.0
 40
1.0
 40
1.0
 40
1.0
 10
224.5066299759024
 20
180.9029848921121
 30
0.0
 10
224.6585362104426
 20
180.9029848921121
 30
0.0
 10
224.9637806242303
 20
180.9029848921121
 30
0.0
 10
225.1897901061709
 20
180.9029848921121
 30
0.0
 10
225.2101196248866
 20
180.9029848921121
 30
0.0
 10
225.2178628308001
 20
180.9029848921121
 30
0.0
  0
SPLINE
  5
238
330
1F
100
AcDbEntity
  8
0
  6
Continuous
 62
     7
370
    25
100
AcDbSpline
210
0.0
220
0.0
230
1.0
 70
     8
 71
     3
 72
    12
 73
     8
 74
     0
 42
0.00000001
 43
0.00000001
 40
0.0
 40
0.0
 40
0.0
 40
0.0
 40
0.1585339426664576
 40
0.3669847695168553
 40
0.575468112831894
 40
0.7877135353321687
 40
1.0
 40
1.0
 40
1.0
 40
1.0
 10
225.1989097074251
 20
185.329808589104
 30
0.0
 10
225.2094356835216
 20
185.0927056125265
 30
0.0
 10
225.2338019034411
 20
184.5438440895773
 30
0.0
 10
225.1609489119402
 20
183.6836311621455
 30
0.0
 10
225.0157079171304
 20
182.750659648561
 30
0.0
 10
224.7976088685147
 20
181.82180892469
 30
0.0
 10
224.603629191185
 20
181.2092793086682
 30
0.0
 10
224.5066299759024
 20
180.9029848921121
 30
0.0
  0
LINE
  5
239
330
1F
100
AcDbEntity
  8
0
  6
Continuous
 62
     7
370
    25
100
AcDbLine
 10
225.3077636961
 20
196.7529848921
 30
0.0
 11
225.3077636961
 21
192.4509760851
 31
0.0
  0
LINE
  5
23A
330
1F
100
AcDbEntity
  8
0
  6
Continuous
 62
     7
370
    25
100
AcDbLine
 10
225.3077636961
 20
185.3549936991
 30
0.0
 11
225.3077636961
 21
181.0529848921
 31
0.0
  0
SPLINE
  5
23B
330
1F
100
AcDbEntity
  8
0
  6
Continuous
 62
     7
370
    25
100
AcDbSpline
210
0.0
220
0.0
230
1.0
 70
    24
 71
     3
 72
    10
 73
     6
 74
     0
 42
0.00000001
 43
0.00000001
 40
0.0
 40
0.0
 40
0.0
 40
0.0
 40
0.2474401248080932
 40
0.6216975513979003
 40
1.0
 40
1.0
 40
1.0
 40
1.0
 10
216.3967449353732
 20
180.9029848921121
 30
0.0
 10
216.405704658815
 20
180.9029848921121
 30
0.0
 10
216.4282161174122
 20
180.9029848921121
 30
0.0
 10
216.6567317362911
 20
180.9029848921121
 30
0.0
 10
216.9576364004114
 20
180.9029848921121
 30
0.0
 10
217.108897416292
 20
180.9029848921121
 30
0.0
  0
SPLINE
  5
23C
330
1F
100
AcDbEntity
  8
0
  6
Continuous
 62
     7
370
    25
100
AcDbSpline
210
0.0
220
0.0
230
1.0
 70
    24
 71
     3
 72
    10
 73
     6
 74
     0
 42
0.00000001
 43
0.00000001
 40
0.0
 40
0.0
 40
0.0
 40
0.0
 40
0.37457648108019
 40
0.7525567234978838
 40
1.0
 40
1.0
 40
1.0
 40
1.0
 10
217.108897416292
 20
196.9029848921121
 30
0.0
 10
216.9589695769778
 20
196.9029848921121
 30
0.0
 10
216.657751510136
 20
196.9029848921121
 30
0.0
 10
216.4289174428337
 20
196.9029848921121
 30
0.0
 10
216.4049419375784
 20
196.9029848921121
 30
0.0
 10
216.3954562412515
 20
196.9029848921121
 30
0.0
  0
SPLINE
  5
23D
330
1F
100
AcDbEntity
  8
0
  6
Continuous
 62
     7
370
    25
100
AcDbSpline
210
0.0
220
0.0
230
1.0
 70
     8
 71
     3
 72
    12
 73
     8
 74
     0
 42
0.00000001
 43
0.00000001
 40
0.0
 40
0.0
 40
0.0
 40
0.0
 40
0.1720384195901963
 40
0.3771438715958189
 40
0.5822813182175276
 40
0.7911204673626929
 40
1.0
 40
1.0
 40
1.0
 40
1.0
 10
216.4185066998092
 20
192.402984892112
 30
0.0
 10
216.4066438056803
 20
192.664482872082
 30
0.0
 10
216.3806378831033
 20
193.237740640988
 30
0.0
 10
216.4542976939282
 20
194.1223397743665
 30
0.0
 10
216.5998958662338
 20
195.0553098221699
 30
0.0
 10
216.8178992794537
 20
195.9841609385085
 30
0.0
 10
217.011891785854
 20
196.5966905018825
 30
0.0
 10
217.108897416292
 20
196.9029848921121
 30
0.0
  0
SPLINE
  5
23E
330
1F
100
AcDbEntity
  8
0
  6
Continuous
 62
     7
370
    25
100
AcDbSpline
210
0.0
220
0.0
230
1.0
 70
     8
 71
     3
 72
    12
 73
     8
 74
     0
 42
0.00000001
 43
0.00000001
 40
0.0
 40
0.0
 40
0.0
 40
0.0
 40
0.2355866357993068
 40
0.4711066633132323
 40
0.7118953388437024
 40
0.9526405631502588
 40
0.9999999999999999
 40
0.9999999999999999
 40
0.9999999999999999
 40
0.9999999999999999
 10
217.108897416292
 20
180.9029848921121
 30
0.0
 10
217.0002377664506
 20
181.2486106657246
 30
0.0
 10
216.7829491885146
 20
181.9397644928898
 30
0.0
 10
216.5472239231233
 20
183.0041772871868
 30
0.0
 10
216.4130651095035
 20
184.0882588650947
 30
0.0
 10
216.3735680275229
 20
184.8941253933752
 30
0.0
 10
216.408093380709
 20
185.3311462082139
 30
0.0
 10
216.4137687532537
 20
185.402984892112
 30
0.0
  0
LINE
  5
23F
330
1F
100
AcDbEntity
  8
0
  6
Continuous
 62
     7
370
    25
100
AcDbLine
 10
216.3077636961
 20
181.0529848921
 30
0.0
 11
216.3077636961
 21
185.4029848921
 31
0.0
  0
LINE
  5
240
330
1F
100
AcDbEntity
  8
0
  6
Continuous
 62
     7
370
    25
100
AcDbLine
 10
216.3077636961
 20
192.4029848921
 30
0.0
 11
216.3077636961
 21
196.7529848921
 31
0.0
  0
LINE
  5
241
330
1F
100
AcDbEntity
  8
0
  6
Continuous
 62
     7
370
    25
100
AcDbLine
 10
217.1088974163
 20
196.9029848921
 30
0.0
 11
224.5066299759
 21
196.9029848921
 31
0.0
  0
LINE
  5
242
330
1F
100
AcDbEntity
  8
0
  6
Continuous
 62
     7
370
    25
100
AcDbLine
 10
217.1088974163
 20
180.9029848921
 30
0.0
 11
224.5066299759
 21
180.9029848921
 31
0.0
  0
LINE
  5
243
330
1F
100
AcDbEntity
  8
0
  6
Continuous
 62
     7
370
    25
100
AcDbLine
 10
227.3077636961
 20
196.4529848921
 30
0.0
 11
227.3077636961
 21
192.5587545219
 31
0.0
  0
LINE
  5
244
330
1F
100
AcDbEntity
  8
0
  6
Continuous
 62
     7
370
    25
100
AcDbLine
 10
227.3077636961
 20
185.2472152623
 30
0.0
 11
227.3077636961
 21
181.3529848923
 31
0.0
  0
LINE
  5
245
330
1F
100
AcDbEntity
  8
0
  6
Continuous
 62
     7
370
    25
100
AcDbLine
 10
214.3077636961
 20
181.3529848921
 30
0.0
 11
214.3077636961
 21
185.4029848921
 31
0.0
  0
LINE
  5
246
330
1F
100
AcDbEntity
  8
0
  6
Continuous
 62
     7
370
    25
100
AcDbLine
 10
214.3077636961
 20
192.4029848921
 30
0.0
 11
214.3077636961
 21
196.452984892
 31
0.0
  0
LINE
  5
247
330
1F
100
AcDbEntity
  8
0
  6
Continuous
 62
     7
370
    25
100
AcDbLine
 10
233.4858916185
 20
197.4029848921
 30
0.0
 11
233.4858916185
 21
193.285631174
 31
0.0
  0
LINE
  5
248
330
1F
100
AcDbEntity
  8
0
  6
Continuous
 62
     7
370
    25
100
AcDbLine
 10
233.4858916185
 20
184.5203386102
 30
0.0
 11
233.4858916185
 21
180.4029848921
 31
0.0
  0
LINE
  5
249
330
1F
100
AcDbEntity
  8
0
  6
Continuous
 62
     7
370
    25
100
AcDbLine
 10
230.6858916185
 20
197.4029848921
 30
0.0
 11
230.6858916185
 21
192.8818449902
 31
0.0
  0
LINE
  5
24A
330
1F
100
AcDbEntity
  8
0
  6
Continuous
 62
     7
370
    25
100
AcDbLine
 10
230.6858916185
 20
184.924124794
 30
0.0
 11
230.6858916185
 21
180.4029848921
 31
0.0
  0
LINE
  5
24B
330
1F
100
AcDbEntity
  8
0
  6
Continuous
 62
     7
370
    25
100
AcDbLine
 10
230.4858916185
 20
180.6029848921
 30
0.0
 11
230.4858916185
 21
184.9482222763
 31
0.0
  0
LINE
  5
24C
330
1F
100
AcDbEntity
  8
0
  6
Continuous
 62
     7
370
    25
100
AcDbLine
 10
230.4858916185
 20
192.8577475079
 30
0.0
 11
230.4858916185
 21
197.2029848921
 31
0.0
  0
SPLINE
  5
24D
330
1F
100
AcDbEntity
  8
0
  6
Continuous
 62
     7
370
    25
100
AcDbSpline
210
0.0
220
0.0
230
1.0
 70
    24
 71
     3
 72
    10
 73
     6
 74
     0
 42
0.00000001
 43
0.00000001
 40
0.0
 40
0.0
 40
0.0
 40
0.0
 40
0.3696305037550658
 40
0.7423066622495845
 40
0.9999999999999999
 40
0.9999999999999999
 40
0.9999999999999999
 40
0.9999999999999999
 10
256.1638326459725
 20
180.4029848921121
 30
0.0
 10
256.3050352517485
 20
180.4029848921121
 30
0.0
 10
256.5886039343375
 20
180.4029848921121
 30
0.0
 10
256.8077386474259
 20
180.4029848921121
 30
0.0
 10
256.8301295791398
 20
180.4029848921121
 30
0.0
 10
256.8392829312024
 20
180.4029848921121
 30
0.0
  0
SPLINE
  5
24E
330
1F
100
AcDbEntity
  8
0
  6
Continuous
 62
     7
370
    25
100
AcDbSpline
210
0.0
220
0.0
230
1.0
 70
     8
 71
     3
 72
    10
 73
     6
 74
     0
 42
0.00000001
 43
0.00000001
 40
0.0
 40
0.0
 40
0.0
 40
0.0
 40
0.5
 40
0.5
 40
1.0
 40
1.0
 40
1.0
 40
1.0
 10
256.1638326459725
 20
180.6529848921121
 30
0.0
 10
256.1401572515481
 20
180.5786045147348
 30
0.0
 10
256.1270661416635
 20
180.514303875949
 30
0.0
 10
256.1269798203753
 20
180.426088191166
 30
0.0
 10
256.1401487543191
 20
180.4029848921121
 30
0.0
 10
256.1638326459725
 20
180.4029848921121
 30
0.0
  0
SPLINE
  5
24F
330
1F
100
AcDbEntity
  8
0
  6
Continuous
 62
     7
370
    25
100
AcDbSpline
210
0.0
220
0.0
230
1.0
 70
     8
 71
     3
 72
    16
 73
    12
 74
     0
 42
0.00000001
 43
0.00000001
 40
0.0
 40
0.0
 40
0.0
 40
0.0
 40
0.2500000000000001
 40
0.2500000000000001
 40
0.5000000000000001
 40
0.5000000000000001
 40
0.6250000000000001
 40
0.6250000000000001
 40
0.7500000000000002
 40
0.7500000000000002
 40
1.0
 40
1.0
 40
1.0
 40
1.0
 10
256.1638326459725
 20
188.6529848921121
 30
0.0
 10
256.3718480940783
 20
187.9994681120713
 30
0.0
 10
256.5420543990513
 20
187.3412477029813
 30
0.0
 10
256.7769904306189
 20
186.0116851196155
 30
0.0
 10
256.8410625622825
 20
185.340261137545
 30
0.0
 10
256.8417955112035
 20
184.3212600505383
 30
0.0
 10
256.8261360311205
 20
183.9799192682221
 30
0.0
 10
256.7648609044836
 20
183.3043207652516
 30
0.0
 10
256.7193046319845
 20
182.968661615287
 30
0.0
 10
256.5428185992282
 20
181.9673959787873
 30
0.0
 10
256.3721621457425
 20
181.3074883201841
 30
0.0
 10
256.1638326459725
 20
180.6529848921121
 30
0.0
  0
SPLINE
  5
250
330
1F
100
AcDbEntity
  8
0
  6
Continuous
 62
     7
370
    25
100
AcDbSpline
210
0.0
220
0.0
230
1.0
 70
     8
 71
     3
 72
    10
 73
     6
 74
     0
 42
0.00000001
 43
0.00000001
 40
0.0
 40
0.0
 40
0.0
 40
0.0
 40
0.5
 40
0.5
 40
1.0
 40
1.0
 40
1.0
 40
1.0
 10
256.1638326459725
 20
189.1529848921121
 30
0.0
 10
256.1401572515481
 20
189.0786045147347
 30
0.0
 10
256.1270661416635
 20
188.9915114266192
 30
0.0
 10
256.1269798203753
 20
188.8153530377432
 30
0.0
 10
256.1401487543191
 20
188.7273919650153
 30
0.0
 10
256.1638326459725
 20
188.6529848921121
 30
0.0
  0
SPLINE
  5
251
330
1F
100
AcDbEntity
  8
0
  6
Continuous
 62
     7
370
    25
100
AcDbSpline
210
0.0
220
0.0
230
1.0
 70
     8
 71
     3
 72
    16
 73
    12
 74
     0
 42
0.00000001
 43
0.00000001
 40
0.0
 40
0.0
 40
0.0
 40
0.0
 40
0.2499999999999997
 40
0.2499999999999997
 40
0.4999999999999993
 40
0.4999999999999993
 40
0.6249999999999993
 40
0.6249999999999993
 40
0.7499999999999996
 40
0.7499999999999996
 40
1.0
 40
1.0
 40
1.0
 40
1.0
 10
256.1638326459725
 20
197.1529848921121
 30
0.0
 10
256.3718480940783
 20
196.4994681120713
 30
0.0
 10
256.5420543990513
 20
195.8412477029813
 30
0.0
 10
256.7769904306189
 20
194.5116851196155
 30
0.0
 10
256.8410625622825
 20
193.840261137545
 30
0.0
 10
256.8417955112035
 20
192.8212600505383
 30
0.0
 10
256.8261360311205
 20
192.4799192682221
 30
0.0
 10
256.7648609044836
 20
191.8043207652516
 30
0.0
 10
256.7193046319845
 20
191.468661615287
 30
0.0
 10
256.5428185992282
 20
190.4673959787873
 30
0.0
 10
256.3721621457425
 20
189.8074883201841
 30
0.0
 10
256.1638326459725
 20
189.1529848921121
 30
0.0
  0
SPLINE
  5
252
330
1F
100
AcDbEntity
  8
0
  6
Continuous
 62
     7
370
    25
100
AcDbSpline
210
0.0
220
0.0
230
1.0
 70
     8
 71
     3
 72
    10
 73
     6
 74
     0
 42
0.00000001
 43
0.00000001
 40
0.0
 40
0.0
 40
0.0
 40
0.0
 40
0.5
 40
0.5
 40
1.0
 40
1.0
 40
1.0
 40
1.0
 10
256.1638326459725
 20
197.4029848921121
 30
0.0
 10
256.1401572515481
 20
197.4029848921121
 30
0.0
 10
256.1270661416635
 20
197.3801924427823
 30
0.0
 10
256.1269798203753
 20
197.2922497386892
 30
0.0
 10
256.1401487543191
 20
197.2273919650154
 30
0.0
 10
256.1638326459725
 20
197.1529848921121
 30
0.0
  0
SPLINE
  5
253
330
1F
100
AcDbEntity
  8
0
  6
Continuous
 62
     7
370
    25
100
AcDbSpline
210
0.0
220
0.0
230
1.0
 70
    24
 71
     3
 72
    10
 73
     6
 74
     0
 42
0.00000001
 43
0.00000001
 40
0.0
 40
0.0
 40
0.0
 40
0.0
 40
0.2576900826341857
 40
0.6270672496174371
 40
1.0
 40
1.0
 40
1.0
 40
1.0
 10
256.8379414502795
 20
197.4029848921121
 30
0.0
 10
256.8293384481334
 20
197.4029848921121
 30
0.0
 10
256.808403762409
 20
197.4029848921121
 30
0.0
 10
256.5894382539354
 20
197.4029848921121
 30
0.0
 10
256.3061534829939
 20
197.4029848921121
 30
0.0
 10
256.1638326459725
 20
197.4029848921121
 30
0.0
  0
LINE
  5
254
330
1F
100
AcDbEntity
  8
0
  6
Continuous
 62
     7
370
    25
100
AcDbLine
 10
256.9858916185
 20
197.1529848921
 30
0.0
 11
256.9858916185
 21
180.6529848921
 31
0.0
  0
SPLINE
  5
255
330
1F
100
AcDbEntity
  8
0
  6
Continuous
 62
     7
370
    25
100
AcDbSpline
210
0.0
220
0.0
230
1.0
 70
     8
 71
     3
 72
    12
 73
     8
 74
     0
 42
0.00000001
 43
0.00000001
 40
0.0
 40
0.0
 40
0.0
 40
0.0
 40
0.045834707512559
 40
0.2824194837274058
 40
0.5190336436315998
 40
0.7594971360839121
 40
1.0
 40
1.0
 40
1.0
 40
1.0
 10
250.9875601509196
 20
193.274959238854
 30
0.0
 10
250.9881720125685
 20
193.3350430607964
 30
0.0
 10
250.991942117373
 20
193.7052612402996
 30
0.0
 10
251.0428313638552
 20
194.3850836666014
 30
0.0
 10
251.1816003323093
 20
195.3133161318342
 30
0.0
 10
251.3871727463631
 20
196.2378186888708
 30
0.0
 10
251.5714612360858
 20
196.8479128437828
 30
0.0
 10
251.6636130237903
 20
197.1529848921121
 30
0.0
  0
LINE
  5
256
330
1F
100
AcDbEntity
  8
0
  6
Continuous
 62
     7
370
    25
100
AcDbLine
 10
256.163832646
 20
197.1529848921
 30
0.0
 11
251.6636130238
 21
197.1529848921
 31
0.0
  0
SPLINE
  5
257
330
1F
100
AcDbEntity
  8
0
  6
Continuous
 62
     7
370
    25
100
AcDbSpline
210
0.0
220
0.0
230
1.0
 70
     8
 71
     3
 72
    12
 73
     8
 74
     0
 42
0.00000001
 43
0.00000001
 40
0.0
 40
0.0
 40
0.0
 40
0.0
 40
0.0928091292534284
 40
0.317975209705495
 40
0.543167190433311
 40
0.7715678283204985
 40
1.0
 40
1.0
 40
1.0
 40
1.0
 10
233.4889094163016
 20
193.2870057802988
 30
0.0
 10
233.490749414789
 20
193.4082992495995
 30
0.0
 10
233.4970534703232
 20
193.8238652251349
 30
0.0
 10
233.5614017115888
 20
194.5323797946096
 30
0.0
 10
233.7016532060038
 20
195.4114331405282
 30
0.0
 10
233.9011572072552
 20
196.2865699514544
 30
0.0
 10
234.0761237258081
 20
196.8641666219736
 30
0.0
 10
234.1636130237903
 20
197.1529848921121
 30
0.0
  0
LINE
  5
258
330
1F
100
AcDbEntity
  8
0
  6
Continuous
 62
     7
370
    25
100
AcDbLine
 10
238.3081702133
 20
197.1529848921
 30
0.0
 11
234.1636130238
 21
197.1529848921
 31
0.0
  0
SPLINE
  5
259
330
1F
100
AcDbEntity
  8
0
  6
Continuous
 62
     7
370
    25
100
AcDbSpline
210
0.0
220
0.0
230
1.0
 70
     8
 71
     3
 72
    10
 73
     6
 74
     0
 42
0.00000001
 43
0.00000001
 40
0.0
 40
0.0
 40
0.0
 40
0.0
 40
0.3656016412938916
 40
0.7311309548273379
 40
1.0
 40
1.0
 40
1.0
 40
1.0
 10
238.3081702132699
 20
197.1529848921121
 30
0.0
 10
238.4052348696734
 20
196.8286771428016
 30
0.0
 10
238.5993449799703
 20
196.1801258026815
 30
0.0
 10
238.8013744942517
 20
195.2792056498883
 30
0.0
 10
238.8710566397839
 20
194.7008408692375
 30
0.0
 10
238.900589143577
 20
194.4557198278586
 30
0.0
  0
SPLINE
  5
25A
330
1F
100
AcDbEntity
  8
0
  6
Continuous
 62
     7
370
    25
100
AcDbSpline
210
0.0
220
0.0
230
1.0
 70
     8
 71
     3
 72
    10
 73
     6
 74
     0
 42
0.00000001
 43
0.00000001
 40
0.0
 40
0.0
 40
0.0
 40
0.0
 40
0.3172846029600696
 40
0.6586143582526472
 40
1.0
 40
1.0
 40
1.0
 40
1.0
 10
238.9099494983214
 20
183.3709461391798
 30
0.0
 10
238.8709114102915
 20
183.0798021238431
 30
0.0
 10
238.7898767648804
 20
182.4754499837419
 30
0.0
 10
238.5837232974685
 20
181.5682383509247
 30
0.0
 10
238.4000262537598
 20
180.9580860272191
 30
0.0
 10
238.3081702132699
 20
180.6529848921121
 30
0.0
  0
LINE
  5
25B
330
1F
100
AcDbEntity
  8
0
  6
Continuous
 62
     7
370
    25
100
AcDbLine
 10
234.1636130238
 20
180.6529848921
 30
0.0
 11
238.3081702133
 21
180.6529848921
 31
0.0
  0
SPLINE
  5
25C
330
1F
100
AcDbEntity
  8
0
  6
Continuous
 62
     7
370
    25
100
AcDbSpline
210
0.0
220
0.0
230
1.0
 70
     8
 71
     3
 72
    11
 73
     7
 74
     0
 42
0.00000001
 43
0.00000001
 40
0.0
 40
0.0
 40
0.0
 40
0.0
 40
0.2580797331989995
 40
0.5161084099283053
 40
0.7786346325955545
 40
1.0
 40
1.0
 40
1.0
 40
1.0
 10
234.1636130237903
 20
180.6529848921121
 30
0.0
 10
234.0658472023626
 20
180.9772385627485
 30
0.0
 10
233.8703349007303
 20
181.6256817562191
 30
0.0
 10
233.6580658920491
 20
182.6202408373921
 30
0.0
 10
233.5196422306359
 20
183.5772796607079
 30
0.0
 10
233.5015724518472
 20
184.2055487962834
 30
0.0
 10
233.4933060894996
 20
184.4929624047839
 30
0.0
  0
LINE
  5
25D
330
1F
100
AcDbEntity
  8
0
  6
Continuous
 62
     7
370
    25
100
AcDbLine
 10
251.6636130238
 20
180.6529848921
 30
0.0
 11
256.163832646
 21
180.6529848921
 31
0.0
  0
SPLINE
  5
25E
330
1F
100
AcDbEntity
  8
0
  6
Continuous
 62
     7
370
    25
100
AcDbSpline
210
0.0
220
0.0
230
1.0
 70
     8
 71
     3
 72
    11
 73
     7
 74
     0
 42
0.00000001
 43
0.00000001
 40
0.0
 40
0.0
 40
0.0
 40
0.0
 40
0.2555209744068735
 40
0.5109913985488186
 40
0.7709147772341446
 40
1.0
 40
1.0
 40
1.0
 40
1.0
 10
251.6636130237903
 20
180.652984892112
 30
0.0
 10
251.5658572485161
 20
180.9772391295197
 30
0.0
 10
251.3703650372032
 20
181.6256834564205
 30
0.0
 10
251.1579444987135
 20
182.6202339887763
 30
0.0
 10
251.0182147008082
 20
183.5902219299493
 30
0.0
 10
251.0000229033251
 20
184.2315069874431
 30
0.0
 10
250.9915006156463
 20
184.5319289632864
 30
0.0
  0
LINE
  5
25F
330
1F
100
AcDbEntity
  8
0
  6
Continuous
 62
     7
370
    25
100
AcDbLine
 10
250.9858916185
 20
184.4868213988
 30
0.0
 11
250.9858916185
 21
181.4029848921
 31
0.0
  0
LINE
  5
260
330
1F
100
AcDbEntity
  8
0
  6
Continuous
 62
     7
370
    25
100
AcDbLine
 10
250.9858916185
 20
181.4029848921
 30
0.0
 11
238.9858916185
 21
181.4029848921
 31
0.0
  0
LINE
  5
261
330
1F
100
AcDbEntity
  8
0
  6
Continuous
 62
     7
370
    25
100
AcDbLine
 10
238.9858916185
 20
183.3581692881
 30
0.0
 11
238.9858916185
 21
181.4029848921
 31
0.0
  0
LINE
  5
262
330
1F
100
AcDbEntity
  8
0
  6
Continuous
 62
     7
370
    25
100
AcDbLine
 10
238.9858916185
 20
196.4029848921
 30
0.0
 11
238.9858916185
 21
194.4478004961
 31
0.0
  0
LINE
  5
263
330
1F
100
AcDbEntity
  8
0
  6
Continuous
 62
     7
370
    25
100
AcDbLine
 10
238.9858916185
 20
196.4029848921
 30
0.0
 11
250.9858916185
 21
196.4029848921
 31
0.0
  0
LINE
  5
264
330
1F
100
AcDbEntity
  8
0
  6
Continuous
 62
     7
370
    25
100
AcDbLine
 10
250.9858916185
 20
196.4029848921
 30
0.0
 11
250.9858916185
 21
193.3191483855
 31
0.0
  0
SPLINE
  5
265
330
1F
100
AcDbEntity
  8
0
  6
Continuous
 62
     7
370
    25
100
AcDbSpline
210
0.0
220
0.0
230
1.0
 70
     8
 71
     3
 72
     8
 73
     4
 74
     0
 42
0.00000001
 43
0.00000001
 40
0.0
 40
0.0
 40
0.0
 40
0.0
 40
1.0
 40
1.0
 40
1.0
 40
1.0
 10
238.4696555415509
 20
197.4029848921121
 30
0.0
 10
238.6433586177707
 20
197.0704734699766
 30
0.0
 10
238.8156608368334
 20
196.7371463700777
 30
0.0
 10
238.9858916185301
 20
196.4029848921121
 30
0.0
  0
SPLINE
  5
266
330
1F
100
AcDbEntity
  8
0
  6
Continuous
 62
     7
370
    25
100
AcDbSpline
210
0.0
220
0.0
230
1.0
 70
     8
 71
     3
 72
    10
 73
     6
 74
     0
 42
0.00000001
 43
0.00000001
 40
0.0
 40
0.0
 40
0.0
 40
0.0
 40
0.5
 40
0.5
 40
1.0
 40
1.0
 40
1.0
 40
1.0
 10
238.3081702132756
 20
197.4029848921121
 30
0.0
 10
238.2844948188513
 20
197.4029848921121
 30
0.0
 10
238.271403708961
 20
197.3801924427826
 30
0.0
 10
238.2713173876726
 20
197.2922497386895
 30
0.0
 10
238.2844863216164
 20
197.2273919650156
 30
0.0
 10
238.3081702132699
 20
197.1529848921121
 30
0.0
  0
SPLINE
  5
267
330
1F
100
AcDbEntity
  8
0
  6
Continuous
 62
     7
370
    25
100
AcDbSpline
210
0.0
220
0.0
230
1.0
 70
    24
 71
     3
 72
     8
 73
     4
 74
     0
 42
0.00000001
 43
0.00000001
 40
0.0
 40
0.0
 40
0.0
 40
0.0
 40
1.0
 40
1.0
 40
1.0
 40
1.0
 10
238.4696555415509
 20
197.4029848921121
 30
0.0
 10
238.4187568246285
 20
197.4029848921121
 30
0.0
 10
238.3648226883779
 20
197.4029848921121
 30
0.0
 10
238.3081702132703
 20
197.4029848921121
 30
0.0
  0
SPLINE
  5
268
330
1F
100
AcDbEntity
  8
0
  6
Continuous
 62
     7
370
    25
100
AcDbSpline
210
0.0
220
0.0
230
1.0
 70
     8
 71
     3
 72
     8
 73
     4
 74
     0
 42
0.00000001
 43
0.00000001
 40
0.0
 40
0.0
 40
0.0
 40
0.0
 40
1.0
 40
1.0
 40
1.0
 40
1.0
 10
250.9858916185301
 20
196.4029848921121
 30
0.0
 10
251.1561692258739
 20
196.7372382883974
 30
0.0
 10
251.3284409744995
 20
197.0705047779664
 30
0.0
 10
251.5021276955092
 20
197.4029848921119
 30
0.0
  0
SPLINE
  5
269
330
1F
100
AcDbEntity
  8
0
  6
Continuous
 62
     7
370
    25
100
AcDbSpline
210
0.0
220
0.0
230
1.0
 70
    24
 71
     3
 72
     8
 73
     4
 74
     0
 42
0.00000001
 43
0.00000001
 40
0.0
 40
0.0
 40
0.0
 40
0.0
 40
1.0
 40
1.0
 40
1.0
 40
1.0
 10
251.5021276955088
 20
197.4029848921121
 30
0.0
 10
251.553023928764
 20
197.4029848921121
 30
0.0
 10
251.6069578837278
 20
197.4029848921121
 30
0.0
 10
251.6636130237903
 20
197.4029848921121
 30
0.0
  0
SPLINE
  5
26A
330
1F
100
AcDbEntity
  8
0
  6
Continuous
 62
     7
370
    25
100
AcDbSpline
210
0.0
220
0.0
230
1.0
 70
     8
 71
     3
 72
    10
 73
     6
 74
     0
 42
0.00000001
 43
0.00000001
 40
0.0
 40
0.0
 40
0.0
 40
0.0
 40
0.5
 40
0.5
 40
1.0
 40
1.0
 40
1.0
 40
1.0
 10
251.6636130237903
 20
197.1529848921121
 30
0.0
 10
251.6872884182147
 20
197.2273652694894
 30
0.0
 10
251.7003795280994
 20
197.2916659082752
 30
0.0
 10
251.7004658493877
 20
197.3798815930581
 30
0.0
 10
251.6872969154438
 20
197.4029848921121
 30
0.0
 10
251.6636130237903
 20
197.4029848921121
 30
0.0
  0
SPLINE
  5
26B
330
1F
100
AcDbEntity
  8
0
  6
Continuous
 62
     7
370
    25
100
AcDbSpline
210
0.0
220
0.0
230
1.0
 70
     8
 71
     3
 72
    10
 73
     6
 74
     0
 42
0.00000001
 43
0.00000001
 40
0.0
 40
0.0
 40
0.0
 40
0.0
 40
0.5
 40
0.5
 40
1.0
 40
1.0
 40
1.0
 40
1.0
 10
234.1636130237903
 20
197.4029848921121
 30
0.0
 10
234.1872869243463
 20
197.4029848921121
 30
0.0
 10
234.2003794815254
 20
197.3801943204647
 30
0.0
 10
234.2004658955077
 20
197.2922483231658
 30
0.0
 10
234.1872955039091
 20
197.227387530433
 30
0.0
 10
234.1636130237903
 20
197.1529848921121
 30
0.0
  0
SPLINE
  5
26C
330
1F
100
AcDbEntity
  8
0
  6
Continuous
 62
     7
370
    25
100
AcDbSpline
210
0.0
220
0.0
230
1.0
 70
    24
 71
     3
 72
    12
 73
     8
 74
     0
 42
0.00000001
 43
0.00000001
 40
0.0
 40
0.0
 40
0.0
 40
0.0
 40
0.2499999999999999
 40
0.2499999999999999
 40
0.4999999999999998
 40
0.4999999999999998
 40
1.0
 40
1.0
 40
1.0
 40
1.0
 10
233.4858916185301
 20
197.4029848921121
 30
0.0
 10
233.4858916185301
 20
197.4029848921121
 30
0.0
 10
233.5018904235112
 20
197.4029848921121
 30
0.0
 10
233.5636605618256
 20
197.4029848921121
 30
0.0
 10
233.6094026861272
 20
197.4029848921121
 30
0.0
 10
233.786072833474
 20
197.4029848921121
 30
0.0
 10
233.9563278989543
 20
197.4029848921121
 30
0.0
 10
234.1636130237903
 20
197.4029848921121
 30
0.0
  0
SPLINE
  5
26D
330
1F
100
AcDbEntity
  8
0
  6
Continuous
 62
     7
370
    25
100
AcDbSpline
210
0.0
220
0.0
230
1.0
 70
     8
 71
     3
 72
     8
 73
     4
 74
     0
 42
0.00000001
 43
0.00000001
 40
0.0
 40
0.0
 40
0.0
 40
0.0
 40
1.0
 40
1.0
 40
1.0
 40
1.0
 10
238.9858916185301
 20
181.4029848921121
 30
0.0
 10
238.8156140111864
 20
181.0687314958267
 30
0.0
 10
238.6433422625607
 20
180.7354650062577
 30
0.0
 10
238.469655541551
 20
180.4029848921121
 30
0.0
  0
SPLINE
  5
26E
330
1F
100
AcDbEntity
  8
0
  6
Continuous
 62
     7
370
    25
100
AcDbSpline
210
0.0
220
0.0
230
1.0
 70
    24
 71
     3
 72
     8
 73
     4
 74
     0
 42
0.00000001
 43
0.00000001
 40
0.0
 40
0.0
 40
0.0
 40
0.0
 40
1.0
 40
1.0
 40
1.0
 40
1.0
 10
238.469655541551
 20
180.4029848921121
 30
0.0
 10
238.4187568246284
 20
180.4029848921121
 30
0.0
 10
238.3648226883777
 20
180.4029848921121
 30
0.0
 10
238.3081702132699
 20
180.4029848921121
 30
0.0
  0
SPLINE
  5
26F
330
1F
100
AcDbEntity
  8
0
  6
Continuous
 62
     7
370
    25
100
AcDbSpline
210
0.0
220
0.0
230
1.0
 70
     8
 71
     3
 72
    10
 73
     6
 74
     0
 42
0.00000001
 43
0.00000001
 40
0.0
 40
0.0
 40
0.0
 40
0.0
 40
0.5
 40
0.5
 40
1.0
 40
1.0
 40
1.0
 40
1.0
 10
238.3081702132699
 20
180.6529848921121
 30
0.0
 10
238.2844948188456
 20
180.5786045147348
 30
0.0
 10
238.2714037089609
 20
180.514303875949
 30
0.0
 10
238.2713173876726
 20
180.426088191166
 30
0.0
 10
238.2844863216165
 20
180.4029848921121
 30
0.0
 10
238.3081702132699
 20
180.4029848921121
 30
0.0
  0
SPLINE
  5
270
330
1F
100
AcDbEntity
  8
0
  6
Continuous
 62
     7
370
    25
100
AcDbSpline
210
0.0
220
0.0
230
1.0
 70
     8
 71
     3
 72
     8
 73
     4
 74
     0
 42
0.00000001
 43
0.00000001
 40
0.0
 40
0.0
 40
0.0
 40
0.0
 40
1.0
 40
1.0
 40
1.0
 40
1.0
 10
251.5021276955093
 20
180.4029848921121
 30
0.0
 10
251.3284246192896
 20
180.7354963142476
 30
0.0
 10
251.1561224002268
 20
181.0688234141465
 30
0.0
 10
250.9858916185301
 20
181.4029848921121
 30
0.0
  0
SPLINE
  5
271
330
1F
100
AcDbEntity
  8
0
  6
Continuous
 62
     7
370
    25
100
AcDbSpline
210
0.0
220
0.0
230
1.0
 70
     8
 71
     3
 72
    10
 73
     6
 74
     0
 42
0.00000001
 43
0.00000001
 40
0.0
 40
0.0
 40
0.0
 40
0.0
 40
0.5
 40
0.5
 40
1.0
 40
1.0
 40
1.0
 40
1.0
 10
251.6636130237904
 20
180.4029848921121
 30
0.0
 10
251.6872884182148
 20
180.4029848921121
 30
0.0
 10
251.7003795280994
 20
180.4257773414419
 30
0.0
 10
251.7004658493877
 20
180.5137200455349
 30
0.0
 10
251.6872969154438
 20
180.5785778192088
 30
0.0
 10
251.6636130237904
 20
180.652984892112
 30
0.0
  0
SPLINE
  5
272
330
1F
100
AcDbEntity
  8
0
  6
Continuous
 62
     7
370
    25
100
AcDbSpline
210
0.0
220
0.0
230
1.0
 70
    24
 71
     3
 72
     8
 73
     4
 74
     0
 42
0.00000001
 43
0.00000001
 40
0.0
 40
0.0
 40
0.0
 40
0.0
 40
1.0
 40
1.0
 40
1.0
 40
1.0
 10
251.5021276955093
 20
180.4029848921121
 30
0.0
 10
251.5530239287644
 20
180.4029848921121
 30
0.0
 10
251.6069578837281
 20
180.4029848921121
 30
0.0
 10
251.6636130237903
 20
180.4029848921121
 30
0.0
  0
SPLINE
  5
273
330
1F
100
AcDbEntity
  8
0
  6
Continuous
 62
     7
370
    25
100
AcDbSpline
210
0.0
220
0.0
230
1.0
 70
     8
 71
     3
 72
    10
 73
     6
 74
     0
 42
0.00000001
 43
0.00000001
 40
0.0
 40
0.0
 40
0.0
 40
0.0
 40
0.5
 40
0.5
 40
1.0
 40
1.0
 40
1.0
 40
1.0
 10
234.1636130237903
 20
180.6529848921121
 30
0.0
 10
234.1872852637019
 20
180.5786144251865
 30
0.0
 10
234.2003792536372
 20
180.5143088288987
 30
0.0
 10
234.2004661210986
 20
180.4260860410928
 30
0.0
 10
234.1872963313392
 20
180.4029848921121
 30
0.0
 10
234.1636130237903
 20
180.4029848921121
 30
0.0
  0
SPLINE
  5
274
330
1F
100
AcDbEntity
  8
0
  6
Continuous
 62
     7
370
    25
100
AcDbSpline
210
0.0
220
0.0
230
1.0
 70
    24
 71
     3
 72
    12
 73
     8
 74
     0
 42
0.00000001
 43
0.00000001
 40
0.0
 40
0.0
 40
0.0
 40
0.0
 40
0.2500000000000001
 40
0.2500000000000001
 40
0.5000000000000001
 40
0.5000000000000001
 40
1.0
 40
1.0
 40
1.0
 40
1.0
 10
233.4858916185301
 20
180.4029848921121
 30
0.0
 10
233.4858916185301
 20
180.4029848921121
 30
0.0
 10
233.5018904235112
 20
180.4029848921121
 30
0.0
 10
233.5636605618256
 20
180.4029848921121
 30
0.0
 10
233.6094026861272
 20
180.4029848921121
 30
0.0
 10
233.786072833474
 20
180.4029848921121
 30
0.0
 10
233.9563278989543
 20
180.4029848921121
 30
0.0
 10
234.1636130237903
 20
180.4029848921121
 30
0.0
  0
LINE
  5
275
330
1F
100
AcDbEntity
  8
0
  6
Continuous
 62
     7
370
    25
100
AcDbLine
 10
251.6636130238
 20
197.4029848921
 30
0.0
 11
256.163832646
 21
197.4029848921
 31
0.0
  0
LINE
  5
276
330
1F
100
AcDbEntity
  8
0
  6
Continuous
 62
     7
370
    25
100
AcDbLine
 10
234.1636130238
 20
197.4029848921
 30
0.0
 11
238.3081702133
 21
197.4029848921
 31
0.0
  0
LINE
  5
277
330
1F
100
AcDbEntity
  8
0
  6
Continuous
 62
     7
370
    25
100
AcDbLine
 10
256.163832646
 20
180.4029848921
 30
0.0
 11
251.6636130238
 21
180.4029848921
 31
0.0
  0
LINE
  5
278
330
1F
100
AcDbEntity
  8
0
  6
Continuous
 62
     7
370
    25
100
AcDbLine
 10
238.3081702133
 20
180.4029848921
 30
0.0
 11
234.1636130238
 21
180.4029848921
 31
0.0
  0
LINE
  5
279
330
1F
100
AcDbEntity
  8
0
  6
Continuous
 62
     7
370
    25
100
AcDbLine
 10
251.5021276955
 20
197.4029848921
 30
0.0
 11
238.4696555416
 21
197.4029848921
 31
0.0
  0
LINE
  5
27A
330
1F
100
AcDbEntity
  8
0
  6
Continuous
 62
     7
370
    25
100
AcDbLine
 10
251.5021276955
 20
180.4029848921
 30
0.0
 11
238.4696555416
 21
180.4029848921
 31
0.0
  0
SPLINE
  5
27B
330
1F
100
AcDbEntity
  8
0
  6
Continuous
 62
     7
370
    25
100
AcDbSpline
210
0.0
220
0.0
230
1.0
 70
     8
 71
     3
 72
    15
 73
    11
 74
     0
 42
0.00000001
 43
0.00000001
 40
0.0
 40
0.0
 40
0.0
 40
0.0
 40
0.0081667445812695
 40
0.3321939991490083
 40
0.4756279600585602
 40
0.6866830973284899
 40
0.8457435502264811
 40
0.8967566214763185
 40
0.9909540928118029
 40
1.0
 40
1.0
 40
1.0
 40
1.0
 10
250.084911132123
 20
190.1529848921121
 30
0.0
 10
250.0853986662658
 20
190.1544223550511
 30
0.0
 10
250.1052298137979
 20
190.2128932130028
 30
0.0
 10
250.1335105938071
 20
190.2973183907223
 30
0.0
 10
250.1713398922959
 20
190.4118974627447
 30
0.0
 10
250.1979237888635
 20
190.4932683499413
 30
0.0
 10
250.2150936126185
 20
190.546287341943
 30
0.0
 10
250.2229106088349
 20
190.5704892737871
 30
0.0
 10
250.2249062952708
 20
190.5766788944533
 30
0.0
 10
250.2249712592215
 20
190.5768802898659
 30
0.0
 10
250.2249769511882
 20
190.5768979355904
 30
0.0
  0
ARC
  5
27C
330
1F
100
AcDbEntity
  8
0
  6
Continuous
 62
     7
370
    25
100
AcDbCircle
 10
244.9858916185
 20
188.9029848921
 30
0.0
 40
5.250000000000036
100
AcDbArc
 50
13.774146998
 51
166.225853002
  0
SPLINE
  5
27D
330
1F
100
AcDbEntity
  8
0
  6
Continuous
 62
     7
370
    25
100
AcDbSpline
210
0.0
220
0.0
230
1.0
 70
     8
 71
     3
 72
    15
 73
    11
 74
     0
 42
0.00000001
 43
0.00000001
 40
0.0
 40
0.0
 40
0.0
 40
0.0
 40
0.0090459071881971
 40
0.1032433785236874
 40
0.1542564497735246
 40
0.313316902671511
 40
0.5243720399414428
 40
0.6678060008509903
 40
0.9918332554187292
 40
1.0
 40
1.0
 40
1.0
 40
1.0
 10
239.746806285872
 20
190.5768979355904
 30
0.0
 10
239.7468119778387
 20
190.5768802898659
 30
0.0
 10
239.7468769417895
 20
190.5766788944533
 30
0.0
 10
239.7488726282254
 20
190.5704892737871
 30
0.0
 10
239.7566896244418
 20
190.546287341943
 30
0.0
 10
239.7738594481968
 20
190.4932683499413
 30
0.0
 10
239.8004433447643
 20
190.4118974627447
 30
0.0
 10
239.8382726432531
 20
190.2973183907223
 30
0.0
 10
239.8665534232624
 20
190.2128932130028
 30
0.0
 10
239.8863845707944
 20
190.1544223550511
 30
0.0
 10
239.8868721049373
 20
190.1529848921121
 30
0.0
  0
ARC
  5
27E
330
1F
100
AcDbEntity
  8
0
  6
Continuous
 62
     7
370
    25
100
AcDbCircle
 10
244.9858916185
 20
188.9029848921
 30
0.0
 40
5.500000000000002
100
AcDbArc
 50
17.7189318734
 51
162.2810681266
  0
ARC
  5
27F
330
1F
100
AcDbEntity
  8
0
  6
Continuous
 62
     7
370
    25
100
AcDbCircle
 10
239.5086660435
 20
190.6529848921
 30
0.0
 40
0.25
100
AcDbArc
 50
270.0
 51
342.2810681266
  0
SPLINE
  5
280
330
1F
100
AcDbEntity
  8
0
  6
Continuous
 62
     7
370
    25
100
AcDbSpline
210
0.0
220
0.0
230
1.0
 70
     8
 71
     3
 72
    15
 73
    11
 74
     0
 42
0.00000001
 43
0.00000001
 40
0.0
 40
0.0
 40
0.0
 40
0.0
 40
0.0080847466189818
 40
0.3310106400647567
 40
0.4750333064304972
 40
0.6874363079215137
 40
0.8468367539418253
 40
0.9000996640391794
 40
0.9910442771984082
 40
1.0
 40
1.0
 40
1.0
 40
1.0
 10
239.8868721049373
 20
190.1529848921121
 30
0.0
 10
239.8855922733932
 20
190.1538008281003
 30
0.0
 10
239.8331926276694
 20
190.187207378294
 30
0.0
 10
239.757837536215
 20
190.2360209430289
 30
0.0
 10
239.6559184241972
 20
190.303391415297
 30
0.0
 10
239.5835274792053
 20
190.3519754556405
 30
0.0
 10
239.5358220509405
 20
190.384424317099
 30
0.0
 10
239.5142865672332
 20
190.3991353581653
 30
0.0
 10
239.5088575512136
 20
190.4028538090834
 30
0.0
 10
239.5086817990571
 20
190.4029741077489
 30
0.0
 10
239.5086660434785
 20
190.4029848921121
 30
0.0
  0
SPLINE
  5
281
330
1F
100
AcDbEntity
  8
0
  6
Continuous
 62
     7
370
    25
100
AcDbSpline
210
0.0
220
0.0
230
1.0
 70
     8
 71
     3
 72
    15
 73
    11
 74
     0
 42
0.00000001
 43
0.00000001
 40
0.0
 40
0.0
 40
0.0
 40
0.0
 40
0.0090459071881971
 40
0.1032433785236816
 40
0.1542564497735189
 40
0.31331690267151
 40
0.5243720399414428
 40
0.6678060008509183
 40
0.9918332554187028
 40
1.0
 40
1.0
 40
1.0
 40
1.0
 10
250.2249769511882
 20
187.2290718486338
 30
0.0
 10
250.2249712592215
 20
187.2290894943583
 30
0.0
 10
250.2249062952708
 20
187.2292908897708
 30
0.0
 10
250.2229106088349
 20
187.235480510437
 30
0.0
 10
250.2150936126185
 20
187.2596824422812
 30
0.0
 10
250.1979237888635
 20
187.3127014342828
 30
0.0
 10
250.1713398922959
 20
187.3940723214794
 30
0.0
 10
250.1335105938073
 20
187.5086513935019
 30
0.0
 10
250.1052298137971
 20
187.593076571221
 30
0.0
 10
250.0853986662658
 20
187.6515474291731
 30
0.0
 10
250.084911132123
 20
187.6529848921121
 30
0.0
  0
ARC
  5
282
330
1F
100
AcDbEntity
  8
0
  6
Continuous
 62
     7
370
    25
100
AcDbCircle
 10
244.9858916185
 20
188.9029848921
 30
0.0
 40
5.499999999999993
100
AcDbArc
 50
197.7189318734
 51
342.2810681266
  0
SPLINE
  5
283
330
1F
100
AcDbEntity
  8
0
  6
Continuous
 62
     7
370
    25
100
AcDbSpline
210
0.0
220
0.0
230
1.0
 70
     8
 71
     3
 72
    15
 73
    11
 74
     0
 42
0.00000001
 43
0.00000001
 40
0.0
 40
0.0
 40
0.0
 40
0.0
 40
0.0081667445812973
 40
0.3321939991490804
 40
0.475627960058556
 40
0.6866830973284891
 40
0.8457435502264751
 40
0.8967566214763124
 40
0.9909540928118028
 40
1.0
 40
1.0
 40
1.0
 40
1.0
 10
239.8868721049373
 20
187.6529848921121
 30
0.0
 10
239.8863845707945
 20
187.6515474291731
 30
0.0
 10
239.8665534232632
 20
187.5930765712211
 30
0.0
 10
239.838272643253
 20
187.5086513935019
 30
0.0
 10
239.8004433447643
 20
187.3940723214794
 30
0.0
 10
239.7738594481968
 20
187.3127014342828
 30
0.0
 10
239.7566896244418
 20
187.2596824422812
 30
0.0
 10
239.7488726282254
 20
187.235480510437
 30
0.0
 10
239.7468769417895
 20
187.2292908897708
 30
0.0
 10
239.7468119778387
 20
187.2290894943583
 30
0.0
 10
239.746806285872
 20
187.2290718486338
 30
0.0
  0
ARC
  5
284
330
1F
100
AcDbEntity
  8
0
  6
Continuous
 62
     7
370
    25
100
AcDbCircle
 10
244.9858916185
 20
188.9029848921
 30
0.0
 40
5.250000000000036
100
AcDbArc
 50
193.774146998
 51
346.225853002
  0
ARC
  5
285
330
1F
100
AcDbEntity
  8
0
  6
Continuous
 62
     7
370
    25
100
AcDbCircle
 10
250.4631171936
 20
190.6529848921
 30
0.0
 40
0.25
100
AcDbArc
 50
197.7189318734
 51
270.0
  0
SPLINE
  5
286
330
1F
100
AcDbEntity
  8
0
  6
Continuous
 62
     7
370
    25
100
AcDbSpline
210
0.0
220
0.0
230
1.0
 70
     8
 71
     3
 72
    15
 73
    11
 74
     0
 42
0.00000001
 43
0.00000001
 40
0.0
 40
0.0
 40
0.0
 40
0.0
 40
0.0089557228015919
 40
0.0999003359608148
 40
0.153163246058169
 40
0.3125636920784848
 40
0.5249666935694999
 40
0.6689893599352451
 40
0.9919152533810159
 40
1.0
 40
1.0
 40
1.0
 40
1.0
 10
250.4631171935818
 20
190.4029848921121
 30
0.0
 10
250.4631014380032
 20
190.4029741077489
 30
0.0
 10
250.4629256858466
 20
190.4028538090834
 30
0.0
 10
250.4574966698271
 20
190.3991353581653
 30
0.0
 10
250.4359611861198
 20
190.384424317099
 30
0.0
 10
250.3882557578549
 20
190.3519754556405
 30
0.0
 10
250.3158648128631
 20
190.303391415297
 30
0.0
 10
250.2139457008453
 20
190.2360209430288
 30
0.0
 10
250.1385906093908
 20
190.1872073782941
 30
0.0
 10
250.0861909636671
 20
190.1538008281003
 30
0.0
 10
250.084911132123
 20
190.1529848921121
 30
0.0
  0
SPLINE
  5
287
330
1F
100
AcDbEntity
  8
0
  6
Continuous
 62
     7
370
    25
100
AcDbSpline
210
0.0
220
0.0
230
1.0
 70
     8
 71
     3
 72
    15
 73
    11
 74
     0
 42
0.00000001
 43
0.00000001
 40
0.0
 40
0.0
 40
0.0
 40
0.0
 40
0.0089557228015919
 40
0.0999003359608209
 40
0.1531632460581751
 40
0.3125636920784904
 40
0.5249666935695061
 40
0.6689893599351777
 40
0.991915253381045
 40
1.0
 40
1.0
 40
1.0
 40
1.0
 10
239.5086660434785
 20
187.4029848921121
 30
0.0
 10
239.5086817990571
 20
187.4029956764752
 30
0.0
 10
239.5088575512137
 20
187.4031159751408
 30
0.0
 10
239.5142865672332
 20
187.4068344260589
 30
0.0
 10
239.5358220509405
 20
187.4215454671251
 30
0.0
 10
239.5835274792053
 20
187.4539943285837
 30
0.0
 10
239.6559184241972
 20
187.5025783689271
 30
0.0
 10
239.7578375362149
 20
187.5699488411954
 30
0.0
 10
239.8331926276699
 20
187.6187624059294
 30
0.0
 10
239.8855922733932
 20
187.6521689561238
 30
0.0
 10
239.8868721049373
 20
187.6529848921121
 30
0.0
  0
ARC
  5
288
330
1F
100
AcDbEntity
  8
0
  6
Continuous
 62
     7
370
    25
100
AcDbCircle
 10
239.5086660435
 20
187.1529848921
 30
0.0
 40
0.25
100
AcDbArc
 50
17.7189318734
 51
90.0
  0
SPLINE
  5
289
330
1F
100
AcDbEntity
  8
0
  6
Continuous
 62
     7
370
    25
100
AcDbSpline
210
0.0
220
0.0
230
1.0
 70
     8
 71
     3
 72
    15
 73
    11
 74
     0
 42
0.00000001
 43
0.00000001
 40
0.0
 40
0.0
 40
0.0
 40
0.0
 40
0.0080847466189582
 40
0.3310106400648243
 40
0.4750333064304948
 40
0.6874363079215142
 40
0.8468367539418303
 40
0.9000996640391847
 40
0.9910442771984082
 40
1.0
 40
1.0
 40
1.0
 40
1.0
 10
250.084911132123
 20
187.6529848921121
 30
0.0
 10
250.086190963667
 20
187.6521689561238
 30
0.0
 10
250.1385906093903
 20
187.6187624059293
 30
0.0
 10
250.2139457008454
 20
187.5699488411955
 30
0.0
 10
250.3158648128631
 20
187.5025783689271
 30
0.0
 10
250.3882557578549
 20
187.4539943285837
 30
0.0
 10
250.4359611861198
 20
187.4215454671251
 30
0.0
 10
250.4574966698271
 20
187.4068344260589
 30
0.0
 10
250.4629256858466
 20
187.4031159751408
 30
0.0
 10
250.4631014380032
 20
187.4029956764752
 30
0.0
 10
250.4631171935818
 20
187.4029848921121
 30
0.0
  0
ARC
  5
28A
330
1F
100
AcDbEntity
  8
0
  6
Continuous
 62
     7
370
    25
100
AcDbCircle
 10
250.4631171936
 20
187.1529848921
 30
0.0
 40
0.25
100
AcDbArc
 50
90.0
 51
162.2810681266
  0
LINE
  5
28B
330
1F
100
AcDbEntity
  8
0
  6
Continuous
 62
     7
370
    25
100
AcDbLine
 10
249.9858916185
 20
189.5029848921
 30
0.0
 11
239.9858916185
 21
189.5029848921
 31
0.0
  0
LINE
  5
28C
330
1F
100
AcDbEntity
  8
0
  6
Continuous
 62
     7
370
    25
100
AcDbLine
 10
249.9858916185
 20
188.3029848921
 30
0.0
 11
249.9858916185
 21
189.5029848921
 31
0.0
  0
LINE
  5
28D
330
1F
100
AcDbEntity
  8
0
  6
Continuous
 62
     7
370
    25
100
AcDbLine
 10
239.9858916185
 20
188.3029848921
 30
0.0
 11
249.9858916185
 21
188.3029848921
 31
0.0
  0
LINE
  5
28E
330
1F
100
AcDbEntity
  8
0
  6
Continuous
 62
     7
370
    25
100
AcDbLine
 10
239.9858916185
 20
189.5029848921
 30
0.0
 11
239.9858916185
 21
188.3029848921
 31
0.0
  0
LINE
  5
28F
330
1F
100
AcDbEntity
  8
0
  6
Continuous
 62
     7
370
    25
100
AcDbLine
 10
250.7358916185
 20
190.1529848921
 30
0.0
 11
250.0849111321
 21
190.1529848921
 31
0.0
  0
LINE
  5
290
330
1F
100
AcDbEntity
  8
0
  6
Continuous
 62
     7
370
    25
100
AcDbLine
 10
250.7358916185
 20
187.6529848921
 30
0.0
 11
250.7358916185
 21
190.1529848921
 31
0.0
  0
LINE
  5
291
330
1F
100
AcDbEntity
  8
0
  6
Continuous
 62
     7
370
    25
100
AcDbLine
 10
250.0849111321
 20
187.6529848921
 30
0.0
 11
250.7358916185
 21
187.6529848921
 31
0.0
  0
LINE
  5
292
330
1F
100
AcDbEntity
  8
0
  6
Continuous
 62
     7
370
    25
100
AcDbLine
 10
239.2358916185
 20
187.6529848921
 30
0.0
 11
239.8868721049
 21
187.6529848921
 31
0.0
  0
LINE
  5
293
330
1F
100
AcDbEntity
  8
0
  6
Continuous
 62
     7
370
    25
100
AcDbLine
 10
239.2358916185
 20
190.1529848921
 30
0.0
 11
239.2358916185
 21
187.6529848921
 31
0.0
  0
LINE
  5
294
330
1F
100
AcDbEntity
  8
0
  6
Continuous
 62
     7
370
    25
100
AcDbLine
 10
239.8868721049
 20
190.1529848921
 30
0.0
 11
239.2358916185
 21
190.1529848921
 31
0.0
  0
LINE
  5
295
330
1F
100
AcDbEntity
  8
0
  6
Continuous
 62
     7
370
    25
100
AcDbLine
 10
239.2358916185
 20
190.4029848921
 30
0.0
 11
239.2358916185
 21
190.1529848921
 31
0.0
  0
LINE
  5
296
330
1F
100
AcDbEntity
  8
0
  6
Continuous
 62
     7
370
    25
100
AcDbLine
 10
239.2358916185
 20
190.4029848921
 30
0.0
 11
239.5086660435
 21
190.4029848921
 31
0.0
  0
LINE
  5
297
330
1F
100
AcDbEntity
  8
0
  6
Continuous
 62
     7
370
    25
100
AcDbLine
 10
239.2358916185
 20
190.1529848921
 30
0.0
 11
238.9858916185
 21
190.1529848921
 31
0.0
  0
ARC
  5
298
330
1F
100
AcDbEntity
  8
0
  6
Continuous
 62
     7
370
    25
100
AcDbCircle
 10
239.2358916185
 20
190.1529848921
 30
0.0
 40
0.25
100
AcDbArc
 50
90.0
 51
180.0
  0
ARC
  5
299
330
1F
100
AcDbEntity
  8
0
  6
Continuous
 62
     7
370
    25
100
AcDbCircle
 10
250.7358916185
 20
190.1529848921
 30
0.0
 40
0.25
100
AcDbArc
 50
0.0
 51
90.0
  0
LINE
  5
29A
330
1F
100
AcDbEntity
  8
0
  6
Continuous
 62
     7
370
    25
100
AcDbLine
 10
250.9858916185
 20
190.1529848921
 30
0.0
 11
250.7358916185
 21
190.1529848921
 31
0.0
  0
LINE
  5
29B
330
1F
100
AcDbEntity
  8
0
  6
Continuous
 62
     7
370
    25
100
AcDbLine
 10
250.7358916185
 20
190.1529848921
 30
0.0
 11
250.7358916185
 21
190.4029848921
 31
0.0
  0
LINE
  5
29C
330
1F
100
AcDbEntity
  8
0
  6
Continuous
 62
     7
370
    25
100
AcDbLine
 10
250.4631171936
 20
190.4029848921
 30
0.0
 11
250.7358916185
 21
190.4029848921
 31
0.0
  0
LINE
  5
29D
330
1F
100
AcDbEntity
  8
0
  6
Continuous
 62
     7
370
    25
100
AcDbLine
 10
250.9858916185
 20
190.1529848921
 30
0.0
 11
250.9858916185
 21
187.6529848921
 31
0.0
  0
LINE
  5
29E
330
1F
100
AcDbEntity
  8
0
  6
Continuous
 62
     7
370
    25
100
AcDbLine
 10
250.7358916185
 20
187.6529848921
 30
0.0
 11
250.9858916185
 21
187.6529848921
 31
0.0
  0
LINE
  5
29F
330
1F
100
AcDbEntity
  8
0
  6
Continuous
 62
     7
370
    25
100
AcDbLine
 10
238.9858916185
 20
187.6529848921
 30
0.0
 11
239.2358916185
 21
187.6529848921
 31
0.0
  0
LINE
  5
2A0
330
1F
100
AcDbEntity
  8
0
  6
Continuous
 62
     7
370
    25
100
AcDbLine
 10
238.9858916185
 20
187.6529848921
 30
0.0
 11
238.9858916185
 21
190.1529848921
 31
0.0
  0
LINE
  5
2A1
330
1F
100
AcDbEntity
  8
0
  6
Continuous
 62
     7
370
    25
100
AcDbLine
 10
250.7358916185
 20
187.4029848921
 30
0.0
 11
250.7358916185
 21
187.6529848921
 31
0.0
  0
LINE
  5
2A2
330
1F
100
AcDbEntity
  8
0
  6
Continuous
 62
     7
370
    25
100
AcDbLine
 10
250.7358916185
 20
187.4029848921
 30
0.0
 11
250.4631171936
 21
187.4029848921
 31
0.0
  0
LINE
  5
2A3
330
1F
100
AcDbEntity
  8
0
  6
Continuous
 62
     7
370
    25
100
AcDbLine
 10
239.5086660435
 20
187.4029848921
 30
0.0
 11
239.2358916185
 21
187.4029848921
 31
0.0
  0
LINE
  5
2A4
330
1F
100
AcDbEntity
  8
0
  6
Continuous
 62
     7
370
    25
100
AcDbLine
 10
239.2358916185
 20
187.6529848921
 30
0.0
 11
239.2358916185
 21
187.4029848921
 31
0.0
  0
ARC
  5
2A5
330
1F
100
AcDbEntity
  8
0
  6
Continuous
 62
     7
370
    25
100
AcDbCircle
 10
250.7358916185
 20
187.6529848921
 30
0.0
 40
0.25
100
AcDbArc
 50
270.0
 51
0.0
  0
ARC
  5
2A6
330
1F
100
AcDbEntity
  8
0
  6
Continuous
 62
     7
370
    25
100
AcDbCircle
 10
239.2358916185
 20
187.6529848921
 30
0.0
 40
0.25
100
AcDbArc
 50
180.0
 51
270.0
  0
LINE
  5
2A7
330
1F
100
AcDbEntity
  8
0
  6
Continuous
 62
     7
370
    25
100
AcDbLine
 10
224.9858916185
 20
185.6312856281
 30
0.0
 11
224.9858916185
 21
192.1746841562
 31
0.0
  0
LINE
  5
2A8
330
1F
100
AcDbEntity
  8
0
  6
Continuous
 62
     7
370
    25
100
AcDbLine
 10
222.810454757
 20
185.4029848921
 30
0.0
 11
224.9858916185
 21
185.6312856281
 31
0.0
  0
LINE
  5
2A9
330
1F
100
AcDbEntity
  8
0
  6
Continuous
 62
     7
370
    25
100
AcDbLine
 10
204.9858916185
 20
185.4029848921
 30
0.0
 11
222.810454757
 21
185.4029848921
 31
0.0
  0
LINE
  5
2AA
330
1F
100
AcDbEntity
  8
0
  6
Continuous
 62
     7
370
    25
100
AcDbLine
 10
224.9858916185
 20
192.1746841562
 30
0.0
 11
222.810454757
 21
192.4029848921
 31
0.0
  0
LINE
  5
2AB
330
1F
100
AcDbEntity
  8
0
  6
Continuous
 62
     7
370
    25
100
AcDbLine
 10
222.810454757
 20
192.4029848921
 30
0.0
 11
204.9858916185
 21
192.4029848921
 31
0.0
  0
LINE
  5
2AC
330
1F
100
AcDbEntity
  8
0
  6
Continuous
 62
     7
370
    25
100
AcDbLine
 10
204.9858916185
 20
192.4029848921
 30
0.0
 11
204.9858916185
 21
185.4029848921
 31
0.0
  0
LINE
  5
2AD
330
1F
100
AcDbEntity
  8
0
  6
Continuous
 62
     7
370
    25
100
AcDbLine
 10
239.7620894442
 20
190.6239993729
 30
0.0
 11
239.6336804055
 21
190.4398577395
 31
0.0
  0
LINE
  5
2AE
330
1F
100
AcDbEntity
  8
0
  6
Continuous
 62
     7
370
    25
100
AcDbLine
 10
239.6432477463
 20
187.3577672247
 30
0.0
 11
239.7620894442
 21
187.1819704113
 31
0.0
  0
LINE
  5
2AF
330
1F
100
AcDbEntity
  8
0
  6
Continuous
 62
     7
370
    25
100
AcDbLine
 10
231.5693219649
 20
191.4837875277
 30
0.0
 11
231.5693219649
 21
186.3221822565
 31
0.0
  0
LINE
  5
2B0
330
1F
100
AcDbEntity
  8
0
  6
Continuous
 62
     7
370
    25
100
AcDbLine
 10
239.7620894442
 20
187.1819704113
 30
0.0
 11
231.5693219649
 21
186.3221822565
 31
0.0
  0
LINE
  5
2B1
330
1F
100
AcDbEntity
  8
0
  6
Continuous
 62
     7
370
    25
100
AcDbLine
 10
231.5693219649
 20
191.4837875277
 30
0.0
 11
239.7620894442
 21
190.6239993729
 31
0.0
  0
LINE
  5
2B2
330
1F
100
AcDbEntity
  8
0
  6
Continuous
 62
     7
370
    25
100
AcDbLine
 10
231.5693219649
 20
186.3221822565
 30
0.0
 11
224.9858916185
 21
185.6312856281
 31
0.0
  0
LINE
  5
2B3
330
1F
100
AcDbEntity
  8
0
  6
Continuous
 62
     7
370
    25
100
AcDbLine
 10
224.9858916185
 20
192.1746841562
 30
0.0
 11
231.5693219649
 21
191.4837875277
 31
0.0
  0
ARC
  5
2B4
330
1F
100
AcDbEntity
  8
0
  6
Continuous
 62
     7
370
    25
100
AcDbCircle
 10
244.9858916185
 20
188.9029848921
 30
0.0
 40
7.450000000000656
100
AcDbArc
 50
233.0863788866
 51
126.9136211134
  0
ARC
  5
2B5
330
1F
100
AcDbEntity
  8
0
  6
Continuous
 62
     7
370
    25
100
AcDbCircle
 10
244.9858916185
 20
188.9029848921
 30
0.0
 40
7.207531252870781
100
AcDbArc
 50
195.3041237151
 51
238.9797515565
  0
ARC
  5
2B6
330
1F
100
AcDbEntity
  8
0
  6
Continuous
 62
     7
370
    25
100
AcDbCircle
 10
244.9858916185
 20
188.9029848921
 30
0.0
 40
7.207531252872434
100
AcDbArc
 50
121.0202484435
 51
164.6958762849
  0
ARC
  5
2B7
330
1F
100
AcDbEntity
  8
0
  6
Continuous
 62
     7
370
    25
100
AcDbCircle
 10
222.810454757
 20
257.4029848921
 30
0.0
 40
65.0
100
AcDbArc
 50
270.0
 51
286.5000949923
  0
ARC
  5
2B8
330
1F
100
AcDbEntity
  8
0
  6
Continuous
 62
     7
370
    25
100
AcDbCircle
 10
222.810454757
 20
120.4029848921
 30
0.0
 40
65.0
100
AcDbArc
 50
73.4999050077
 51
90.0
  0
LINE
  5
2B9
330
1F
100
AcDbEntity
  8
0
  6
Continuous
 62
     7
370
    25
100
AcDbLine
 10
189.0138716602
 20
192.8364340151
 30
0.0
 11
189.0138716602
 21
184.9695357691
 31
0.0
  0
LINE
  5
2BA
330
1F
100
AcDbEntity
  8
0
  6
Continuous
 62
     7
370
    25
100
AcDbLine
 10
227.0077636961
 20
181.0529848921
 30
0.0
 11
227.0077636961
 21
185.2673248461
 31
0.0
  0
LINE
  5
2BB
330
1F
100
AcDbEntity
  8
0
  6
Continuous
 62
     7
370
    25
100
AcDbLine
 10
227.0077636961
 20
192.5386449381
 30
0.0
 11
227.0077636961
 21
196.7529848921
 31
0.0
  0
LINE
  5
2BC
330
1F
100
AcDbEntity
  8
0
  6
Continuous
 62
     7
370
    25
100
AcDbLine
 10
214.6077636961
 20
196.7529848921
 30
0.0
 11
214.6077636961
 21
192.4029848921
 31
0.0
  0
LINE
  5
2BD
330
1F
100
AcDbEntity
  8
0
  6
Continuous
 62
     7
370
    25
100
AcDbLine
 10
214.6077636961
 20
185.4029848921
 30
0.0
 11
214.6077636961
 21
181.0529848921
 31
0.0
  0
LINE
  5
2BE
330
1F
100
AcDbEntity
  8
0
  6
Continuous
 62
     7
370
    25
100
AcDbLine
 10
256.163832646
 20
188.6529848921
 30
0.0
 11
252.4316958061
 21
188.6529848921
 31
0.0
  0
LINE
  5
2BF
330
1F
100
AcDbEntity
  8
0
  6
Continuous
 62
     7
370
    25
100
AcDbLine
 10
252.4316958061
 20
189.1529848921
 30
0.0
 11
256.163832646
 21
189.1529848921
 31
0.0
  0
INSERT
  5
2CB
330
1F
100
AcDbEntity
  8
FORMAT
100
AcDbBlockReference
  2
SW_CENTERMARKSYMBOL_1
 10
244.9858916185
 20
188.9029848921
 30
0.0
  0
LINE
  5
2CC
330
1F
100
AcDbEntity
  8
FORMAT
100
AcDbLine
 10
220.6298916185
 20
194.6254848921
 30
0.0
 11
229.4858916185
 21
194.6254848921
 31
0.0
  0
LINE
  5
2CD
330
1F
100
AcDbEntity
  8
FORMAT
100
AcDbLine
 10
220.6298916185
 20
183.1804848921
 30
0.0
 11
229.4858916185
 21
183.1804848921
 31
0.0
  0
LINE
  5
2CE
330
1F
100
AcDbEntity
  8
FORMAT
100
AcDbLine
 10
229.4858916185
 20
182.3244848921
 30
0.0
 11
229.4858916185
 21
195.4814848921
 31
0.0
  0
ENDSEC
  0
SECTION
  2
OBJECTS
  0
DICTIONARY
  5
C
330
0
100
AcDbDictionary
281
     1
  3
ACAD_GROUP
350
D
  3
ACAD_LAYOUT
350
1A
  3
ACAD_MLINESTYLE
350
17
  3
ACAD_PLOTSETTINGS
350
19
  3
ACAD_PLOTSTYLENAME
350
E
  3
ACAD_SCALELIST
350
47
  3
DWGPROPS
350
2CF
  0
DICTIONARY
  5
D
102
{ACAD_REACTORS
330
C
102
}
330
C
100
AcDbDictionary
281
     1
  0
DICTIONARY
  5
1A
102
{ACAD_REACTORS
330
C
102
}
330
C
100
AcDbDictionary
281
     1
  3
Layout1
350
1E
  3
Layout2
350
26
  3
Model
350
22
  0
DICTIONARY
  5
17
102
{ACAD_REACTORS
330
C
102
}
330
C
100
AcDbDictionary
281
     1
  3
Standard
350
18
  0
DICTIONARY
  5
19
102
{ACAD_REACTORS
330
C
102
}
330
C
100
AcDbDictionary
281
     1
  0
ACDBDICTIONARYWDFLT
  5
E
102
{ACAD_REACTORS
330
C
102
}
330
C
100
AcDbDictionary
281
     1
  3
Normal
350
F
100
AcDbDictionaryWithDefault
340
F
  0
DICTIONARY
  5
47
102
{ACAD_REACTORS
330
C
102
}
330
C
100
AcDbDictionary
281
     1
  3
A0
350
48
  3
A1
350
49
  3
A2
350
4A
  3
A3
350
4B
  3
A4
350
4C
  3
A5
350
4D
  3
A6
350
4E
  3
A7
350
4F
  3
A8
350
50
  3
A9
350
51
  3
B0
350
52
  3
B1
350
53
  3
B2
350
54
  3
B3
350
55
  3
B4
350
56
  3
B5
350
57
  3
B6
350
58
  0
XRECORD
  5
2CF
102
{ACAD_REACTORS
330
C
102
}
330
C
100
AcDbXrecord
280
     1
  1
DWGPROPS COOKIE
  2

  3

  4

  6

  7

  8
user28
  9

300
=
301
=
302
=
303
=
304
=
305
=
306
=
307
=
308
=
309
=
 40
0.0
 41
2460333.018470012
 42
2460333.018471123
  1

 90
        0
  0
LAYOUT
  5
1E
102
{ACAD_REACTORS
330
1A
102
}
330
1A
100
AcDbPlotSettings
  1

  2
none_device
  4

  6

 40
0.0
 41
0.0
 42
0.0
 43
0.0
 44
0.0
 45
0.0
 46
0.0
 47
0.0
 48
0.0
 49
0.0
140
0.0
141
0.0
142
1.0
143
1.0
 70
   688
 72
     1
 73
     0
 74
     5
  7

 75
    16
147
1.0
148
0.0
149
0.0
100
AcDbLayout
  1
Layout1
 70
     1
 71
     1
 10
0.0
 20
0.0
 11
420.0
 21
297.0
 12
0.0
 22
0.0
 32
0.0
 14
1.0000000000E+20
 24
1.0000000000E+20
 34
1.0000000000E+20
 15
-1.0000000000E+20
 25
-1.0000000000E+20
 35
-1.0000000000E+20
146
0.0
 13
0.0
 23
0.0
 33
0.0
 16
1.0
 26
0.0
 36
0.0
 17
0.0
 27
1.0
 37
0.0
 76
     0
330
1B
  0
LAYOUT
  5
26
102
{ACAD_REACTORS
330
1A
102
}
330
1A
100
AcDbPlotSettings
  1

  2
none_device
  4

  6

 40
0.0
 41
0.0
 42
0.0
 43
0.0
 44
0.0
 45
0.0
 46
0.0
 47
0.0
 48
0.0
 49
0.0
140
0.0
141
0.0
142
1.0
143
1.0
 70
   688
 72
     1
 73
     0
 74
     5
  7

 75
    16
147
1.0
148
0.0
149
0.0
100
AcDbLayout
  1
Layout2
 70
     1
 71
     2
 10
0.0
 20
0.0
 11
0.0
 21
0.0
 12
0.0
 22
0.0
 32
0.0
 14
0.0
 24
0.0
 34
0.0
 15
0.0
 25
0.0
 35
0.0
146
0.0
 13
0.0
 23
0.0
 33
0.0
 16
1.0
 26
0.0
 36
0.0
 17
0.0
 27
1.0
 37
0.0
 76
     0
330
23
  0
LAYOUT
  5
22
102
{ACAD_REACTORS
330
1A
102
}
330
1A
100
AcDbPlotSettings
  1

  2
none_device
  4
Letter_(8.50_x_11.00_Inches)
  6

 40
6.35
 41
6.35
 42
6.35000508
 43
6.35000508
 44
215.9
 45
279.4
 46
0.0
 47
0.0
 48
0.0
 49
0.0
140
0.0
141
0.0
142
1.0
143
1.0
 70
  1712
 72
     1
 73
     0
 74
     0
  7

 75
     0
147
1.0
148
0.0
149
0.0
100
AcDbLayout
  1
Model
 70
     1
 71
     0
 10
0.0
 20
0.0
 11
594.0
 21
420.0
 12
0.0
 22
0.0
 32
0.0
 14
0.0
 24
0.0
 34
0.0
 15
594.0
 25
420.0
 35
0.0
146
0.0
 13
0.0
 23
0.0
 33
0.0
 16
1.0
 26
0.0
 36
0.0
 17
0.0
 27
1.0
 37
0.0
 76
     0
330
1F
331
29
  0
MLINESTYLE
  5
18
102
{ACAD_REACTORS
330
17
102
}
330
17
100
AcDbMlineStyle
  2
Standard
 70
     0
  3

 62
   256
 51
90.0
 52
90.0
 71
     2
 49
0.5
 62
   256
  6
BYLAYER
 49
-0.5
 62
   256
  6
BYLAYER
  0
ACDBPLACEHOLDER
  5
F
102
{ACAD_REACTORS
330
E
102
}
330
E
  0
SCALE
  5
48
102
{ACAD_REACTORS
330
47
102
}
330
47
100
AcDbScale
 70
     0
300
1:1
140
1.0
141
1.0
290
     1
  0
SCALE
  5
49
102
{ACAD_REACTORS
330
47
102
}
330
47
100
AcDbScale
 70
     0
300
1:2
140
1.0
141
2.0
290
     0
  0
SCALE
  5
4A
102
{ACAD_REACTORS
330
47
102
}
330
47
100
AcDbScale
 70
     0
300
1:4
140
1.0
141
4.0
290
     0
  0
SCALE
  5
4B
102
{ACAD_REACTORS
330
47
102
}
330
47
100
AcDbScale
 70
     0
300
1:5
140
1.0
141
5.0
290
     0
  0
SCALE
  5
4C
102
{ACAD_REACTORS
330
47
102
}
330
47
100
AcDbScale
 70
     0
300
1:8
140
1.0
141
8.0
290
     0
  0
SCALE
  5
4D
102
{ACAD_REACTORS
330
47
102
}
330
47
100
AcDbScale
 70
     0
300
1:10
140
1.0
141
10.0
290
     0
  0
SCALE
  5
4E
102
{ACAD_REACTORS
330
47
102
}
330
47
100
AcDbScale
 70
     0
300
1:16
140
1.0
141
16.0
290
     0
  0
SCALE
  5
4F
102
{ACAD_REACTORS
330
47
102
}
330
47
100
AcDbScale
 70
     0
300
1:20
140
1.0
141
20.0
290
     0
  0
SCALE
  5
50
102
{ACAD_REACTORS
330
47
102
}
330
47
100
AcDbScale
 70
     0
300
1:30
140
1.0
141
30.0
290
     0
  0
SCALE
  5
51
102
{ACAD_REACTORS
330
47
102
}
330
47
100
AcDbScale
 70
     0
300
1:40
140
1.0
141
40.0
290
     0
  0
SCALE
  5
52
102
{ACAD_REACTORS
330
47
102
}
330
47
100
AcDbScale
 70
     0
300
1:50
140
1.0
141
50.0
290
     0
  0
SCALE
  5
53
102
{ACAD_REACTORS
330
47
102
}
330
47
100
AcDbScale
 70
     0
300
1:100
140
1.0
141
100.0
290
     0
  0
SCALE
  5
54
102
{ACAD_REACTORS
330
47
102
}
330
47
100
AcDbScale
 70
     0
300
2:1
140
2.0
141
1.0
290
     0
  0
SCALE
  5
55
102
{ACAD_REACTORS
330
47
102
}
330
47
100
AcDbScale
 70
     0
300
4:1
140
4.0
141
1.0
290
     0
  0
SCALE
  5
56
102
{ACAD_REACTORS
330
47
102
}
330
47
100
AcDbScale
 70
     0
300
8:1
140
8.0
141
1.0
290
     0
  0
SCALE
  5
57
102
{ACAD_REACTORS
330
47
102
}
330
47
100
AcDbScale
 70
     0
300
10:1
140
10.0
141
1.0
290
     0
  0
SCALE
  5
58
102
{ACAD_REACTORS
330
47
102
}
330
47
100
AcDbScale
 70
     0
300
100:1
140
100.0
141
1.0
290
     0
  0
ENDSEC
  0
EOF
