  0
SECTION
  2
HEADER
  9
$ACADVER
  1
AC1015
  9
$ACADMAINTVER
 70
     6
  9
$DWGCODEPAGE
  3
DOS932
  9
$INSBASE
 10
0.0
 20
0.0
 30
0.0
  9
$EXTMIN
 10
0.0
 20
0.0
 30
0.0
  9
$EXTMAX
 10
594.0
 20
420.0
 30
0.0
  9
$LIMMIN
 10
0.0
 20
0.0
  9
$LIMMAX
 10
594.0
 20
420.0
  9
$ORTHOMODE
 70
     0
  9
$REGENMODE
 70
     1
  9
$FILLMODE
 70
     1
  9
$QTEXTMODE
 70
     0
  9
$MIRRTEXT
 70
     1
  9
$LTSCALE
 40
2.0
  9
$ATTMODE
 70
     1
  9
$TEXTSIZE
 40
7.0555555556
  9
$TRACEWID
 40
1.0
  9
$TEXTSTYLE
  7
Standard
  9
$CLAYER
  8
0
  9
$CELTYPE
  6
ByLayer
  9
$CECOLOR
 62
   256
  9
$CELTSCALE
 40
1.0
  9
$DISPSILH
 70
     0
  9
$DIMSCALE
 40
1.0
  9
$DIMASZ
 40
5.45703125
  9
$DIMEXO
 40
2.0
  9
$DIMDLI
 40
3.75
  9
$DIMRND
 40
0.0
  9
$DIMDLE
 40
0.0
  9
$DIMEXE
 40
2.0
  9
$DIMTP
 40
0.0
  9
$DIMTM
 40
0.0
  9
$DIMTXT
 40
7.0555555556
  9
$DIMCEN
 40
2.5
  9
$DIMTSZ
 40
0.0
  9
$DIMTOL
 70
     0
  9
$DIMLIM
 70
     0
  9
$DIMTIH
 70
     1
  9
$DIMTOH
 70
     1
  9
$DIMSE1
 70
     0
  9
$DIMSE2
 70
     0
  9
$DIMTAD
 70
     1
  9
$DIMZIN
 70
     0
  9
$DIMBLK
  1

  9
$DIMASO
 70
     1
  9
$DIMSHO
 70
     1
  9
$DIMPOST
  1

  9
$DIMAPOST
  1

  9
$DIMALT
 70
     0
  9
$DIMALTD
 70
     3
  9
$DIMALTF
 40
0.0393700787
  9
$DIMLFAC
 40
1.0
  9
$DIMTOFL
 70
     1
  9
$DIMTVP
 40
0.0
  9
$DIMTIX
 70
     0
  9
$DIMSOXD
 70
     0
  9
$DIMSAH
 70
     0
  9
$DIMBLK1
  1

  9
$DIMBLK2
  1

  9
$DIMSTYLE
  2
ISO-25
  9
$DIMCLRD
 70
     0
  9
$DIMCLRE
 70
     0
  9
$DIMCLRT
 70
     0
  9
$DIMTFAC
 40
1.0
  9
$DIMGAP
 40
3.048
  9
$DIMJUST
 70
     0
  9
$DIMSD1
 70
     0
  9
$DIMSD2
 70
     0
  9
$DIMTOLJ
 70
     0
  9
$DIMTZIN
 70
     0
  9
$DIMALTZ
 70
     0
  9
$DIMALTTZ
 70
     0
  9
$DIMUPT
 70
     0
  9
$DIMDEC
 70
     2
  9
$DIMTDEC
 70
     2
  9
$DIMALTU
 70
     2
  9
$DIMALTTD
 70
     3
  9
$DIMTXSTY
  7
Standard
  9
$DIMAUNIT
 70
     0
  9
$DIMADEC
 70
     2
  9
$DIMALTRND
 40
0.0
  9
$DIMAZIN
 70
     0
  9
$DIMDSEP
 70
    44
  9
$DIMATFIT
 70
     3
  9
$DIMFRAC
 70
     0
  9
$DIMLDRBLK
  1

  9
$DIMLUNIT
 70
     2
  9
$DIMLWD
 70
    -2
  9
$DIMLWE
 70
    -2
  9
$DIMTMOVE
 70
     0
  9
$LUNITS
 70
     2
  9
$LUPREC
 70
     2
  9
$SKETCHINC
 40
1.0
  9
$FILLETRAD
 40
0.0
  9
$AUNITS
 70
     0
  9
$AUPREC
 70
     2
  9
$MENU
  1
.
  9
$ELEVATION
 40
0.0
  9
$PELEVATION
 40
0.0
  9
$THICKNESS
 40
0.0
  9
$LIMCHECK
 70
     0
  9
$CHAMFERA
 40
0.0
  9
$CHAMFERB
 40
0.0
  9
$CHAMFERC
 40
0.0
  9
$CHAMFERD
 40
0.0
  9
$SKPOLY
 70
     0
  9
$TDCREATE
 40
2460333.392235416
  9
$TDUCREATE
 40
2460333.017235416
  9
$TDUPDATE
 40
2460333.392236238
  9
$TDUUPDATE
 40
2460333.017236238
  9
$TDINDWG
 40
0.0000000116
  9
$TDUSRTIMER
 40
0.0000000116
  9
$USRTIMER
 70
     1
  9
$ANGBASE
 50
0.0
  9
$ANGDIR
 70
     0
  9
$PDMODE
 70
     0
  9
$PDSIZE
 40
-1.0
  9
$PLINEWID
 40
0.0
  9
$SPLFRAME
 70
     0
  9
$SPLINETYPE
 70
     6
  9
$SPLINESEGS
 70
     8
  9
$HANDSEED
  5
2DD
  9
$SURFTAB1
 70
     6
  9
$SURFTAB2
 70
     6
  9
$SURFTYPE
 70
     6
  9
$SURFU
 70
     6
  9
$SURFV
 70
     6
  9
$UCSBASE
  2

  9
$UCSNAME
  2

  9
$UCSORG
 10
0.0
 20
0.0
 30
0.0
  9
$UCSXDIR
 10
1.0
 20
0.0
 30
0.0
  9
$UCSYDIR
 10
0.0
 20
1.0
 30
0.0
  9
$UCSORTHOREF
  2

  9
$UCSORTHOVIEW
 70
     0
  9
$UCSORGTOP
 10
0.0
 20
0.0
 30
0.0
  9
$UCSORGBOTTOM
 10
0.0
 20
0.0
 30
0.0
  9
$UCSORGLEFT
 10
0.0
 20
0.0
 30
0.0
  9
$UCSORGRIGHT
 10
0.0
 20
0.0
 30
0.0
  9
$UCSORGFRONT
 10
0.0
 20
0.0
 30
0.0
  9
$UCSORGBACK
 10
0.0
 20
0.0
 30
0.0
  9
$PUCSBASE
  2

  9
$PUCSNAME
  2

  9
$PUCSORG
 10
0.0
 20
0.0
 30
0.0
  9
$PUCSXDIR
 10
1.0
 20
0.0
 30
0.0
  9
$PUCSYDIR
 10
0.0
 20
1.0
 30
0.0
  9
$PUCSORTHOREF
  2

  9
$PUCSORTHOVIEW
 70
     0
  9
$PUCSORGTOP
 10
0.0
 20
0.0
 30
0.0
  9
$PUCSORGBOTTOM
 10
0.0
 20
0.0
 30
0.0
  9
$PUCSORGLEFT
 10
0.0
 20
0.0
 30
0.0
  9
$PUCSORGRIGHT
 10
0.0
 20
0.0
 30
0.0
  9
$PUCSORGFRONT
 10
0.0
 20
0.0
 30
0.0
  9
$PUCSORGBACK
 10
0.0
 20
0.0
 30
0.0
  9
$USERI1
 70
     0
  9
$USERI2
 70
     0
  9
$USERI3
 70
     0
  9
$USERI4
 70
     0
  9
$USERI5
 70
     0
  9
$USERR1
 40
0.0
  9
$USERR2
 40
0.0
  9
$USERR3
 40
0.0
  9
$USERR4
 40
0.0
  9
$USERR5
 40
0.0
  9
$WORLDVIEW
 70
     1
  9
$SHADEDGE
 70
     3
  9
$SHADEDIF
 70
    70
  9
$TILEMODE
 70
     1
  9
$MAXACTVP
 70
    64
  9
$PINSBASE
 10
0.0
 20
0.0
 30
0.0
  9
$PLIMCHECK
 70
     0
  9
$PEXTMIN
 10
1.0000000000E+20
 20
1.0000000000E+20
 30
1.0000000000E+20
  9
$PEXTMAX
 10
-1.0000000000E+20
 20
-1.0000000000E+20
 30
-1.0000000000E+20
  9
$PLIMMIN
 10
0.0
 20
0.0
  9
$PLIMMAX
 10
420.0
 20
297.0
  9
$UNITMODE
 70
     0
  9
$VISRETAIN
 70
     1
  9
$PLINEGEN
 70
     0
  9
$PSLTSCALE
 70
     1
  9
$TREEDEPTH
 70
  3020
  9
$CMLSTYLE
  2
Standard
  9
$CMLJUST
 70
     0
  9
$CMLSCALE
 40
20.0
  9
$PROXYGRAPHICS
 70
     1
  9
$MEASUREMENT
 70
     1
  9
$CELWEIGHT
370
    -1
  9
$ENDCAPS
280
     0
  9
$JOINSTYLE
280
     0
  9
$LWDISPLAY
290
     1
  9
$INSUNITS
 70
     4
  9
$HYPERLINKBASE
  1

  9
$STYLESHEET
  1

  9
$XEDIT
290
     1
  9
$CEPSNTYPE
380
     0
  9
$PSTYLEMODE
290
     1
  9
$FINGERPRINTGUID
  2
{85b7112b-ae14-4291-9759-d9ece4645231}
  9
$VERSIONGUID
  2
{FAEB1C32-E019-11D5-929B-00C0DF256EC4}
  9
$EXTNAMES
290
     1
  9
$PSVPSCALE
 40
0.0
  9
$OLESTARTUP
290
     0
  0
ENDSEC
  0
SECTION
  2
CLASSES
  0
CLASS
  1
ACDBDICTIONARYWDFLT
  2
AcDbDictionaryWithDefault
  3
ObjectDBX Classes
 90
        0
280
     0
281
     0
  0
CLASS
  1
VISUALSTYLE
  2
AcDbVisualStyle
  3
ObjectDBX Classes
 90
     4095
280
     0
281
     0
  0
CLASS
  1
MATERIAL
  2
AcDbMaterial
  3
ObjectDBX Classes
 90
     1153
280
     0
281
     0
  0
CLASS
  1
SCALE
  2
AcDbScale
  3
ObjectDBX Classes
 90
     1153
280
     0
281
     0
  0
CLASS
  1
TABLESTYLE
  2
AcDbTableStyle
  3
ObjectDBX Classes
 90
     4095
280
     0
281
     0
  0
CLASS
  1
MLEADERSTYLE
  2
AcDbMLeaderStyle
  3
ACDB_MLEADERSTYLE_CLASS
 90
     4095
280
     0
281
     0
  0
CLASS
  1
SUN
  2
AcDbSun
  3
SCENEOE
 90
     1153
280
     0
281
     0
  0
CLASS
  1
ACDBPLACEHOLDER
  2
AcDbPlaceHolder
  3
ObjectDBX Classes
 90
        0
280
     0
281
     0
  0
CLASS
  1
LAYOUT
  2
AcDbLayout
  3
ObjectDBX Classes
 90
        0
280
     0
281
     0
  0
ENDSEC
  0
SECTION
  2
TABLES
  0
TABLE
  2
VPORT
  5
8
330
0
100
AcDbSymbolTable
 70
     1
  0
VPORT
  5
29
330
8
100
AcDbSymbolTableRecord
100
AcDbViewportTableRecord
  2
*Active
 70
     0
 10
0.0
 20
0.0
 11
1.0
 21
1.0
 12
297.0
 22
210.0
 13
0.0
 23
0.0
 14
10.0
 24
10.0
 15
10.0
 25
10.0
 16
0.0
 26
0.0
 36
1.0
 17
0.0
 27
0.0
 37
0.0
 40
420.0
 41
1.4142857143
 42
50.0
 43
0.0
 44
0.0
 50
0.0
 51
0.0
 71
     0
 72
  2000
 73
     1
 74
     3
 75
     0
 76
     0
 77
     0
 78
     0
281
     0
 65
     1
110
0.0
120
0.0
130
0.0
111
1.0
121
0.0
131
0.0
112
0.0
122
1.0
132
0.0
 79
     0
146
0.0
  0
ENDTAB
  0
TABLE
  2
LTYPE
  5
5
330
0
100
AcDbSymbolTable
 70
     6
  0
LTYPE
  5
14
330
5
100
AcDbSymbolTableRecord
100
AcDbLinetypeTableRecord
  2
ByBlock
 70
     0
  3

 72
    65
 73
     0
 40
0.0
  0
LTYPE
  5
15
330
5
100
AcDbSymbolTableRecord
100
AcDbLinetypeTableRecord
  2
ByLayer
 70
     0
  3

 72
    65
 73
     0
 40
0.0
  0
LTYPE
  5
16
330
5
100
AcDbSymbolTableRecord
100
AcDbLinetypeTableRecord
  2
Continuous
 70
     0
  3
Solid line
 72
    65
 73
     0
 40
0.0
  0
LTYPE
  5
5E
330
5
100
AcDbSymbolTableRecord
100
AcDbLinetypeTableRecord
  2
HIDDEN
 70
     0
  3
Hidden __ __ __ __ __ __ __ __ __ __ __ __ __ __
 72
    65
 73
     2
 40
1.905
 49
1.27
 74
     0
 49
-0.635
 74
     0
  0
LTYPE
  5
5F
330
5
100
AcDbSymbolTableRecord
100
AcDbLinetypeTableRecord
  2
PHANTOM
 70
     0
  3
Phantom ______  __  __  ______  __  __  ______
 72
    65
 73
     6
 40
12.7
 49
6.35
 74
     0
 49
-1.27
 74
     0
 49
1.27
 74
     0
 49
-1.27
 74
     0
 49
1.27
 74
     0
 49
-1.27
 74
     0
  0
LTYPE
  5
60
330
5
100
AcDbSymbolTableRecord
100
AcDbLinetypeTableRecord
  2
CENTER
 70
     0
  3
Center ____ _ ____ _ ____ _ ____ _ ____ _ ____
 72
    65
 73
     4
 40
10.16
 49
6.35
 74
     0
 49
-1.27
 74
     0
 49
1.27
 74
     0
 49
-1.27
 74
     0
  0
LTYPE
  5
61
330
5
100
AcDbSymbolTableRecord
100
AcDbLinetypeTableRecord
  2
CENTERX2
 70
     0
  3
Center (2x) ________  __  ________  __  _____
 72
    65
 73
     4
 40
20.32
 49
12.7
 74
     0
 49
-2.54
 74
     0
 49
2.54
 74
     0
 49
-2.54
 74
     0
  0
LTYPE
  5
62
330
5
100
AcDbSymbolTableRecord
100
AcDbLinetypeTableRecord
  2
DOT2
 70
     0
  3
Dot (.5x) ........................................
 72
    65
 73
     2
 40
0.635
 49
0.0
 74
     0
 49
-0.635
 74
     0
  0
ENDTAB
  0
TABLE
  2
LAYER
  5
2
330
0
100
AcDbSymbolTable
 70
     2
  0
LAYER
  5
10
330
2
100
AcDbSymbolTableRecord
100
AcDbLayerTableRecord
  2
0
 70
     0
 62
     7
  6
Continuous
370
    -3
390
F
  0
LAYER
  5
63
330
2
100
AcDbSymbolTableRecord
100
AcDbLayerTableRecord
  2
FORMAT
 70
     0
 62
     7
  6
Continuous
370
    -3
390
F
  0
ENDTAB
  0
TABLE
  2
STYLE
  5
3
330
0
100
AcDbSymbolTable
 70
     2
  0
STYLE
  5
11
330
3
100
AcDbSymbolTableRecord
100
AcDbTextStyleTableRecord
  2
Standard
 70
     0
 40
0.0
 41
1.0
 50
0.0
 71
     0
 42
7.0555555556
  3
txt
  4
bigfont
  0
STYLE
  5
64
330
3
100
AcDbSymbolTableRecord
100
AcDbTextStyleTableRecord
  2
SLDTEXTSTYLE0
 70
     0
 40
0.0
 41
0.7
 50
0.0
 71
     0
 42
7.0555555556
  3
TXT
  4
bigfont
  0
ENDTAB
  0
TABLE
  2
VIEW
  5
6
330
0
100
AcDbSymbolTable
 70
     0
  0
ENDTAB
  0
TABLE
  2
UCS
  5
7
330
0
100
AcDbSymbolTable
 70
     0
  0
ENDTAB
  0
TABLE
  2
APPID
  5
9
330
0
100
AcDbSymbolTable
 70
     1
  0
APPID
  5
12
330
9
100
AcDbSymbolTableRecord
100
AcDbRegAppTableRecord
  2
ACAD
 70
     0
  0
ENDTAB
  0
TABLE
  2
DIMSTYLE
  5
A
330
0
100
AcDbSymbolTable
 70
     1
100
AcDbDimStyleTable
  0
DIMSTYLE
105
27
330
A
100
AcDbSymbolTableRecord
100
AcDbDimStyleTableRecord
  2
ISO-25
 70
     0
 41
2.5
 42
0.625
 43
3.75
 44
1.25
 73
     0
 74
     0
 77
     1
 78
     8
140
2.5
141
2.5
143
0.0393700787
147
0.625
171
     3
172
     1
178
     0
271
     2
272
     2
274
     3
278
    44
283
     0
284
     8
340
11
  0
ENDTAB
  0
TABLE
  2
BLOCK_RECORD
  5
1
330
0
100
AcDbSymbolTable
 70
     3
  0
BLOCK_RECORD
  5
1F
330
1
100
AcDbSymbolTableRecord
100
AcDbBlockTableRecord
  2
*Model_Space
340
22
  0
BLOCK_RECORD
  5
1B
330
1
100
AcDbSymbolTableRecord
100
AcDbBlockTableRecord
  2
*Paper_Space
340
1E
  0
BLOCK_RECORD
  5
23
330
1
100
AcDbSymbolTableRecord
100
AcDbBlockTableRecord
  2
*Paper_Space0
340
26
  0
BLOCK_RECORD
  5
200
330
1
100
AcDbSymbolTableRecord
100
AcDbBlockTableRecord
  2
SW_CENTERMARKSYMBOL_0
340
0
102
{BLKREFS
331
20B
102
}
  0
BLOCK_RECORD
  5
2CD
330
1
100
AcDbSymbolTableRecord
100
AcDbBlockTableRecord
  2
SW_CENTERMARKSYMBOL_1
340
0
102
{BLKREFS
331
2D8
102
}
  0
ENDTAB
  0
ENDSEC
  0
SECTION
  2
BLOCKS
  0
BLOCK
  5
20
330
1F
100
AcDbEntity
  8
0
100
AcDbBlockBegin
  2
*Model_Space
 70
     0
 10
0.0
 20
0.0
 30
0.0
  3
*Model_Space
  1

  0
ENDBLK
  5
21
330
1F
100
AcDbEntity
  8
0
100
AcDbBlockEnd
  0
BLOCK
  5
1C
330
1B
100
AcDbEntity
 67
     1
  8
0
100
AcDbBlockBegin
  2
*Paper_Space
 70
     0
 10
0.0
 20
0.0
 30
0.0
  3
*Paper_Space
  1

  0
ENDBLK
  5
1D
330
1B
100
AcDbEntity
 67
     1
  8
0
100
AcDbBlockEnd
  0
BLOCK
  5
24
330
23
100
AcDbEntity
  8
0
100
AcDbBlockBegin
  2
*Paper_Space0
 70
     0
 10
0.0
 20
0.0
 30
0.0
  3
*Paper_Space0
  1

  0
ENDBLK
  5
25
330
23
100
AcDbEntity
  8
0
100
AcDbBlockEnd
  0
BLOCK
  5
201
330
200
100
AcDbEntity
  8
0
100
AcDbBlockBegin
  2
SW_CENTERMARKSYMBOL_0
 70
     0
 10
0.0
 20
0.0
 30
0.0
  3
SW_CENTERMARKSYMBOL_0
  1

  0
LINE
  5
203
330
200
100
AcDbEntity
  8
FORMAT
 62
     0
100
AcDbLine
 10
0.0
 20
0.0
 30
0.0
 11
0.0
 21
2.5
 31
0.0
  0
LINE
  5
204
330
200
100
AcDbEntity
  8
FORMAT
 62
     0
100
AcDbLine
 10
0.0
 20
0.0
 30
0.0
 11
-2.5
 21
0.0
 31
0.0
  0
LINE
  5
205
330
200
100
AcDbEntity
  8
FORMAT
 62
     0
100
AcDbLine
 10
0.0
 20
0.0
 30
0.0
 11
0.0
 21
-2.5
 31
0.0
  0
LINE
  5
206
330
200
100
AcDbEntity
  8
FORMAT
 62
     0
100
AcDbLine
 10
0.0
 20
0.0
 30
0.0
 11
2.5
 21
0.0
 31
0.0
  0
LINE
  5
207
330
200
100
AcDbEntity
  8
FORMAT
 62
     0
100
AcDbLine
 10
0.0
 20
5.0
 30
0.0
 11
0.0
 21
30.1977959766
 31
0.0
  0
LINE
  5
208
330
200
100
AcDbEntity
  8
FORMAT
 62
     0
100
AcDbLine
 10
-5.0
 20
0.0
 30
0.0
 11
-10.75
 21
0.0
 31
0.0
  0
LINE
  5
209
330
200
100
AcDbEntity
  8
FORMAT
 62
     0
100
AcDbLine
 10
0.0
 20
-5.0
 30
0.0
 11
0.0
 21
-25.4889074746
 31
0.0
  0
LINE
  5
20A
330
200
100
AcDbEntity
  8
FORMAT
 62
     0
100
AcDbLine
 10
5.0
 20
0.0
 30
0.0
 11
10.75
 21
0.0
 31
0.0
  0
ENDBLK
  5
202
330
200
100
AcDbEntity
  8
0
100
AcDbBlockEnd
  0
BLOCK
  5
2CE
330
2CD
100
AcDbEntity
  8
0
100
AcDbBlockBegin
  2
SW_CENTERMARKSYMBOL_1
 70
     0
 10
0.0
 20
0.0
 30
0.0
  3
SW_CENTERMARKSYMBOL_1
  1

  0
LINE
  5
2D0
330
2CD
100
AcDbEntity
  8
FORMAT
 62
     0
100
AcDbLine
 10
0.0
 20
0.0
 30
0.0
 11
0.0
 21
2.5
 31
0.0
  0
LINE
  5
2D1
330
2CD
100
AcDbEntity
  8
FORMAT
 62
     0
100
AcDbLine
 10
0.0
 20
0.0
 30
0.0
 11
-2.5
 21
0.0
 31
0.0
  0
LINE
  5
2D2
330
2CD
100
AcDbEntity
  8
FORMAT
 62
     0
100
AcDbLine
 10
0.0
 20
0.0
 30
0.0
 11
0.0
 21
-2.5
 31
0.0
  0
LINE
  5
2D3
330
2CD
100
AcDbEntity
  8
FORMAT
 62
     0
100
AcDbLine
 10
0.0
 20
0.0
 30
0.0
 11
2.5
 21
0.0
 31
0.0
  0
LINE
  5
2D4
330
2CD
100
AcDbEntity
  8
FORMAT
 62
     0
100
AcDbLine
 10
0.0
 20
5.0
 30
0.0
 11
0.0
 21
9.7075312529
 31
0.0
  0
LINE
  5
2D5
330
2CD
100
AcDbEntity
  8
FORMAT
 62
     0
100
AcDbLine
 10
-5.0
 20
0.0
 30
0.0
 11
-57.8472772461
 21
0.0
 31
0.0
  0
LINE
  5
2D6
330
2CD
100
AcDbEntity
  8
FORMAT
 62
     0
100
AcDbLine
 10
0.0
 20
-5.0
 30
0.0
 11
0.0
 21
-9.7075312529
 31
0.0
  0
LINE
  5
2D7
330
2CD
100
AcDbEntity
  8
FORMAT
 62
     0
100
AcDbLine
 10
5.0
 20
0.0
 30
0.0
 11
14.3312576118
 21
0.0
 31
0.0
  0
ENDBLK
  5
2CF
330
2CD
100
AcDbEntity
  8
0
100
AcDbBlockEnd
  0
ENDSEC
  0
SECTION
  2
ENTITIES
  0
MTEXT
  5
65
330
1F
100
AcDbEntity
  8
FORMAT
100
AcDbMText
 10
236.8690336732
 20
166.189554019
 30
0.0
 40
4.7625
 41
0.0
 71
     1
 72
     1
  1
エースボール　アングル型　BY-3208
  7
SLDTEXTSTYLE0
 73
     1
 44
1.0
  0
LINE
  5
66
330
1F
100
AcDbEntity
  8
0
  6
Continuous
 62
     7
370
    25
100
AcDbLine
 10
211.9134211046
 20
124.3309129666
 30
0.0
 11
211.4134211046
 21
124.3309129666
 31
0.0
  0
LINE
  5
67
330
1F
100
AcDbEntity
  8
0
  6
Continuous
 62
     7
370
    25
100
AcDbLine
 10
211.4134211046
 20
115.3309129666
 30
0.0
 11
211.9134211046
 21
115.3309129666
 31
0.0
  0
LINE
  5
68
330
1F
100
AcDbEntity
  8
0
  6
Continuous
 62
     7
370
    25
100
AcDbLine
 10
207.4134211046
 20
123.8309129666
 30
0.0
 11
203.4134211046
 21
123.1809129666
 31
0.0
  0
LINE
  5
69
330
1F
100
AcDbEntity
  8
0
  6
Continuous
 62
     7
370
    25
100
AcDbLine
 10
203.4134211046
 20
116.4809129666
 30
0.0
 11
207.4134211046
 21
115.8309129666
 31
0.0
  0
LINE
  5
6A
330
1F
100
AcDbEntity
  8
0
  6
Continuous
 62
     7
370
    25
100
AcDbLine
 10
211.4134211046
 20
123.8309129666
 30
0.0
 11
207.4134211046
 21
123.8309129666
 31
0.0
  0
LINE
  5
6B
330
1F
100
AcDbEntity
  8
0
  6
Continuous
 62
     7
370
    25
100
AcDbLine
 10
207.4134211046
 20
115.8309129666
 30
0.0
 11
211.4134211046
 21
115.8309129666
 31
0.0
  0
LINE
  5
6C
330
1F
100
AcDbEntity
  8
0
  6
Continuous
 62
     7
370
    25
100
AcDbLine
 10
199.4134211046
 20
123.8309129666
 30
0.0
 11
195.4134211046
 21
123.1809129666
 31
0.0
  0
LINE
  5
6D
330
1F
100
AcDbEntity
  8
0
  6
Continuous
 62
     7
370
    25
100
AcDbLine
 10
195.4134211046
 20
116.4809129666
 30
0.0
 11
199.4134211046
 21
115.8309129666
 31
0.0
  0
LINE
  5
6E
330
1F
100
AcDbEntity
  8
0
  6
Continuous
 62
     7
370
    25
100
AcDbLine
 10
195.4134211046
 20
123.8309129666
 30
0.0
 11
191.4134211046
 21
123.1809129666
 31
0.0
  0
LINE
  5
6F
330
1F
100
AcDbEntity
  8
0
  6
Continuous
 62
     7
370
    25
100
AcDbLine
 10
191.4134211046
 20
116.4809129666
 30
0.0
 11
195.4134211046
 21
115.8309129666
 31
0.0
  0
LINE
  5
70
330
1F
100
AcDbEntity
  8
0
  6
Continuous
 62
     7
370
    25
100
AcDbLine
 10
191.4134211046
 20
123.8309129666
 30
0.0
 11
186.6195290687
 21
123.2643620897
 31
0.0
  0
LINE
  5
71
330
1F
100
AcDbEntity
  8
0
  6
Continuous
 62
     7
370
    25
100
AcDbLine
 10
186.6195290687
 20
116.3974638436
 30
0.0
 11
191.4134211046
 21
115.8309129666
 31
0.0
  0
LINE
  5
72
330
1F
100
AcDbEntity
  8
0
  6
Continuous
 62
     7
370
    25
100
AcDbLine
 10
203.4134211046
 20
123.8309129666
 30
0.0
 11
199.4134211046
 21
123.1809129666
 31
0.0
  0
LINE
  5
73
330
1F
100
AcDbEntity
  8
0
  6
Continuous
 62
     7
370
    25
100
AcDbLine
 10
199.4134211046
 20
116.4809129666
 30
0.0
 11
203.4134211046
 21
115.8309129666
 31
0.0
  0
ARC
  5
74
330
1F
100
AcDbEntity
  8
0
  6
Continuous
 62
     7
370
    25
100
AcDbCircle
 10
186.7134211046
 20
122.4698910168
 30
0.0
 40
0.7999999999999993
100
AcDbArc
 50
96.7400560979
 51
180.0
  0
ARC
  5
75
330
1F
100
AcDbEntity
  8
0
  6
Continuous
 62
     7
370
    25
100
AcDbCircle
 10
186.7134211046
 20
117.1919349164
 30
0.0
 40
0.7999999999999853
100
AcDbArc
 50
180.0
 51
263.2599439021
  0
LINE
  5
76
330
1F
100
AcDbEntity
  8
0
  6
Continuous
 62
     7
370
    25
100
AcDbLine
 10
214.7145548248
 20
129.0685172737
 30
0.0
 11
213.9134211046
 21
127.6809129666
 31
0.0
  0
LINE
  5
77
330
1F
100
AcDbEntity
  8
0
  6
Continuous
 62
     7
370
    25
100
AcDbLine
 10
213.9134211046
 20
111.9809129666
 30
0.0
 11
214.7145548248
 21
110.5933086596
 31
0.0
  0
LINE
  5
78
330
1F
100
AcDbEntity
  8
0
  6
Continuous
 62
     7
370
    25
100
AcDbLine
 10
222.1122873844
 20
110.5933086596
 30
0.0
 11
222.9134211046
 21
111.9809129666
 31
0.0
  0
LINE
  5
79
330
1F
100
AcDbEntity
  8
0
  6
Continuous
 62
     7
370
    25
100
AcDbLine
 10
222.9134211046
 20
127.6809129666
 30
0.0
 11
222.1122873844
 21
129.0685172737
 31
0.0
  0
ARC
  5
7A
330
1F
100
AcDbEntity
  8
0
  6
Continuous
 62
     7
370
    25
100
AcDbCircle
 10
212.2134211046
 20
112.2809129666
 30
0.0
 40
0.3000000000000114
100
AcDbArc
 50
180.0
 51
270.0
  0
ARC
  5
7B
330
1F
100
AcDbEntity
  8
0
  6
Continuous
 62
     7
370
    25
100
AcDbCircle
 10
212.2134211046
 20
127.3809129666
 30
0.0
 40
0.3000000000000114
100
AcDbArc
 50
90.0
 51
180.0
  0
ARC
  5
7C
330
1F
100
AcDbEntity
  8
0
  6
Continuous
 62
     7
370
    25
100
AcDbCircle
 10
224.6134211046
 20
127.3809129666
 30
0.0
 40
0.3000000000000114
100
AcDbArc
 50
0.0
 51
90.0
  0
ARC
  5
7D
330
1F
100
AcDbEntity
  8
0
  6
Continuous
 62
     7
370
    25
100
AcDbCircle
 10
224.6134211046
 20
112.2809129666
 30
0.0
 40
0.3000000000000114
100
AcDbArc
 50
270.0
 51
0.0
  0
LINE
  5
7E
330
1F
100
AcDbEntity
  8
0
  6
Continuous
 62
     7
370
    25
100
AcDbLine
 10
222.9134211046
 20
111.9809129666
 30
0.0
 11
224.6134211046
 21
111.9809129666
 31
0.0
  0
LINE
  5
7F
330
1F
100
AcDbEntity
  8
0
  6
Continuous
 62
     7
370
    25
100
AcDbLine
 10
224.6134211046
 20
127.6809129666
 30
0.0
 11
222.9134211046
 21
127.6809129666
 31
0.0
  0
LINE
  5
80
330
1F
100
AcDbEntity
  8
0
  6
Continuous
 62
     7
370
    25
100
AcDbLine
 10
213.9134211046
 20
127.6809129666
 30
0.0
 11
212.2134211046
 21
127.6809129666
 31
0.0
  0
LINE
  5
81
330
1F
100
AcDbEntity
  8
0
  6
Continuous
 62
     7
370
    25
100
AcDbLine
 10
212.2134211046
 20
111.9809129666
 30
0.0
 11
213.9134211046
 21
111.9809129666
 31
0.0
  0
LINE
  5
82
330
1F
100
AcDbEntity
  8
0
  6
Continuous
 62
     7
370
    25
100
AcDbLine
 10
228.291549027
 20
128.3309129666
 30
0.0
 11
228.091549027
 21
128.1309129666
 31
0.0
  0
LINE
  5
83
330
1F
100
AcDbEntity
  8
0
  6
Continuous
 62
     7
370
    25
100
AcDbLine
 10
228.091549027
 20
111.5309129666
 30
0.0
 11
228.291549027
 21
111.3309129666
 31
0.0
  0
LINE
  5
84
330
1F
100
AcDbEntity
  8
0
  6
Continuous
 62
     7
370
    25
100
AcDbLine
 10
228.291549027
 20
111.3309129666
 30
0.0
 11
231.091549027
 21
111.3309129666
 31
0.0
  0
LINE
  5
85
330
1F
100
AcDbEntity
  8
0
  6
Continuous
 62
     7
370
    25
100
AcDbLine
 10
231.091549027
 20
128.3309129666
 30
0.0
 11
228.291549027
 21
128.3309129666
 31
0.0
  0
LINE
  5
86
330
1F
100
AcDbEntity
  8
0
  6
Continuous
 62
     7
370
    25
100
AcDbLine
 10
228.091549027
 20
126.4094129666
 30
0.0
 11
224.9134211046
 21
126.4094129666
 31
0.0
  0
LINE
  5
87
330
1F
100
AcDbEntity
  8
0
  6
Continuous
 62
     7
370
    25
100
AcDbLine
 10
224.9134211046
 20
113.2524129666
 30
0.0
 11
228.091549027
 21
113.2524129666
 31
0.0
  0
LINE
  5
88
330
1F
100
AcDbEntity
  8
0
  6
Continuous
 62
     7
370
    25
100
AcDbLine
 10
253.7326802799
 20
110.0933086596
 30
0.0
 11
254.591549027
 21
111.5809129666
 31
0.0
  0
LINE
  5
89
330
1F
100
AcDbEntity
  8
0
  6
Continuous
 62
     7
370
    25
100
AcDbLine
 10
254.591549027
 20
128.0809129666
 30
0.0
 11
253.7326802799
 21
129.5685172737
 31
0.0
  0
LINE
  5
8A
330
1F
100
AcDbEntity
  8
0
  6
Continuous
 62
     7
370
    25
100
AcDbLine
 10
235.833361527
 20
107.8309129666
 30
0.0
 11
236.1269969685
 21
98.4345788405
 31
0.0
  0
LINE
  5
8B
330
1F
100
AcDbEntity
  8
0
  6
Continuous
 62
     7
370
    25
100
AcDbLine
 10
249.0561010856
 20
98.4345788405
 30
0.0
 11
249.349736527
 21
107.8309129666
 31
0.0
  0
SPLINE
  5
8C
330
1F
100
AcDbEntity
  8
0
  6
Continuous
 62
     7
370
    25
100
AcDbSpline
210
0.0
220
0.0
230
1.0
 70
     8
 71
     3
 72
    12
 73
     8
 74
     0
 42
0.00000001
 43
0.00000001
 40
0.0
 40
0.0
 40
0.0
 40
0.0
 40
0.1312078946560307
 40
0.4052276549976403
 40
0.6862619958797037
 40
0.9964339890702302
 40
1.0
 40
1.0
 40
1.0
 40
1.0
 10
236.7002784133174
 20
129.3304768383175
 30
0.0
 10
236.701766751303
 20
129.2960973219509
 30
0.0
 10
236.7063633932453
 20
129.1899182628803
 30
0.0
 10
236.6664445496349
 20
129.0113296362185
 30
0.0
 10
236.5737264608894
 20
128.8055687313579
 30
0.0
 10
236.4868592938498
 20
128.6705414740846
 30
0.0
 10
236.4236071293245
 20
128.6180952488645
 30
0.0
 10
236.4228881921634
 20
128.6174991342405
 30
0.0
  0
SPLINE
  5
8D
330
1F
100
AcDbEntity
  8
0
  6
Continuous
 62
     7
370
    25
100
AcDbSpline
210
0.0
220
0.0
230
1.0
 70
     8
 71
     3
 72
    12
 73
     8
 74
     0
 42
0.00000001
 43
0.00000001
 40
0.0
 40
0.0
 40
0.0
 40
0.0
 40
0.1211356148373396
 40
0.4341028917400774
 40
0.7158229659011768
 40
0.9728151641720676
 40
1.0
 40
1.0
 40
1.0
 40
1.0
 10
248.7780851295042
 20
128.6373215696228
 30
0.0
 10
248.7555239035156
 20
128.6585053620682
 30
0.0
 10
248.6746732514923
 20
128.7344198284362
 30
0.0
 10
248.5814549071668
 20
128.8961126922895
 30
0.0
 10
248.5121199239254
 20
129.1014037681182
 30
0.0
 10
248.48674347265
 20
129.2461849824812
 30
0.0
 10
248.4920236087355
 20
129.3184913717961
 30
0.0
 10
248.4925287151144
 20
129.3254083182308
 30
0.0
  0
LINE
  5
8E
330
1F
100
AcDbEntity
  8
0
  6
Continuous
 62
     7
370
    25
100
AcDbLine
 10
236.1269969685
 20
98.4345788405
 30
0.0
 11
237.341549027
 21
96.3309129666
 31
0.0
  0
LINE
  5
8F
330
1F
100
AcDbEntity
  8
0
  6
Continuous
 62
     7
370
    25
100
AcDbLine
 10
247.841549027
 20
96.3309129666
 30
0.0
 11
249.0561010856
 21
98.4345788405
 31
0.0
  0
LINE
  5
90
330
1F
100
AcDbEntity
  8
0
  6
Continuous
 62
     7
370
    25
100
AcDbLine
 10
248.491549027
 20
129.3263821465
 30
0.0
 11
248.491549027
 21
130.3309129666
 31
0.0
  0
LINE
  5
91
330
1F
100
AcDbEntity
  8
0
  6
Continuous
 62
     7
370
    25
100
AcDbLine
 10
236.691549027
 20
130.3309129666
 30
0.0
 11
236.691549027
 21
129.3309129666
 31
0.0
  0
LINE
  5
92
330
1F
100
AcDbEntity
  8
0
  6
Continuous
 62
     7
370
    25
100
AcDbLine
 10
236.4213821197
 20
128.6256506959
 30
0.0
 11
235.8770178472
 21
129.5685172737
 31
0.0
  0
LINE
  5
93
330
1F
100
AcDbEntity
  8
0
  6
Continuous
 62
     7
370
    25
100
AcDbLine
 10
249.3060802069
 20
129.5685172737
 30
0.0
 11
248.7617159344
 21
128.6256506959
 31
0.0
  0
LINE
  5
94
330
1F
100
AcDbEntity
  8
0
  6
Continuous
 62
     7
370
    25
100
AcDbLine
 10
231.8060802069
 20
129.5685172737
 30
0.0
 11
231.091549027
 21
128.3309129666
 31
0.0
  0
LINE
  5
95
330
1F
100
AcDbEntity
  8
0
  6
Continuous
 62
     7
370
    25
100
AcDbLine
 10
251.091549027
 20
107.8309129666
 30
0.0
 11
252.3291533341
 21
108.5454441464
 31
0.0
  0
LINE
  5
96
330
1F
100
AcDbEntity
  8
0
  6
Continuous
 62
     7
370
    25
100
AcDbLine
 10
231.091549027
 20
111.3309129666
 30
0.0
 11
231.8060802069
 21
110.0933086596
 31
0.0
  0
LINE
  5
97
330
1F
100
AcDbEntity
  8
0
  6
Continuous
 62
     7
370
    25
100
AcDbLine
 10
232.85394472
 20
108.5454441464
 30
0.0
 11
234.091549027
 21
107.8309129666
 31
0.0
  0
LINE
  5
98
330
1F
100
AcDbEntity
  8
0
  6
Continuous
 62
     7
370
    25
100
AcDbLine
 10
252.3291533341
 20
108.5428837651
 30
0.0
 11
252.3291533341
 21
110.0933086596
 31
0.0
  0
LINE
  5
99
330
1F
100
AcDbEntity
  8
0
  6
Continuous
 62
     7
370
    25
100
AcDbLine
 10
252.3291533341
 20
110.0933086596
 30
0.0
 11
253.7352483354
 21
110.0933086596
 31
0.0
  0
LINE
  5
9A
330
1F
100
AcDbEntity
  8
0
  6
Continuous
 62
     7
370
    25
100
AcDbLine
 10
235.8795859027
 20
129.5685172737
 30
0.0
 11
231.8035198255
 21
129.5685172737
 31
0.0
  0
LINE
  5
9B
330
1F
100
AcDbEntity
  8
0
  6
Continuous
 62
     7
370
    25
100
AcDbLine
 10
253.7352483354
 20
129.5685172737
 30
0.0
 11
249.3035121514
 21
129.5685172737
 31
0.0
  0
LINE
  5
9C
330
1F
100
AcDbEntity
  8
0
  6
Continuous
 62
     7
370
    25
100
AcDbLine
 10
232.85394472
 20
110.0933086596
 30
0.0
 11
232.85394472
 21
108.5428837651
 31
0.0
  0
LINE
  5
9D
330
1F
100
AcDbEntity
  8
0
  6
Continuous
 62
     7
370
    25
100
AcDbLine
 10
231.8035198255
 20
110.0933086596
 30
0.0
 11
232.85394472
 21
110.0933086596
 31
0.0
  0
LINE
  5
9E
330
1F
100
AcDbEntity
  8
0
  6
Continuous
 62
     7
370
    25
100
AcDbLine
 10
249.591549027
 20
130.3309129666
 30
0.0
 11
250.041549027
 21
138.3309129666
 31
0.0
  0
LINE
  5
9F
330
1F
100
AcDbEntity
  8
0
  6
Continuous
 62
     7
370
    25
100
AcDbLine
 10
250.041549027
 20
138.3309129666
 30
0.0
 11
248.091549027
 21
146.3309129666
 31
0.0
  0
LINE
  5
A0
330
1F
100
AcDbEntity
  8
0
  6
Continuous
 62
     7
370
    25
100
AcDbLine
 10
235.5208924013
 20
131.5870307579
 30
0.0
 11
235.591549027
 21
130.3309129666
 31
0.0
  0
LINE
  5
A1
330
1F
100
AcDbEntity
  8
0
  6
Continuous
 62
     7
370
    25
100
AcDbLine
 10
237.0915490271
 20
146.3309129666
 30
0.0
 11
236.8383174925
 21
145.2920143634
 31
0.0
  0
LINE
  5
A2
330
1F
100
AcDbEntity
  8
0
  6
Continuous
 62
     7
370
    25
100
AcDbLine
 10
211.4134211046
 20
115.4209681712
 30
0.0
 11
211.4134211046
 21
124.3309129666
 31
0.0
  0
LINE
  5
A3
330
1F
100
AcDbEntity
  8
0
  6
Continuous
 62
     7
370
    25
100
AcDbLine
 10
211.4134211046
 20
115.3309129666
 30
0.0
 11
211.4134211046
 21
115.4209681712
 31
0.0
  0
LINE
  5
A4
330
1F
100
AcDbEntity
  8
0
  6
Continuous
 62
     7
370
    25
100
AcDbLine
 10
207.4134211046
 20
123.8309129666
 30
0.0
 11
207.4134211046
 21
115.8309129666
 31
0.0
  0
LINE
  5
A5
330
1F
100
AcDbEntity
  8
0
  6
Continuous
 62
     7
370
    25
100
AcDbLine
 10
199.4134211046
 20
123.8309129666
 30
0.0
 11
199.4134211046
 21
115.8309129666
 31
0.0
  0
LINE
  5
A6
330
1F
100
AcDbEntity
  8
0
  6
Continuous
 62
     7
370
    25
100
AcDbLine
 10
195.4134211046
 20
123.8309129666
 30
0.0
 11
195.4134211046
 21
115.8309129666
 31
0.0
  0
LINE
  5
A7
330
1F
100
AcDbEntity
  8
0
  6
Continuous
 62
     7
370
    25
100
AcDbLine
 10
191.4134211046
 20
123.8309129666
 30
0.0
 11
191.4134211046
 21
115.8309129666
 31
0.0
  0
LINE
  5
A8
330
1F
100
AcDbEntity
  8
0
  6
Continuous
 62
     7
370
    25
100
AcDbLine
 10
203.4134211046
 20
123.8309129666
 30
0.0
 11
203.4134211046
 21
115.8309129666
 31
0.0
  0
LINE
  5
A9
330
1F
100
AcDbEntity
  8
0
  6
Continuous
 62
     7
370
    25
100
AcDbLine
 10
185.9134211046
 20
117.1919349164
 30
0.0
 11
185.9134211046
 21
122.4698910168
 31
0.0
  0
SPLINE
  5
AA
330
1F
100
AcDbEntity
  8
0
  6
Continuous
 62
     7
370
    25
100
AcDbSpline
210
0.0
220
0.0
230
1.0
 70
     8
 71
     3
 72
    14
 73
    10
 74
     0
 42
0.00000001
 43
0.00000001
 40
0.0
 40
0.0
 40
0.0
 40
0.0
 40
0.1153476033925122
 40
0.2409201295856145
 40
0.366460354008946
 40
0.4950938232858773
 40
0.6237262264450376
 40
0.8108518742853577
 40
1.0
 40
1.0
 40
1.0
 40
1.0
 10
214.7145548248095
 20
115.212110813111
 30
0.0
 10
214.6190460714225
 20
115.5598162234823
 30
0.0
 10
214.4195622454411
 20
116.2860491928765
 30
0.0
 10
214.1936123813883
 20
117.4099793925813
 30
0.0
 10
214.0385801940926
 20
118.5877124183709
 30
0.0
 10
213.983134585776
 20
119.7845201039122
 30
0.0
 10
214.0393234666179
 20
121.1736220651207
 30
0.0
 10
214.260149473896
 20
122.7408388558783
 30
0.0
 10
214.5625445815716
 20
123.8780521851193
 30
0.0
 10
214.7145548248095
 20
124.4497151201451
 30
0.0
  0
SPLINE
  5
AB
330
1F
100
AcDbEntity
  8
0
  6
Continuous
 62
     7
370
    25
100
AcDbSpline
210
0.0
220
0.0
230
1.0
 70
     8
 71
     3
 72
    15
 73
    11
 74
     0
 42
0.00000001
 43
0.00000001
 40
0.0
 40
0.0
 40
0.0
 40
0.0
 40
0.13230496641634
 40
0.264572525757654
 40
0.3997989469058927
 40
0.5350009659368333
 40
0.6501921044151404
 40
0.765401211680801
 40
0.8826892657702317
 40
1.0
 40
1.0
 40
1.0
 40
1.0
 10
214.7145548248095
 20
110.593308659594
 30
0.0
 10
214.6057832972662
 20
110.7928588776631
 30
0.0
 10
214.3882709955582
 20
111.1919028942264
 30
0.0
 10
214.1542358027626
 20
111.8063953097209
 30
0.0
 10
214.0135165468135
 20
112.4324709817278
 30
0.0
 10
213.98564726309
 20
113.0358687349189
 30
0.0
 10
214.0579490614445
 20
113.6066689369349
 30
0.0
 10
214.2060990414236
 20
114.1453648182488
 30
0.0
 10
214.4234192001282
 20
114.6816251115224
 30
0.0
 10
214.6175033621368
 20
115.0352708495289
 30
0.0
 10
214.7145548248095
 20
115.212110813111
 30
0.0
  0
SPLINE
  5
AC
330
1F
100
AcDbEntity
  8
0
  6
Continuous
 62
     7
370
    25
100
AcDbSpline
210
0.0
220
0.0
230
1.0
 70
     8
 71
     3
 72
    15
 73
    11
 74
     0
 42
0.00000001
 43
0.00000001
 40
0.0
 40
0.0
 40
0.0
 40
0.0
 40
0.1323049664163415
 40
0.2645725257576572
 40
0.3997989469058976
 40
0.5350009659368399
 40
0.6501921044151455
 40
0.7654012116808045
 40
0.8826892657702333
 40
1.0
 40
1.0
 40
1.0
 40
1.0
 10
214.7145548248095
 20
124.4497151201451
 30
0.0
 10
214.6057832972662
 20
124.6492653382142
 30
0.0
 10
214.3882709955582
 20
125.0483093547775
 30
0.0
 10
214.1542358027626
 20
125.662801770272
 30
0.0
 10
214.0135165468136
 20
126.2888774422789
 30
0.0
 10
213.98564726309
 20
126.8922751954699
 30
0.0
 10
214.0579490614445
 20
127.463075397486
 30
0.0
 10
214.2060990414236
 20
128.0017712787998
 30
0.0
 10
214.4234192001282
 20
128.5380315720734
 30
0.0
 10
214.6175033621368
 20
128.8916773100799
 30
0.0
 10
214.7145548248095
 20
129.068517273662
 30
0.0
  0
LINE
  5
AD
330
1F
100
AcDbEntity
  8
0
  6
Continuous
 62
     7
370
    25
100
AcDbLine
 10
213.9134211046
 20
119.8309129666
 30
0.0
 11
213.9134211046
 21
127.6809129666
 31
0.0
  0
LINE
  5
AE
330
1F
100
AcDbEntity
  8
0
  6
Continuous
 62
     7
370
    25
100
AcDbLine
 10
213.9134211046
 20
111.9809129666
 30
0.0
 11
213.9134211046
 21
119.8309129666
 31
0.0
  0
LINE
  5
AF
330
1F
100
AcDbEntity
  8
0
  6
Continuous
 62
     7
370
    25
100
AcDbLine
 10
214.7145548248
 20
124.4497151201
 30
0.0
 11
222.1122873844
 21
124.4497151201
 31
0.0
  0
SPLINE
  5
B0
330
1F
100
AcDbEntity
  8
0
  6
Continuous
 62
     7
370
    25
100
AcDbSpline
210
0.0
220
0.0
230
1.0
 70
     8
 71
     3
 72
    14
 73
    10
 74
     0
 42
0.00000001
 43
0.00000001
 40
0.0
 40
0.0
 40
0.0
 40
0.0
 40
0.1900777721210525
 40
0.3819473130959423
 40
0.5077369692713313
 40
0.6335281622950942
 40
0.76267145499516
 40
0.8918509147148282
 40
1.0
 40
1.0
 40
1.0
 40
1.0
 10
222.1122873844199
 20
124.4497151201451
 30
0.0
 10
222.2649767691219
 20
123.8752292818997
 30
0.0
 10
222.5717948656011
 20
122.7208422124336
 30
0.0
 10
222.7907885990843
 20
121.1441414662654
 30
0.0
 10
222.842875952971
 20
119.7579099917083
 30
0.0
 10
222.7865662893529
 20
118.5677499188362
 30
0.0
 10
222.6283466568312
 20
117.3765854271664
 30
0.0
 10
222.3990936618693
 20
116.253271837719
 30
0.0
 10
222.202069859002
 20
115.5380381744612
 30
0.0
 10
222.1122873844199
 20
115.212110813111
 30
0.0
  0
LINE
  5
B1
330
1F
100
AcDbEntity
  8
0
  6
Continuous
 62
     7
370
    25
100
AcDbLine
 10
214.7145548248
 20
115.2121108131
 30
0.0
 11
222.1122873844
 21
115.2121108131
 31
0.0
  0
SPLINE
  5
B2
330
1F
100
AcDbEntity
  8
0
  6
Continuous
 62
     7
370
    25
100
AcDbSpline
210
0.0
220
0.0
230
1.0
 70
     8
 71
     3
 72
    15
 73
    11
 74
     0
 42
0.00000001
 43
0.00000001
 40
0.0
 40
0.0
 40
0.0
 40
0.0
 40
0.1323049664163399
 40
0.2645725257576538
 40
0.3997989469058926
 40
0.5350009659368331
 40
0.6501921044151403
 40
0.765401211680801
 40
0.8826892657702315
 40
1.0
 40
1.0
 40
1.0
 40
1.0
 10
222.1122873844199
 20
115.212110813111
 30
0.0
 10
222.2210589119631
 20
115.0125605950419
 30
0.0
 10
222.4385712136711
 20
114.6135165784787
 30
0.0
 10
222.6726064064667
 20
113.9990241629841
 30
0.0
 10
222.8133256624158
 20
113.3729484909772
 30
0.0
 10
222.8411949461393
 20
112.7695507377862
 30
0.0
 10
222.7688931477848
 20
112.1987505357701
 30
0.0
 10
222.6207431678057
 20
111.6600546544562
 30
0.0
 10
222.4034230091011
 20
111.1237943611826
 30
0.0
 10
222.2093388470925
 20
110.7701486231761
 30
0.0
 10
222.1122873844199
 20
110.593308659594
 30
0.0
  0
SPLINE
  5
B3
330
1F
100
AcDbEntity
  8
0
  6
Continuous
 62
     7
370
    25
100
AcDbSpline
210
0.0
220
0.0
230
1.0
 70
     8
 71
     3
 72
    15
 73
    11
 74
     0
 42
0.00000001
 43
0.00000001
 40
0.0
 40
0.0
 40
0.0
 40
0.0
 40
0.1323049664163416
 40
0.2645725257576573
 40
0.3997989469058978
 40
0.53500096593684
 40
0.6501921044151456
 40
0.7654012116808045
 40
0.8826892657702333
 40
1.0
 40
1.0
 40
1.0
 40
1.0
 10
222.1122873844199
 20
129.068517273662
 30
0.0
 10
222.2210589119631
 20
128.8689670555929
 30
0.0
 10
222.4385712136711
 20
128.4699230390296
 30
0.0
 10
222.6726064064667
 20
127.8554306235351
 30
0.0
 10
222.8133256624157
 20
127.2293549515282
 30
0.0
 10
222.8411949461393
 20
126.6259571983372
 30
0.0
 10
222.7688931477848
 20
126.0551569963211
 30
0.0
 10
222.6207431678057
 20
125.5164611150073
 30
0.0
 10
222.4034230091011
 20
124.9802008217337
 30
0.0
 10
222.2093388470925
 20
124.6265550837272
 30
0.0
 10
222.1122873844199
 20
124.4497151201451
 30
0.0
  0
LINE
  5
B4
330
1F
100
AcDbEntity
  8
0
  6
Continuous
 62
     7
370
    25
100
AcDbLine
 10
222.9134211046
 20
127.6809129666
 30
0.0
 11
222.9134211046
 21
111.9809129666
 31
0.0
  0
LINE
  5
B5
330
1F
100
AcDbEntity
  8
0
  6
Continuous
 62
     7
370
    25
100
AcDbLine
 10
214.7145548248
 20
110.5933086596
 30
0.0
 11
222.1122873844
 21
110.5933086596
 31
0.0
  0
LINE
  5
B6
330
1F
100
AcDbEntity
  8
0
  6
Continuous
 62
     7
370
    25
100
AcDbLine
 10
214.7145548248
 20
129.0685172737
 30
0.0
 11
222.1122873844
 21
129.0685172737
 31
0.0
  0
LINE
  5
B7
330
1F
100
AcDbEntity
  8
0
  6
Continuous
 62
     7
370
    25
100
AcDbLine
 10
211.9134211046
 20
119.8309129666
 30
0.0
 11
211.9134211046
 21
127.3809129666
 31
0.0
  0
LINE
  5
B8
330
1F
100
AcDbEntity
  8
0
  6
Continuous
 62
     7
370
    25
100
AcDbLine
 10
211.9134211046
 20
112.2809129666
 30
0.0
 11
211.9134211046
 21
119.8309129666
 31
0.0
  0
LINE
  5
B9
330
1F
100
AcDbEntity
  8
0
  6
Continuous
 62
     7
370
    25
100
AcDbLine
 10
224.9134211046
 20
127.3809129666
 30
0.0
 11
224.9134211046
 21
112.2809129666
 31
0.0
  0
LINE
  5
BA
330
1F
100
AcDbEntity
  8
0
  6
Continuous
 62
     7
370
    25
100
AcDbLine
 10
228.291549027
 20
128.3309129666
 30
0.0
 11
228.291549027
 21
111.3309129666
 31
0.0
  0
LINE
  5
BB
330
1F
100
AcDbEntity
  8
0
  6
Continuous
 62
     7
370
    25
100
AcDbLine
 10
228.091549027
 20
111.5309129666
 30
0.0
 11
228.091549027
 21
128.1309129666
 31
0.0
  0
LINE
  5
BC
330
1F
100
AcDbEntity
  8
0
  6
Continuous
 62
     7
370
    25
100
AcDbLine
 10
231.091549027
 20
128.3309129666
 30
0.0
 11
231.091549027
 21
111.3309129666
 31
0.0
  0
SPLINE
  5
BD
330
1F
100
AcDbEntity
  8
0
  6
Continuous
 62
     7
370
    25
100
AcDbSpline
210
0.0
220
0.0
230
1.0
 70
     8
 71
     3
 72
    10
 73
     6
 74
     0
 42
0.00000001
 43
0.00000001
 40
0.0
 40
0.0
 40
0.0
 40
0.0
 40
0.5000000000000001
 40
0.5000000000000001
 40
1.0
 40
1.0
 40
1.0
 40
1.0
 10
237.9727468735306
 20
108.5086343718881
 30
0.0
 10
238.7234255730264
 20
108.3017043183554
 30
0.0
 10
239.4877065172491
 20
108.1298987079817
 30
0.0
 10
241.0422812513366
 20
107.8929482014504
 30
0.0
 10
241.8178562188527
 20
107.830912966628
 30
0.0
 10
242.5915490270476
 20
107.830912966628
 30
0.0
  0
LINE
  5
BE
330
1F
100
AcDbEntity
  8
0
  6
Continuous
 62
     7
370
    25
100
AcDbLine
 10
237.9727468735
 20
111.8645164268
 30
0.0
 11
237.9727468735
 21
108.5086343719
 31
0.0
  0
SPLINE
  5
BF
330
1F
100
AcDbEntity
  8
0
  6
Continuous
 62
     7
370
    25
100
AcDbSpline
210
0.0
220
0.0
230
1.0
 70
     8
 71
     3
 72
     8
 73
     4
 74
     0
 42
0.00000001
 43
0.00000001
 40
0.0
 40
0.0
 40
0.0
 40
0.0
 40
1.0
 40
1.0
 40
1.0
 40
1.0
 10
237.9727468735305
 20
111.864516426773
 30
0.0
 10
238.1779326960738
 20
111.9210773938972
 30
0.0
 10
238.3841558967812
 20
111.975017465311
 30
0.0
 10
238.5915490270476
 20
112.026001755054
 30
0.0
  0
LINE
  5
C0
330
1F
100
AcDbEntity
  8
0
  6
Continuous
 62
     7
370
    25
100
AcDbLine
 10
238.591549027
 20
112.0260017551
 30
0.0
 11
238.591549027
 21
115.8309129666
 31
0.0
  0
LINE
  5
C1
330
1F
100
AcDbEntity
  8
0
  6
Continuous
 62
     7
370
    25
100
AcDbLine
 10
238.591549027
 20
115.8309129666
 30
0.0
 11
236.0753129501
 21
115.8309129666
 31
0.0
  0
SPLINE
  5
C2
330
1F
100
AcDbEntity
  8
0
  6
Continuous
 62
     7
370
    25
100
AcDbSpline
210
0.0
220
0.0
230
1.0
 70
     8
 71
     3
 72
     8
 73
     4
 74
     0
 42
0.00000001
 43
0.00000001
 40
0.0
 40
0.0
 40
0.0
 40
0.0
 40
1.0
 40
1.0
 40
1.0
 40
1.0
 10
235.9138276217874
 20
115.2121108131109
 30
0.0
 10
235.9703909912556
 20
115.4173053506207
 30
0.0
 10
236.0243309140769
 20
115.6235290041379
 30
0.0
 10
236.0753129500684
 20
115.830912966628
 30
0.0
  0
LINE
  5
C3
330
1F
100
AcDbEntity
  8
0
  6
Continuous
 62
     7
370
    25
100
AcDbLine
 10
231.7692704323
 20
115.2121108131
 30
0.0
 11
235.9138276218
 21
115.2121108131
 31
0.0
  0
SPLINE
  5
C4
330
1F
100
AcDbEntity
  8
0
  6
Continuous
 62
     7
370
    25
100
AcDbSpline
210
0.0
220
0.0
230
1.0
 70
     8
 71
     3
 72
    10
 73
     6
 74
     0
 42
0.00000001
 43
0.00000001
 40
0.0
 40
0.0
 40
0.0
 40
0.0
 40
0.5
 40
0.5
 40
1.0
 40
1.0
 40
1.0
 40
1.0
 10
231.7692704323078
 20
115.212110813111
 30
0.0
 10
231.5612017560766
 20
115.9669200861603
 30
0.0
 10
231.390802750052
 20
116.7276664733922
 30
0.0
 10
231.1556427703532
 20
118.2658088510154
 30
0.0
 10
231.0915490270476
 20
119.0433100035402
 30
0.0
 10
231.0915490270476
 20
119.830912966628
 30
0.0
  0
SPLINE
  5
C5
330
1F
100
AcDbEntity
  8
0
  6
Continuous
 62
     7
370
    25
100
AcDbSpline
210
0.0
220
0.0
230
1.0
 70
     8
 71
     3
 72
    12
 73
     8
 74
     0
 42
0.00000001
 43
0.00000001
 40
0.0
 40
0.0
 40
0.0
 40
0.0
 40
0.2500000000000001
 40
0.2500000000000001
 40
0.5000000000000001
 40
0.5000000000000001
 40
1.0
 40
1.0
 40
1.0
 40
1.0
 10
231.0915490270476
 20
119.830912966628
 30
0.0
 10
231.0915490270476
 20
120.2252310472998
 30
0.0
 10
231.1075478320287
 20
120.6188900912503
 30
0.0
 10
231.169317970343
 20
121.3984260907956
 30
0.0
 10
231.2150600946446
 20
121.785379278921
 30
0.0
 10
231.3917302419915
 20
122.938765841775
 30
0.0
 10
231.5619853074718
 20
123.6977483309801
 30
0.0
 10
231.7692704323078
 20
124.449715120145
 30
0.0
  0
LINE
  5
C6
330
1F
100
AcDbEntity
  8
0
  6
Continuous
 62
     7
370
    25
100
AcDbLine
 10
235.9138276218
 20
124.4497151201
 30
0.0
 11
231.7692704323
 21
124.4497151201
 31
0.0
  0
SPLINE
  5
C7
330
1F
100
AcDbEntity
  8
0
  6
Continuous
 62
     7
370
    25
100
AcDbSpline
210
0.0
220
0.0
230
1.0
 70
     8
 71
     3
 72
     8
 73
     4
 74
     0
 42
0.00000001
 43
0.00000001
 40
0.0
 40
0.0
 40
0.0
 40
0.0
 40
1.0
 40
1.0
 40
1.0
 40
1.0
 10
236.0753129500684
 20
123.830912966628
 30
0.0
 10
236.0244142331459
 20
124.037958005057
 30
0.0
 10
235.9704800968951
 20
124.2441973347336
 30
0.0
 10
235.9138276217874
 20
124.449715120145
 30
0.0
  0
LINE
  5
C8
330
1F
100
AcDbEntity
  8
0
  6
Continuous
 62
     7
370
    25
100
AcDbLine
 10
249.107785104
 20
123.8309129666
 30
0.0
 11
236.0753129501
 21
123.8309129666
 31
0.0
  0
SPLINE
  5
C9
330
1F
100
AcDbEntity
  8
0
  6
Continuous
 62
     7
370
    25
100
AcDbSpline
210
0.0
220
0.0
230
1.0
 70
     8
 71
     3
 72
     8
 73
     4
 74
     0
 42
0.00000001
 43
0.00000001
 40
0.0
 40
0.0
 40
0.0
 40
0.0
 40
1.0
 40
1.0
 40
1.0
 40
1.0
 10
249.1077851040268
 20
123.8309129666281
 30
0.0
 10
249.1586813372818
 20
124.0379479020318
 30
0.0
 10
249.2126152922455
 20
124.2441876670968
 30
0.0
 10
249.2692704323078
 20
124.449715120145
 30
0.0
  0
LINE
  5
CA
330
1F
100
AcDbEntity
  8
0
  6
Continuous
 62
     7
370
    25
100
AcDbLine
 10
253.7694900545
 20
124.4497151201
 30
0.0
 11
249.2692704323
 21
124.4497151201
 31
0.0
  0
SPLINE
  5
CB
330
1F
100
AcDbEntity
  8
0
  6
Continuous
 62
     7
370
    25
100
AcDbSpline
210
0.0
220
0.0
230
1.0
 70
     8
 71
     3
 72
    14
 73
    10
 74
     0
 42
0.00000001
 43
0.00000001
 40
0.0
 40
0.0
 40
0.0
 40
0.0
 40
0.25
 40
0.25
 40
0.5
 40
0.5
 40
0.75
 40
0.75
 40
1.0
 40
1.0
 40
1.0
 40
1.0
 10
253.76949005449
 20
115.2121108131109
 30
0.0
 10
253.9774404151958
 20
115.9664908737609
 30
0.0
 10
254.1496622238846
 20
116.7359320412264
 30
0.0
 10
254.3842973466355
 20
118.2764434021676
 30
0.0
 10
254.4472414052632
 20
119.0512977821746
 30
0.0
 10
254.4471814925318
 20
120.6116587370601
 30
0.0
 10
254.3825668262396
 20
121.4021149298452
 30
0.0
 10
254.1460074868384
 20
122.9443945926537
 30
0.0
 10
253.975662346759
 20
123.7017853458548
 30
0.0
 10
253.76949005449
 20
124.449715120145
 30
0.0
  0
LINE
  5
CC
330
1F
100
AcDbEntity
  8
0
  6
Continuous
 62
     7
370
    25
100
AcDbLine
 10
249.2692704323
 20
115.2121108131
 30
0.0
 11
253.7694900545
 21
115.2121108131
 31
0.0
  0
SPLINE
  5
CD
330
1F
100
AcDbEntity
  8
0
  6
Continuous
 62
     7
370
    25
100
AcDbSpline
210
0.0
220
0.0
230
1.0
 70
     8
 71
     3
 72
     8
 73
     4
 74
     0
 42
0.00000001
 43
0.00000001
 40
0.0
 40
0.0
 40
0.0
 40
0.0
 40
1.0
 40
1.0
 40
1.0
 40
1.0
 10
249.2692704323078
 20
115.2121108131109
 30
0.0
 10
249.2127085888708
 20
115.4172998146478
 30
0.0
 10
249.1587685716144
 20
115.6235231807125
 30
0.0
 10
249.1077851040268
 20
115.8309129666279
 30
0.0
  0
LINE
  5
CE
330
1F
100
AcDbEntity
  8
0
  6
Continuous
 62
     7
370
    25
100
AcDbLine
 10
249.107785104
 20
115.8309129666
 30
0.0
 11
246.591549027
 21
115.8309129666
 31
0.0
  0
LINE
  5
CF
330
1F
100
AcDbEntity
  8
0
  6
Continuous
 62
     7
370
    25
100
AcDbLine
 10
246.591549027
 20
112.0260017551
 30
0.0
 11
246.591549027
 21
115.8309129666
 31
0.0
  0
SPLINE
  5
D0
330
1F
100
AcDbEntity
  8
0
  6
Continuous
 62
     7
370
    25
100
AcDbSpline
210
0.0
220
0.0
230
1.0
 70
     8
 71
     3
 72
     8
 73
     4
 74
     0
 42
0.00000001
 43
0.00000001
 40
0.0
 40
0.0
 40
0.0
 40
0.0
 40
1.0
 40
1.0
 40
1.0
 40
1.0
 10
246.5915490270476
 20
112.026001755054
 30
0.0
 10
246.798578090383
 20
111.9751069653532
 30
0.0
 10
247.0048181076523
 20
111.9211731159917
 30
0.0
 10
247.2103511805646
 20
111.864516426773
 30
0.0
  0
LINE
  5
D1
330
1F
100
AcDbEntity
  8
0
  6
Continuous
 62
     7
370
    25
100
AcDbLine
 10
247.2103511806
 20
108.5086343719
 30
0.0
 11
247.2103511806
 21
111.8645164268
 31
0.0
  0
SPLINE
  5
D2
330
1F
100
AcDbEntity
  8
0
  6
Continuous
 62
     7
370
    25
100
AcDbSpline
210
0.0
220
0.0
230
1.0
 70
     8
 71
     3
 72
    10
 73
     6
 74
     0
 42
0.00000001
 43
0.00000001
 40
0.0
 40
0.0
 40
0.0
 40
0.0
 40
0.5
 40
0.5
 40
1.0
 40
1.0
 40
1.0
 40
1.0
 10
242.5915490270476
 20
107.830912966628
 30
0.0
 10
243.3671289636545
 20
107.830912966628
 30
0.0
 10
244.140819182381
 20
107.8931973286065
 30
0.0
 10
245.6848537247139
 20
108.1280454466135
 30
0.0
 10
246.4581624008686
 20
108.3012880537447
 30
0.0
 10
247.2103511805646
 20
108.5086343718882
 30
0.0
  0
ARC
  5
D3
330
1F
100
AcDbEntity
  8
0
  6
Continuous
 62
     7
370
    25
100
AcDbCircle
 10
244.1422803828
 20
119.2539939733
 30
0.0
 40
0.889000000000007
100
AcDbArc
 50
45.0
 51
315.0
  0
LINE
  5
D4
330
1F
100
AcDbEntity
  8
0
  6
Continuous
 62
     7
370
    25
100
AcDbLine
 10
244.7708983112
 20
119.8826119018
 30
0.0
 11
245.2375086969
 21
120.3492222874
 31
0.0
  0
ARC
  5
D5
330
1F
100
AcDbEntity
  8
0
  6
Continuous
 62
     7
370
    25
100
AcDbCircle
 10
244.1422803828
 20
119.2539939733
 30
0.0
 40
1.548886735692394
100
AcDbArc
 50
45.0
 51
315.0
  0
LINE
  5
D6
330
1F
100
AcDbEntity
  8
0
  6
Continuous
 62
     7
370
    25
100
AcDbLine
 10
245.2375086969
 20
118.1587656592
 30
0.0
 11
244.7708983112
 21
118.6253760448
 31
0.0
  0
ARC
  5
D7
330
1F
100
AcDbEntity
  8
0
  6
Continuous
 62
     7
370
    25
100
AcDbCircle
 10
247.4844249791
 20
119.2539939733
 30
0.0
 40
0.8889999999999768
100
AcDbArc
 50
45.0
 51
159.0751675724
  0
LINE
  5
D8
330
1F
100
AcDbEntity
  8
0
  6
Continuous
 62
     7
370
    25
100
AcDbLine
 10
248.1130429076
 20
119.8826119018
 30
0.0
 11
248.5796532932
 21
120.3492222874
 31
0.0
  0
ARC
  5
D9
330
1F
100
AcDbEntity
  8
0
  6
Continuous
 62
     7
370
    25
100
AcDbCircle
 10
247.4844249791
 20
119.2539939733
 30
0.0
 40
1.548886735692363
100
AcDbArc
 50
45.0
 51
315.0
  0
LINE
  5
DA
330
1F
100
AcDbEntity
  8
0
  6
Continuous
 62
     7
370
    25
100
AcDbLine
 10
248.5796532932
 20
118.1587656592
 30
0.0
 11
248.1130429076
 21
118.6253760448
 31
0.0
  0
ARC
  5
DB
330
1F
100
AcDbEntity
  8
0
  6
Continuous
 62
     7
370
    25
100
AcDbCircle
 10
247.4844249791
 20
119.2539939733
 30
0.0
 40
0.8890000000000191
100
AcDbArc
 50
200.9248324276
 51
315.0
  0
LINE
  5
DC
330
1F
100
AcDbEntity
  8
0
  6
Continuous
 62
     7
370
    25
100
AcDbLine
 10
246.6540547304
 20
118.9364939733
 30
0.0
 11
248.5796532932
 21
118.9364939733
 31
0.0
  0
LINE
  5
DD
330
1F
100
AcDbEntity
  8
0
  6
Continuous
 62
     7
370
    25
100
AcDbLine
 10
248.5796532932
 20
118.9364939733
 30
0.0
 11
248.5796532932
 21
119.5714939733
 31
0.0
  0
LINE
  5
DE
330
1F
100
AcDbEntity
  8
0
  6
Continuous
 62
     7
370
    25
100
AcDbLine
 10
248.5796532932
 20
119.5714939733
 30
0.0
 11
246.6540547304
 21
119.5714939733
 31
0.0
  0
LINE
  5
DF
330
1F
100
AcDbEntity
  8
0
  6
Continuous
 62
     7
370
    25
100
AcDbLine
 10
241.6897901131
 20
118.408539949
 30
0.0
 11
241.6481397938
 21
118.3847350192
 31
0.0
  0
ELLIPSE
  5
E0
330
1F
100
AcDbEntity
  8
0
  6
Continuous
 62
     7
370
    25
100
AcDbEllipse
 10
241.2992966143
 20
118.9394174904
 30
0.0
 11
0.678412947925267
 21
6.110667527536863E-13
 31
0.0
210
0.0
220
0.0
230
1.0
 40
0.9533039403
 41
3.470145824140271
 42
5.252469180536336
  0
LINE
  5
E1
330
1F
100
AcDbEntity
  8
0
  6
Continuous
 62
     7
370
    25
100
AcDbLine
 10
240.6571718472
 20
118.7307333754
 30
0.0
 11
239.3975176423
 21
122.2531777721
 31
0.0
  0
ELLIPSE
  5
E2
330
1F
100
AcDbEntity
  8
0
  6
Continuous
 62
     7
370
    25
100
AcDbEllipse
 10
238.8065350844
 20
121.990838536
 30
0.0
 11
0.6519124952381503
 21
5.968558980384842E-13
 31
0.0
210
0.0
220
0.0
230
1.0
 40
0.9533023292
 41
0.4357905044355366
 42
2.705800116361537
  0
LINE
  5
E3
330
1F
100
AcDbEntity
  8
0
  6
Continuous
 62
     7
370
    25
100
AcDbLine
 10
238.2155530859
 20
122.2531789173
 30
0.0
 11
236.9561882842
 21
118.7315555156
 31
0.0
  0
ELLIPSE
  5
E4
330
1F
100
AcDbEntity
  8
0
  6
Continuous
 62
     7
370
    25
100
AcDbEllipse
 10
236.3140671002
 20
118.9402383493
 30
0.0
 11
-0.6784085062757867
 21
3.268496584496461E-13
 31
0.0
210
0.0
220
0.0
230
1.0
 40
0.9533122623
 41
1.047193771187987
 42
2.813042320199931
  0
LINE
  5
E5
330
1F
100
AcDbEntity
  8
0
  6
Continuous
 62
     7
370
    25
100
AcDbLine
 10
235.9748606262
 20
118.380150504
 30
0.0
 11
235.9232800557
 21
118.408539949
 31
0.0
  0
LINE
  5
E6
330
1F
100
AcDbEntity
  8
0
  6
Continuous
 62
     7
370
    25
100
AcDbLine
 10
235.9232800557
 20
118.408539949
 30
0.0
 11
236.7195487152
 21
116.8903678476
 31
0.0
  0
ELLIPSE
  5
E7
330
1F
100
AcDbEntity
  8
0
  6
Continuous
 62
     7
370
    25
100
AcDbEllipse
 10
236.7953975887
 20
116.9265213626
 30
0.0
 11
0.08480161849064416
 21
-2.842170943040401E-14
 31
0.0
210
0.0
220
0.0
230
1.0
 40
0.9533039403
 41
3.605240262590848
 42
5.462183310215358
  0
ELLIPSE
  5
E8
330
1F
100
AcDbEntity
  8
0
  6
Continuous
 62
     7
370
    25
100
AcDbEllipse
 10
238.8065350844
 20
114.867672742
 30
0.0
 11
2.866293551216188
 21
-1.506350599811412E-12
 31
0.0
210
0.0
220
0.0
230
1.0
 40
0.9533046568
 41
0.8210016221243864
 42
2.320591031466452
  0
ELLIPSE
  5
E9
330
1F
100
AcDbEntity
  8
0
  6
Continuous
 62
     7
370
    25
100
AcDbEllipse
 10
240.8176725801
 20
116.9265213626
 30
0.0
 11
0.08480161849061574
 21
0.0
 31
0.0
210
0.0
220
0.0
230
1.0
 40
0.9533039403
 41
3.962594650556611
 42
5.819537698177178
  0
LINE
  5
EA
330
1F
100
AcDbEntity
  8
0
  6
Continuous
 62
     7
370
    25
100
AcDbLine
 10
240.8935214535
 20
116.8903678476
 30
0.0
 11
241.6897901131
 21
118.408539949
 31
0.0
  0
LINE
  5
EB
330
1F
100
AcDbEntity
  8
0
  6
Continuous
 62
     7
370
    25
100
AcDbLine
 10
236.591549027
 20
127.1921288988
 30
0.0
 11
236.591549027
 21
123.8309129666
 31
0.0
  0
SPLINE
  5
EC
330
1F
100
AcDbEntity
  8
0
  6
Continuous
 62
     7
370
    25
100
AcDbSpline
210
0.0
220
0.0
230
1.0
 70
     8
 71
     3
 72
    10
 73
     6
 74
     0
 42
0.00000001
 43
0.00000001
 40
0.0
 40
0.0
 40
0.0
 40
0.0
 40
0.5
 40
0.5
 40
1.0
 40
1.0
 40
1.0
 40
1.0
 10
235.9138276217874
 20
124.8827278220372
 30
0.0
 10
235.890152227363
 20
124.839784291136
 30
0.0
 10
235.8770611174783
 20
124.7763418465119
 30
0.0
 10
235.8769747961901
 20
124.6238630093929
 30
0.0
 10
235.8901437301339
 20
124.5356330072856
 30
0.0
 10
235.9138276217874
 20
124.449715120145
 30
0.0
  0
SPLINE
  5
ED
330
1F
100
AcDbEntity
  8
0
  6
Continuous
 62
     7
370
    25
100
AcDbSpline
210
0.0
220
0.0
230
1.0
 70
     8
 71
     3
 72
    12
 73
     8
 74
     0
 42
0.00000001
 43
0.00000001
 40
0.0
 40
0.0
 40
0.0
 40
0.0
 40
0.2500000000000001
 40
0.2500000000000001
 40
0.5000000000000002
 40
0.5000000000000002
 40
1.0
 40
1.0
 40
1.0
 40
1.0
 10
236.5915490270476
 20
127.1921288987957
 30
0.0
 10
236.5915490270476
 20
126.9963866359162
 30
0.0
 10
236.5757060909586
 20
126.7997200267256
 30
0.0
 10
236.5142032307209
 20
126.4104517993974
 30
0.0
 10
236.4685995896773
 20
126.2170477664444
 30
0.0
 10
236.2921485721881
 20
125.6401187151877
 30
0.0
 10
236.1217512049362
 20
125.2598692819847
 30
0.0
 10
235.9138276217874
 20
124.8827278220372
 30
0.0
  0
SPLINE
  5
EE
330
1F
100
AcDbEntity
  8
0
  6
Continuous
 62
     7
370
    25
100
AcDbSpline
210
0.0
220
0.0
230
1.0
 70
     8
 71
     3
 72
    10
 73
     6
 74
     0
 42
0.00000001
 43
0.00000001
 40
0.0
 40
0.0
 40
0.0
 40
0.0
 40
0.5
 40
0.5
 40
1.0
 40
1.0
 40
1.0
 40
1.0
 10
237.5397341716383
 20
111.864516426773
 30
0.0
 10
237.5826777025396
 20
111.8408410323486
 30
0.0
 10
237.6461201471637
 20
111.827749922464
 30
0.0
 10
237.7985989842826
 20
111.8276636011757
 30
0.0
 10
237.8868289863899
 20
111.8408325351195
 30
0.0
 10
237.9727468735306
 20
111.864516426773
 30
0.0
  0
SPLINE
  5
EF
330
1F
100
AcDbEntity
  8
0
  6
Continuous
 62
     7
370
    25
100
AcDbSpline
210
0.0
220
0.0
230
1.0
 70
     8
 71
     3
 72
    10
 73
     6
 74
     0
 42
0.00000001
 43
0.00000001
 40
0.0
 40
0.0
 40
0.0
 40
0.0
 40
0.5
 40
0.5
 40
1.0
 40
1.0
 40
1.0
 40
1.0
 10
237.5397341716383
 20
108.5086343718882
 30
0.0
 10
237.5826719807376
 20
108.5323066117997
 30
0.0
 10
237.6461125706298
 20
108.545400601735
 30
0.0
 10
237.7986017161386
 20
108.5454874691964
 30
0.0
 10
237.8868311053419
 20
108.5323176794371
 30
0.0
 10
237.9727468735306
 20
108.5086343718882
 30
0.0
  0
LINE
  5
F0
330
1F
100
AcDbEntity
  8
0
  6
Continuous
 62
     7
370
    25
100
AcDbLine
 10
237.5397341716
 20
108.5086343719
 30
0.0
 11
237.5397341716
 21
111.8645164268
 31
0.0
  0
SPLINE
  5
F1
330
1F
100
AcDbEntity
  8
0
  6
Continuous
 62
     7
370
    25
100
AcDbSpline
210
0.0
220
0.0
230
1.0
 70
     8
 71
     3
 72
    10
 73
     6
 74
     0
 42
0.00000001
 43
0.00000001
 40
0.0
 40
0.0
 40
0.0
 40
0.0
 40
0.5
 40
0.5
 40
1.0
 40
1.0
 40
1.0
 40
1.0
 10
231.7692704323073
 20
124.8827278220372
 30
0.0
 10
231.560460507641
 20
125.2614769694285
 30
0.0
 10
231.3899263678938
 20
125.6426822458398
 30
0.0
 10
231.1551405628749
 20
126.4119128670276
 30
0.0
 10
231.0915490270476
 20
126.7999805718259
 30
0.0
 10
231.0915490270476
 20
127.1921288987957
 30
0.0
  0
SPLINE
  5
F2
330
1F
100
AcDbEntity
  8
0
  6
Continuous
 62
     7
370
    25
100
AcDbSpline
210
0.0
220
0.0
230
1.0
 70
     8
 71
     3
 72
    10
 73
     6
 74
     0
 42
0.00000001
 43
0.00000001
 40
0.0
 40
0.0
 40
0.0
 40
0.0
 40
0.5
 40
0.5
 40
1.0
 40
1.0
 40
1.0
 40
1.0
 10
231.7692704323078
 20
124.8827278220372
 30
0.0
 10
231.7929426722193
 20
124.839790012938
 30
0.0
 10
231.8060366621546
 20
124.7763494230458
 30
0.0
 10
231.8061235296161
 20
124.6238602775369
 30
0.0
 10
231.7929537398567
 20
124.5356308883336
 30
0.0
 10
231.7692704323078
 20
124.449715120145
 30
0.0
  0
LINE
  5
F3
330
1F
100
AcDbEntity
  8
0
  6
Continuous
 62
     7
370
    25
100
AcDbLine
 10
231.091549027
 20
119.8309129666
 30
0.0
 11
231.091549027
 21
127.1921288988
 31
0.0
  0
SPLINE
  5
F4
330
1F
100
AcDbEntity
  8
0
  6
Continuous
 62
     7
370
    25
100
AcDbSpline
210
0.0
220
0.0
230
1.0
 70
     8
 71
     3
 72
    10
 73
     6
 74
     0
 42
0.00000001
 43
0.00000001
 40
0.0
 40
0.0
 40
0.0
 40
0.0
 40
0.5
 40
0.5
 40
1.0
 40
1.0
 40
1.0
 40
1.0
 10
231.7692704323078
 20
115.212110813111
 30
0.0
 10
231.7929443328637
 20
115.1262291706045
 30
0.0
 10
231.8060368900429
 20
115.0388199646391
 30
0.0
 10
231.8061233040251
 20
114.8861774795642
 30
0.0
 10
231.7929529124265
 20
114.8220544944818
 30
0.0
 10
231.7692704323078
 20
114.7790981112188
 30
0.0
  0
SPLINE
  5
F5
330
1F
100
AcDbEntity
  8
0
  6
Continuous
 62
     7
370
    25
100
AcDbSpline
210
0.0
220
0.0
230
1.0
 70
     8
 71
     3
 72
    12
 73
     8
 74
     0
 42
0.00000001
 43
0.00000001
 40
0.0
 40
0.0
 40
0.0
 40
0.0
 40
0.2499999999999999
 40
0.2499999999999999
 40
0.4999999999999998
 40
0.4999999999999998
 40
1.0
 40
1.0
 40
1.0
 40
1.0
 10
231.0915490270476
 20
112.4696970344603
 30
0.0
 10
231.0915490270476
 20
112.664700514466
 30
0.0
 10
231.1072953570695
 20
112.8612351734905
 30
0.0
 10
231.168740381655
 20
113.250654861096
 30
0.0
 10
231.2143291409087
 20
113.4441395541563
 30
0.0
 10
231.3907801431653
 20
114.0213231529119
 30
0.0
 10
231.5612378451288
 20
114.4017589346948
 30
0.0
 10
231.7692704323076
 20
114.7790981112188
 30
0.0
  0
LINE
  5
F6
330
1F
100
AcDbEntity
  8
0
  6
Continuous
 62
     7
370
    25
100
AcDbLine
 10
231.091549027
 20
119.8309129666
 30
0.0
 11
231.091549027
 21
112.4696970345
 31
0.0
  0
LINE
  5
F7
330
1F
100
AcDbEntity
  8
0
  6
Continuous
 62
     7
370
    25
100
AcDbLine
 10
236.591549027
 20
115.8309129666
 30
0.0
 11
236.591549027
 21
113.8309129666
 31
0.0
  0
SPLINE
  5
F8
330
1F
100
AcDbEntity
  8
0
  6
Continuous
 62
     7
370
    25
100
AcDbSpline
210
0.0
220
0.0
230
1.0
 70
     8
 71
     3
 72
     8
 73
     4
 74
     0
 42
0.00000001
 43
0.00000001
 40
0.0
 40
0.0
 40
0.0
 40
0.0
 40
1.0
 40
1.0
 40
1.0
 40
1.0
 10
236.5915490270476
 20
113.830912966628
 30
0.0
 10
236.5517703688574
 20
113.6935278776279
 30
0.0
 10
236.5112814060292
 20
113.5568237958161
 30
0.0
 10
236.4701655355514
 20
113.4207914333027
 30
0.0
  0
SPLINE
  5
F9
330
1F
100
AcDbEntity
  8
0
  6
Continuous
 62
     7
370
    25
100
AcDbSpline
210
0.0
220
0.0
230
1.0
 70
     8
 71
     3
 72
     8
 73
     4
 74
     0
 42
0.00000001
 43
0.00000001
 40
0.0
 40
0.0
 40
0.0
 40
0.0
 40
1.0
 40
1.0
 40
1.0
 40
1.0
 10
235.9138276217874
 20
114.7790981112188
 30
0.0
 10
236.1610014026713
 20
114.3307628181674
 30
0.0
 10
236.3547230709753
 20
113.8785883274238
 30
0.0
 10
236.4701655355514
 20
113.4207914333027
 30
0.0
  0
SPLINE
  5
FA
330
1F
100
AcDbEntity
  8
0
  6
Continuous
 62
     7
370
    25
100
AcDbSpline
210
0.0
220
0.0
230
1.0
 70
     8
 71
     3
 72
    10
 73
     6
 74
     0
 42
0.00000001
 43
0.00000001
 40
0.0
 40
0.0
 40
0.0
 40
0.0
 40
0.5
 40
0.5
 40
1.0
 40
1.0
 40
1.0
 40
1.0
 10
235.9138276217873
 20
115.212110813111
 30
0.0
 10
235.890152227363
 20
115.1262237513085
 30
0.0
 10
235.8770611174783
 20
115.0388165423284
 30
0.0
 10
235.8769747961901
 20
114.8861800997347
 30
0.0
 10
235.8901437301339
 20
114.8220570547891
 30
0.0
 10
235.9138276217874
 20
114.7790981112188
 30
0.0
  0
SPLINE
  5
FB
330
1F
100
AcDbEntity
  8
0
  6
Continuous
 62
     7
370
    25
100
AcDbSpline
210
0.0
220
0.0
230
1.0
 70
     8
 71
     3
 72
    10
 73
     6
 74
     0
 42
0.00000001
 43
0.00000001
 40
0.0
 40
0.0
 40
0.0
 40
0.0
 40
0.5
 40
0.5
 40
1.0
 40
1.0
 40
1.0
 40
1.0
 10
253.7694900544898
 20
115.212110813111
 30
0.0
 10
253.7458146600655
 20
115.1262237513085
 30
0.0
 10
253.7327235501809
 20
115.0388165423284
 30
0.0
 10
253.7326372288927
 20
114.8861800997347
 30
0.0
 10
253.7458061628365
 20
114.8220570547891
 30
0.0
 10
253.76949005449
 20
114.7790981112188
 30
0.0
  0
SPLINE
  5
FC
330
1F
100
AcDbEntity
  8
0
  6
Continuous
 62
     7
370
    25
100
AcDbSpline
210
0.0
220
0.0
230
1.0
 70
     8
 71
     3
 72
    10
 73
     6
 74
     0
 42
0.00000001
 43
0.00000001
 40
0.0
 40
0.0
 40
0.0
 40
0.0
 40
0.5
 40
0.5
 40
1.0
 40
1.0
 40
1.0
 40
1.0
 10
253.76949005449
 20
124.8827278220372
 30
0.0
 10
253.7458146600656
 20
124.839784291136
 30
0.0
 10
253.7327235501809
 20
124.7763418465119
 30
0.0
 10
253.7326372288927
 20
124.6238630093929
 30
0.0
 10
253.7458061628365
 20
124.5356330072856
 30
0.0
 10
253.76949005449
 20
124.449715120145
 30
0.0
  0
SPLINE
  5
FD
330
1F
100
AcDbEntity
  8
0
  6
Continuous
 62
     7
370
    25
100
AcDbSpline
210
0.0
220
0.0
230
1.0
 70
     8
 71
     3
 72
    16
 73
    12
 74
     0
 42
0.00000001
 43
0.00000001
 40
0.0
 40
0.0
 40
0.0
 40
0.0
 40
0.2500000000000001
 40
0.2500000000000001
 40
0.5000000000000001
 40
0.5000000000000001
 40
0.6250000000000001
 40
0.6250000000000001
 40
0.7500000000000002
 40
0.7500000000000002
 40
1.0
 40
1.0
 40
1.0
 40
1.0
 10
253.76949005449
 20
129.5015299755542
 30
0.0
 10
253.9775055025957
 20
129.1242218866777
 30
0.0
 10
254.1477118075687
 20
128.7441981563035
 30
0.0
 10
254.3826478391363
 20
127.9765748408928
 30
0.0
 10
254.4467199707999
 20
127.588928024104
 30
0.0
 10
254.447452919721
 20
127.0006074722162
 30
0.0
 10
254.4317934396379
 20
126.8035342796605
 30
0.0
 10
254.370518313001
 20
126.4134773021064
 30
0.0
 10
254.3249620405019
 20
126.2196844015184
 30
0.0
 10
254.1484760077456
 20
125.641603416755
 30
0.0
 10
253.9778195542599
 20
125.2606055524201
 30
0.0
 10
253.76949005449
 20
124.8827278220372
 30
0.0
  0
SPLINE
  5
FE
330
1F
100
AcDbEntity
  8
0
  6
Continuous
 62
     7
370
    25
100
AcDbSpline
210
0.0
220
0.0
230
1.0
 70
     8
 71
     3
 72
    10
 73
     6
 74
     0
 42
0.00000001
 43
0.00000001
 40
0.0
 40
0.0
 40
0.0
 40
0.0
 40
0.1601790552921226
 40
0.7197651707803578
 40
1.0
 40
1.0
 40
1.0
 40
1.0
 10
253.7352606213731
 20
129.563808254304
 30
0.0
 10
253.7344978312798
 20
129.5652004823303
 30
0.0
 10
253.7310702312061
 20
129.5714564640587
 30
0.0
 10
253.7455776960044
 20
129.5449491993307
 30
0.0
 10
253.7635072491222
 20
129.5123933441856
 30
0.0
 10
253.76949005449
 20
129.5015299755542
 30
0.0
  0
SPLINE
  5
FF
330
1F
100
AcDbEntity
  8
0
  6
Continuous
 62
     7
370
    25
100
AcDbSpline
210
0.0
220
0.0
230
1.0
 70
     8
 71
     3
 72
     9
 73
     5
 74
     0
 42
0.00000001
 43
0.00000001
 40
0.0
 40
0.0
 40
0.0
 40
0.0
 40
0.5797912171256352
 40
1.0
 40
1.0
 40
1.0
 40
1.0
 10
253.76949005449
 20
110.1602959577018
 30
0.0
 10
253.7571314511436
 20
110.1378223094606
 30
0.0
 10
253.7358158413491
 20
110.0990606870398
 30
0.0
 10
253.7354248988463
 20
110.0983262822816
 30
0.0
 10
253.7352606213731
 20
110.098017678952
 30
0.0
  0
SPLINE
  5
100
330
1F
100
AcDbEntity
  8
0
  6
Continuous
 62
     7
370
    25
100
AcDbSpline
210
0.0
220
0.0
230
1.0
 70
     8
 71
     3
 72
    16
 73
    12
 74
     0
 42
0.00000001
 43
0.00000001
 40
0.0
 40
0.0
 40
0.0
 40
0.0
 40
0.2500000000000001
 40
0.2500000000000001
 40
0.5000000000000002
 40
0.5000000000000002
 40
0.6250000000000001
 40
0.6250000000000001
 40
0.7500000000000001
 40
0.7500000000000001
 40
1.0
 40
1.0
 40
1.0
 40
1.0
 10
253.76949005449
 20
114.7790981112188
 30
0.0
 10
253.9775055025957
 20
114.4017900223423
 30
0.0
 10
254.1477118075687
 20
114.0217662919681
 30
0.0
 10
254.3826478391363
 20
113.2541429765574
 30
0.0
 10
254.4467199708
 20
112.8664961597686
 30
0.0
 10
254.447452919721
 20
112.2781756078807
 30
0.0
 10
254.4317934396379
 20
112.0811024153251
 30
0.0
 10
254.370518313001
 20
111.691045437771
 30
0.0
 10
254.3249620405019
 20
111.4972525371829
 30
0.0
 10
254.1484760077456
 20
110.9191715524195
 30
0.0
 10
253.9778195542599
 20
110.5381736880847
 30
0.0
 10
253.76949005449
 20
110.1602959577018
 30
0.0
  0
LINE
  5
101
330
1F
100
AcDbEntity
  8
0
  6
Continuous
 62
     7
370
    25
100
AcDbLine
 10
254.591549027
 20
128.0809129666
 30
0.0
 11
254.591549027
 21
111.5809129666
 31
0.0
  0
SPLINE
  5
102
330
1F
100
AcDbEntity
  8
0
  6
Continuous
 62
     7
370
    25
100
AcDbSpline
210
0.0
220
0.0
230
1.0
 70
     8
 71
     3
 72
     8
 73
     4
 74
     0
 42
0.00000001
 43
0.00000001
 40
0.0
 40
0.0
 40
0.0
 40
0.0
 40
1.0
 40
1.0
 40
1.0
 40
1.0
 10
248.7129325185437
 20
113.4207914333028
 30
0.0
 10
248.6718172429025
 20
113.5568218277923
 30
0.0
 10
248.6313282600346
 20
113.6935258924297
 30
0.0
 10
248.5915490270476
 20
113.830912966628
 30
0.0
  0
LINE
  5
103
330
1F
100
AcDbEntity
  8
0
  6
Continuous
 62
     7
370
    25
100
AcDbLine
 10
248.591549027
 20
115.8309129666
 30
0.0
 11
248.591549027
 21
113.8309129666
 31
0.0
  0
SPLINE
  5
104
330
1F
100
AcDbEntity
  8
0
  6
Continuous
 62
     7
370
    25
100
AcDbSpline
210
0.0
220
0.0
230
1.0
 70
     8
 71
     3
 72
    10
 73
     6
 74
     0
 42
0.00000001
 43
0.00000001
 40
0.0
 40
0.0
 40
0.0
 40
0.0
 40
0.5
 40
0.5
 40
1.0
 40
1.0
 40
1.0
 40
1.0
 10
249.2692704323045
 20
114.7790981112188
 30
0.0
 10
249.2929458267288
 20
114.8220416421199
 30
0.0
 10
249.3060369366168
 20
114.8854840867437
 30
0.0
 10
249.3061232579051
 20
115.0379629238628
 30
0.0
 10
249.2929543239613
 20
115.1261929259702
 30
0.0
 10
249.2692704323078
 20
115.212110813111
 30
0.0
  0
SPLINE
  5
105
330
1F
100
AcDbEntity
  8
0
  6
Continuous
 62
     7
370
    25
100
AcDbSpline
210
0.0
220
0.0
230
1.0
 70
     8
 71
     3
 72
     8
 73
     4
 74
     0
 42
0.00000001
 43
0.00000001
 40
0.0
 40
0.0
 40
0.0
 40
0.0
 40
1.0
 40
1.0
 40
1.0
 40
1.0
 10
248.7129325185437
 20
113.4207914333028
 30
0.0
 10
248.8285651285728
 20
113.8793423653605
 30
0.0
 10
249.0224545333932
 20
114.3314119611187
 30
0.0
 10
249.2692704323076
 20
114.7790981112185
 30
0.0
  0
LINE
  5
106
330
1F
100
AcDbEntity
  8
0
  6
Continuous
 62
     7
370
    25
100
AcDbLine
 10
248.591549027
 20
127.1921288988
 30
0.0
 11
248.591549027
 21
123.8309129666
 31
0.0
  0
SPLINE
  5
107
330
1F
100
AcDbEntity
  8
0
  6
Continuous
 62
     7
370
    25
100
AcDbSpline
210
0.0
220
0.0
230
1.0
 70
     8
 71
     3
 72
    10
 73
     6
 74
     0
 42
0.00000001
 43
0.00000001
 40
0.0
 40
0.0
 40
0.0
 40
0.0
 40
0.5
 40
0.5
 40
1.0
 40
1.0
 40
1.0
 40
1.0
 10
249.2692704323078
 20
124.8827278220372
 30
0.0
 10
249.0608496794904
 20
125.2607710714394
 30
0.0
 10
248.8903858442129
 20
125.6415405762352
 30
0.0
 10
248.6554034092745
 20
126.4106891017927
 30
0.0
 10
248.5915490270476
 20
126.799115829968
 30
0.0
 10
248.5915490270476
 20
127.1921288987957
 30
0.0
  0
SPLINE
  5
108
330
1F
100
AcDbEntity
  8
0
  6
Continuous
 62
     7
370
    25
100
AcDbSpline
210
0.0
220
0.0
230
1.0
 70
     8
 71
     3
 72
    10
 73
     6
 74
     0
 42
0.00000001
 43
0.00000001
 40
0.0
 40
0.0
 40
0.0
 40
0.0
 40
0.5
 40
0.5
 40
1.0
 40
1.0
 40
1.0
 40
1.0
 10
249.2692704323078
 20
124.449715120145
 30
0.0
 10
249.2929458267322
 20
124.5356021819474
 30
0.0
 10
249.3060369366168
 20
124.6230093909275
 30
0.0
 10
249.3061232579051
 20
124.7756458335213
 30
0.0
 10
249.2929543239613
 20
124.8397688784669
 30
0.0
 10
249.2692704323078
 20
124.8827278220372
 30
0.0
  0
SPLINE
  5
109
330
1F
100
AcDbEntity
  8
0
  6
Continuous
 62
     7
370
    25
100
AcDbSpline
210
0.0
220
0.0
230
1.0
 70
     8
 71
     3
 72
     8
 73
     4
 74
     0
 42
0.00000001
 43
0.00000001
 40
0.0
 40
0.0
 40
0.0
 40
0.0
 40
1.0
 40
1.0
 40
1.0
 40
1.0
 10
235.302172842431
 20
112.5415367819992
 30
0.0
 10
235.6111899850727
 20
112.6425418898294
 30
0.0
 10
235.9265077413907
 20
112.7391986788953
 30
0.0
 10
236.2489870682337
 20
112.830912966628
 30
0.0
  0
SPLINE
  5
10A
330
1F
100
AcDbEntity
  8
0
  6
Continuous
 62
     7
370
    25
100
AcDbSpline
210
0.0
220
0.0
230
1.0
 70
     8
 71
     3
 72
    12
 73
     8
 74
     0
 42
0.00000001
 43
0.00000001
 40
0.0
 40
0.0
 40
0.0
 40
0.0
 40
0.2500000000000002
 40
0.2500000000000002
 40
0.5000000000000004
 40
0.5000000000000004
 40
1.0
 40
1.0
 40
1.0
 40
1.0
 10
235.3021728424257
 20
112.5415367819931
 30
0.0
 10
235.492199017729
 20
112.5378282961367
 30
0.0
 10
235.6824140804147
 20
112.519245793299
 30
0.0
 10
236.0593508395472
 20
112.4543787563329
 30
0.0
 10
236.2466736308066
 20
112.4081132030826
 30
0.0
 10
236.8055835871207
 20
112.2323886727756
 30
0.0
 10
237.1741192452311
 20
112.0660852639989
 30
0.0
 10
237.5397341716383
 20
111.864516426773
 30
0.0
  0
LINE
  5
10B
330
1F
100
AcDbEntity
  8
0
  6
Continuous
 62
     7
370
    25
100
AcDbLine
 10
231.7692704323
 20
124.882727822
 30
0.0
 11
235.9138276218
 21
124.882727822
 31
0.0
  0
SPLINE
  5
10C
330
1F
100
AcDbEntity
  8
0
  6
Continuous
 62
     7
370
    25
100
AcDbSpline
210
0.0
220
0.0
230
1.0
 70
     8
 71
     3
 72
     8
 73
     4
 74
     0
 42
0.00000001
 43
0.00000001
 40
0.0
 40
0.0
 40
0.0
 40
0.0
 40
1.0
 40
1.0
 40
1.0
 40
1.0
 10
248.9341109858614
 20
112.830912966628
 30
0.0
 10
249.2565903127107
 20
112.7391986788935
 30
0.0
 10
249.5719080690347
 20
112.6425418898256
 30
0.0
 10
249.8809252116822
 20
112.5415367819934
 30
0.0
  0
SPLINE
  5
10D
330
1F
100
AcDbEntity
  8
0
  6
Continuous
 62
     7
370
    25
100
AcDbSpline
210
0.0
220
0.0
230
1.0
 70
     8
 71
     3
 72
    10
 73
     6
 74
     0
 42
0.00000001
 43
0.00000001
 40
0.0
 40
0.0
 40
0.0
 40
0.0
 40
0.5
 40
0.5
 40
1.0
 40
1.0
 40
1.0
 40
1.0
 10
247.6433638824571
 20
111.8645164267731
 30
0.0
 10
248.0098818292976
 20
112.0665831123241
 30
0.0
 10
248.3789620547635
 20
112.2329758845947
 30
0.0
 10
249.1242144029908
 20
112.4670228584648
 30
0.0
 10
249.5004271749386
 20
112.5341111124236
 30
0.0
 10
249.8809252116822
 20
112.5415367819934
 30
0.0
  0
SPLINE
  5
10E
330
1F
100
AcDbEntity
  8
0
  6
Continuous
 62
     7
370
    25
100
AcDbSpline
210
0.0
220
0.0
230
1.0
 70
     8
 71
     3
 72
    10
 73
     6
 74
     0
 42
0.00000001
 43
0.00000001
 40
0.0
 40
0.0
 40
0.0
 40
0.0
 40
0.5
 40
0.5
 40
1.0
 40
1.0
 40
1.0
 40
1.0
 10
247.2103511805646
 20
111.864516426773
 30
0.0
 10
247.2962382423671
 20
111.8408410323485
 30
0.0
 10
247.3836454513473
 20
111.8277499224639
 30
0.0
 10
247.5362818939412
 20
111.8276636011757
 30
0.0
 10
247.600404938887
 20
111.8408325351196
 30
0.0
 10
247.6433638824572
 20
111.8645164267732
 30
0.0
  0
LINE
  5
10F
330
1F
100
AcDbEntity
  8
0
  6
Continuous
 62
     7
370
    25
100
AcDbLine
 10
247.6433638825
 20
111.8645164268
 30
0.0
 11
247.6433638825
 21
108.5086343719
 31
0.0
  0
SPLINE
  5
110
330
1F
100
AcDbEntity
  8
0
  6
Continuous
 62
     7
370
    25
100
AcDbSpline
210
0.0
220
0.0
230
1.0
 70
     8
 71
     3
 72
    10
 73
     6
 74
     0
 42
0.00000001
 43
0.00000001
 40
0.0
 40
0.0
 40
0.0
 40
0.0
 40
0.5
 40
0.5
 40
1.0
 40
1.0
 40
1.0
 40
1.0
 10
247.2103511805646
 20
108.5086343718882
 30
0.0
 10
247.296232823071
 20
108.5323082724441
 30
0.0
 10
247.3836420290365
 20
108.5454008296233
 30
0.0
 10
247.5362845141114
 20
108.5454872436055
 30
0.0
 10
247.6004074991938
 20
108.5323168520069
 30
0.0
 10
247.6433638824568
 20
108.5086343718882
 30
0.0
  0
LINE
  5
111
330
1F
100
AcDbEntity
  8
0
  6
Continuous
 62
     7
370
    25
100
AcDbLine
 10
253.7694900545
 20
114.7790981112
 30
0.0
 11
249.2692704323
 21
114.7790981112
 31
0.0
  0
LINE
  5
112
330
1F
100
AcDbEntity
  8
0
  6
Continuous
 62
     7
370
    25
100
AcDbLine
 10
249.2692704323
 20
124.882727822
 30
0.0
 11
253.7694900545
 21
124.882727822
 31
0.0
  0
SPLINE
  5
113
330
1F
100
AcDbEntity
  8
0
  6
Continuous
 62
     7
370
    25
100
AcDbSpline
210
0.0
220
0.0
230
1.0
 70
     8
 71
     3
 72
    12
 73
     8
 74
     0
 42
0.00000001
 43
0.00000001
 40
0.0
 40
0.0
 40
0.0
 40
0.0
 40
0.2499999999999998
 40
0.2499999999999998
 40
0.4999999999999996
 40
0.4999999999999996
 40
1.0
 40
1.0
 40
1.0
 40
1.0
 10
249.9527649592153
 20
107.830912966628
 30
0.0
 10
249.7577614792095
 20
107.830912966628
 30
0.0
 10
249.5612268201851
 20
107.8466592966499
 30
0.0
 10
249.1718071325795
 20
107.9081043212354
 30
0.0
 10
248.9783224395193
 20
107.9536930804891
 30
0.0
 10
248.4011388407637
 20
108.1301440827457
 30
0.0
 10
248.0207030589807
 20
108.3006017847092
 30
0.0
 10
247.6433638824568
 20
108.508634371888
 30
0.0
  0
LINE
  5
114
330
1F
100
AcDbEntity
  8
0
  6
Continuous
 62
     7
370
    25
100
AcDbLine
 10
242.591549027
 20
107.8309129666
 30
0.0
 11
249.9527649592
 21
107.8309129666
 31
0.0
  0
LINE
  5
115
330
1F
100
AcDbEntity
  8
0
  6
Continuous
 62
     7
370
    25
100
AcDbLine
 10
235.9138276218
 20
114.7790981112
 30
0.0
 11
231.7692704323
 21
114.7790981112
 31
0.0
  0
LINE
  5
116
330
1F
100
AcDbEntity
  8
0
  6
Continuous
 62
     7
370
    25
100
AcDbLine
 10
235.2303330949
 20
107.8309129666
 30
0.0
 11
242.591549027
 21
107.8309129666
 31
0.0
  0
SPLINE
  5
117
330
1F
100
AcDbEntity
  8
0
  6
Continuous
 62
     7
370
    25
100
AcDbSpline
210
0.0
220
0.0
230
1.0
 70
     8
 71
     3
 72
    10
 73
     6
 74
     0
 42
0.00000001
 43
0.00000001
 40
0.0
 40
0.0
 40
0.0
 40
0.0
 40
0.5
 40
0.5
 40
1.0
 40
1.0
 40
1.0
 40
1.0
 10
237.5397341716384
 20
108.5086343718877
 30
0.0
 10
237.1609850242471
 20
108.2998244472214
 30
0.0
 10
236.7797797478358
 20
108.1292903074742
 30
0.0
 10
236.010549126648
 20
107.8945045024553
 30
0.0
 10
235.6224814218497
 20
107.830912966628
 30
0.0
 10
235.2303330948799
 20
107.830912966628
 30
0.0
  0
ELLIPSE
  5
118
330
1F
100
AcDbEntity
  8
0
  6
Continuous
 62
     7
370
    25
100
AcDbEllipse
 10
238.5377880205
 20
119.3373228272
 30
0.0
 11
0.08480161849067258
 21
-1.421085471520200E-14
 31
0.0
210
0.0
220
0.0
230
1.0
 40
0.9533039403
 41
2.798568711308387
 42
4.712388980384862
  0
LINE
  5
119
330
1F
100
AcDbEntity
  8
0
  6
Continuous
 62
     7
370
    25
100
AcDbLine
 10
238.5377880205
 20
119.2564811101
 30
0.0
 11
239.1451363793
 21
119.2564811101
 31
0.0
  0
LINE
  5
11A
330
1F
100
AcDbEntity
  8
0
  6
Continuous
 62
     7
370
    25
100
AcDbLine
 10
238.7616009634
 20
120.1750954561
 30
0.0
 11
238.4579267823
 21
119.3645128392
 31
0.0
  0
ELLIPSE
  5
11B
330
1F
100
AcDbEntity
  8
0
  6
Continuous
 62
     7
370
    25
100
AcDbEllipse
 10
238.8414622017
 20
120.1479054442
 30
0.0
 11
0.08480161849067258
 21
1.421085471520200E-14
 31
0.0
210
0.0
220
0.0
230
1.0
 40
0.9533039403
 41
0.3430239404206273
 42
2.798568713168818
  0
ELLIPSE
  5
11C
330
1F
100
AcDbEntity
  8
0
  6
Continuous
 62
     7
370
    25
100
AcDbEllipse
 10
239.1451363793
 20
119.3373228272
 30
0.0
 11
-0.08480161849064416
 21
-4.263256414560601E-14
 31
0.0
210
0.0
220
0.0
230
1.0
 40
0.9533039403
 41
1.570796326794417
 42
3.48461659214898
  0
LINE
  5
11D
330
1F
100
AcDbEntity
  8
0
  6
Continuous
 62
     7
370
    25
100
AcDbLine
 10
239.2249976177
 20
119.3645128389
 30
0.0
 11
238.92132344
 21
120.1750954561
 31
0.0
  0
SPLINE
  5
11E
330
1F
100
AcDbEntity
  8
0
  6
Continuous
 62
     7
370
    25
100
AcDbSpline
210
0.0
220
0.0
230
1.0
 70
     8
 71
     3
 72
    12
 73
     8
 74
     0
 42
0.00000001
 43
0.00000001
 40
0.0
 40
0.0
 40
0.0
 40
0.0
 40
0.2499999999999999
 40
0.2499999999999999
 40
0.4999999999999998
 40
0.4999999999999998
 40
1.0
 40
1.0
 40
1.0
 40
1.0
 10
248.5915490270476
 20
127.1921288987957
 30
0.0
 10
248.5915490270476
 20
127.3878711616752
 30
0.0
 10
248.6073919631365
 20
127.5845377708658
 30
0.0
 10
248.6688948233742
 20
127.9738059981941
 30
0.0
 10
248.7144984644179
 20
128.167210031147
 30
0.0
 10
248.8909494819071
 20
128.7441390824038
 30
0.0
 10
249.061346849159
 20
129.1243885156068
 30
0.0
 10
249.2692704323078
 20
129.5015299755542
 30
0.0
  0
LINE
  5
11F
330
1F
100
AcDbEntity
  8
0
  6
Continuous
 62
     7
370
    25
100
AcDbLine
 10
253.7694900545
 20
129.5015299756
 30
0.0
 11
249.2692704323
 21
129.5015299756
 31
0.0
  0
ELLIPSE
  5
120
330
1F
100
AcDbEntity
  8
0
  6
Continuous
 62
     7
370
    25
100
AcDbEllipse
 10
242.591549027
 20
110.0159583904
 30
0.0
 11
8.5
 21
0.0
 31
0.0
210
0.0
220
0.0
230
1.0
 40
0.5773502692
 41
2.374833212873085
 42
2.53069227991306
  0
LINE
  5
121
330
1F
100
AcDbEntity
  8
0
  6
Continuous
 62
     7
370
    25
100
AcDbLine
 10
235.3021728424
 20
112.541536782
 30
0.0
 11
232.9209320181
 21
110.1602959577
 31
0.0
  0
LINE
  5
122
330
1F
100
AcDbEntity
  8
0
  6
Continuous
 62
     7
370
    25
100
AcDbLine
 10
231.7692704323
 20
110.1602959577
 30
0.0
 11
232.9209320181
 21
110.1602959577
 31
0.0
  0
SPLINE
  5
123
330
1F
100
AcDbEntity
  8
0
  6
Continuous
 62
     7
370
    25
100
AcDbSpline
210
0.0
220
0.0
230
1.0
 70
     8
 71
     3
 72
    10
 73
     6
 74
     0
 42
0.00000001
 43
0.00000001
 40
0.0
 40
0.0
 40
0.0
 40
0.0
 40
0.5
 40
0.5
 40
1.0
 40
1.0
 40
1.0
 40
1.0
 10
231.7692704323073
 20
110.1602959577017
 30
0.0
 10
231.560460507641
 20
110.539045105093
 30
0.0
 10
231.3899263678938
 20
110.9202503815043
 30
0.0
 10
231.1551405628749
 20
111.6894810026921
 30
0.0
 10
231.0915490270476
 20
112.0775487074904
 30
0.0
 10
231.0915490270476
 20
112.4696970344603
 30
0.0
  0
ELLIPSE
  5
124
330
1F
100
AcDbEntity
  8
0
  6
Continuous
 62
     7
370
    25
100
AcDbEllipse
 10
242.591549027
 20
110.0159583904
 30
0.0
 11
8.5
 21
0.0
 31
0.0
210
0.0
220
0.0
230
1.0
 40
0.5773502692
 41
0.610900373676728
 42
0.7667594407167068
  0
LINE
  5
125
330
1F
100
AcDbEntity
  8
0
  6
Continuous
 62
     7
370
    25
100
AcDbLine
 10
252.262166036
 20
110.1602959577
 30
0.0
 11
253.7694900545
 21
110.1602959577
 31
0.0
  0
LINE
  5
126
330
1F
100
AcDbEntity
  8
0
  6
Continuous
 62
     7
370
    25
100
AcDbLine
 10
252.262166036
 20
110.1602959577
 30
0.0
 11
249.8809252117
 21
112.541536782
 31
0.0
  0
LINE
  5
127
330
1F
100
AcDbEntity
  8
0
  6
Continuous
 62
     7
370
    25
100
AcDbLine
 10
252.262166036
 20
108.5086343719
 30
0.0
 11
252.262166036
 21
110.1602959577
 31
0.0
  0
SPLINE
  5
128
330
1F
100
AcDbEntity
  8
0
  6
Continuous
 62
     7
370
    25
100
AcDbSpline
210
0.0
220
0.0
230
1.0
 70
     8
 71
     3
 72
    10
 73
     6
 74
     0
 42
0.00000001
 43
0.00000001
 40
0.0
 40
0.0
 40
0.0
 40
0.0
 40
0.5
 40
0.5
 40
1.0
 40
1.0
 40
1.0
 40
1.0
 10
252.2621660359738
 20
108.5086343718877
 30
0.0
 10
251.8834168885826
 20
108.2998244472215
 30
0.0
 10
251.5022116121712
 20
108.1292903074742
 30
0.0
 10
250.7329809909835
 20
107.8945045024553
 30
0.0
 10
250.3449132861851
 20
107.830912966628
 30
0.0
 10
249.9527649592153
 20
107.830912966628
 30
0.0
  0
SPLINE
  5
129
330
1F
100
AcDbEntity
  8
0
  6
Continuous
 62
     7
370
    25
100
AcDbSpline
210
0.0
220
0.0
230
1.0
 70
     8
 71
     3
 72
    12
 73
     8
 74
     0
 42
0.00000001
 43
0.00000001
 40
0.0
 40
0.0
 40
0.0
 40
0.0
 40
0.2500000000000002
 40
0.2500000000000002
 40
0.5000000000000001
 40
0.5000000000000001
 40
1.0
 40
1.0
 40
1.0
 40
1.0
 10
235.2303330948799
 20
107.830912966628
 30
0.0
 10
235.0353296148741
 20
107.830912966628
 30
0.0
 10
234.8387949558496
 20
107.8466592966499
 30
0.0
 10
234.4493752682441
 20
107.9081043212354
 30
0.0
 10
234.2558905751838
 20
107.9536930804891
 30
0.0
 10
233.6787069764282
 20
108.1301440827457
 30
0.0
 10
233.2982711946453
 20
108.3006017847092
 30
0.0
 10
232.9209320181213
 20
108.508634371888
 30
0.0
  0
LINE
  5
12A
330
1F
100
AcDbEntity
  8
0
  6
Continuous
 62
     7
370
    25
100
AcDbLine
 10
232.9209320181
 20
110.1602959577
 30
0.0
 11
232.9209320181
 21
108.5086343719
 31
0.0
  0
SPLINE
  5
12B
330
1F
100
AcDbEntity
  8
0
  6
Continuous
 62
     7
370
    25
100
AcDbSpline
210
0.0
220
0.0
230
1.0
 70
     8
 71
     3
 72
    12
 73
     8
 74
     0
 42
0.00000001
 43
0.00000001
 40
0.0
 40
0.0
 40
0.0
 40
0.0
 40
0.2499999999999999
 40
0.2499999999999999
 40
0.5
 40
0.5
 40
1.0
 40
1.0
 40
1.0
 40
1.0
 10
231.0915490270476
 20
127.1921288987957
 30
0.0
 10
231.0915490270476
 20
127.3871323788015
 30
0.0
 10
231.1072953570695
 20
127.5836670378259
 30
0.0
 10
231.168740381655
 20
127.9730867254315
 30
0.0
 10
231.2143291409087
 20
128.1665714184917
 30
0.0
 10
231.3907801431653
 20
128.7437550172473
 30
0.0
 10
231.5612378451288
 20
129.1241907990303
 30
0.0
 10
231.7692704323076
 20
129.5015299755542
 30
0.0
  0
LINE
  5
12C
330
1F
100
AcDbEntity
  8
0
  6
Continuous
 62
     7
370
    25
100
AcDbLine
 10
235.9138276218
 20
129.5015299756
 30
0.0
 11
231.7692704323
 21
129.5015299756
 31
0.0
  0
SPLINE
  5
12D
330
1F
100
AcDbEntity
  8
0
  6
Continuous
 62
     7
370
    25
100
AcDbSpline
210
0.0
220
0.0
230
1.0
 70
     8
 71
     3
 72
    10
 73
     6
 74
     0
 42
0.00000001
 43
0.00000001
 40
0.0
 40
0.0
 40
0.0
 40
0.0
 40
0.5
 40
0.5
 40
1.0
 40
1.0
 40
1.0
 40
1.0
 10
235.9138276217874
 20
129.5015299755543
 30
0.0
 10
236.1222483746048
 20
129.1234867261521
 30
0.0
 10
236.2927122098822
 20
128.7427172213562
 30
0.0
 10
236.5276946448206
 20
127.9735686957987
 30
0.0
 10
236.5915490270476
 20
127.5851419676234
 30
0.0
 10
236.5915490270476
 20
127.1921288987957
 30
0.0
  0
LINE
  5
12E
330
1F
100
AcDbEntity
  8
0
  6
Continuous
 62
     7
370
    25
100
AcDbLine
 10
248.591549027
 20
113.8309129666
 30
0.0
 11
246.591549027
 21
115.8309129666
 31
0.0
  0
LINE
  5
12F
330
1F
100
AcDbEntity
  8
0
  6
Continuous
 62
     7
370
    25
100
AcDbLine
 10
246.591549027
 20
112.8309129666
 30
0.0
 11
249.5541700997
 21
112.8309129666
 31
0.0
  0
LINE
  5
130
330
1F
100
AcDbEntity
  8
0
  6
Continuous
 62
     7
370
    25
100
AcDbLine
 10
238.591549027
 20
115.8309129666
 30
0.0
 11
236.591549027
 21
113.8309129666
 31
0.0
  0
LINE
  5
131
330
1F
100
AcDbEntity
  8
0
  6
Continuous
 62
     7
370
    25
100
AcDbLine
 10
235.6289279544
 20
112.8309129666
 30
0.0
 11
238.591549027
 21
112.8309129666
 31
0.0
  0
LINE
  5
132
330
1F
100
AcDbEntity
  8
0
  6
Continuous
 62
     7
370
    25
100
AcDbLine
 10
236.591549027
 20
127.7653674449
 30
0.0
 11
236.591549027
 21
127.1921288988
 31
0.0
  0
SPLINE
  5
133
330
1F
100
AcDbEntity
  8
0
  6
Continuous
 62
     7
370
    25
100
AcDbSpline
210
0.0
220
0.0
230
1.0
 70
     8
 71
     3
 72
    32
 73
    28
 74
     0
 42
0.00000001
 43
0.00000001
 40
0.0
 40
0.0
 40
0.0
 40
0.0
 40
0.0625000000000001
 40
0.0625000000000001
 40
0.1250000000000001
 40
0.1250000000000001
 40
0.1875000000000002
 40
0.1875000000000002
 40
0.2500000000000003
 40
0.2500000000000003
 40
0.3750000000000003
 40
0.3750000000000003
 40
0.4375000000000003
 40
0.4375000000000003
 40
0.5000000000000002
 40
0.5000000000000002
 40
0.5625000000000002
 40
0.5625000000000002
 40
0.6250000000000001
 40
0.6250000000000001
 40
0.7500000000000001
 40
0.7500000000000001
 40
0.8750000000000002
 40
0.8750000000000002
 40
0.9375000000000001
 40
0.9375000000000001
 40
1.0
 40
1.0
 40
1.0
 40
1.0
 10
248.5915490270391
 20
127.7653674448486
 30
0.0
 10
248.4346926911222
 20
127.6704104669529
 30
0.0
 10
248.2616942569666
 20
127.5676572923278
 30
0.0
 10
247.8849896703408
 20
127.3509460906795
 30
0.0
 10
247.6821368898841
 20
127.2375273801895
 30
0.0
 10
247.2561556270815
 20
127.0094372434913
 30
0.0
 10
247.0319776667935
 20
126.8941303610394
 30
0.0
 10
246.5606265732171
 20
126.6658072586647
 30
0.0
 10
246.311941057852
 20
126.5521572425309
 30
0.0
 10
245.5413685731603
 20
126.2290932112969
 30
0.0
 10
244.9957311630782
 20
126.0361946871334
 30
0.0
 10
244.1129514145818
 20
125.8246007618597
 30
0.0
 10
243.814312314709
 20
125.7689583757419
 30
0.0
 10
243.2078107139932
 20
125.6932903063781
 30
0.0
 10
242.8976634753273
 20
125.6733170606018
 30
0.0
 10
242.2775779866435
 20
125.673650826855
 30
0.0
 10
241.9710069491755
 20
125.6936497921778
 30
0.0
 10
241.3643522018673
 20
125.7696885783743
 30
0.0
 10
241.061979137242
 20
125.8263416785058
 30
0.0
 10
240.185342834489
 20
126.0371202285517
 30
0.0
 10
239.6372887025121
 20
126.2306660591234
 30
0.0
 10
238.6067914352689
 20
126.6632853523992
 30
0.0
 10
238.1392313999894
 20
126.8957619970897
 30
0.0
 10
237.5010177963615
 20
127.2374999980087
 30
0.0
 10
237.2978080581716
 20
127.3511175134371
 30
0.0
 10
236.9214711317772
 20
127.5676199057933
 30
0.0
 10
236.7484925232857
 20
127.6703577022377
 30
0.0
 10
236.5915490270476
 20
127.7653674448538
 30
0.0
  0
LINE
  5
134
330
1F
100
AcDbEntity
  8
0
  6
Continuous
 62
     7
370
    25
100
AcDbLine
 10
248.591549027
 20
127.7653674448
 30
0.0
 11
248.591549027
 21
127.1921288988
 31
0.0
  0
LINE
  5
135
330
1F
100
AcDbEntity
  8
0
  6
Continuous
 62
     7
370
    25
100
AcDbLine
 10
236.1269969685
 20
98.4345788405
 30
0.0
 11
249.0561010856
 21
98.4345788405
 31
0.0
  0
SPLINE
  5
136
330
1F
100
AcDbEntity
  8
0
  6
Continuous
 62
     7
370
    25
100
AcDbSpline
210
0.0
220
0.0
230
1.0
 70
     8
 71
     3
 72
    12
 73
     8
 74
     0
 42
0.00000001
 43
0.00000001
 40
0.0
 40
0.0
 40
0.0
 40
0.0
 40
0.0821630624178141
 40
0.309685604018613
 40
0.5424999421076125
 40
0.7710657104360309
 40
0.9999999999999999
 40
0.9999999999999999
 40
0.9999999999999999
 40
0.9999999999999999
 10
248.76498839436
 20
128.6241230287877
 30
0.0
 10
248.7661202662751
 20
128.6278923111629
 30
0.0
 10
248.7703864709097
 20
128.6420993338168
 30
0.0
 10
248.7379312504316
 20
128.5347433271925
 30
0.0
 10
248.6819667821729
 20
128.328805511717
 30
0.0
 10
248.6137573530826
 20
128.0455100508927
 30
0.0
 10
248.5989557766691
 20
127.8587984462664
 30
0.0
 10
248.5915490270476
 20
127.7653674448466
 30
0.0
  0
SPLINE
  5
137
330
1F
100
AcDbEntity
  8
0
  6
Continuous
 62
     7
370
    25
100
AcDbSpline
210
0.0
220
0.0
230
1.0
 70
     8
 71
     3
 72
    11
 73
     7
 74
     0
 42
0.00000001
 43
0.00000001
 40
0.0
 40
0.0
 40
0.0
 40
0.0
 40
0.3176465425945492
 40
0.6359802408029879
 40
0.8657171348848804
 40
0.9999999999999999
 40
0.9999999999999999
 40
0.9999999999999999
 40
0.9999999999999999
 10
236.5915490270476
 20
127.7653674448537
 30
0.0
 10
236.577910237644
 20
127.8966321882623
 30
0.0
 10
236.5506031544366
 20
128.159445636317
 30
0.0
 10
236.4625989452284
 20
128.4710886231333
 30
0.0
 10
236.4180395974572
 20
128.6248315939754
 30
0.0
 10
236.4183878685621
 20
128.6233198008777
 30
0.0
 10
236.4185163419227
 20
128.6227621171161
 30
0.0
  0
LINE
  5
138
330
1F
100
AcDbEntity
  8
0
  6
Continuous
 62
     7
370
    25
100
AcDbLine
 10
236.691549027
 20
129.3309129666
 30
0.0
 11
236.692198962
 21
129.3303609871
 31
0.0
  0
LINE
  5
139
330
1F
100
AcDbEntity
  8
0
  6
Continuous
 62
     7
370
    25
100
AcDbLine
 10
247.841549027
 20
96.3309129666
 30
0.0
 11
237.341549027
 21
96.3309129666
 31
0.0
  0
SPLINE
  5
13A
330
1F
100
AcDbEntity
  8
0
  6
Continuous
 62
     7
370
    25
100
AcDbSpline
210
0.0
220
0.0
230
1.0
 70
     8
 71
     3
 72
    10
 73
     6
 74
     0
 42
0.00000001
 43
0.00000001
 40
0.0
 40
0.0
 40
0.0
 40
0.0
 40
0.1601790552921523
 40
0.7197651707804853
 40
1.0
 40
1.0
 40
1.0
 40
1.0
 10
235.8795981886705
 20
129.563808254304
 30
0.0
 10
235.8788353985772
 20
129.5652004823303
 30
0.0
 10
235.8754077985035
 20
129.5714564640587
 30
0.0
 10
235.8899152633018
 20
129.5449491993307
 30
0.0
 10
235.9078448164196
 20
129.5123933441856
 30
0.0
 10
235.9138276217874
 20
129.5015299755543
 30
0.0
  0
SPLINE
  5
13B
330
1F
100
AcDbEntity
  8
0
  6
Continuous
 62
     7
370
    25
100
AcDbSpline
210
0.0
220
0.0
230
1.0
 70
     8
 71
     3
 72
     9
 73
     5
 74
     0
 42
0.00000001
 43
0.00000001
 40
0.0
 40
0.0
 40
0.0
 40
0.0
 40
0.5797912171256431
 40
1.0
 40
1.0
 40
1.0
 40
1.0
 10
249.2692704323078
 20
129.5015299755542
 30
0.0
 10
249.2816290356542
 20
129.5240036237954
 30
0.0
 10
249.3029446454486
 20
129.5627652462162
 30
0.0
 10
249.3033355879514
 20
129.5634996509744
 30
0.0
 10
249.3034998654247
 20
129.563808254304
 30
0.0
  0
SPLINE
  5
13C
330
1F
100
AcDbEntity
  8
0
  6
Continuous
 62
     7
370
    25
100
AcDbSpline
210
0.0
220
0.0
230
1.0
 70
     8
 71
     3
 72
    10
 73
     6
 74
     0
 42
0.00000001
 43
0.00000001
 40
0.0
 40
0.0
 40
0.0
 40
0.0
 40
0.1593935212994522
 40
0.7189934545690309
 40
1.0
 40
1.0
 40
1.0
 40
1.0
 10
231.8035074218852
 20
129.5638220550207
 30
0.0
 10
231.8042689488827
 20
129.5652119738473
 30
0.0
 10
231.8077040503986
 20
129.5714816297942
 30
0.0
 10
231.7932094279321
 20
129.5449976879704
 30
0.0
 10
231.7752680574394
 20
129.5124202839236
 30
0.0
 10
231.7692704323078
 20
129.5015299755542
 30
0.0
  0
LINE
  5
13D
330
1F
100
AcDbEntity
  8
0
  6
Continuous
 62
     7
370
    25
100
AcDbLine
 10
231.091549027
 20
128.3309129666
 30
0.0
 11
231.091549027
 21
127.1921288988
 31
0.0
  0
SPLINE
  5
13E
330
1F
100
AcDbEntity
  8
0
  6
Continuous
 62
     7
370
    25
100
AcDbSpline
210
0.0
220
0.0
230
1.0
 70
     8
 71
     3
 72
     9
 73
     5
 74
     0
 42
0.00000001
 43
0.00000001
 40
0.0
 40
0.0
 40
0.0
 40
0.0
 40
0.5789479223911498
 40
1.0
 40
1.0
 40
1.0
 40
1.0
 10
252.2621660359738
 20
108.5086343718882
 30
0.0
 10
252.2846074031664
 20
108.5209752622026
 30
0.0
 10
252.323369727591
 20
108.5422913250765
 30
0.0
 10
252.3241356304501
 20
108.5426994989909
 30
0.0
 10
252.3244581154401
 20
108.5428713614656
 30
0.0
  0
LINE
  5
13F
330
1F
100
AcDbEntity
  8
0
  6
Continuous
 62
     7
370
    25
100
AcDbLine
 10
249.9527649592
 20
107.8309129666
 30
0.0
 11
251.091549027
 21
107.8309129666
 31
0.0
  0
SPLINE
  5
140
330
1F
100
AcDbEntity
  8
0
  6
Continuous
 62
     7
370
    25
100
AcDbSpline
210
0.0
220
0.0
230
1.0
 70
     8
 71
     3
 72
     9
 73
     5
 74
     0
 42
0.00000001
 43
0.00000001
 40
0.0
 40
0.0
 40
0.0
 40
0.0
 40
0.5789479223839474
 40
0.9999999999999999
 40
0.9999999999999999
 40
0.9999999999999999
 40
0.9999999999999999
 10
231.7692704323078
 20
110.1602959577017
 30
0.0
 10
231.781611322622
 20
110.1378545905094
 30
0.0
 10
231.802927385496
 20
110.0990922660848
 30
0.0
 10
231.8033355594105
 20
110.0983263632255
 30
0.0
 10
231.8035074218852
 20
110.0980038782353
 30
0.0
  0
LINE
  5
141
330
1F
100
AcDbEntity
  8
0
  6
Continuous
 62
     7
370
    25
100
AcDbLine
 10
231.091549027
 20
112.4696970345
 30
0.0
 11
231.091549027
 21
111.3309129666
 31
0.0
  0
SPLINE
  5
142
330
1F
100
AcDbEntity
  8
0
  6
Continuous
 62
     7
370
    25
100
AcDbSpline
210
0.0
220
0.0
230
1.0
 70
     8
 71
     3
 72
    10
 73
     6
 74
     0
 42
0.00000001
 43
0.00000001
 40
0.0
 40
0.0
 40
0.0
 40
0.0
 40
0.1593935213061655
 40
0.7189934545756295
 40
1.0
 40
1.0
 40
1.0
 40
1.0
 10
232.858639938655
 20
108.5428713614656
 30
0.0
 10
232.8572500198284
 20
108.543632888463
 30
0.0
 10
232.8509803638815
 20
108.5470679899789
 30
0.0
 10
232.8774643057056
 20
108.5325733675123
 30
0.0
 10
232.9100417097522
 20
108.5146319970197
 30
0.0
 10
232.9209320181214
 20
108.5086343718882
 30
0.0
  0
LINE
  5
143
330
1F
100
AcDbEntity
  8
0
  6
Continuous
 62
     7
370
    25
100
AcDbLine
 10
234.091549027
 20
107.8309129666
 30
0.0
 11
235.2303330949
 21
107.8309129666
 31
0.0
  0
LINE
  5
144
330
1F
100
AcDbEntity
  8
0
  6
Continuous
 62
     7
370
    25
100
AcDbLine
 10
252.3291533341
 20
110.0933086596
 30
0.0
 11
252.262166036
 21
110.1602959577
 31
0.0
  0
LINE
  5
145
330
1F
100
AcDbEntity
  8
0
  6
Continuous
 62
     7
370
    25
100
AcDbLine
 10
232.9209320181
 20
110.1602959577
 30
0.0
 11
232.85394472
 21
110.0933086596
 31
0.0
  0
LINE
  5
146
330
1F
100
AcDbEntity
  8
0
  6
Continuous
 62
     7
370
    25
100
AcDbLine
 10
247.8306343597
 20
146.3309129666
 30
0.0
 11
247.8306343597
 21
146.9309129666
 31
0.0
  0
LINE
  5
147
330
1F
100
AcDbEntity
  8
0
  6
Continuous
 62
     7
370
    25
100
AcDbLine
 10
237.3524636944
 20
146.3309129666
 30
0.0
 11
247.8306343597
 21
146.3309129666
 31
0.0
  0
LINE
  5
148
330
1F
100
AcDbEntity
  8
0
  6
Continuous
 62
     7
370
    25
100
AcDbLine
 10
237.3524636944
 20
146.9309129666
 30
0.0
 11
237.3524636944
 21
146.3309129666
 31
0.0
  0
LINE
  5
149
330
1F
100
AcDbEntity
  8
0
  6
Continuous
 62
     7
370
    25
100
AcDbLine
 10
247.8306343597
 20
146.9309129666
 30
0.0
 11
237.3524636944
 21
146.9309129666
 31
0.0
  0
SPLINE
  5
14A
330
1F
100
AcDbEntity
  8
0
  6
Continuous
 62
     7
370
    25
100
AcDbSpline
210
0.0
220
0.0
230
1.0
 70
     8
 71
     3
 72
    15
 73
    11
 74
     0
 42
0.00000001
 43
0.00000001
 40
0.0
 40
0.0
 40
0.0
 40
0.0
 40
0.0090459071881971
 40
0.1032433785236816
 40
0.1542564497735189
 40
0.31331690267151
 40
0.5243720399414428
 40
0.6678060008509183
 40
0.9918332554187028
 40
1.0
 40
1.0
 40
1.0
 40
1.0
 10
247.8306343597057
 20
146.930912966628
 30
0.0
 10
247.830628667739
 20
146.9325940652124
 30
0.0
 10
247.8305637037882
 20
146.9517808967679
 30
0.0
 10
247.8285680173524
 20
146.9804751762879
 30
0.0
 10
247.8207510211359
 20
147.0311512162598
 30
0.0
 10
247.8035811973809
 20
147.0890275158367
 30
0.0
 10
247.7769973008134
 20
147.1338930305714
 30
0.0
 10
247.7391680023248
 20
147.171255413826
 30
0.0
 10
247.7108872223145
 20
147.1808014260954
 30
0.0
 10
247.6910560747832
 20
147.1809102902822
 30
0.0
 10
247.6905685406404
 20
147.180912966628
 30
0.0
  0
SPLINE
  5
14B
330
1F
100
AcDbEntity
  8
0
  6
Continuous
 62
     7
370
    25
100
AcDbSpline
210
0.0
220
0.0
230
1.0
 70
     8
 71
     3
 72
    15
 73
    11
 74
     0
 42
0.00000001
 43
0.00000001
 40
0.0
 40
0.0
 40
0.0
 40
0.0
 40
0.0081667445812973
 40
0.3321939991490804
 40
0.475627960058556
 40
0.6866830973284891
 40
0.8457435502264751
 40
0.8967566214763124
 40
0.9909540928118028
 40
1.0
 40
1.0
 40
1.0
 40
1.0
 10
237.4925295134548
 20
147.180912966628
 30
0.0
 10
237.4920419793119
 20
147.1809102902822
 30
0.0
 10
237.4722108317807
 20
147.1808014260954
 30
0.0
 10
237.4439300517704
 20
147.171255413826
 30
0.0
 10
237.4061007532818
 20
147.1338930305714
 30
0.0
 10
237.3795168567142
 20
147.0890275158367
 30
0.0
 10
237.3623470329593
 20
147.0311512162598
 30
0.0
 10
237.3545300367428
 20
146.9804751762879
 30
0.0
 10
237.3525343503069
 20
146.9517808967679
 30
0.0
 10
237.3524693863561
 20
146.9325940652124
 30
0.0
 10
237.3524636943895
 20
146.930912966628
 30
0.0
  0
LINE
  5
14C
330
1F
100
AcDbEntity
  8
0
  6
Continuous
 62
     7
370
    25
100
AcDbLine
 10
237.4925295135
 20
147.1809129666
 30
0.0
 11
247.6905685406
 21
147.1809129666
 31
0.0
  0
SPLINE
  5
14D
330
1F
100
AcDbEntity
  8
0
  6
Continuous
 62
     7
370
    25
100
AcDbSpline
210
0.0
220
0.0
230
1.0
 70
     8
 71
     3
 72
    15
 73
    11
 74
     0
 42
0.00000001
 43
0.00000001
 40
0.0
 40
0.0
 40
0.0
 40
0.0
 40
0.0089557228015919
 40
0.0999003359608209
 40
0.1531632460581751
 40
0.3125636920784904
 40
0.5249666935695061
 40
0.6689893599351777
 40
0.991915253381045
 40
1.0
 40
1.0
 40
1.0
 40
1.0
 10
237.1143234519959
 20
146.930912966628
 30
0.0
 10
237.1143392075745
 20
146.9325940922009
 30
0.0
 10
237.1145149597311
 20
146.9513469068253
 30
0.0
 10
237.1199439757506
 20
146.9801091359328
 30
0.0
 10
237.1414794594579
 20
147.0309962094011
 30
0.0
 10
237.1891848877227
 20
147.0891318595338
 30
0.0
 10
237.2615758327147
 20
147.1338397327172
 30
0.0
 10
237.3634949447323
 20
147.1711215561789
 30
0.0
 10
237.4388500361874
 20
147.1808007110166
 30
0.0
 10
237.4912496819107
 20
147.1809102902183
 30
0.0
 10
237.4925295134548
 20
147.180912966628
 30
0.0
  0
LINE
  5
14E
330
1F
100
AcDbEntity
  8
0
  6
Continuous
 62
     7
370
    25
100
AcDbLine
 10
237.114323452
 20
146.9309129666
 30
0.0
 11
237.3524636944
 21
146.9309129666
 31
0.0
  0
SPLINE
  5
14F
330
1F
100
AcDbEntity
  8
0
  6
Continuous
 62
     7
370
    25
100
AcDbSpline
210
0.0
220
0.0
230
1.0
 70
     8
 71
     3
 72
    15
 73
    11
 74
     0
 42
0.00000001
 43
0.00000001
 40
0.0
 40
0.0
 40
0.0
 40
0.0
 40
0.0080847466189582
 40
0.3310106400648243
 40
0.4750333064304948
 40
0.6874363079215142
 40
0.8468367539418303
 40
0.9000996640391847
 40
0.9910442771984082
 40
1.0
 40
1.0
 40
1.0
 40
1.0
 10
247.6905685406404
 20
147.180912966628
 30
0.0
 10
247.6918483721845
 20
147.1809102902183
 30
0.0
 10
247.7442480179077
 20
147.1808007110166
 30
0.0
 10
247.8196031093628
 20
147.1711215561789
 30
0.0
 10
247.9215222213805
 20
147.1338397327172
 30
0.0
 10
247.9939131663724
 20
147.0891318595338
 30
0.0
 10
248.0416185946372
 20
147.0309962094011
 30
0.0
 10
248.0631540783446
 20
146.9801091359328
 30
0.0
 10
248.0685830943641
 20
146.9513469068253
 30
0.0
 10
248.0687588465206
 20
146.9325940922009
 30
0.0
 10
248.0687746020992
 20
146.930912966628
 30
0.0
  0
LINE
  5
150
330
1F
100
AcDbEntity
  8
0
  6
Continuous
 62
     7
370
    25
100
AcDbLine
 10
247.8306343597
 20
146.9309129666
 30
0.0
 11
248.0687746021
 21
146.9309129666
 31
0.0
  0
LINE
  5
151
330
1F
100
AcDbEntity
  8
0
  6
Continuous
 62
     7
370
    25
100
AcDbLine
 10
248.0687746021
 20
146.9309129666
 30
0.0
 11
248.0687746021
 21
146.3309129666
 31
0.0
  0
LINE
  5
152
330
1F
100
AcDbEntity
  8
0
  6
Continuous
 62
     7
370
    25
100
AcDbLine
 10
248.0687746021
 20
146.3309129666
 30
0.0
 11
247.8306343597
 21
146.3309129666
 31
0.0
  0
LINE
  5
153
330
1F
100
AcDbEntity
  8
0
  6
Continuous
 62
     7
370
    25
100
AcDbLine
 10
237.114323452
 20
146.3309129666
 30
0.0
 11
237.114323452
 21
146.9309129666
 31
0.0
  0
LINE
  5
154
330
1F
100
AcDbEntity
  8
0
  6
Continuous
 62
     7
370
    25
100
AcDbLine
 10
237.3524636944
 20
146.3309129666
 30
0.0
 11
237.114323452
 21
146.3309129666
 31
0.0
  0
LINE
  5
155
330
1F
100
AcDbEntity
  8
0
  6
Continuous
 62
     7
370
    25
100
AcDbLine
 10
248.341549027
 20
146.9309129666
 30
0.0
 11
248.341549027
 21
147.1809129666
 31
0.0
  0
LINE
  5
156
330
1F
100
AcDbEntity
  8
0
  6
Continuous
 62
     7
370
    25
100
AcDbLine
 10
248.341549027
 20
146.9309129666
 30
0.0
 11
248.0687746021
 21
146.9309129666
 31
0.0
  0
LINE
  5
157
330
1F
100
AcDbEntity
  8
0
  6
Continuous
 62
     7
370
    25
100
AcDbLine
 10
247.6905685406
 20
147.1809129666
 30
0.0
 11
248.341549027
 21
147.1809129666
 31
0.0
  0
LINE
  5
158
330
1F
100
AcDbEntity
  8
0
  6
Continuous
 62
     7
370
    25
100
AcDbLine
 10
237.114323452
 20
146.9309129666
 30
0.0
 11
236.841549027
 21
146.9309129666
 31
0.0
  0
LINE
  5
159
330
1F
100
AcDbEntity
  8
0
  6
Continuous
 62
     7
370
    25
100
AcDbLine
 10
236.841549027
 20
147.1809129666
 30
0.0
 11
236.841549027
 21
146.9309129666
 31
0.0
  0
LINE
  5
15A
330
1F
100
AcDbEntity
  8
0
  6
Continuous
 62
     7
370
    25
100
AcDbLine
 10
236.841549027
 20
147.1809129666
 30
0.0
 11
237.4925295135
 21
147.1809129666
 31
0.0
  0
LINE
  5
15B
330
1F
100
AcDbEntity
  8
0
  6
Continuous
 62
     7
370
    25
100
AcDbLine
 10
248.341549027
 20
146.9309129666
 30
0.0
 11
248.591549027
 21
146.9309129666
 31
0.0
  0
ARC
  5
15C
330
1F
100
AcDbEntity
  8
0
  6
Continuous
 62
     7
370
    25
100
AcDbCircle
 10
248.341549027
 20
146.9309129666
 30
0.0
 40
0.2500000000000284
100
AcDbArc
 50
0.0
 51
90.0
  0
LINE
  5
15D
330
1F
100
AcDbEntity
  8
0
  6
Continuous
 62
     7
370
    25
100
AcDbLine
 10
236.841549027
 20
146.9309129666
 30
0.0
 11
236.841549027
 21
146.3309129666
 31
0.0
  0
LINE
  5
15E
330
1F
100
AcDbEntity
  8
0
  6
Continuous
 62
     7
370
    25
100
AcDbLine
 10
236.841549027
 20
146.3309129666
 30
0.0
 11
237.114323452
 21
146.3309129666
 31
0.0
  0
LINE
  5
15F
330
1F
100
AcDbEntity
  8
0
  6
Continuous
 62
     7
370
    25
100
AcDbLine
 10
248.341549027
 20
146.3309129666
 30
0.0
 11
248.341549027
 21
146.9309129666
 31
0.0
  0
LINE
  5
160
330
1F
100
AcDbEntity
  8
0
  6
Continuous
 62
     7
370
    25
100
AcDbLine
 10
248.591549027
 20
146.9309129666
 30
0.0
 11
248.591549027
 21
146.3309129666
 31
0.0
  0
LINE
  5
161
330
1F
100
AcDbEntity
  8
0
  6
Continuous
 62
     7
370
    25
100
AcDbLine
 10
248.591549027
 20
146.3309129666
 30
0.0
 11
248.341549027
 21
146.3309129666
 31
0.0
  0
LINE
  5
162
330
1F
100
AcDbEntity
  8
0
  6
Continuous
 62
     7
370
    25
100
AcDbLine
 10
236.591549027
 20
146.3309129666
 30
0.0
 11
236.591549027
 21
146.9309129666
 31
0.0
  0
LINE
  5
163
330
1F
100
AcDbEntity
  8
0
  6
Continuous
 62
     7
370
    25
100
AcDbLine
 10
236.591549027
 20
146.9309129666
 30
0.0
 11
236.841549027
 21
146.9309129666
 31
0.0
  0
LINE
  5
164
330
1F
100
AcDbEntity
  8
0
  6
Continuous
 62
     7
370
    25
100
AcDbLine
 10
236.841549027
 20
146.3309129666
 30
0.0
 11
236.591549027
 21
146.3309129666
 31
0.0
  0
LINE
  5
165
330
1F
100
AcDbEntity
  8
0
  6
Continuous
 62
     7
370
    25
100
AcDbLine
 10
248.0687746021
 20
146.3309129666
 30
0.0
 11
248.341549027
 21
146.3309129666
 31
0.0
  0
ARC
  5
166
330
1F
100
AcDbEntity
  8
0
  6
Continuous
 62
     7
370
    25
100
AcDbCircle
 10
236.841549027
 20
146.9309129666
 30
0.0
 40
0.2500000000000284
100
AcDbArc
 50
90.0
 51
180.0
  0
LINE
  5
167
330
1F
100
AcDbEntity
  8
0
  6
Continuous
 62
     7
370
    25
100
AcDbLine
 10
237.591549027
 20
147.1809129666
 30
0.0
 11
237.591549027
 21
147.1909129666
 31
0.0
  0
LINE
  5
168
330
1F
100
AcDbEntity
  8
0
  6
Continuous
 62
     7
370
    25
100
AcDbLine
 10
237.591549027
 20
147.1909129666
 30
0.0
 11
247.591549027
 21
147.1909129666
 31
0.0
  0
LINE
  5
169
330
1F
100
AcDbEntity
  8
0
  6
Continuous
 62
     7
370
    25
100
AcDbLine
 10
247.591549027
 20
147.1809129666
 30
0.0
 11
247.591549027
 21
147.1909129666
 31
0.0
  0
LINE
  5
16A
330
1F
100
AcDbEntity
  8
0
  6
Continuous
 62
     7
370
    25
100
AcDbLine
 10
240.591549027
 20
130.3309129666
 30
0.0
 11
249.591549027
 21
130.3309129666
 31
0.0
  0
LINE
  5
16B
330
1F
100
AcDbEntity
  8
0
  6
Continuous
 62
     7
370
    25
100
AcDbLine
 10
240.591549027
 20
130.3687298904
 30
0.0
 11
240.591549027
 21
130.3309129666
 31
0.0
  0
SPLINE
  5
16C
330
1F
100
AcDbEntity
  8
0
  6
Continuous
 62
     7
370
    25
100
AcDbSpline
210
0.0
220
0.0
230
1.0
 70
     8
 71
     3
 72
     9
 73
     5
 74
     0
 42
0.00000001
 43
0.00000001
 40
0.0
 40
0.0
 40
0.0
 40
0.0
 40
0.4875141023677128
 40
0.9999999999999999
 40
0.9999999999999999
 40
0.9999999999999999
 40
0.9999999999999999
 10
240.4356037766204
 20
130.3309129666281
 30
0.0
 10
240.461910350543
 20
130.3326403125998
 30
0.0
 10
240.5158709924912
 20
130.3361834838912
 30
0.0
 10
240.565906523186
 20
130.3577019698405
 30
0.0
 10
240.5915490270476
 20
130.368729890428
 30
0.0
  0
SPLINE
  5
16D
330
1F
100
AcDbEntity
  8
0
  6
Continuous
 62
     7
370
    25
100
AcDbSpline
210
0.0
220
0.0
230
1.0
 70
     8
 71
     3
 72
    17
 73
    13
 74
     0
 42
0.00000001
 43
0.00000001
 40
0.0
 40
0.0
 40
0.0
 40
0.0
 40
0.3241697628029873
 40
0.5422758463620719
 40
0.689509052693928
 40
0.7894036290694505
 40
0.8577090008137825
 40
0.9049823971474137
 40
0.9551712229700868
 40
0.9753097783197817
 40
0.9919572060138848
 40
1.0
 40
1.0
 40
1.0
 40
1.0
 10
238.1170021429654
 20
138.3309129666256
 30
0.0
 10
238.2597175029826
 20
137.4182994640199
 30
0.0
 10
238.4984538119246
 20
135.8916664577586
 30
0.0
 10
238.8780410063762
 20
133.9648935554776
 30
0.0
 10
239.1871752147233
 20
132.6772580845449
 30
0.0
 10
239.4432887429234
 20
131.8181061178231
 30
0.0
 10
239.6575997458184
 20
131.2446382294457
 30
0.0
 10
239.8608339668463
 20
130.8231060754158
 30
0.0
 10
240.0453792313889
 20
130.5426135326203
 30
0.0
 10
240.2314503177571
 20
130.3870648640396
 30
0.0
 10
240.346660917013
 20
130.3364542648422
 30
0.0
 10
240.4137497224858
 20
130.3322745130375
 30
0.0
 10
240.4356037766204
 20
130.3309129666281
 30
0.0
  0
LINE
  5
16E
330
1F
100
AcDbEntity
  8
0
  6
Continuous
 62
     7
370
    25
100
AcDbLine
 10
238.117002143
 20
138.3309129666
 30
0.0
 11
250.041549027
 21
138.3309129666
 31
0.0
  0
SPLINE
  5
16F
330
1F
100
AcDbEntity
  8
0
  6
Continuous
 62
     7
370
    25
100
AcDbSpline
210
0.0
220
0.0
230
1.0
 70
     8
 71
     3
 72
     9
 73
     5
 74
     0
 42
0.00000001
 43
0.00000001
 40
0.0
 40
0.0
 40
0.0
 40
0.0
 40
0.4978401817595073
 40
1.0
 40
1.0
 40
1.0
 40
1.0
 10
238.8772128987272
 20
139.3256565445949
 30
0.0
 10
238.7408909903565
 20
139.1691453619023
 30
0.0
 10
238.4670643420356
 20
138.8547649875833
 30
0.0
 10
238.234025090939
 20
138.506032439557
 30
0.0
 10
238.1170021429654
 20
138.3309129666256
 30
0.0
  0
LINE
  5
170
330
1F
100
AcDbEntity
  8
0
  6
Continuous
 62
     7
370
    25
100
AcDbLine
 10
237.3677468527
 20
146.3309129666
 30
0.0
 11
235.6396081887
 21
139.3256565446
 31
0.0
  0
LINE
  5
171
330
1F
100
AcDbEntity
  8
0
  6
Continuous
 62
     7
370
    25
100
AcDbLine
 10
247.8306343597
 20
146.3309129666
 30
0.0
 11
237.3677468527
 21
146.3309129666
 31
0.0
  0
SPLINE
  5
172
330
1F
100
AcDbEntity
  8
0
  6
Continuous
 62
     7
370
    25
100
AcDbSpline
210
0.0
220
0.0
230
1.0
 70
     8
 71
     3
 72
    14
 73
    10
 74
     0
 42
0.00000001
 43
0.00000001
 40
0.0
 40
0.0
 40
0.0
 40
0.0
 40
0.1576095309202822
 40
0.3152382602707094
 40
0.4726926441579498
 40
0.6301650083177254
 40
0.7907313191165901
 40
0.9513050385928076
 40
1.0
 40
1.0
 40
1.0
 40
1.0
 10
236.0915490270476
 20
130.330912966628
 30
0.0
 10
236.0249780122655
 20
130.5444147551054
 30
0.0
 10
235.8918278736806
 20
130.9714443387309
 30
0.0
 10
235.5632609119299
 20
131.5566914175872
 30
0.0
 10
235.1498712711979
 20
132.0788459584096
 30
0.0
 10
234.6541963522533
 20
132.5278240858295
 30
0.0
 10
234.0879066469687
 20
132.8871058176359
 30
0.0
 10
233.6116559905757
 20
133.0916719967371
 30
0.0
 10
233.3314614223829
 20
133.1724665450884
 30
0.0
 10
233.2662626376099
 20
133.1912667181351
 30
0.0
  0
LINE
  5
173
330
1F
100
AcDbEntity
  8
0
  6
Continuous
 62
     7
370
    25
100
AcDbLine
 10
233.2662626376
 20
133.1912667181
 30
0.0
 11
227.4865057878
 21
134.7598881586
 31
0.0
  0
SPLINE
  5
174
330
1F
100
AcDbEntity
  8
0
  6
Continuous
 62
     7
370
    25
100
AcDbSpline
210
0.0
220
0.0
230
1.0
 70
     8
 71
     3
 72
    11
 73
     7
 74
     0
 42
0.00000001
 43
0.00000001
 40
0.0
 40
0.0
 40
0.0
 40
0.0
 40
0.2488466353289361
 40
0.4976946020535204
 40
0.7488461225871278
 40
1.0
 40
1.0
 40
1.0
 40
1.0
 10
220.4161121655109
 20
136.0830886596035
 30
0.0
 10
221.0105482146472
 20
136.0135642831099
 30
0.0
 10
222.1994234933106
 20
135.8745151581487
 30
0.0
 10
223.9741481640196
 20
135.5741864200234
 30
0.0
 10
225.740728805762
 20
135.2122768017683
 30
0.0
 10
226.9045783067817
 20
134.9106848447037
 30
0.0
 10
227.4865057877547
 20
134.759888158618
 30
0.0
  0
LINE
  5
175
330
1F
100
AcDbEntity
  8
0
  6
Continuous
 62
     7
370
    25
100
AcDbLine
 10
220.4161121655
 20
136.0830886596
 30
0.0
 11
220.4161121655
 21
139.3256565446
 31
0.0
  0
LINE
  5
176
330
1F
100
AcDbEntity
  8
0
  6
Continuous
 62
     7
370
    25
100
AcDbLine
 10
220.4161121655
 20
139.3256565446
 30
0.0
 11
238.8772128987
 21
139.3256565446
 31
0.0
  0
LINE
  5
177
330
1F
100
AcDbEntity
  8
0
  6
Continuous
 62
     7
370
    25
100
AcDbLine
 10
240.4356037766
 20
130.3309129666
 30
0.0
 11
236.091549027
 21
130.3309129666
 31
0.0
  0
LINE
  5
178
330
1F
100
AcDbEntity
  8
0
  6
Continuous
 62
     7
370
    25
100
AcDbLine
 10
240.591549027
 20
130.3687298904
 30
0.0
 11
240.5847496691
 21
130.3309129666
 31
0.0
  0
LINE
  5
179
330
1F
100
AcDbEntity
  8
0
  6
Continuous
 62
     7
370
    25
100
AcDbLine
 10
240.5847496691
 20
130.3309129666
 30
0.0
 11
240.4356037766
 21
130.3309129666
 31
0.0
  0
LINE
  5
17A
330
1F
100
AcDbEntity
  8
0
  6
Continuous
 62
     7
370
    25
100
AcDbLine
 10
240.591549027
 20
130.3309129666
 30
0.0
 11
240.5847496691
 21
130.3309129666
 31
0.0
  0
LINE
  5
17B
330
1F
100
AcDbEntity
  8
0
  6
Continuous
 62
     7
370
    25
100
AcDbLine
 10
202.591549027
 20
148.3309129666
 30
0.0
 11
220.4161121655
 21
148.3309129666
 31
0.0
  0
LINE
  5
17C
330
1F
100
AcDbEntity
  8
0
  6
Continuous
 62
     7
370
    25
100
AcDbLine
 10
220.4161121655
 20
148.3309129666
 30
0.0
 11
220.4161121655
 21
139.3256565446
 31
0.0
  0
LINE
  5
17D
330
1F
100
AcDbEntity
  8
0
  6
Continuous
 62
     7
370
    25
100
AcDbLine
 10
215.6998811693
 20
136.3309129666
 30
0.0
 11
207.591549027
 21
136.3309129666
 31
0.0
  0
ARC
  5
17E
330
1F
100
AcDbEntity
  8
0
  6
Continuous
 62
     7
370
    25
100
AcDbCircle
 10
207.591549027
 20
141.3309129666
 30
0.0
 40
5.0
100
AcDbArc
 50
180.0
 51
270.0
  0
LINE
  5
17F
330
1F
100
AcDbEntity
  8
0
  6
Continuous
 62
     7
370
    25
100
AcDbLine
 10
202.591549027
 20
141.3309129666
 30
0.0
 11
202.591549027
 21
148.3309129666
 31
0.0
  0
ARC
  5
180
330
1F
100
AcDbEntity
  8
0
  6
Continuous
 62
     7
370
    25
100
AcDbCircle
 10
215.6998811693
 20
91.3307837124
 30
0.0
 40
45.00012925418373
100
AcDbArc
 50
83.9840777705
 51
90.0
  0
LINE
  5
181
330
1F
100
AcDbEntity
  8
0
  6
Continuous
 62
     7
370
    25
100
AcDbLine
 10
220.4161121655
 20
148.3309129666
 30
0.0
 11
222.591549027
 21
148.3309129666
 31
0.0
  0
LINE
  5
182
330
1F
100
AcDbEntity
  8
0
  6
Continuous
 62
     7
370
    25
100
AcDbLine
 10
222.591549027
 20
148.3309129666
 30
0.0
 11
222.591549027
 21
146.34986849
 31
0.0
  0
ARC
  5
183
330
1F
100
AcDbEntity
  8
0
  6
Continuous
 62
     7
370
    25
100
AcDbCircle
 10
228.591549027
 20
146.34986849
 30
0.0
 40
6.000000000000003
100
AcDbArc
 50
180.0
 51
275.5801667845
  0
ARC
  5
184
330
1F
100
AcDbEntity
  8
0
  6
Continuous
 62
     7
370
    25
100
AcDbCircle
 10
228.2025954628
 20
150.3309129666
 30
0.0
 40
10.00000000000848
100
AcDbArc
 50
275.5801667845
 51
336.4218215217
  0
LINE
  5
185
330
1F
100
AcDbEntity
  8
0
  6
Continuous
 62
     7
370
    25
100
AcDbLine
 10
236.091549027
 20
130.3309129666
 30
0.0
 11
235.591549027
 21
130.3309129666
 31
0.0
  0
LINE
  5
186
330
1F
100
AcDbEntity
  8
0
  6
Continuous
 62
     7
370
    25
100
AcDbLine
 10
237.3524636944
 20
146.3309129666
 30
0.0
 11
237.3677468527
 21
146.3309129666
 31
0.0
  0
LINE
  5
187
330
1F
100
AcDbEntity
  8
0
  6
Continuous
 62
     7
370
    25
100
AcDbLine
 10
186.6195290687
 20
116.4661749466
 30
0.0
 11
186.6195290687
 21
116.3974638436
 31
0.0
  0
LINE
  5
188
330
1F
100
AcDbEntity
  8
0
  6
Continuous
 62
     7
370
    25
100
AcDbLine
 10
186.6195290687
 20
123.2643620897
 30
0.0
 11
186.6195290687
 21
116.4661749466
 31
0.0
  0
LINE
  5
189
330
1F
100
AcDbEntity
  8
0
  6
Continuous
 62
     7
370
    25
100
AcDbLine
 10
212.2134211046
 20
119.8309129666
 30
0.0
 11
212.2134211046
 21
111.9809129666
 31
0.0
  0
LINE
  5
18A
330
1F
100
AcDbEntity
  8
0
  6
Continuous
 62
     7
370
    25
100
AcDbLine
 10
212.2134211046
 20
127.6809129666
 30
0.0
 11
212.2134211046
 21
119.8309129666
 31
0.0
  0
LINE
  5
18B
330
1F
100
AcDbEntity
  8
0
  6
Continuous
 62
     7
370
    25
100
AcDbLine
 10
224.6134211046
 20
111.9809129666
 30
0.0
 11
224.6134211046
 21
127.6809129666
 31
0.0
  0
SPLINE
  5
18C
330
1F
100
AcDbEntity
  8
0
  6
Continuous
 62
     7
370
    25
100
AcDbSpline
210
0.0
220
0.0
230
1.0
 70
     8
 71
     3
 72
    31
 73
    27
 74
     0
 42
0.00000001
 43
0.00000001
 40
0.0
 40
0.0
 40
0.0
 40
0.0
 40
0.0092784630556365
 40
0.0517192933660312
 40
0.0941873872206273
 40
0.1321094401313915
 40
0.1702216430359423
 40
0.208212957939834
 40
0.2154757385486042
 40
0.2764913824902946
 40
0.3375062491118157
 40
0.3848265536080827
 40
0.4320516657597603
 40
0.4692207297592463
 40
0.5063508757973232
 40
0.5434387495777621
 40
0.5805759265711807
 40
0.6303390297747504
 40
0.6801943069928552
 40
0.7334740488701086
 40
0.7867450673776935
 40
0.8315894531416896
 40
0.8763988786179612
 40
0.9190747647664154
 40
0.9617154813038828
 40
1.0
 40
1.0
 40
1.0
 40
1.0
 10
236.6921989620119
 20
129.3303609870717
 30
0.0
 10
236.6929440001139
 20
129.3297297208316
 30
0.0
 10
236.697096934057
 20
129.3262109652287
 30
0.0
 10
236.7673797217383
 20
129.2662842230797
 30
0.0
 10
236.9586998251897
 20
129.1058932740388
 30
0.0
 10
237.2336210501511
 20
128.879598693523
 30
0.0
 10
237.5660381995448
 20
128.6142288903651
 30
0.0
 10
237.8531013411525
 20
128.3941501227206
 30
0.0
 10
238.249048748464
 20
128.1003511522483
 30
0.0
 10
238.7846679951058
 20
127.7199287738562
 30
0.0
 10
239.6004214820185
 20
127.2219042937008
 30
0.0
 10
240.4419806396775
 20
126.809786614421
 30
0.0
 10
241.2253877096642
 20
126.5327874531373
 30
0.0
 10
241.9983725543271
 20
126.3813703097664
 30
0.0
 10
242.7289628683188
 20
126.343220838484
 30
0.0
 10
243.4536853216391
 20
126.4225527295871
 30
0.0
 10
244.2270549412676
 20
126.615055937464
 30
0.0
 10
245.0174497631256
 20
126.932215406347
 30
0.0
 10
245.8142543113065
 20
127.3574939453465
 30
0.0
 10
246.5416214125275
 20
127.8199546511456
 30
0.0
 10
247.1558272669107
 20
128.2603680421466
 30
0.0
 10
247.6492854382692
 20
128.6388271768892
 30
0.0
 10
248.0243539435756
 20
128.9405982406995
 30
0.0
 10
248.2945422443737
 20
129.164187228875
 30
0.0
 10
248.4629951103836
 20
129.3066731290046
 30
0.0
 10
248.4784094954758
 20
129.3196919457214
 30
0.0
 10
248.4857018105683
 20
129.3258509532368
 30
0.0
  0
LINE
  5
18D
330
1F
100
AcDbEntity
  8
FORMAT
100
AcDbLine
 10
236.8420107232
 20
97.1961386892
 30
0.0
 11
236.525299027
 21
107.3309129666
 31
0.0
  0
LINE
  5
18E
330
1F
100
AcDbEntity
  8
FORMAT
100
AcDbLine
 10
248.3410873309
 20
97.1961386892
 30
0.0
 11
248.657799027
 21
107.3309129666
 31
0.0
  0
LINE
  5
18F
330
1F
100
AcDbEntity
  8
FORMAT
100
AcDbLine
 10
249.334111527
 20
107.3309129666
 30
0.0
 11
235.848986527
 21
107.3309129666
 31
0.0
  0
LINE
  5
190
330
1F
100
AcDbEntity
  8
FORMAT
100
AcDbLine
 10
218.235549027
 20
125.5534129666
 30
0.0
 11
227.091549027
 21
125.5534129666
 31
0.0
  0
LINE
  5
191
330
1F
100
AcDbEntity
  8
FORMAT
100
AcDbLine
 10
218.235549027
 20
114.1084129666
 30
0.0
 11
227.091549027
 21
114.1084129666
 31
0.0
  0
LINE
  5
192
330
1F
100
AcDbEntity
  8
FORMAT
100
AcDbLine
 10
227.091549027
 20
113.2524129666
 30
0.0
 11
227.091549027
 21
126.4094129666
 31
0.0
  0
LINE
  5
193
330
1F
100
AcDbEntity
  8
FORMAT
  6
CENTERX2
370
    18
100
AcDbLine
 10
256.6015371959
 20
119.8309129666
 30
0.0
 11
181.9134211046
 21
119.8309129666
 31
0.0
  0
LINE
  5
194
330
1F
100
AcDbEntity
  8
FORMAT
  6
CENTERX2
370
    18
100
AcDbLine
 10
242.591549027
 20
94.4345788405
 30
0.0
 11
242.591549027
 21
148.7436311712
 31
0.0
  0
LINE
  5
195
330
1F
100
AcDbEntity
  8
0
  6
Continuous
 62
     7
370
    25
100
AcDbLine
 10
313.153806224
 20
107.8309129666
 30
0.0
 11
313.4474416655
 21
98.4345788405
 31
0.0
  0
LINE
  5
196
330
1F
100
AcDbEntity
  8
0
  6
Continuous
 62
     7
370
    25
100
AcDbLine
 10
326.3765457826
 20
98.4345788405
 30
0.0
 11
326.670181224
 21
107.8309129666
 31
0.0
  0
LINE
  5
197
330
1F
100
AcDbEntity
  8
0
  6
Continuous
 62
     7
370
    25
100
AcDbLine
 10
313.4474416655
 20
98.4345788405
 30
0.0
 11
314.661993724
 21
96.3309129666
 31
0.0
  0
LINE
  5
198
330
1F
100
AcDbEntity
  8
0
  6
Continuous
 62
     7
370
    25
100
AcDbLine
 10
325.161993724
 20
96.3309129666
 30
0.0
 11
326.3765457826
 21
98.4345788405
 31
0.0
  0
SPLINE
  5
199
330
1F
100
AcDbEntity
  8
0
  6
Continuous
 62
     7
370
    25
100
AcDbSpline
210
0.0
220
0.0
230
1.0
 70
     8
 71
     3
 72
     9
 73
     5
 74
     0
 42
0.00000001
 43
0.00000001
 40
0.0
 40
0.0
 40
0.0
 40
0.0
 40
0.1782450055607364
 40
1.0
 40
1.0
 40
1.0
 40
1.0
 10
325.821622797849
 20
126.2339416062679
 30
0.0
 10
325.8199233368174
 20
126.2414928908107
 30
0.0
 10
325.8103889264351
 20
126.2838575254835
 30
0.0
 10
325.8135759257191
 20
126.32759124799
 30
0.0
 10
325.816194858298
 20
126.3635296528851
 30
0.0
  0
SPLINE
  5
19A
330
1F
100
AcDbEntity
  8
0
  6
Continuous
 62
     7
370
    25
100
AcDbSpline
210
0.0
220
0.0
230
1.0
 70
     8
 71
     3
 72
     9
 73
     5
 74
     0
 42
0.00000001
 43
0.00000001
 40
0.0
 40
0.0
 40
0.0
 40
0.0
 40
0.6043652625679082
 40
1.0
 40
1.0
 40
1.0
 40
1.0
 10
314.0094655764297
 20
126.3702040150059
 30
0.0
 10
314.0110994663478
 20
126.3424696837343
 30
0.0
 10
314.0138029472051
 20
126.2965796682263
 30
0.0
 10
314.0052944094295
 20
126.2515176748001
 30
0.0
 10
314.0019281363207
 20
126.2336895848627
 30
0.0
  0
LINE
  5
19B
330
1F
100
AcDbEntity
  8
0
  6
Continuous
 62
     7
370
    25
100
AcDbLine
 10
325.811993724
 20
126.3641392198
 30
0.0
 11
325.811993724
 21
130.3309129666
 31
0.0
  0
LINE
  5
19C
330
1F
100
AcDbEntity
  8
0
  6
Continuous
 62
     7
370
    25
100
AcDbLine
 10
314.011993724
 20
130.3309129666
 30
0.0
 11
314.011993724
 21
126.3694416305
 31
0.0
  0
ARC
  5
19D
330
1F
100
AcDbEntity
  8
0
  6
Continuous
 62
     7
370
    25
100
AcDbCircle
 10
314.661993724
 20
146.9309129666
 30
0.0
 40
0.2500000000000568
100
AcDbArc
 50
90.0
 51
180.0
  0
ARC
  5
19E
330
1F
100
AcDbEntity
  8
0
  6
Continuous
 62
     7
370
    25
100
AcDbCircle
 10
325.161993724
 20
146.9309129666
 30
0.0
 40
0.2500000000000284
100
AcDbArc
 50
0.0
 51
90.0
  0
LINE
  5
19F
330
1F
100
AcDbEntity
  8
0
  6
Continuous
 62
     7
370
    25
100
AcDbLine
 10
325.411993724
 20
146.3309129666
 30
0.0
 11
325.411993724
 21
146.9309129666
 31
0.0
  0
LINE
  5
1A0
330
1F
100
AcDbEntity
  8
0
  6
Continuous
 62
     7
370
    25
100
AcDbLine
 10
314.411993724
 20
146.9309129666
 30
0.0
 11
314.411993724
 21
146.3309129666
 31
0.0
  0
LINE
  5
1A1
330
1F
100
AcDbEntity
  8
0
  6
Continuous
 62
     7
370
    25
100
AcDbLine
 10
327.361993724
 20
138.3309129666
 30
0.0
 11
325.411993724
 21
146.3309129666
 31
0.0
  0
LINE
  5
1A2
330
1F
100
AcDbEntity
  8
0
  6
Continuous
 62
     7
370
    25
100
AcDbLine
 10
314.411993724
 20
146.3309129666
 30
0.0
 11
312.461993724
 21
138.3309129666
 31
0.0
  0
LINE
  5
1A3
330
1F
100
AcDbEntity
  8
0
  6
Continuous
 62
     7
370
    25
100
AcDbLine
 10
312.461993724
 20
138.3309129666
 30
0.0
 11
312.911993724
 21
130.3309129666
 31
0.0
  0
LINE
  5
1A4
330
1F
100
AcDbEntity
  8
0
  6
Continuous
 62
     7
370
    25
100
AcDbLine
 10
326.911993724
 20
130.3309129666
 30
0.0
 11
327.361993724
 21
138.3309129666
 31
0.0
  0
CIRCLE
  5
1A5
330
1F
100
AcDbEntity
  8
0
  6
Continuous
 62
     7
370
    25
100
AcDbCircle
 10
319.911993724
 20
119.8309129666
 30
0.0
 40
8.25
  0
SPLINE
  5
1A6
330
1F
100
AcDbEntity
  8
0
  6
Continuous
 62
     7
370
    25
100
AcDbSpline
210
0.0
220
0.0
230
1.0
 70
     8
 71
     3
 72
    10
 73
     6
 74
     0
 42
0.00000001
 43
0.00000001
 40
0.0
 40
0.0
 40
0.0
 40
0.0
 40
0.5
 40
0.5
 40
1.0
 40
1.0
 40
1.0
 40
1.0
 10
311.411993724024
 20
115.212110813111
 30
0.0
 10
311.411993724024
 20
115.1262237513085
 30
0.0
 10
311.4347861733538
 20
115.0388165423284
 30
0.0
 10
311.5227288774469
 20
114.8861800997347
 30
0.0
 10
311.5875866511207
 20
114.8220570547891
 30
0.0
 10
311.6619937240241
 20
114.7790981112188
 30
0.0
  0
SPLINE
  5
1A7
330
1F
100
AcDbEntity
  8
0
  6
Continuous
 62
     7
370
    25
100
AcDbSpline
210
0.0
220
0.0
230
1.0
 70
    24
 71
     3
 72
    14
 73
    10
 74
     0
 42
0.00000001
 43
0.00000001
 40
0.0
 40
0.0
 40
0.0
 40
0.0
 40
0.25
 40
0.25
 40
0.5
 40
0.5
 40
0.75
 40
0.75
 40
1.0
 40
1.0
 40
1.0
 40
1.0
 10
311.411993724024
 20
115.2121108131109
 30
0.0
 10
311.411993724024
 20
115.9664908737609
 30
0.0
 10
311.411993724024
 20
116.7359320412264
 30
0.0
 10
311.411993724024
 20
118.2764434021676
 30
0.0
 10
311.411993724024
 20
119.0512977821746
 30
0.0
 10
311.411993724024
 20
120.6116587370601
 30
0.0
 10
311.411993724024
 20
121.4021149298452
 30
0.0
 10
311.411993724024
 20
122.9443945926537
 30
0.0
 10
311.411993724024
 20
123.7017853458548
 30
0.0
 10
311.411993724024
 20
124.449715120145
 30
0.0
  0
SPLINE
  5
1A8
330
1F
100
AcDbEntity
  8
0
  6
Continuous
 62
     7
370
    25
100
AcDbSpline
210
0.0
220
0.0
230
1.0
 70
     8
 71
     3
 72
    10
 73
     6
 74
     0
 42
0.00000001
 43
0.00000001
 40
0.0
 40
0.0
 40
0.0
 40
0.0
 40
0.5
 40
0.5
 40
1.0
 40
1.0
 40
1.0
 40
1.0
 10
311.6619937240241
 20
124.8827278220372
 30
0.0
 10
311.5876133466467
 20
124.839784291136
 30
0.0
 10
311.523312707861
 20
124.7763418465119
 30
0.0
 10
311.435097023078
 20
124.6238630093929
 30
0.0
 10
311.411993724024
 20
124.5356330072856
 30
0.0
 10
311.411993724024
 20
124.449715120145
 30
0.0
  0
SPLINE
  5
1A9
330
1F
100
AcDbEntity
  8
0
  6
Continuous
 62
     7
370
    25
100
AcDbSpline
210
0.0
220
0.0
230
1.0
 70
    24
 71
     3
 72
    16
 73
    12
 74
     0
 42
0.00000001
 43
0.00000001
 40
0.0
 40
0.0
 40
0.0
 40
0.0
 40
0.2500000000000001
 40
0.2500000000000001
 40
0.5000000000000001
 40
0.5000000000000001
 40
0.6250000000000001
 40
0.6250000000000001
 40
0.7500000000000002
 40
0.7500000000000002
 40
1.0
 40
1.0
 40
1.0
 40
1.0
 10
319.6619937240241
 20
129.5015299755542
 30
0.0
 10
319.0084769439832
 20
129.1242218866777
 30
0.0
 10
318.3502565348932
 20
128.7441981563035
 30
0.0
 10
317.0206939515274
 20
127.9765748408928
 30
0.0
 10
316.3492699694569
 20
127.588928024104
 30
0.0
 10
315.3302688824502
 20
127.0006074722162
 30
0.0
 10
314.988928100134
 20
126.8035342796605
 30
0.0
 10
314.3133295971635
 20
126.4134773021064
 30
0.0
 10
313.9776704471989
 20
126.2196844015184
 30
0.0
 10
312.9764048106992
 20
125.641603416755
 30
0.0
 10
312.3164971520961
 20
125.2606055524201
 30
0.0
 10
311.6619937240241
 20
124.8827278220372
 30
0.0
  0
SPLINE
  5
1AA
330
1F
100
AcDbEntity
  8
0
  6
Continuous
 62
     7
370
    25
100
AcDbSpline
210
0.0
220
0.0
230
1.0
 70
     8
 71
     3
 72
    10
 73
     6
 74
     0
 42
0.00000001
 43
0.00000001
 40
0.0
 40
0.0
 40
0.0
 40
0.0
 40
0.5
 40
0.5
 40
1.0
 40
1.0
 40
1.0
 40
1.0
 10
320.1619937240241
 20
129.5015299755542
 30
0.0
 10
320.0876133466467
 20
129.5444735064555
 30
0.0
 10
320.0005202585311
 20
129.5684382708114
 30
0.0
 10
319.8243618696551
 20
129.5685958762862
 30
0.0
 10
319.7364007969273
 20
129.5444889191245
 30
0.0
 10
319.6619937240241
 20
129.5015299755542
 30
0.0
  0
SPLINE
  5
1AB
330
1F
100
AcDbEntity
  8
0
  6
Continuous
 62
     7
370
    25
100
AcDbSpline
210
0.0
220
0.0
230
1.0
 70
    24
 71
     3
 72
    16
 73
    12
 74
     0
 42
0.00000001
 43
0.00000001
 40
0.0
 40
0.0
 40
0.0
 40
0.0
 40
0.2499999999999997
 40
0.2499999999999997
 40
0.4999999999999993
 40
0.4999999999999993
 40
0.6249999999999993
 40
0.6249999999999993
 40
0.7499999999999996
 40
0.7499999999999996
 40
1.0
 40
1.0
 40
1.0
 40
1.0
 10
328.161993724024
 20
124.8827278220372
 30
0.0
 10
327.5084769439832
 20
125.2600359109137
 30
0.0
 10
326.8502565348932
 20
125.6400596412879
 30
0.0
 10
325.5206939515274
 20
126.4076829566986
 30
0.0
 10
324.8492699694569
 20
126.7953297734874
 30
0.0
 10
323.8302688824502
 20
127.3836503253752
 30
0.0
 10
323.488928100134
 20
127.5807235179309
 30
0.0
 10
322.8133295971635
 20
127.970780495485
 30
0.0
 10
322.4776704471989
 20
128.1645733960731
 30
0.0
 10
321.4764048106993
 20
128.7426543808365
 30
0.0
 10
320.8164971520961
 20
129.1236522451713
 30
0.0
 10
320.1619937240241
 20
129.5015299755542
 30
0.0
  0
SPLINE
  5
1AC
330
1F
100
AcDbEntity
  8
0
  6
Continuous
 62
     7
370
    25
100
AcDbSpline
210
0.0
220
0.0
230
1.0
 70
     8
 71
     3
 72
    10
 73
     6
 74
     0
 42
0.00000001
 43
0.00000001
 40
0.0
 40
0.0
 40
0.0
 40
0.0
 40
0.5
 40
0.5
 40
1.0
 40
1.0
 40
1.0
 40
1.0
 10
328.411993724024
 20
124.449715120145
 30
0.0
 10
328.411993724024
 20
124.5356021819475
 30
0.0
 10
328.3892012746942
 20
124.6230093909276
 30
0.0
 10
328.3012585706011
 20
124.7756458335213
 30
0.0
 10
328.2364007969273
 20
124.8397688784669
 30
0.0
 10
328.161993724024
 20
124.8827278220372
 30
0.0
  0
SPLINE
  5
1AD
330
1F
100
AcDbEntity
  8
0
  6
Continuous
 62
     7
370
    25
100
AcDbSpline
210
0.0
220
0.0
230
1.0
 70
    24
 71
     3
 72
    14
 73
    10
 74
     0
 42
0.00000001
 43
0.00000001
 40
0.0
 40
0.0
 40
0.0
 40
0.0
 40
0.25
 40
0.25
 40
0.5
 40
0.5
 40
0.75
 40
0.75
 40
1.0
 40
1.0
 40
1.0
 40
1.0
 10
328.411993724024
 20
115.2121108131109
 30
0.0
 10
328.411993724024
 20
115.9664908737609
 30
0.0
 10
328.411993724024
 20
116.7359320412264
 30
0.0
 10
328.411993724024
 20
118.2764434021676
 30
0.0
 10
328.411993724024
 20
119.0512977821746
 30
0.0
 10
328.411993724024
 20
120.6116587370601
 30
0.0
 10
328.411993724024
 20
121.4021149298452
 30
0.0
 10
328.411993724024
 20
122.9443945926537
 30
0.0
 10
328.411993724024
 20
123.7017853458548
 30
0.0
 10
328.411993724024
 20
124.449715120145
 30
0.0
  0
SPLINE
  5
1AE
330
1F
100
AcDbEntity
  8
0
  6
Continuous
 62
     7
370
    25
100
AcDbSpline
210
0.0
220
0.0
230
1.0
 70
     8
 71
     3
 72
    10
 73
     6
 74
     0
 42
0.00000001
 43
0.00000001
 40
0.0
 40
0.0
 40
0.0
 40
0.0
 40
0.5
 40
0.5
 40
1.0
 40
1.0
 40
1.0
 40
1.0
 10
328.161993724024
 20
114.7790981112188
 30
0.0
 10
328.2363741014012
 20
114.8220416421199
 30
0.0
 10
328.3006747401867
 20
114.8854840867436
 30
0.0
 10
328.3888904249699
 20
115.0379629238627
 30
0.0
 10
328.411993724024
 20
115.1261929259702
 30
0.0
 10
328.411993724024
 20
115.2121108131109
 30
0.0
  0
SPLINE
  5
1AF
330
1F
100
AcDbEntity
  8
0
  6
Continuous
 62
     7
370
    25
100
AcDbSpline
210
0.0
220
0.0
230
1.0
 70
    24
 71
     3
 72
    16
 73
    12
 74
     0
 42
0.00000001
 43
0.00000001
 40
0.0
 40
0.0
 40
0.0
 40
0.0
 40
0.2500000000000002
 40
0.2500000000000002
 40
0.5000000000000004
 40
0.5000000000000004
 40
0.6250000000000003
 40
0.6250000000000003
 40
0.7500000000000002
 40
0.7500000000000002
 40
1.0
 40
1.0
 40
1.0
 40
1.0
 10
320.161993724024
 20
110.1602959577018
 30
0.0
 10
320.8155105040648
 20
110.5376040465782
 30
0.0
 10
321.4737309131547
 20
110.9176277769524
 30
0.0
 10
322.8032934965204
 20
111.685251092363
 30
0.0
 10
323.4747174785908
 20
112.0728979091518
 30
0.0
 10
324.4937185655975
 20
112.6612184610396
 30
0.0
 10
324.8350593479137
 20
112.8582916535952
 30
0.0
 10
325.5106578508841
 20
113.2483486311493
 30
0.0
 10
325.8463170008487
 20
113.4421415317373
 30
0.0
 10
326.8475826373483
 20
114.0202225165007
 30
0.0
 10
327.5074902959514
 20
114.4012203808355
 30
0.0
 10
328.1619937240234
 20
114.7790981112184
 30
0.0
  0
SPLINE
  5
1B0
330
1F
100
AcDbEntity
  8
0
  6
Continuous
 62
     7
370
    25
100
AcDbSpline
210
0.0
220
0.0
230
1.0
 70
     8
 71
     3
 72
    10
 73
     6
 74
     0
 42
0.00000001
 43
0.00000001
 40
0.0
 40
0.0
 40
0.0
 40
0.0
 40
0.5
 40
0.5
 40
1.0
 40
1.0
 40
1.0
 40
1.0
 10
319.661993724024
 20
110.1602959577018
 30
0.0
 10
319.7363741014013
 20
110.1173524268005
 30
0.0
 10
319.8234671895169
 20
110.0933876624445
 30
0.0
 10
319.9996255783929
 20
110.0932300569697
 30
0.0
 10
320.0875866511208
 20
110.1173370141314
 30
0.0
 10
320.161993724024
 20
110.1602959577017
 30
0.0
  0
SPLINE
  5
1B1
330
1F
100
AcDbEntity
  8
0
  6
Continuous
 62
     7
370
    25
100
AcDbSpline
210
0.0
220
0.0
230
1.0
 70
    24
 71
     3
 72
    16
 73
    12
 74
     0
 42
0.00000001
 43
0.00000001
 40
0.0
 40
0.0
 40
0.0
 40
0.0
 40
0.2500000000000001
 40
0.2500000000000001
 40
0.5000000000000002
 40
0.5000000000000002
 40
0.6250000000000001
 40
0.6250000000000001
 40
0.7500000000000001
 40
0.7500000000000001
 40
1.0
 40
1.0
 40
1.0
 40
1.0
 10
311.6619937240241
 20
114.7790981112188
 30
0.0
 10
312.3155105040648
 20
114.4017900223423
 30
0.0
 10
312.9737309131548
 20
114.0217662919681
 30
0.0
 10
314.3032934965206
 20
113.2541429765574
 30
0.0
 10
314.9747174785911
 20
112.8664961597686
 30
0.0
 10
315.9937185655978
 20
112.2781756078807
 30
0.0
 10
316.335059347914
 20
112.0811024153251
 30
0.0
 10
317.0106578508845
 20
111.691045437771
 30
0.0
 10
317.3463170008491
 20
111.4972525371829
 30
0.0
 10
318.3475826373488
 20
110.9191715524195
 30
0.0
 10
319.0074902959519
 20
110.5381736880847
 30
0.0
 10
319.661993724024
 20
110.1602959577018
 30
0.0
  0
LINE
  5
1B2
330
1F
100
AcDbEntity
  8
0
  6
Continuous
 62
     7
370
    25
100
AcDbLine
 10
320.161993724
 20
110.1602959577
 30
0.0
 11
320.161993724
 21
108.5086343719
 31
0.0
  0
SPLINE
  5
1B3
330
1F
100
AcDbEntity
  8
0
  6
Continuous
 62
     7
370
    25
100
AcDbSpline
210
0.0
220
0.0
230
1.0
 70
     8
 71
     3
 72
    10
 73
     6
 74
     0
 42
0.00000001
 43
0.00000001
 40
0.0
 40
0.0
 40
0.0
 40
0.0
 40
0.5
 40
0.5
 40
1.0
 40
1.0
 40
1.0
 40
1.0
 10
319.6619937240241
 20
108.5086343718882
 30
0.0
 10
319.7363684780141
 20
108.5323079763793
 30
0.0
 10
319.82346220958
 20
108.5454007521725
 30
0.0
 10
319.9996280381245
 20
108.5454873202735
 30
0.0
 10
320.0875890620147
 20
108.5323174961502
 30
0.0
 10
320.161993724024
 20
108.5086343718882
 30
0.0
  0
LINE
  5
1B4
330
1F
100
AcDbEntity
  8
0
  6
Continuous
 62
     7
370
    25
100
AcDbLine
 10
319.661993724
 20
108.5086343719
 30
0.0
 11
319.661993724
 21
110.1602959577
 31
0.0
  0
SPLINE
  5
1B5
330
1F
100
AcDbEntity
  8
0
  6
Continuous
 62
     7
370
    25
100
AcDbSpline
210
0.0
220
0.0
230
1.0
 70
     8
 71
     3
 72
    12
 73
     8
 74
     0
 42
0.00000001
 43
0.00000001
 40
0.0
 40
0.0
 40
0.0
 40
0.0
 40
0.2500000000000003
 40
0.2500000000000003
 40
0.5000000000000002
 40
0.5000000000000002
 40
1.0
 40
1.0
 40
1.0
 40
1.0
 10
324.161993724024
 20
107.830912966628
 30
0.0
 10
323.8242377890012
 20
107.830912966628
 30
0.0
 10
323.4838297741227
 20
107.8466592966499
 30
0.0
 10
322.8093350897223
 20
107.9081043212354
 30
0.0
 10
322.4742097708551
 20
107.9536930804891
 30
0.0
 10
321.4744984525149
 20
108.1301440827457
 30
0.0
 10
320.8155643494496
 20
108.3006017847092
 30
0.0
 10
320.161993724024
 20
108.508634371888
 30
0.0
  0
LINE
  5
1B6
330
1F
100
AcDbEntity
  8
0
  6
Continuous
 62
     7
370
    25
100
AcDbLine
 10
315.661993724
 20
107.8309129666
 30
0.0
 11
324.161993724
 21
107.8309129666
 31
0.0
  0
SPLINE
  5
1B7
330
1F
100
AcDbEntity
  8
0
  6
Continuous
 62
     7
370
    25
100
AcDbSpline
210
0.0
220
0.0
230
1.0
 70
     8
 71
     3
 72
    10
 73
     6
 74
     0
 42
0.00000001
 43
0.00000001
 40
0.0
 40
0.0
 40
0.0
 40
0.0
 40
0.5
 40
0.5
 40
1.0
 40
1.0
 40
1.0
 40
1.0
 10
319.6619937240241
 20
108.5086343718877
 30
0.0
 10
319.005980957419
 20
108.2998244472215
 30
0.0
 10
318.3457140505612
 20
108.1292903074742
 30
0.0
 10
317.0133675319262
 20
107.8945045024553
 30
0.0
 10
316.3412145504389
 20
107.830912966628
 30
0.0
 10
315.6619937240241
 20
107.830912966628
 30
0.0
  0
SPLINE
  5
1B8
330
1F
100
AcDbEntity
  8
0
  6
Continuous
 62
     7
370
    25
100
AcDbSpline
210
0.0
220
0.0
230
1.0
 70
     8
 71
     3
 72
    12
 73
     8
 74
     0
 42
0.00000001
 43
0.00000001
 40
0.0
 40
0.0
 40
0.0
 40
0.0
 40
0.2499999999999998
 40
0.2499999999999998
 40
0.4999999999999996
 40
0.4999999999999996
 40
1.0
 40
1.0
 40
1.0
 40
1.0
 10
315.6619937240241
 20
107.830912966628
 30
0.0
 10
315.3242377890012
 20
107.830912966628
 30
0.0
 10
314.9838297741227
 20
107.8466592966499
 30
0.0
 10
314.3093350897223
 20
107.9081043212354
 30
0.0
 10
313.9742097708551
 20
107.9536930804891
 30
0.0
 10
312.974498452515
 20
108.1301440827457
 30
0.0
 10
312.3155643494497
 20
108.3006017847092
 30
0.0
 10
311.661993724024
 20
108.508634371888
 30
0.0
  0
LINE
  5
1B9
330
1F
100
AcDbEntity
  8
0
  6
Continuous
 62
     7
370
    25
100
AcDbLine
 10
311.661993724
 20
111.8645164268
 30
0.0
 11
311.661993724
 21
108.5086343719
 31
0.0
  0
SPLINE
  5
1BA
330
1F
100
AcDbEntity
  8
0
  6
Continuous
 62
     7
370
    25
100
AcDbSpline
210
0.0
220
0.0
230
1.0
 70
     8
 71
     3
 72
    10
 73
     6
 74
     0
 42
0.00000001
 43
0.00000001
 40
0.0
 40
0.0
 40
0.0
 40
0.0
 40
0.5
 40
0.5
 40
1.0
 40
1.0
 40
1.0
 40
1.0
 10
311.6619937240245
 20
111.8645164267731
 30
0.0
 10
312.2968214298381
 20
112.0665831123241
 30
0.0
 10
312.9360871324139
 20
112.2329758845947
 30
0.0
 10
314.2269020640038
 20
112.4670228584648
 30
0.0
 10
314.8785216994737
 20
112.5341111124236
 30
0.0
 10
315.5375636312938
 20
112.5415367819934
 30
0.0
  0
SPLINE
  5
1BB
330
1F
100
AcDbEntity
  8
0
  6
Continuous
 62
     7
370
    25
100
AcDbSpline
210
0.0
220
0.0
230
1.0
 70
     8
 71
     3
 72
    12
 73
     8
 74
     0
 42
0.00000001
 43
0.00000001
 40
0.0
 40
0.0
 40
0.0
 40
0.0
 40
0.2499999999999999
 40
0.2499999999999999
 40
0.4999999999999998
 40
0.4999999999999998
 40
1.0
 40
1.0
 40
1.0
 40
1.0
 10
324.2864238167763
 20
112.5415367819931
 30
0.0
 10
324.6155588071695
 20
112.5378282961367
 30
0.0
 10
324.9450209601063
 20
112.519245793299
 30
0.0
 10
325.597894578164
 20
112.4543787563329
 30
0.0
 10
325.9223471700411
 20
112.4081132030826
 30
0.0
 10
326.8904076112331
 20
112.2323886727756
 30
0.0
 10
327.5287300954811
 20
112.0660852639989
 30
0.0
 10
328.161993724024
 20
111.864516426773
 30
0.0
  0
LINE
  5
1BC
330
1F
100
AcDbEntity
  8
0
  6
Continuous
 62
     7
370
    25
100
AcDbLine
 10
328.161993724
 20
108.5086343719
 30
0.0
 11
328.161993724
 21
111.8645164268
 31
0.0
  0
SPLINE
  5
1BD
330
1F
100
AcDbEntity
  8
0
  6
Continuous
 62
     7
370
    25
100
AcDbSpline
210
0.0
220
0.0
230
1.0
 70
     8
 71
     3
 72
    10
 73
     6
 74
     0
 42
0.00000001
 43
0.00000001
 40
0.0
 40
0.0
 40
0.0
 40
0.0
 40
0.5
 40
0.5
 40
1.0
 40
1.0
 40
1.0
 40
1.0
 10
328.1619937240241
 20
108.5086343718877
 30
0.0
 10
327.505980957419
 20
108.2998244472215
 30
0.0
 10
326.8457140505612
 20
108.1292903074742
 30
0.0
 10
325.5133675319262
 20
107.8945045024553
 30
0.0
 10
324.8412145504389
 20
107.830912966628
 30
0.0
 10
324.161993724024
 20
107.830912966628
 30
0.0
  0
SPLINE
  5
1BE
330
1F
100
AcDbEntity
  8
0
  6
Continuous
 62
     7
370
    25
100
AcDbSpline
210
0.0
220
0.0
230
1.0
 70
     8
 71
     3
 72
    10
 73
     6
 74
     0
 42
0.00000001
 43
0.00000001
 40
0.0
 40
0.0
 40
0.0
 40
0.0
 40
0.5
 40
0.5
 40
1.0
 40
1.0
 40
1.0
 40
1.0
 10
328.161993724024
 20
108.5086343718882
 30
0.0
 10
328.2363641909496
 20
108.5323066117997
 30
0.0
 10
328.3006697872374
 20
108.545400601735
 30
0.0
 10
328.3888925750433
 20
108.5454874691964
 30
0.0
 10
328.411993724024
 20
108.5323176794371
 30
0.0
 10
328.411993724024
 20
108.5086343718882
 30
0.0
  0
LINE
  5
1BF
330
1F
100
AcDbEntity
  8
0
  6
Continuous
 62
     7
370
    25
100
AcDbLine
 10
324.161993724
 20
107.8309129666
 30
0.0
 11
328.411993724
 21
107.8309129666
 31
0.0
  0
SPLINE
  5
1C0
330
1F
100
AcDbEntity
  8
0
  6
Continuous
 62
     7
370
    25
100
AcDbSpline
210
0.0
220
0.0
230
1.0
 70
    24
 71
     3
 72
    10
 73
     6
 74
     0
 42
0.00000001
 43
0.00000001
 40
0.0
 40
0.0
 40
0.0
 40
0.0
 40
0.4999999999999999
 40
0.4999999999999999
 40
1.0
 40
1.0
 40
1.0
 40
1.0
 10
328.411993724024
 20
107.830912966628
 30
0.0
 10
328.411993724024
 20
107.830912966628
 30
0.0
 10
328.411993724024
 20
107.8931973286065
 30
0.0
 10
328.411993724024
 20
108.1280454466135
 30
0.0
 10
328.411993724024
 20
108.3012880537447
 30
0.0
 10
328.411993724024
 20
108.5086343718882
 30
0.0
  0
SPLINE
  5
1C1
330
1F
100
AcDbEntity
  8
0
  6
Continuous
 62
     7
370
    25
100
AcDbSpline
210
0.0
220
0.0
230
1.0
 70
     8
 71
     3
 72
    10
 73
     6
 74
     0
 42
0.00000001
 43
0.00000001
 40
0.0
 40
0.0
 40
0.0
 40
0.0
 40
0.5
 40
0.5
 40
1.0
 40
1.0
 40
1.0
 40
1.0
 10
311.411993724024
 20
108.5086343718882
 30
0.0
 10
311.411993724024
 20
108.5323082724441
 30
0.0
 10
311.4347842956715
 20
108.5454008296233
 30
0.0
 10
311.5227302929703
 20
108.5454872436055
 30
0.0
 10
311.587591085703
 20
108.5323168520069
 30
0.0
 10
311.6619937240241
 20
108.5086343718882
 30
0.0
  0
LINE
  5
1C2
330
1F
100
AcDbEntity
  8
0
  6
Continuous
 62
     7
370
    25
100
AcDbLine
 10
311.411993724
 20
107.8309129666
 30
0.0
 11
315.661993724
 21
107.8309129666
 31
0.0
  0
SPLINE
  5
1C3
330
1F
100
AcDbEntity
  8
0
  6
Continuous
 62
     7
370
    25
100
AcDbSpline
210
0.0
220
0.0
230
1.0
 70
    24
 71
     3
 72
    10
 73
     6
 74
     0
 42
0.00000001
 43
0.00000001
 40
0.0
 40
0.0
 40
0.0
 40
0.0
 40
0.5
 40
0.5
 40
1.0
 40
1.0
 40
1.0
 40
1.0
 10
311.411993724024
 20
107.830912966628
 30
0.0
 10
311.411993724024
 20
107.830912966628
 30
0.0
 10
311.411993724024
 20
107.8931973286065
 30
0.0
 10
311.411993724024
 20
108.1280454466135
 30
0.0
 10
311.411993724024
 20
108.3012880537447
 30
0.0
 10
311.411993724024
 20
108.5086343718882
 30
0.0
  0
SPLINE
  5
1C4
330
1F
100
AcDbEntity
  8
0
  6
Continuous
 62
     7
370
    25
100
AcDbSpline
210
0.0
220
0.0
230
1.0
 70
     8
 71
     3
 72
     8
 73
     4
 74
     0
 42
0.00000001
 43
0.00000001
 40
0.0
 40
0.0
 40
0.0
 40
0.0
 40
1.0
 40
1.0
 40
1.0
 40
1.0
 10
311.411993724024
 20
112.026001755054
 30
0.0
 10
311.9337998753258
 20
112.2985918907233
 30
0.0
 10
312.457453344182
 20
112.5677443918448
 30
0.0
 10
312.9837904937485
 20
112.830912966628
 30
0.0
  0
SPLINE
  5
1C5
330
1F
100
AcDbEntity
  8
0
  6
Continuous
 62
     7
370
    25
100
AcDbSpline
210
0.0
220
0.0
230
1.0
 70
     8
 71
     3
 72
    10
 73
     6
 74
     0
 42
0.00000001
 43
0.00000001
 40
0.0
 40
0.0
 40
0.0
 40
0.0
 40
0.5
 40
0.5
 40
1.0
 40
1.0
 40
1.0
 40
1.0
 10
311.411993724024
 20
111.864516426773
 30
0.0
 10
311.411993724024
 20
111.8408410323485
 30
0.0
 10
311.4347861733539
 20
111.8277499224639
 30
0.0
 10
311.5227288774471
 20
111.8276636011757
 30
0.0
 10
311.5875866511213
 20
111.8408325351196
 30
0.0
 10
311.6619937240247
 20
111.8645164267732
 30
0.0
  0
SPLINE
  5
1C6
330
1F
100
AcDbEntity
  8
0
  6
Continuous
 62
     7
370
    25
100
AcDbSpline
210
0.0
220
0.0
230
1.0
 70
    24
 71
     3
 72
     8
 73
     4
 74
     0
 42
0.00000001
 43
0.00000001
 40
0.0
 40
0.0
 40
0.0
 40
0.0
 40
1.0
 40
1.0
 40
1.0
 40
1.0
 10
311.411993724024
 20
112.026001755054
 30
0.0
 10
311.411993724024
 20
111.9751069653532
 30
0.0
 10
311.411993724024
 20
111.9211731159917
 30
0.0
 10
311.411993724024
 20
111.864516426773
 30
0.0
  0
SPLINE
  5
1C7
330
1F
100
AcDbEntity
  8
0
  6
Continuous
 62
     7
370
    25
100
AcDbSpline
210
0.0
220
0.0
230
1.0
 70
     8
 71
     3
 72
     8
 73
     4
 74
     0
 42
0.00000001
 43
0.00000001
 40
0.0
 40
0.0
 40
0.0
 40
0.0
 40
1.0
 40
1.0
 40
1.0
 40
1.0
 10
326.8401969542995
 20
112.830912966628
 30
0.0
 10
327.3666178155087
 20
112.5677025360234
 30
0.0
 10
327.8901622722224
 20
112.2986051076367
 30
0.0
 10
328.411993724024
 20
112.026001755054
 30
0.0
  0
SPLINE
  5
1C8
330
1F
100
AcDbEntity
  8
0
  6
Continuous
 62
     7
370
    25
100
AcDbSpline
210
0.0
220
0.0
230
1.0
 70
     8
 71
     3
 72
    10
 73
     6
 74
     0
 42
0.00000001
 43
0.00000001
 40
0.0
 40
0.0
 40
0.0
 40
0.0
 40
0.5
 40
0.5
 40
1.0
 40
1.0
 40
1.0
 40
1.0
 10
328.161993724024
 20
111.864516426773
 30
0.0
 10
328.2363741014013
 20
111.8408410323486
 30
0.0
 10
328.3006747401871
 20
111.827749922464
 30
0.0
 10
328.38889042497
 20
111.8276636011757
 30
0.0
 10
328.411993724024
 20
111.8408325351195
 30
0.0
 10
328.411993724024
 20
111.864516426773
 30
0.0
  0
SPLINE
  5
1C9
330
1F
100
AcDbEntity
  8
0
  6
Continuous
 62
     7
370
    25
100
AcDbSpline
210
0.0
220
0.0
230
1.0
 70
    24
 71
     3
 72
     8
 73
     4
 74
     0
 42
0.00000001
 43
0.00000001
 40
0.0
 40
0.0
 40
0.0
 40
0.0
 40
1.0
 40
1.0
 40
1.0
 40
1.0
 10
328.411993724024
 20
112.026001755054
 30
0.0
 10
328.411993724024
 20
111.9751069653532
 30
0.0
 10
328.411993724024
 20
111.9211731159917
 30
0.0
 10
328.411993724024
 20
111.864516426773
 30
0.0
  0
LINE
  5
1CA
330
1F
100
AcDbEntity
  8
0
  6
Continuous
 62
     7
370
    25
100
AcDbLine
 10
312.411993724
 20
112.8309129666
 30
0.0
 11
315.036349377
 21
112.8309129666
 31
0.0
  0
LINE
  5
1CB
330
1F
100
AcDbEntity
  8
0
  6
Continuous
 62
     7
370
    25
100
AcDbLine
 10
312.411993724
 20
112.8309129666
 30
0.0
 11
312.411993724
 21
114.3460854093
 31
0.0
  0
LINE
  5
1CC
330
1F
100
AcDbEntity
  8
0
  6
Continuous
 62
     7
370
    25
100
AcDbLine
 10
324.787638071
 20
112.8309129666
 30
0.0
 11
327.411993724
 21
112.8309129666
 31
0.0
  0
LINE
  5
1CD
330
1F
100
AcDbEntity
  8
0
  6
Continuous
 62
     7
370
    25
100
AcDbLine
 10
327.411993724
 20
114.3460854093
 30
0.0
 11
327.411993724
 21
112.8309129666
 31
0.0
  0
LINE
  5
1CE
330
1F
100
AcDbEntity
  8
0
  6
Continuous
 62
     7
370
    25
100
AcDbLine
 10
319.911993724
 20
98.4345788405
 30
0.0
 11
326.3765457826
 21
98.4345788405
 31
0.0
  0
LINE
  5
1CF
330
1F
100
AcDbEntity
  8
0
  6
Continuous
 62
     7
370
    25
100
AcDbLine
 10
313.4474416655
 20
98.4345788405
 30
0.0
 11
319.911993724
 21
98.4345788405
 31
0.0
  0
LINE
  5
1D0
330
1F
100
AcDbEntity
  8
0
  6
Continuous
 62
     7
370
    25
100
AcDbLine
 10
325.161993724
 20
96.3309129666
 30
0.0
 11
314.661993724
 21
96.3309129666
 31
0.0
  0
LINE
  5
1D1
330
1F
100
AcDbEntity
  8
0
  6
Continuous
 62
     7
370
    25
100
AcDbLine
 10
311.411993724
 20
108.5086343719
 30
0.0
 11
311.411993724
 21
111.8645164268
 31
0.0
  0
LINE
  5
1D2
330
1F
100
AcDbEntity
  8
0
  6
Continuous
 62
     7
370
    25
100
AcDbLine
 10
328.411993724
 20
111.8645164268
 30
0.0
 11
328.411993724
 21
108.5086343719
 31
0.0
  0
LINE
  5
1D3
330
1F
100
AcDbEntity
  8
0
  6
Continuous
 62
     7
370
    25
100
AcDbLine
 10
311.411993724
 20
112.0260017551
 30
0.0
 11
311.411993724
 21
115.1816159273
 31
0.0
  0
LINE
  5
1D4
330
1F
100
AcDbEntity
  8
0
  6
Continuous
 62
     7
370
    25
100
AcDbLine
 10
328.411993724
 20
112.0260017551
 30
0.0
 11
328.411993724
 21
115.1816159273
 31
0.0
  0
LINE
  5
1D5
330
1F
100
AcDbEntity
  8
0
  6
Continuous
 62
     7
370
    25
100
AcDbLine
 10
318.411993724
 20
146.9309129666
 30
0.0
 11
318.661993724
 21
146.9309129666
 31
0.0
  0
ARC
  5
1D6
330
1F
100
AcDbEntity
  8
0
  6
Continuous
 62
     7
370
    25
100
AcDbCircle
 10
318.661993724
 20
146.9309129666
 30
0.0
 40
0.2500000000000568
100
AcDbArc
 50
90.0
 51
180.0
  0
LINE
  5
1D7
330
1F
100
AcDbEntity
  8
0
  6
Continuous
 62
     7
370
    25
100
AcDbLine
 10
318.661993724
 20
147.1809129666
 30
0.0
 11
318.661993724
 21
146.9309129666
 31
0.0
  0
LINE
  5
1D8
330
1F
100
AcDbEntity
  8
0
  6
Continuous
 62
     7
370
    25
100
AcDbLine
 10
321.161993724
 20
146.9309129666
 30
0.0
 11
321.161993724
 21
147.1809129666
 31
0.0
  0
LINE
  5
1D9
330
1F
100
AcDbEntity
  8
0
  6
Continuous
 62
     7
370
    25
100
AcDbLine
 10
321.161993724
 20
146.9309129666
 30
0.0
 11
318.661993724
 21
146.9309129666
 31
0.0
  0
LINE
  5
1DA
330
1F
100
AcDbEntity
  8
0
  6
Continuous
 62
     7
370
    25
100
AcDbLine
 10
318.661993724
 20
147.1809129666
 30
0.0
 11
321.161993724
 21
147.1809129666
 31
0.0
  0
LINE
  5
1DB
330
1F
100
AcDbEntity
  8
0
  6
Continuous
 62
     7
370
    25
100
AcDbLine
 10
321.161993724
 20
146.3309129666
 30
0.0
 11
321.161993724
 21
146.9309129666
 31
0.0
  0
LINE
  5
1DC
330
1F
100
AcDbEntity
  8
0
  6
Continuous
 62
     7
370
    25
100
AcDbLine
 10
318.661993724
 20
146.3309129666
 30
0.0
 11
321.161993724
 21
146.3309129666
 31
0.0
  0
LINE
  5
1DD
330
1F
100
AcDbEntity
  8
0
  6
Continuous
 62
     7
370
    25
100
AcDbLine
 10
318.661993724
 20
146.9309129666
 30
0.0
 11
318.661993724
 21
146.3309129666
 31
0.0
  0
LINE
  5
1DE
330
1F
100
AcDbEntity
  8
0
  6
Continuous
 62
     7
370
    25
100
AcDbLine
 10
321.161993724
 20
146.9309129666
 30
0.0
 11
321.411993724
 21
146.9309129666
 31
0.0
  0
ARC
  5
1DF
330
1F
100
AcDbEntity
  8
0
  6
Continuous
 62
     7
370
    25
100
AcDbCircle
 10
321.161993724
 20
146.9309129666
 30
0.0
 40
0.2500000000000284
100
AcDbArc
 50
0.0
 51
90.0
  0
LINE
  5
1E0
330
1F
100
AcDbEntity
  8
0
  6
Continuous
 62
     7
370
    25
100
AcDbLine
 10
321.411993724
 20
146.9309129666
 30
0.0
 11
321.411993724
 21
146.3309129666
 31
0.0
  0
LINE
  5
1E1
330
1F
100
AcDbEntity
  8
0
  6
Continuous
 62
     7
370
    25
100
AcDbLine
 10
321.411993724
 20
146.3309129666
 30
0.0
 11
321.161993724
 21
146.3309129666
 31
0.0
  0
LINE
  5
1E2
330
1F
100
AcDbEntity
  8
0
  6
Continuous
 62
     7
370
    25
100
AcDbLine
 10
318.411993724
 20
146.3309129666
 30
0.0
 11
318.411993724
 21
146.9309129666
 31
0.0
  0
LINE
  5
1E3
330
1F
100
AcDbEntity
  8
0
  6
Continuous
 62
     7
370
    25
100
AcDbLine
 10
318.661993724
 20
146.3309129666
 30
0.0
 11
318.411993724
 21
146.3309129666
 31
0.0
  0
SPLINE
  5
1E4
330
1F
100
AcDbEntity
  8
0
  6
Continuous
 62
     7
370
    25
100
AcDbSpline
210
0.0
220
0.0
230
1.0
 70
     8
 71
     3
 72
    15
 73
    11
 74
     0
 42
0.00000001
 43
0.00000001
 40
0.0
 40
0.0
 40
0.0
 40
0.0
 40
0.0090459071881971
 40
0.1032433785236816
 40
0.1542564497735189
 40
0.31331690267151
 40
0.5243720399414428
 40
0.6678060008509183
 40
0.9918332554187028
 40
1.0
 40
1.0
 40
1.0
 40
1.0
 10
318.2380806805457
 20
146.930912966628
 30
0.0
 10
318.2380983262702
 20
146.9325940652124
 30
0.0
 10
318.2382997216828
 20
146.9517808967679
 30
0.0
 10
318.244489342349
 20
146.9804751762879
 30
0.0
 10
318.2686912741931
 20
147.0311512162598
 30
0.0
 10
318.3217102661948
 20
147.0890275158367
 30
0.0
 10
318.4030811533913
 20
147.1338930305714
 30
0.0
 10
318.5176602254138
 20
147.171255413826
 30
0.0
 10
318.6020854031329
 20
147.1808014260954
 30
0.0
 10
318.660556261085
 20
147.1809102902822
 30
0.0
 10
318.6619937240241
 20
147.180912966628
 30
0.0
  0
LINE
  5
1E5
330
1F
100
AcDbEntity
  8
0
  6
Continuous
 62
     7
370
    25
100
AcDbLine
 10
318.2380806805
 20
146.9309129666
 30
0.0
 11
318.411993724
 21
146.9309129666
 31
0.0
  0
LINE
  5
1E6
330
1F
100
AcDbEntity
  8
0
  6
Continuous
 62
     7
370
    25
100
AcDbLine
 10
321.411993724
 20
146.9309129666
 30
0.0
 11
321.5859067675
 21
146.9309129666
 31
0.0
  0
SPLINE
  5
1E7
330
1F
100
AcDbEntity
  8
0
  6
Continuous
 62
     7
370
    25
100
AcDbSpline
210
0.0
220
0.0
230
1.0
 70
     8
 71
     3
 72
    15
 73
    11
 74
     0
 42
0.00000001
 43
0.00000001
 40
0.0
 40
0.0
 40
0.0
 40
0.0
 40
0.0081667445812695
 40
0.3321939991490083
 40
0.4756279600585602
 40
0.6866830973284899
 40
0.8457435502264811
 40
0.8967566214763185
 40
0.9909540928118029
 40
1.0
 40
1.0
 40
1.0
 40
1.0
 10
321.161993724024
 20
147.180912966628
 30
0.0
 10
321.163431186963
 20
147.1809102902822
 30
0.0
 10
321.2219020449147
 20
147.1808014260953
 30
0.0
 10
321.3063272226343
 20
147.171255413826
 30
0.0
 10
321.4209062946566
 20
147.1338930305714
 30
0.0
 10
321.5022771818532
 20
147.0890275158367
 30
0.0
 10
321.5552961738549
 20
147.0311512162598
 30
0.0
 10
321.5794981056991
 20
146.9804751762879
 30
0.0
 10
321.5856877263653
 20
146.9517808967679
 30
0.0
 10
321.5858891217778
 20
146.9325940652124
 30
0.0
 10
321.5859067675023
 20
146.930912966628
 30
0.0
  0
LINE
  5
1E8
330
1F
100
AcDbEntity
  8
0
  6
Continuous
 62
     7
370
    25
100
AcDbLine
 10
318.2380806805
 20
146.3309129666
 30
0.0
 11
318.2380806805
 21
146.9309129666
 31
0.0
  0
LINE
  5
1E9
330
1F
100
AcDbEntity
  8
0
  6
Continuous
 62
     7
370
    25
100
AcDbLine
 10
318.411993724
 20
146.3309129666
 30
0.0
 11
318.2380806805
 21
146.3309129666
 31
0.0
  0
LINE
  5
1EA
330
1F
100
AcDbEntity
  8
0
  6
Continuous
 62
     7
370
    25
100
AcDbLine
 10
321.5859067675
 20
146.9309129666
 30
0.0
 11
321.5859067675
 21
146.3309129666
 31
0.0
  0
LINE
  5
1EB
330
1F
100
AcDbEntity
  8
0
  6
Continuous
 62
     7
370
    25
100
AcDbLine
 10
321.5859067675
 20
146.3309129666
 30
0.0
 11
321.411993724
 21
146.3309129666
 31
0.0
  0
LINE
  5
1EC
330
1F
100
AcDbEntity
  8
0
  6
Continuous
 62
     7
370
    25
100
AcDbLine
 10
314.661993724
 20
147.1809129666
 30
0.0
 11
318.661993724
 21
147.1809129666
 31
0.0
  0
LINE
  5
1ED
330
1F
100
AcDbEntity
  8
0
  6
Continuous
 62
     7
370
    25
100
AcDbLine
 10
321.161993724
 20
147.1809129666
 30
0.0
 11
325.161993724
 21
147.1809129666
 31
0.0
  0
LINE
  5
1EE
330
1F
100
AcDbEntity
  8
0
  6
Continuous
 62
     7
370
    25
100
AcDbLine
 10
321.5859067675
 20
146.3309129666
 30
0.0
 11
325.411993724
 21
146.3309129666
 31
0.0
  0
LINE
  5
1EF
330
1F
100
AcDbEntity
  8
0
  6
Continuous
 62
     7
370
    25
100
AcDbLine
 10
314.411993724
 20
146.3309129666
 30
0.0
 11
318.2380806805
 21
146.3309129666
 31
0.0
  0
LINE
  5
1F0
330
1F
100
AcDbEntity
  8
0
  6
Continuous
 62
     7
370
    25
100
AcDbLine
 10
319.311993724
 20
147.1909129666
 30
0.0
 11
320.511993724
 21
147.1909129666
 31
0.0
  0
LINE
  5
1F1
330
1F
100
AcDbEntity
  8
0
  6
Continuous
 62
     7
370
    25
100
AcDbLine
 10
320.511993724
 20
147.1809129666
 30
0.0
 11
320.511993724
 21
147.1909129666
 31
0.0
  0
LINE
  5
1F2
330
1F
100
AcDbEntity
  8
0
  6
Continuous
 62
     7
370
    25
100
AcDbLine
 10
319.311993724
 20
147.1809129666
 30
0.0
 11
319.311993724
 21
147.1909129666
 31
0.0
  0
LINE
  5
1F3
330
1F
100
AcDbEntity
  8
0
  6
Continuous
 62
     7
370
    25
100
AcDbLine
 10
312.461993724
 20
138.3309129666
 30
0.0
 11
327.361993724
 21
138.3309129666
 31
0.0
  0
LINE
  5
1F4
330
1F
100
AcDbEntity
  8
0
  6
Continuous
 62
     7
370
    25
100
AcDbLine
 10
312.911993724
 20
130.3309129666
 30
0.0
 11
326.911993724
 21
130.3309129666
 31
0.0
  0
LINE
  5
1F5
330
1F
100
AcDbEntity
  8
0
  6
Continuous
 62
     7
370
    25
100
AcDbLine
 10
316.411993724
 20
148.3309129666
 30
0.0
 11
316.411993724
 21
147.1809129666
 31
0.0
  0
LINE
  5
1F6
330
1F
100
AcDbEntity
  8
0
  6
Continuous
 62
     7
370
    25
100
AcDbLine
 10
316.411993724
 20
148.3309129666
 30
0.0
 11
316.64029446
 21
148.3309129666
 31
0.0
  0
LINE
  5
1F7
330
1F
100
AcDbEntity
  8
0
  6
Continuous
 62
     7
370
    25
100
AcDbLine
 10
316.64029446
 20
148.3309129666
 30
0.0
 11
316.64029446
 21
147.1809129666
 31
0.0
  0
LINE
  5
1F8
330
1F
100
AcDbEntity
  8
0
  6
Continuous
 62
     7
370
    25
100
AcDbLine
 10
323.1836929881
 20
148.3309129666
 30
0.0
 11
323.1836929881
 21
147.1809129666
 31
0.0
  0
LINE
  5
1F9
330
1F
100
AcDbEntity
  8
0
  6
Continuous
 62
     7
370
    25
100
AcDbLine
 10
323.1836929881
 20
148.3309129666
 30
0.0
 11
323.411993724
 21
148.3309129666
 31
0.0
  0
LINE
  5
1FA
330
1F
100
AcDbEntity
  8
0
  6
Continuous
 62
     7
370
    25
100
AcDbLine
 10
323.411993724
 20
147.1809129666
 30
0.0
 11
323.411993724
 21
148.3309129666
 31
0.0
  0
LINE
  5
1FB
330
1F
100
AcDbEntity
  8
0
  6
Continuous
 62
     7
370
    25
100
AcDbLine
 10
316.64029446
 20
148.3309129666
 30
0.0
 11
323.1836929881
 21
148.3309129666
 31
0.0
  0
SPLINE
  5
1FC
330
1F
100
AcDbEntity
  8
0
  6
Continuous
 62
     7
370
    25
100
AcDbSpline
210
0.0
220
0.0
230
1.0
 70
     8
 71
     3
 72
    19
 73
    15
 74
     0
 42
0.00000001
 43
0.00000001
 40
0.0
 40
0.0
 40
0.0
 40
0.0
 40
0.0167537368466636
 40
0.0954721520996919
 40
0.1742952126288454
 40
0.2799165983531459
 40
0.3857336219399632
 40
0.4988190166567633
 40
0.6118858961618249
 40
0.70706738327633
 40
0.8021746677427469
 40
0.8927535493203909
 40
0.9832577839646914
 40
1.0
 40
1.0
 40
1.0
 40
1.0
 10
314.0196323961303
 20
126.3703106293106
 30
0.0
 10
314.0171102223244
 20
126.3671801332499
 30
0.0
 10
314.0027374669549
 20
126.3493408178309
 30
0.0
 10
314.066182862023
 20
126.4284038761557
 30
0.0
 10
314.2212855711198
 20
126.6128847720726
 30
0.0
 10
314.5095842372236
 20
126.9328651250084
 30
0.0
 10
314.942017819663
 20
127.3573129737118
 30
0.0
 10
315.4964506712327
 20
127.8199776725757
 30
0.0
 10
316.1393462002416
 20
128.2604576357842
 30
0.0
 10
316.8387831310382
 20
128.6385185766004
 30
0.0
 10
317.5607834496246
 20
128.9417421047587
 30
0.0
 10
318.3385028392565
 20
129.1601412233855
 30
0.0
 10
318.9265513119359
 20
129.2815409830656
 30
0.0
 10
319.2561414904522
 20
129.2948408104173
 30
0.0
 10
319.3075937290751
 20
129.2969170430697
 30
0.0
  0
SPLINE
  5
1FD
330
1F
100
AcDbEntity
  8
0
  6
Continuous
 62
     7
370
    25
100
AcDbSpline
210
0.0
220
0.0
230
1.0
 70
     8
 71
     3
 72
    19
 73
    15
 74
     0
 42
0.00000001
 43
0.00000001
 40
0.0
 40
0.0
 40
0.0
 40
0.0
 40
0.0313543399888413
 40
0.0973973385528851
 40
0.1974114415268892
 40
0.2975378104928738
 40
0.4181260877163557
 40
0.5388108082130725
 40
0.6564425296739205
 40
0.773907855844015
 40
0.8504428602923191
 40
0.9268771546886326
 40
0.9967444484763373
 40
1.0
 40
1.0
 40
1.0
 40
1.0
 10
320.524190933965
 20
129.292415318895
 30
0.0
 10
320.6200628555879
 20
129.2871952793622
 30
0.0
 10
320.9178739404757
 20
129.2709800454325
 30
0.0
 10
321.5007593424124
 20
129.1566075805758
 30
0.0
 10
322.2500036810007
 20
128.9473350749197
 30
0.0
 10
323.0704684061333
 20
128.6030131831984
 30
0.0
 10
323.8376150950475
 20
128.1674141386807
 30
0.0
 10
324.5189056793221
 20
127.6720152567697
 30
0.0
 10
325.0696158125497
 20
127.1816191768171
 30
0.0
 10
325.4383532443136
 20
126.7986633043517
 30
0.0
 10
325.6663788886306
 20
126.5379110197438
 30
0.0
 10
325.7774838328751
 20
126.403455369299
 30
0.0
 10
325.8214606908425
 20
126.3495567240113
 30
0.0
 10
325.8105371278182
 20
126.3628884044738
 30
0.0
 10
325.8100507925
 20
126.3634819532131
 30
0.0
  0
LINE
  5
1FE
330
1F
100
AcDbEntity
  8
0
  6
Continuous
 62
     7
370
    25
100
AcDbLine
 10
318.2380806805
 20
146.9309129666
 30
0.0
 11
314.411993724
 21
146.9309129666
 31
0.0
  0
LINE
  5
1FF
330
1F
100
AcDbEntity
  8
0
  6
Continuous
 62
     7
370
    25
100
AcDbLine
 10
325.411993724
 20
146.9309129666
 30
0.0
 11
321.5859067675
 21
146.9309129666
 31
0.0
  0
INSERT
  5
20B
330
1F
100
AcDbEntity
  8
FORMAT
100
AcDbBlockReference
  2
SW_CENTERMARKSYMBOL_0
 10
319.911993724
 20
119.8309129666
 30
0.0
  0
ARC
  5
20C
330
1F
100
AcDbEntity
  8
FORMAT
100
AcDbCircle
 10
319.911993724
 20
119.8309129666
 30
0.0
 40
7.000000000000012
100
AcDbArc
 50
75.0
 51
345.0
  0
LINE
  5
20D
330
1F
100
AcDbEntity
  8
FORMAT
100
AcDbLine
 10
314.1624554202
 20
97.1961386892
 30
0.0
 11
313.845743724
 21
107.3309129666
 31
0.0
  0
LINE
  5
20E
330
1F
100
AcDbEntity
  8
FORMAT
100
AcDbLine
 10
325.6615320279
 20
97.1961386892
 30
0.0
 11
325.978243724
 21
107.3309129666
 31
0.0
  0
LINE
  5
20F
330
1F
100
AcDbEntity
  8
FORMAT
100
AcDbLine
 10
326.654556224
 20
107.3309129666
 30
0.0
 11
313.169431224
 21
107.3309129666
 31
0.0
  0
LINE
  5
210
330
1F
100
AcDbEntity
  8
0
  6
Continuous
 62
     7
370
    25
100
AcDbLine
 10
211.9134211046
 20
192.4352631312
 30
0.0
 11
211.4134211046
 21
192.4352631312
 31
0.0
  0
LINE
  5
211
330
1F
100
AcDbEntity
  8
0
  6
Continuous
 62
     7
370
    25
100
AcDbLine
 10
211.4134211046
 20
183.4352631312
 30
0.0
 11
211.9134211046
 21
183.4352631312
 31
0.0
  0
LINE
  5
212
330
1F
100
AcDbEntity
  8
0
  6
Continuous
 62
     7
370
    25
100
AcDbLine
 10
211.4134211046
 20
191.9352631312
 30
0.0
 11
207.4134211046
 21
191.9352631312
 31
0.0
  0
LINE
  5
213
330
1F
100
AcDbEntity
  8
0
  6
Continuous
 62
     7
370
    25
100
AcDbLine
 10
207.4134211046
 20
183.9352631312
 30
0.0
 11
211.4134211046
 21
183.9352631312
 31
0.0
  0
LINE
  5
214
330
1F
100
AcDbEntity
  8
0
  6
Continuous
 62
     7
370
    25
100
AcDbLine
 10
207.4134211046
 20
191.9352631312
 30
0.0
 11
204.3364980277
 21
191.4352631312
 31
0.0
  0
LINE
  5
215
330
1F
100
AcDbEntity
  8
0
  6
Continuous
 62
     7
370
    25
100
AcDbLine
 10
204.3364980277
 20
184.4352631312
 30
0.0
 11
207.4134211046
 21
183.9352631312
 31
0.0
  0
LINE
  5
216
330
1F
100
AcDbEntity
  8
0
  6
Continuous
 62
     7
370
    25
100
AcDbLine
 10
199.4134211046
 20
191.9352631312
 30
0.0
 11
195.4134211046
 21
191.2852631312
 31
0.0
  0
LINE
  5
217
330
1F
100
AcDbEntity
  8
0
  6
Continuous
 62
     7
370
    25
100
AcDbLine
 10
195.4134211046
 20
184.5852631312
 30
0.0
 11
199.4134211046
 21
183.9352631312
 31
0.0
  0
LINE
  5
218
330
1F
100
AcDbEntity
  8
0
  6
Continuous
 62
     7
370
    25
100
AcDbLine
 10
203.4134211046
 20
191.9352631312
 30
0.0
 11
199.4134211046
 21
191.2852631312
 31
0.0
  0
LINE
  5
219
330
1F
100
AcDbEntity
  8
0
  6
Continuous
 62
     7
370
    25
100
AcDbLine
 10
199.4134211046
 20
184.5852631312
 30
0.0
 11
203.4134211046
 21
183.9352631312
 31
0.0
  0
LINE
  5
21A
330
1F
100
AcDbEntity
  8
0
  6
Continuous
 62
     7
370
    25
100
AcDbLine
 10
195.4134211046
 20
191.9352631312
 30
0.0
 11
191.4134211046
 21
191.2852631312
 31
0.0
  0
LINE
  5
21B
330
1F
100
AcDbEntity
  8
0
  6
Continuous
 62
     7
370
    25
100
AcDbLine
 10
191.4134211046
 20
184.5852631312
 30
0.0
 11
195.4134211046
 21
183.9352631312
 31
0.0
  0
LINE
  5
21C
330
1F
100
AcDbEntity
  8
0
  6
Continuous
 62
     7
370
    25
100
AcDbLine
 10
191.4134211046
 20
191.9352631312
 30
0.0
 11
186.6195290687
 21
191.3687122542
 31
0.0
  0
LINE
  5
21D
330
1F
100
AcDbEntity
  8
0
  6
Continuous
 62
     7
370
    25
100
AcDbLine
 10
186.6195290687
 20
184.5018140081
 30
0.0
 11
191.4134211046
 21
183.9352631312
 31
0.0
  0
ARC
  5
21E
330
1F
100
AcDbEntity
  8
0
  6
Continuous
 62
     7
370
    25
100
AcDbCircle
 10
186.7134211046
 20
190.5742411814
 30
0.0
 40
0.8000000000000135
100
AcDbArc
 50
96.7400560979
 51
180.0
  0
ARC
  5
21F
330
1F
100
AcDbEntity
  8
0
  6
Continuous
 62
     7
370
    25
100
AcDbCircle
 10
186.7134211046
 20
185.296285081
 30
0.0
 40
0.7999999999999853
100
AcDbArc
 50
180.0
 51
263.2599439021
  0
LINE
  5
220
330
1F
100
AcDbEntity
  8
0
  6
Continuous
 62
     7
370
    25
100
AcDbLine
 10
214.000023645
 20
195.9352631312
 30
0.0
 11
213.9134211046
 21
195.7852631312
 31
0.0
  0
LINE
  5
221
330
1F
100
AcDbEntity
  8
0
  6
Continuous
 62
     7
370
    25
100
AcDbLine
 10
213.9134211046
 20
180.0852631312
 30
0.0
 11
214.000023645
 21
179.9352631312
 31
0.0
  0
LINE
  5
222
330
1F
100
AcDbEntity
  8
0
  6
Continuous
 62
     7
370
    25
100
AcDbLine
 10
222.8268185642
 20
179.9352631312
 30
0.0
 11
222.9134211046
 21
180.0852631312
 31
0.0
  0
LINE
  5
223
330
1F
100
AcDbEntity
  8
0
  6
Continuous
 62
     7
370
    25
100
AcDbLine
 10
222.9134211046
 20
195.7852631312
 30
0.0
 11
222.8268185642
 21
195.9352631312
 31
0.0
  0
ARC
  5
224
330
1F
100
AcDbEntity
  8
0
  6
Continuous
 62
     7
370
    25
100
AcDbCircle
 10
224.6134211046
 20
195.4852631312
 30
0.0
 40
0.3000000000000114
100
AcDbArc
 50
0.0
 51
90.0
  0
ARC
  5
225
330
1F
100
AcDbEntity
  8
0
  6
Continuous
 62
     7
370
    25
100
AcDbCircle
 10
224.6134211046
 20
180.3852631312
 30
0.0
 40
0.3000000000000114
100
AcDbArc
 50
270.0
 51
0.0
  0
ARC
  5
226
330
1F
100
AcDbEntity
  8
0
  6
Continuous
 62
     7
370
    25
100
AcDbCircle
 10
212.2134211046
 20
180.3852631312
 30
0.0
 40
0.3000000000000114
100
AcDbArc
 50
180.0
 51
270.0
  0
ARC
  5
227
330
1F
100
AcDbEntity
  8
0
  6
Continuous
 62
     7
370
    25
100
AcDbCircle
 10
212.2134211046
 20
195.4852631312
 30
0.0
 40
0.3000000000000114
100
AcDbArc
 50
90.0
 51
180.0
  0
LINE
  5
228
330
1F
100
AcDbEntity
  8
0
  6
Continuous
 62
     7
370
    25
100
AcDbLine
 10
222.9134211046
 20
180.0852631312
 30
0.0
 11
224.6134211046
 21
180.0852631312
 31
0.0
  0
LINE
  5
229
330
1F
100
AcDbEntity
  8
0
  6
Continuous
 62
     7
370
    25
100
AcDbLine
 10
224.6134211046
 20
195.7852631312
 30
0.0
 11
222.9134211046
 21
195.7852631312
 31
0.0
  0
LINE
  5
22A
330
1F
100
AcDbEntity
  8
0
  6
Continuous
 62
     7
370
    25
100
AcDbLine
 10
213.9134211046
 20
195.7852631312
 30
0.0
 11
212.2134211046
 21
195.7852631312
 31
0.0
  0
LINE
  5
22B
330
1F
100
AcDbEntity
  8
0
  6
Continuous
 62
     7
370
    25
100
AcDbLine
 10
212.2134211046
 20
180.0852631312
 30
0.0
 11
213.9134211046
 21
180.0852631312
 31
0.0
  0
LINE
  5
22C
330
1F
100
AcDbEntity
  8
0
  6
Continuous
 62
     7
370
    25
100
AcDbLine
 10
228.291549027
 20
196.4352631312
 30
0.0
 11
228.091549027
 21
196.2352631312
 31
0.0
  0
LINE
  5
22D
330
1F
100
AcDbEntity
  8
0
  6
Continuous
 62
     7
370
    25
100
AcDbLine
 10
228.091549027
 20
179.6352631312
 30
0.0
 11
228.291549027
 21
179.4352631312
 31
0.0
  0
LINE
  5
22E
330
1F
100
AcDbEntity
  8
0
  6
Continuous
 62
     7
370
    25
100
AcDbLine
 10
228.291549027
 20
179.4352631312
 30
0.0
 11
231.091549027
 21
179.4352631312
 31
0.0
  0
LINE
  5
22F
330
1F
100
AcDbEntity
  8
0
  6
Continuous
 62
     7
370
    25
100
AcDbLine
 10
231.091549027
 20
196.4352631312
 30
0.0
 11
228.291549027
 21
196.4352631312
 31
0.0
  0
LINE
  5
230
330
1F
100
AcDbEntity
  8
0
  6
Continuous
 62
     7
370
    25
100
AcDbLine
 10
228.091549027
 20
194.5137631312
 30
0.0
 11
224.9134211046
 21
194.5137631312
 31
0.0
  0
LINE
  5
231
330
1F
100
AcDbEntity
  8
0
  6
Continuous
 62
     7
370
    25
100
AcDbLine
 10
224.9134211046
 20
181.3567631312
 30
0.0
 11
228.091549027
 21
181.3567631312
 31
0.0
  0
LINE
  5
232
330
1F
100
AcDbEntity
  8
0
  6
Continuous
 62
     7
370
    25
100
AcDbLine
 10
254.4472114598
 20
179.4352631312
 30
0.0
 11
254.591549027
 21
179.6852631312
 31
0.0
  0
LINE
  5
233
330
1F
100
AcDbEntity
  8
0
  6
Continuous
 62
     7
370
    25
100
AcDbLine
 10
254.591549027
 20
196.1852631312
 30
0.0
 11
254.4472114598
 21
196.4352631312
 31
0.0
  0
LINE
  5
234
330
1F
100
AcDbEntity
  8
0
  6
Continuous
 62
     7
370
    25
100
AcDbLine
 10
211.4134211046
 20
183.4352631312
 30
0.0
 11
211.4134211046
 21
184.4352631312
 31
0.0
  0
LINE
  5
235
330
1F
100
AcDbEntity
  8
0
  6
Continuous
 62
     7
370
    25
100
AcDbLine
 10
211.4134211046
 20
191.4352631312
 30
0.0
 11
211.4134211046
 21
192.4352631312
 31
0.0
  0
LINE
  5
236
330
1F
100
AcDbEntity
  8
0
  6
Continuous
 62
     7
370
    25
100
AcDbLine
 10
207.4134211046
 20
184.4352631312
 30
0.0
 11
207.4134211046
 21
183.9352631312
 31
0.0
  0
LINE
  5
237
330
1F
100
AcDbEntity
  8
0
  6
Continuous
 62
     7
370
    25
100
AcDbLine
 10
207.4134211046
 20
191.9352631312
 30
0.0
 11
207.4134211046
 21
191.4352631312
 31
0.0
  0
LINE
  5
238
330
1F
100
AcDbEntity
  8
0
  6
Continuous
 62
     7
370
    25
100
AcDbLine
 10
199.4134211046
 20
188.7314947008
 30
0.0
 11
199.4134211046
 21
183.9352631312
 31
0.0
  0
LINE
  5
239
330
1F
100
AcDbEntity
  8
0
  6
Continuous
 62
     7
370
    25
100
AcDbLine
 10
199.4134211046
 20
191.9352631312
 30
0.0
 11
199.4134211046
 21
188.7314947008
 31
0.0
  0
LINE
  5
23A
330
1F
100
AcDbEntity
  8
0
  6
Continuous
 62
     7
370
    25
100
AcDbLine
 10
203.4134211046
 20
184.4352631312
 30
0.0
 11
203.4134211046
 21
183.9352631312
 31
0.0
  0
LINE
  5
23B
330
1F
100
AcDbEntity
  8
0
  6
Continuous
 62
     7
370
    25
100
AcDbLine
 10
203.4134211046
 20
191.9352631312
 30
0.0
 11
203.4134211046
 21
191.4352631312
 31
0.0
  0
LINE
  5
23C
330
1F
100
AcDbEntity
  8
0
  6
Continuous
 62
     7
370
    25
100
AcDbLine
 10
195.4134211046
 20
188.7314947008
 30
0.0
 11
195.4134211046
 21
183.9352631312
 31
0.0
  0
LINE
  5
23D
330
1F
100
AcDbEntity
  8
0
  6
Continuous
 62
     7
370
    25
100
AcDbLine
 10
195.4134211046
 20
191.9352631312
 30
0.0
 11
195.4134211046
 21
188.7314947008
 31
0.0
  0
LINE
  5
23E
330
1F
100
AcDbEntity
  8
0
  6
Continuous
 62
     7
370
    25
100
AcDbLine
 10
191.4134211046
 20
188.7314947008
 30
0.0
 11
191.4134211046
 21
183.9352631312
 31
0.0
  0
LINE
  5
23F
330
1F
100
AcDbEntity
  8
0
  6
Continuous
 62
     7
370
    25
100
AcDbLine
 10
191.4134211046
 20
191.9352631312
 30
0.0
 11
191.4134211046
 21
188.7314947008
 31
0.0
  0
LINE
  5
240
330
1F
100
AcDbEntity
  8
0
  6
Continuous
 62
     7
370
    25
100
AcDbLine
 10
185.9134211046
 20
188.4605725399
 30
0.0
 11
185.9134211046
 21
190.5742411814
 31
0.0
  0
LINE
  5
241
330
1F
100
AcDbEntity
  8
0
  6
Continuous
 62
     7
370
    25
100
AcDbLine
 10
185.9134211046
 20
185.296285081
 30
0.0
 11
185.9134211046
 21
188.4605725399
 31
0.0
  0
LINE
  5
242
330
1F
100
AcDbEntity
  8
0
  6
Continuous
 62
     7
370
    25
100
AcDbLine
 10
214.7145548248
 20
195.9352631312
 30
0.0
 11
222.1122873844
 21
195.9352631312
 31
0.0
  0
SPLINE
  5
243
330
1F
100
AcDbEntity
  8
0
  6
Continuous
 62
     7
370
    25
100
AcDbSpline
210
0.0
220
0.0
230
1.0
 70
     8
 71
     3
 72
    12
 73
     8
 74
     0
 42
0.00000001
 43
0.00000001
 40
0.0
 40
0.0
 40
0.0
 40
0.0
 40
0.2382799746020416
 40
0.476492579421009
 40
0.7200340659539579
 40
0.9635316045078738
 40
1.0
 40
1.0
 40
1.0
 40
1.0
 10
222.1122873844199
 20
195.935263131182
 30
0.0
 10
222.2209366128238
 20
195.5896377220114
 30
0.0
 10
222.4382043508314
 20
194.898484623627
 30
0.0
 10
222.6740870469311
 20
193.8340663239143
 30
0.0
 10
222.8076347536159
 20
192.7500061166634
 30
0.0
 10
222.8479313860453
 20
191.9613046989045
 30
0.0
 10
222.8153608800171
 20
191.5414085933938
 30
0.0
 10
222.8111182420717
 20
191.4867128773112
 30
0.0
  0
SPLINE
  5
244
330
1F
100
AcDbEntity
  8
0
  6
Continuous
 62
     7
370
    25
100
AcDbSpline
210
0.0
220
0.0
230
1.0
 70
     8
 71
     3
 72
    12
 73
     8
 74
     0
 42
0.00000001
 43
0.00000001
 40
0.0
 40
0.0
 40
0.0
 40
0.0
 40
0.1720384195901963
 40
0.3771438715958189
 40
0.5822813182175276
 40
0.7911204673626929
 40
1.0
 40
1.0
 40
1.0
 40
1.0
 10
214.0241641083266
 20
191.4352631311819
 30
0.0
 10
214.0123012141977
 20
191.6967611111519
 30
0.0
 10
213.9862952916208
 20
192.2700188800579
 30
0.0
 10
214.0599551024456
 20
193.1546180134364
 30
0.0
 10
214.2055532747513
 20
194.0875880612398
 30
0.0
 10
214.4235566879712
 20
195.0164391775783
 30
0.0
 10
214.6175491943715
 20
195.6289687409524
 30
0.0
 10
214.7145548248095
 20
195.935263131182
 30
0.0
  0
SPLINE
  5
245
330
1F
100
AcDbEntity
  8
0
  6
Continuous
 62
     7
370
    25
100
AcDbSpline
210
0.0
220
0.0
230
1.0
 70
    24
 71
     3
 72
    10
 73
     6
 74
     0
 42
0.00000001
 43
0.00000001
 40
0.0
 40
0.0
 40
0.0
 40
0.0
 40
0.2474401248080932
 40
0.6216975513979003
 40
1.0
 40
1.0
 40
1.0
 40
1.0
 10
214.0024023438907
 20
179.935263131182
 30
0.0
 10
214.0113620673324
 20
179.935263131182
 30
0.0
 10
214.0338735259297
 20
179.935263131182
 30
0.0
 10
214.2623891448086
 20
179.935263131182
 30
0.0
 10
214.5632938089288
 20
179.935263131182
 30
0.0
 10
214.7145548248095
 20
179.935263131182
 30
0.0
  0
SPLINE
  5
246
330
1F
100
AcDbEntity
  8
0
  6
Continuous
 62
     7
370
    25
100
AcDbSpline
210
0.0
220
0.0
230
1.0
 70
    24
 71
     3
 72
    10
 73
     6
 74
     0
 42
0.00000001
 43
0.00000001
 40
0.0
 40
0.0
 40
0.0
 40
0.0
 40
0.37457648108019
 40
0.7525567234978838
 40
1.0
 40
1.0
 40
1.0
 40
1.0
 10
214.7145548248095
 20
195.935263131182
 30
0.0
 10
214.5646269854953
 20
195.935263131182
 30
0.0
 10
214.2634089186534
 20
195.935263131182
 30
0.0
 10
214.0345748513511
 20
195.935263131182
 30
0.0
 10
214.0105993460958
 20
195.935263131182
 30
0.0
 10
214.001113649769
 20
195.935263131182
 30
0.0
  0
SPLINE
  5
247
330
1F
100
AcDbEntity
  8
0
  6
Continuous
 62
     7
370
    25
100
AcDbSpline
210
0.0
220
0.0
230
1.0
 70
     8
 71
     3
 72
    12
 73
     8
 74
     0
 42
0.00000001
 43
0.00000001
 40
0.0
 40
0.0
 40
0.0
 40
0.0
 40
0.2355866357993068
 40
0.4711066633132323
 40
0.7118953388437024
 40
0.9526405631502588
 40
0.9999999999999999
 40
0.9999999999999999
 40
0.9999999999999999
 40
0.9999999999999999
 10
214.7145548248095
 20
179.935263131182
 30
0.0
 10
214.6058951749681
 20
180.2808889047946
 30
0.0
 10
214.3886065970321
 20
180.9720427319596
 30
0.0
 10
214.1528813316408
 20
182.0364555262568
 30
0.0
 10
214.0187225180209
 20
183.1205371041646
 30
0.0
 10
213.9792254360403
 20
183.9264036324451
 30
0.0
 10
214.0137507892264
 20
184.3634244472838
 30
0.0
 10
214.0194261617712
 20
184.4352631311819
 30
0.0
  0
LINE
  5
248
330
1F
100
AcDbEntity
  8
0
  6
Continuous
 62
     7
370
    25
100
AcDbLine
 10
213.9134211046
 20
180.0852631312
 30
0.0
 11
213.9134211046
 21
184.4352631312
 31
0.0
  0
LINE
  5
249
330
1F
100
AcDbEntity
  8
0
  6
Continuous
 62
     7
370
    25
100
AcDbLine
 10
213.9134211046
 20
191.4352631312
 30
0.0
 11
213.9134211046
 21
195.7852631312
 31
0.0
  0
SPLINE
  5
24A
330
1F
100
AcDbEntity
  8
0
  6
Continuous
 62
     7
370
    25
100
AcDbSpline
210
0.0
220
0.0
230
1.0
 70
    24
 71
     3
 72
    10
 73
     6
 74
     0
 42
0.00000001
 43
0.00000001
 40
0.0
 40
0.0
 40
0.0
 40
0.0
 40
0.2360821294511254
 40
0.6159088308149462
 40
1.0
 40
1.0
 40
1.0
 40
1.0
 10
222.8222882165998
 20
195.935263131182
 30
0.0
 10
222.8150453324984
 20
195.935263131182
 30
0.0
 10
222.7961495512337
 20
195.935263131182
 30
0.0
 10
222.5705048835129
 20
195.935263131182
 30
0.0
 10
222.2655939254629
 20
195.935263131182
 30
0.0
 10
222.1122873844199
 20
195.935263131182
 30
0.0
  0
SPLINE
  5
24B
330
1F
100
AcDbEntity
  8
0
  6
Continuous
 62
     7
370
    25
100
AcDbSpline
210
0.0
220
0.0
230
1.0
 70
    24
 71
     3
 72
    10
 73
     6
 74
     0
 42
0.00000001
 43
0.00000001
 40
0.0
 40
0.0
 40
0.0
 40
0.0
 40
0.3801653716454216
 40
0.7639143736365736
 40
1.0
 40
1.0
 40
1.0
 40
1.0
 10
222.1122873844199
 20
179.935263131182
 30
0.0
 10
222.2641936189601
 20
179.935263131182
 30
0.0
 10
222.5694380327477
 20
179.935263131182
 30
0.0
 10
222.7954475146884
 20
179.935263131182
 30
0.0
 10
222.8157770334041
 20
179.935263131182
 30
0.0
 10
222.8235202393175
 20
179.935263131182
 30
0.0
  0
SPLINE
  5
24C
330
1F
100
AcDbEntity
  8
0
  6
Continuous
 62
     7
370
    25
100
AcDbSpline
210
0.0
220
0.0
230
1.0
 70
     8
 71
     3
 72
    12
 73
     8
 74
     0
 42
0.00000001
 43
0.00000001
 40
0.0
 40
0.0
 40
0.0
 40
0.0
 40
0.1585339426664576
 40
0.3669847695168553
 40
0.575468112831894
 40
0.7877135353321687
 40
1.0
 40
1.0
 40
1.0
 40
1.0
 10
222.8045671159425
 20
184.3620868281739
 30
0.0
 10
222.8150930920391
 20
184.1249838515964
 30
0.0
 10
222.8394593119585
 20
183.5761223286472
 30
0.0
 10
222.7666063204576
 20
182.7159094012154
 30
0.0
 10
222.6213653256479
 20
181.7829378876309
 30
0.0
 10
222.4032662770322
 20
180.8540871637599
 30
0.0
 10
222.2092865997025
 20
180.2415575477381
 30
0.0
 10
222.1122873844199
 20
179.935263131182
 30
0.0
  0
LINE
  5
24D
330
1F
100
AcDbEntity
  8
0
  6
Continuous
 62
     7
370
    25
100
AcDbLine
 10
222.9134211046
 20
195.7852631312
 30
0.0
 11
222.9134211046
 21
191.4832543242
 31
0.0
  0
LINE
  5
24E
330
1F
100
AcDbEntity
  8
0
  6
Continuous
 62
     7
370
    25
100
AcDbLine
 10
222.9134211046
 20
184.3872719382
 30
0.0
 11
222.9134211046
 21
180.0852631312
 31
0.0
  0
LINE
  5
24F
330
1F
100
AcDbEntity
  8
0
  6
Continuous
 62
     7
370
    25
100
AcDbLine
 10
214.7145548248
 20
179.9352631312
 30
0.0
 11
222.1122873844
 21
179.9352631312
 31
0.0
  0
LINE
  5
250
330
1F
100
AcDbEntity
  8
0
  6
Continuous
 62
     7
370
    25
100
AcDbLine
 10
224.9134211046
 20
195.4852631312
 30
0.0
 11
224.9134211046
 21
191.591032761
 31
0.0
  0
LINE
  5
251
330
1F
100
AcDbEntity
  8
0
  6
Continuous
 62
     7
370
    25
100
AcDbLine
 10
224.9134211046
 20
184.2794935014
 30
0.0
 11
224.9134211046
 21
180.3852631313
 31
0.0
  0
LINE
  5
252
330
1F
100
AcDbEntity
  8
0
  6
Continuous
 62
     7
370
    25
100
AcDbLine
 10
211.9134211046
 20
180.3852631312
 30
0.0
 11
211.9134211046
 21
184.4352631312
 31
0.0
  0
LINE
  5
253
330
1F
100
AcDbEntity
  8
0
  6
Continuous
 62
     7
370
    25
100
AcDbLine
 10
211.9134211046
 20
191.4352631312
 30
0.0
 11
211.9134211046
 21
195.485263131
 31
0.0
  0
LINE
  5
254
330
1F
100
AcDbEntity
  8
0
  6
Continuous
 62
     7
370
    25
100
AcDbLine
 10
228.291549027
 20
196.4352631312
 30
0.0
 11
228.291549027
 21
191.9141232293
 31
0.0
  0
LINE
  5
255
330
1F
100
AcDbEntity
  8
0
  6
Continuous
 62
     7
370
    25
100
AcDbLine
 10
228.291549027
 20
183.9564030331
 30
0.0
 11
228.291549027
 21
179.4352631312
 31
0.0
  0
LINE
  5
256
330
1F
100
AcDbEntity
  8
0
  6
Continuous
 62
     7
370
    25
100
AcDbLine
 10
228.091549027
 20
179.6352631312
 30
0.0
 11
228.091549027
 21
183.9805005154
 31
0.0
  0
LINE
  5
257
330
1F
100
AcDbEntity
  8
0
  6
Continuous
 62
     7
370
    25
100
AcDbLine
 10
228.091549027
 20
191.890025747
 30
0.0
 11
228.091549027
 21
196.2352631312
 31
0.0
  0
LINE
  5
258
330
1F
100
AcDbEntity
  8
0
  6
Continuous
 62
     7
370
    25
100
AcDbLine
 10
231.091549027
 20
196.4352631312
 30
0.0
 11
231.091549027
 21
192.3179094131
 31
0.0
  0
LINE
  5
259
330
1F
100
AcDbEntity
  8
0
  6
Continuous
 62
     7
370
    25
100
AcDbLine
 10
231.091549027
 20
183.5526168493
 30
0.0
 11
231.091549027
 21
179.4352631312
 31
0.0
  0
SPLINE
  5
25A
330
1F
100
AcDbEntity
  8
0
  6
Continuous
 62
     7
370
    25
100
AcDbSpline
210
0.0
220
0.0
230
1.0
 70
    24
 71
     3
 72
    10
 73
     6
 74
     0
 42
0.00000001
 43
0.00000001
 40
0.0
 40
0.0
 40
0.0
 40
0.0
 40
0.3696305037550658
 40
0.7423066622495845
 40
0.9999999999999999
 40
0.9999999999999999
 40
0.9999999999999999
 40
0.9999999999999999
 10
253.76949005449
 20
179.435263131182
 30
0.0
 10
253.9106926602659
 20
179.435263131182
 30
0.0
 10
254.1942613428549
 20
179.435263131182
 30
0.0
 10
254.4133960559434
 20
179.435263131182
 30
0.0
 10
254.4357869876573
 20
179.435263131182
 30
0.0
 10
254.4449403397199
 20
179.435263131182
 30
0.0
  0
SPLINE
  5
25B
330
1F
100
AcDbEntity
  8
0
  6
Continuous
 62
     7
370
    25
100
AcDbSpline
210
0.0
220
0.0
230
1.0
 70
     8
 71
     3
 72
    10
 73
     6
 74
     0
 42
0.00000001
 43
0.00000001
 40
0.0
 40
0.0
 40
0.0
 40
0.0
 40
0.5
 40
0.5
 40
1.0
 40
1.0
 40
1.0
 40
1.0
 10
253.76949005449
 20
179.685263131182
 30
0.0
 10
253.7458146600656
 20
179.6108827538046
 30
0.0
 10
253.7327235501809
 20
179.5465821150189
 30
0.0
 10
253.7326372288927
 20
179.4583664302359
 30
0.0
 10
253.7458061628365
 20
179.435263131182
 30
0.0
 10
253.76949005449
 20
179.435263131182
 30
0.0
  0
SPLINE
  5
25C
330
1F
100
AcDbEntity
  8
0
  6
Continuous
 62
     7
370
    25
100
AcDbSpline
210
0.0
220
0.0
230
1.0
 70
     8
 71
     3
 72
    16
 73
    12
 74
     0
 42
0.00000001
 43
0.00000001
 40
0.0
 40
0.0
 40
0.0
 40
0.0
 40
0.2500000000000001
 40
0.2500000000000001
 40
0.5000000000000001
 40
0.5000000000000001
 40
0.6250000000000001
 40
0.6250000000000001
 40
0.7500000000000002
 40
0.7500000000000002
 40
1.0
 40
1.0
 40
1.0
 40
1.0
 10
253.76949005449
 20
187.685263131182
 30
0.0
 10
253.9775055025957
 20
187.0317463511412
 30
0.0
 10
254.1477118075687
 20
186.3735259420512
 30
0.0
 10
254.3826478391363
 20
185.0439633586854
 30
0.0
 10
254.4467199707999
 20
184.3725393766149
 30
0.0
 10
254.447452919721
 20
183.3535382896082
 30
0.0
 10
254.4317934396379
 20
183.012197507292
 30
0.0
 10
254.370518313001
 20
182.3365990043215
 30
0.0
 10
254.3249620405019
 20
182.0009398543569
 30
0.0
 10
254.1484760077456
 20
180.9996742178572
 30
0.0
 10
253.9778195542599
 20
180.339766559254
 30
0.0
 10
253.76949005449
 20
179.685263131182
 30
0.0
  0
SPLINE
  5
25D
330
1F
100
AcDbEntity
  8
0
  6
Continuous
 62
     7
370
    25
100
AcDbSpline
210
0.0
220
0.0
230
1.0
 70
     8
 71
     3
 72
    10
 73
     6
 74
     0
 42
0.00000001
 43
0.00000001
 40
0.0
 40
0.0
 40
0.0
 40
0.0
 40
0.5
 40
0.5
 40
1.0
 40
1.0
 40
1.0
 40
1.0
 10
253.76949005449
 20
188.185263131182
 30
0.0
 10
253.7458146600656
 20
188.1108827538046
 30
0.0
 10
253.7327235501809
 20
188.0237896656891
 30
0.0
 10
253.7326372288927
 20
187.8476312768131
 30
0.0
 10
253.7458061628365
 20
187.7596702040852
 30
0.0
 10
253.76949005449
 20
187.685263131182
 30
0.0
  0
SPLINE
  5
25E
330
1F
100
AcDbEntity
  8
0
  6
Continuous
 62
     7
370
    25
100
AcDbSpline
210
0.0
220
0.0
230
1.0
 70
     8
 71
     3
 72
    16
 73
    12
 74
     0
 42
0.00000001
 43
0.00000001
 40
0.0
 40
0.0
 40
0.0
 40
0.0
 40
0.2499999999999997
 40
0.2499999999999997
 40
0.4999999999999993
 40
0.4999999999999993
 40
0.6249999999999993
 40
0.6249999999999993
 40
0.7499999999999996
 40
0.7499999999999996
 40
1.0
 40
1.0
 40
1.0
 40
1.0
 10
253.76949005449
 20
196.185263131182
 30
0.0
 10
253.9775055025957
 20
195.5317463511412
 30
0.0
 10
254.1477118075687
 20
194.8735259420512
 30
0.0
 10
254.3826478391363
 20
193.5439633586854
 30
0.0
 10
254.4467199707999
 20
192.8725393766149
 30
0.0
 10
254.447452919721
 20
191.8535382896082
 30
0.0
 10
254.4317934396379
 20
191.512197507292
 30
0.0
 10
254.370518313001
 20
190.8365990043215
 30
0.0
 10
254.3249620405019
 20
190.5009398543569
 30
0.0
 10
254.1484760077456
 20
189.4996742178572
 30
0.0
 10
253.9778195542599
 20
188.839766559254
 30
0.0
 10
253.76949005449
 20
188.185263131182
 30
0.0
  0
SPLINE
  5
25F
330
1F
100
AcDbEntity
  8
0
  6
Continuous
 62
     7
370
    25
100
AcDbSpline
210
0.0
220
0.0
230
1.0
 70
     8
 71
     3
 72
    10
 73
     6
 74
     0
 42
0.00000001
 43
0.00000001
 40
0.0
 40
0.0
 40
0.0
 40
0.0
 40
0.5
 40
0.5
 40
1.0
 40
1.0
 40
1.0
 40
1.0
 10
253.76949005449
 20
196.435263131182
 30
0.0
 10
253.7458146600656
 20
196.435263131182
 30
0.0
 10
253.7327235501809
 20
196.4124706818522
 30
0.0
 10
253.7326372288927
 20
196.3245279777591
 30
0.0
 10
253.7458061628365
 20
196.2596702040852
 30
0.0
 10
253.76949005449
 20
196.185263131182
 30
0.0
  0
SPLINE
  5
260
330
1F
100
AcDbEntity
  8
0
  6
Continuous
 62
     7
370
    25
100
AcDbSpline
210
0.0
220
0.0
230
1.0
 70
    24
 71
     3
 72
    10
 73
     6
 74
     0
 42
0.00000001
 43
0.00000001
 40
0.0
 40
0.0
 40
0.0
 40
0.0
 40
0.2576900826341857
 40
0.6270672496174371
 40
1.0
 40
1.0
 40
1.0
 40
1.0
 10
254.4435988587969
 20
196.435263131182
 30
0.0
 10
254.4349958566508
 20
196.435263131182
 30
0.0
 10
254.4140611709265
 20
196.435263131182
 30
0.0
 10
254.1950956624528
 20
196.435263131182
 30
0.0
 10
253.9118108915113
 20
196.435263131182
 30
0.0
 10
253.76949005449
 20
196.435263131182
 30
0.0
  0
LINE
  5
261
330
1F
100
AcDbEntity
  8
0
  6
Continuous
 62
     7
370
    25
100
AcDbLine
 10
254.591549027
 20
196.1852631312
 30
0.0
 11
254.591549027
 21
179.6852631312
 31
0.0
  0
SPLINE
  5
262
330
1F
100
AcDbEntity
  8
0
  6
Continuous
 62
     7
370
    25
100
AcDbSpline
210
0.0
220
0.0
230
1.0
 70
     8
 71
     3
 72
    12
 73
     8
 74
     0
 42
0.00000001
 43
0.00000001
 40
0.0
 40
0.0
 40
0.0
 40
0.0
 40
0.045834707512559
 40
0.2824194837274058
 40
0.5190336436315998
 40
0.7594971360839121
 40
1.0
 40
1.0
 40
1.0
 40
1.0
 10
248.593217559437
 20
192.3072374779238
 30
0.0
 10
248.593829421086
 20
192.3673212998663
 30
0.0
 10
248.5975995258905
 20
192.7375394793695
 30
0.0
 10
248.6484887723727
 20
193.4173619056713
 30
0.0
 10
248.7872577408267
 20
194.3455943709041
 30
0.0
 10
248.9928301548806
 20
195.2700969279407
 30
0.0
 10
249.1771186446032
 20
195.8801910828527
 30
0.0
 10
249.2692704323078
 20
196.185263131182
 30
0.0
  0
LINE
  5
263
330
1F
100
AcDbEntity
  8
0
  6
Continuous
 62
     7
370
    25
100
AcDbLine
 10
253.7694900545
 20
196.1852631312
 30
0.0
 11
249.2692704323
 21
196.1852631312
 31
0.0
  0
SPLINE
  5
264
330
1F
100
AcDbEntity
  8
0
  6
Continuous
 62
     7
370
    25
100
AcDbSpline
210
0.0
220
0.0
230
1.0
 70
     8
 71
     3
 72
    12
 73
     8
 74
     0
 42
0.00000001
 43
0.00000001
 40
0.0
 40
0.0
 40
0.0
 40
0.0
 40
0.0928091292534284
 40
0.317975209705495
 40
0.543167190433311
 40
0.7715678283204985
 40
1.0
 40
1.0
 40
1.0
 40
1.0
 10
231.094566824819
 20
192.3192840193687
 30
0.0
 10
231.0964068233065
 20
192.4405774886694
 30
0.0
 10
231.1027108788407
 20
192.8561434642048
 30
0.0
 10
231.1670591201062
 20
193.5646580336795
 30
0.0
 10
231.3073106145212
 20
194.4437113795981
 30
0.0
 10
231.5068146157727
 20
195.3188481905243
 30
0.0
 10
231.6817811343255
 20
195.8964448610435
 30
0.0
 10
231.7692704323078
 20
196.185263131182
 30
0.0
  0
LINE
  5
265
330
1F
100
AcDbEntity
  8
0
  6
Continuous
 62
     7
370
    25
100
AcDbLine
 10
235.9138276218
 20
196.1852631312
 30
0.0
 11
231.7692704323
 21
196.1852631312
 31
0.0
  0
SPLINE
  5
266
330
1F
100
AcDbEntity
  8
0
  6
Continuous
 62
     7
370
    25
100
AcDbSpline
210
0.0
220
0.0
230
1.0
 70
     8
 71
     3
 72
    10
 73
     6
 74
     0
 42
0.00000001
 43
0.00000001
 40
0.0
 40
0.0
 40
0.0
 40
0.0
 40
0.3656016412938916
 40
0.7311309548273379
 40
1.0
 40
1.0
 40
1.0
 40
1.0
 10
235.9138276217874
 20
196.185263131182
 30
0.0
 10
236.0108922781909
 20
195.8609553818715
 30
0.0
 10
236.2050023884877
 20
195.2124040417514
 30
0.0
 10
236.4070319027691
 20
194.3114838889582
 30
0.0
 10
236.4767140483013
 20
193.7331191083074
 30
0.0
 10
236.5062465520944
 20
193.4879980669285
 30
0.0
  0
SPLINE
  5
267
330
1F
100
AcDbEntity
  8
0
  6
Continuous
 62
     7
370
    25
100
AcDbSpline
210
0.0
220
0.0
230
1.0
 70
     8
 71
     3
 72
    10
 73
     6
 74
     0
 42
0.00000001
 43
0.00000001
 40
0.0
 40
0.0
 40
0.0
 40
0.0
 40
0.3172846029600696
 40
0.6586143582526472
 40
1.0
 40
1.0
 40
1.0
 40
1.0
 10
236.5156069068389
 20
182.4032243782497
 30
0.0
 10
236.4765688188089
 20
182.112080362913
 30
0.0
 10
236.3955341733979
 20
181.5077282228118
 30
0.0
 10
236.1893807059859
 20
180.6005165899946
 30
0.0
 10
236.0056836622773
 20
179.9903642662889
 30
0.0
 10
235.9138276217874
 20
179.685263131182
 30
0.0
  0
LINE
  5
268
330
1F
100
AcDbEntity
  8
0
  6
Continuous
 62
     7
370
    25
100
AcDbLine
 10
231.7692704323
 20
179.6852631312
 30
0.0
 11
235.9138276218
 21
179.6852631312
 31
0.0
  0
SPLINE
  5
269
330
1F
100
AcDbEntity
  8
0
  6
Continuous
 62
     7
370
    25
100
AcDbSpline
210
0.0
220
0.0
230
1.0
 70
     8
 71
     3
 72
    11
 73
     7
 74
     0
 42
0.00000001
 43
0.00000001
 40
0.0
 40
0.0
 40
0.0
 40
0.0
 40
0.2580797331989995
 40
0.5161084099283053
 40
0.7786346325955545
 40
1.0
 40
1.0
 40
1.0
 40
1.0
 10
231.7692704323078
 20
179.685263131182
 30
0.0
 10
231.6715046108801
 20
180.0095168018184
 30
0.0
 10
231.4759923092478
 20
180.657959995289
 30
0.0
 10
231.2637233005665
 20
181.652519076462
 30
0.0
 10
231.1252996391533
 20
182.6095578997778
 30
0.0
 10
231.1072298603646
 20
183.2378270353533
 30
0.0
 10
231.098963498017
 20
183.5252406438538
 30
0.0
  0
LINE
  5
26A
330
1F
100
AcDbEntity
  8
0
  6
Continuous
 62
     7
370
    25
100
AcDbLine
 10
249.2692704323
 20
179.6852631312
 30
0.0
 11
253.7694900545
 21
179.6852631312
 31
0.0
  0
SPLINE
  5
26B
330
1F
100
AcDbEntity
  8
0
  6
Continuous
 62
     7
370
    25
100
AcDbSpline
210
0.0
220
0.0
230
1.0
 70
     8
 71
     3
 72
    11
 73
     7
 74
     0
 42
0.00000001
 43
0.00000001
 40
0.0
 40
0.0
 40
0.0
 40
0.0
 40
0.2555209744068735
 40
0.5109913985488186
 40
0.7709147772341446
 40
1.0
 40
1.0
 40
1.0
 40
1.0
 10
249.2692704323078
 20
179.6852631311819
 30
0.0
 10
249.1715146570335
 20
180.0095173685896
 30
0.0
 10
248.9760224457207
 20
180.6579616954904
 30
0.0
 10
248.763601907231
 20
181.6525122278462
 30
0.0
 10
248.6238721093256
 20
182.6225001690192
 30
0.0
 10
248.6056803118425
 20
183.2637852265129
 30
0.0
 10
248.5971580241638
 20
183.5642072023563
 30
0.0
  0
LINE
  5
26C
330
1F
100
AcDbEntity
  8
0
  6
Continuous
 62
     7
370
    25
100
AcDbLine
 10
248.591549027
 20
183.5190996378
 30
0.0
 11
248.591549027
 21
180.4352631312
 31
0.0
  0
LINE
  5
26D
330
1F
100
AcDbEntity
  8
0
  6
Continuous
 62
     7
370
    25
100
AcDbLine
 10
248.591549027
 20
180.4352631312
 30
0.0
 11
236.591549027
 21
180.4352631312
 31
0.0
  0
LINE
  5
26E
330
1F
100
AcDbEntity
  8
0
  6
Continuous
 62
     7
370
    25
100
AcDbLine
 10
236.591549027
 20
182.3904475272
 30
0.0
 11
236.591549027
 21
180.4352631312
 31
0.0
  0
LINE
  5
26F
330
1F
100
AcDbEntity
  8
0
  6
Continuous
 62
     7
370
    25
100
AcDbLine
 10
236.591549027
 20
195.4352631312
 30
0.0
 11
236.591549027
 21
193.4800787351
 31
0.0
  0
LINE
  5
270
330
1F
100
AcDbEntity
  8
0
  6
Continuous
 62
     7
370
    25
100
AcDbLine
 10
236.591549027
 20
195.4352631312
 30
0.0
 11
248.591549027
 21
195.4352631312
 31
0.0
  0
LINE
  5
271
330
1F
100
AcDbEntity
  8
0
  6
Continuous
 62
     7
370
    25
100
AcDbLine
 10
248.591549027
 20
195.4352631312
 30
0.0
 11
248.591549027
 21
192.3514266245
 31
0.0
  0
SPLINE
  5
272
330
1F
100
AcDbEntity
  8
0
  6
Continuous
 62
     7
370
    25
100
AcDbSpline
210
0.0
220
0.0
230
1.0
 70
     8
 71
     3
 72
     8
 73
     4
 74
     0
 42
0.00000001
 43
0.00000001
 40
0.0
 40
0.0
 40
0.0
 40
0.0
 40
1.0
 40
1.0
 40
1.0
 40
1.0
 10
236.0753129500684
 20
196.435263131182
 30
0.0
 10
236.2490160262882
 20
196.1027517090465
 30
0.0
 10
236.4213182453509
 20
195.7694246091476
 30
0.0
 10
236.5915490270476
 20
195.435263131182
 30
0.0
  0
SPLINE
  5
273
330
1F
100
AcDbEntity
  8
0
  6
Continuous
 62
     7
370
    25
100
AcDbSpline
210
0.0
220
0.0
230
1.0
 70
     8
 71
     3
 72
    10
 73
     6
 74
     0
 42
0.00000001
 43
0.00000001
 40
0.0
 40
0.0
 40
0.0
 40
0.0
 40
0.5
 40
0.5
 40
1.0
 40
1.0
 40
1.0
 40
1.0
 10
235.913827621793
 20
196.435263131182
 30
0.0
 10
235.8901522273687
 20
196.435263131182
 30
0.0
 10
235.8770611174784
 20
196.4124706818525
 30
0.0
 10
235.87697479619
 20
196.3245279777595
 30
0.0
 10
235.8901437301338
 20
196.2596702040855
 30
0.0
 10
235.9138276217874
 20
196.185263131182
 30
0.0
  0
SPLINE
  5
274
330
1F
100
AcDbEntity
  8
0
  6
Continuous
 62
     7
370
    25
100
AcDbSpline
210
0.0
220
0.0
230
1.0
 70
    24
 71
     3
 72
     8
 73
     4
 74
     0
 42
0.00000001
 43
0.00000001
 40
0.0
 40
0.0
 40
0.0
 40
0.0
 40
1.0
 40
1.0
 40
1.0
 40
1.0
 10
236.0753129500684
 20
196.435263131182
 30
0.0
 10
236.024414233146
 20
196.435263131182
 30
0.0
 10
235.9704800968954
 20
196.435263131182
 30
0.0
 10
235.9138276217878
 20
196.435263131182
 30
0.0
  0
SPLINE
  5
275
330
1F
100
AcDbEntity
  8
0
  6
Continuous
 62
     7
370
    25
100
AcDbSpline
210
0.0
220
0.0
230
1.0
 70
     8
 71
     3
 72
     8
 73
     4
 74
     0
 42
0.00000001
 43
0.00000001
 40
0.0
 40
0.0
 40
0.0
 40
0.0
 40
1.0
 40
1.0
 40
1.0
 40
1.0
 10
248.5915490270476
 20
195.435263131182
 30
0.0
 10
248.7618266343913
 20
195.7695165274673
 30
0.0
 10
248.934098383017
 20
196.1027830170363
 30
0.0
 10
249.1077851040266
 20
196.4352631311818
 30
0.0
  0
SPLINE
  5
276
330
1F
100
AcDbEntity
  8
0
  6
Continuous
 62
     7
370
    25
100
AcDbSpline
210
0.0
220
0.0
230
1.0
 70
    24
 71
     3
 72
     8
 73
     4
 74
     0
 42
0.00000001
 43
0.00000001
 40
0.0
 40
0.0
 40
0.0
 40
0.0
 40
1.0
 40
1.0
 40
1.0
 40
1.0
 10
249.1077851040262
 20
196.435263131182
 30
0.0
 10
249.1586813372815
 20
196.435263131182
 30
0.0
 10
249.2126152922453
 20
196.435263131182
 30
0.0
 10
249.2692704323078
 20
196.435263131182
 30
0.0
  0
SPLINE
  5
277
330
1F
100
AcDbEntity
  8
0
  6
Continuous
 62
     7
370
    25
100
AcDbSpline
210
0.0
220
0.0
230
1.0
 70
     8
 71
     3
 72
    10
 73
     6
 74
     0
 42
0.00000001
 43
0.00000001
 40
0.0
 40
0.0
 40
0.0
 40
0.0
 40
0.5
 40
0.5
 40
1.0
 40
1.0
 40
1.0
 40
1.0
 10
249.2692704323078
 20
196.185263131182
 30
0.0
 10
249.2929458267322
 20
196.2596435085593
 30
0.0
 10
249.3060369366168
 20
196.3239441473451
 30
0.0
 10
249.3061232579051
 20
196.412159832128
 30
0.0
 10
249.2929543239612
 20
196.435263131182
 30
0.0
 10
249.2692704323078
 20
196.435263131182
 30
0.0
  0
SPLINE
  5
278
330
1F
100
AcDbEntity
  8
0
  6
Continuous
 62
     7
370
    25
100
AcDbSpline
210
0.0
220
0.0
230
1.0
 70
     8
 71
     3
 72
    10
 73
     6
 74
     0
 42
0.00000001
 43
0.00000001
 40
0.0
 40
0.0
 40
0.0
 40
0.0
 40
0.5
 40
0.5
 40
1.0
 40
1.0
 40
1.0
 40
1.0
 10
231.7692704323078
 20
196.435263131182
 30
0.0
 10
231.7929443328637
 20
196.435263131182
 30
0.0
 10
231.8060368900429
 20
196.4124725595346
 30
0.0
 10
231.8061233040251
 20
196.3245265622357
 30
0.0
 10
231.7929529124265
 20
196.259665769503
 30
0.0
 10
231.7692704323078
 20
196.185263131182
 30
0.0
  0
SPLINE
  5
279
330
1F
100
AcDbEntity
  8
0
  6
Continuous
 62
     7
370
    25
100
AcDbSpline
210
0.0
220
0.0
230
1.0
 70
    24
 71
     3
 72
    12
 73
     8
 74
     0
 42
0.00000001
 43
0.00000001
 40
0.0
 40
0.0
 40
0.0
 40
0.0
 40
0.2499999999999999
 40
0.2499999999999999
 40
0.4999999999999998
 40
0.4999999999999998
 40
1.0
 40
1.0
 40
1.0
 40
1.0
 10
231.0915490270476
 20
196.435263131182
 30
0.0
 10
231.0915490270476
 20
196.435263131182
 30
0.0
 10
231.1075478320287
 20
196.435263131182
 30
0.0
 10
231.169317970343
 20
196.435263131182
 30
0.0
 10
231.2150600946446
 20
196.435263131182
 30
0.0
 10
231.3917302419915
 20
196.435263131182
 30
0.0
 10
231.5619853074718
 20
196.435263131182
 30
0.0
 10
231.7692704323078
 20
196.435263131182
 30
0.0
  0
SPLINE
  5
27A
330
1F
100
AcDbEntity
  8
0
  6
Continuous
 62
     7
370
    25
100
AcDbSpline
210
0.0
220
0.0
230
1.0
 70
     8
 71
     3
 72
     8
 73
     4
 74
     0
 42
0.00000001
 43
0.00000001
 40
0.0
 40
0.0
 40
0.0
 40
0.0
 40
1.0
 40
1.0
 40
1.0
 40
1.0
 10
249.1077851040268
 20
179.435263131182
 30
0.0
 10
248.934082027807
 20
179.7677745533175
 30
0.0
 10
248.7617798087443
 20
180.1011016532163
 30
0.0
 10
248.5915490270476
 20
180.435263131182
 30
0.0
  0
SPLINE
  5
27B
330
1F
100
AcDbEntity
  8
0
  6
Continuous
 62
     7
370
    25
100
AcDbSpline
210
0.0
220
0.0
230
1.0
 70
     8
 71
     3
 72
    10
 73
     6
 74
     0
 42
0.00000001
 43
0.00000001
 40
0.0
 40
0.0
 40
0.0
 40
0.0
 40
0.5
 40
0.5
 40
1.0
 40
1.0
 40
1.0
 40
1.0
 10
249.2692704323078
 20
179.435263131182
 30
0.0
 10
249.2929458267322
 20
179.435263131182
 30
0.0
 10
249.3060369366168
 20
179.4580555805118
 30
0.0
 10
249.3061232579051
 20
179.5459982846048
 30
0.0
 10
249.2929543239613
 20
179.6108560582787
 30
0.0
 10
249.2692704323078
 20
179.6852631311819
 30
0.0
  0
SPLINE
  5
27C
330
1F
100
AcDbEntity
  8
0
  6
Continuous
 62
     7
370
    25
100
AcDbSpline
210
0.0
220
0.0
230
1.0
 70
    24
 71
     3
 72
     8
 73
     4
 74
     0
 42
0.00000001
 43
0.00000001
 40
0.0
 40
0.0
 40
0.0
 40
0.0
 40
1.0
 40
1.0
 40
1.0
 40
1.0
 10
249.1077851040268
 20
179.435263131182
 30
0.0
 10
249.1586813372818
 20
179.435263131182
 30
0.0
 10
249.2126152922455
 20
179.435263131182
 30
0.0
 10
249.2692704323078
 20
179.435263131182
 30
0.0
  0
SPLINE
  5
27D
330
1F
100
AcDbEntity
  8
0
  6
Continuous
 62
     7
370
    25
100
AcDbSpline
210
0.0
220
0.0
230
1.0
 70
     8
 71
     3
 72
     8
 73
     4
 74
     0
 42
0.00000001
 43
0.00000001
 40
0.0
 40
0.0
 40
0.0
 40
0.0
 40
1.0
 40
1.0
 40
1.0
 40
1.0
 10
236.5915490270476
 20
180.435263131182
 30
0.0
 10
236.4212714197038
 20
180.1010097348966
 30
0.0
 10
236.2489996710781
 20
179.7677432453276
 30
0.0
 10
236.0753129500684
 20
179.435263131182
 30
0.0
  0
SPLINE
  5
27E
330
1F
100
AcDbEntity
  8
0
  6
Continuous
 62
     7
370
    25
100
AcDbSpline
210
0.0
220
0.0
230
1.0
 70
    24
 71
     3
 72
     8
 73
     4
 74
     0
 42
0.00000001
 43
0.00000001
 40
0.0
 40
0.0
 40
0.0
 40
0.0
 40
1.0
 40
1.0
 40
1.0
 40
1.0
 10
236.0753129500684
 20
179.435263131182
 30
0.0
 10
236.0244142331459
 20
179.435263131182
 30
0.0
 10
235.9704800968951
 20
179.435263131182
 30
0.0
 10
235.9138276217874
 20
179.435263131182
 30
0.0
  0
SPLINE
  5
27F
330
1F
100
AcDbEntity
  8
0
  6
Continuous
 62
     7
370
    25
100
AcDbSpline
210
0.0
220
0.0
230
1.0
 70
     8
 71
     3
 72
    10
 73
     6
 74
     0
 42
0.00000001
 43
0.00000001
 40
0.0
 40
0.0
 40
0.0
 40
0.0
 40
0.5
 40
0.5
 40
1.0
 40
1.0
 40
1.0
 40
1.0
 10
235.9138276217874
 20
179.685263131182
 30
0.0
 10
235.890152227363
 20
179.6108827538046
 30
0.0
 10
235.8770611174783
 20
179.5465821150189
 30
0.0
 10
235.8769747961901
 20
179.4583664302359
 30
0.0
 10
235.8901437301339
 20
179.435263131182
 30
0.0
 10
235.9138276217874
 20
179.435263131182
 30
0.0
  0
SPLINE
  5
280
330
1F
100
AcDbEntity
  8
0
  6
Continuous
 62
     7
370
    25
100
AcDbSpline
210
0.0
220
0.0
230
1.0
 70
     8
 71
     3
 72
    10
 73
     6
 74
     0
 42
0.00000001
 43
0.00000001
 40
0.0
 40
0.0
 40
0.0
 40
0.0
 40
0.5
 40
0.5
 40
1.0
 40
1.0
 40
1.0
 40
1.0
 10
231.7692704323078
 20
179.685263131182
 30
0.0
 10
231.7929426722193
 20
179.6108926642564
 30
0.0
 10
231.8060366621546
 20
179.5465870679685
 30
0.0
 10
231.8061235296161
 20
179.4583642801627
 30
0.0
 10
231.7929537398567
 20
179.435263131182
 30
0.0
 10
231.7692704323078
 20
179.435263131182
 30
0.0
  0
SPLINE
  5
281
330
1F
100
AcDbEntity
  8
0
  6
Continuous
 62
     7
370
    25
100
AcDbSpline
210
0.0
220
0.0
230
1.0
 70
    24
 71
     3
 72
    12
 73
     8
 74
     0
 42
0.00000001
 43
0.00000001
 40
0.0
 40
0.0
 40
0.0
 40
0.0
 40
0.2500000000000001
 40
0.2500000000000001
 40
0.5000000000000001
 40
0.5000000000000001
 40
1.0
 40
1.0
 40
1.0
 40
1.0
 10
231.0915490270476
 20
179.435263131182
 30
0.0
 10
231.0915490270476
 20
179.435263131182
 30
0.0
 10
231.1075478320287
 20
179.435263131182
 30
0.0
 10
231.169317970343
 20
179.435263131182
 30
0.0
 10
231.2150600946446
 20
179.435263131182
 30
0.0
 10
231.3917302419915
 20
179.435263131182
 30
0.0
 10
231.5619853074718
 20
179.435263131182
 30
0.0
 10
231.7692704323078
 20
179.435263131182
 30
0.0
  0
LINE
  5
282
330
1F
100
AcDbEntity
  8
0
  6
Continuous
 62
     7
370
    25
100
AcDbLine
 10
249.2692704323
 20
196.4352631312
 30
0.0
 11
253.7694900545
 21
196.4352631312
 31
0.0
  0
LINE
  5
283
330
1F
100
AcDbEntity
  8
0
  6
Continuous
 62
     7
370
    25
100
AcDbLine
 10
231.7692704323
 20
196.4352631312
 30
0.0
 11
235.9138276218
 21
196.4352631312
 31
0.0
  0
LINE
  5
284
330
1F
100
AcDbEntity
  8
0
  6
Continuous
 62
     7
370
    25
100
AcDbLine
 10
253.7694900545
 20
179.4352631312
 30
0.0
 11
249.2692704323
 21
179.4352631312
 31
0.0
  0
LINE
  5
285
330
1F
100
AcDbEntity
  8
0
  6
Continuous
 62
     7
370
    25
100
AcDbLine
 10
235.9138276218
 20
179.4352631312
 30
0.0
 11
231.7692704323
 21
179.4352631312
 31
0.0
  0
LINE
  5
286
330
1F
100
AcDbEntity
  8
0
  6
Continuous
 62
     7
370
    25
100
AcDbLine
 10
249.107785104
 20
196.4352631312
 30
0.0
 11
236.0753129501
 21
196.4352631312
 31
0.0
  0
LINE
  5
287
330
1F
100
AcDbEntity
  8
0
  6
Continuous
 62
     7
370
    25
100
AcDbLine
 10
249.107785104
 20
179.4352631312
 30
0.0
 11
236.0753129501
 21
179.4352631312
 31
0.0
  0
SPLINE
  5
288
330
1F
100
AcDbEntity
  8
0
  6
Continuous
 62
     7
370
    25
100
AcDbSpline
210
0.0
220
0.0
230
1.0
 70
     8
 71
     3
 72
    15
 73
    11
 74
     0
 42
0.00000001
 43
0.00000001
 40
0.0
 40
0.0
 40
0.0
 40
0.0
 40
0.0081667445812695
 40
0.3321939991490083
 40
0.4756279600585602
 40
0.6866830973284899
 40
0.8457435502264811
 40
0.8967566214763185
 40
0.9909540928118029
 40
1.0
 40
1.0
 40
1.0
 40
1.0
 10
247.6905685406404
 20
189.185263131182
 30
0.0
 10
247.6910560747833
 20
189.186700594121
 30
0.0
 10
247.7108872223153
 20
189.2451714520727
 30
0.0
 10
247.7391680023246
 20
189.3295966297922
 30
0.0
 10
247.7769973008134
 20
189.4441757018146
 30
0.0
 10
247.8035811973809
 20
189.5255465890112
 30
0.0
 10
247.8207510211359
 20
189.5785655810129
 30
0.0
 10
247.8285680173524
 20
189.602767512857
 30
0.0
 10
247.8305637037882
 20
189.6089571335232
 30
0.0
 10
247.830628667739
 20
189.6091585289358
 30
0.0
 10
247.8306343597057
 20
189.6091761746603
 30
0.0
  0
ARC
  5
289
330
1F
100
AcDbEntity
  8
0
  6
Continuous
 62
     7
370
    25
100
AcDbCircle
 10
242.591549027
 20
187.9352631312
 30
0.0
 40
5.250000000000009
100
AcDbArc
 50
13.774146998
 51
166.225853002
  0
SPLINE
  5
28A
330
1F
100
AcDbEntity
  8
0
  6
Continuous
 62
     7
370
    25
100
AcDbSpline
210
0.0
220
0.0
230
1.0
 70
     8
 71
     3
 72
    15
 73
    11
 74
     0
 42
0.00000001
 43
0.00000001
 40
0.0
 40
0.0
 40
0.0
 40
0.0
 40
0.0090459071881971
 40
0.1032433785236874
 40
0.1542564497735246
 40
0.313316902671511
 40
0.5243720399414428
 40
0.6678060008509903
 40
0.9918332554187292
 40
1.0
 40
1.0
 40
1.0
 40
1.0
 10
237.3524636943895
 20
189.6091761746603
 30
0.0
 10
237.3524693863561
 20
189.6091585289358
 30
0.0
 10
237.3525343503069
 20
189.6089571335232
 30
0.0
 10
237.3545300367428
 20
189.602767512857
 30
0.0
 10
237.3623470329593
 20
189.5785655810129
 30
0.0
 10
237.3795168567142
 20
189.5255465890112
 30
0.0
 10
237.4061007532817
 20
189.4441757018146
 30
0.0
 10
237.4439300517706
 20
189.3295966297922
 30
0.0
 10
237.4722108317798
 20
189.2451714520727
 30
0.0
 10
237.4920419793119
 20
189.186700594121
 30
0.0
 10
237.4925295134548
 20
189.185263131182
 30
0.0
  0
ARC
  5
28B
330
1F
100
AcDbEntity
  8
0
  6
Continuous
 62
     7
370
    25
100
AcDbCircle
 10
242.591549027
 20
187.9352631312
 30
0.0
 40
5.500000000000029
100
AcDbArc
 50
17.7189318734
 51
162.2810681266
  0
ARC
  5
28C
330
1F
100
AcDbEntity
  8
0
  6
Continuous
 62
     7
370
    25
100
AcDbCircle
 10
237.114323452
 20
189.6852631312
 30
0.0
 40
0.2500000000000126
100
AcDbArc
 50
270.0
 51
342.2810681266
  0
SPLINE
  5
28D
330
1F
100
AcDbEntity
  8
0
  6
Continuous
 62
     7
370
    25
100
AcDbSpline
210
0.0
220
0.0
230
1.0
 70
     8
 71
     3
 72
    15
 73
    11
 74
     0
 42
0.00000001
 43
0.00000001
 40
0.0
 40
0.0
 40
0.0
 40
0.0
 40
0.0080847466189818
 40
0.3310106400647567
 40
0.4750333064304972
 40
0.6874363079215137
 40
0.8468367539418253
 40
0.9000996640391794
 40
0.9910442771984082
 40
1.0
 40
1.0
 40
1.0
 40
1.0
 10
237.4925295134548
 20
189.185263131182
 30
0.0
 10
237.4912496819107
 20
189.1860790671703
 30
0.0
 10
237.4388500361869
 20
189.2194856173639
 30
0.0
 10
237.3634949447325
 20
189.2682991820988
 30
0.0
 10
237.2615758327146
 20
189.3356696543669
 30
0.0
 10
237.1891848877227
 20
189.3842536947104
 30
0.0
 10
237.1414794594579
 20
189.4167025561689
 30
0.0
 10
237.1199439757506
 20
189.4314135972352
 30
0.0
 10
237.1145149597311
 20
189.4351320481533
 30
0.0
 10
237.1143392075745
 20
189.4352523468188
 30
0.0
 10
237.1143234519959
 20
189.435263131182
 30
0.0
  0
SPLINE
  5
28E
330
1F
100
AcDbEntity
  8
0
  6
Continuous
 62
     7
370
    25
100
AcDbSpline
210
0.0
220
0.0
230
1.0
 70
     8
 71
     3
 72
    15
 73
    11
 74
     0
 42
0.00000001
 43
0.00000001
 40
0.0
 40
0.0
 40
0.0
 40
0.0
 40
0.0090459071881971
 40
0.1032433785236816
 40
0.1542564497735189
 40
0.31331690267151
 40
0.5243720399414428
 40
0.6678060008509183
 40
0.9918332554187028
 40
1.0
 40
1.0
 40
1.0
 40
1.0
 10
247.8306343597057
 20
186.2613500877037
 30
0.0
 10
247.830628667739
 20
186.2613677334282
 30
0.0
 10
247.8305637037882
 20
186.2615691288407
 30
0.0
 10
247.8285680173524
 20
186.2677587495069
 30
0.0
 10
247.8207510211359
 20
186.2919606813511
 30
0.0
 10
247.8035811973809
 20
186.3449796733527
 30
0.0
 10
247.7769973008134
 20
186.4263505605493
 30
0.0
 10
247.7391680023248
 20
186.5409296325718
 30
0.0
 10
247.7108872223145
 20
186.6253548102909
 30
0.0
 10
247.6910560747832
 20
186.6838256682429
 30
0.0
 10
247.6905685406404
 20
186.685263131182
 30
0.0
  0
ARC
  5
28F
330
1F
100
AcDbEntity
  8
0
  6
Continuous
 62
     7
370
    25
100
AcDbCircle
 10
242.591549027
 20
187.9352631312
 30
0.0
 40
5.50000000000002
100
AcDbArc
 50
197.7189318734
 51
342.2810681266
  0
SPLINE
  5
290
330
1F
100
AcDbEntity
  8
0
  6
Continuous
 62
     7
370
    25
100
AcDbSpline
210
0.0
220
0.0
230
1.0
 70
     8
 71
     3
 72
    15
 73
    11
 74
     0
 42
0.00000001
 43
0.00000001
 40
0.0
 40
0.0
 40
0.0
 40
0.0
 40
0.0081667445812973
 40
0.3321939991490804
 40
0.475627960058556
 40
0.6866830973284891
 40
0.8457435502264751
 40
0.8967566214763124
 40
0.9909540928118028
 40
1.0
 40
1.0
 40
1.0
 40
1.0
 10
237.4925295134548
 20
186.685263131182
 30
0.0
 10
237.4920419793119
 20
186.6838256682429
 30
0.0
 10
237.4722108317807
 20
186.625354810291
 30
0.0
 10
237.4439300517704
 20
186.5409296325718
 30
0.0
 10
237.4061007532818
 20
186.4263505605493
 30
0.0
 10
237.3795168567142
 20
186.3449796733527
 30
0.0
 10
237.3623470329593
 20
186.2919606813511
 30
0.0
 10
237.3545300367428
 20
186.2677587495069
 30
0.0
 10
237.3525343503069
 20
186.2615691288407
 30
0.0
 10
237.3524693863561
 20
186.2613677334282
 30
0.0
 10
237.3524636943895
 20
186.2613500877037
 30
0.0
  0
ARC
  5
291
330
1F
100
AcDbEntity
  8
0
  6
Continuous
 62
     7
370
    25
100
AcDbCircle
 10
242.591549027
 20
187.9352631312
 30
0.0
 40
5.250000000000009
100
AcDbArc
 50
193.774146998
 51
346.225853002
  0
ARC
  5
292
330
1F
100
AcDbEntity
  8
0
  6
Continuous
 62
     7
370
    25
100
AcDbCircle
 10
248.0687746021
 20
189.6852631312
 30
0.0
 40
0.25
100
AcDbArc
 50
197.7189318734
 51
270.0
  0
SPLINE
  5
293
330
1F
100
AcDbEntity
  8
0
  6
Continuous
 62
     7
370
    25
100
AcDbSpline
210
0.0
220
0.0
230
1.0
 70
     8
 71
     3
 72
    15
 73
    11
 74
     0
 42
0.00000001
 43
0.00000001
 40
0.0
 40
0.0
 40
0.0
 40
0.0
 40
0.0089557228015919
 40
0.0999003359608148
 40
0.153163246058169
 40
0.3125636920784848
 40
0.5249666935694999
 40
0.6689893599352451
 40
0.9919152533810159
 40
1.0
 40
1.0
 40
1.0
 40
1.0
 10
248.0687746020992
 20
189.435263131182
 30
0.0
 10
248.0687588465206
 20
189.4352523468188
 30
0.0
 10
248.0685830943641
 20
189.4351320481533
 30
0.0
 10
248.0631540783446
 20
189.4314135972352
 30
0.0
 10
248.0416185946372
 20
189.4167025561689
 30
0.0
 10
247.9939131663724
 20
189.3842536947104
 30
0.0
 10
247.9215222213805
 20
189.3356696543669
 30
0.0
 10
247.8196031093627
 20
189.2682991820988
 30
0.0
 10
247.7442480179083
 20
189.219485617364
 30
0.0
 10
247.6918483721845
 20
189.1860790671703
 30
0.0
 10
247.6905685406404
 20
189.185263131182
 30
0.0
  0
SPLINE
  5
294
330
1F
100
AcDbEntity
  8
0
  6
Continuous
 62
     7
370
    25
100
AcDbSpline
210
0.0
220
0.0
230
1.0
 70
     8
 71
     3
 72
    15
 73
    11
 74
     0
 42
0.00000001
 43
0.00000001
 40
0.0
 40
0.0
 40
0.0
 40
0.0
 40
0.0089557228015919
 40
0.0999003359608209
 40
0.1531632460581751
 40
0.3125636920784904
 40
0.5249666935695061
 40
0.6689893599351777
 40
0.991915253381045
 40
1.0
 40
1.0
 40
1.0
 40
1.0
 10
237.1143234519959
 20
186.435263131182
 30
0.0
 10
237.1143392075745
 20
186.4352739155451
 30
0.0
 10
237.1145149597311
 20
186.4353942142106
 30
0.0
 10
237.1199439757506
 20
186.4391126651288
 30
0.0
 10
237.1414794594579
 20
186.453823706195
 30
0.0
 10
237.1891848877227
 20
186.4862725676536
 30
0.0
 10
237.2615758327147
 20
186.534856607997
 30
0.0
 10
237.3634949447323
 20
186.6022270802653
 30
0.0
 10
237.4388500361874
 20
186.6510406449993
 30
0.0
 10
237.4912496819107
 20
186.6844471951937
 30
0.0
 10
237.4925295134548
 20
186.685263131182
 30
0.0
  0
ARC
  5
295
330
1F
100
AcDbEntity
  8
0
  6
Continuous
 62
     7
370
    25
100
AcDbCircle
 10
237.114323452
 20
186.1852631312
 30
0.0
 40
0.2500000000000213
100
AcDbArc
 50
17.7189318734
 51
90.0
  0
SPLINE
  5
296
330
1F
100
AcDbEntity
  8
0
  6
Continuous
 62
     7
370
    25
100
AcDbSpline
210
0.0
220
0.0
230
1.0
 70
     8
 71
     3
 72
    15
 73
    11
 74
     0
 42
0.00000001
 43
0.00000001
 40
0.0
 40
0.0
 40
0.0
 40
0.0
 40
0.0080847466189582
 40
0.3310106400648243
 40
0.4750333064304948
 40
0.6874363079215142
 40
0.8468367539418303
 40
0.9000996640391847
 40
0.9910442771984082
 40
1.0
 40
1.0
 40
1.0
 40
1.0
 10
247.6905685406404
 20
186.685263131182
 30
0.0
 10
247.6918483721845
 20
186.6844471951937
 30
0.0
 10
247.7442480179077
 20
186.6510406449991
 30
0.0
 10
247.8196031093628
 20
186.6022270802654
 30
0.0
 10
247.9215222213805
 20
186.534856607997
 30
0.0
 10
247.9939131663724
 20
186.4862725676536
 30
0.0
 10
248.0416185946372
 20
186.453823706195
 30
0.0
 10
248.0631540783446
 20
186.4391126651288
 30
0.0
 10
248.0685830943641
 20
186.4353942142106
 30
0.0
 10
248.0687588465206
 20
186.4352739155451
 30
0.0
 10
248.0687746020992
 20
186.435263131182
 30
0.0
  0
ARC
  5
297
330
1F
100
AcDbEntity
  8
0
  6
Continuous
 62
     7
370
    25
100
AcDbCircle
 10
248.0687746021
 20
186.1852631312
 30
0.0
 40
0.25
100
AcDbArc
 50
90.0
 51
162.2810681266
  0
LINE
  5
298
330
1F
100
AcDbEntity
  8
0
  6
Continuous
 62
     7
370
    25
100
AcDbLine
 10
247.591549027
 20
188.5352631312
 30
0.0
 11
237.591549027
 21
188.5352631312
 31
0.0
  0
LINE
  5
299
330
1F
100
AcDbEntity
  8
0
  6
Continuous
 62
     7
370
    25
100
AcDbLine
 10
247.591549027
 20
187.3352631312
 30
0.0
 11
247.591549027
 21
188.5352631312
 31
0.0
  0
LINE
  5
29A
330
1F
100
AcDbEntity
  8
0
  6
Continuous
 62
     7
370
    25
100
AcDbLine
 10
237.591549027
 20
187.3352631312
 30
0.0
 11
247.591549027
 21
187.3352631312
 31
0.0
  0
LINE
  5
29B
330
1F
100
AcDbEntity
  8
0
  6
Continuous
 62
     7
370
    25
100
AcDbLine
 10
237.591549027
 20
188.5352631312
 30
0.0
 11
237.591549027
 21
187.3352631312
 31
0.0
  0
LINE
  5
29C
330
1F
100
AcDbEntity
  8
0
  6
Continuous
 62
     7
370
    25
100
AcDbLine
 10
248.341549027
 20
189.1852631312
 30
0.0
 11
247.6905685406
 21
189.1852631312
 31
0.0
  0
LINE
  5
29D
330
1F
100
AcDbEntity
  8
0
  6
Continuous
 62
     7
370
    25
100
AcDbLine
 10
248.341549027
 20
186.6852631312
 30
0.0
 11
248.341549027
 21
189.1852631312
 31
0.0
  0
LINE
  5
29E
330
1F
100
AcDbEntity
  8
0
  6
Continuous
 62
     7
370
    25
100
AcDbLine
 10
247.6905685406
 20
186.6852631312
 30
0.0
 11
248.341549027
 21
186.6852631312
 31
0.0
  0
LINE
  5
29F
330
1F
100
AcDbEntity
  8
0
  6
Continuous
 62
     7
370
    25
100
AcDbLine
 10
236.841549027
 20
186.6852631312
 30
0.0
 11
237.4925295135
 21
186.6852631312
 31
0.0
  0
LINE
  5
2A0
330
1F
100
AcDbEntity
  8
0
  6
Continuous
 62
     7
370
    25
100
AcDbLine
 10
236.841549027
 20
189.1852631312
 30
0.0
 11
236.841549027
 21
186.6852631312
 31
0.0
  0
LINE
  5
2A1
330
1F
100
AcDbEntity
  8
0
  6
Continuous
 62
     7
370
    25
100
AcDbLine
 10
237.4925295135
 20
189.1852631312
 30
0.0
 11
236.841549027
 21
189.1852631312
 31
0.0
  0
LINE
  5
2A2
330
1F
100
AcDbEntity
  8
0
  6
Continuous
 62
     7
370
    25
100
AcDbLine
 10
236.841549027
 20
189.4352631312
 30
0.0
 11
236.841549027
 21
189.1852631312
 31
0.0
  0
LINE
  5
2A3
330
1F
100
AcDbEntity
  8
0
  6
Continuous
 62
     7
370
    25
100
AcDbLine
 10
236.841549027
 20
189.4352631312
 30
0.0
 11
237.114323452
 21
189.4352631312
 31
0.0
  0
ARC
  5
2A4
330
1F
100
AcDbEntity
  8
0
  6
Continuous
 62
     7
370
    25
100
AcDbCircle
 10
248.341549027
 20
189.1852631312
 30
0.0
 40
0.25
100
AcDbArc
 50
0.0
 51
90.0
  0
LINE
  5
2A5
330
1F
100
AcDbEntity
  8
0
  6
Continuous
 62
     7
370
    25
100
AcDbLine
 10
248.591549027
 20
189.1852631312
 30
0.0
 11
248.341549027
 21
189.1852631312
 31
0.0
  0
LINE
  5
2A6
330
1F
100
AcDbEntity
  8
0
  6
Continuous
 62
     7
370
    25
100
AcDbLine
 10
248.341549027
 20
189.1852631312
 30
0.0
 11
248.341549027
 21
189.4352631312
 31
0.0
  0
LINE
  5
2A7
330
1F
100
AcDbEntity
  8
0
  6
Continuous
 62
     7
370
    25
100
AcDbLine
 10
248.0687746021
 20
189.4352631312
 30
0.0
 11
248.341549027
 21
189.4352631312
 31
0.0
  0
LINE
  5
2A8
330
1F
100
AcDbEntity
  8
0
  6
Continuous
 62
     7
370
    25
100
AcDbLine
 10
236.841549027
 20
189.1852631312
 30
0.0
 11
236.591549027
 21
189.1852631312
 31
0.0
  0
ARC
  5
2A9
330
1F
100
AcDbEntity
  8
0
  6
Continuous
 62
     7
370
    25
100
AcDbCircle
 10
236.841549027
 20
189.1852631312
 30
0.0
 40
0.25
100
AcDbArc
 50
90.0
 51
180.0
  0
LINE
  5
2AA
330
1F
100
AcDbEntity
  8
0
  6
Continuous
 62
     7
370
    25
100
AcDbLine
 10
236.591549027
 20
186.6852631312
 30
0.0
 11
236.841549027
 21
186.6852631312
 31
0.0
  0
LINE
  5
2AB
330
1F
100
AcDbEntity
  8
0
  6
Continuous
 62
     7
370
    25
100
AcDbLine
 10
236.591549027
 20
186.6852631312
 30
0.0
 11
236.591549027
 21
189.1852631312
 31
0.0
  0
LINE
  5
2AC
330
1F
100
AcDbEntity
  8
0
  6
Continuous
 62
     7
370
    25
100
AcDbLine
 10
248.591549027
 20
189.1852631312
 30
0.0
 11
248.591549027
 21
186.6852631312
 31
0.0
  0
LINE
  5
2AD
330
1F
100
AcDbEntity
  8
0
  6
Continuous
 62
     7
370
    25
100
AcDbLine
 10
248.341549027
 20
186.6852631312
 30
0.0
 11
248.591549027
 21
186.6852631312
 31
0.0
  0
LINE
  5
2AE
330
1F
100
AcDbEntity
  8
0
  6
Continuous
 62
     7
370
    25
100
AcDbLine
 10
237.114323452
 20
186.4352631312
 30
0.0
 11
236.841549027
 21
186.4352631312
 31
0.0
  0
LINE
  5
2AF
330
1F
100
AcDbEntity
  8
0
  6
Continuous
 62
     7
370
    25
100
AcDbLine
 10
236.841549027
 20
186.6852631312
 30
0.0
 11
236.841549027
 21
186.4352631312
 31
0.0
  0
ARC
  5
2B0
330
1F
100
AcDbEntity
  8
0
  6
Continuous
 62
     7
370
    25
100
AcDbCircle
 10
236.841549027
 20
186.6852631312
 30
0.0
 40
0.25
100
AcDbArc
 50
180.0
 51
270.0
  0
ARC
  5
2B1
330
1F
100
AcDbEntity
  8
0
  6
Continuous
 62
     7
370
    25
100
AcDbCircle
 10
248.341549027
 20
186.6852631312
 30
0.0
 40
0.25
100
AcDbArc
 50
270.0
 51
0.0
  0
LINE
  5
2B2
330
1F
100
AcDbEntity
  8
0
  6
Continuous
 62
     7
370
    25
100
AcDbLine
 10
248.341549027
 20
186.4352631312
 30
0.0
 11
248.341549027
 21
186.6852631312
 31
0.0
  0
LINE
  5
2B3
330
1F
100
AcDbEntity
  8
0
  6
Continuous
 62
     7
370
    25
100
AcDbLine
 10
248.341549027
 20
186.4352631312
 30
0.0
 11
248.0687746021
 21
186.4352631312
 31
0.0
  0
LINE
  5
2B4
330
1F
100
AcDbEntity
  8
0
  6
Continuous
 62
     7
370
    25
100
AcDbLine
 10
222.591549027
 20
184.6635638671
 30
0.0
 11
222.591549027
 21
191.2069623952
 31
0.0
  0
LINE
  5
2B5
330
1F
100
AcDbEntity
  8
0
  6
Continuous
 62
     7
370
    25
100
AcDbLine
 10
220.4161121655
 20
184.4352631312
 30
0.0
 11
222.591549027
 21
184.6635638671
 31
0.0
  0
LINE
  5
2B6
330
1F
100
AcDbEntity
  8
0
  6
Continuous
 62
     7
370
    25
100
AcDbLine
 10
202.591549027
 20
184.4352631312
 30
0.0
 11
220.4161121655
 21
184.4352631312
 31
0.0
  0
LINE
  5
2B7
330
1F
100
AcDbEntity
  8
0
  6
Continuous
 62
     7
370
    25
100
AcDbLine
 10
222.591549027
 20
191.2069623952
 30
0.0
 11
220.4161121655
 21
191.4352631312
 31
0.0
  0
LINE
  5
2B8
330
1F
100
AcDbEntity
  8
0
  6
Continuous
 62
     7
370
    25
100
AcDbLine
 10
220.4161121655
 20
191.4352631312
 30
0.0
 11
202.591549027
 21
191.4352631312
 31
0.0
  0
LINE
  5
2B9
330
1F
100
AcDbEntity
  8
0
  6
Continuous
 62
     7
370
    25
100
AcDbLine
 10
202.591549027
 20
191.4352631312
 30
0.0
 11
202.591549027
 21
184.4352631312
 31
0.0
  0
LINE
  5
2BA
330
1F
100
AcDbEntity
  8
0
  6
Continuous
 62
     7
370
    25
100
AcDbLine
 10
237.3677468527
 20
189.656277612
 30
0.0
 11
237.239337814
 21
189.4721359786
 31
0.0
  0
LINE
  5
2BB
330
1F
100
AcDbEntity
  8
0
  6
Continuous
 62
     7
370
    25
100
AcDbLine
 10
237.2489051548
 20
186.3900454638
 30
0.0
 11
237.3677468527
 21
186.2142486504
 31
0.0
  0
LINE
  5
2BC
330
1F
100
AcDbEntity
  8
0
  6
Continuous
 62
     7
370
    25
100
AcDbLine
 10
229.1749793734
 20
190.5160657667
 30
0.0
 11
229.1749793734
 21
185.3544604956
 31
0.0
  0
LINE
  5
2BD
330
1F
100
AcDbEntity
  8
0
  6
Continuous
 62
     7
370
    25
100
AcDbLine
 10
237.3677468527
 20
186.2142486504
 30
0.0
 11
229.1749793734
 21
185.3544604956
 31
0.0
  0
LINE
  5
2BE
330
1F
100
AcDbEntity
  8
0
  6
Continuous
 62
     7
370
    25
100
AcDbLine
 10
229.1749793734
 20
190.5160657667
 30
0.0
 11
237.3677468527
 21
189.656277612
 31
0.0
  0
LINE
  5
2BF
330
1F
100
AcDbEntity
  8
0
  6
Continuous
 62
     7
370
    25
100
AcDbLine
 10
229.1749793734
 20
185.3544604956
 30
0.0
 11
222.591549027
 21
184.6635638671
 31
0.0
  0
LINE
  5
2C0
330
1F
100
AcDbEntity
  8
0
  6
Continuous
 62
     7
370
    25
100
AcDbLine
 10
222.591549027
 20
191.2069623952
 30
0.0
 11
229.1749793734
 21
190.5160657667
 31
0.0
  0
ARC
  5
2C1
330
1F
100
AcDbEntity
  8
0
  6
Continuous
 62
     7
370
    25
100
AcDbCircle
 10
242.591549027
 20
187.9352631312
 30
0.0
 40
7.450000000000633
100
AcDbArc
 50
233.0863788866
 51
126.9136211134
  0
ARC
  5
2C2
330
1F
100
AcDbEntity
  8
0
  6
Continuous
 62
     7
370
    25
100
AcDbCircle
 10
242.591549027
 20
187.9352631312
 30
0.0
 40
7.207531252870751
100
AcDbArc
 50
195.3041237151
 51
238.9797515565
  0
ARC
  5
2C3
330
1F
100
AcDbEntity
  8
0
  6
Continuous
 62
     7
370
    25
100
AcDbCircle
 10
242.591549027
 20
187.9352631312
 30
0.0
 40
7.207531252872398
100
AcDbArc
 50
121.0202484435
 51
164.6958762849
  0
ARC
  5
2C4
330
1F
100
AcDbEntity
  8
0
  6
Continuous
 62
     7
370
    25
100
AcDbCircle
 10
220.4161121655
 20
256.4352631312
 30
0.0
 40
65.0
100
AcDbArc
 50
270.0
 51
286.5000949923
  0
ARC
  5
2C5
330
1F
100
AcDbEntity
  8
0
  6
Continuous
 62
     7
370
    25
100
AcDbCircle
 10
220.4161121655
 20
119.4352631312
 30
0.0
 40
65.00000000000001
100
AcDbArc
 50
73.4999050077
 51
90.0
  0
LINE
  5
2C6
330
1F
100
AcDbEntity
  8
0
  6
Continuous
 62
     7
370
    25
100
AcDbLine
 10
186.6195290687
 20
191.3687122542
 30
0.0
 11
186.6195290687
 21
184.5018140081
 31
0.0
  0
LINE
  5
2C7
330
1F
100
AcDbEntity
  8
0
  6
Continuous
 62
     7
370
    25
100
AcDbLine
 10
224.6134211046
 20
180.0852631312
 30
0.0
 11
224.6134211046
 21
184.2996030852
 31
0.0
  0
LINE
  5
2C8
330
1F
100
AcDbEntity
  8
0
  6
Continuous
 62
     7
370
    25
100
AcDbLine
 10
224.6134211046
 20
191.5709231772
 30
0.0
 11
224.6134211046
 21
195.7852631312
 31
0.0
  0
LINE
  5
2C9
330
1F
100
AcDbEntity
  8
0
  6
Continuous
 62
     7
370
    25
100
AcDbLine
 10
212.2134211046
 20
195.7852631312
 30
0.0
 11
212.2134211046
 21
191.4352631312
 31
0.0
  0
LINE
  5
2CA
330
1F
100
AcDbEntity
  8
0
  6
Continuous
 62
     7
370
    25
100
AcDbLine
 10
212.2134211046
 20
184.4352631312
 30
0.0
 11
212.2134211046
 21
180.0852631312
 31
0.0
  0
LINE
  5
2CB
330
1F
100
AcDbEntity
  8
0
  6
Continuous
 62
     7
370
    25
100
AcDbLine
 10
253.7694900545
 20
187.6852631312
 30
0.0
 11
250.0373532146
 21
187.6852631312
 31
0.0
  0
LINE
  5
2CC
330
1F
100
AcDbEntity
  8
0
  6
Continuous
 62
     7
370
    25
100
AcDbLine
 10
250.0373532146
 20
188.1852631312
 30
0.0
 11
253.7694900545
 21
188.1852631312
 31
0.0
  0
INSERT
  5
2D8
330
1F
100
AcDbEntity
  8
FORMAT
100
AcDbBlockReference
  2
SW_CENTERMARKSYMBOL_1
 10
242.591549027
 20
187.9352631312
 30
0.0
  0
LINE
  5
2D9
330
1F
100
AcDbEntity
  8
FORMAT
100
AcDbLine
 10
218.235549027
 20
193.6577631312
 30
0.0
 11
227.091549027
 21
193.6577631312
 31
0.0
  0
LINE
  5
2DA
330
1F
100
AcDbEntity
  8
FORMAT
100
AcDbLine
 10
218.235549027
 20
182.2127631312
 30
0.0
 11
227.091549027
 21
182.2127631312
 31
0.0
  0
LINE
  5
2DB
330
1F
100
AcDbEntity
  8
FORMAT
100
AcDbLine
 10
227.091549027
 20
181.3567631312
 30
0.0
 11
227.091549027
 21
194.5137631312
 31
0.0
  0
ENDSEC
  0
SECTION
  2
OBJECTS
  0
DICTIONARY
  5
C
330
0
100
AcDbDictionary
281
     1
  3
ACAD_GROUP
350
D
  3
ACAD_LAYOUT
350
1A
  3
ACAD_MLINESTYLE
350
17
  3
ACAD_PLOTSETTINGS
350
19
  3
ACAD_PLOTSTYLENAME
350
E
  3
ACAD_SCALELIST
350
47
  3
DWGPROPS
350
2DC
  0
DICTIONARY
  5
D
102
{ACAD_REACTORS
330
C
102
}
330
C
100
AcDbDictionary
281
     1
  0
DICTIONARY
  5
1A
102
{ACAD_REACTORS
330
C
102
}
330
C
100
AcDbDictionary
281
     1
  3
Layout1
350
1E
  3
Layout2
350
26
  3
Model
350
22
  0
DICTIONARY
  5
17
102
{ACAD_REACTORS
330
C
102
}
330
C
100
AcDbDictionary
281
     1
  3
Standard
350
18
  0
DICTIONARY
  5
19
102
{ACAD_REACTORS
330
C
102
}
330
C
100
AcDbDictionary
281
     1
  0
ACDBDICTIONARYWDFLT
  5
E
102
{ACAD_REACTORS
330
C
102
}
330
C
100
AcDbDictionary
281
     1
  3
Normal
350
F
100
AcDbDictionaryWithDefault
340
F
  0
DICTIONARY
  5
47
102
{ACAD_REACTORS
330
C
102
}
330
C
100
AcDbDictionary
281
     1
  3
A0
350
48
  3
A1
350
49
  3
A2
350
4A
  3
A3
350
4B
  3
A4
350
4C
  3
A5
350
4D
  3
A6
350
4E
  3
A7
350
4F
  3
A8
350
50
  3
A9
350
51
  3
B0
350
52
  3
B1
350
53
  3
B2
350
54
  3
B3
350
55
  3
B4
350
56
  3
B5
350
57
  3
B6
350
58
  0
XRECORD
  5
2DC
102
{ACAD_REACTORS
330
C
102
}
330
C
100
AcDbXrecord
280
     1
  1
DWGPROPS COOKIE
  2

  3

  4

  6

  7

  8
user28
  9

300
=
301
=
302
=
303
=
304
=
305
=
306
=
307
=
308
=
309
=
 40
0.0
 41
2460333.017235416
 42
2460333.017236238
  1

 90
        0
  0
LAYOUT
  5
1E
102
{ACAD_REACTORS
330
1A
102
}
330
1A
100
AcDbPlotSettings
  1

  2
none_device
  4

  6

 40
0.0
 41
0.0
 42
0.0
 43
0.0
 44
0.0
 45
0.0
 46
0.0
 47
0.0
 48
0.0
 49
0.0
140
0.0
141
0.0
142
1.0
143
1.0
 70
   688
 72
     1
 73
     0
 74
     5
  7

 75
    16
147
1.0
148
0.0
149
0.0
100
AcDbLayout
  1
Layout1
 70
     1
 71
     1
 10
0.0
 20
0.0
 11
420.0
 21
297.0
 12
0.0
 22
0.0
 32
0.0
 14
1.0000000000E+20
 24
1.0000000000E+20
 34
1.0000000000E+20
 15
-1.0000000000E+20
 25
-1.0000000000E+20
 35
-1.0000000000E+20
146
0.0
 13
0.0
 23
0.0
 33
0.0
 16
1.0
 26
0.0
 36
0.0
 17
0.0
 27
1.0
 37
0.0
 76
     0
330
1B
  0
LAYOUT
  5
26
102
{ACAD_REACTORS
330
1A
102
}
330
1A
100
AcDbPlotSettings
  1

  2
none_device
  4

  6

 40
0.0
 41
0.0
 42
0.0
 43
0.0
 44
0.0
 45
0.0
 46
0.0
 47
0.0
 48
0.0
 49
0.0
140
0.0
141
0.0
142
1.0
143
1.0
 70
   688
 72
     1
 73
     0
 74
     5
  7

 75
    16
147
1.0
148
0.0
149
0.0
100
AcDbLayout
  1
Layout2
 70
     1
 71
     2
 10
0.0
 20
0.0
 11
0.0
 21
0.0
 12
0.0
 22
0.0
 32
0.0
 14
0.0
 24
0.0
 34
0.0
 15
0.0
 25
0.0
 35
0.0
146
0.0
 13
0.0
 23
0.0
 33
0.0
 16
1.0
 26
0.0
 36
0.0
 17
0.0
 27
1.0
 37
0.0
 76
     0
330
23
  0
LAYOUT
  5
22
102
{ACAD_REACTORS
330
1A
102
}
330
1A
100
AcDbPlotSettings
  1

  2
none_device
  4
Letter_(8.50_x_11.00_Inches)
  6

 40
6.35
 41
6.35
 42
6.35000508
 43
6.35000508
 44
215.9
 45
279.4
 46
0.0
 47
0.0
 48
0.0
 49
0.0
140
0.0
141
0.0
142
1.0
143
1.0
 70
  1712
 72
     1
 73
     0
 74
     0
  7

 75
     0
147
1.0
148
0.0
149
0.0
100
AcDbLayout
  1
Model
 70
     1
 71
     0
 10
0.0
 20
0.0
 11
594.0
 21
420.0
 12
0.0
 22
0.0
 32
0.0
 14
0.0
 24
0.0
 34
0.0
 15
594.0
 25
420.0
 35
0.0
146
0.0
 13
0.0
 23
0.0
 33
0.0
 16
1.0
 26
0.0
 36
0.0
 17
0.0
 27
1.0
 37
0.0
 76
     0
330
1F
331
29
  0
MLINESTYLE
  5
18
102
{ACAD_REACTORS
330
17
102
}
330
17
100
AcDbMlineStyle
  2
Standard
 70
     0
  3

 62
   256
 51
90.0
 52
90.0
 71
     2
 49
0.5
 62
   256
  6
BYLAYER
 49
-0.5
 62
   256
  6
BYLAYER
  0
ACDBPLACEHOLDER
  5
F
102
{ACAD_REACTORS
330
E
102
}
330
E
  0
SCALE
  5
48
102
{ACAD_REACTORS
330
47
102
}
330
47
100
AcDbScale
 70
     0
300
1:1
140
1.0
141
1.0
290
     1
  0
SCALE
  5
49
102
{ACAD_REACTORS
330
47
102
}
330
47
100
AcDbScale
 70
     0
300
1:2
140
1.0
141
2.0
290
     0
  0
SCALE
  5
4A
102
{ACAD_REACTORS
330
47
102
}
330
47
100
AcDbScale
 70
     0
300
1:4
140
1.0
141
4.0
290
     0
  0
SCALE
  5
4B
102
{ACAD_REACTORS
330
47
102
}
330
47
100
AcDbScale
 70
     0
300
1:5
140
1.0
141
5.0
290
     0
  0
SCALE
  5
4C
102
{ACAD_REACTORS
330
47
102
}
330
47
100
AcDbScale
 70
     0
300
1:8
140
1.0
141
8.0
290
     0
  0
SCALE
  5
4D
102
{ACAD_REACTORS
330
47
102
}
330
47
100
AcDbScale
 70
     0
300
1:10
140
1.0
141
10.0
290
     0
  0
SCALE
  5
4E
102
{ACAD_REACTORS
330
47
102
}
330
47
100
AcDbScale
 70
     0
300
1:16
140
1.0
141
16.0
290
     0
  0
SCALE
  5
4F
102
{ACAD_REACTORS
330
47
102
}
330
47
100
AcDbScale
 70
     0
300
1:20
140
1.0
141
20.0
290
     0
  0
SCALE
  5
50
102
{ACAD_REACTORS
330
47
102
}
330
47
100
AcDbScale
 70
     0
300
1:30
140
1.0
141
30.0
290
     0
  0
SCALE
  5
51
102
{ACAD_REACTORS
330
47
102
}
330
47
100
AcDbScale
 70
     0
300
1:40
140
1.0
141
40.0
290
     0
  0
SCALE
  5
52
102
{ACAD_REACTORS
330
47
102
}
330
47
100
AcDbScale
 70
     0
300
1:50
140
1.0
141
50.0
290
     0
  0
SCALE
  5
53
102
{ACAD_REACTORS
330
47
102
}
330
47
100
AcDbScale
 70
     0
300
1:100
140
1.0
141
100.0
290
     0
  0
SCALE
  5
54
102
{ACAD_REACTORS
330
47
102
}
330
47
100
AcDbScale
 70
     0
300
2:1
140
2.0
141
1.0
290
     0
  0
SCALE
  5
55
102
{ACAD_REACTORS
330
47
102
}
330
47
100
AcDbScale
 70
     0
300
4:1
140
4.0
141
1.0
290
     0
  0
SCALE
  5
56
102
{ACAD_REACTORS
330
47
102
}
330
47
100
AcDbScale
 70
     0
300
8:1
140
8.0
141
1.0
290
     0
  0
SCALE
  5
57
102
{ACAD_REACTORS
330
47
102
}
330
47
100
AcDbScale
 70
     0
300
10:1
140
10.0
141
1.0
290
     0
  0
SCALE
  5
58
102
{ACAD_REACTORS
330
47
102
}
330
47
100
AcDbScale
 70
     0
300
100:1
140
100.0
141
1.0
290
     0
  0
ENDSEC
  0
EOF
