  0
SECTION
  2
HEADER
  9
$ACADVER
  1
AC1015
  9
$ACADMAINTVER
 70
     6
  9
$DWGCODEPAGE
  3
DOS932
  9
$INSBASE
 10
0.0
 20
0.0
 30
0.0
  9
$EXTMIN
 10
0.0
 20
0.0
 30
0.0
  9
$EXTMAX
 10
431.8
 20
279.4
 30
0.0
  9
$LIMMIN
 10
0.0
 20
0.0
  9
$LIMMAX
 10
431.8
 20
279.4
  9
$ORTHOMODE
 70
     0
  9
$REGENMODE
 70
     1
  9
$FILLMODE
 70
     1
  9
$QTEXTMODE
 70
     0
  9
$MIRRTEXT
 70
     1
  9
$LTSCALE
 40
1.0
  9
$ATTMODE
 70
     1
  9
$TEXTSIZE
 40
3.5
  9
$TRACEWID
 40
1.0
  9
$TEXTSTYLE
  7
Standard
  9
$CLAYER
  8
0
  9
$CELTYPE
  6
ByLayer
  9
$CECOLOR
 62
   256
  9
$CELTSCALE
 40
1.0
  9
$DISPSILH
 70
     0
  9
$DIMSCALE
 40
1.0
  9
$DIMASZ
 40
3.556
  9
$DIMEXO
 40
1.0
  9
$DIMDLI
 40
3.75
  9
$DIMRND
 40
0.0
  9
$DIMDLE
 40
0.0
  9
$DIMEXE
 40
1.0
  9
$DIMTP
 40
0.0
  9
$DIMTM
 40
0.0
  9
$DIMTXT
 40
3.5
  9
$DIMCEN
 40
2.5
  9
$DIMTSZ
 40
0.0
  9
$DIMTOL
 70
     0
  9
$DIMLIM
 70
     0
  9
$DIMTIH
 70
     1
  9
$DIMTOH
 70
     1
  9
$DIMSE1
 70
     0
  9
$DIMSE2
 70
     0
  9
$DIMTAD
 70
     1
  9
$DIMZIN
 70
     0
  9
$DIMBLK
  1

  9
$DIMASO
 70
     1
  9
$DIMSHO
 70
     1
  9
$DIMPOST
  1

  9
$DIMAPOST
  1

  9
$DIMALT
 70
     0
  9
$DIMALTD
 70
     3
  9
$DIMALTF
 40
0.0393700787
  9
$DIMLFAC
 40
1.0
  9
$DIMTOFL
 70
     1
  9
$DIMTVP
 40
0.0
  9
$DIMTIX
 70
     0
  9
$DIMSOXD
 70
     0
  9
$DIMSAH
 70
     0
  9
$DIMBLK1
  1

  9
$DIMBLK2
  1

  9
$DIMSTYLE
  2
ISO-25
  9
$DIMCLRD
 70
     0
  9
$DIMCLRE
 70
     0
  9
$DIMCLRT
 70
     0
  9
$DIMTFAC
 40
1.0
  9
$DIMGAP
 40
1.524
  9
$DIMJUST
 70
     0
  9
$DIMSD1
 70
     0
  9
$DIMSD2
 70
     0
  9
$DIMTOLJ
 70
     0
  9
$DIMTZIN
 70
     0
  9
$DIMALTZ
 70
     0
  9
$DIMALTTZ
 70
     0
  9
$DIMUPT
 70
     0
  9
$DIMDEC
 70
     3
  9
$DIMTDEC
 70
     3
  9
$DIMALTU
 70
     2
  9
$DIMALTTD
 70
     3
  9
$DIMTXSTY
  7
Standard
  9
$DIMAUNIT
 70
     0
  9
$DIMADEC
 70
     2
  9
$DIMALTRND
 40
0.0
  9
$DIMAZIN
 70
     0
  9
$DIMDSEP
 70
    44
  9
$DIMATFIT
 70
     3
  9
$DIMFRAC
 70
     0
  9
$DIMLDRBLK
  1

  9
$DIMLUNIT
 70
     2
  9
$DIMLWD
 70
    -2
  9
$DIMLWE
 70
    -2
  9
$DIMTMOVE
 70
     0
  9
$LUNITS
 70
     2
  9
$LUPREC
 70
     3
  9
$SKETCHINC
 40
1.0
  9
$FILLETRAD
 40
0.0
  9
$AUNITS
 70
     0
  9
$AUPREC
 70
     2
  9
$MENU
  1
.
  9
$ELEVATION
 40
0.0
  9
$PELEVATION
 40
0.0
  9
$THICKNESS
 40
0.0
  9
$LIMCHECK
 70
     0
  9
$CHAMFERA
 40
0.0
  9
$CHAMFERB
 40
0.0
  9
$CHAMFERC
 40
0.0
  9
$CHAMFERD
 40
0.0
  9
$SKPOLY
 70
     0
  9
$TDCREATE
 40
2460297.680376921
  9
$TDUCREATE
 40
2460297.305376921
  9
$TDUPDATE
 40
2460297.680378009
  9
$TDUUPDATE
 40
2460297.305378009
  9
$TDINDWG
 40
0.0000000116
  9
$TDUSRTIMER
 40
0.0000000116
  9
$USRTIMER
 70
     1
  9
$ANGBASE
 50
0.0
  9
$ANGDIR
 70
     0
  9
$PDMODE
 70
     0
  9
$PDSIZE
 40
-1.0
  9
$PLINEWID
 40
0.0
  9
$SPLFRAME
 70
     0
  9
$SPLINETYPE
 70
     6
  9
$SPLINESEGS
 70
     8
  9
$HANDSEED
  5
357
  9
$SURFTAB1
 70
     6
  9
$SURFTAB2
 70
     6
  9
$SURFTYPE
 70
     6
  9
$SURFU
 70
     6
  9
$SURFV
 70
     6
  9
$UCSBASE
  2

  9
$UCSNAME
  2

  9
$UCSORG
 10
0.0
 20
0.0
 30
0.0
  9
$UCSXDIR
 10
1.0
 20
0.0
 30
0.0
  9
$UCSYDIR
 10
0.0
 20
1.0
 30
0.0
  9
$UCSORTHOREF
  2

  9
$UCSORTHOVIEW
 70
     0
  9
$UCSORGTOP
 10
0.0
 20
0.0
 30
0.0
  9
$UCSORGBOTTOM
 10
0.0
 20
0.0
 30
0.0
  9
$UCSORGLEFT
 10
0.0
 20
0.0
 30
0.0
  9
$UCSORGRIGHT
 10
0.0
 20
0.0
 30
0.0
  9
$UCSORGFRONT
 10
0.0
 20
0.0
 30
0.0
  9
$UCSORGBACK
 10
0.0
 20
0.0
 30
0.0
  9
$PUCSBASE
  2

  9
$PUCSNAME
  2

  9
$PUCSORG
 10
0.0
 20
0.0
 30
0.0
  9
$PUCSXDIR
 10
1.0
 20
0.0
 30
0.0
  9
$PUCSYDIR
 10
0.0
 20
1.0
 30
0.0
  9
$PUCSORTHOREF
  2

  9
$PUCSORTHOVIEW
 70
     0
  9
$PUCSORGTOP
 10
0.0
 20
0.0
 30
0.0
  9
$PUCSORGBOTTOM
 10
0.0
 20
0.0
 30
0.0
  9
$PUCSORGLEFT
 10
0.0
 20
0.0
 30
0.0
  9
$PUCSORGRIGHT
 10
0.0
 20
0.0
 30
0.0
  9
$PUCSORGFRONT
 10
0.0
 20
0.0
 30
0.0
  9
$PUCSORGBACK
 10
0.0
 20
0.0
 30
0.0
  9
$USERI1
 70
     0
  9
$USERI2
 70
     0
  9
$USERI3
 70
     0
  9
$USERI4
 70
     0
  9
$USERI5
 70
     0
  9
$USERR1
 40
0.0
  9
$USERR2
 40
0.0
  9
$USERR3
 40
0.0
  9
$USERR4
 40
0.0
  9
$USERR5
 40
0.0
  9
$WORLDVIEW
 70
     1
  9
$SHADEDGE
 70
     3
  9
$SHADEDIF
 70
    70
  9
$TILEMODE
 70
     1
  9
$MAXACTVP
 70
    64
  9
$PINSBASE
 10
0.0
 20
0.0
 30
0.0
  9
$PLIMCHECK
 70
     0
  9
$PEXTMIN
 10
1.0000000000E+20
 20
1.0000000000E+20
 30
1.0000000000E+20
  9
$PEXTMAX
 10
-1.0000000000E+20
 20
-1.0000000000E+20
 30
-1.0000000000E+20
  9
$PLIMMIN
 10
0.0
 20
0.0
  9
$PLIMMAX
 10
420.0
 20
297.0
  9
$UNITMODE
 70
     0
  9
$VISRETAIN
 70
     1
  9
$PLINEGEN
 70
     0
  9
$PSLTSCALE
 70
     1
  9
$TREEDEPTH
 70
  3020
  9
$CMLSTYLE
  2
Standard
  9
$CMLJUST
 70
     0
  9
$CMLSCALE
 40
20.0
  9
$PROXYGRAPHICS
 70
     1
  9
$MEASUREMENT
 70
     1
  9
$CELWEIGHT
370
    -1
  9
$ENDCAPS
280
     0
  9
$JOINSTYLE
280
     0
  9
$LWDISPLAY
290
     1
  9
$INSUNITS
 70
     4
  9
$HYPERLINKBASE
  1

  9
$STYLESHEET
  1

  9
$XEDIT
290
     1
  9
$CEPSNTYPE
380
     0
  9
$PSTYLEMODE
290
     1
  9
$FINGERPRINTGUID
  2
{130c2516-95ed-4197-ac84-afd922207ed4}
  9
$VERSIONGUID
  2
{FAEB1C32-E019-11D5-929B-00C0DF256EC4}
  9
$EXTNAMES
290
     1
  9
$PSVPSCALE
 40
0.0
  9
$OLESTARTUP
290
     0
  0
ENDSEC
  0
SECTION
  2
CLASSES
  0
CLASS
  1
ACDBDICTIONARYWDFLT
  2
AcDbDictionaryWithDefault
  3
ObjectDBX Classes
 90
        0
280
     0
281
     0
  0
CLASS
  1
VISUALSTYLE
  2
AcDbVisualStyle
  3
ObjectDBX Classes
 90
     4095
280
     0
281
     0
  0
CLASS
  1
MATERIAL
  2
AcDbMaterial
  3
ObjectDBX Classes
 90
     1153
280
     0
281
     0
  0
CLASS
  1
SCALE
  2
AcDbScale
  3
ObjectDBX Classes
 90
     1153
280
     0
281
     0
  0
CLASS
  1
TABLESTYLE
  2
AcDbTableStyle
  3
ObjectDBX Classes
 90
     4095
280
     0
281
     0
  0
CLASS
  1
MLEADERSTYLE
  2
AcDbMLeaderStyle
  3
ACDB_MLEADERSTYLE_CLASS
 90
     4095
280
     0
281
     0
  0
CLASS
  1
SUN
  2
AcDbSun
  3
SCENEOE
 90
     1153
280
     0
281
     0
  0
CLASS
  1
ACDBPLACEHOLDER
  2
AcDbPlaceHolder
  3
ObjectDBX Classes
 90
        0
280
     0
281
     0
  0
CLASS
  1
LAYOUT
  2
AcDbLayout
  3
ObjectDBX Classes
 90
        0
280
     0
281
     0
  0
ENDSEC
  0
SECTION
  2
TABLES
  0
TABLE
  2
VPORT
  5
8
330
0
100
AcDbSymbolTable
 70
     1
  0
VPORT
  5
29
330
8
100
AcDbSymbolTableRecord
100
AcDbViewportTableRecord
  2
*Active
 70
     0
 10
0.0
 20
0.0
 11
1.0
 21
1.0
 12
215.9
 22
139.7
 13
0.0
 23
0.0
 14
10.0
 24
10.0
 15
10.0
 25
10.0
 16
0.0
 26
0.0
 36
1.0
 17
0.0
 27
0.0
 37
0.0
 40
279.4
 41
1.5454545455
 42
50.0
 43
0.0
 44
0.0
 50
0.0
 51
0.0
 71
     0
 72
  2000
 73
     1
 74
     3
 75
     0
 76
     0
 77
     0
 78
     0
281
     0
 65
     1
110
0.0
120
0.0
130
0.0
111
1.0
121
0.0
131
0.0
112
0.0
122
1.0
132
0.0
 79
     0
146
0.0
  0
ENDTAB
  0
TABLE
  2
LTYPE
  5
5
330
0
100
AcDbSymbolTable
 70
     6
  0
LTYPE
  5
14
330
5
100
AcDbSymbolTableRecord
100
AcDbLinetypeTableRecord
  2
ByBlock
 70
     0
  3

 72
    65
 73
     0
 40
0.0
  0
LTYPE
  5
15
330
5
100
AcDbSymbolTableRecord
100
AcDbLinetypeTableRecord
  2
ByLayer
 70
     0
  3

 72
    65
 73
     0
 40
0.0
  0
LTYPE
  5
16
330
5
100
AcDbSymbolTableRecord
100
AcDbLinetypeTableRecord
  2
Continuous
 70
     0
  3
Solid line
 72
    65
 73
     0
 40
0.0
  0
LTYPE
  5
5E
330
5
100
AcDbSymbolTableRecord
100
AcDbLinetypeTableRecord
  2
HIDDEN
 70
     0
  3
Hidden __ __ __ __ __ __ __ __ __ __ __ __ __ __
 72
    65
 73
     2
 40
1.905
 49
1.27
 74
     0
 49
-0.635
 74
     0
  0
LTYPE
  5
5F
330
5
100
AcDbSymbolTableRecord
100
AcDbLinetypeTableRecord
  2
PHANTOM
 70
     0
  3
Phantom ______  __  __  ______  __  __  ______
 72
    65
 73
     6
 40
12.7
 49
6.35
 74
     0
 49
-1.27
 74
     0
 49
1.27
 74
     0
 49
-1.27
 74
     0
 49
1.27
 74
     0
 49
-1.27
 74
     0
  0
LTYPE
  5
60
330
5
100
AcDbSymbolTableRecord
100
AcDbLinetypeTableRecord
  2
CENTER
 70
     0
  3
Center ____ _ ____ _ ____ _ ____ _ ____ _ ____
 72
    65
 73
     4
 40
10.16
 49
6.35
 74
     0
 49
-1.27
 74
     0
 49
1.27
 74
     0
 49
-1.27
 74
     0
  0
LTYPE
  5
61
330
5
100
AcDbSymbolTableRecord
100
AcDbLinetypeTableRecord
  2
CENTERX2
 70
     0
  3
Center (2x) ________  __  ________  __  _____
 72
    65
 73
     4
 40
20.32
 49
12.7
 74
     0
 49
-2.54
 74
     0
 49
2.54
 74
     0
 49
-2.54
 74
     0
  0
LTYPE
  5
62
330
5
100
AcDbSymbolTableRecord
100
AcDbLinetypeTableRecord
  2
DOT2
 70
     0
  3
Dot (.5x) ........................................
 72
    65
 73
     2
 40
0.635
 49
0.0
 74
     0
 49
-0.635
 74
     0
  0
ENDTAB
  0
TABLE
  2
LAYER
  5
2
330
0
100
AcDbSymbolTable
 70
     1
  0
LAYER
  5
10
330
2
100
AcDbSymbolTableRecord
100
AcDbLayerTableRecord
  2
0
 70
     0
 62
     7
  6
Continuous
370
    -3
390
F
  0
ENDTAB
  0
TABLE
  2
STYLE
  5
3
330
0
100
AcDbSymbolTable
 70
     2
  0
STYLE
  5
11
330
3
100
AcDbSymbolTableRecord
100
AcDbTextStyleTableRecord
  2
Standard
 70
     0
 40
0.0
 41
1.0
 50
0.0
 71
     0
 42
3.5
  3
txt
  4
bigfont
  0
STYLE
  5
63
330
3
100
AcDbSymbolTableRecord
100
AcDbTextStyleTableRecord
  2
SLDTEXTSTYLE0
 70
     0
 40
0.0
 41
0.7
 50
0.0
 71
     0
 42
3.5
  3
TXT
  4
bigfont
  0
ENDTAB
  0
TABLE
  2
VIEW
  5
6
330
0
100
AcDbSymbolTable
 70
     0
  0
ENDTAB
  0
TABLE
  2
UCS
  5
7
330
0
100
AcDbSymbolTable
 70
     0
  0
ENDTAB
  0
TABLE
  2
APPID
  5
9
330
0
100
AcDbSymbolTable
 70
     1
  0
APPID
  5
12
330
9
100
AcDbSymbolTableRecord
100
AcDbRegAppTableRecord
  2
ACAD
 70
     0
  0
ENDTAB
  0
TABLE
  2
DIMSTYLE
  5
A
330
0
100
AcDbSymbolTable
 70
     1
100
AcDbDimStyleTable
  0
DIMSTYLE
105
27
330
A
100
AcDbSymbolTableRecord
100
AcDbDimStyleTableRecord
  2
ISO-25
 70
     0
 41
2.5
 42
0.625
 43
3.75
 44
1.25
 73
     0
 74
     0
 77
     1
 78
     8
140
2.5
141
2.5
143
0.0393700787
147
0.625
171
     3
172
     1
178
     0
271
     2
272
     2
274
     3
278
    44
283
     0
284
     8
340
11
  0
ENDTAB
  0
TABLE
  2
BLOCK_RECORD
  5
1
330
0
100
AcDbSymbolTable
 70
     3
  0
BLOCK_RECORD
  5
1F
330
1
100
AcDbSymbolTableRecord
100
AcDbBlockTableRecord
  2
*Model_Space
340
22
  0
BLOCK_RECORD
  5
1B
330
1
100
AcDbSymbolTableRecord
100
AcDbBlockTableRecord
  2
*Paper_Space
340
1E
  0
BLOCK_RECORD
  5
23
330
1
100
AcDbSymbolTableRecord
100
AcDbBlockTableRecord
  2
*Paper_Space0
340
26
  0
BLOCK_RECORD
  5
225
330
1
100
AcDbSymbolTableRecord
100
AcDbBlockTableRecord
  2
SW_CENTERMARKSYMBOL_0
340
0
102
{BLKREFS
331
230
102
}
  0
BLOCK_RECORD
  5
343
330
1
100
AcDbSymbolTableRecord
100
AcDbBlockTableRecord
  2
SW_CENTERMARKSYMBOL_1
340
0
102
{BLKREFS
331
34E
102
}
  0
ENDTAB
  0
ENDSEC
  0
SECTION
  2
BLOCKS
  0
BLOCK
  5
20
330
1F
100
AcDbEntity
  8
0
100
AcDbBlockBegin
  2
*Model_Space
 70
     0
 10
0.0
 20
0.0
 30
0.0
  3
*Model_Space
  1

  0
ENDBLK
  5
21
330
1F
100
AcDbEntity
  8
0
100
AcDbBlockEnd
  0
BLOCK
  5
1C
330
1B
100
AcDbEntity
 67
     1
  8
0
100
AcDbBlockBegin
  2
*Paper_Space
 70
     0
 10
0.0
 20
0.0
 30
0.0
  3
*Paper_Space
  1

  0
ENDBLK
  5
1D
330
1B
100
AcDbEntity
 67
     1
  8
0
100
AcDbBlockEnd
  0
BLOCK
  5
24
330
23
100
AcDbEntity
  8
0
100
AcDbBlockBegin
  2
*Paper_Space0
 70
     0
 10
0.0
 20
0.0
 30
0.0
  3
*Paper_Space0
  1

  0
ENDBLK
  5
25
330
23
100
AcDbEntity
  8
0
100
AcDbBlockEnd
  0
BLOCK
  5
226
330
225
100
AcDbEntity
  8
0
100
AcDbBlockBegin
  2
SW_CENTERMARKSYMBOL_0
 70
     0
 10
0.0
 20
0.0
 30
0.0
  3
SW_CENTERMARKSYMBOL_0
  1

  0
LINE
  5
228
330
225
100
AcDbEntity
  8
0
  6
Continuous
 62
     0
370
    18
100
AcDbLine
 10
0.0
 20
0.0
 30
0.0
 11
0.0
 21
2.5
 31
0.0
  0
LINE
  5
229
330
225
100
AcDbEntity
  8
0
  6
Continuous
 62
     0
370
    18
100
AcDbLine
 10
0.0
 20
0.0
 30
0.0
 11
-2.5
 21
0.0
 31
0.0
  0
LINE
  5
22A
330
225
100
AcDbEntity
  8
0
  6
Continuous
 62
     0
370
    18
100
AcDbLine
 10
0.0
 20
0.0
 30
0.0
 11
0.0
 21
-2.5
 31
0.0
  0
LINE
  5
22B
330
225
100
AcDbEntity
  8
0
  6
Continuous
 62
     0
370
    18
100
AcDbLine
 10
0.0
 20
0.0
 30
0.0
 11
2.5
 21
0.0
 31
0.0
  0
LINE
  5
22C
330
225
100
AcDbEntity
  8
0
  6
Continuous
 62
     0
370
    18
100
AcDbLine
 10
0.0
 20
5.0
 30
0.0
 11
0.0
 21
42.5962267952
 31
0.0
  0
LINE
  5
22D
330
225
100
AcDbEntity
  8
0
  6
Continuous
 62
     0
370
    18
100
AcDbLine
 10
-5.0
 20
0.0
 30
0.0
 11
-17.25
 21
0.0
 31
0.0
  0
LINE
  5
22E
330
225
100
AcDbEntity
  8
0
  6
Continuous
 62
     0
370
    18
100
AcDbLine
 10
0.0
 20
-5.0
 30
0.0
 11
0.0
 21
-18.6897653265
 31
0.0
  0
LINE
  5
22F
330
225
100
AcDbEntity
  8
0
  6
Continuous
 62
     0
370
    18
100
AcDbLine
 10
5.0
 20
0.0
 30
0.0
 11
17.25
 21
0.0
 31
0.0
  0
ENDBLK
  5
227
330
225
100
AcDbEntity
  8
0
100
AcDbBlockEnd
  0
BLOCK
  5
344
330
343
100
AcDbEntity
  8
0
100
AcDbBlockBegin
  2
SW_CENTERMARKSYMBOL_1
 70
     0
 10
0.0
 20
0.0
 30
0.0
  3
SW_CENTERMARKSYMBOL_1
  1

  0
LINE
  5
346
330
343
100
AcDbEntity
  8
0
  6
Continuous
 62
     0
370
    18
100
AcDbLine
 10
0.0
 20
0.0
 30
0.0
 11
0.0
 21
2.5
 31
0.0
  0
LINE
  5
347
330
343
100
AcDbEntity
  8
0
  6
Continuous
 62
     0
370
    18
100
AcDbLine
 10
0.0
 20
0.0
 30
0.0
 11
-2.5
 21
0.0
 31
0.0
  0
LINE
  5
348
330
343
100
AcDbEntity
  8
0
  6
Continuous
 62
     0
370
    18
100
AcDbLine
 10
0.0
 20
0.0
 30
0.0
 11
0.0
 21
-2.5
 31
0.0
  0
LINE
  5
349
330
343
100
AcDbEntity
  8
0
  6
Continuous
 62
     0
370
    18
100
AcDbLine
 10
0.0
 20
0.0
 30
0.0
 11
2.5
 21
0.0
 31
0.0
  0
LINE
  5
34A
330
343
100
AcDbEntity
  8
0
  6
Continuous
 62
     0
370
    18
100
AcDbLine
 10
0.0
 20
5.0
 30
0.0
 11
0.0
 21
16.5926210865
 31
0.0
  0
LINE
  5
34B
330
343
100
AcDbEntity
  8
0
  6
Continuous
 62
     0
370
    18
100
AcDbLine
 10
-5.0
 20
0.0
 30
0.0
 11
-75.7973004989
 21
0.0
 31
0.0
  0
LINE
  5
34C
330
343
100
AcDbEntity
  8
0
  6
Continuous
 62
     0
370
    18
100
AcDbLine
 10
0.0
 20
-5.0
 30
0.0
 11
0.0
 21
-16.2007956689
 31
0.0
  0
LINE
  5
34D
330
343
100
AcDbEntity
  8
0
  6
Continuous
 62
     0
370
    18
100
AcDbLine
 10
5.0
 20
0.0
 30
0.0
 11
30.7813039562
 21
0.0
 31
0.0
  0
ENDBLK
  5
345
330
343
100
AcDbEntity
  8
0
100
AcDbBlockEnd
  0
ENDSEC
  0
SECTION
  2
ENTITIES
  0
MTEXT
  5
64
330
1F
100
AcDbEntity
  8
0
  6
Continuous
 62
     7
370
     0
100
AcDbMText
 10
167.0049820104
 20
115.7363938955
 30
0.0
 40
4.2333333333
 41
0.0
 71
     1
 72
     1
  1
エースボールZERO　BY-0620
  7
SLDTEXTSTYLE0
 73
     1
 44
1.0
  0
LINE
  5
65
330
1F
100
AcDbEntity
  8
0
  6
Continuous
 62
     7
370
    25
100
AcDbLine
 10
105.2763249879
 20
48.6498777152
 30
0.0
 11
111.7763249879
 21
48.6498777152
 31
0.0
  0
LINE
  5
66
330
1F
100
AcDbEntity
  8
0
  6
Continuous
 62
     7
370
    25
100
AcDbLine
 10
111.7763249879
 20
69.1498777152
 30
0.0
 11
105.2763249879
 21
69.1498777152
 31
0.0
  0
LINE
  5
67
330
1F
100
AcDbEntity
  8
0
  6
Continuous
 62
     7
370
    25
100
AcDbLine
 10
105.2763249879
 20
69.1498777152
 30
0.0
 11
100.2763249879
 21
68.1498777152
 31
0.0
  0
LINE
  5
68
330
1F
100
AcDbEntity
  8
0
  6
Continuous
 62
     7
370
    25
100
AcDbLine
 10
100.2763249879
 20
49.6498777152
 30
0.0
 11
105.2763249879
 21
48.6498777152
 31
0.0
  0
LINE
  5
69
330
1F
100
AcDbEntity
  8
0
  6
Continuous
 62
     7
370
    25
100
AcDbLine
 10
100.2763249879
 20
69.1498777152
 30
0.0
 11
95.2763249879
 21
68.1498777152
 31
0.0
  0
LINE
  5
6A
330
1F
100
AcDbEntity
  8
0
  6
Continuous
 62
     7
370
    25
100
AcDbLine
 10
95.2763249879
 20
49.6498777152
 30
0.0
 11
100.2763249879
 21
48.6498777152
 31
0.0
  0
LINE
  5
6B
330
1F
100
AcDbEntity
  8
0
  6
Continuous
 62
     7
370
    25
100
AcDbLine
 10
85.2763249879
 20
69.1498777152
 30
0.0
 11
78.3391821308
 21
68.282734858
 31
0.0
  0
LINE
  5
6C
330
1F
100
AcDbEntity
  8
0
  6
Continuous
 62
     7
370
    25
100
AcDbLine
 10
78.3391821308
 20
49.5170205723
 30
0.0
 11
85.2763249879
 21
48.6498777152
 31
0.0
  0
LINE
  5
6D
330
1F
100
AcDbEntity
  8
0
  6
Continuous
 62
     7
370
    25
100
AcDbLine
 10
95.2763249879
 20
69.1498777152
 30
0.0
 11
90.2763249879
 21
68.1498777152
 31
0.0
  0
LINE
  5
6E
330
1F
100
AcDbEntity
  8
0
  6
Continuous
 62
     7
370
    25
100
AcDbLine
 10
90.2763249879
 20
49.6498777152
 30
0.0
 11
95.2763249879
 21
48.6498777152
 31
0.0
  0
LINE
  5
6F
330
1F
100
AcDbEntity
  8
0
  6
Continuous
 62
     7
370
    25
100
AcDbLine
 10
90.2763249879
 20
69.1498777152
 30
0.0
 11
85.2763249879
 21
68.1498777152
 31
0.0
  0
LINE
  5
70
330
1F
100
AcDbEntity
  8
0
  6
Continuous
 62
     7
370
    25
100
AcDbLine
 10
85.2763249879
 20
49.6498777152
 30
0.0
 11
90.2763249879
 21
48.6498777152
 31
0.0
  0
LINE
  5
71
330
1F
100
AcDbEntity
  8
0
  6
Continuous
 62
     7
370
    25
100
AcDbLine
 10
78.3391821308
 20
68.282734858
 30
0.0
 11
77.2763249879
 21
67.2198777152
 31
0.0
  0
LINE
  5
72
330
1F
100
AcDbEntity
  8
0
  6
Continuous
 62
     7
370
    25
100
AcDbLine
 10
77.2763249879
 20
50.5798777152
 30
0.0
 11
78.3391821308
 21
49.5170205723
 31
0.0
  0
LINE
  5
73
330
1F
100
AcDbEntity
  8
0
  6
Continuous
 62
     7
370
    25
100
AcDbLine
 10
125.7922414585
 20
41.5793696395
 30
0.0
 11
127.2763249879
 21
44.1498777152
 31
0.0
  0
LINE
  5
74
330
1F
100
AcDbEntity
  8
0
  6
Continuous
 62
     7
370
    25
100
AcDbLine
 10
127.2763249879
 20
73.6498777152
 30
0.0
 11
125.7922414585
 21
76.2203857909
 31
0.0
  0
LINE
  5
75
330
1F
100
AcDbEntity
  8
0
  6
Continuous
 62
     7
370
    25
100
AcDbLine
 10
115.2604085174
 20
76.2203857909
 30
0.0
 11
113.7763249879
 21
73.6498777152
 31
0.0
  0
LINE
  5
76
330
1F
100
AcDbEntity
  8
0
  6
Continuous
 62
     7
370
    25
100
AcDbLine
 10
113.7763249879
 20
44.1498777152
 30
0.0
 11
115.2604085174
 21
41.5793696395
 31
0.0
  0
LINE
  5
77
330
1F
100
AcDbEntity
  8
0
  6
Continuous
 62
     7
370
    25
100
AcDbLine
 10
127.2763249879
 20
44.1498777152
 30
0.0
 11
128.7763249879
 21
44.1498777152
 31
0.0
  0
LINE
  5
78
330
1F
100
AcDbEntity
  8
0
  6
Continuous
 62
     7
370
    25
100
AcDbLine
 10
128.7763249879
 20
73.6498777152
 30
0.0
 11
127.2763249879
 21
73.6498777152
 31
0.0
  0
LINE
  5
79
330
1F
100
AcDbEntity
  8
0
  6
Continuous
 62
     7
370
    25
100
AcDbLine
 10
113.7763249879
 20
73.6498777152
 30
0.0
 11
112.2763249879
 21
73.6498777152
 31
0.0
  0
LINE
  5
7A
330
1F
100
AcDbEntity
  8
0
  6
Continuous
 62
     7
370
    25
100
AcDbLine
 10
112.2763249879
 20
44.1498777152
 30
0.0
 11
113.7763249879
 21
44.1498777152
 31
0.0
  0
LINE
  5
7B
330
1F
100
AcDbEntity
  8
0
  6
Continuous
 62
     7
370
    25
100
AcDbLine
 10
112.2763249879
 20
73.6498777152
 30
0.0
 11
111.7763249879
 21
73.1498777152
 31
0.0
  0
LINE
  5
7C
330
1F
100
AcDbEntity
  8
0
  6
Continuous
 62
     7
370
    25
100
AcDbLine
 10
111.7763249879
 20
44.6498777152
 30
0.0
 11
112.2763249879
 21
44.1498777152
 31
0.0
  0
LINE
  5
7D
330
1F
100
AcDbEntity
  8
0
  6
Continuous
 62
     7
370
    25
100
AcDbLine
 10
128.7763249879
 20
44.1498777152
 30
0.0
 11
129.2763249879
 21
44.6498777152
 31
0.0
  0
LINE
  5
7E
330
1F
100
AcDbEntity
  8
0
  6
Continuous
 62
     7
370
    25
100
AcDbLine
 10
129.2763249879
 20
73.1498777152
 30
0.0
 11
128.7763249879
 21
73.6498777152
 31
0.0
  0
LINE
  5
7F
330
1F
100
AcDbEntity
  8
0
  6
Continuous
 62
     7
370
    25
100
AcDbLine
 10
138.4021580128
 20
72.3998777152
 30
0.0
 11
135.4021580128
 21
72.3998777152
 31
0.0
  0
LINE
  5
80
330
1F
100
AcDbEntity
  8
0
  6
Continuous
 62
     7
370
    25
100
AcDbLine
 10
135.4021580128
 20
45.3998777152
 30
0.0
 11
138.4021580128
 21
45.3998777152
 31
0.0
  0
LINE
  5
81
330
1F
100
AcDbEntity
  8
0
  6
Continuous
 62
     7
370
    25
100
AcDbLine
 10
131.9021580128
 20
72.1203777152
 30
0.0
 11
129.2763249879
 21
72.1203777152
 31
0.0
  0
LINE
  5
82
330
1F
100
AcDbEntity
  8
0
  6
Continuous
 62
     7
370
    25
100
AcDbLine
 10
129.2763249879
 20
45.6793777152
 30
0.0
 11
131.9021580128
 21
45.6793777152
 31
0.0
  0
LINE
  5
83
330
1F
100
AcDbEntity
  8
0
  6
Continuous
 62
     7
370
    25
100
AcDbLine
 10
131.9021580128
 20
45.6793777152
 30
0.0
 11
132.9021580128
 21
46.6793777152
 31
0.0
  0
LINE
  5
84
330
1F
100
AcDbEntity
  8
0
  6
Continuous
 62
     7
370
    25
100
AcDbLine
 10
132.9021580128
 20
71.1203777152
 30
0.0
 11
131.9021580128
 21
72.1203777152
 31
0.0
  0
LINE
  5
85
330
1F
100
AcDbEntity
  8
0
  6
Continuous
 62
     7
370
    25
100
AcDbLine
 10
135.4021580128
 20
70.3998777152
 30
0.0
 11
132.9021580128
 21
70.3998777152
 31
0.0
  0
LINE
  5
86
330
1F
100
AcDbEntity
  8
0
  6
Continuous
 62
     7
370
    25
100
AcDbLine
 10
132.9021580128
 20
47.3998777152
 30
0.0
 11
135.4021580128
 21
47.3998777152
 31
0.0
  0
LINE
  5
87
330
1F
100
AcDbEntity
  8
0
  6
Continuous
 62
     7
370
    25
100
AcDbLine
 10
164.4021580128
 20
45.4771902152
 30
0.0
 11
177.7969816739
 21
45.8957784546
 31
0.0
  0
LINE
  5
88
330
1F
100
AcDbEntity
  8
0
  6
Continuous
 62
     7
370
    25
100
AcDbLine
 10
177.7969816739
 20
71.9039769758
 30
0.0
 11
164.4021580128
 21
72.3225652152
 31
0.0
  0
LINE
  5
89
330
1F
100
AcDbEntity
  8
0
  6
Continuous
 62
     7
370
    25
100
AcDbLine
 10
177.7969816739
 20
45.8957784546
 30
0.0
 11
180.4021580128
 21
47.3998777152
 31
0.0
  0
LINE
  5
8A
330
1F
100
AcDbEntity
  8
0
  6
Continuous
 62
     7
370
    25
100
AcDbLine
 10
180.4021580128
 20
70.3998777152
 30
0.0
 11
177.7969816739
 21
71.9039769758
 31
0.0
  0
ARC
  5
8B
330
1F
100
AcDbEntity
  8
0
  6
Continuous
 62
     7
370
    25
100
AcDbCircle
 10
160.1521580128
 20
73.3998777152
 30
0.0
 40
0.5000000000000284
100
AcDbArc
 50
180.0
 51
270.0
  0
ARC
  5
8C
330
1F
100
AcDbEntity
  8
0
  6
Continuous
 62
     7
370
    25
100
AcDbCircle
 10
142.6521580128
 20
73.3998777152
 30
0.0
 40
0.5
100
AcDbArc
 50
270.0
 51
0.0
  0
LINE
  5
8D
330
1F
100
AcDbEntity
  8
0
  6
Continuous
 62
     7
370
    25
100
AcDbLine
 10
159.6521580128
 20
73.3998777152
 30
0.0
 11
159.6521580128
 21
78.3998777152
 31
0.0
  0
LINE
  5
8E
330
1F
100
AcDbEntity
  8
0
  6
Continuous
 62
     7
370
    25
100
AcDbLine
 10
143.1521580128
 20
78.3998777152
 30
0.0
 11
143.1521580128
 21
73.3998777152
 31
0.0
  0
LINE
  5
8F
330
1F
100
AcDbEntity
  8
0
  6
Continuous
 62
     7
370
    25
100
AcDbLine
 10
159.6521580128
 20
78.3998777152
 30
0.0
 11
159.1521580128
 21
78.8998777152
 31
0.0
  0
LINE
  5
90
330
1F
100
AcDbEntity
  8
0
  6
Continuous
 62
     7
370
    25
100
AcDbLine
 10
143.6521580128
 20
78.8998777152
 30
0.0
 11
143.1521580128
 21
78.3998777152
 31
0.0
  0
LINE
  5
91
330
1F
100
AcDbEntity
  8
0
  6
Continuous
 62
     7
370
    25
100
AcDbLine
 10
146.4021580128
 20
79.3998777152
 30
0.0
 11
146.4021580128
 21
78.8998777152
 31
0.0
  0
LINE
  5
92
330
1F
100
AcDbEntity
  8
0
  6
Continuous
 62
     7
370
    25
100
AcDbLine
 10
156.4021580128
 20
78.8998777152
 30
0.0
 11
156.4021580128
 21
79.3998777152
 31
0.0
  0
ARC
  5
93
330
1F
100
AcDbEntity
  8
0
  6
Continuous
 62
     7
370
    25
100
AcDbCircle
 10
151.4021580128
 20
76.8998777152
 30
0.0
 40
20.6
100
AcDbArc
 50
90.5981324368
 51
93.3558231766
  0
ARC
  5
94
330
1F
100
AcDbEntity
  8
0
  6
Continuous
 62
     7
370
    25
100
AcDbCircle
 10
151.4021580128
 20
76.8998777152
 30
0.0
 40
20.6
100
AcDbArc
 50
86.6441768145
 51
89.4042964229
  0
ARC
  5
95
330
1F
100
AcDbEntity
  8
0
  6
Continuous
 62
     7
370
    25
100
AcDbCircle
 10
159.3959283812
 20
89.3874570199
 30
0.0
 40
1.000000000000005
100
AcDbArc
 50
354.2894068625
 51
7.1250163489
  0
LINE
  5
96
330
1F
100
AcDbEntity
  8
0
  6
Continuous
 62
     7
370
    25
100
AcDbLine
 10
142.9955301562
 20
83.4661562815
 30
0.0
 11
143.2221580128
 21
81.1998777152
 31
0.0
  0
LINE
  5
97
330
1F
100
AcDbEntity
  8
0
  6
Continuous
 62
     7
370
    25
100
AcDbLine
 10
159.4471828269
 20
79.8501258557
 30
0.0
 11
160.3909655714
 21
89.2879533009
 31
0.0
  0
LINE
  5
98
330
1F
100
AcDbEntity
  8
0
  6
Continuous
 62
     7
370
    25
100
AcDbLine
 10
160.3882062579
 20
89.5114917545
 30
0.0
 11
159.4569058419
 21
96.9618950825
 31
0.0
  0
LINE
  5
99
330
1F
100
AcDbEntity
  8
0
  6
Continuous
 62
     7
370
    25
100
AcDbLine
 10
143.3474101838
 20
96.9618950825
 30
0.0
 11
143.1521580128
 21
95.3998777152
 31
0.0
  0
ARC
  5
9A
330
1F
100
AcDbEntity
  8
0
  6
Continuous
 62
     7
370
    25
100
AcDbCircle
 10
143.8435491221
 20
96.8998777152
 30
0.0
 40
0.5
100
AcDbArc
 50
90.0
 51
172.8749836511
  0
ARC
  5
9B
330
1F
100
AcDbEntity
  8
0
  6
Continuous
 62
     7
370
    25
100
AcDbCircle
 10
158.9607669036
 20
96.8998777152
 30
0.0
 40
0.5
100
AcDbArc
 50
7.1250163489
 51
90.0
  0
ARC
  5
9C
330
1F
100
AcDbEntity
  8
0
  6
Continuous
 62
     7
370
    25
100
AcDbCircle
 10
158.9496642318
 20
79.8998777152
 30
0.0
 40
0.5
100
AcDbArc
 50
270.0
 51
354.2894068625
  0
LINE
  5
9D
330
1F
100
AcDbEntity
  8
0
  6
Continuous
 62
     7
370
    25
100
AcDbLine
 10
145.9021580128
 20
78.8998777152
 30
0.0
 11
145.9021580128
 21
79.3998777152
 31
0.0
  0
LINE
  5
9E
330
1F
100
AcDbEntity
  8
0
  6
Continuous
 62
     7
370
    25
100
AcDbLine
 10
143.9021580128
 20
79.4031124471
 30
0.0
 11
143.9021580128
 21
78.8998777152
 31
0.0
  0
LINE
  5
9F
330
1F
100
AcDbEntity
  8
0
  6
Continuous
 62
     7
370
    25
100
AcDbLine
 10
105.2763249879
 20
48.6498777152
 30
0.0
 11
105.2763249879
 21
69.1498777152
 31
0.0
  0
LINE
  5
A0
330
1F
100
AcDbEntity
  8
0
  6
Continuous
 62
     7
370
    25
100
AcDbLine
 10
100.2763249879
 20
48.6498777152
 30
0.0
 11
100.2763249879
 21
69.1498777152
 31
0.0
  0
LINE
  5
A1
330
1F
100
AcDbEntity
  8
0
  6
Continuous
 62
     7
370
    25
100
AcDbLine
 10
85.2763249879
 20
48.6498777152
 30
0.0
 11
85.2763249879
 21
69.1498777152
 31
0.0
  0
LINE
  5
A2
330
1F
100
AcDbEntity
  8
0
  6
Continuous
 62
     7
370
    25
100
AcDbLine
 10
78.3391821308
 20
68.282734858
 30
0.0
 11
78.3391821308
 21
49.5170205723
 31
0.0
  0
LINE
  5
A3
330
1F
100
AcDbEntity
  8
0
  6
Continuous
 62
     7
370
    25
100
AcDbLine
 10
95.2763249879
 20
48.6498777152
 30
0.0
 11
95.2763249879
 21
69.1498777152
 31
0.0
  0
LINE
  5
A4
330
1F
100
AcDbEntity
  8
0
  6
Continuous
 62
     7
370
    25
100
AcDbLine
 10
90.2763249879
 20
48.6498777152
 30
0.0
 11
90.2763249879
 21
69.1498777152
 31
0.0
  0
LINE
  5
A5
330
1F
100
AcDbEntity
  8
0
  6
Continuous
 62
     7
370
    25
100
AcDbLine
 10
77.2763249879
 20
50.5798777152
 30
0.0
 11
77.2763249879
 21
67.2198777152
 31
0.0
  0
SPLINE
  5
A6
330
1F
100
AcDbEntity
  8
0
  6
Continuous
 62
     7
370
    25
100
AcDbSpline
210
0.0
220
0.0
230
1.0
 70
     8
 71
     3
 72
    14
 73
    10
 74
     0
 42
0.00000001
 43
0.00000001
 40
0.0
 40
0.0
 40
0.0
 40
0.0
 40
0.1323192461026042
 40
0.2646010791759309
 40
0.3998422155585155
 40
0.5350589473542888
 40
0.6502584780962496
 40
0.7654759785074491
 40
1.0
 40
1.0
 40
1.0
 40
1.0
 10
125.7922414584756
 20
50.23962367732443
 30
0.0
 10
125.9961880373541
 20
49.86546137338387
 30
0.0
 10
126.404023529582
 20
49.11724255922245
 30
0.0
 10
126.8428907348249
 20
47.96504262579437
 30
0.0
 10
127.1065498495275
 20
46.79115812956984
 30
0.0
 10
127.1594561992195
 20
45.65968104026496
 30
0.0
 10
127.0217543448077
 20
44.58975380914726
 30
0.0
 10
126.6606135706843
 20
43.23766305839946
 30
0.0
 10
126.1408057751788
 20
42.24500814206715
 30
0.0
 10
125.7922414584756
 20
41.57936963947989
 30
0.0
  0
SPLINE
  5
A7
330
1F
100
AcDbEntity
  8
0
  6
Continuous
 62
     7
370
    25
100
AcDbSpline
210
0.0
220
0.0
230
1.0
 70
     8
 71
     3
 72
    15
 73
    11
 74
     0
 42
0.00000001
 43
0.00000001
 40
0.0
 40
0.0
 40
0.0
 40
0.0
 40
0.125011900099171
 40
0.2499942438169896
 40
0.3773976475797592
 40
0.5047781656294712
 40
0.6272655808081492
 40
0.7497732261384027
 40
0.8748717775913385
 40
1.0
 40
1.0
 40
1.0
 40
1.0
 10
125.7922414584756
 20
67.56013175301324
 30
0.0
 10
125.9855371643484
 20
66.85324940606625
 30
0.0
 10
126.372082875472
 20
65.43965183933537
 30
0.0
 10
126.7987702883004
 20
63.26716186475095
 30
0.0
 10
127.0732219010815
 20
61.05642243482974
 30
0.0
 10
127.1635799104757
 20
58.84436075443942
 30
0.0
 10
127.0641018596275
 20
56.66169645037795
 30
0.0
 10
126.7937553339418
 20
54.50779824963098
 30
0.0
 10
126.3726089620872
 20
52.36207901701991
 30
0.0
 10
125.985712585255
 20
50.94716471563965
 30
0.0
 10
125.7922414584756
 20
50.23962367732443
 30
0.0
  0
SPLINE
  5
A8
330
1F
100
AcDbEntity
  8
0
  6
Continuous
 62
     7
370
    25
100
AcDbSpline
210
0.0
220
0.0
230
1.0
 70
     8
 71
     3
 72
    14
 73
    10
 74
     0
 42
0.00000001
 43
0.00000001
 40
0.0
 40
0.0
 40
0.0
 40
0.0
 40
0.132319246102606
 40
0.2646010791759343
 40
0.3998422155585206
 40
0.5350589473542957
 40
0.6502584780962547
 40
0.7654759785074527
 40
1.0
 40
1.0
 40
1.0
 40
1.0
 10
125.7922414584756
 20
76.22038579085746
 30
0.0
 10
125.9961880373541
 20
75.84622348691691
 30
0.0
 10
126.404023529582
 20
75.09800467275551
 30
0.0
 10
126.8428907348249
 20
73.94580473932746
 30
0.0
 10
127.1065498495274
 20
72.77192024310295
 30
0.0
 10
127.1594561992194
 20
71.64044315379812
 30
0.0
 10
127.0217543448077
 20
70.57051592268046
 30
0.0
 10
126.6606135706842
 20
69.21842517193272
 30
0.0
 10
126.1408057751788
 20
68.22577025560048
 30
0.0
 10
125.7922414584756
 20
67.56013175301324
 30
0.0
  0
LINE
  5
A9
330
1F
100
AcDbEntity
  8
0
  6
Continuous
 62
     7
370
    25
100
AcDbLine
 10
127.2763249879
 20
73.6498777152
 30
0.0
 11
127.2763249879
 21
44.1498777152
 31
0.0
  0
SPLINE
  5
AA
330
1F
100
AcDbEntity
  8
0
  6
Continuous
 62
     7
370
    25
100
AcDbSpline
210
0.0
220
0.0
230
1.0
 70
     8
 71
     3
 72
    14
 73
    10
 74
     0
 42
0.00000001
 43
0.00000001
 40
0.0
 40
0.0
 40
0.0
 40
0.0
 40
0.1323192461026061
 40
0.2646010791759343
 40
0.3998422155585206
 40
0.5350589473542957
 40
0.6502584780962547
 40
0.7654759785074527
 40
1.0
 40
1.0
 40
1.0
 40
1.0
 10
115.2604085173817
 20
76.22038579085746
 30
0.0
 10
115.0564619385032
 20
75.84622348691691
 30
0.0
 10
114.6486264462753
 20
75.09800467275551
 30
0.0
 10
114.2097592410324
 20
73.94580473932747
 30
0.0
 10
113.9461001263299
 20
72.77192024310295
 30
0.0
 10
113.8931937766378
 20
71.64044315379812
 30
0.0
 10
114.0308956310496
 20
70.57051592268046
 30
0.0
 10
114.392036405173
 20
69.21842517193272
 30
0.0
 10
114.9118442006785
 20
68.22577025560048
 30
0.0
 10
115.2604085173816
 20
67.56013175301324
 30
0.0
  0
SPLINE
  5
AB
330
1F
100
AcDbEntity
  8
0
  6
Continuous
 62
     7
370
    25
100
AcDbSpline
210
0.0
220
0.0
230
1.0
 70
     8
 71
     3
 72
    15
 73
    11
 74
     0
 42
0.00000001
 43
0.00000001
 40
0.0
 40
0.0
 40
0.0
 40
0.0
 40
0.125011900099171
 40
0.2499942438169895
 40
0.3773976475797591
 40
0.5047781656294711
 40
0.6272655808081492
 40
0.7497732261384027
 40
0.8748717775913385
 40
1.0
 40
1.0
 40
1.0
 40
1.0
 10
115.2604085173816
 20
67.56013175301324
 30
0.0
 10
115.0671128115089
 20
66.85324940606625
 30
0.0
 10
114.6805671003853
 20
65.43965183933535
 30
0.0
 10
114.2538796875569
 20
63.26716186475097
 30
0.0
 10
113.9794280747758
 20
61.05642243482974
 30
0.0
 10
113.8890700653816
 20
58.84436075443942
 30
0.0
 10
113.9885481162297
 20
56.66169645037795
 30
0.0
 10
114.2588946419155
 20
54.50779824963098
 30
0.0
 10
114.6800410137701
 20
52.36207901701991
 30
0.0
 10
115.0669373906023
 20
50.94716471563965
 30
0.0
 10
115.2604085173816
 20
50.23962367732443
 30
0.0
  0
SPLINE
  5
AC
330
1F
100
AcDbEntity
  8
0
  6
Continuous
 62
     7
370
    25
100
AcDbSpline
210
0.0
220
0.0
230
1.0
 70
     8
 71
     3
 72
    14
 73
    10
 74
     0
 42
0.00000001
 43
0.00000001
 40
0.0
 40
0.0
 40
0.0
 40
0.0
 40
0.1323192461026041
 40
0.2646010791759309
 40
0.3998422155585155
 40
0.5350589473542888
 40
0.6502584780962496
 40
0.7654759785074491
 40
1.0
 40
1.0
 40
1.0
 40
1.0
 10
115.2604085173816
 20
50.23962367732443
 30
0.0
 10
115.0564619385032
 20
49.86546137338387
 30
0.0
 10
114.6486264462753
 20
49.11724255922245
 30
0.0
 10
114.2097592410324
 20
47.96504262579437
 30
0.0
 10
113.9461001263298
 20
46.79115812956984
 30
0.0
 10
113.8931937766378
 20
45.65968104026496
 30
0.0
 10
114.0308956310496
 20
44.58975380914726
 30
0.0
 10
114.392036405173
 20
43.23766305839946
 30
0.0
 10
114.9118442006785
 20
42.24500814206715
 30
0.0
 10
115.2604085173816
 20
41.57936963947989
 30
0.0
  0
LINE
  5
AD
330
1F
100
AcDbEntity
  8
0
  6
Continuous
 62
     7
370
    25
100
AcDbLine
 10
113.7763249879
 20
73.6498777152
 30
0.0
 11
113.7763249879
 21
44.1498777152
 31
0.0
  0
LINE
  5
AE
330
1F
100
AcDbEntity
  8
0
  6
Continuous
 62
     7
370
    25
100
AcDbLine
 10
115.2604085174
 20
41.5793696395
 30
0.0
 11
125.7922414585
 21
41.5793696395
 31
0.0
  0
LINE
  5
AF
330
1F
100
AcDbEntity
  8
0
  6
Continuous
 62
     7
370
    25
100
AcDbLine
 10
115.2604085174
 20
50.2396236773
 30
0.0
 11
125.7922414585
 21
50.2396236773
 31
0.0
  0
LINE
  5
B0
330
1F
100
AcDbEntity
  8
0
  6
Continuous
 62
     7
370
    25
100
AcDbLine
 10
115.2604085174
 20
67.560131753
 30
0.0
 11
125.7922414585
 21
67.560131753
 31
0.0
  0
LINE
  5
B1
330
1F
100
AcDbEntity
  8
0
  6
Continuous
 62
     7
370
    25
100
AcDbLine
 10
115.2604085174
 20
76.2203857909
 30
0.0
 11
125.7922414585
 21
76.2203857909
 31
0.0
  0
LINE
  5
B2
330
1F
100
AcDbEntity
  8
0
  6
Continuous
 62
     7
370
    25
100
AcDbLine
 10
128.7763249879
 20
44.1498777152
 30
0.0
 11
128.7763249879
 21
73.6498777152
 31
0.0
  0
LINE
  5
B3
330
1F
100
AcDbEntity
  8
0
  6
Continuous
 62
     7
370
    25
100
AcDbLine
 10
112.2763249879
 20
58.8998777152
 30
0.0
 11
112.2763249879
 21
44.1498777152
 31
0.0
  0
LINE
  5
B4
330
1F
100
AcDbEntity
  8
0
  6
Continuous
 62
     7
370
    25
100
AcDbLine
 10
112.2763249879
 20
73.6498777152
 30
0.0
 11
112.2763249879
 21
58.8998777152
 31
0.0
  0
LINE
  5
B5
330
1F
100
AcDbEntity
  8
0
  6
Continuous
 62
     7
370
    25
100
AcDbLine
 10
111.7763249879
 20
58.8998777152
 30
0.0
 11
111.7763249879
 21
73.1498777152
 31
0.0
  0
LINE
  5
B6
330
1F
100
AcDbEntity
  8
0
  6
Continuous
 62
     7
370
    25
100
AcDbLine
 10
111.7763249879
 20
44.6498777152
 30
0.0
 11
111.7763249879
 21
58.8998777152
 31
0.0
  0
LINE
  5
B7
330
1F
100
AcDbEntity
  8
0
  6
Continuous
 62
     7
370
    25
100
AcDbLine
 10
129.2763249879
 20
73.1498777152
 30
0.0
 11
129.2763249879
 21
44.6498777152
 31
0.0
  0
LINE
  5
B8
330
1F
100
AcDbEntity
  8
0
  6
Continuous
 62
     7
370
    25
100
AcDbLine
 10
135.4021580128
 20
64.7019811892
 30
0.0
 11
135.4021580128
 21
72.3998777152
 31
0.0
  0
LINE
  5
B9
330
1F
100
AcDbEntity
  8
0
  6
Continuous
 62
     7
370
    25
100
AcDbLine
 10
135.4021580128
 20
45.3998777152
 30
0.0
 11
135.4021580128
 21
64.7019811892
 31
0.0
  0
LINE
  5
BA
330
1F
100
AcDbEntity
  8
0
  6
Continuous
 62
     7
370
    25
100
AcDbLine
 10
131.9021580128
 20
64.581856158
 30
0.0
 11
131.9021580128
 21
72.1203777152
 31
0.0
  0
LINE
  5
BB
330
1F
100
AcDbEntity
  8
0
  6
Continuous
 62
     7
370
    25
100
AcDbLine
 10
131.9021580128
 20
45.6793777152
 30
0.0
 11
131.9021580128
 21
64.581856158
 31
0.0
  0
LINE
  5
BC
330
1F
100
AcDbEntity
  8
0
  6
Continuous
 62
     7
370
    25
100
AcDbLine
 10
132.9021580128
 20
64.1520707155
 30
0.0
 11
132.9021580128
 21
46.6793777152
 31
0.0
  0
LINE
  5
BD
330
1F
100
AcDbEntity
  8
0
  6
Continuous
 62
     7
370
    25
100
AcDbLine
 10
132.9021580128
 20
71.1203777152
 30
0.0
 11
132.9021580128
 21
64.1520707155
 31
0.0
  0
SPLINE
  5
BE
330
1F
100
AcDbEntity
  8
0
  6
Continuous
 62
     7
370
    25
100
AcDbSpline
210
0.0
220
0.0
230
1.0
 70
     8
 71
     3
 72
    12
 73
     8
 74
     0
 42
0.00000001
 43
0.00000001
 40
0.0
 40
0.0
 40
0.0
 40
0.0
 40
0.25
 40
0.25
 40
0.5
 40
0.5
 40
1.0
 40
1.0
 40
1.0
 40
1.0
 10
162.9587823398744
 20
50.16775311688218
 30
0.0
 10
163.1754373809163
 20
50.87683019434658
 30
0.0
 10
163.3756509047785
 20
51.59428524331555
 30
0.0
 10
163.7306895679953
 20
53.03944425340602
 30
0.0
 10
163.8848731605558
 20
53.76451095773792
 30
0.0
 10
164.2635312192903
 20
55.94865263072844
 30
0.0
 10
164.4021580128484
 20
57.41687752472919
 30
0.0
 10
164.4021580128484
 20
58.89987771516867
 30
0.0
  0
LINE
  5
BF
330
1F
100
AcDbEntity
  8
0
  6
Continuous
 62
     7
370
    25
100
AcDbLine
 10
162.9587823399
 20
50.1677531169
 30
0.0
 11
139.8455336858
 21
50.1677531169
 31
0.0
  0
SPLINE
  5
C0
330
1F
100
AcDbEntity
  8
0
  6
Continuous
 62
     7
370
    25
100
AcDbSpline
210
0.0
220
0.0
230
1.0
 70
     8
 71
     3
 72
    10
 73
     6
 74
     0
 42
0.00000001
 43
0.00000001
 40
0.0
 40
0.0
 40
0.0
 40
0.0
 40
0.5
 40
0.5
 40
1.0
 40
1.0
 40
1.0
 40
1.0
 10
139.8455336858225
 20
50.16775311688217
 30
0.0
 10
139.4124339600662
 20
51.58521880940901
 30
0.0
 10
139.0456336697266
 20
53.0364529639356
 30
0.0
 10
138.5406110419746
 20
55.94983043291383
 30
0.0
 10
138.4021580128484
 20
57.41792899522311
 30
0.0
 10
138.4021580128484
 20
58.89987771516867
 30
0.0
  0
SPLINE
  5
C1
330
1F
100
AcDbEntity
  8
0
  6
Continuous
 62
     7
370
    25
100
AcDbSpline
210
0.0
220
0.0
230
1.0
 70
     8
 71
     3
 72
    14
 73
    10
 74
     0
 42
0.00000001
 43
0.00000001
 40
0.0
 40
0.0
 40
0.0
 40
0.0
 40
0.125
 40
0.125
 40
0.2500000000000001
 40
0.2500000000000001
 40
0.5
 40
0.5
 40
1.0
 40
1.0
 40
1.0
 40
1.0
 10
138.4021580128484
 20
58.89987771516867
 30
0.0
 10
138.4021580128484
 20
59.27088979398903
 30
0.0
 10
138.4106863696686
 20
59.64275500753012
 30
0.0
 10
138.4448733030566
 20
60.38819905724191
 30
0.0
 10
138.4706208360976
 20
60.76233152124356
 30
0.0
 10
138.5719327787302
 20
61.87606956297547
 30
0.0
 10
138.6716508127474
 20
62.61048731082921
 30
0.0
 10
139.0524787939805
 20
64.7932456941747
 30
0.0
 10
139.4144955731391
 20
66.22128394868759
 30
0.0
 10
139.8455336858225
 20
67.63200231345516
 30
0.0
  0
LINE
  5
C2
330
1F
100
AcDbEntity
  8
0
  6
Continuous
 62
     7
370
    25
100
AcDbLine
 10
162.9587823399
 20
67.6320023135
 30
0.0
 11
139.8455336858
 21
67.6320023135
 31
0.0
  0
SPLINE
  5
C3
330
1F
100
AcDbEntity
  8
0
  6
Continuous
 62
     7
370
    25
100
AcDbSpline
210
0.0
220
0.0
230
1.0
 70
     8
 71
     3
 72
    12
 73
     8
 74
     0
 42
0.00000001
 43
0.00000001
 40
0.0
 40
0.0
 40
0.0
 40
0.0
 40
0.25
 40
0.25
 40
0.5
 40
0.5
 40
1.0
 40
1.0
 40
1.0
 40
1.0
 10
164.4021580128484
 20
58.89987771516866
 30
0.0
 10
164.4021580128484
 20
59.64253441948475
 30
0.0
 10
164.3673486478839
 20
60.39271523105879
 30
0.0
 10
164.2323084677765
 20
61.87654969261659
 30
0.0
 10
164.1326449991432
 20
62.6105825606457
 30
0.0
 10
163.7519500827913
 20
64.79264008544496
 30
0.0
 10
163.3899658598464
 20
66.22080805403571
 30
0.0
 10
162.9587823398744
 20
67.63200231345517
 30
0.0
  0
LINE
  5
C4
330
1F
100
AcDbEntity
  8
0
  6
Continuous
 62
     7
370
    25
100
AcDbLine
 10
162.9587823399
 20
72.8998777152
 30
0.0
 11
162.9587823399
 21
67.6320023135
 31
0.0
  0
SPLINE
  5
C5
330
1F
100
AcDbEntity
  8
0
  6
Continuous
 62
     7
370
    25
100
AcDbSpline
210
0.0
220
0.0
230
1.0
 70
    24
 71
     3
 72
    12
 73
     8
 74
     0
 42
0.00000001
 43
0.00000001
 40
0.0
 40
0.0
 40
0.0
 40
0.0
 40
0.25
 40
0.25
 40
0.5
 40
0.5
 40
1.0
 40
1.0
 40
1.0
 40
1.0
 10
164.4021580128484
 20
72.89987771516867
 30
0.0
 10
164.4021580128484
 20
72.89987771516867
 30
0.0
 10
164.3673486478881
 20
72.89987771516867
 30
0.0
 10
164.2323084677793
 20
72.89987771516867
 30
0.0
 10
164.1326449991442
 20
72.89987771516867
 30
0.0
 10
163.7519500827876
 20
72.89987771516867
 30
0.0
 10
163.3899658598415
 20
72.89987771516867
 30
0.0
 10
162.9587823398744
 20
72.89987771516867
 30
0.0
  0
LINE
  5
C6
330
1F
100
AcDbEntity
  8
0
  6
Continuous
 62
     7
370
    25
100
AcDbLine
 10
164.4021580128
 20
72.8998777152
 30
0.0
 11
164.4021580128
 21
58.8998777152
 31
0.0
  0
LINE
  5
C7
330
1F
100
AcDbEntity
  8
0
  6
Continuous
 62
     7
370
    25
100
AcDbLine
 10
139.8455336858
 20
67.6320023135
 30
0.0
 11
139.8455336858
 21
72.8998777152
 31
0.0
  0
LINE
  5
C8
330
1F
100
AcDbEntity
  8
0
  6
Continuous
 62
     7
370
    25
100
AcDbLine
 10
150.8431410185
 20
72.8998777152
 30
0.0
 11
139.8455336858
 21
72.8998777152
 31
0.0
  0
LINE
  5
C9
330
1F
100
AcDbEntity
  8
0
  6
Continuous
 62
     7
370
    25
100
AcDbLine
 10
151.9611750072
 20
72.8998777152
 30
0.0
 11
150.8431410185
 21
72.8998777152
 31
0.0
  0
LINE
  5
CA
330
1F
100
AcDbEntity
  8
0
  6
Continuous
 62
     7
370
    25
100
AcDbLine
 10
162.9587823399
 20
72.8998777152
 30
0.0
 11
151.9611750072
 21
72.8998777152
 31
0.0
  0
LINE
  5
CB
330
1F
100
AcDbEntity
  8
0
  6
Continuous
 62
     7
370
    25
100
AcDbLine
 10
138.4021580128
 20
58.8998777152
 30
0.0
 11
138.4021580128
 21
72.8998777152
 31
0.0
  0
SPLINE
  5
CC
330
1F
100
AcDbEntity
  8
0
  6
Continuous
 62
     7
370
    25
100
AcDbSpline
210
0.0
220
0.0
230
1.0
 70
    24
 71
     3
 72
    14
 73
    10
 74
     0
 42
0.00000001
 43
0.00000001
 40
0.0
 40
0.0
 40
0.0
 40
0.0
 40
0.125
 40
0.125
 40
0.25
 40
0.25
 40
0.5
 40
0.5
 40
1.0
 40
1.0
 40
1.0
 40
1.0
 10
138.4021580128484
 20
72.89987771516867
 30
0.0
 10
138.4021580128484
 20
72.89987771516867
 30
0.0
 10
138.4106863696686
 20
72.89987771516867
 30
0.0
 10
138.4448733030563
 20
72.89987771516867
 30
0.0
 10
138.4706208360973
 20
72.89987771516867
 30
0.0
 10
138.5719327787299
 20
72.89987771516867
 30
0.0
 10
138.6716508127472
 20
72.89987771516867
 30
0.0
 10
139.0524787939807
 20
72.89987771516867
 30
0.0
 10
139.4144955731394
 20
72.89987771516867
 30
0.0
 10
139.8455336858225
 20
72.89987771516867
 30
0.0
  0
LINE
  5
CD
330
1F
100
AcDbEntity
  8
0
  6
Continuous
 62
     7
370
    25
100
AcDbLine
 10
164.4021580128
 20
58.8998777152
 30
0.0
 11
164.4021580128
 21
44.8998777152
 31
0.0
  0
SPLINE
  5
CE
330
1F
100
AcDbEntity
  8
0
  6
Continuous
 62
     7
370
    25
100
AcDbSpline
210
0.0
220
0.0
230
1.0
 70
    24
 71
     3
 72
    12
 73
     8
 74
     0
 42
0.00000001
 43
0.00000001
 40
0.0
 40
0.0
 40
0.0
 40
0.0
 40
0.25
 40
0.25
 40
0.5
 40
0.5
 40
1.0
 40
1.0
 40
1.0
 40
1.0
 10
164.4021580128484
 20
44.89987771516867
 30
0.0
 10
164.4021580128484
 20
44.89987771516867
 30
0.0
 10
164.3673486478839
 20
44.89987771516867
 30
0.0
 10
164.2323084677765
 20
44.89987771516868
 30
0.0
 10
164.1326449991432
 20
44.89987771516867
 30
0.0
 10
163.7519500827913
 20
44.89987771516867
 30
0.0
 10
163.3899658598465
 20
44.89987771516867
 30
0.0
 10
162.9587823398744
 20
44.89987771516867
 30
0.0
  0
LINE
  5
CF
330
1F
100
AcDbEntity
  8
0
  6
Continuous
 62
     7
370
    25
100
AcDbLine
 10
162.9587823399
 20
50.1677531169
 30
0.0
 11
162.9587823399
 21
44.8998777152
 31
0.0
  0
LINE
  5
D0
330
1F
100
AcDbEntity
  8
0
  6
Continuous
 62
     7
370
    25
100
AcDbLine
 10
162.9587823399
 20
44.8998777152
 30
0.0
 11
139.8455336858
 21
44.8998777152
 31
0.0
  0
LINE
  5
D1
330
1F
100
AcDbEntity
  8
0
  6
Continuous
 62
     7
370
    25
100
AcDbLine
 10
139.8455336858
 20
44.8998777152
 30
0.0
 11
139.8455336858
 21
50.1677531169
 31
0.0
  0
SPLINE
  5
D2
330
1F
100
AcDbEntity
  8
0
  6
Continuous
 62
     7
370
    25
100
AcDbSpline
210
0.0
220
0.0
230
1.0
 70
    24
 71
     3
 72
    14
 73
    10
 74
     0
 42
0.00000001
 43
0.00000001
 40
0.0
 40
0.0
 40
0.0
 40
0.0
 40
0.125
 40
0.125
 40
0.25
 40
0.25
 40
0.5
 40
0.5
 40
1.0
 40
1.0
 40
1.0
 40
1.0
 10
138.4021580128484
 20
44.89987771516867
 30
0.0
 10
138.4021580128484
 20
44.89987771516867
 30
0.0
 10
138.4106863696686
 20
44.89987771516867
 30
0.0
 10
138.4448733030566
 20
44.89987771516867
 30
0.0
 10
138.4706208360977
 20
44.89987771516868
 30
0.0
 10
138.5719327787302
 20
44.89987771516868
 30
0.0
 10
138.6716508127474
 20
44.89987771516866
 30
0.0
 10
139.0524787939805
 20
44.89987771516867
 30
0.0
 10
139.4144955731391
 20
44.89987771516867
 30
0.0
 10
139.8455336858225
 20
44.89987771516867
 30
0.0
  0
LINE
  5
D3
330
1F
100
AcDbEntity
  8
0
  6
Continuous
 62
     7
370
    25
100
AcDbLine
 10
138.4021580128
 20
44.8998777152
 30
0.0
 11
138.4021580128
 21
58.8998777152
 31
0.0
  0
LINE
  5
D4
330
1F
100
AcDbEntity
  8
0
  6
Continuous
 62
     7
370
    25
100
AcDbLine
 10
177.7969816739
 20
58.8998777152
 30
0.0
 11
177.7969816739
 21
71.9039769758
 31
0.0
  0
LINE
  5
D5
330
1F
100
AcDbEntity
  8
0
  6
Continuous
 62
     7
370
    25
100
AcDbLine
 10
177.7969816739
 20
45.8957784546
 30
0.0
 11
177.7969816739
 21
58.8998777152
 31
0.0
  0
LINE
  5
D6
330
1F
100
AcDbEntity
  8
0
  6
Continuous
 62
     7
370
    25
100
AcDbLine
 10
180.4021580128
 20
70.3998777152
 30
0.0
 11
180.4021580128
 21
47.3998777152
 31
0.0
  0
ARC
  5
D7
330
1F
100
AcDbEntity
  8
0
  6
Continuous
 62
     7
370
    25
100
AcDbCircle
 10
153.9097485305
 20
73.2753879193
 30
0.0
 40
1.984426035123592
100
AcDbArc
 50
176.4032790661
 51
190.9077708916
  0
SPLINE
  5
D8
330
1F
100
AcDbEntity
  8
0
  6
Continuous
 62
     7
370
    25
100
AcDbSpline
210
0.0
220
0.0
230
1.0
 70
    24
 71
     3
 72
     8
 73
     4
 74
     0
 42
0.00000001
 43
0.00000001
 40
0.0
 40
0.0
 40
0.0
 40
0.0
 40
1.0
 40
1.0
 40
1.0
 40
1.0
 10
150.8750848467236
 20
73.39987771516867
 30
0.0
 10
151.2264669574735
 20
73.39987771516867
 30
0.0
 10
151.5778490682234
 20
73.39987771516867
 30
0.0
 10
151.9292311789733
 20
73.39987771516867
 30
0.0
  0
ARC
  5
D9
330
1F
100
AcDbEntity
  8
0
  6
Continuous
 62
     7
370
    25
100
AcDbCircle
 10
148.8945674952
 20
73.2753879193
 30
0.0
 40
1.984426035127485
100
AcDbArc
 50
349.0922291084
 51
3.5967209339
  0
LINE
  5
DA
330
1F
100
AcDbEntity
  8
0
  6
Continuous
 62
     7
370
    25
100
AcDbLine
 10
151.4021580128
 20
78.3998777152
 30
0.0
 11
143.1521580128
 21
78.3998777152
 31
0.0
  0
LINE
  5
DB
330
1F
100
AcDbEntity
  8
0
  6
Continuous
 62
     7
370
    25
100
AcDbLine
 10
159.6521580128
 20
78.3998777152
 30
0.0
 11
151.4021580128
 21
78.3998777152
 31
0.0
  0
LINE
  5
DC
330
1F
100
AcDbEntity
  8
0
  6
Continuous
 62
     7
370
    25
100
AcDbLine
 10
151.4021580128
 20
78.8998777152
 30
0.0
 11
159.1521580128
 21
78.8998777152
 31
0.0
  0
LINE
  5
DD
330
1F
100
AcDbEntity
  8
0
  6
Continuous
 62
     7
370
    25
100
AcDbLine
 10
143.6521580128
 20
78.8998777152
 30
0.0
 11
151.4021580128
 21
78.8998777152
 31
0.0
  0
ARC
  5
DE
330
1F
100
AcDbEntity
  8
0
  6
Continuous
 62
     7
370
    25
100
AcDbCircle
 10
150.3352063436
 20
95.1009537659
 30
0.0
 40
2.367678303609152
100
AcDbArc
 50
93.3632881502
 51
99.4868245016
  0
ARC
  5
DF
330
1F
100
AcDbEntity
  8
0
  6
Continuous
 62
     7
370
    25
100
AcDbCircle
 10
152.4691133686
 20
95.1009950166
 30
0.0
 40
2.367636907667656
100
AcDbArc
 50
80.5187694298
 51
86.6367422679
  0
SPLINE
  5
E0
330
1F
100
AcDbEntity
  8
0
  6
Continuous
 62
     7
370
    25
100
AcDbSpline
210
0.0
220
0.0
230
1.0
 70
     8
 71
     3
 72
    15
 73
    11
 74
     0
 42
0.00000001
 43
0.00000001
 40
0.0
 40
0.0
 40
0.0
 40
0.0
 40
0.1233867499278388
 40
0.2487396502211602
 40
0.3739317114754986
 40
0.499997361762566
 40
0.6259591330513601
 40
0.7512551380600303
 40
0.8765613478174266
 40
1.0
 40
1.0
 40
1.0
 40
1.0
 10
151.3392751480424
 20
97.49977061247316
 30
0.0
 10
151.3421533492342
 20
97.4997712715453
 30
0.0
 10
151.3479556153458
 20
97.49977260019182
 30
0.0
 10
151.3634850200666
 20
97.49977654981893
 30
0.0
 10
151.38183960194
 20
97.49977833216835
 30
0.0
 10
151.402152418423
 20
97.49977988574628
 30
0.0
 10
151.422470836138
 20
97.49977833161135
 30
0.0
 10
151.4408237053022
 20
97.49977655473079
 30
0.0
 10
151.4563618096977
 20
97.49977258721263
 30
0.0
 10
151.462162371729
 20
97.49977126741668
 30
0.0
 10
151.4650408776545
 20
97.49977061247317
 30
0.0
  0
ARC
  5
E1
330
1F
100
AcDbEntity
  8
0
  6
Continuous
 62
     7
370
    25
100
AcDbCircle
 10
151.3401695757
 20
94.9554211996
 30
0.0
 40
2.544349570044086
100
AcDbArc
 50
90.0201414662
 51
95.4127462175
  0
SPLINE
  5
E2
330
1F
100
AcDbEntity
  8
0
  6
Continuous
 62
     7
370
    25
100
AcDbSpline
210
0.0
220
0.0
230
1.0
 70
     8
 71
     3
 72
    15
 73
    11
 74
     0
 42
0.00000001
 43
0.00000001
 40
0.0
 40
0.0
 40
0.0
 40
0.0
 40
0.126158522421064
 40
0.2513121451548799
 40
0.3762846848783793
 40
0.499306278334087
 40
0.6261594278645742
 40
0.7521171342021308
 40
0.875819692269278
 40
1.0
 40
1.0
 40
1.0
 40
1.0
 10
151.1630444871707
 20
97.48652748106242
 30
0.0
 10
151.157813390682
 20
97.48647655531195
 30
0.0
 10
151.1473928653393
 20
97.4863751094536
 30
0.0
 10
151.1326063148249
 20
97.48637092781635
 30
0.0
 10
151.1194159621994
 20
97.48647026663697
 30
0.0
 10
151.1085453873582
 20
97.48669080884004
 30
0.0
 10
151.1005378000296
 20
97.4870146762415
 30
0.0
 10
151.0963711729969
 20
97.48743454608899
 30
0.0
 10
151.0957501214853
 20
97.48791326315471
 30
0.0
 10
151.0986892338401
 20
97.48825455240029
 30
0.0
 10
151.1001616223228
 20
97.4884255259099
 30
0.0
  0
ARC
  5
E3
330
1F
100
AcDbEntity
  8
0
  6
Continuous
 62
     7
370
    25
100
AcDbCircle
 10
151.4021580128
 20
76.8998777152
 30
0.0
 40
20.58803836847346
100
AcDbArc
 50
89.3345405821
 51
90.66545941
  0
SPLINE
  5
E4
330
1F
100
AcDbEntity
  8
0
  6
Continuous
 62
     7
370
    25
100
AcDbSpline
210
0.0
220
0.0
230
1.0
 70
     8
 71
     3
 72
    15
 73
    11
 74
     0
 42
0.00000001
 43
0.00000001
 40
0.0
 40
0.0
 40
0.0
 40
0.0
 40
0.1241186784437694
 40
0.2478474916628983
 40
0.3736574149478942
 40
0.5005082335853297
 40
0.6234527658309919
 40
0.7484986612277521
 40
0.8736976492452766
 40
1.0
 40
1.0
 40
1.0
 40
1.0
 10
151.7041544061
 20
97.4884255258766
 30
0.0
 10
151.7056254787088
 20
97.48825464559812
 30
0.0
 10
151.7085630031872
 20
97.48791342178772
 30
0.0
 10
151.7079462686871
 20
97.48743488550025
 30
0.0
 10
151.7037843070925
 20
97.48701509562834
 30
0.0
 10
151.6957855592941
 20
97.48669130778194
 30
0.0
 10
151.6849194677573
 20
97.48647060957624
 30
0.0
 10
151.6717317499327
 20
97.48637101766606
 30
0.0
 10
151.6569373033574
 20
97.48637493206468
 30
0.0
 10
151.6465087124501
 20
97.48647648287009
 30
0.0
 10
151.6412715413357
 20
97.4865274810298
 30
0.0
  0
ARC
  5
E5
330
1F
100
AcDbEntity
  8
0
  6
Continuous
 62
     7
370
    25
100
AcDbCircle
 10
151.4641464499
 20
94.9554211474
 30
0.0
 40
2.544349622307576
100
AcDbArc
 50
84.5872538302
 51
89.9798585321
  0
SPLINE
  5
E6
330
1F
100
AcDbEntity
  8
0
  6
Continuous
 62
     7
370
    25
100
AcDbSpline
210
0.0
220
0.0
230
1.0
 70
     8
 71
     3
 72
    12
 73
     8
 74
     0
 42
0.00000001
 43
0.00000001
 40
0.0
 40
0.0
 40
0.0
 40
0.0
 40
0.1374975366677113
 40
0.2750385788614215
 40
0.5575409445665217
 40
0.7769626822980096
 40
1.0
 40
1.0
 40
1.0
 40
1.0
 10
131.8779572454924
 20
88.67625031719493
 30
0.0
 10
132.3632656337494
 20
88.58993216282487
 30
0.0
 10
133.334035966445
 20
88.4172685422012
 30
0.0
 10
135.2367314221328
 20
87.88461009000474
 30
0.0
 10
137.3199534105381
 20
87.03669082513449
 30
0.0
 10
139.5417299870692
 20
85.77280214939674
 30
0.0
 10
140.7786461600454
 20
84.78546402572464
 30
0.0
 10
141.4021580128484
 20
84.28776091836481
 30
0.0
  0
ELLIPSE
  5
E7
330
1F
100
AcDbEntity
  8
0
  6
Continuous
 62
     7
370
    25
100
AcDbEllipse
 10
253.9160534853
 20
82.0217004335
 30
0.0
 11
171.0000000000011
 21
0.0
 31
0.0
210
0.0
220
0.0
230
1.0
 40
0.0555555556
 41
2.292395939553285
 42
2.365524293035122
  0
LINE
  5
E8
330
1F
100
AcDbEntity
  8
0
  6
Continuous
 62
     7
370
    25
100
AcDbLine
 10
140.9557746579
 20
89.1538255058
 30
0.0
 11
141.4021580128
 21
89.11636354
 31
0.0
  0
LINE
  5
E9
330
1F
100
AcDbEntity
  8
0
  6
Continuous
 62
     7
370
    25
100
AcDbLine
 10
141.4021580128
 20
84.2877609184
 30
0.0
 11
141.4021580128
 21
89.11636354
 31
0.0
  0
SPLINE
  5
EA
330
1F
100
AcDbEntity
  8
0
  6
Continuous
 62
     7
370
    25
100
AcDbSpline
210
0.0
220
0.0
230
1.0
 70
     8
 71
     3
 72
    11
 73
     7
 74
     0
 42
0.00000001
 43
0.00000001
 40
0.0
 40
0.0
 40
0.0
 40
0.0
 40
0.2795638428677817
 40
0.5590315779132448
 40
0.7794196683689383
 40
0.9999999999999999
 40
0.9999999999999999
 40
0.9999999999999999
 40
0.9999999999999999
 10
128.9658300587709
 20
88.89987771516867
 30
0.0
 10
128.8422567129948
 20
88.93839656711675
 30
0.0
 10
128.5951525032063
 20
89.0154210290896
 30
0.0
 10
128.341396595283
 20
89.54821892687929
 30
0.0
 10
128.2247781543026
 20
90.17595549374568
 30
0.0
 10
128.2512975403378
 20
90.57693830991433
 30
0.0
 10
128.2645630139484
 20
90.77751712267892
 30
0.0
  0
SPLINE
  5
EB
330
1F
100
AcDbEntity
  8
0
  6
Continuous
 62
     7
370
    25
100
AcDbSpline
210
0.0
220
0.0
230
1.0
 70
     8
 71
     3
 72
     9
 73
     5
 74
     0
 42
0.00000001
 43
0.00000001
 40
0.0
 40
0.0
 40
0.0
 40
0.0
 40
0.4986740982738613
 40
1.0
 40
1.0
 40
1.0
 40
1.0
 10
129.5561235550173
 20
90.80731814810936
 30
0.0
 10
129.3496499139475
 20
90.80878322736602
 30
0.0
 10
128.9356046651879
 20
90.8117211767436
 30
0.0
 10
128.488638563243
 20
90.7889378978119
 30
0.0
 10
128.2645628791444
 20
90.7775160499572
 30
0.0
  0
SPLINE
  5
EC
330
1F
100
AcDbEntity
  8
0
  6
Continuous
 62
     7
370
    25
100
AcDbSpline
210
0.0
220
0.0
230
1.0
 70
     8
 71
     3
 72
    13
 73
     9
 74
     0
 42
0.00000001
 43
0.00000001
 40
0.0
 40
0.0
 40
0.0
 40
0.0
 40
0.3327087167328941
 40
0.56286565595313
 40
0.6987124125384702
 40
0.8016200683166479
 40
0.9052998751809785
 40
1.0
 40
1.0
 40
1.0
 40
1.0
 10
131.5469242952879
 20
88.72442475401954
 30
0.0
 10
131.1845334649608
 20
88.8102103289377
 30
0.0
 10
130.5714525862074
 20
88.9553395409757
 30
0.0
 10
129.9219072615449
 20
89.40570623740298
 30
0.0
 10
129.5792102459469
 20
89.80544738600886
 30
0.0
 10
129.4302866348031
 20
90.16133963242042
 30
0.0
 10
129.4181139153764
 20
90.50877347945463
 30
0.0
 10
129.5115305091966
 20
90.71085235063373
 30
0.0
 10
129.5561245516477
 20
90.80731822881789
 30
0.0
  0
SPLINE
  5
ED
330
1F
100
AcDbEntity
  8
0
  6
Continuous
 62
     7
370
    25
100
AcDbSpline
210
0.0
220
0.0
230
1.0
 70
     8
 71
     3
 72
     9
 73
     5
 74
     0
 42
0.00000001
 43
0.00000001
 40
0.0
 40
0.0
 40
0.0
 40
0.0
 40
0.5551829690770672
 40
1.0
 40
1.0
 40
1.0
 40
1.0
 10
128.9658300587709
 20
88.89987771516867
 30
0.0
 10
129.4958529324921
 20
88.88687869467762
 30
0.0
 10
130.4505343676995
 20
88.86346475510258
 30
0.0
 10
131.2093778088569
 20
88.76723111575087
 30
0.0
 10
131.5469242952879
 20
88.72442475401954
 30
0.0
  0
LINE
  5
EE
330
1F
100
AcDbEntity
  8
0
  6
Continuous
 62
     7
370
    25
100
AcDbLine
 10
141.4021580128
 20
94.3998777152
 30
0.0
 11
140.9557746579
 21
94.3998777152
 31
0.0
  0
ARC
  5
EF
330
1F
100
AcDbEntity
  8
0
  6
Continuous
 62
     7
370
    25
100
AcDbCircle
 10
147.7785870715
 20
94.773723869
 30
0.0
 40
6.833046917551689
100
AcDbArc
 50
170.513808076
 51
183.1363032674
  0
ARC
  5
F0
330
1F
100
AcDbEntity
  8
0
  6
Continuous
 62
     7
370
    25
100
AcDbCircle
 10
141.0345901465
 20
95.1096277667
 30
0.0
 40
0.7902621394874667
100
AcDbArc
 50
62.2819181136
 51
89.6817467964
  0
LINE
  5
F1
330
1F
100
AcDbEntity
  8
0
  6
Continuous
 62
     7
370
    25
100
AcDbLine
 10
141.4021580128
 20
94.3998777152
 30
0.0
 11
141.4021580128
 21
95.8092048624
 31
0.0
  0
LINE
  5
F2
330
1F
100
AcDbEntity
  8
0
  6
Continuous
 62
     7
370
    25
100
AcDbLine
 10
140.9557746579
 20
94.3998777152
 30
0.0
 11
140.9557746579
 21
89.1538255058
 31
0.0
  0
LINE
  5
F3
330
1F
100
AcDbEntity
  8
0
  6
Continuous
 62
     7
370
    25
100
AcDbLine
 10
141.4021580128
 20
89.11636354
 30
0.0
 11
141.4021580128
 21
94.3998777152
 31
0.0
  0
LINE
  5
F4
330
1F
100
AcDbEntity
  8
0
  6
Continuous
 62
     7
370
    25
100
AcDbLine
 10
129.5559504813
 20
90.8074186345
 30
0.0
 11
131.6219042162
 21
94.3999887211
 31
0.0
  0
LINE
  5
F5
330
1F
100
AcDbEntity
  8
0
  6
Continuous
 62
     7
370
    25
100
AcDbLine
 10
131.6220966464
 20
94.3998777152
 30
0.0
 11
140.9557746579
 21
94.3998777152
 31
0.0
  0
ARC
  5
F6
330
1F
100
AcDbEntity
  8
0
  6
Continuous
 62
     7
370
    25
100
AcDbCircle
 10
128.9658300588
 20
69.8268704679
 30
0.0
 40
19.07300724724769
100
AcDbArc
 50
81.2175477188
 51
82.2224666688
  0
LINE
  5
F7
330
1F
100
AcDbEntity
  8
0
  6
Continuous
 62
     7
370
    25
100
AcDbLine
 10
141.0389796874
 20
95.8998777152
 30
0.0
 11
129.6232504039
 21
95.8998777152
 31
0.0
  0
SPLINE
  5
F8
330
1F
100
AcDbEntity
  8
0
  6
Continuous
 62
     7
370
    25
100
AcDbSpline
210
0.0
220
0.0
230
1.0
 70
     8
 71
     3
 72
    15
 73
    11
 74
     0
 42
0.00000001
 43
0.00000001
 40
0.0
 40
0.0
 40
0.0
 40
0.0
 40
0.2070474010410778
 40
0.4175968630246834
 40
0.5931232720441629
 40
0.6923428991082526
 40
0.7730996831079094
 40
0.854328412098595
 40
0.926147516637204
 40
1.0
 40
1.0
 40
1.0
 40
1.0
 10
129.6206841171629
 20
95.89986298906267
 30
0.0
 10
129.8517733541278
 20
95.89601275022135
 30
0.0
 10
130.3178605397194
 20
95.88824714846085
 30
0.0
 10
130.9424583390264
 20
95.80159718572338
 30
0.0
 10
131.4041375294572
 20
95.6316466761808
 30
0.0
 10
131.6660412284409
 20
95.40228181883224
 30
0.0
 10
131.7865078845721
 20
95.16448835355291
 30
0.0
 10
131.8053019227679
 20
94.90257537627966
 30
0.0
 10
131.7442635307678
 20
94.63703297426429
 30
0.0
 10
131.663068437153
 20
94.47973535125055
 30
0.0
 10
131.6219042033672
 20
94.39998870844954
 30
0.0
  0
SPLINE
  5
F9
330
1F
100
AcDbEntity
  8
0
  6
Continuous
 62
     7
370
    25
100
AcDbSpline
210
0.0
220
0.0
230
1.0
 70
     8
 71
     3
 72
    11
 73
     7
 74
     0
 42
0.00000001
 43
0.00000001
 40
0.0
 40
0.0
 40
0.0
 40
0.0
 40
0.249115000282908
 40
0.4989585322854288
 40
0.749332827497652
 40
1.0
 40
1.0
 40
1.0
 40
1.0
 10
128.2645630139484
 20
90.7775171226789
 30
0.0
 10
127.838851732635
 20
90.75126401471007
 30
0.0
 10
126.9861841860791
 20
90.69868102209549
 30
0.0
 10
125.6226184248273
 20
90.61435999186898
 30
0.0
 10
124.221945807615
 20
90.52762672305725
 30
0.0
 10
123.2711255721279
 20
90.46864915762967
 30
0.0
 10
122.7954375595673
 20
90.4391431376305
 30
0.0
  0
SPLINE
  5
FA
330
1F
100
AcDbEntity
  8
0
  6
Continuous
 62
     7
370
    25
100
AcDbSpline
210
0.0
220
0.0
230
1.0
 70
     8
 71
     3
 72
     9
 73
     5
 74
     0
 42
0.00000001
 43
0.00000001
 40
0.0
 40
0.0
 40
0.0
 40
0.0
 40
0.5599987526606142
 40
1.0
 40
1.0
 40
1.0
 40
1.0
 10
125.3593389272246
 20
95.41296618932249
 30
0.0
 10
124.8795726693375
 20
94.48512488947317
 30
0.0
 10
124.0228453005572
 20
92.8282617349732
 30
0.0
 10
123.1704795520846
 20
91.16915303506272
 30
0.0
 10
122.7954375595673
 20
90.4391431376305
 30
0.0
  0
SPLINE
  5
FB
330
1F
100
AcDbEntity
  8
0
  6
Continuous
 62
     7
370
    25
100
AcDbSpline
210
0.0
220
0.0
230
1.0
 70
     8
 71
     3
 72
     9
 73
     5
 74
     0
 42
0.00000001
 43
0.00000001
 40
0.0
 40
0.0
 40
0.0
 40
0.0
 40
0.5600000882143287
 40
1.0
 40
1.0
 40
1.0
 40
1.0
 10
125.8638260647768
 20
96.38678924101463
 30
0.0
 10
125.7696136492451
 20
96.20503037018284
 30
0.0
 10
125.60137721944
 20
95.8804610091112
 30
0.0
 10
125.4332950617715
 20
95.55581180881437
 30
0.0
 10
125.3593389272246
 20
95.41296618932249
 30
0.0
  0
SPLINE
  5
FC
330
1F
100
AcDbEntity
  8
0
  6
Continuous
 62
     7
370
    25
100
AcDbSpline
210
0.0
220
0.0
230
1.0
 70
     8
 71
     3
 72
    10
 73
     6
 74
     0
 42
0.00000001
 43
0.00000001
 40
0.0
 40
0.0
 40
0.0
 40
0.0
 40
0.4283493666310629
 40
0.7616603141144171
 40
1.0
 40
1.0
 40
1.0
 40
1.0
 10
125.863826064777
 20
96.38678924101482
 30
0.0
 10
126.31075326606
 20
96.28499297819167
 30
0.0
 10
127.1054473616596
 20
96.10398611893714
 30
0.0
 10
128.1420021626652
 20
95.930323735984
 30
0.0
 10
128.7278674956655
 20
95.90883645808825
 30
0.0
 10
128.9721337507656
 20
95.89987771516859
 30
0.0
  0
LINE
  5
FD
330
1F
100
AcDbEntity
  8
0
  6
Continuous
 62
     7
370
    25
100
AcDbLine
 10
128.9700335907
 20
95.8998777152
 30
0.0
 11
129.6206870568
 21
95.8998777152
 31
0.0
  0
LINE
  5
FE
330
1F
100
AcDbEntity
  8
0
  6
Continuous
 62
     7
370
    25
100
AcDbLine
 10
141.4021580128
 20
95.8998777152
 30
0.0
 11
141.0389796874
 21
95.8998777152
 31
0.0
  0
LINE
  5
FF
330
1F
100
AcDbEntity
  8
0
  6
Continuous
 62
     7
370
    25
100
AcDbLine
 10
141.4021580128
 20
95.8092048624
 30
0.0
 11
141.4021580128
 21
95.8998777152
 31
0.0
  0
SPLINE
  5
100
330
1F
100
AcDbEntity
  8
0
  6
Continuous
 62
     7
370
    25
100
AcDbSpline
210
0.0
220
0.0
230
1.0
 70
    24
 71
     3
 72
    11
 73
     7
 74
     0
 42
0.00000001
 43
0.00000001
 40
0.0
 40
0.0
 40
0.0
 40
0.0
 40
0.2799857774483057
 40
0.5599458358671288
 40
0.779998565900937
 40
0.9999999999999999
 40
0.9999999999999999
 40
0.9999999999999999
 40
0.9999999999999999
 10
122.8346895267495
 20
88.89987771516867
 30
0.0
 10
123.4320135138335
 20
88.89987771516867
 30
0.0
 10
124.6266066188099
 20
88.89987771516867
 30
0.0
 10
126.2539683742926
 20
88.89987771516867
 30
0.0
 10
127.7096979437907
 20
88.89987771516867
 30
0.0
 10
128.5471518936985
 20
88.89987771516867
 30
0.0
 10
128.9658300587709
 20
88.89987771516867
 30
0.0
  0
SPLINE
  5
101
330
1F
100
AcDbEntity
  8
0
  6
Continuous
 62
     7
370
    25
100
AcDbSpline
210
0.0
220
0.0
230
1.0
 70
     8
 71
     3
 72
    11
 73
     7
 74
     0
 42
0.00000001
 43
0.00000001
 40
0.0
 40
0.0
 40
0.0
 40
0.0
 40
0.2500000000000004
 40
0.5000000000000003
 40
0.7499999999999998
 40
1.0
 40
1.0
 40
1.0
 40
1.0
 10
122.8346895267495
 20
88.89987771516867
 30
0.0
 10
122.8294584929894
 20
88.92319924747697
 30
0.0
 10
122.8189964254691
 20
88.96984231209359
 30
0.0
 10
122.8058819376018
 20
89.32782338046027
 30
0.0
 10
122.7968575941079
 20
89.83801631850224
 30
0.0
 10
122.7959109044142
 20
90.2387675312544
 30
0.0
 10
122.7954375595673
 20
90.4391431376305
 30
0.0
  0
SPLINE
  5
102
330
1F
100
AcDbEntity
  8
0
  6
Continuous
 62
     7
370
    25
100
AcDbSpline
210
0.0
220
0.0
230
1.0
 70
     8
 71
     3
 72
    11
 73
     7
 74
     0
 42
0.00000001
 43
0.00000001
 40
0.0
 40
0.0
 40
0.0
 40
0.0
 40
0.2500000000000002
 40
0.5000000000000003
 40
0.7499999999999994
 40
1.0
 40
1.0
 40
1.0
 40
1.0
 10
138.3890874790673
 20
95.89987771516866
 30
0.0
 10
138.3907739495712
 20
95.9071400248208
 30
0.0
 10
138.3941468905791
 20
95.92166464412509
 30
0.0
 10
138.3984267874804
 20
96.0336368477176
 30
0.0
 10
138.4014689082942
 20
96.19414842574255
 30
0.0
 10
138.4019372815168
 20
96.322575635924
 30
0.0
 10
138.402171468128
 20
96.38678924101472
 30
0.0
  0
SPLINE
  5
103
330
1F
100
AcDbEntity
  8
0
  6
Continuous
 62
     7
370
    25
100
AcDbSpline
210
0.0
220
0.0
230
1.0
 70
     8
 71
     3
 72
    13
 73
     9
 74
     0
 42
0.00000001
 43
0.00000001
 40
0.0
 40
0.0
 40
0.0
 40
0.0
 40
0.2886949682914851
 40
0.5545536835943151
 40
0.6780091910936105
 40
0.7888922083801199
 40
0.8964194071406489
 40
1.0
 40
1.0
 40
1.0
 40
1.0
 10
138.402171468128
 20
96.38678924101472
 30
0.0
 10
138.6738966587042
 20
96.34815908713674
 30
0.0
 10
139.1958531245587
 20
96.2739544889145
 30
0.0
 10
139.793428532662
 20
96.19089176938586
 30
0.0
 10
140.1572827128415
 20
96.14191083877726
 30
0.0
 10
140.3538302044071
 20
96.11589387900577
 30
0.0
 10
140.4801134935133
 20
96.10053506866154
 30
0.0
 10
140.4949019954844
 20
96.10009408497407
 30
0.0
 10
140.5021580128484
 20
96.09987771516869
 30
0.0
  0
SPLINE
  5
104
330
1F
100
AcDbEntity
  8
0
  6
Continuous
 62
     7
370
    25
100
AcDbSpline
210
0.0
220
0.0
230
1.0
 70
     8
 71
     3
 72
    11
 73
     7
 74
     0
 42
0.00000001
 43
0.00000001
 40
0.0
 40
0.0
 40
0.0
 40
0.0
 40
0.2500000000000022
 40
0.4999999999999972
 40
0.75
 40
1.0
 40
1.0
 40
1.0
 40
1.0
 10
140.5021580128484
 20
96.09987771516867
 30
0.0
 10
140.5274179510526
 20
96.0705000453369
 30
0.0
 10
140.5779378274609
 20
96.01174470567337
 30
0.0
 10
140.6767964366613
 20
95.94915456279436
 30
0.0
 10
140.7861837164847
 20
95.90762176116148
 30
0.0
 10
140.8634999140605
 20
95.90245906383295
 30
0.0
 10
140.9021580128484
 20
95.89987771516869
 30
0.0
  0
LINE
  5
105
330
1F
100
AcDbEntity
  8
0
  6
Continuous
 62
     7
370
    25
100
AcDbLine
 10
138.4021714681
 20
96.386789241
 30
0.0
 11
125.8638260648
 21
96.386789241
 31
0.0
  0
LINE
  5
106
330
1F
100
AcDbEntity
  8
0
  6
Continuous
 62
     7
370
    25
100
AcDbLine
 10
140.5021580128
 20
96.0998777152
 30
0.0
 11
138.1021580128
 21
99.2998777152
 31
0.0
  0
LINE
  5
107
330
1F
100
AcDbEntity
  8
0
  6
Continuous
 62
     7
370
    25
100
AcDbLine
 10
136.2786122147
 20
99.218201579
 30
0.0
 11
138.4021714681
 21
96.386789241
 31
0.0
  0
ELLIPSE
  5
108
330
1F
100
AcDbEntity
  8
0
  6
Continuous
 62
     7
370
    25
100
AcDbEllipse
 10
136.3021580128
 20
99.1998777152
 30
0.0
 11
1.560063634884898
 21
0.4198716740992978
 31
0.0
210
0.0
220
0.0
230
1.0
 40
0.0147408623
 41
0.9331929812041986
 42
1.581922327328491
  0
SPLINE
  5
109
330
1F
100
AcDbEntity
  8
0
  6
Continuous
 62
     7
370
    25
100
AcDbSpline
210
0.0
220
0.0
230
1.0
 70
     8
 71
     3
 72
    11
 73
     7
 74
     0
 42
0.00000001
 43
0.00000001
 40
0.0
 40
0.0
 40
0.0
 40
0.0
 40
0.2307374805226519
 40
0.4903955403005866
 40
0.7438105520730666
 40
0.9999999999999999
 40
0.9999999999999999
 40
0.9999999999999999
 40
0.9999999999999999
 10
137.2258460164835
 20
99.468293710322
 30
0.0
 10
137.3174780212429
 20
99.48700956072645
 30
0.0
 10
137.5122271637796
 20
99.52678710163782
 30
0.0
 10
137.7597347310176
 20
99.50946711307918
 30
0.0
 10
137.9695434604116
 20
99.43848222075306
 30
0.0
 10
138.057793009892
 20
99.34624660294935
 30
0.0
 10
138.1021580128484
 20
99.29987771516868
 30
0.0
  0
LINE
  5
10A
330
1F
100
AcDbEntity
  8
0
  6
Continuous
 62
     7
370
    25
100
AcDbLine
 10
122.7954375596
 20
90.4391431376
 30
0.0
 11
101.1678893908
 21
90.4391431376
 31
0.0
  0
LINE
  5
10B
330
1F
100
AcDbEntity
  8
0
  6
Continuous
 62
     7
370
    25
100
AcDbLine
 10
101.1678893908
 20
90.4391431376
 30
0.0
 11
101.390334302
 21
98.9339715741
 31
0.0
  0
ARC
  5
10C
330
1F
100
AcDbEntity
  8
0
  6
Continuous
 62
     7
370
    25
100
AcDbCircle
 10
102.0018744169
 20
98.418201579
 30
0.0
 40
0.7999999999999972
100
AcDbArc
 50
90.0
 51
139.8558773282
  0
LINE
  5
10D
330
1F
100
AcDbEntity
  8
0
  6
Continuous
 62
     7
370
    25
100
AcDbLine
 10
102.0018744169
 20
99.218201579
 30
0.0
 11
136.2786122147
 21
99.218201579
 31
0.0
  0
SPLINE
  5
10E
330
1F
100
AcDbEntity
  8
0
  6
Continuous
 62
     7
370
    25
100
AcDbSpline
210
0.0
220
0.0
230
1.0
 70
     8
 71
     3
 72
    11
 73
     7
 74
     0
 42
0.00000001
 43
0.00000001
 40
0.0
 40
0.0
 40
0.0
 40
0.0
 40
0.2500000000000036
 40
0.5000000000000021
 40
0.7500000000000009
 40
1.0
 40
1.0
 40
1.0
 40
1.0
 10
102.0018744169133
 20
99.21820157898419
 30
0.0
 10
102.0022022781691
 20
99.3081006261112
 30
0.0
 10
102.0028580006807
 20
99.48789872036522
 30
0.0
 10
102.00711696982
 20
99.71261492960018
 30
0.0
 10
102.0131088254818
 20
99.86937601462968
 30
0.0
 10
102.0178309428928
 20
99.88971048165567
 30
0.0
 10
102.0201920015983
 20
99.89987771516867
 30
0.0
  0
LINE
  5
10F
330
1F
100
AcDbEntity
  8
0
  6
Continuous
 62
     7
370
    25
100
AcDbLine
 10
136.2969297993
 20
99.8998777152
 30
0.0
 11
102.0201920016
 21
99.8998777152
 31
0.0
  0
SPLINE
  5
110
330
1F
100
AcDbEntity
  8
0
  6
Continuous
 62
     7
370
    25
100
AcDbSpline
210
0.0
220
0.0
230
1.0
 70
     8
 71
     3
 72
    11
 73
     7
 74
     0
 42
0.00000001
 43
0.00000001
 40
0.0
 40
0.0
 40
0.0
 40
0.0
 40
0.2499999999999998
 40
0.4999999999999991
 40
0.7500000000000027
 40
1.0
 40
1.0
 40
1.0
 40
1.0
 10
136.296929799336
 20
99.89987771516867
 30
0.0
 10
136.2945687406305
 20
99.88971048165568
 30
0.0
 10
136.2898466232195
 20
99.86937601462965
 30
0.0
 10
136.2838547675576
 20
99.71261492960019
 30
0.0
 10
136.2795957984184
 20
99.48789872036522
 30
0.0
 10
136.2789400759067
 20
99.30810062611118
 30
0.0
 10
136.2786122146509
 20
99.21820157898419
 30
0.0
  0
LINE
  5
111
330
1F
100
AcDbEntity
  8
0
  6
Continuous
 62
     7
370
    25
100
AcDbLine
 10
136.9021580128
 20
99.8998777152
 30
0.0
 11
136.2969297993
 21
99.8998777152
 31
0.0
  0
SPLINE
  5
112
330
1F
100
AcDbEntity
  8
0
  6
Continuous
 62
     7
370
    25
100
AcDbSpline
210
0.0
220
0.0
230
1.0
 70
     8
 71
     3
 72
    10
 73
     6
 74
     0
 42
0.00000001
 43
0.00000001
 40
0.0
 40
0.0
 40
0.0
 40
0.0
 40
0.2808335173386727
 40
0.5616510917414161
 40
1.0
 40
1.0
 40
1.0
 40
1.0
 10
136.9021580128484
 20
99.89987771516867
 30
0.0
 10
136.9405084618109
 20
99.89230310690075
 30
0.0
 10
137.0172071825784
 20
99.87715432037588
 30
0.0
 10
137.1423615326204
 20
99.74352338731623
 30
0.0
 10
137.1942305989737
 20
99.57252267295797
 30
0.0
 10
137.2258460164834
 20
99.46829371032199
 30
0.0
  0
LINE
  5
113
330
1F
100
AcDbEntity
  8
0
  6
Continuous
 62
     7
370
    25
100
AcDbLine
 10
101.1678893908
 20
90.4391431376
 30
0.0
 11
101.1248969633
 21
90.3762560528
 31
0.0
  0
ELLIPSE
  5
114
330
1F
100
AcDbEntity
  8
0
  6
Continuous
 62
     7
370
    25
100
AcDbEllipse
 10
96.9021580128
 20
90.3998777152
 30
0.0
 11
0.5000325503425529
 21
1.499994860147283
 31
0.0
210
0.0
220
0.0
230
1.0
 40
0.0078530307
 41
2.363888000155741
 42
3.144210503884628
  0
SPLINE
  5
115
330
1F
100
AcDbEntity
  8
0
  6
Continuous
 62
     7
370
    25
100
AcDbSpline
210
0.0
220
0.0
230
1.0
 70
     8
 71
     3
 72
    12
 73
     8
 74
     0
 42
0.00000001
 43
0.00000001
 40
0.0
 40
0.0
 40
0.0
 40
0.0
 40
0.0715202026166141
 40
0.1260836237049449
 40
0.3855387013103052
 40
0.8475626424815554
 40
1.0
 40
1.0
 40
1.0
 40
1.0
 10
96.87672939984785
 20
89.72818566481787
 30
0.0
 10
96.86227526506896
 20
89.72507701695305
 30
0.0
 10
96.83679393778293
 20
89.71959675300971
 30
0.0
 10
96.77032221013668
 20
89.68000820758934
 30
0.0
 10
96.66561782300376
 20
89.573574074607
 30
0.0
 10
96.57878926415735
 20
89.4430670588988
 30
0.0
 10
96.54579269744751
 20
89.35555734493546
 30
0.0
 10
96.53760681259656
 20
89.3338476789529
 30
0.0
  0
ELLIPSE
  5
116
330
1F
100
AcDbEntity
  8
0
  6
Continuous
 62
     7
370
    25
100
AcDbEllipse
 10
64.9780211722
 20
90.3998777152
 30
0.0
 11
36.17607470647089
 21
0.04043410480178977
 31
0.0
210
0.0
220
0.0
230
1.0
 40
0.0414488012
 41
5.791928562280354
 42
6.243021298617577
  0
ELLIPSE
  5
117
330
1F
100
AcDbEntity
  8
0
  6
Continuous
 62
     7
370
    25
100
AcDbEllipse
 10
101.207141358
 20
90.3998777152
 30
0.0
 11
0.03725061189165047
 21
1.499998630535871
 31
0.0
210
0.0
220
0.0
230
1.0
 40
0.0544129722
 41
1.58535227799106
 42
1.587896030767889
  0
LINE
  5
118
330
1F
100
AcDbEntity
  8
0
  6
Continuous
 62
     7
370
    25
100
AcDbLine
 10
96.4021580128
 20
88.8998777152
 30
0.0
 11
122.8346895267
 21
88.8998777152
 31
0.0
  0
SPLINE
  5
119
330
1F
100
AcDbEntity
  8
0
  6
Continuous
 62
     7
370
    25
100
AcDbSpline
210
0.0
220
0.0
230
1.0
 70
     8
 71
     3
 72
    11
 73
     7
 74
     0
 42
0.00000001
 43
0.00000001
 40
0.0
 40
0.0
 40
0.0
 40
0.0
 40
0.2561894651307309
 40
0.509604493920693
 40
0.7692742066553655
 40
1.0
 40
1.0
 40
1.0
 40
1.0
 10
138.1021580128484
 20
99.29987771516866
 30
0.0
 10
138.0265618805546
 20
99.3878880801571
 30
0.0
 10
137.8761882938799
 20
99.56295569071172
 30
0.0
 10
137.5769755079246
 20
99.75314326041328
 30
0.0
 10
137.2494557730379
 20
99.87714206113898
 30
0.0
 10
137.013277392224
 20
99.89260334701814
 30
0.0
 10
136.9021580128484
 20
99.89987771516867
 30
0.0
  0
ARC
  5
11A
330
1F
100
AcDbEntity
  8
0
  6
Continuous
 62
     7
370
    25
100
AcDbCircle
 10
105.6008962347
 20
90.4048817631
 30
0.0
 40
8.750371681948302
100
AcDbArc
 50
182.878079786
 51
184.4353064954
  0
ELLIPSE
  5
11B
330
1F
100
AcDbEntity
  8
0
  6
Continuous
 62
     7
370
    25
100
AcDbEllipse
 10
64.9511508134
 20
90.4133128946
 30
0.0
 11
36.18915847374971
 21
0.02692057091445577
 31
0.0
210
0.0
220
0.0
230
1.0
 40
0.0276225703
 41
5.791964074121232
 42
6.25483629951347
  0
SPLINE
  5
11C
330
1F
100
AcDbEntity
  8
0
  6
Continuous
 62
     7
370
    25
100
AcDbSpline
210
0.0
220
0.0
230
1.0
 70
     8
 71
     3
 72
     9
 73
     5
 74
     0
 42
0.00000001
 43
0.00000001
 40
0.0
 40
0.0
 40
0.0
 40
0.0
 40
0.8673350121726813
 40
1.0
 40
1.0
 40
1.0
 40
1.0
 10
101.125789336524
 20
90.41188771103124
 30
0.0
 10
101.1255519508941
 20
90.40268928765605
 30
0.0
 10
101.1252782554632
 20
90.39208390075699
 30
0.0
 10
101.1250223689546
 20
90.38147827615558
 30
0.0
 10
101.1249884217741
 20
90.38007128109693
 30
0.0
  0
LINE
  5
11D
330
1F
100
AcDbEntity
  8
0
  6
Continuous
 62
     7
370
    25
100
AcDbLine
 10
101.3750890779
 20
98.8926879498
 30
0.0
 11
101.348218719
 21
98.9061231292
 31
0.0
  0
LINE
  5
11E
330
1F
100
AcDbEntity
  8
0
  6
Continuous
 62
     7
370
    25
100
AcDbLine
 10
101.3750890779
 20
98.8926879498
 30
0.0
 11
101.1531610717
 21
90.4175993191
 31
0.0
  0
LINE
  5
11F
330
1F
100
AcDbEntity
  8
0
  6
Continuous
 62
     7
370
    25
100
AcDbLine
 10
101.348218719
 20
98.9061231292
 30
0.0
 11
101.1257893365
 21
90.411887711
 31
0.0
  0
ARC
  5
120
330
1F
100
AcDbEntity
  8
0
  6
Continuous
 62
     7
370
    25
100
AcDbCircle
 10
101.9825734992
 20
98.4186869664
 30
0.0
 40
0.8000000000000081
100
AcDbArc
 50
142.4614409777
 51
153.4349488229
  0
LINE
  5
121
330
1F
100
AcDbEntity
  8
0
  6
Continuous
 62
     7
370
    25
100
AcDbLine
 10
96.8615619222
 20
89.9655181944
 30
0.0
 11
101.2670317464
 21
98.7764578428
 31
0.0
  0
SPLINE
  5
122
330
1F
100
AcDbEntity
  8
0
  6
Continuous
 62
     7
370
    25
100
AcDbSpline
210
0.0
220
0.0
230
1.0
 70
    24
 71
     3
 72
    11
 73
     7
 74
     0
 42
0.00000001
 43
0.00000001
 40
0.0
 40
0.0
 40
0.0
 40
0.0
 40
0.2500000000000017
 40
0.4999999999999978
 40
0.7499999999999992
 40
1.0
 40
1.0
 40
1.0
 40
1.0
 10
101.2670317463715
 20
98.77645784278211
 30
0.0
 10
101.1887966380392
 20
98.81557539694826
 30
0.0
 10
101.0323264213747
 20
98.89381050528051
 30
0.0
 10
100.8390002699582
 20
98.9904735809887
 30
0.0
 10
100.7046238376792
 20
99.05766179712825
 30
0.0
 10
100.687242089292
 20
99.06635267132182
 30
0.0
 10
100.6785512150984
 20
99.07069810841863
 30
0.0
  0
SPLINE
  5
123
330
1F
100
AcDbEntity
  8
0
  6
Continuous
 62
     7
370
    25
100
AcDbSpline
210
0.0
220
0.0
230
1.0
 70
     8
 71
     3
 72
    12
 73
     8
 74
     0
 42
0.00000001
 43
0.00000001
 40
0.0
 40
0.0
 40
0.0
 40
0.0
 40
0.1396834586182492
 40
0.383189627403831
 40
0.5513169293013304
 40
0.8194729461607057
 40
1.0
 40
1.0
 40
1.0
 40
1.0
 10
96.09960107194321
 20
89.91279782210815
 30
0.0
 10
96.10984245268949
 20
89.92611019576908
 30
0.0
 10
96.13793733887782
 20
89.96262964877705
 30
0.0
 10
96.2450877002326
 20
90.00030170936843
 30
0.0
 10
96.42542478764557
 20
90.02466903012993
 30
0.0
 10
96.63388093221457
 20
90.02355199536598
 30
0.0
 10
96.7962378329185
 20
89.9821687069884
 30
0.0
 10
96.86156192216689
 20
89.965518194373
 30
0.0
  0
LINE
  5
124
330
1F
100
AcDbEntity
  8
0
  6
Continuous
 62
     7
370
    25
100
AcDbLine
 10
100.6785512151
 20
99.0706981084
 30
0.0
 11
96.0996010719
 21
89.9127978221
 31
0.0
  0
LWPOLYLINE
  5
125
330
1F
100
AcDbEntity
  8
0
  6
Continuous
 62
     7
370
    25
100
AcDbPolyline
 90
        9
 70
   128
 43
0.0
 10
96.0996010719
 20
89.9127978221
 10
96.0767505821
 20
89.8364673445
 10
96.0796557081
 20
89.7520673452
 10
96.1081572732
 20
89.6642222447
 10
96.1606936276
 20
89.5777452264
 10
96.2343862148
 20
89.497374514
 10
96.3251972917
 20
89.4275137567
 10
96.4281511639
 20
89.3719907447
 10
96.5376068126
 20
89.333847679
  0
LINE
  5
126
330
1F
100
AcDbEntity
  8
0
  6
Continuous
 62
     7
370
    25
100
AcDbLine
 10
101.255766858
 20
99.0445902091
 30
0.0
 11
100.8735542861
 21
99.366946456
 31
0.0
  0
SPLINE
  5
127
330
1F
100
AcDbEntity
  8
0
  6
Continuous
 62
     7
370
    25
100
AcDbSpline
210
0.0
220
0.0
230
1.0
 70
     8
 71
     3
 72
    12
 73
     8
 74
     0
 42
0.00000001
 43
0.00000001
 40
0.0
 40
0.0
 40
0.0
 40
0.0
 40
0.2198609600791262
 40
0.4397396970008124
 40
0.6583291451397751
 40
0.8791239516843591
 40
1.0
 40
1.0
 40
1.0
 40
1.0
 10
101.3903343020074
 20
98.93397157409916
 30
0.0
 10
101.3304192392785
 20
98.98445979022705
 30
0.0
 10
101.2105842693925
 20
99.08544030470401
 30
0.0
 10
101.053849281118
 20
99.21710329765405
 30
0.0
 10
100.9372809573319
 20
99.31466462042711
 30
0.0
 10
100.8810242655376
 20
99.36132401190385
 30
0.0
 10
100.8755063943213
 20
99.36547715890518
 30
0.0
 10
100.8735542861498
 20
99.36694645600926
 30
0.0
  0
SPLINE
  5
128
330
1F
100
AcDbEntity
  8
0
  6
Continuous
 62
     7
370
    25
100
AcDbSpline
210
0.0
220
0.0
230
1.0
 70
     8
 71
     3
 72
    12
 73
     8
 74
     0
 42
0.00000001
 43
0.00000001
 40
0.0
 40
0.0
 40
0.0
 40
0.0
 40
0.0006864400887968
 40
0.2840613788695336
 40
0.5703177902090736
 40
0.8469872112110479
 40
1.0
 40
1.0
 40
1.0
 40
1.0
 10
101.3530625373149
 20
98.96329526159936
 30
0.0
 10
101.3530218195588
 20
98.96332955623542
 30
0.0
 10
101.336172072397
 20
98.97752129964482
 30
0.0
 10
101.306943136287
 20
99.00205357949363
 30
0.0
 10
101.2736970905874
 20
99.02988316424009
 30
0.0
 10
101.2580148674777
 20
99.04288402721298
 30
0.0
 10
101.2564346396717
 20
99.04407684009902
 30
0.0
 10
101.2558719096865
 20
99.04450160896783
 30
0.0
  0
SPLINE
  5
129
330
1F
100
AcDbEntity
  8
0
  6
Continuous
 62
     7
370
    25
100
AcDbSpline
210
0.0
220
0.0
230
1.0
 70
     8
 71
     3
 72
    12
 73
     8
 74
     0
 42
0.00000001
 43
0.00000001
 40
0.0
 40
0.0
 40
0.0
 40
0.0
 40
0.2225634137435277
 40
0.4462063173695683
 40
0.6680851268158055
 40
0.8917990985569333
 40
1.0
 40
1.0
 40
1.0
 40
1.0
 10
100.8307767887299
 20
99.31382052048927
 30
0.0
 10
100.8363633548325
 20
99.30839344787555
 30
0.0
 10
100.847563583322
 20
99.29751297994811
 30
0.0
 10
100.9416143610091
 20
99.22221954892781
 30
0.0
 10
101.0811054244071
 20
99.11274100417448
 30
0.0
 10
101.2263295242434
 20
99.000026363628
 30
0.0
 10
101.3182526929735
 20
98.92920890618379
 30
0.0
 10
101.3482187189749
 20
98.9061231292198
 30
0.0
  0
LINE
  5
12A
330
1F
100
AcDbEntity
  8
0
  6
Continuous
 62
     7
370
    25
100
AcDbLine
 10
101.2272485264
 20
99.0091729187
 30
0.0
 11
100.8307767887
 21
99.3138205205
 31
0.0
  0
ARC
  5
12B
330
1F
100
AcDbEntity
  8
0
  6
Continuous
 62
     7
370
    25
100
AcDbCircle
 10
102.0201920016
 20
98.3998777152
 30
0.0
 40
1.499999999999992
100
AcDbArc
 50
90.0
 51
139.8558773282
  0
ARC
  5
12C
330
1F
100
AcDbEntity
  8
0
  6
Continuous
 62
     7
370
    25
100
AcDbCircle
 10
102.0201920016
 20
98.3998777152
 30
0.0
 40
1.500000000000013
100
AcDbArc
 50
142.4614409777
 51
153.4349488229
  0
LINE
  5
12D
330
1F
100
AcDbEntity
  8
0
  6
Continuous
 62
     7
370
    25
100
AcDbLine
 10
95.9549444173
 20
89.6234845129
 30
0.0
 11
96.0996010719
 21
89.9127978221
 31
0.0
  0
ARC
  5
12E
330
1F
100
AcDbEntity
  8
0
  6
Continuous
 62
     7
370
    25
100
AcDbCircle
 10
96.4021580128
 20
89.3998777152
 30
0.0
 40
0.5000000000000023
100
AcDbArc
 50
153.4349488229
 51
270.0
  0
SPLINE
  5
12F
330
1F
100
AcDbEntity
  8
0
  6
Continuous
 62
     7
370
    25
100
AcDbSpline
210
0.0
220
0.0
230
1.0
 70
     8
 71
     3
 72
     9
 73
     5
 74
     0
 42
0.00000001
 43
0.00000001
 40
0.0
 40
0.0
 40
0.0
 40
0.0
 40
0.5600029565045499
 40
1.0
 40
1.0
 40
1.0
 40
1.0
 10
100.8735542861498
 20
99.36694645600926
 30
0.0
 10
100.8654065267967
 20
99.35715999384931
 30
0.0
 10
100.8508570333369
 20
99.33968426082632
 30
0.0
 10
100.8369123903964
 20
99.32172329316053
 30
0.0
 10
100.8307767887299
 20
99.31382052048927
 30
0.0
  0
LINE
  5
130
330
1F
100
AcDbEntity
  8
0
  6
Continuous
 62
     7
370
    25
100
AcDbLine
 10
142.9960971578
 20
89.2879533009
 30
0.0
 11
142.998237273
 21
89.5114917545
 31
0.0
  0
SPLINE
  5
131
330
1F
100
AcDbEntity
  8
0
  6
Continuous
 62
     7
370
    25
100
AcDbSpline
210
0.0
220
0.0
230
1.0
 70
     8
 71
     3
 72
    10
 73
     6
 74
     0
 42
0.00000001
 43
0.00000001
 40
0.0
 40
0.0
 40
0.0
 40
0.0
 40
0.3536466237081644
 40
0.7182931081305525
 40
1.0
 40
1.0
 40
1.0
 40
1.0
 10
143.1473851216376
 20
87.34168465445444
 30
0.0
 10
143.1098780873284
 20
86.89814700433587
 30
0.0
 10
143.0336973960828
 20
85.9972758637153
 30
0.0
 10
143.072133798696
 20
84.61926656890404
 30
0.0
 10
143.1351159180289
 20
83.70123253759917
 30
0.0
 10
143.1625660679492
 20
83.30111624970576
 30
0.0
  0
LINE
  5
132
330
1F
100
AcDbEntity
  8
0
  6
Continuous
 62
     7
370
    25
100
AcDbLine
 10
142.9960971578
 20
89.2879533009
 30
0.0
 11
143.1473851216
 21
87.3416846545
 31
0.0
  0
LINE
  5
133
330
1F
100
AcDbEntity
  8
0
  6
Continuous
 62
     7
370
    25
100
AcDbLine
 10
143.2221580128
 20
81.1998777152
 30
0.0
 11
143.2835128057
 21
81.1998777152
 31
0.0
  0
LWPOLYLINE
  5
134
330
1F
100
AcDbEntity
  8
0
  6
Continuous
 62
     7
370
    25
100
AcDbPolyline
 90
        3
 70
   128
 43
0.0
 10
143.4195253482
 20
79.8501258557
 10
143.378226576
 20
80.2599270002
 10
143.2835128057
 20
81.1998777152
  0
SPLINE
  5
135
330
1F
100
AcDbEntity
  8
0
  6
Continuous
 62
     7
370
    25
100
AcDbSpline
210
0.0
220
0.0
230
1.0
 70
     8
 71
     3
 72
    11
 73
     7
 74
     0
 42
0.00000001
 43
0.00000001
 40
0.0
 40
0.0
 40
0.0
 40
0.0
 40
0.292057402818309
 40
0.5665622171831318
 40
0.8065682389915614
 40
1.0
 40
1.0
 40
1.0
 40
1.0
 10
143.285952405795
 20
95.3998777151687
 30
0.0
 10
143.3176129421105
 20
95.38304591912001
 30
0.0
 10
143.3790312231712
 20
95.35039391442332
 30
0.0
 10
143.4589435824358
 20
95.09500202738235
 30
0.0
 10
143.4980423961633
 20
94.7592791108077
 30
0.0
 10
143.4826260332336
 20
94.51077741598661
 30
0.0
 10
143.4757461202495
 20
94.39987771515658
 30
0.0
  0
LINE
  5
136
330
1F
100
AcDbEntity
  8
0
  6
Continuous
 62
     7
370
    25
100
AcDbLine
 10
143.4757461202
 20
94.3998777152
 30
0.0
 11
142.998237273
 21
89.5114917545
 31
0.0
  0
LINE
  5
137
330
1F
100
AcDbEntity
  8
0
  6
Continuous
 62
     7
370
    25
100
AcDbLine
 10
143.8435491221
 20
97.3998777152
 30
0.0
 11
158.9607669036
 21
97.3998777152
 31
0.0
  0
LINE
  5
138
330
1F
100
AcDbEntity
  8
0
  6
Continuous
 62
     7
370
    25
100
AcDbLine
 10
158.9496642318
 20
79.3998777152
 30
0.0
 11
143.9211921578
 21
79.3998777152
 31
0.0
  0
SPLINE
  5
139
330
1F
100
AcDbEntity
  8
0
  6
Continuous
 62
     7
370
    25
100
AcDbSpline
210
0.0
220
0.0
230
1.0
 70
     8
 71
     3
 72
    12
 73
     8
 74
     0
 42
0.00000001
 43
0.00000001
 40
0.0
 40
0.0
 40
0.0
 40
0.0
 40
0.2316347876629354
 40
0.4633066480819575
 40
0.6939442291381532
 40
0.9227406525226397
 40
1.0
 40
1.0
 40
1.0
 40
1.0
 10
143.9211921577601
 20
79.39987771516869
 30
0.0
 10
143.8641388401113
 20
79.40546718019894
 30
0.0
 10
143.7500230735268
 20
79.41664700484391
 30
0.0
 10
143.5981697430487
 20
79.5039700707996
 30
0.0
 10
143.4840023601649
 20
79.63228024458164
 30
0.0
 10
143.4322480277976
 20
79.75695967127945
 30
0.0
 10
143.4220896768105
 20
79.83134768003275
 30
0.0
 10
143.4195253482031
 20
79.85012585565818
 30
0.0
  0
LINE
  5
13A
330
1F
100
AcDbEntity
  8
0
  6
Continuous
 62
     7
370
    25
100
AcDbLine
 10
141.4021580128
 20
84.9205865028
 30
0.0
 11
143.1625660679
 21
83.3011162497
 31
0.0
  0
SPLINE
  5
13B
330
1F
100
AcDbEntity
  8
0
  6
Continuous
 62
     7
370
    25
100
AcDbSpline
210
0.0
220
0.0
230
1.0
 70
     8
 71
     3
 72
     9
 73
     5
 74
     0
 42
0.00000001
 43
0.00000001
 40
0.0
 40
0.0
 40
0.0
 40
0.0
 40
0.7210175706402078
 40
0.9999999999999999
 40
0.9999999999999999
 40
0.9999999999999999
 40
0.9999999999999999
 10
141.7460864685459
 20
89.09767785140357
 30
0.0
 10
141.6771532495496
 20
89.16092866431285
 30
0.0
 10
141.5815477861002
 20
89.24865303537518
 30
0.0
 10
141.4412880224523
 20
89.29346222171914
 30
0.0
 10
141.4021580128484
 20
89.30596319738301
 30
0.0
  0
ARC
  5
13C
330
1F
100
AcDbEntity
  8
0
  6
Continuous
 62
     7
370
    25
100
AcDbCircle
 10
134.679931674
 20
82.0217004335
 30
0.0
 40
10.00000000000001
100
AcDbArc
 50
32.1405798582
 51
45.0397956095
  0
LINE
  5
13D
330
1F
100
AcDbEntity
  8
0
  6
Continuous
 62
     7
370
    25
100
AcDbLine
 10
141.7460864685
 20
94.3998777152
 30
0.0
 11
141.7460864685
 21
89.0976778514
 31
0.0
  0
LINE
  5
13E
330
1F
100
AcDbEntity
  8
0
  6
Continuous
 62
     7
370
    25
100
AcDbLine
 10
143.4757461202
 20
94.3998777152
 30
0.0
 11
141.7460864685
 21
94.3998777152
 31
0.0
  0
LINE
  5
13F
330
1F
100
AcDbEntity
  8
0
  6
Continuous
 62
     7
370
    25
100
AcDbLine
 10
141.4021580128
 20
95.3998777152
 30
0.0
 11
143.2859524058
 21
95.3998777152
 31
0.0
  0
ARC
  5
140
330
1F
100
AcDbEntity
  8
0
  6
Continuous
 62
     7
370
    25
100
AcDbCircle
 10
103.7896173384
 20
102.1092229363
 30
0.0
 40
4.021945305502463
100
AcDbArc
 50
230.4243196696
 51
233.1058614851
  0
LINE
  5
141
330
1F
100
AcDbEntity
  8
0
  6
Continuous
 62
     7
370
    25
100
AcDbLine
 10
151.929231179
 20
73.3998777152
 30
0.0
 11
159.6521580128
 21
73.3998777152
 31
0.0
  0
LINE
  5
142
330
1F
100
AcDbEntity
  8
0
  6
Continuous
 62
     7
370
    25
100
AcDbLine
 10
143.1521580128
 20
73.3998777152
 30
0.0
 11
150.8750848467
 21
73.3998777152
 31
0.0
  0
LINE
  5
143
330
1F
100
AcDbEntity
  8
0
  6
Continuous
 62
     7
370
    25
100
AcDbLine
 10
151.339275148
 20
97.4878200506
 30
0.0
 11
151.339275148
 21
97.4997706125
 31
0.0
  0
LINE
  5
144
330
1F
100
AcDbEntity
  8
0
  6
Continuous
 62
     7
370
    25
100
AcDbLine
 10
151.4650408777
 20
97.4878200506
 30
0.0
 11
151.4650408777
 21
97.4997706125
 31
0.0
  0
LINE
  5
145
330
1F
100
AcDbEntity
  8
0
  6
Continuous
 62
     7
370
    25
100
AcDbLine
 10
142.998237273
 20
89.5114917545
 30
0.0
 11
160.3882062579
 21
89.5114917546
 31
0.0
  0
LINE
  5
146
330
1F
100
AcDbEntity
  8
0
  6
Continuous
 62
     7
370
    25
100
AcDbLine
 10
160.3909655714
 20
89.2879533009
 30
0.0
 11
142.9960971578
 21
89.2879533009
 31
0.0
  0
LINE
  5
147
330
1F
100
AcDbEntity
  8
0
  6
Continuous
 62
     7
370
    25
100
AcDbLine
 10
143.4195253482
 20
79.8501258557
 30
0.0
 11
159.4471828269
 21
79.8501258557
 31
0.0
  0
LINE
  5
148
330
1F
100
AcDbEntity
  8
0
  6
Continuous
 62
     7
370
    25
100
AcDbLine
 10
159.4569058419
 20
96.9618950825
 30
0.0
 11
143.3474101838
 21
96.9618950825
 31
0.0
  0
LINE
  5
149
330
1F
100
AcDbEntity
  8
0
  6
Continuous
 62
     7
370
    25
100
AcDbLine
 10
141.4021580128
 20
94.3998777152
 30
0.0
 11
141.7460864685
 21
94.3998777152
 31
0.0
  0
ARC
  5
14A
330
1F
100
AcDbEntity
  8
0
  6
Continuous
 62
     7
370
    25
100
AcDbCircle
 10
140.6402127497
 20
94.4545422982
 30
0.0
 40
1.107223960533115
100
AcDbArc
 50
357.1701084939
 51
46.5155082001
  0
LINE
  5
14B
330
1F
100
AcDbEntity
  8
0
  6
Continuous
 62
     7
370
    25
100
AcDbLine
 10
101.1531610717
 20
90.4175993191
 30
0.0
 11
101.3750885081
 21
98.8926661904
 31
0.0
  0
LINE
  5
14C
330
1F
100
AcDbEntity
  8
0
  6
Continuous
 62
     7
370
    18
100
AcDbLine
 10
164.9021580128
 20
46.3570027152
 30
0.0
 11
179.379452053
 21
46.8094181539
 31
0.0
  0
LINE
  5
14D
330
1F
100
AcDbEntity
  8
0
  6
Continuous
 62
     7
370
    18
100
AcDbLine
 10
179.379452053
 20
70.9903372764
 30
0.0
 11
164.9021580128
 21
71.4427527152
 31
0.0
  0
LINE
  5
14E
330
1F
100
AcDbEntity
  8
0
  6
Continuous
 62
     7
370
    18
100
AcDbLine
 10
132.9021580128
 20
70.9583777152
 30
0.0
 11
129.2763249879
 21
70.9583777152
 31
0.0
  0
LINE
  5
14F
330
1F
100
AcDbEntity
  8
0
  6
Continuous
 62
     7
370
    18
100
AcDbLine
 10
129.2763249879
 20
46.8413777152
 30
0.0
 11
132.9021580128
 21
46.8413777152
 31
0.0
  0
LINE
  5
150
330
1F
100
AcDbEntity
  8
0
  6
Continuous
 62
     7
370
    25
100
AcDbLine
 10
132.9021580128
 20
71.1203777152
 30
0.0
 11
132.9021580128
 21
71.1046927911
 31
0.0
  0
SPLINE
  5
151
330
1F
100
AcDbEntity
  8
0
  6
Continuous
 62
     7
370
     0
100
AcDbSpline
210
0.0
220
0.0
230
1.0
 70
     8
 71
     3
 72
    38
 73
    34
 74
     0
 42
0.00000001
 43
0.00000001
 40
0.0
 40
0.0
 40
0.0
 40
0.0
 40
0.0327867126992903
 40
0.0655734253968751
 40
0.0983601380944597
 40
0.1311468507920444
 40
0.1639335634896291
 40
0.1967202761872139
 40
0.2295069888847986
 40
0.2622937015823834
 40
0.2950804142799679
 40
0.3278671269775527
 40
0.3606538396751371
 40
0.3934405523727219
 40
0.4262272650703066
 40
0.4590139777678913
 40
0.4918006904654761
 40
0.5245874031630606
 40
0.5573741158606453
 40
0.5901608285582299
 40
0.6229475412558148
 40
0.6557342539533995
 40
0.6885209666509842
 40
0.721307679348569
 40
0.7540943920461537
 40
0.7868811047437384
 40
0.8196678174413231
 40
0.8524545301389077
 40
0.8852412428364924
 40
0.9180279555340771
 40
0.9508146682316618
 40
0.9836013809292464
 40
1.0
 40
1.0
 40
1.0
 40
1.0
 10
132.9021453857422
 20
71.10469279105253
 30
0.0
 10
132.9021580128484
 20
70.97945487262037
 30
0.0
 10
132.9021580128484
 20
70.73026414627311
 30
0.0
 10
132.9021580128484
 20
70.35967764607207
 30
0.0
 10
132.9021580128484
 20
69.87149809099292
 30
0.0
 10
132.9021580128484
 20
69.27073486388326
 30
0.0
 10
132.9021580128484
 20
68.56355260841579
 30
0.0
 10
132.9021580128484
 20
67.7572079715021
 30
0.0
 10
132.9021580128484
 20
66.85997514027554
 30
0.0
 10
132.9021580128484
 20
65.88106093773453
 30
0.0
 10
132.9021580128484
 20
64.83051034827969
 30
0.0
 10
132.9021580128484
 20
63.71910344258093
 30
0.0
 10
132.9021580128484
 20
62.55824475946453
 30
0.0
 10
132.9021580128484
 20
61.35984627991208
 30
0.0
 10
132.9021580128484
 20
60.13620519401601
 30
0.0
 10
132.9021580128484
 20
58.89987771516859
 30
0.0
 10
132.9021580128484
 20
57.66355023632118
 30
0.0
 10
132.9021580128484
 20
56.43990915042512
 30
0.0
 10
132.9021580128484
 20
55.24151067087267
 30
0.0
 10
132.9021580128484
 20
54.08065198775628
 30
0.0
 10
132.9021580128484
 20
52.96924508205751
 30
0.0
 10
132.9021580128484
 20
51.91869449260268
 30
0.0
 10
132.9021580128484
 20
50.93978029006167
 30
0.0
 10
132.9021580128484
 20
50.04254745883514
 30
0.0
 10
132.9021580128484
 20
49.23620282192145
 30
0.0
 10
132.9021580128484
 20
48.529020566454
 30
0.0
 10
132.9021580128484
 20
47.92825733934437
 30
0.0
 10
132.9021580128484
 20
47.44007778426523
 30
0.0
 10
132.9021580128484
 20
47.06949128406418
 30
0.0
 10
132.9021580128484
 20
46.82030055771696
 30
0.0
 10
132.9021580128484
 20
46.69506263928481
 30
0.0
 10
132.9021580128484
 20
46.67937771516868
 30
0.0
 10
132.9021580128484
 20
46.6825435641293
 30
0.0
 10
132.9021580128484
 20
46.67937771516868
 30
0.0
  0
LINE
  5
152
330
1F
100
AcDbEntity
  8
0
  6
CENTERX2
 62
     7
370
    18
100
AcDbLine
 10
75.2763249879
 20
58.8998777152
 30
0.0
 11
182.9026158453
 21
58.8998777152
 31
0.0
  0
LINE
  5
153
330
1F
100
AcDbEntity
  8
0
  6
CENTERX2
 62
     7
370
    18
100
AcDbLine
 10
151.4021580128
 20
43.14575578
 30
0.0
 11
151.4021580128
 21
99.9589120011
 31
0.0
  0
LINE
  5
154
330
1F
100
AcDbEntity
  8
0
  6
Continuous
 62
     7
370
    25
100
AcDbLine
 10
228.1813931034
 20
78.3998777152
 30
0.0
 11
227.6813931034
 21
78.8998777152
 31
0.0
  0
LINE
  5
155
330
1F
100
AcDbEntity
  8
0
  6
Continuous
 62
     7
370
    25
100
AcDbLine
 10
212.1813931034
 20
78.8998777152
 30
0.0
 11
211.6813931034
 21
78.3998777152
 31
0.0
  0
LINE
  5
156
330
1F
100
AcDbEntity
  8
0
  6
Continuous
 62
     7
370
    25
100
AcDbLine
 10
228.1813931034
 20
73.3998777152
 30
0.0
 11
228.1813931034
 21
78.3998777152
 31
0.0
  0
LINE
  5
157
330
1F
100
AcDbEntity
  8
0
  6
Continuous
 62
     7
370
    25
100
AcDbLine
 10
211.6813931034
 20
78.3998777152
 30
0.0
 11
211.6813931034
 21
73.3998777152
 31
0.0
  0
LINE
  5
158
330
1F
100
AcDbEntity
  8
0
  6
Continuous
 62
     7
370
    25
100
AcDbLine
 10
214.9313931034
 20
81.1998777152
 30
0.0
 11
214.9313931034
 21
78.8998777152
 31
0.0
  0
LINE
  5
159
330
1F
100
AcDbEntity
  8
0
  6
Continuous
 62
     7
370
    25
100
AcDbLine
 10
224.9313931034
 20
78.8998777152
 30
0.0
 11
224.9313931034
 21
79.3998777152
 31
0.0
  0
SPLINE
  5
15A
330
1F
100
AcDbEntity
  8
0
  6
Continuous
 62
     7
370
    25
100
AcDbSpline
210
0.0
220
0.0
230
1.0
 70
     8
 71
     3
 72
    14
 73
    10
 74
     0
 42
0.00000001
 43
0.00000001
 40
0.0
 40
0.0
 40
0.0
 40
0.0
 40
0.0659487979644344
 40
0.3290084945779166
 40
0.5315609162529126
 40
0.698712596714643
 40
0.8400072819019601
 40
0.9563681900179393
 40
1.0
 40
1.0
 40
1.0
 40
1.0
 10
211.6756225038053
 20
73.39876907859356
 30
0.0
 10
211.6769841045104
 20
73.38225400591978
 30
0.0
 10
211.6837769227574
 20
73.29986282721808
 30
0.0
 10
211.6279522378361
 20
73.17019875260091
 30
0.0
 10
211.5298265767109
 20
73.04550095220009
 30
0.0
 10
211.4233493797214
 20
72.97106185461894
 30
0.0
 10
211.3240122998849
 20
72.93212132889043
 30
0.0
 10
211.2494216076145
 20
72.9164644659036
 30
0.0
 10
211.209625984156
 20
72.9159339592053
 30
0.0
 10
211.1987732709732
 20
72.91578928407428
 30
0.0
  0
SPLINE
  5
15B
330
1F
100
AcDbEntity
  8
0
  6
Continuous
 62
     7
370
    25
100
AcDbSpline
210
0.0
220
0.0
230
1.0
 70
     8
 71
     3
 72
    13
 73
     9
 74
     0
 42
0.00000001
 43
0.00000001
 40
0.0
 40
0.0
 40
0.0
 40
0.0
 40
0.0891126175087107
 40
0.2656028089125499
 40
0.4833417688675289
 40
0.7130369429121625
 40
0.9538519136235107
 40
1.0
 40
1.0
 40
1.0
 40
1.0
 10
228.6645464439577
 20
72.91730487812262
 30
0.0
 10
228.6423215559682
 20
72.91786560548114
 30
0.0
 10
228.5760796157936
 20
72.91953687006314
 30
0.0
 10
228.4592673232387
 20
72.95879141028571
 30
0.0
 10
228.3266437401089
 20
73.04661526621585
 30
0.0
 10
228.2261421162586
 20
73.18793871793726
 30
0.0
 10
228.1773296540694
 20
73.3151494041971
 30
0.0
 10
228.1844634898513
 20
73.38679642479997
 30
0.0
 10
228.1856107206942
 20
73.39831837096597
 30
0.0
  0
SPLINE
  5
15C
330
1F
100
AcDbEntity
  8
0
  6
Continuous
 62
     7
370
    25
100
AcDbSpline
210
0.0
220
0.0
230
1.0
 70
     8
 71
     3
 72
     9
 73
     5
 74
     0
 42
0.00000001
 43
0.00000001
 40
0.0
 40
0.0
 40
0.0
 40
0.0
 40
0.4993165458323628
 40
0.9999999999999999
 40
0.9999999999999999
 40
0.9999999999999999
 40
0.9999999999999999
 10
220.9406858982789
 20
99.88744514392039
 30
0.0
 10
220.9175552806317
 20
99.89079617956801
 30
0.0
 10
220.8712307239146
 20
99.89750742451993
 30
0.0
 10
220.8246713307863
 20
99.89318025521428
 30
0.0
 10
220.8013598130108
 20
99.89101371313956
 30
0.0
  0
SPLINE
  5
15D
330
1F
100
AcDbEntity
  8
0
  6
Continuous
 62
     7
370
    25
100
AcDbSpline
210
0.0
220
0.0
230
1.0
 70
     8
 71
     3
 72
     9
 73
     5
 74
     0
 42
0.00000001
 43
0.00000001
 40
0.0
 40
0.0
 40
0.0
 40
0.0
 40
0.5006834545219032
 40
0.9999999999999999
 40
0.9999999999999999
 40
0.9999999999999999
 40
0.9999999999999999
 10
219.0614263411307
 20
99.89101371306715
 30
0.0
 10
219.0381148264797
 20
99.89318025373244
 30
0.0
 10
218.9915554396247
 20
99.89750742022
 30
0.0
 10
218.9452308893681
 20
99.89079617386533
 30
0.0
 10
218.9221002749632
 20
99.88744513751968
 30
0.0
  0
LINE
  5
15E
330
1F
100
AcDbEntity
  8
0
  6
Continuous
 62
     7
370
    25
100
AcDbLine
 10
217.4555385851
 20
99.2319281047
 30
0.0
 11
217.3247612304
 21
96.3786666145
 31
0.0
  0
LINE
  5
15F
330
1F
100
AcDbEntity
  8
0
  6
Continuous
 62
     7
370
    25
100
AcDbLine
 10
222.5380249763
 20
96.3786666145
 30
0.0
 11
222.4072476217
 21
99.2319281047
 31
0.0
  0
LINE
  5
160
330
1F
100
AcDbEntity
  8
0
  6
Continuous
 62
     7
370
    25
100
AcDbLine
 10
217.9784191232
 20
99.8770289957
 30
0.0
 11
217.9299881802
 21
99.8558244816
 31
0.0
  0
SPLINE
  5
161
330
1F
100
AcDbEntity
  8
0
  6
Continuous
 62
     7
370
    25
100
AcDbSpline
210
0.0
220
0.0
230
1.0
 70
     8
 71
     3
 72
     9
 73
     5
 74
     0
 42
0.00000001
 43
0.00000001
 40
0.0
 40
0.0
 40
0.0
 40
0.0
 40
0.0503631419175623
 40
1.0
 40
1.0
 40
1.0
 40
1.0
 10
217.5119009091484
 20
99.47043627310947
 30
0.0
 10
217.5100048285543
 20
99.46726621574548
 30
0.0
 10
217.472356649312
 20
99.40432222052792
 30
0.0
 10
217.4658162062967
 20
99.32917462183397
 30
0.0
 10
217.4596051605412
 20
99.2578116923178
 30
0.0
  0
SPLINE
  5
162
330
1F
100
AcDbEntity
  8
0
  6
Continuous
 62
     7
370
    25
100
AcDbSpline
210
0.0
220
0.0
230
1.0
 70
     8
 71
     3
 72
    11
 73
     7
 74
     0
 42
0.00000001
 43
0.00000001
 40
0.0
 40
0.0
 40
0.0
 40
0.0
 40
0.2436788845968632
 40
0.4915884466681921
 40
0.7437897073051964
 40
1.0
 40
1.0
 40
1.0
 40
1.0
 10
222.403181046218
 20
99.25781169231782
 30
0.0
 10
222.3918770893895
 20
99.32693104421463
 30
0.0
 10
222.369072919928
 20
99.4663697768315
 30
0.0
 10
222.2559081210236
 20
99.65102366937143
 30
0.0
 10
222.0936245282133
 20
99.80165217518065
 30
0.0
 10
221.9544852882948
 20
99.85177165134347
 30
0.0
 10
221.8843670835624
 20
99.87702899566075
 30
0.0
  0
SPLINE
  5
163
330
1F
100
AcDbEntity
  8
0
  6
Continuous
 62
     7
370
    25
100
AcDbSpline
210
0.0
220
0.0
230
1.0
 70
     8
 71
     3
 72
     9
 73
     5
 74
     0
 42
0.00000001
 43
0.00000001
 40
0.0
 40
0.0
 40
0.0
 40
0.0
 40
0.5165223758948505
 40
1.0
 40
1.0
 40
1.0
 40
1.0
 10
222.7474573076555
 20
95.99201711422894
 30
0.0
 10
222.6945964507678
 20
96.03983853576258
 30
0.0
 10
222.5922565341357
 20
96.13242198183463
 30
0.0
 10
222.5413064685424
 20
96.2618554958912
 30
0.0
 10
222.5166732518813
 20
96.32443370374685
 30
0.0
  0
SPLINE
  5
164
330
1F
100
AcDbEntity
  8
0
  6
Continuous
 62
     7
370
    25
100
AcDbSpline
210
0.0
220
0.0
230
1.0
 70
     8
 71
     3
 72
     9
 73
     5
 74
     0
 42
0.00000001
 43
0.00000001
 40
0.0
 40
0.0
 40
0.0
 40
0.0
 40
0.4834776241051538
 40
1.0
 40
1.0
 40
1.0
 40
1.0
 10
217.3461129548778
 20
96.32443370374685
 30
0.0
 10
217.3214797382167
 20
96.2618554958912
 30
0.0
 10
217.2705296726234
 20
96.1324219818346
 30
0.0
 10
217.1681897559913
 20
96.03983853576257
 30
0.0
 10
217.1153288991036
 20
95.99201711422891
 30
0.0
  0
ARC
  5
165
330
1F
100
AcDbEntity
  8
0
  6
Continuous
 62
     7
370
    25
100
AcDbCircle
 10
216.2046546792
 20
94.3998777152
 30
0.0
 40
1.5
100
AcDbArc
 50
90.0
 51
180.0
  0
LINE
  5
166
330
1F
100
AcDbEntity
  8
0
  6
Continuous
 62
     7
370
    25
100
AcDbLine
 10
214.7046546792
 20
94.3998777152
 30
0.0
 11
214.7046546792
 21
89.146923083
 31
0.0
  0
ARC
  5
167
330
1F
100
AcDbEntity
  8
0
  6
Continuous
 62
     7
370
    25
100
AcDbCircle
 10
223.6581315276
 20
94.3998777152
 30
0.0
 40
1.5
100
AcDbArc
 50
0.0
 51
90.0
  0
LINE
  5
168
330
1F
100
AcDbEntity
  8
0
  6
Continuous
 62
     7
370
    25
100
AcDbLine
 10
225.1581315276
 20
89.146923083
 30
0.0
 11
225.1581315276
 21
94.3998777152
 31
0.0
  0
LINE
  5
169
330
1F
100
AcDbEntity
  8
0
  6
Continuous
 62
     7
370
    25
100
AcDbLine
 10
210.9425855448
 20
89.2879533009
 30
0.0
 11
211.7513931034
 21
81.1998777152
 31
0.0
  0
LINE
  5
16A
330
1F
100
AcDbEntity
  8
0
  6
Continuous
 62
     7
370
    25
100
AcDbLine
 10
227.9764179174
 20
79.8501258557
 30
0.0
 11
228.920200662
 21
89.2879533009
 31
0.0
  0
ARC
  5
16B
330
1F
100
AcDbEntity
  8
0
  6
Continuous
 62
     7
370
    25
100
AcDbCircle
 10
227.9251634717
 20
89.3874570199
 30
0.0
 40
1.000000000000005
100
AcDbArc
 50
354.2894068625
 51
7.1250163489
  0
ARC
  5
16C
330
1F
100
AcDbEntity
  8
0
  6
Continuous
 62
     7
370
    25
100
AcDbCircle
 10
211.937622735
 20
89.3874570199
 30
0.0
 40
0.9999999999999957
100
AcDbArc
 50
172.8749836511
 51
185.7105931375
  0
LINE
  5
16D
330
1F
100
AcDbEntity
  8
0
  6
Continuous
 62
     7
370
    25
100
AcDbLine
 10
228.9174413485
 20
89.5114917545
 30
0.0
 11
227.9861409325
 21
96.9618950825
 31
0.0
  0
LINE
  5
16E
330
1F
100
AcDbEntity
  8
0
  6
Continuous
 62
     7
370
    25
100
AcDbLine
 10
211.8766452743
 20
96.9618950825
 30
0.0
 11
210.9453448583
 21
89.5114917545
 31
0.0
  0
ARC
  5
16F
330
1F
100
AcDbEntity
  8
0
  6
Continuous
 62
     7
370
    25
100
AcDbCircle
 10
212.3727842126
 20
96.8998777152
 30
0.0
 40
0.5
100
AcDbArc
 50
90.0
 51
172.8749836511
  0
ARC
  5
170
330
1F
100
AcDbEntity
  8
0
  6
Continuous
 62
     7
370
    25
100
AcDbCircle
 10
227.4900019941
 20
96.8998777152
 30
0.0
 40
0.5
100
AcDbArc
 50
7.1250163489
 51
90.0
  0
ARC
  5
171
330
1F
100
AcDbEntity
  8
0
  6
Continuous
 62
     7
370
    25
100
AcDbCircle
 10
227.4788993223
 20
79.8998777152
 30
0.0
 40
0.5
100
AcDbArc
 50
270.0
 51
354.2894068625
  0
LINE
  5
172
330
1F
100
AcDbEntity
  8
0
  6
Continuous
 62
     7
370
    25
100
AcDbLine
 10
220.9313931034
 20
78.8998777152
 30
0.0
 11
220.9313931034
 21
79.3710865616
 31
0.0
  0
LINE
  5
173
330
1F
100
AcDbEntity
  8
0
  6
Continuous
 62
     7
370
    25
100
AcDbLine
 10
218.9313931034
 20
80.6998777152
 30
0.0
 11
218.9313931034
 21
78.8998777152
 31
0.0
  0
ARC
  5
174
330
1F
100
AcDbEntity
  8
0
  6
Continuous
 62
     7
370
    25
100
AcDbCircle
 10
219.1313931034
 20
80.6998777152
 30
0.0
 40
0.2000000000000171
100
AcDbArc
 50
90.0
 51
180.0
  0
ARC
  5
175
330
1F
100
AcDbEntity
  8
0
  6
Continuous
 62
     7
370
    25
100
AcDbCircle
 10
220.7313931034
 20
80.6998777152
 30
0.0
 40
0.2000000000000028
100
AcDbArc
 50
0.0
 51
90.0
  0
CIRCLE
  5
176
330
1F
100
AcDbEntity
  8
0
  6
Continuous
 62
     7
370
    25
100
AcDbCircle
 10
219.9313931034
 20
58.8998777152
 30
0.0
 40
8.320000000000027
  0
CIRCLE
  5
177
330
1F
100
AcDbEntity
  8
0
  6
Continuous
 62
     7
370
    25
100
AcDbCircle
 10
219.9313931034
 20
58.8998777152
 30
0.0
 40
7.999999999999987
  0
CIRCLE
  5
178
330
1F
100
AcDbEntity
  8
0
  6
Continuous
 62
     7
370
    25
100
AcDbCircle
 10
219.9313931034
 20
58.8998777152
 30
0.0
 40
9.382857142857144
  0
CIRCLE
  5
179
330
1F
100
AcDbEntity
  8
0
  6
Continuous
 62
     7
370
    25
100
AcDbCircle
 10
219.9313931034
 20
58.8998777152
 30
0.0
 40
7.499999999999992
  0
CIRCLE
  5
17A
330
1F
100
AcDbEntity
  8
0
  6
Continuous
 62
     7
370
    25
100
AcDbCircle
 10
219.9313931034
 20
58.8998777152
 30
0.0
 40
10.24999999999998
  0
CIRCLE
  5
17B
330
1F
100
AcDbEntity
  8
0
  6
Continuous
 62
     7
370
    25
100
AcDbCircle
 10
219.9313931034
 20
58.8998777152
 30
0.0
 40
14.25000000000003
  0
CIRCLE
  5
17C
330
1F
100
AcDbEntity
  8
0
  6
Continuous
 62
     7
370
    25
100
AcDbCircle
 10
219.9313931034
 20
58.8998777152
 30
0.0
 40
10.94999999999999
  0
CIRCLE
  5
17D
330
1F
100
AcDbEntity
  8
0
  6
Continuous
 62
     7
370
    25
100
AcDbCircle
 10
219.9313931034
 20
58.8998777152
 30
0.0
 40
14.75000000000003
  0
CIRCLE
  5
17E
330
1F
100
AcDbEntity
  8
0
  6
Continuous
 62
     7
370
    25
100
AcDbCircle
 10
219.9313931034
 20
58.8998777152
 30
0.0
 40
10.69999999999999
  0
SPLINE
  5
17F
330
1F
100
AcDbEntity
  8
0
  6
Continuous
 62
     7
370
    25
100
AcDbSpline
210
0.0
220
0.0
230
1.0
 70
    24
 71
     3
 72
    14
 73
    10
 74
     0
 42
0.00000001
 43
0.00000001
 40
0.0
 40
0.0
 40
0.0
 40
0.0
 40
0.1323192461026061
 40
0.2646010791759343
 40
0.3998422155585206
 40
0.5350589473542957
 40
0.6502584780962547
 40
0.7654759785074527
 40
1.0
 40
1.0
 40
1.0
 40
1.0
 10
219.9313931033795
 20
76.22038579085746
 30
0.0
 10
220.5794612240816
 20
75.84622348691691
 30
0.0
 10
221.8754142253881
 20
75.09800467275551
 30
0.0
 10
223.871083050563
 20
73.94580473932747
 30
0.0
 10
225.9043106402413
 20
72.77192024310295
 30
0.0
 10
227.8640864465175
 20
71.64044315379812
 30
0.0
 10
229.7172547712148
 20
70.57051592268046
 30
0.0
 10
232.0591446479538
 20
69.21842517193272
 30
0.0
 10
233.7784733974243
 20
68.22577025560048
 30
0.0
 10
234.9313931033795
 20
67.56013175301324
 30
0.0
  0
SPLINE
  5
180
330
1F
100
AcDbEntity
  8
0
  6
Continuous
 62
     7
370
    25
100
AcDbSpline
210
0.0
220
0.0
230
1.0
 70
    24
 71
     3
 72
    15
 73
    11
 74
     0
 42
0.00000001
 43
0.00000001
 40
0.0
 40
0.0
 40
0.0
 40
0.0
 40
0.125011900099171
 40
0.2499942438169895
 40
0.3773976475797591
 40
0.5047781656294711
 40
0.6272655808081492
 40
0.7497732261384027
 40
0.8748717775913385
 40
1.0
 40
1.0
 40
1.0
 40
1.0
 10
234.9313931033795
 20
67.56013175301324
 30
0.0
 10
234.9313931033795
 20
66.85324940606625
 30
0.0
 10
234.9313931033795
 20
65.43965183933535
 30
0.0
 10
234.9313931033795
 20
63.26716186475097
 30
0.0
 10
234.9313931033795
 20
61.05642243482974
 30
0.0
 10
234.9313931033796
 20
58.84436075443942
 30
0.0
 10
234.9313931033796
 20
56.66169645037795
 30
0.0
 10
234.9313931033796
 20
54.50779824963098
 30
0.0
 10
234.9313931033796
 20
52.36207901701991
 30
0.0
 10
234.9313931033797
 20
50.94716471563965
 30
0.0
 10
234.9313931033797
 20
50.23962367732443
 30
0.0
  0
SPLINE
  5
181
330
1F
100
AcDbEntity
  8
0
  6
Continuous
 62
     7
370
    25
100
AcDbSpline
210
0.0
220
0.0
230
1.0
 70
    24
 71
     3
 72
    14
 73
    10
 74
     0
 42
0.00000001
 43
0.00000001
 40
0.0
 40
0.0
 40
0.0
 40
0.0
 40
0.1323192461026041
 40
0.2646010791759309
 40
0.3998422155585155
 40
0.5350589473542888
 40
0.6502584780962496
 40
0.7654759785074491
 40
1.0
 40
1.0
 40
1.0
 40
1.0
 10
234.9313931033797
 20
50.23962367732443
 30
0.0
 10
234.2833249826776
 20
49.86546137338387
 30
0.0
 10
232.9873719813711
 20
49.11724255922245
 30
0.0
 10
230.9917031561963
 20
47.96504262579437
 30
0.0
 10
228.958475566518
 20
46.79115812956984
 30
0.0
 10
226.9986997602418
 20
45.65968104026496
 30
0.0
 10
225.1455314355445
 20
44.58975380914726
 30
0.0
 10
222.8036415588054
 20
43.23766305839946
 30
0.0
 10
221.0843128093349
 20
42.24500814206715
 30
0.0
 10
219.9313931033797
 20
41.57936963947989
 30
0.0
  0
SPLINE
  5
182
330
1F
100
AcDbEntity
  8
0
  6
Continuous
 62
     7
370
    25
100
AcDbSpline
210
0.0
220
0.0
230
1.0
 70
    24
 71
     3
 72
    14
 73
    10
 74
     0
 42
0.00000001
 43
0.00000001
 40
0.0
 40
0.0
 40
0.0
 40
0.0
 40
0.1323192461026043
 40
0.2646010791759309
 40
0.3998422155585152
 40
0.5350589473542886
 40
0.6502584780962493
 40
0.7654759785074489
 40
1.0
 40
1.0
 40
1.0
 40
1.0
 10
219.9313931033797
 20
41.57936963947989
 30
0.0
 10
219.2833249826776
 20
41.95353194342044
 30
0.0
 10
217.9873719813711
 20
42.70175075758185
 30
0.0
 10
215.9917031561962
 20
43.85395069100989
 30
0.0
 10
213.958475566518
 20
45.02783518723439
 30
0.0
 10
211.9986997602418
 20
46.15931227653925
 30
0.0
 10
210.1455314355445
 20
47.22923950765691
 30
0.0
 10
207.8036415588053
 20
48.58133025840468
 30
0.0
 10
206.0843128093348
 20
49.57398517473696
 30
0.0
 10
204.9313931033796
 20
50.23962367732421
 30
0.0
  0
SPLINE
  5
183
330
1F
100
AcDbEntity
  8
0
  6
Continuous
 62
     7
370
    25
100
AcDbSpline
210
0.0
220
0.0
230
1.0
 70
    24
 71
     3
 72
    15
 73
    11
 74
     0
 42
0.00000001
 43
0.00000001
 40
0.0
 40
0.0
 40
0.0
 40
0.0
 40
0.1250119000991712
 40
0.2499942438169898
 40
0.3773976475797595
 40
0.5047781656294716
 40
0.6272655808081496
 40
0.749773226138403
 40
0.8748717775913387
 40
1.0
 40
1.0
 40
1.0
 40
1.0
 10
204.9313931033796
 20
50.23962367732421
 30
0.0
 10
204.9313931033796
 20
50.94650602427121
 30
0.0
 10
204.9313931033796
 20
52.3601035910021
 30
0.0
 10
204.9313931033796
 20
54.5325935655865
 30
0.0
 10
204.9313931033796
 20
56.74333299550772
 30
0.0
 10
204.9313931033796
 20
58.95539467589804
 30
0.0
 10
204.9313931033795
 20
61.13805897995951
 30
0.0
 10
204.9313931033795
 20
63.29195718070648
 30
0.0
 10
204.9313931033795
 20
65.43767641331755
 30
0.0
 10
204.9313931033795
 20
66.8525907146978
 30
0.0
 10
204.9313931033795
 20
67.56013175301302
 30
0.0
  0
SPLINE
  5
184
330
1F
100
AcDbEntity
  8
0
  6
Continuous
 62
     7
370
    25
100
AcDbSpline
210
0.0
220
0.0
230
1.0
 70
    24
 71
     3
 72
    14
 73
    10
 74
     0
 42
0.00000001
 43
0.00000001
 40
0.0
 40
0.0
 40
0.0
 40
0.0
 40
0.1323192461026043
 40
0.2646010791759309
 40
0.3998422155585154
 40
0.5350589473542886
 40
0.6502584780962495
 40
0.7654759785074491
 40
1.0
 40
1.0
 40
1.0
 40
1.0
 10
204.9313931033795
 20
67.56013175301302
 30
0.0
 10
205.5794612240816
 20
67.93429405695358
 30
0.0
 10
206.8754142253881
 20
68.68251287111498
 30
0.0
 10
208.871083050563
 20
69.83471280454305
 30
0.0
 10
210.9043106402412
 20
71.00859730076758
 30
0.0
 10
212.8640864465174
 20
72.14007439007243
 30
0.0
 10
214.7172547712147
 20
73.21000162119013
 30
0.0
 10
217.0591446479538
 20
74.56209237193792
 30
0.0
 10
218.7784733974244
 20
75.5547472882702
 30
0.0
 10
219.9313931033795
 20
76.22038579085746
 30
0.0
  0
CIRCLE
  5
185
330
1F
100
AcDbEntity
  8
0
  6
Continuous
 62
     7
370
    25
100
AcDbCircle
 10
219.9313931034
 20
58.8998777152
 30
0.0
 40
6.500000000000023
  0
ARC
  5
186
330
1F
100
AcDbEntity
  8
0
  6
Continuous
 62
     7
370
    25
100
AcDbCircle
 10
219.9313931034
 20
58.8998777152
 30
0.0
 40
16.5
100
AcDbArc
 50
121.9527464003
 51
144.5223653565
  0
SPLINE
  5
187
330
1F
100
AcDbEntity
  8
0
  6
Continuous
 62
     7
370
    25
100
AcDbSpline
210
0.0
220
0.0
230
1.0
 70
    24
 71
     3
 72
     9
 73
     5
 74
     0
 42
0.00000001
 43
0.00000001
 40
0.0
 40
0.0
 40
0.0
 40
0.0
 40
0.3332324763553445
 40
1.0
 40
1.0
 40
1.0
 40
1.0
 10
214.1801044093439
 20
72.89987771516867
 30
0.0
 10
213.8438077889825
 20
72.89987771516867
 30
0.0
 10
212.8346125747597
 20
72.89987771516867
 30
0.0
 10
211.8534655062767
 20
72.89987771516867
 30
0.0
 10
211.1992685050931
 20
72.89987771516867
 30
0.0
  0
ARC
  5
188
330
1F
100
AcDbEntity
  8
0
  6
Continuous
 62
     7
370
    25
100
AcDbCircle
 10
219.9313931034
 20
58.8998777152
 30
0.0
 40
16.5
100
AcDbArc
 50
215.8859657223
 51
238.0472535997
  0
SPLINE
  5
189
330
1F
100
AcDbEntity
  8
0
  6
Continuous
 62
     7
370
    25
100
AcDbSpline
210
0.0
220
0.0
230
1.0
 70
    24
 71
     3
 72
     9
 73
     5
 74
     0
 42
0.00000001
 43
0.00000001
 40
0.0
 40
0.0
 40
0.0
 40
0.0
 40
0.666728924172567
 40
1.0
 40
1.0
 40
1.0
 40
1.0
 10
211.1992685050931
 20
44.89987771516868
 30
0.0
 10
211.8535045919808
 20
44.89987771516868
 30
0.0
 10
212.8347670858792
 20
44.89987771516868
 30
0.0
 10
213.843817194185
 20
44.89987771516867
 30
0.0
 10
214.180104409344
 20
44.89987771516867
 30
0.0
  0
ARC
  5
18A
330
1F
100
AcDbEntity
  8
0
  6
Continuous
 62
     7
370
    25
100
AcDbCircle
 10
219.9313931034
 20
58.8998777152
 30
0.0
 40
16.50000000000003
100
AcDbArc
 50
35.8859657223
 51
58.0472535997
  0
LINE
  5
18B
330
1F
100
AcDbEntity
  8
0
  6
Continuous
 62
     7
370
    25
100
AcDbLine
 10
228.6635177017
 20
72.8998777152
 30
0.0
 11
225.6826817974
 21
72.8998777152
 31
0.0
  0
ARC
  5
18C
330
1F
100
AcDbEntity
  8
0
  6
Continuous
 62
     7
370
    25
100
AcDbCircle
 10
219.9313931034
 20
58.8998777152
 30
0.0
 40
16.50000000000003
100
AcDbArc
 50
301.9527464003
 51
324.5223653565
  0
LINE
  5
18D
330
1F
100
AcDbEntity
  8
0
  6
Continuous
 62
     7
370
    25
100
AcDbLine
 10
225.6826817974
 20
44.8998777152
 30
0.0
 11
228.6635177017
 21
44.8998777152
 31
0.0
  0
ARC
  5
18E
330
1F
100
AcDbEntity
  8
0
  6
Continuous
 62
     7
370
    25
100
AcDbCircle
 10
211.1987572566
 20
73.3993675111
 30
0.0
 40
0.4994900575603812
100
AcDbArc
 50
270.0586445851
 51
0.0585247798
  0
ARC
  5
18F
330
1F
100
AcDbEntity
  8
0
  6
Continuous
 62
     7
370
    25
100
AcDbCircle
 10
228.6640289502
 20
73.3993675111
 30
0.0
 40
0.4994900575603338
100
AcDbArc
 50
179.9414752202
 51
269.9413554149
  0
LINE
  5
190
330
1F
100
AcDbEntity
  8
0
  6
Continuous
 62
     7
370
    25
100
AcDbLine
 10
212.1813931034
 20
78.8998777152
 30
0.0
 11
227.6813931034
 21
78.8998777152
 31
0.0
  0
LINE
  5
191
330
1F
100
AcDbEntity
  8
0
  6
Continuous
 62
     7
370
    25
100
AcDbLine
 10
228.1813931034
 20
78.3998777152
 30
0.0
 11
211.6813931034
 21
78.3998777152
 31
0.0
  0
ELLIPSE
  5
192
330
1F
100
AcDbEntity
  8
0
  6
Continuous
 62
     7
370
    25
100
AcDbEllipse
 10
219.7568545483
 20
90.6234845129
 30
0.0
 11
0.7234244958980014
 21
-0.7001325129304661
 31
0.0
210
0.0
220
0.0
230
1.0
 40
0.9869902583
 41
4.70764954536258
 42
5.487972049091436
  0
LINE
  5
193
330
1F
100
AcDbEntity
  8
0
  6
Continuous
 62
     7
370
    25
100
AcDbLine
 10
219.769947509
 20
89.6234845129
 30
0.0
 11
219.769947509
 21
88.8998777152
 31
0.0
  0
ELLIPSE
  5
194
330
1F
100
AcDbEntity
  8
0
  6
Continuous
 62
     7
370
    25
100
AcDbEllipse
 10
219.7568545483
 20
90.3998777152
 30
0.0
 11
1.074619436156752
 21
-1.056020081253664
 31
0.0
210
0.0
220
0.0
230
1.0
 40
0.9913091236
 41
4.71309943438346
 42
5.4934219381123
  0
LWPOLYLINE
  5
195
330
1F
100
AcDbEntity
  8
0
  6
Continuous
 62
     7
370
    25
100
AcDbPolyline
 90
        9
 70
   128
 43
0.0
 10
219.0624097289
 20
89.9127978221
 10
218.9766808468
 20
89.8364673445
 10
218.8956491969
 20
89.7520673452
 10
218.823754642
 20
89.6642222447
 10
218.7649364078
 20
89.5777452264
 10
218.7224172461
 20
89.497374514
 10
218.6985268544
 20
89.4275137567
 10
218.6945742283
 20
89.3719907447
 10
218.7107759388
 20
89.333847679
  0
LINE
  5
196
330
1F
100
AcDbEntity
  8
0
  6
Continuous
 62
     7
370
    25
100
AcDbLine
 10
219.769947509
 20
89.6234845129
 30
0.0
 11
220.0928386977
 21
89.6234845129
 31
0.0
  0
LINE
  5
197
330
1F
100
AcDbEntity
  8
0
  6
Continuous
 62
     7
370
    25
100
AcDbLine
 10
220.0928386977
 20
89.6234845129
 30
0.0
 11
220.0928386977
 21
88.8998777152
 31
0.0
  0
LINE
  5
198
330
1F
100
AcDbEntity
  8
0
  6
Continuous
 62
     7
370
    25
100
AcDbLine
 10
220.0928386977
 20
88.8998777152
 30
0.0
 11
219.769947509
 21
88.8998777152
 31
0.0
  0
ELLIPSE
  5
199
330
1F
100
AcDbEntity
  8
0
  6
Continuous
 62
     7
370
    25
100
AcDbEllipse
 10
220.1059316585
 20
90.6234845129
 30
0.0
 11
0.7234244958980014
 21
0.7001325129304661
 31
0.0
210
0.0
220
0.0
230
1.0
 40
0.9869902583
 41
3.936805911677952
 42
4.717128415406827
  0
LWPOLYLINE
  5
19A
330
1F
100
AcDbEntity
  8
0
  6
Continuous
 62
     7
370
    25
100
AcDbPolyline
 90
        9
 70
   128
 43
0.0
 10
220.8003764779
 20
89.9127978221
 10
220.88610536
 20
89.8364673445
 10
220.9671370099
 20
89.7520673452
 10
221.0390315648
 20
89.6642222447
 10
221.0978497989
 20
89.5777452264
 10
221.1403689607
 20
89.497374514
 10
221.1642593524
 20
89.4275137567
 10
221.1682119785
 20
89.3719907447
 10
221.1520102679
 20
89.333847679
  0
ELLIPSE
  5
19B
330
1F
100
AcDbEntity
  8
0
  6
Continuous
 62
     7
370
    25
100
AcDbEllipse
 10
220.1059316585
 20
90.3998777152
 30
0.0
 11
1.074619436156752
 21
1.056020081253678
 31
0.0
210
0.0
220
0.0
230
0.9999999999999999
 40
0.9913091236
 41
3.931356022657084
 42
4.711678526385939
  0
LINE
  5
19C
330
1F
100
AcDbEntity
  8
0
  6
Continuous
 62
     7
370
    25
100
AcDbLine
 10
219.0624097289
 20
89.9127978221
 30
0.0
 11
219.0624097289
 21
99.0706981084
 31
0.0
  0
LINE
  5
19D
330
1F
100
AcDbEntity
  8
0
  6
Continuous
 62
     7
370
    25
100
AcDbLine
 10
219.0624097289
 20
99.0706981084
 30
0.0
 11
220.8003764779
 21
99.0706981084
 31
0.0
  0
LINE
  5
19E
330
1F
100
AcDbEntity
  8
0
  6
Continuous
 62
     7
370
    25
100
AcDbLine
 10
220.8003764779
 20
99.0706981084
 30
0.0
 11
220.8003764779
 21
89.9127978221
 31
0.0
  0
SPLINE
  5
19F
330
1F
100
AcDbEntity
  8
0
  6
Continuous
 62
     7
370
    25
100
AcDbSpline
210
0.0
220
0.0
230
1.0
 70
     8
 71
     3
 72
    11
 73
     7
 74
     0
 42
0.00000001
 43
0.00000001
 40
0.0
 40
0.0
 40
0.0
 40
0.0
 40
0.2500000000000017
 40
0.4999999999999978
 40
0.7499999999999992
 40
1.0
 40
1.0
 40
1.0
 40
1.0
 10
221.4991118071496
 20
98.77645784278211
 30
0.0
 10
221.484112501983
 20
98.81557539694826
 30
0.0
 10
221.4541138916499
 20
98.89381050528051
 30
0.0
 10
221.2905941888532
 20
98.9904735809887
 30
0.0
 10
221.0650145747709
 20
99.05766179712825
 30
0.0
 10
220.8885891768558
 20
99.06635267132182
 30
0.0
 10
220.8003764778983
 20
99.07069810841863
 30
0.0
  0
LINE
  5
1A0
330
1F
100
AcDbEntity
  8
0
  6
Continuous
 62
     7
370
    25
100
AcDbLine
 10
221.4991118071
 20
89.9655181944
 30
0.0
 11
221.4991118071
 21
98.7764578428
 31
0.0
  0
SPLINE
  5
1A1
330
1F
100
AcDbEntity
  8
0
  6
Continuous
 62
     7
370
    25
100
AcDbSpline
210
0.0
220
0.0
230
1.0
 70
     8
 71
     3
 72
    12
 73
     8
 74
     0
 42
0.00000001
 43
0.00000001
 40
0.0
 40
0.0
 40
0.0
 40
0.0
 40
0.1396834586182492
 40
0.383189627403831
 40
0.5513169293013304
 40
0.8194729461607057
 40
1.0
 40
1.0
 40
1.0
 40
1.0
 10
220.8003764778983
 20
89.91279782210815
 30
0.0
 10
220.8500913983767
 20
89.92611019576908
 30
0.0
 10
220.9864729144346
 20
89.96262964877705
 30
0.0
 10
221.1663890236467
 20
90.00030170936843
 30
0.0
 10
221.3447304520316
 20
90.02466903012993
 30
0.0
 10
221.4652506765831
 20
90.02355199536598
 30
0.0
 10
221.4893966898899
 20
89.9821687069884
 30
0.0
 10
221.4991118071496
 20
89.965518194373
 30
0.0
  0
ARC
  5
1A2
330
1F
100
AcDbEntity
  8
0
  6
Continuous
 62
     7
370
    25
100
AcDbCircle
 10
221.0008576265
 20
89.9506652087
 30
0.0
 40
0.4984755156843424
100
AcDbArc
 50
333.4921832491
 51
1.7074848132
  0
SPLINE
  5
1A3
330
1F
100
AcDbEntity
  8
0
  6
Continuous
 62
     7
370
    25
100
AcDbSpline
210
0.0
220
0.0
230
1.0
 70
     8
 71
     3
 72
    12
 73
     8
 74
     0
 42
0.00000001
 43
0.00000001
 40
0.0
 40
0.0
 40
0.0
 40
0.0
 40
0.0715202026166141
 40
0.1260836237049449
 40
0.3855387013103052
 40
0.8475626424815554
 40
1.0
 40
1.0
 40
1.0
 40
1.0
 10
221.4469301455885
 20
89.72818566481787
 30
0.0
 10
221.4449940998833
 20
89.72507701695305
 30
0.0
 10
221.4415810270837
 20
89.71959675300971
 30
0.0
 10
221.4193985765785
 20
89.68000820758934
 30
0.0
 10
221.3563851018121
 20
89.573574074607
 30
0.0
 10
221.2593387763402
 20
89.4430670588988
 30
0.0
 10
221.173344083122
 20
89.35555734493546
 30
0.0
 10
221.1520102679204
 20
89.3338476789529
 30
0.0
  0
SPLINE
  5
1A4
330
1F
100
AcDbEntity
  8
0
  6
Continuous
 62
     7
370
    25
100
AcDbSpline
210
0.0
220
0.0
230
1.0
 70
     8
 71
     3
 72
    11
 73
     7
 74
     0
 42
0.00000001
 43
0.00000001
 40
0.0
 40
0.0
 40
0.0
 40
0.0
 40
0.2500000000000013
 40
0.5000000000000017
 40
0.7500000000000001
 40
1.0
 40
1.0
 40
1.0
 40
1.0
 10
218.3636743996096
 20
98.7764578427821
 30
0.0
 10
218.3786737047761
 20
98.81557539694823
 30
0.0
 10
218.4086723151093
 20
98.89381050528051
 30
0.0
 10
218.5721920179059
 20
98.9904735809887
 30
0.0
 10
218.7977716319883
 20
99.05766179712823
 30
0.0
 10
218.9741970299034
 20
99.06635267132182
 30
0.0
 10
219.0624097288609
 20
99.07069810841863
 30
0.0
  0
SPLINE
  5
1A5
330
1F
100
AcDbEntity
  8
0
  6
Continuous
 62
     7
370
    25
100
AcDbSpline
210
0.0
220
0.0
230
1.0
 70
     8
 71
     3
 72
    13
 73
     9
 74
     0
 42
0.00000001
 43
0.00000001
 40
0.0
 40
0.0
 40
0.0
 40
0.0
 40
0.1143463544469914
 40
0.2890454840074685
 40
0.5294852105593209
 40
0.7014879056604271
 40
0.9335094878266192
 40
1.0
 40
1.0
 40
1.0
 40
1.0
 10
218.3636743996096
 20
89.965518194373
 30
0.0
 10
218.3685089911147
 20
89.97690502613098
 30
0.0
 10
218.3807299040447
 20
90.00568873605084
 30
0.0
 10
218.4533779990857
 20
90.02593891349971
 30
0.0
 10
218.5838902654926
 20
90.0180815867541
 30
0.0
 10
218.7707578646622
 20
89.98555417042614
 30
0.0
 10
218.9321312694187
 20
89.94843281547425
 30
0.0
 10
219.0386776202707
 20
89.91928925235528
 30
0.0
 10
219.0624097288609
 20
89.91279782210815
 30
0.0
  0
LINE
  5
1A6
330
1F
100
AcDbEntity
  8
0
  6
Continuous
 62
     7
370
    25
100
AcDbLine
 10
218.3636743996
 20
98.7764578428
 30
0.0
 11
218.3636743996
 21
89.9655181944
 31
0.0
  0
SPLINE
  5
1A7
330
1F
100
AcDbEntity
  8
0
  6
Continuous
 62
     7
370
    25
100
AcDbSpline
210
0.0
220
0.0
230
1.0
 70
     8
 71
     3
 72
    11
 73
     7
 74
     0
 42
0.00000001
 43
0.00000001
 40
0.0
 40
0.0
 40
0.0
 40
0.0
 40
0.3325271082490199
 40
0.7778992719027311
 40
0.9254453528959206
 40
1.0
 40
1.0
 40
1.0
 40
1.0
 10
218.7107759388388
 20
89.3338476789529
 30
0.0
 10
218.6655451156925
 20
89.38178422708108
 30
0.0
 10
218.5597341200769
 20
89.49392487655415
 30
0.0
 10
218.4719741455993
 20
89.62928509457136
 30
0.0
 10
218.4243612536615
 20
89.71428572834984
 30
0.0
 10
218.4179935637333
 20
89.72469236941596
 30
0.0
 10
218.4158560611707
 20
89.72818566481789
 30
0.0
  0
ARC
  5
1A8
330
1F
100
AcDbEntity
  8
0
  6
Continuous
 62
     7
370
    25
100
AcDbCircle
 10
218.8619285803
 20
89.9506652087
 30
0.0
 40
0.4984755156835033
100
AcDbArc
 50
178.2925151868
 51
206.5078167509
  0
LINE
  5
1A9
330
1F
100
AcDbEntity
  8
0
  6
Continuous
 62
     7
370
    25
100
AcDbLine
 10
219.0777873119
 20
88.8998777152
 30
0.0
 11
219.769947509
 21
88.8998777152
 31
0.0
  0
SPLINE
  5
1AA
330
1F
100
AcDbEntity
  8
0
  6
Continuous
 62
     7
370
    25
100
AcDbSpline
210
0.0
220
0.0
230
1.0
 70
     8
 71
     3
 72
    11
 73
     7
 74
     0
 42
0.00000001
 43
0.00000001
 40
0.0
 40
0.0
 40
0.0
 40
0.0
 40
0.2500000000000002
 40
0.4999999999999996
 40
0.7499999999999999
 40
1.0
 40
1.0
 40
1.0
 40
1.0
 10
217.5788151608824
 20
90.4391431376305
 30
0.0
 10
217.5968914713005
 20
90.2387675312544
 30
0.0
 10
217.6330440921366
 20
89.83801631850223
 30
0.0
 10
217.9776698663371
 20
89.32782338046027
 30
0.0
 10
218.4784919524572
 20
88.96984231209359
 30
0.0
 10
218.878022192118
 20
88.92319924747699
 30
0.0
 10
219.0777873119484
 20
88.89987771516867
 30
0.0
  0
LINE
  5
1AB
330
1F
100
AcDbEntity
  8
0
  6
Continuous
 62
     7
370
    25
100
AcDbLine
 10
218.145152441
 20
90.4391431376
 30
0.0
 11
217.5788151609
 21
90.4391431376
 31
0.0
  0
SPLINE
  5
1AC
330
1F
100
AcDbEntity
  8
0
  6
Continuous
 62
     7
370
    25
100
AcDbSpline
210
0.0
220
0.0
230
1.0
 70
     8
 71
     3
 72
     9
 73
     5
 74
     0
 42
0.00000001
 43
0.00000001
 40
0.0
 40
0.0
 40
0.0
 40
0.0
 40
0.5407747560677987
 40
1.0
 40
1.0
 40
1.0
 40
1.0
 10
218.1451524409629
 20
90.43914313763051
 30
0.0
 10
218.1451229405501
 20
90.42780918382981
 30
0.0
 10
218.1450683884237
 20
90.40685045069087
 30
0.0
 10
218.1456726335586
 20
90.38588425782291
 30
0.0
 10
218.1459501181781
 20
90.3762560527888
 30
0.0
  0
ELLIPSE
  5
1AD
330
1F
100
AcDbEntity
  8
0
  6
Continuous
 62
     7
370
    25
100
AcDbEllipse
 10
219.644124592
 20
90.3998777152
 30
0.0
 11
-0.3999861399325937
 21
1.445826639360092
 31
0.0
210
0.0
220
0.0
230
1.0
 40
0.9987379186
 41
1.314426961368794
 42
1.316970714136541
  0
ELLIPSE
  5
1AE
330
1F
100
AcDbEntity
  8
0
  6
Continuous
 62
     7
370
    25
100
AcDbEllipse
 10
220.5928174917
 20
90.3998777152
 30
0.0
 11
2.447559743736974
 21
-0.02501587584978892
 31
0.0
210
0.0
220
0.0
230
1.0
 40
0.6127700831
 41
3.171475350442034
 42
3.622568086779189
  0
LINE
  5
1AF
330
1F
100
AcDbEntity
  8
0
  6
Continuous
 62
     7
370
    25
100
AcDbLine
 10
221.7176337658
 20
90.4391431376
 30
0.0
 11
221.7168360886
 21
90.3762560528
 31
0.0
  0
LINE
  5
1B0
330
1F
100
AcDbEntity
  8
0
  6
Continuous
 62
     7
370
    25
100
AcDbLine
 10
222.2839710459
 20
90.4391431376
 30
0.0
 11
221.7176337658
 21
90.4391431376
 31
0.0
  0
SPLINE
  5
1B1
330
1F
100
AcDbEntity
  8
0
  6
Continuous
 62
     7
370
    25
100
AcDbSpline
210
0.0
220
0.0
230
1.0
 70
     8
 71
     3
 72
    11
 73
     7
 74
     0
 42
0.00000001
 43
0.00000001
 40
0.0
 40
0.0
 40
0.0
 40
0.0
 40
0.2500000000000004
 40
0.5000000000000003
 40
0.7499999999999998
 40
1.0
 40
1.0
 40
1.0
 40
1.0
 10
220.7849988948108
 20
88.89987771516867
 30
0.0
 10
220.9847640146411
 20
88.92319924747697
 30
0.0
 10
221.3842942543019
 20
88.96984231209359
 30
0.0
 10
221.8851163404221
 20
89.32782338046027
 30
0.0
 10
222.2297421146226
 20
89.83801631850224
 30
0.0
 10
222.2658947354586
 20
90.2387675312544
 30
0.0
 10
222.2839710458767
 20
90.4391431376305
 30
0.0
  0
LINE
  5
1B2
330
1F
100
AcDbEntity
  8
0
  6
Continuous
 62
     7
370
    25
100
AcDbLine
 10
220.0928386977
 20
88.8998777152
 30
0.0
 11
220.7849988948
 21
88.8998777152
 31
0.0
  0
ELLIPSE
  5
1B3
330
1F
100
AcDbEntity
  8
0
  6
Continuous
 62
     7
370
    25
100
AcDbEllipse
 10
219.269968715
 20
90.3998777152
 30
0.0
 11
2.447559743736974
 21
0.02501587584978892
 31
0.0
210
0.0
220
0.0
230
1.0
 40
0.6127700831
 41
5.802209873990222
 42
6.253302610327371
  0
ELLIPSE
  5
1B4
330
1F
100
AcDbEntity
  8
0
  6
Continuous
 62
     7
370
    25
100
AcDbEllipse
 10
220.2186616147
 20
90.3998777152
 30
0.0
 11
0.3999861399326505
 21
1.445826639360064
 31
0.0
210
0.0
220
0.0
230
0.9999999999999999
 40
0.9987379186
 41
4.966214593034
 42
4.96875834581083
  0
ELLIPSE
  5
1B5
330
1F
100
AcDbEntity
  8
0
  6
Continuous
 62
     7
370
    25
100
AcDbEllipse
 10
218.3155202416
 20
98.4186869664
 30
0.0
 11
0.02159772760037981
 21
0.7999991561933228
 31
0.0
210
0.0
220
0.0
230
1.0
 40
0.0537988877
 41
5.177489007048345
 42
5.369012849440518
  0
ELLIPSE
  5
1B6
330
1F
100
AcDbEntity
  8
0
  6
Continuous
 62
     7
370
    25
100
AcDbEllipse
 10
220.093720828
 20
90.4133128946
 30
0.0
 11
1.947791790405546
 21
-0.0177698114313074
 31
0.0
210
0.0
220
0.0
230
1.0
 40
0.513320833
 41
3.160788584408923
 42
3.623660809788559
  0
LINE
  5
1B7
330
1F
100
AcDbEntity
  8
0
  6
Continuous
 62
     7
370
    25
100
AcDbLine
 10
218.1461128043
 20
90.411887711
 30
0.0
 11
218.3627939155
 21
98.9061231292
 31
0.0
  0
ELLIPSE
  5
1B8
330
1F
100
AcDbEntity
  8
0
  6
Continuous
 62
     7
370
    25
100
AcDbEllipse
 10
221.5472659652
 20
98.4186869664
 30
0.0
 11
-0.02159772760037981
 21
0.7999991561933228
 31
0.0
210
0.0
220
0.0
230
1.0
 40
0.0537988877
 41
0.9141724577388419
 42
1.105696300130712
  0
LINE
  5
1B9
330
1F
100
AcDbEntity
  8
0
  6
Continuous
 62
     7
370
    25
100
AcDbLine
 10
221.4999922913
 20
98.9061231292
 30
0.0
 11
221.7166734025
 21
90.411887711
 31
0.0
  0
ELLIPSE
  5
1BA
330
1F
100
AcDbEntity
  8
0
  6
Continuous
 62
     7
370
    25
100
AcDbEllipse
 10
219.7690653788
 20
90.4133128946
 30
0.0
 11
1.947791790405574
 21
0.01776981143129319
 31
0.0
210
0.0
220
0.0
230
1.0
 40
0.513320833
 41
5.801117150980872
 42
6.263989376373015
  0
LINE
  5
1BB
330
1F
100
AcDbEntity
  8
0
  6
Continuous
 62
     7
370
    25
100
AcDbLine
 10
218.1458924691
 20
90.3800712811
 30
0.0
 11
218.1461128043
 21
90.411887711
 31
0.0
  0
SPLINE
  5
1BC
330
1F
100
AcDbEntity
  8
0
  6
Continuous
 62
     7
370
    25
100
AcDbSpline
210
0.0
220
0.0
230
1.0
 70
     8
 71
     3
 72
     9
 73
     5
 74
     0
 42
0.00000001
 43
0.00000001
 40
0.0
 40
0.0
 40
0.0
 40
0.0
 40
0.8673350121726813
 40
1.0
 40
1.0
 40
1.0
 40
1.0
 10
221.716673402505
 20
90.41188771103124
 30
0.0
 10
221.7168441346922
 20
90.40268928765605
 30
0.0
 10
221.7170409815678
 20
90.39208390075699
 30
0.0
 10
221.7169109838026
 20
90.38147827615558
 30
0.0
 10
221.7168937376506
 20
90.38007128109693
 30
0.0
  0
ELLIPSE
  5
1BD
330
1F
100
AcDbEntity
  8
0
  6
Continuous
 62
     7
370
    25
100
AcDbEllipse
 10
219.0318447329
 20
98.3998777152
 30
0.0
 11
0.0209600052571659
 21
1.499999971448744
 31
0.0
210
0.0
220
0.0
230
1.0
 40
0.013963099
 41
5.413231207420207
 42
6.283380418268021
  0
LINE
  5
1BE
330
1F
100
AcDbEntity
  8
0
  6
Continuous
 62
     7
370
    25
100
AcDbLine
 10
220.8099855555
 20
99.8998777152
 30
0.0
 11
219.0528006512
 21
99.8998777152
 31
0.0
  0
ELLIPSE
  5
1BF
330
1F
100
AcDbEntity
  8
0
  6
Continuous
 62
     7
370
    25
100
AcDbEllipse
 10
220.8309414739
 20
98.3998777152
 30
0.0
 11
-0.0209600052571659
 21
1.499999971448744
 31
0.0
210
0.0
220
0.0
230
1.0
 40
0.013963099
 41
6.282990196092133
 42
7.153139406940038
  0
SPLINE
  5
1C0
330
1F
100
AcDbEntity
  8
0
  6
Continuous
 62
     7
370
    25
100
AcDbSpline
210
0.0
220
0.0
230
1.0
 70
     8
 71
     3
 72
     9
 73
     5
 74
     0
 42
0.00000001
 43
0.00000001
 40
0.0
 40
0.0
 40
0.0
 40
0.0
 40
0.5600029565045499
 40
1.0
 40
1.0
 40
1.0
 40
1.0
 10
220.8014171900035
 20
99.36694645600926
 30
0.0
 10
220.8014228280697
 20
99.35715999384931
 30
0.0
 10
220.801432895992
 20
99.33968426082632
 30
0.0
 10
220.8013107193885
 20
99.32172329316053
 30
0.0
 10
220.8012569620442
 20
99.31382052048927
 30
0.0
  0
ELLIPSE
  5
1C1
330
1F
100
AcDbEntity
  8
0
  6
Continuous
 62
     7
370
    25
100
AcDbEllipse
 10
220.8485306359
 20
98.3998777152
 30
0.0
 11
-0.02155295842283067
 21
1.499999872388898
 31
0.0
210
0.0
220
0.0
230
1.0
 40
0.0287076702
 41
0.9152123852433427
 42
1.106736227634802
  0
ELLIPSE
  5
1C2
330
1F
100
AcDbEntity
  8
0
  6
Continuous
 62
     7
370
    25
100
AcDbEllipse
 10
219.0142555708
 20
98.3998777152
 30
0.0
 11
0.02155295842283067
 21
1.499999872388898
 31
0.0
210
0.0
220
0.0
230
1.0
 40
0.0287076702
 41
5.176449079544879
 42
5.367972921936406
  0
SPLINE
  5
1C3
330
1F
100
AcDbEntity
  8
0
  6
Continuous
 62
     7
370
    25
100
AcDbSpline
210
0.0
220
0.0
230
1.0
 70
     8
 71
     3
 72
     9
 73
     5
 74
     0
 42
0.00000001
 43
0.00000001
 40
0.0
 40
0.0
 40
0.0
 40
0.0
 40
0.5599925069634167
 40
1.0
 40
1.0
 40
1.0
 40
1.0
 10
219.0615292447149
 20
99.31382052048926
 30
0.0
 10
219.0614634995635
 20
99.32386811479213
 30
0.0
 10
219.0613460959365
 20
99.34181048755235
 30
0.0
 10
219.0613620130892
 20
99.35926593037362
 30
0.0
 10
219.0613690167556
 20
99.36694645600927
 30
0.0
  0
SPLINE
  5
1C4
330
1F
100
AcDbEntity
  8
0
  6
Continuous
 62
     7
370
    25
100
AcDbSpline
210
0.0
220
0.0
230
1.0
 70
     8
 71
     3
 72
    12
 73
     8
 74
     0
 42
0.00000001
 43
0.00000001
 40
0.0
 40
0.0
 40
0.0
 40
0.0
 40
0.2225634137434379
 40
0.4462063173695244
 40
0.6680851268156934
 40
0.8917990985568368
 40
1.0
 40
1.0
 40
1.0
 40
1.0
 10
218.3627939154636
 20
98.9061231292198
 30
0.0
 10
218.3751470230303
 20
98.95370907252611
 30
0.0
 10
218.3999131539173
 20
99.04911176322057
 30
0.0
 10
218.5324970819152
 20
99.17333049579352
 30
0.0
 10
218.7188544854098
 20
99.265220296898
 30
0.0
 10
218.906945296763
 20
99.30767587590809
 30
0.0
 10
219.0235253296514
 20
99.31230988142322
 30
0.0
 10
219.0615292447149
 20
99.31382052048926
 30
0.0
  0
SPLINE
  5
1C5
330
1F
100
AcDbEntity
  8
0
  6
Continuous
 62
     7
370
    25
100
AcDbSpline
210
0.0
220
0.0
230
1.0
 70
     8
 71
     3
 72
    12
 73
     8
 74
     0
 42
0.00000001
 43
0.00000001
 40
0.0
 40
0.0
 40
0.0
 40
0.0
 40
0.2225634137435277
 40
0.4462063173695683
 40
0.6680851268158055
 40
0.8917990985569333
 40
1.0
 40
1.0
 40
1.0
 40
1.0
 10
220.8012569620442
 20
99.31382052048927
 30
0.0
 10
220.8797606220868
 20
99.30839344787555
 30
0.0
 10
221.0371487051435
 20
99.29751297994811
 30
0.0
 10
221.2465002427709
 20
99.22221954892781
 30
0.0
 10
221.4052595372409
 20
99.11274100417448
 30
0.0
 10
221.4831084075576
 20
99.000026363628
 30
0.0
 10
221.495841448391
 20
98.92920890618379
 30
0.0
 10
221.4999922912956
 20
98.9061231292198
 30
0.0
  0
SPLINE
  5
1C6
330
1F
100
AcDbEntity
  8
0
  6
Continuous
 62
     7
370
    25
100
AcDbSpline
210
0.0
220
0.0
230
1.0
 70
     8
 71
     3
 72
    12
 73
     8
 74
     0
 42
0.00000001
 43
0.00000001
 40
0.0
 40
0.0
 40
0.0
 40
0.0
 40
0.2198609600791262
 40
0.4397396970008124
 40
0.6583291451397751
 40
0.8791239516843591
 40
1.0
 40
1.0
 40
1.0
 40
1.0
 10
221.5009375271676
 20
98.93397157409916
 30
0.0
 10
221.4902655325235
 20
98.98445979022705
 30
0.0
 10
221.4689206803519
 20
99.08544030470401
 30
0.0
 10
221.3408022850849
 20
99.21710329765405
 30
0.0
 10
221.1578643490199
 20
99.31466462042711
 30
0.0
 10
220.9663151771327
 20
99.36132401190385
 30
0.0
 10
220.8445095054477
 20
99.36547715890518
 30
0.0
 10
220.8014171900035
 20
99.36694645600926
 30
0.0
  0
SPLINE
  5
1C7
330
1F
100
AcDbEntity
  8
0
  6
Continuous
 62
     7
370
    25
100
AcDbSpline
210
0.0
220
0.0
230
1.0
 70
     8
 71
     3
 72
    12
 73
     8
 74
     0
 42
0.00000001
 43
0.00000001
 40
0.0
 40
0.0
 40
0.0
 40
0.0
 40
0.2198610998683207
 40
0.4397399767664978
 40
0.6583294271823329
 40
0.8791242261983195
 40
1.0
 40
1.0
 40
1.0
 40
1.0
 10
219.0613690167556
 20
99.36694645600927
 30
0.0
 10
218.9826781070365
 20
99.36212266265964
 30
0.0
 10
218.8252899249872
 20
99.35247468592907
 30
0.0
 10
218.6160081765022
 20
99.27530054826732
 30
0.0
 10
218.4573588558378
 20
99.16143303905518
 30
0.0
 10
218.3772587931226
 20
99.03995246955155
 30
0.0
 10
218.3658757558209
 20
98.96166722630707
 30
0.0
 10
218.3618486795915
 20
98.93397157409917
 30
0.0
  0
LINE
  5
1C8
330
1F
100
AcDbEntity
  8
0
  6
Continuous
 62
     7
370
    25
100
AcDbLine
 10
220.937475213
 20
99.8749433369
 30
0.0
 11
220.8099855555
 21
99.8998777152
 31
0.0
  0
ELLIPSE
  5
1C9
330
1F
100
AcDbEntity
  8
0
  6
Continuous
 62
     7
370
    25
100
AcDbEllipse
 10
221.530461811
 20
98.418201579
 30
0.0
 11
-0.02097028290364733
 21
0.7999998117962832
 31
0.0
210
0.0
220
0.0
230
0.9999999999999999
 40
0.0261679535
 41
6.282499370390492
 42
7.152648581237397
  0
ELLIPSE
  5
1CA
330
1F
100
AcDbEntity
  8
0
  6
Continuous
 62
     7
370
    25
100
AcDbEllipse
 10
218.3323243957
 20
98.418201579
 30
0.0
 11
0.02097028290367575
 21
0.7999998117962832
 31
0.0
210
0.0
220
0.0
230
1.0
 40
0.0261679535
 41
5.413722033121691
 42
6.283871243969204
  0
SPLINE
  5
1CB
330
1F
100
AcDbEntity
  8
0
  6
Continuous
 62
     7
370
    25
100
AcDbSpline
210
0.0
220
0.0
230
1.0
 70
     8
 71
     3
 72
    11
 73
     7
 74
     0
 42
0.00000001
 43
0.00000001
 40
0.0
 40
0.0
 40
0.0
 40
0.0
 40
0.2500000000000016
 40
0.5000000000000038
 40
0.7500000000000011
 40
1.0
 40
1.0
 40
1.0
 40
1.0
 10
218.3532803140661
 20
99.21820157898419
 30
0.0
 10
218.3658008302887
 20
99.3081006261112
 30
0.0
 10
218.3908418627338
 20
99.48789872036521
 30
0.0
 10
218.5534853323564
 20
99.71261492960018
 30
0.0
 10
218.7823050684109
 20
99.86937601462968
 30
0.0
 10
218.9626354569571
 20
99.88971048165568
 30
0.0
 10
219.0528006512302
 20
99.89987771516867
 30
0.0
  0
LINE
  5
1CC
330
1F
100
AcDbEntity
  8
0
  6
Continuous
 62
     7
370
    25
100
AcDbLine
 10
221.7159792441
 20
90.4390997976
 30
0.0
 11
221.7176337658
 21
90.4391431376
 31
0.0
  0
LINE
  5
1CD
330
1F
100
AcDbEntity
  8
0
  6
Continuous
 62
     7
370
    25
100
AcDbLine
 10
218.1468069627
 20
90.4390997976
 30
0.0
 11
218.145152441
 21
90.4391431376
 31
0.0
  0
SPLINE
  5
1CE
330
1F
100
AcDbEntity
  8
0
  6
Continuous
 62
     7
370
    25
100
AcDbSpline
210
0.0
220
0.0
230
1.0
 70
     8
 71
     3
 72
     9
 73
     5
 74
     0
 42
0.00000001
 43
0.00000001
 40
0.0
 40
0.0
 40
0.0
 40
0.0
 40
0.5600012771711204
 40
1.0
 40
1.0
 40
1.0
 40
1.0
 10
217.5788151608824
 20
90.4391431376305
 30
0.0
 10
217.5906495732275
 20
91.36819277705867
 30
0.0
 10
217.6117824042182
 20
93.0272062066732
 30
0.0
 10
217.6327431336307
 20
94.68398544183977
 30
0.0
 10
217.6419658278017
 20
95.41296618932249
 30
0.0
  0
SPLINE
  5
1CF
330
1F
100
AcDbEntity
  8
0
  6
Continuous
 62
     7
370
    25
100
AcDbSpline
210
0.0
220
0.0
230
1.0
 70
     8
 71
     3
 72
     9
 73
     5
 74
     0
 42
0.00000001
 43
0.00000001
 40
0.0
 40
0.0
 40
0.0
 40
0.0
 40
0.5599999095971008
 40
1.0
 40
1.0
 40
1.0
 40
1.0
 10
217.6419658278017
 20
95.41296618932249
 30
0.0
 10
217.644263237699
 20
95.5947679040713
 30
0.0
 10
217.6483657560349
 20
95.91941387567442
 30
0.0
 10
217.6524621492279
 20
96.24398008122893
 30
0.0
 10
217.6542645626032
 20
96.38678924101463
 30
0.0
  0
LINE
  5
1D0
330
1F
100
AcDbEntity
  8
0
  6
Continuous
 62
     7
370
    25
100
AcDbLine
 10
217.6542645626
 20
96.386789241
 30
0.0
 11
217.3259364333
 21
96.386789241
 31
0.0
  0
LINE
  5
1D1
330
1F
100
AcDbEntity
  8
0
  6
Continuous
 62
     7
370
    25
100
AcDbLine
 10
217.3259364333
 20
96.386789241
 30
0.0
 11
217.4557123464
 21
99.218201579
 31
0.0
  0
LINE
  5
1D2
330
1F
100
AcDbEntity
  8
0
  6
Continuous
 62
     7
370
    25
100
AcDbLine
 10
217.4557123464
 20
99.218201579
 30
0.0
 11
218.3532803141
 21
99.218201579
 31
0.0
  0
LINE
  5
1D3
330
1F
100
AcDbEntity
  8
0
  6
Continuous
 62
     7
370
    25
100
AcDbLine
 10
218.3618486796
 20
98.9339715741
 30
0.0
 11
218.145152441
 21
90.4391431376
 31
0.0
  0
LINE
  5
1D4
330
1F
100
AcDbEntity
  8
0
  6
Continuous
 62
     7
370
    25
100
AcDbLine
 10
222.5368497735
 20
96.386789241
 30
0.0
 11
222.2085216442
 21
96.386789241
 31
0.0
  0
SPLINE
  5
1D5
330
1F
100
AcDbEntity
  8
0
  6
Continuous
 62
     7
370
    25
100
AcDbSpline
210
0.0
220
0.0
230
1.0
 70
     8
 71
     3
 72
     9
 73
     5
 74
     0
 42
0.00000001
 43
0.00000001
 40
0.0
 40
0.0
 40
0.0
 40
0.0
 40
0.5600000882143287
 40
1.0
 40
1.0
 40
1.0
 40
1.0
 10
222.208521644156
 20
96.38678924101463
 30
0.0
 10
222.210815760297
 20
96.20503037018284
 30
0.0
 10
222.2149123956179
 20
95.8804610091112
 30
0.0
 10
222.2190151620772
 20
95.55581180881437
 30
0.0
 10
222.2208203789574
 20
95.41296618932249
 30
0.0
  0
SPLINE
  5
1D6
330
1F
100
AcDbEntity
  8
0
  6
Continuous
 62
     7
370
    25
100
AcDbSpline
210
0.0
220
0.0
230
1.0
 70
     8
 71
     3
 72
     9
 73
     5
 74
     0
 42
0.00000001
 43
0.00000001
 40
0.0
 40
0.0
 40
0.0
 40
0.0
 40
0.5599987526606142
 40
1.0
 40
1.0
 40
1.0
 40
1.0
 10
222.2208203789574
 20
95.41296618932249
 30
0.0
 10
222.2325619654798
 20
94.48512488947317
 30
0.0
 10
222.2535291309718
 20
92.8282617349732
 30
0.0
 10
222.2746693313439
 20
91.16915303506272
 30
0.0
 10
222.2839710458767
 20
90.4391431376305
 30
0.0
  0
LINE
  5
1D7
330
1F
100
AcDbEntity
  8
0
  6
Continuous
 62
     7
370
    25
100
AcDbLine
 10
221.7176337658
 20
90.4391431376
 30
0.0
 11
221.5009375272
 21
98.9339715741
 31
0.0
  0
LINE
  5
1D8
330
1F
100
AcDbEntity
  8
0
  6
Continuous
 62
     7
370
    25
100
AcDbLine
 10
221.5095058927
 20
99.218201579
 30
0.0
 11
222.4070738603
 21
99.218201579
 31
0.0
  0
LINE
  5
1D9
330
1F
100
AcDbEntity
  8
0
  6
Continuous
 62
     7
370
    25
100
AcDbLine
 10
222.4070738603
 20
99.218201579
 30
0.0
 11
222.5368497735
 21
96.386789241
 31
0.0
  0
LINE
  5
1DA
330
1F
100
AcDbEntity
  8
0
  6
Continuous
 62
     7
370
    25
100
AcDbLine
 10
219.0528006512
 20
99.8998777152
 30
0.0
 11
218.1552326836
 21
99.8998777152
 31
0.0
  0
SPLINE
  5
1DB
330
1F
100
AcDbEntity
  8
0
  6
Continuous
 62
     7
370
    25
100
AcDbSpline
210
0.0
220
0.0
230
1.0
 70
     8
 71
     3
 72
    11
 73
     7
 74
     0
 42
0.00000001
 43
0.00000001
 40
0.0
 40
0.0
 40
0.0
 40
0.0
 40
0.2500000000000036
 40
0.500000000000002
 40
0.7500000000000007
 40
1.0
 40
1.0
 40
1.0
 40
1.0
 10
217.4557123464469
 20
99.21820157898419
 30
0.0
 10
217.4682328626695
 20
99.3081006261112
 30
0.0
 10
217.4932738951147
 20
99.48789872036524
 30
0.0
 10
217.6559173647372
 20
99.71261492960018
 30
0.0
 10
217.8847371007917
 20
99.86937601462968
 30
0.0
 10
218.0650674893379
 20
99.88971048165568
 30
0.0
 10
218.155232683611
 20
99.89987771516867
 30
0.0
  0
LINE
  5
1DC
330
1F
100
AcDbEntity
  8
0
  6
Continuous
 62
     7
370
    25
100
AcDbLine
 10
221.7075535231
 20
99.8998777152
 30
0.0
 11
220.8099855555
 21
99.8998777152
 31
0.0
  0
SPLINE
  5
1DD
330
1F
100
AcDbEntity
  8
0
  6
Continuous
 62
     7
370
    25
100
AcDbSpline
210
0.0
220
0.0
230
1.0
 70
     8
 71
     3
 72
    11
 73
     7
 74
     0
 42
0.00000001
 43
0.00000001
 40
0.0
 40
0.0
 40
0.0
 40
0.0
 40
0.2499999999999998
 40
0.4999999999999991
 40
0.7500000000000027
 40
1.0
 40
1.0
 40
1.0
 40
1.0
 10
221.7075535231481
 20
99.89987771516867
 30
0.0
 10
221.7977187174212
 20
99.88971048165568
 30
0.0
 10
221.9780491059674
 20
99.86937601462965
 30
0.0
 10
222.2068688420219
 20
99.71261492960019
 30
0.0
 10
222.3695123116445
 20
99.48789872036522
 30
0.0
 10
222.3945533440896
 20
99.30810062611118
 30
0.0
 10
222.4070738603122
 20
99.21820157898419
 30
0.0
  0
LINE
  5
1DE
330
1F
100
AcDbEntity
  8
0
  6
Continuous
 62
     7
370
    25
100
AcDbLine
 10
217.0664446912
 20
95.8998777152
 30
0.0
 11
216.8323495574
 21
95.8998777152
 31
0.0
  0
SPLINE
  5
1DF
330
1F
100
AcDbEntity
  8
0
  6
Continuous
 62
     7
370
    25
100
AcDbSpline
210
0.0
220
0.0
230
1.0
 70
     8
 71
     3
 72
    10
 73
     6
 74
     0
 42
0.00000001
 43
0.00000001
 40
0.0
 40
0.0
 40
0.0
 40
0.0
 40
0.2383396858856108
 40
0.571650633368965
 40
1.0
 40
1.0
 40
1.0
 40
1.0
 10
217.0728706613248
 20
95.89987771516859
 30
0.0
 10
217.1474688637517
 20
95.90883645808823
 30
0.0
 10
217.3263904290256
 20
95.93032373598398
 30
0.0
 10
217.5627345412806
 20
96.10398611893704
 30
0.0
 10
217.6213179174661
 20
96.28499297819164
 30
0.0
 10
217.6542645626032
 20
96.38678924101482
 30
0.0
  0
SPLINE
  5
1E0
330
1F
100
AcDbEntity
  8
0
  6
Continuous
 62
     7
370
    25
100
AcDbSpline
210
0.0
220
0.0
230
1.0
 70
     8
 71
     3
 72
    11
 73
     7
 74
     0
 42
0.00000001
 43
0.00000001
 40
0.0
 40
0.0
 40
0.0
 40
0.0
 40
0.2506671725023491
 40
0.5010414677145718
 40
0.7508849997170934
 40
1.0
 40
1.0
 40
1.0
 40
1.0
 10
217.5788151608824
 20
90.4391431376305
 30
0.0
 10
217.5519405942273
 20
90.46864915762967
 30
0.0
 10
217.4982228609211
 20
90.52762672305727
 30
0.0
 10
217.2127573972672
 20
90.614359991869
 30
0.0
 10
216.7912292506475
 20
90.6986810220955
 30
0.0
 10
216.3748721729505
 20
90.75126401471006
 30
0.0
 10
216.166997596574
 20
90.7775171226789
 30
0.0
  0
SPLINE
  5
1E1
330
1F
100
AcDbEntity
  8
0
  6
Continuous
 62
     7
370
    25
100
AcDbSpline
210
0.0
220
0.0
230
1.0
 70
     8
 71
     3
 72
     9
 73
     5
 74
     0
 42
0.00000001
 43
0.00000001
 40
0.0
 40
0.0
 40
0.0
 40
0.0
 40
0.501325902198991
 40
1.0
 40
1.0
 40
1.0
 40
1.0
 10
216.1669975432099
 20
90.77751688839167
 30
0.0
 10
216.0419548857398
 20
90.78893873550429
 30
0.0
 10
215.7925309941722
 20
90.81172201293424
 30
0.0
 10
215.490762885751
 20
90.80878405902675
 30
0.0
 10
215.3402789465389
 20
90.80731897751255
 30
0.0
  0
LINE
  5
1E2
330
1F
100
AcDbEntity
  8
0
  6
Continuous
 62
     7
370
    25
100
AcDbLine
 10
215.2255125072
 20
94.3999887211
 30
0.0
 11
215.3402877147
 21
90.8074186345
 31
0.0
  0
SPLINE
  5
1E3
330
1F
100
AcDbEntity
  8
0
  6
Continuous
 62
     7
370
    25
100
AcDbSpline
210
0.0
220
0.0
230
1.0
 70
     8
 71
     3
 72
    14
 73
    10
 74
     0
 42
0.00000001
 43
0.00000001
 40
0.0
 40
0.0
 40
0.0
 40
0.0
 40
0.0829413618596714
 40
0.1664594845668899
 40
0.2437726390188662
 40
0.3161479456895724
 40
0.435372571819233
 40
0.6486290670514198
 40
1.0
 40
1.0
 40
1.0
 40
1.0
 10
215.2255125120422
 20
94.39998870842938
 30
0.0
 10
215.2273277016246
 20
94.48985261601925
 30
0.0
 10
215.2309707033249
 20
94.67020533031257
 30
0.0
 10
215.3126318358125
 20
94.95809004109849
 30
0.0
 10
215.4459153160973
 20
95.20961606852522
 30
0.0
 10
215.6342417723349
 20
95.44356539842622
 30
0.0
 10
215.9325088519972
 20
95.68437636893424
 30
0.0
 10
216.3905360107825
 20
95.87631797217362
 30
0.0
 10
216.6628715394604
 20
95.89083127579649
 30
0.0
 10
216.8323475231102
 20
95.8998629890637
 30
0.0
  0
LINE
  5
1E4
330
1F
100
AcDbEntity
  8
0
  6
Continuous
 62
     7
370
    25
100
AcDbLine
 10
224.522498492
 20
90.8074186345
 30
0.0
 11
224.6372736995
 21
94.3999887211
 31
0.0
  0
SPLINE
  5
1E5
330
1F
100
AcDbEntity
  8
0
  6
Continuous
 62
     7
370
    25
100
AcDbSpline
210
0.0
220
0.0
230
1.0
 70
     8
 71
     3
 72
     9
 73
     5
 74
     0
 42
0.00000001
 43
0.00000001
 40
0.0
 40
0.0
 40
0.0
 40
0.0
 40
0.4986740982738613
 40
1.0
 40
1.0
 40
1.0
 40
1.0
 10
224.5225074420555
 20
90.80731814810936
 30
0.0
 10
224.3720235057764
 20
90.80878322736602
 30
0.0
 10
224.0702554035231
 20
90.8117211767436
 30
0.0
 10
223.8208315119008
 20
90.7889378978119
 30
0.0
 10
223.6957888545212
 20
90.7775160499572
 30
0.0
  0
SPLINE
  5
1E6
330
1F
100
AcDbEntity
  8
0
  6
Continuous
 62
     7
370
    25
100
AcDbSpline
210
0.0
220
0.0
230
1.0
 70
     8
 71
     3
 72
    11
 73
     7
 74
     0
 42
0.00000001
 43
0.00000001
 40
0.0
 40
0.0
 40
0.0
 40
0.0
 40
0.249115000282908
 40
0.4989585322854288
 40
0.749332827497652
 40
1.0
 40
1.0
 40
1.0
 40
1.0
 10
223.6957886101851
 20
90.7775171226789
 30
0.0
 10
223.4879140338086
 20
90.75126401471007
 30
0.0
 10
223.0715569561116
 20
90.69868102209549
 30
0.0
 10
222.6500288094919
 20
90.61435999186898
 30
0.0
 10
222.364563345838
 20
90.52762672305725
 30
0.0
 10
222.3108456125318
 20
90.46864915762967
 30
0.0
 10
222.2839710458767
 20
90.4391431376305
 30
0.0
  0
SPLINE
  5
1E7
330
1F
100
AcDbEntity
  8
0
  6
Continuous
 62
     7
370
    25
100
AcDbSpline
210
0.0
220
0.0
230
1.0
 70
     8
 71
     3
 72
    10
 73
     6
 74
     0
 42
0.00000001
 43
0.00000001
 40
0.0
 40
0.0
 40
0.0
 40
0.0
 40
0.4283493666310629
 40
0.7616603141144171
 40
1.0
 40
1.0
 40
1.0
 40
1.0
 10
222.208521644156
 20
96.38678924101482
 30
0.0
 10
222.2414682892931
 20
96.28499297819167
 30
0.0
 10
222.3000516654785
 20
96.10398611893714
 30
0.0
 10
222.5363957777334
 20
95.930323735984
 30
0.0
 10
222.7153173430073
 20
95.90883645808825
 30
0.0
 10
222.7899155454342
 20
95.89987771516859
 30
0.0
  0
LINE
  5
1E8
330
1F
100
AcDbEntity
  8
0
  6
Continuous
 62
     7
370
    25
100
AcDbLine
 10
222.7963415158
 20
95.8998777152
 30
0.0
 11
223.0304366496
 21
95.8998777152
 31
0.0
  0
SPLINE
  5
1E9
330
1F
100
AcDbEntity
  8
0
  6
Continuous
 62
     7
370
    25
100
AcDbSpline
210
0.0
220
0.0
230
1.0
 70
     8
 71
     3
 72
    15
 73
    11
 74
     0
 42
0.00000001
 43
0.00000001
 40
0.0
 40
0.0
 40
0.0
 40
0.0
 40
0.2091652517822445
 40
0.4176299509274904
 40
0.5931463878153089
 40
0.6923603779431111
 40
0.7731125739307013
 40
0.8543366880968447
 40
0.9261517123972135
 40
1.0
 40
1.0
 40
1.0
 40
1.0
 10
223.0304386838804
 20
95.89986298906267
 30
0.0
 10
223.1281363163698
 20
95.89677149856419
 30
0.0
 10
223.3232043647891
 20
95.89059887182925
 30
0.0
 10
223.6724842181416
 20
95.80032541201906
 30
0.0
 10
224.0053744050851
 20
95.63171895991566
 30
0.0
 10
224.266992491121
 20
95.40227025186267
 30
0.0
 10
224.4475865040348
 20
95.16449120860636
 30
0.0
 10
224.5696806673451
 20
94.90257471176784
 30
0.0
 10
224.6337306566636
 20
94.63703313702989
 30
0.0
 10
224.6360817427015
 20
94.47973540600829
 30
0.0
 10
224.637273694715
 20
94.39998870844954
 30
0.0
  0
SPLINE
  5
1EA
330
1F
100
AcDbEntity
  8
0
  6
Continuous
 62
     7
370
    25
100
AcDbSpline
210
0.0
220
0.0
230
1.0
 70
     8
 71
     3
 72
    11
 73
     7
 74
     0
 42
0.00000001
 43
0.00000001
 40
0.0
 40
0.0
 40
0.0
 40
0.0
 40
0.2795638428304251
 40
0.5590315778757562
 40
0.7794196683313492
 40
1.0
 40
1.0
 40
1.0
 40
1.0
 10
216.166997596574
 20
90.7775171226789
 30
0.0
 10
216.1432484204471
 20
90.52025151249805
 30
0.0
 10
216.0957582326279
 20
90.00580873428873
 30
0.0
 10
216.4314453140461
 20
89.3632945350496
 30
0.0
 10
216.9101602033095
 20
88.97162123385564
 30
0.0
 10
217.2620457739788
 20
88.92379917077768
 30
0.0
 10
217.4380652619814
 20
88.89987771516867
 30
0.0
  0
SPLINE
  5
1EB
330
1F
100
AcDbEntity
  8
0
  6
Continuous
 62
     7
370
    25
100
AcDbSpline
210
0.0
220
0.0
230
1.0
 70
    24
 71
     3
 72
    11
 73
     7
 74
     0
 42
0.00000001
 43
0.00000001
 40
0.0
 40
0.0
 40
0.0
 40
0.0
 40
0.2799317596299056
 40
0.5599103390525025
 40
0.7799480709991914
 40
1.0
 40
1.0
 40
1.0
 40
1.0
 10
217.4380652619814
 20
88.89987771516867
 30
0.0
 10
217.705633219421
 20
88.89987771516867
 30
0.0
 10
218.2408138861935
 20
88.89987771516867
 30
0.0
 10
218.714680679856
 20
88.89987771516866
 30
0.0
 10
218.9999304374047
 20
88.89987771516869
 30
0.0
 10
219.0518344623019
 20
88.89987771516867
 30
0.0
 10
219.0777873119484
 20
88.89987771516867
 30
0.0
  0
SPLINE
  5
1EC
330
1F
100
AcDbEntity
  8
0
  6
Continuous
 62
     7
370
    25
100
AcDbSpline
210
0.0
220
0.0
230
1.0
 70
     8
 71
     3
 72
    11
 73
     7
 74
     0
 42
0.00000001
 43
0.00000001
 40
0.0
 40
0.0
 40
0.0
 40
0.0
 40
0.2795638428677817
 40
0.5590315779132448
 40
0.7794196683689383
 40
0.9999999999999999
 40
0.9999999999999999
 40
0.9999999999999999
 40
0.9999999999999999
 10
222.4247209447777
 20
88.89987771516867
 30
0.0
 10
222.6487013603439
 20
88.93839656711675
 30
0.0
 10
223.0965851919984
 20
89.0154210290896
 30
0.0
 10
223.5565254271038
 20
89.54821892687929
 30
0.0
 10
223.7678998680032
 20
90.17595549374568
 30
0.0
 10
223.7198326811238
 20
90.57693830991433
 30
0.0
 10
223.6957886101851
 20
90.77751712267892
 30
0.0
  0
SPLINE
  5
1ED
330
1F
100
AcDbEntity
  8
0
  6
Continuous
 62
     7
370
    25
100
AcDbSpline
210
0.0
220
0.0
230
1.0
 70
    24
 71
     3
 72
    11
 73
     7
 74
     0
 42
0.00000001
 43
0.00000001
 40
0.0
 40
0.0
 40
0.0
 40
0.0
 40
0.2799857774483057
 40
0.5599458358671288
 40
0.779998565900937
 40
0.9999999999999999
 40
0.9999999999999999
 40
0.9999999999999999
 40
0.9999999999999999
 10
220.7849988948107
 20
88.89987771516867
 30
0.0
 10
220.8227526144186
 20
88.89987771516867
 30
0.0
 10
220.8982565856402
 20
88.89987771516867
 30
0.0
 10
221.2798097359491
 20
88.89987771516867
 30
0.0
 10
221.7832404177622
 20
88.89987771516867
 30
0.0
 10
222.2109107198995
 20
88.89987771516867
 30
0.0
 10
222.4247209447777
 20
88.89987771516867
 30
0.0
  0
SPLINE
  5
1EE
330
1F
100
AcDbEntity
  8
0
  6
Continuous
 62
     7
370
    25
100
AcDbSpline
210
0.0
220
0.0
230
1.0
 70
     8
 71
     3
 72
    11
 73
     7
 74
     0
 42
0.00000001
 43
0.00000001
 40
0.0
 40
0.0
 40
0.0
 40
0.0
 40
0.2500000000000002
 40
0.5000000000000003
 40
0.7499999999999994
 40
1.0
 40
1.0
 40
1.0
 40
1.0
 10
223.0365071571841
 20
95.89987771516866
 30
0.0
 10
222.972103446989
 20
95.9071400248208
 30
0.0
 10
222.8432960265989
 20
95.92166464412509
 30
0.0
 10
222.6798533579885
 20
96.0336368477176
 30
0.0
 10
222.5636794511153
 20
96.19414842574255
 30
0.0
 10
222.5457929993688
 20
96.322575635924
 30
0.0
 10
222.5368497734955
 20
96.38678924101472
 30
0.0
  0
SPLINE
  5
1EF
330
1F
100
AcDbEntity
  8
0
  6
Continuous
 62
     7
370
    25
100
AcDbSpline
210
0.0
220
0.0
230
1.0
 70
     8
 71
     3
 72
    11
 73
     7
 74
     0
 42
0.00000001
 43
0.00000001
 40
0.0
 40
0.0
 40
0.0
 40
0.0
 40
0.2499999999999932
 40
0.5000000000000011
 40
0.7499999999999978
 40
1.0
 40
1.0
 40
1.0
 40
1.0
 10
217.3259364332636
 20
96.38678924101472
 30
0.0
 10
217.3169932073904
 20
96.32257563592401
 30
0.0
 10
217.2991067556438
 20
96.19414842574255
 30
0.0
 10
217.1829328487706
 20
96.03363684771759
 30
0.0
 10
217.0194901801603
 20
95.9216646441251
 30
0.0
 10
216.8906827597701
 20
95.9071400248208
 30
0.0
 10
216.826279049575
 20
95.89987771516866
 30
0.0
  0
SPLINE
  5
1F0
330
1F
100
AcDbEntity
  8
0
  6
Continuous
 62
     7
370
    25
100
AcDbSpline
210
0.0
220
0.0
230
1.0
 70
     8
 71
     3
 72
     9
 73
     5
 74
     0
 42
0.00000001
 43
0.00000001
 40
0.0
 40
0.0
 40
0.0
 40
0.0
 40
0.5642319118445199
 40
1.0
 40
1.0
 40
1.0
 40
1.0
 10
215.2296780583802
 20
88.72442475401954
 30
0.0
 10
215.7051096696536
 20
88.77800672274685
 30
0.0
 10
216.547727042569
 20
88.87297116485394
 30
0.0
 10
217.1678398774741
 20
88.8917113433944
 30
0.0
 10
217.4380652619814
 20
88.89987771516867
 30
0.0
  0
SPLINE
  5
1F1
330
1F
100
AcDbEntity
  8
0
  6
Continuous
 62
     7
370
    25
100
AcDbSpline
210
0.0
220
0.0
230
1.0
 70
     8
 71
     3
 72
    13
 73
     9
 74
     0
 42
0.00000001
 43
0.00000001
 40
0.0
 40
0.0
 40
0.0
 40
0.0
 40
0.0926677825201017
 40
0.1856533156297215
 40
0.2733112842947874
 40
0.413548892575832
 40
0.6528449691515644
 40
1.0
 40
1.0
 40
1.0
 40
1.0
 10
215.340278044138
 20
90.80731822881788
 30
0.0
 10
215.3427127115891
 20
90.7130835116991
 30
0.0
 10
215.3475903947758
 20
90.52429095397561
 30
0.0
 10
215.3475159076297
 20
90.21108054975477
 30
0.0
 10
215.3411288505734
 20
89.86934641496168
 30
0.0
 10
215.3232142044766
 20
89.4524922580583
 30
0.0
 10
215.2861524637101
 20
88.96926361239544
 30
0.0
 10
215.2506776781564
 20
88.81546640204218
 30
0.0
 10
215.2296780583802
 20
88.72442475401955
 30
0.0
  0
SPLINE
  5
1F2
330
1F
100
AcDbEntity
  8
0
  6
Continuous
 62
     7
370
    25
100
AcDbSpline
210
0.0
220
0.0
230
1.0
 70
     8
 71
     3
 72
     9
 73
     5
 74
     0
 42
0.00000001
 43
0.00000001
 40
0.0
 40
0.0
 40
0.0
 40
0.0
 40
0.5551829690770672
 40
1.0
 40
1.0
 40
1.0
 40
1.0
 10
222.4247209447777
 20
88.89987771516867
 30
0.0
 10
222.7749754035258
 20
88.88687869467762
 30
0.0
 10
223.4058565332736
 20
88.86346475510258
 30
0.0
 10
224.2552731644725
 20
88.76723111575087
 30
0.0
 10
224.6331081483789
 20
88.72442475401954
 30
0.0
  0
SPLINE
  5
1F3
330
1F
100
AcDbEntity
  8
0
  6
Continuous
 62
     7
370
    25
100
AcDbSpline
210
0.0
220
0.0
230
1.0
 70
     8
 71
     3
 72
    13
 73
     9
 74
     0
 42
0.00000001
 43
0.00000001
 40
0.0
 40
0.0
 40
0.0
 40
0.0
 40
0.3327087167328941
 40
0.56286565595313
 40
0.6987124125384702
 40
0.8016200683166479
 40
0.9052998751809785
 40
1.0
 40
1.0
 40
1.0
 40
1.0
 10
224.6331081483789
 20
88.72442475401954
 30
0.0
 10
224.6129753244719
 20
88.8102103289377
 30
0.0
 10
224.5789152756523
 20
88.9553395409757
 30
0.0
 10
224.5428294242821
 20
89.40570623740298
 30
0.0
 10
224.5237907011933
 20
89.80544738600886
 30
0.0
 10
224.5155171672409
 20
90.16133963242042
 30
0.0
 10
224.5148409050505
 20
90.50877347945463
 30
0.0
 10
224.5200307158183
 20
90.71085235063373
 30
0.0
 10
224.5225081626211
 20
90.80731822881789
 30
0.0
  0
SPLINE
  5
1F4
330
1F
100
AcDbEntity
  8
0
  6
Continuous
 62
     7
370
    25
100
AcDbSpline
210
0.0
220
0.0
230
1.0
 70
     8
 71
     3
 72
    12
 73
     8
 74
     0
 42
0.00000001
 43
0.00000001
 40
0.0
 40
0.0
 40
0.0
 40
0.0
 40
0.1400616260904704
 40
0.2801585537946012
 40
0.5679381248107978
 40
0.7822341183891697
 40
1.0
 40
1.0
 40
1.0
 40
1.0
 10
217.6571705718747
 20
84.28776091409723
 30
0.0
 10
217.5683315507305
 20
84.60581964845592
 30
0.0
 10
217.3906311171497
 20
85.24201728178997
 30
0.0
 10
216.9162033199107
 20
86.35890232073231
 30
0.0
 10
216.3048049009888
 20
87.38787345623625
 30
0.0
 10
215.6302089736084
 20
88.23872370445898
 30
0.0
 10
215.3516735230296
 20
88.5296293587123
 30
0.0
 10
215.2112873389244
 20
88.67625031719493
 30
0.0
  0
ELLIPSE
  5
1F5
330
1F
100
AcDbEntity
  8
0
  6
Continuous
 62
     7
370
    25
100
AcDbEllipse
 10
215.3730721826
 20
69.8268704679
 30
0.0
 11
0.0
 21
19.07300724724768
 31
0.0
210
0.0
220
0.0
230
1.0
 40
0.0555555556
 41
0.1357435643136112
 42
0.1532827087060913
  0
ELLIPSE
  5
1F6
330
1F
100
AcDbEntity
  8
0
  6
Continuous
 62
     7
370
    25
100
AcDbEllipse
 10
224.4897140241
 20
69.8268704679
 30
0.0
 11
0.0
 21
19.07300724724768
 31
0.0
210
0.0
220
0.0
230
1.0
 40
0.0555555556
 41
6.129902598473734
 42
6.147441742866274
  0
SPLINE
  5
1F7
330
1F
100
AcDbEntity
  8
0
  6
Continuous
 62
     7
370
    25
100
AcDbSpline
210
0.0
220
0.0
230
1.0
 70
     8
 71
     3
 72
    12
 73
     8
 74
     0
 42
0.00000001
 43
0.00000001
 40
0.0
 40
0.0
 40
0.0
 40
0.0
 40
0.1374975366677113
 40
0.2750385788614215
 40
0.5575409445665217
 40
0.7769626822980096
 40
1.0
 40
1.0
 40
1.0
 40
1.0
 10
224.6514988678348
 20
88.67625031719493
 30
0.0
 10
224.5682229410725
 20
88.58993216282487
 30
0.0
 10
224.4016447382541
 20
88.4172685422012
 30
0.0
 10
223.938702170276
 20
87.88461009000474
 30
0.0
 10
223.3287415015393
 20
87.03669082513449
 30
0.0
 10
222.6511029206386
 20
85.77280214939674
 30
0.0
 10
222.3549181611786
 20
84.78546402572464
 30
0.0
 10
222.2056156359326
 20
84.28776091836481
 30
0.0
  0
LINE
  5
1F8
330
1F
100
AcDbEntity
  8
0
  6
Continuous
 62
     7
370
    25
100
AcDbLine
 10
217.6571705719
 20
84.2877609141
 30
0.0
 11
222.2056156359
 21
84.2877609184
 31
0.0
  0
LINE
  5
1F9
330
1F
100
AcDbEntity
  8
0
  6
Continuous
 62
     7
370
    25
100
AcDbLine
 10
214.7069641493
 20
94.3998777152
 30
0.0
 11
215.2255018167
 21
94.3998777152
 31
0.0
  0
ARC
  5
1FA
330
1F
100
AcDbEntity
  8
0
  6
Continuous
 62
     7
370
    25
100
AcDbCircle
 10
208.4313931034
 20
82.0217004335
 30
0.0
 40
9.499999999999995
100
AcDbArc
 50
44.4654416734
 51
48.6553876907
  0
LINE
  5
1FB
330
1F
100
AcDbEntity
  8
0
  6
Continuous
 62
     7
370
    25
100
AcDbLine
 10
214.7069641493
 20
89.1538255058
 30
0.0
 11
214.7069641493
 21
94.3998777152
 31
0.0
  0
LINE
  5
1FC
330
1F
100
AcDbEntity
  8
0
  6
Continuous
 62
     7
370
    25
100
AcDbLine
 10
225.1558220574
 20
94.3998777152
 30
0.0
 11
225.1558220574
 21
89.1538255058
 31
0.0
  0
ARC
  5
1FD
330
1F
100
AcDbEntity
  8
0
  6
Continuous
 62
     7
370
    25
100
AcDbCircle
 10
231.4313931034
 20
82.0217004335
 30
0.0
 40
9.499999999999993
100
AcDbArc
 50
131.3446123093
 51
135.5345583266
  0
LINE
  5
1FE
330
1F
100
AcDbEntity
  8
0
  6
Continuous
 62
     7
370
    25
100
AcDbLine
 10
224.6372843901
 20
94.3998777152
 30
0.0
 11
225.1558220574
 21
94.3998777152
 31
0.0
  0
ARC
  5
1FF
330
1F
100
AcDbEntity
  8
0
  6
Continuous
 62
     7
370
    25
100
AcDbCircle
 10
223.6569759022
 20
94.4010315613
 30
0.0
 40
1.498846599345437
100
AcDbArc
 50
359.9558924033
 51
89.9558243884
  0
LINE
  5
200
330
1F
100
AcDbEntity
  8
0
  6
Continuous
 62
     7
370
    25
100
AcDbLine
 10
223.6581315276
 20
95.8998777152
 30
0.0
 11
223.0239243452
 21
95.8998777152
 31
0.0
  0
ARC
  5
201
330
1F
100
AcDbEntity
  8
0
  6
Continuous
 62
     7
370
    25
100
AcDbCircle
 10
216.2058103046
 20
94.4010315613
 30
0.0
 40
1.498846599345494
100
AcDbArc
 50
90.0441756116
 51
180.0441075967
  0
LINE
  5
202
330
1F
100
AcDbEntity
  8
0
  6
Continuous
 62
     7
370
    25
100
AcDbLine
 10
216.8388618616
 20
95.8998777152
 30
0.0
 11
216.2046546792
 21
95.8998777152
 31
0.0
  0
LINE
  5
203
330
1F
100
AcDbEntity
  8
0
  6
Continuous
 62
     7
370
    25
100
AcDbLine
 10
217.3711889473
 20
96.3299469583
 30
0.0
 11
217.3259364333
 21
96.386789241
 31
0.0
  0
LINE
  5
204
330
1F
100
AcDbEntity
  8
0
  6
Continuous
 62
     7
370
    25
100
AcDbLine
 10
222.5368497735
 20
96.386789241
 30
0.0
 11
222.4915972595
 21
96.3299469583
 31
0.0
  0
ELLIPSE
  5
205
330
1F
100
AcDbEntity
  8
0
  6
Continuous
 62
     7
370
    25
100
AcDbEllipse
 10
220.9071418667
 20
99.1998777152
 30
0.0
 11
1.500207016110409
 21
0.0289403098264529
 31
0.0
210
0.0
220
0.0
230
1.0
 40
0.2796306798
 41
6.257897524076055
 42
6.352561004482508
  0
LINE
  5
206
330
1F
100
AcDbEntity
  8
0
  6
Continuous
 62
     7
370
    25
100
AcDbLine
 10
214.7147617908
 20
89.146923083
 30
0.0
 11
214.7069641493
 21
89.1538255058
 31
0.0
  0
LINE
  5
207
330
1F
100
AcDbEntity
  8
0
  6
Continuous
 62
     7
370
    25
100
AcDbLine
 10
225.1558220574
 20
89.1538255058
 30
0.0
 11
225.1480244159
 21
89.146923083
 31
0.0
  0
LINE
  5
208
330
1F
100
AcDbEntity
  8
0
  6
Continuous
 62
     7
370
    25
100
AcDbLine
 10
221.734620546
 20
84.2877609179
 30
0.0
 11
221.5135760465
 21
83.3011162497
 31
0.0
  0
SPLINE
  5
209
330
1F
100
AcDbEntity
  8
0
  6
Continuous
 62
     7
370
    25
100
AcDbSpline
210
0.0
220
0.0
230
1.0
 70
     8
 71
     3
 72
    10
 73
     6
 74
     0
 42
0.00000001
 43
0.00000001
 40
0.0
 40
0.0
 40
0.0
 40
0.0
 40
0.2746918501531821
 40
0.5573359346812419
 40
0.9999999999999999
 40
0.9999999999999999
 40
0.9999999999999999
 40
0.9999999999999999
 10
221.5135760465396
 20
83.30111624970576
 30
0.0
 10
221.2289552881853
 20
83.35434029286886
 30
0.0
 10
220.6514740986318
 20
83.46232919689817
 30
0.0
 10
219.5724561554651
 20
83.50411527013672
 30
0.0
 10
218.8128231110323
 20
83.3780533296062
 30
0.0
 10
218.3492101602195
 20
83.30111624970576
 30
0.0
  0
LINE
  5
20A
330
1F
100
AcDbEntity
  8
0
  6
Continuous
 62
     7
370
    25
100
AcDbLine
 10
218.3492101602
 20
83.3011162497
 30
0.0
 11
218.1339753744
 21
84.2877609145
 31
0.0
  0
LINE
  5
20B
330
1F
100
AcDbEntity
  8
0
  6
Continuous
 62
     7
370
    25
100
AcDbLine
 10
211.7513931034
 20
81.1998777152
 30
0.0
 11
220.9313931034
 21
81.1998777152
 31
0.0
  0
LWPOLYLINE
  5
20C
330
1F
100
AcDbEntity
  8
0
  6
Continuous
 62
     7
370
    25
100
AcDbPolyline
 90
        3
 70
   128
 43
0.0
 10
211.8127478962
 20
81.1998777152
 10
211.9062315724
 20
80.2721335258
 10
211.9487604387
 20
79.8501258557
  0
LINE
  5
20D
330
1F
100
AcDbEntity
  8
0
  6
Continuous
 62
     7
370
    25
100
AcDbLine
 10
220.9313931034
 20
79.8501258557
 30
0.0
 11
220.9313931034
 21
81.1998777152
 31
0.0
  0
LINE
  5
20E
330
1F
100
AcDbEntity
  8
0
  6
Continuous
 62
     7
370
    25
100
AcDbLine
 10
212.3727842126
 20
97.3998777152
 30
0.0
 11
217.3715677663
 21
97.3998777152
 31
0.0
  0
LINE
  5
20F
330
1F
100
AcDbEntity
  8
0
  6
Continuous
 62
     7
370
    25
100
AcDbLine
 10
222.4912184404
 20
97.3998777152
 30
0.0
 11
227.4900019941
 21
97.3998777152
 31
0.0
  0
SPLINE
  5
210
330
1F
100
AcDbEntity
  8
0
  6
Continuous
 62
     7
370
    25
100
AcDbSpline
210
0.0
220
0.0
230
1.0
 70
     8
 71
     3
 72
    12
 73
     8
 74
     0
 42
0.00000001
 43
0.00000001
 40
0.0
 40
0.0
 40
0.0
 40
0.0
 40
0.2271543139929676
 40
0.4542742953683988
 40
0.6823371405829727
 40
0.9121899191033226
 40
1.0
 40
1.0
 40
1.0
 40
1.0
 10
211.9487604387342
 20
79.85012585565818
 30
0.0
 10
211.9598643839325
 20
79.79500604876381
 30
0.0
 10
211.9820705960538
 20
79.68477476590755
 30
0.0
 10
212.0825668075923
 20
79.54492070631912
 30
0.0
 10
212.2200290824228
 20
79.44467231723355
 30
0.0
 10
212.3510026657789
 20
79.40374362665882
 30
0.0
 10
212.4288956495937
 20
79.4007149251695
 30
0.0
 10
212.4504272482912
 20
79.39987771516869
 30
0.0
  0
LINE
  5
211
330
1F
100
AcDbEntity
  8
0
  6
Continuous
 62
     7
370
    25
100
AcDbLine
 10
227.4788993223
 20
79.3998777152
 30
0.0
 11
220.9313931034
 21
79.3998777152
 31
0.0
  0
SPLINE
  5
212
330
1F
100
AcDbEntity
  8
0
  6
Continuous
 62
     7
370
    25
100
AcDbSpline
210
0.0
220
0.0
230
1.0
 70
    24
 71
     3
 72
    12
 73
     8
 74
     0
 42
0.00000001
 43
0.00000001
 40
0.0
 40
0.0
 40
0.0
 40
0.0
 40
0.2316347876629354
 40
0.4633066480819575
 40
0.6939442291381532
 40
0.9227406525226397
 40
1.0
 40
1.0
 40
1.0
 40
1.0
 10
220.9313931033795
 20
79.39987771516869
 30
0.0
 10
220.9313931033795
 20
79.40546718019894
 30
0.0
 10
220.9313931033795
 20
79.41664700484391
 30
0.0
 10
220.9313931033795
 20
79.5039700707996
 30
0.0
 10
220.9313931033795
 20
79.63228024458164
 30
0.0
 10
220.9313931033795
 20
79.75695967127945
 30
0.0
 10
220.9313931033795
 20
79.83134768003275
 30
0.0
 10
220.9313931033795
 20
79.85012585565818
 30
0.0
  0
SPLINE
  5
213
330
1F
100
AcDbEntity
  8
0
  6
Continuous
 62
     7
370
    25
100
AcDbSpline
210
0.0
220
0.0
230
1.0
 70
     8
 71
     3
 72
    11
 73
     7
 74
     0
 42
0.00000001
 43
0.00000001
 40
0.0
 40
0.0
 40
0.0
 40
0.0
 40
0.298199512551763
 40
0.5964325929955637
 40
0.8933636912282945
 40
1.0
 40
1.0
 40
1.0
 40
1.0
 10
214.0153133202799
 20
79.39987771516869
 30
0.0
 10
214.1313358118883
 20
79.4110744807743
 30
0.0
 10
214.3633938555908
 20
79.4334692723894
 30
0.0
 10
214.665297705759
 20
79.61281819853353
 30
0.0
 10
214.8652448341788
 20
79.8109648921028
 30
0.0
 10
214.9175676312376
 20
79.95858131395434
 30
0.0
 10
214.9313931033795
 20
79.99758662029751
 30
0.0
  0
LINE
  5
214
330
1F
100
AcDbEntity
  8
0
  6
Continuous
 62
     7
370
    25
100
AcDbLine
 10
214.9313931034
 20
79.3998777152
 30
0.0
 11
214.0153133203
 21
79.3998777152
 31
0.0
  0
LINE
  5
215
330
1F
100
AcDbEntity
  8
0
  6
Continuous
 62
     7
370
    25
100
AcDbLine
 10
212.4504272483
 20
79.3998777152
 30
0.0
 11
214.0153133203
 21
79.3998777152
 31
0.0
  0
LINE
  5
216
330
1F
100
AcDbEntity
  8
0
  6
Continuous
 62
     7
370
    25
100
AcDbLine
 10
219.1313931034
 20
80.8998777152
 30
0.0
 11
220.7313931034
 21
80.8998777152
 31
0.0
  0
LINE
  5
217
330
1F
100
AcDbEntity
  8
0
  6
Continuous
 62
     7
370
    25
100
AcDbLine
 10
211.6982470536
 20
73.3998777152
 30
0.0
 11
215.0107376304
 21
73.3998777152
 31
0.0
  0
LINE
  5
218
330
1F
100
AcDbEntity
  8
0
  6
Continuous
 62
     7
370
    25
100
AcDbLine
 10
224.8481392785
 20
73.3998777152
 30
0.0
 11
228.1645391532
 21
73.3998777152
 31
0.0
  0
SPLINE
  5
219
330
1F
100
AcDbEntity
  8
0
  6
Continuous
 62
     7
370
    25
100
AcDbSpline
210
0.0
220
0.0
230
1.0
 70
     8
 71
     3
 72
    11
 73
     7
 74
     0
 42
0.00000001
 43
0.00000001
 40
0.0
 40
0.0
 40
0.0
 40
0.0
 40
0.2843931288920326
 40
0.5687862577840596
 40
0.8531793866760866
 40
1.0
 40
1.0
 40
1.0
 40
1.0
 10
221.509505892693
 20
99.21820157898419
 30
0.0
 10
221.4970393690776
 20
99.30826419983264
 30
0.0
 10
221.4721063218468
 20
99.48838944152948
 30
0.0
 10
221.3086529631167
 20
99.71065204494315
 30
0.0
 10
221.1193110246104
 20
99.84995617808023
 30
0.0
 10
220.9836614736316
 20
99.86859660341969
 30
0.0
 10
220.9374752130327
 20
99.87494333686769
 30
0.0
  0
ELLIPSE
  5
21A
330
1F
100
AcDbEntity
  8
0
  6
Continuous
 62
     7
370
    25
100
AcDbEllipse
 10
218.95564434
 20
99.1998777152
 30
0.0
 11
1.500207016110408
 21
-0.02894030982646712
 31
0.0
210
0.0
220
0.0
230
1.0
 40
0.2796306798
 41
3.072248304391437
 42
3.166880436693457
  0
LINE
  5
21B
330
1F
100
AcDbEntity
  8
0
  6
Continuous
 62
     7
370
    25
100
AcDbLine
 10
214.7069641493
 20
94.3998777152
 30
0.0
 11
214.7046546792
 21
94.3998777152
 31
0.0
  0
LINE
  5
21C
330
1F
100
AcDbEntity
  8
0
  6
Continuous
 62
     7
370
    25
100
AcDbLine
 10
225.1581315276
 20
94.3998777152
 30
0.0
 11
225.1558220574
 21
94.3998777152
 31
0.0
  0
LINE
  5
21D
330
1F
100
AcDbEntity
  8
0
  6
Continuous
 62
     7
370
    25
100
AcDbLine
 10
214.7046546792
 20
89.2879533009
 30
0.0
 11
210.9425855448
 21
89.2879533009
 31
0.0
  0
LINE
  5
21E
330
1F
100
AcDbEntity
  8
0
  6
Continuous
 62
     7
370
    25
100
AcDbLine
 10
228.920200662
 20
89.2879533009
 30
0.0
 11
225.1581315276
 21
89.2879533009
 31
0.0
  0
LINE
  5
21F
330
1F
100
AcDbEntity
  8
0
  6
Continuous
 62
     7
370
    25
100
AcDbLine
 10
220.9313931034
 20
79.8501258557
 30
0.0
 11
227.9764179174
 21
79.8501258557
 31
0.0
  0
LINE
  5
220
330
1F
100
AcDbEntity
  8
0
  6
Continuous
 62
     7
370
    25
100
AcDbLine
 10
225.1581315276
 20
89.5114917545
 30
0.0
 11
228.9174413485
 21
89.5114917545
 31
0.0
  0
LINE
  5
221
330
1F
100
AcDbEntity
  8
0
  6
Continuous
 62
     7
370
    25
100
AcDbLine
 10
210.9453448583
 20
89.5114917545
 30
0.0
 11
214.7046546792
 21
89.5114917545
 31
0.0
  0
LINE
  5
222
330
1F
100
AcDbEntity
  8
0
  6
Continuous
 62
     7
370
    25
100
AcDbLine
 10
227.9861409325
 20
96.9618950825
 30
0.0
 11
222.5112930849
 21
96.9618950825
 31
0.0
  0
LINE
  5
223
330
1F
100
AcDbEntity
  8
0
  6
Continuous
 62
     7
370
    25
100
AcDbLine
 10
217.3514931218
 20
96.9618950825
 30
0.0
 11
211.8766452743
 21
96.9618950825
 31
0.0
  0
LINE
  5
224
330
1F
100
AcDbEntity
  8
0
  6
Continuous
 62
     7
370
    25
100
AcDbLine
 10
220.9313931034
 20
80.6998777152
 30
0.0
 11
218.9313931034
 21
80.6998777152
 31
0.0
  0
INSERT
  5
230
330
1F
100
AcDbEntity
  8
0
  6
Continuous
 62
     7
370
    18
100
AcDbBlockReference
  2
SW_CENTERMARKSYMBOL_0
 10
219.9313931034
 20
58.8998777152
 30
0.0
  0
LINE
  5
231
330
1F
100
AcDbEntity
  8
0
  6
Continuous
 62
     7
370
    25
100
AcDbLine
 10
105.2763249879
 20
130.217108686
 30
0.0
 11
111.7763249879
 21
130.217108686
 31
0.0
  0
LINE
  5
232
330
1F
100
AcDbEntity
  8
0
  6
Continuous
 62
     7
370
    25
100
AcDbLine
 10
111.7763249879
 20
150.717108686
 30
0.0
 11
105.2763249879
 21
150.717108686
 31
0.0
  0
LINE
  5
233
330
1F
100
AcDbEntity
  8
0
  6
Continuous
 62
     7
370
    25
100
AcDbLine
 10
105.2763249879
 20
150.717108686
 30
0.0
 11
100.2763249879
 21
149.717108686
 31
0.0
  0
LINE
  5
234
330
1F
100
AcDbEntity
  8
0
  6
Continuous
 62
     7
370
    25
100
AcDbLine
 10
100.2763249879
 20
131.217108686
 30
0.0
 11
105.2763249879
 21
130.217108686
 31
0.0
  0
LINE
  5
235
330
1F
100
AcDbEntity
  8
0
  6
Continuous
 62
     7
370
    25
100
AcDbLine
 10
85.2763249879
 20
150.717108686
 30
0.0
 11
78.3391821308
 21
149.8499658289
 31
0.0
  0
LINE
  5
236
330
1F
100
AcDbEntity
  8
0
  6
Continuous
 62
     7
370
    25
100
AcDbLine
 10
78.3391821308
 20
131.0842515432
 30
0.0
 11
85.2763249879
 21
130.217108686
 31
0.0
  0
LINE
  5
237
330
1F
100
AcDbEntity
  8
0
  6
Continuous
 62
     7
370
    25
100
AcDbLine
 10
90.2763249879
 20
150.717108686
 30
0.0
 11
85.2763249879
 21
149.717108686
 31
0.0
  0
LINE
  5
238
330
1F
100
AcDbEntity
  8
0
  6
Continuous
 62
     7
370
    25
100
AcDbLine
 10
85.2763249879
 20
131.217108686
 30
0.0
 11
90.2763249879
 21
130.217108686
 31
0.0
  0
LINE
  5
239
330
1F
100
AcDbEntity
  8
0
  6
Continuous
 62
     7
370
    25
100
AcDbLine
 10
95.2763249879
 20
150.717108686
 30
0.0
 11
90.2763249879
 21
149.717108686
 31
0.0
  0
LINE
  5
23A
330
1F
100
AcDbEntity
  8
0
  6
Continuous
 62
     7
370
    25
100
AcDbLine
 10
90.2763249879
 20
131.217108686
 30
0.0
 11
95.2763249879
 21
130.217108686
 31
0.0
  0
LINE
  5
23B
330
1F
100
AcDbEntity
  8
0
  6
Continuous
 62
     7
370
    25
100
AcDbLine
 10
100.2763249879
 20
150.717108686
 30
0.0
 11
95.2763249879
 21
149.717108686
 31
0.0
  0
LINE
  5
23C
330
1F
100
AcDbEntity
  8
0
  6
Continuous
 62
     7
370
    25
100
AcDbLine
 10
95.2763249879
 20
131.217108686
 30
0.0
 11
100.2763249879
 21
130.217108686
 31
0.0
  0
LINE
  5
23D
330
1F
100
AcDbEntity
  8
0
  6
Continuous
 62
     7
370
    25
100
AcDbLine
 10
78.3391821308
 20
149.8499658289
 30
0.0
 11
77.2763249879
 21
148.787108686
 31
0.0
  0
LINE
  5
23E
330
1F
100
AcDbEntity
  8
0
  6
Continuous
 62
     7
370
    25
100
AcDbLine
 10
77.2763249879
 20
132.147108686
 30
0.0
 11
78.3391821308
 21
131.0842515432
 31
0.0
  0
LINE
  5
23F
330
1F
100
AcDbEntity
  8
0
  6
Continuous
 62
     7
370
    25
100
AcDbLine
 10
113.9206625552
 20
155.467108686
 30
0.0
 11
113.7763249879
 21
155.217108686
 31
0.0
  0
LINE
  5
240
330
1F
100
AcDbEntity
  8
0
  6
Continuous
 62
     7
370
    25
100
AcDbLine
 10
113.7763249879
 20
125.717108686
 30
0.0
 11
113.9206625552
 21
125.467108686
 31
0.0
  0
LINE
  5
241
330
1F
100
AcDbEntity
  8
0
  6
Continuous
 62
     7
370
    25
100
AcDbLine
 10
127.1319874206
 20
125.467108686
 30
0.0
 11
127.2763249879
 21
125.717108686
 31
0.0
  0
LINE
  5
242
330
1F
100
AcDbEntity
  8
0
  6
Continuous
 62
     7
370
    25
100
AcDbLine
 10
127.2763249879
 20
155.217108686
 30
0.0
 11
127.1319874206
 21
155.467108686
 31
0.0
  0
LINE
  5
243
330
1F
100
AcDbEntity
  8
0
  6
Continuous
 62
     7
370
    25
100
AcDbLine
 10
113.7763249879
 20
155.217108686
 30
0.0
 11
112.2763249879
 21
155.217108686
 31
0.0
  0
LINE
  5
244
330
1F
100
AcDbEntity
  8
0
  6
Continuous
 62
     7
370
    25
100
AcDbLine
 10
112.2763249879
 20
125.717108686
 30
0.0
 11
113.7763249879
 21
125.717108686
 31
0.0
  0
LINE
  5
245
330
1F
100
AcDbEntity
  8
0
  6
Continuous
 62
     7
370
    25
100
AcDbLine
 10
127.2763249879
 20
125.717108686
 30
0.0
 11
128.7763249879
 21
125.717108686
 31
0.0
  0
LINE
  5
246
330
1F
100
AcDbEntity
  8
0
  6
Continuous
 62
     7
370
    25
100
AcDbLine
 10
128.7763249879
 20
155.217108686
 30
0.0
 11
127.2763249879
 21
155.217108686
 31
0.0
  0
LINE
  5
247
330
1F
100
AcDbEntity
  8
0
  6
Continuous
 62
     7
370
    25
100
AcDbLine
 10
112.2763249879
 20
155.217108686
 30
0.0
 11
111.7763249879
 21
154.717108686
 31
0.0
  0
LINE
  5
248
330
1F
100
AcDbEntity
  8
0
  6
Continuous
 62
     7
370
    25
100
AcDbLine
 10
111.7763249879
 20
126.217108686
 30
0.0
 11
112.2763249879
 21
125.717108686
 31
0.0
  0
LINE
  5
249
330
1F
100
AcDbEntity
  8
0
  6
Continuous
 62
     7
370
    25
100
AcDbLine
 10
128.7763249879
 20
125.717108686
 30
0.0
 11
129.2763249879
 21
126.217108686
 31
0.0
  0
LINE
  5
24A
330
1F
100
AcDbEntity
  8
0
  6
Continuous
 62
     7
370
    25
100
AcDbLine
 10
129.2763249879
 20
154.717108686
 30
0.0
 11
128.7763249879
 21
155.217108686
 31
0.0
  0
LINE
  5
24B
330
1F
100
AcDbEntity
  8
0
  6
Continuous
 62
     7
370
    25
100
AcDbLine
 10
138.4021580128
 20
153.967108686
 30
0.0
 11
135.4021580128
 21
153.967108686
 31
0.0
  0
LINE
  5
24C
330
1F
100
AcDbEntity
  8
0
  6
Continuous
 62
     7
370
    25
100
AcDbLine
 10
135.4021580128
 20
126.967108686
 30
0.0
 11
138.4021580128
 21
126.967108686
 31
0.0
  0
LINE
  5
24D
330
1F
100
AcDbEntity
  8
0
  6
Continuous
 62
     7
370
    25
100
AcDbLine
 10
131.9021580128
 20
153.687608686
 30
0.0
 11
129.2763249879
 21
153.687608686
 31
0.0
  0
LINE
  5
24E
330
1F
100
AcDbEntity
  8
0
  6
Continuous
 62
     7
370
    25
100
AcDbLine
 10
129.2763249879
 20
127.246608686
 30
0.0
 11
131.9021580128
 21
127.246608686
 31
0.0
  0
LINE
  5
24F
330
1F
100
AcDbEntity
  8
0
  6
Continuous
 62
     7
370
    25
100
AcDbLine
 10
131.9021580128
 20
127.246608686
 30
0.0
 11
132.9021580128
 21
128.246608686
 31
0.0
  0
LINE
  5
250
330
1F
100
AcDbEntity
  8
0
  6
Continuous
 62
     7
370
    25
100
AcDbLine
 10
132.9021580128
 20
152.687608686
 30
0.0
 11
131.9021580128
 21
153.687608686
 31
0.0
  0
LINE
  5
251
330
1F
100
AcDbEntity
  8
0
  6
Continuous
 62
     7
370
    25
100
AcDbLine
 10
135.4021580128
 20
151.967108686
 30
0.0
 11
132.9021580128
 21
151.967108686
 31
0.0
  0
LINE
  5
252
330
1F
100
AcDbEntity
  8
0
  6
Continuous
 62
     7
370
    25
100
AcDbLine
 10
132.9021580128
 20
128.967108686
 30
0.0
 11
135.4021580128
 21
128.967108686
 31
0.0
  0
LINE
  5
253
330
1F
100
AcDbEntity
  8
0
  6
Continuous
 62
     7
370
    25
100
AcDbLine
 10
164.4021580128
 20
127.044421186
 30
0.0
 11
177.7969816739
 21
127.4630094255
 31
0.0
  0
LINE
  5
254
330
1F
100
AcDbEntity
  8
0
  6
Continuous
 62
     7
370
    25
100
AcDbLine
 10
177.7969816739
 20
153.4712079466
 30
0.0
 11
164.4021580128
 21
153.889796186
 31
0.0
  0
LINE
  5
255
330
1F
100
AcDbEntity
  8
0
  6
Continuous
 62
     7
370
    25
100
AcDbLine
 10
177.7969816739
 20
127.4630094255
 30
0.0
 11
180.4021580128
 21
128.967108686
 31
0.0
  0
LINE
  5
256
330
1F
100
AcDbEntity
  8
0
  6
Continuous
 62
     7
370
    25
100
AcDbLine
 10
180.4021580128
 20
151.967108686
 30
0.0
 11
177.7969816739
 21
153.4712079466
 31
0.0
  0
LINE
  5
257
330
1F
100
AcDbEntity
  8
0
  6
Continuous
 62
     7
370
    25
100
AcDbLine
 10
100.8583326207
 20
139.5970796036
 30
0.0
 11
100.8757516111
 21
139.5970796036
 31
0.0
  0
LINE
  5
258
330
1F
100
AcDbEntity
  8
0
  6
Continuous
 62
     7
370
    25
100
AcDbLine
 10
129.4365056903
 20
145.0622670455
 30
0.0
 11
128.2442656334
 21
144.2682938071
 31
0.0
  0
LINE
  5
259
330
1F
100
AcDbEntity
  8
0
  6
Continuous
 62
     7
370
    25
100
AcDbLine
 10
128.2442655741
 20
136.6659234575
 30
0.0
 11
129.4408848462
 21
135.869033935
 31
0.0
  0
SPLINE
  5
25A
330
1F
100
AcDbEntity
  8
0
  6
Continuous
 62
     7
370
    25
100
AcDbSpline
210
0.0
220
0.0
230
1.0
 70
     8
 71
     3
 72
    11
 73
     7
 74
     0
 42
0.00000001
 43
0.00000001
 40
0.0
 40
0.0
 40
0.0
 40
0.0
 40
0.2485427336868735
 40
0.4982459407376401
 40
0.7488347621401439
 40
1.0
 40
1.0
 40
1.0
 40
1.0
 10
128.2441857913967
 20
144.268438523204
 30
0.0
 10
127.8229056483406
 20
144.0546732897488
 30
0.0
 10
126.9783783588986
 20
143.6261447294487
 30
0.0
 10
125.6217727916645
 20
143.1874507678354
 30
0.0
 10
124.2236756855381
 20
142.8865218233413
 30
0.0
 10
123.2723197865573
 20
142.8252411392286
 30
0.0
 10
122.796095376917
 20
142.7945655974622
 30
0.0
  0
SPLINE
  5
25B
330
1F
100
AcDbEntity
  8
0
  6
Continuous
 62
     7
370
    25
100
AcDbSpline
210
0.0
220
0.0
230
1.0
 70
     8
 71
     3
 72
    10
 73
     6
 74
     0
 42
0.00000001
 43
0.00000001
 40
0.0
 40
0.0
 40
0.0
 40
0.0
 40
0.0711023749285983
 40
0.5366329433438181
 40
1.0
 40
1.0
 40
1.0
 40
1.0
 10
125.4046707040534
 20
137.7672027288527
 30
0.0
 10
125.4756450964068
 20
137.75297637525
 30
0.0
 10
126.0113121132804
 20
137.6456054187312
 30
0.0
 10
126.9765873285643
 20
137.2991157190504
 30
0.0
 10
127.8223095659539
 20
136.8765630806919
 30
0.0
 10
128.2441857913967
 20
136.6657788488951
 30
0.0
  0
LINE
  5
25C
330
1F
100
AcDbEntity
  8
0
  6
Continuous
 62
     7
370
    25
100
AcDbLine
 10
122.7954241043
 20
142.8202004649
 30
0.0
 11
101.1410330745
 21
142.2531602798
 31
0.0
  0
LINE
  5
25D
330
1F
100
AcDbEntity
  8
0
  6
Continuous
 62
     7
370
    25
100
AcDbLine
 10
101.1410365931
 20
138.6810570002
 30
0.0
 11
122.7954241043
 21
138.1140169072
 31
0.0
  0
SPLINE
  5
25E
330
1F
100
AcDbEntity
  8
0
  6
Continuous
 62
     7
370
    25
100
AcDbSpline
210
0.0
220
0.0
230
1.0
 70
     8
 71
     3
 72
    12
 73
     8
 74
     0
 42
0.00000001
 43
0.00000001
 40
0.0
 40
0.0
 40
0.0
 40
0.0
 40
0.1252640682400586
 40
0.3474523293373311
 40
0.6316676814663759
 40
0.8541302633620106
 40
1.0
 40
1.0
 40
1.0
 40
1.0
 10
96.10234568105862
 20
139.3818885052797
 30
0.0
 10
96.11962567132619
 20
139.3459664240707
 30
0.0
 10
96.16755619884098
 20
139.2463272301177
 30
0.0
 10
96.30919037331503
 20
139.1052187139169
 30
0.0
 10
96.49896133986739
 20
138.988241110749
 30
0.0
 10
96.69410544441808
 20
138.9152915673774
 30
0.0
 10
96.81495886022934
 20
138.90735884862
 30
0.0
 10
96.86282013943061
 20
138.9042172736407
 30
0.0
  0
SPLINE
  5
25F
330
1F
100
AcDbEntity
  8
0
  6
Continuous
 62
     7
370
    25
100
AcDbSpline
210
0.0
220
0.0
230
1.0
 70
     8
 71
     3
 72
    12
 73
     8
 74
     0
 42
0.00000001
 43
0.00000001
 40
0.0
 40
0.0
 40
0.0
 40
0.0
 40
0.0692683154158604
 40
0.2375907639794045
 40
0.4632939087529152
 40
0.7800199396737244
 40
1.0
 40
1.0
 40
1.0
 40
1.0
 10
96.86262735682061
 20
142.0306588900407
 30
0.0
 10
96.83994422258039
 20
142.0305627419057
 30
0.0
 10
96.76214092736194
 20
142.0302329531888
 30
0.0
 10
96.61622216178662
 20
141.9901118364772
 30
0.0
 10
96.41512725342902
 20
141.9037733510295
 30
0.0
 10
96.22041781082785
 20
141.7623514008525
 30
0.0
 10
96.13655958767802
 20
141.6137700091965
 30
0.0
 10
96.10218856545897
 20
141.5528708615383
 30
0.0
  0
SPLINE
  5
260
330
1F
100
AcDbEntity
  8
0
  6
Continuous
 62
     7
370
    25
100
AcDbSpline
210
0.0
220
0.0
230
1.0
 70
     8
 71
     3
 72
    10
 73
     6
 74
     0
 42
0.00000001
 43
0.00000001
 40
0.0
 40
0.0
 40
0.0
 40
0.0
 40
0.2412338674947689
 40
0.6710099592589785
 40
1.0
 40
1.0
 40
1.0
 40
1.0
 10
96.09754503189559
 20
141.5555386248497
 30
0.0
 10
96.069146428609
 20
141.4907020601012
 30
0.0
 10
95.99015359964909
 20
141.3103543289879
 30
0.0
 10
95.9169204122364
 20
140.9943761129839
 30
0.0
 10
95.90662287592669
 20
140.739196483637
 30
0.0
 10
95.90215801284843
 20
140.6285542803826
 30
0.0
  0
SPLINE
  5
261
330
1F
100
AcDbEntity
  8
0
  6
Continuous
 62
     7
370
    25
100
AcDbSpline
210
0.0
220
0.0
230
1.0
 70
     8
 71
     3
 72
    10
 73
     6
 74
     0
 42
0.00000001
 43
0.00000001
 40
0.0
 40
0.0
 40
0.0
 40
0.0
 40
0.2152833290871411
 40
0.6290349153200545
 40
1.0
 40
1.0
 40
1.0
 40
1.0
 10
95.90215801284843
 20
140.3056630917164
 30
0.0
 10
95.90413349601532
 20
140.2333600152587
 30
0.0
 10
95.90990564703075
 20
140.0220981411053
 30
0.0
 10
95.96612506345915
 20
139.694891348967
 30
0.0
 10
96.0553602180541
 20
139.4801805958382
 30
0.0
 10
96.0975450318956
 20
139.3786787472493
 30
0.0
  0
LINE
  5
262
330
1F
100
AcDbEntity
  8
0
  6
Continuous
 62
     7
370
    25
100
AcDbLine
 10
95.9021580128
 20
140.6285542804
 30
0.0
 11
95.9021580128
 21
140.3056630917
 31
0.0
  0
ARC
  5
263
330
1F
100
AcDbEntity
  8
0
  6
Continuous
 62
     7
370
    25
100
AcDbCircle
 10
151.4021580128
 20
140.467108686
 30
0.0
 40
8.993770368365603
100
AcDbArc
 50
200.74536887
 51
90.0
  0
ARC
  5
264
330
1F
100
AcDbEntity
  8
0
  6
Continuous
 62
     7
370
    25
100
AcDbCircle
 10
151.4021580128
 20
140.467108686
 30
0.0
 40
8.993770368365603
100
AcDbArc
 50
90.0
 51
159.2624988338
  0
LINE
  5
265
330
1F
100
AcDbEntity
  8
0
  6
Continuous
 62
     7
370
    25
100
AcDbLine
 10
105.2763249879
 20
149.9404107616
 30
0.0
 11
105.2763249879
 21
150.717108686
 31
0.0
  0
LINE
  5
266
330
1F
100
AcDbEntity
  8
0
  6
Continuous
 62
     7
370
    25
100
AcDbLine
 10
105.2763249879
 20
130.217108686
 30
0.0
 11
105.2763249879
 21
138.5727706626
 31
0.0
  0
LINE
  5
267
330
1F
100
AcDbEntity
  8
0
  6
Continuous
 62
     7
370
    25
100
AcDbLine
 10
105.2763249879
 20
142.3614467095
 30
0.0
 11
105.2763249879
 21
149.9404107616
 31
0.0
  0
LINE
  5
268
330
1F
100
AcDbEntity
  8
0
  6
Continuous
 62
     7
370
    25
100
AcDbLine
 10
85.2763249879
 20
149.9404107616
 30
0.0
 11
85.2763249879
 21
150.717108686
 31
0.0
  0
LINE
  5
269
330
1F
100
AcDbEntity
  8
0
  6
Continuous
 62
     7
370
    25
100
AcDbLine
 10
85.2763249879
 20
130.217108686
 30
0.0
 11
85.2763249879
 21
149.9404107616
 31
0.0
  0
LINE
  5
26A
330
1F
100
AcDbEntity
  8
0
  6
Continuous
 62
     7
370
    25
100
AcDbLine
 10
78.3391821308
 20
149.1389760076
 30
0.0
 11
78.3391821308
 21
131.0842515432
 31
0.0
  0
LINE
  5
26B
330
1F
100
AcDbEntity
  8
0
  6
Continuous
 62
     7
370
    25
100
AcDbLine
 10
78.3391821308
 20
149.8499658289
 30
0.0
 11
78.3391821308
 21
149.1389760076
 31
0.0
  0
LINE
  5
26C
330
1F
100
AcDbEntity
  8
0
  6
Continuous
 62
     7
370
    25
100
AcDbLine
 10
90.2763249879
 20
149.9404107616
 30
0.0
 11
90.2763249879
 21
150.717108686
 31
0.0
  0
LINE
  5
26D
330
1F
100
AcDbEntity
  8
0
  6
Continuous
 62
     7
370
    25
100
AcDbLine
 10
90.2763249879
 20
130.217108686
 30
0.0
 11
90.2763249879
 21
149.9404107616
 31
0.0
  0
LINE
  5
26E
330
1F
100
AcDbEntity
  8
0
  6
Continuous
 62
     7
370
    25
100
AcDbLine
 10
95.2763249879
 20
149.9404107616
 30
0.0
 11
95.2763249879
 21
150.717108686
 31
0.0
  0
LINE
  5
26F
330
1F
100
AcDbEntity
  8
0
  6
Continuous
 62
     7
370
    25
100
AcDbLine
 10
95.2763249879
 20
130.217108686
 30
0.0
 11
95.2763249879
 21
149.9404107616
 31
0.0
  0
LINE
  5
270
330
1F
100
AcDbEntity
  8
0
  6
Continuous
 62
     7
370
    25
100
AcDbLine
 10
100.2763249879
 20
149.9404107616
 30
0.0
 11
100.2763249879
 21
150.717108686
 31
0.0
  0
LINE
  5
271
330
1F
100
AcDbEntity
  8
0
  6
Continuous
 62
     7
370
    25
100
AcDbLine
 10
100.2763249879
 20
130.217108686
 30
0.0
 11
100.2763249879
 21
138.7224621948
 31
0.0
  0
LINE
  5
272
330
1F
100
AcDbEntity
  8
0
  6
Continuous
 62
     7
370
    25
100
AcDbLine
 10
100.2763249879
 20
142.2117551773
 30
0.0
 11
100.2763249879
 21
149.9404107616
 31
0.0
  0
LINE
  5
273
330
1F
100
AcDbEntity
  8
0
  6
Continuous
 62
     7
370
    25
100
AcDbLine
 10
77.2763249879
 20
148.1566572976
 30
0.0
 11
77.2763249879
 21
148.787108686
 31
0.0
  0
LINE
  5
274
330
1F
100
AcDbEntity
  8
0
  6
Continuous
 62
     7
370
    25
100
AcDbLine
 10
77.2763249879
 20
132.147108686
 30
0.0
 11
77.2763249879
 21
148.1566572976
 31
0.0
  0
SPLINE
  5
275
330
1F
100
AcDbEntity
  8
0
  6
Continuous
 62
     7
370
    25
100
AcDbSpline
210
0.0
220
0.0
230
1.0
 70
     8
 71
     3
 72
    14
 73
    10
 74
     0
 42
0.00000001
 43
0.00000001
 40
0.0
 40
0.0
 40
0.0
 40
0.0
 40
0.1669820389779105
 40
0.333916864084089
 40
0.5045862215057766
 40
0.6752247812333555
 40
0.8206023668770549
 40
0.9660026295847312
 40
1.0
 40
1.0
 40
1.0
 40
1.0
 10
125.7922414584756
 20
155.4671086860496
 30
0.0
 10
125.9961649146178
 20
154.8190445074401
 30
0.0
 10
126.4039541679111
 20
153.5230993892042
 30
0.0
 10
126.8431706752357
 20
151.5273710130689
 30
0.0
 10
127.1054738847713
 20
149.4943745856403
 30
0.0
 10
127.1632182574796
 20
147.533773966308
 30
0.0
 10
127.0100060267047
 20
145.6832499367879
 30
0.0
 10
126.8516803398509
 20
144.3798643623663
 30
0.0
 10
126.6561125141234
 20
143.6783387263002
 30
0.0
 10
126.6190507552984
 20
143.5453936785314
 30
0.0
  0
SPLINE
  5
276
330
1F
100
AcDbEntity
  8
0
  6
Continuous
 62
     7
370
    25
100
AcDbSpline
210
0.0
220
0.0
230
1.0
 70
     8
 71
     3
 72
    14
 73
    10
 74
     0
 42
0.00000001
 43
0.00000001
 40
0.0
 40
0.0
 40
0.0
 40
0.0
 40
0.1546435207562064
 40
0.3092433163345564
 40
0.4673016948190867
 40
0.6253315512908466
 40
0.7599669996336031
 40
0.8946234494028319
 40
1.0
 40
1.0
 40
1.0
 40
1.0
 10
115.2604085173816
 20
155.4671086860496
 30
0.0
 10
115.0564726686043
 20
154.8190423946748
 30
0.0
 10
114.6486586335447
 20
153.5230930515056
 30
0.0
 10
114.2096293347411
 20
151.5273965917195
 30
0.0
 10
113.9465994275584
 20
149.4942762728367
 30
0.0
 10
113.8914479942592
 20
147.5341177122278
 30
0.0
 10
114.0363474357011
 20
145.6821764721754
 30
0.0
 10
114.2613249424534
 20
144.063322960377
 30
0.0
 10
114.5560401276289
 20
143.0518694071438
 30
0.0
 10
114.685422627431
 20
142.607832602345
 30
0.0
  0
LINE
  5
277
330
1F
100
AcDbEntity
  8
0
  6
Continuous
 62
     7
370
    25
100
AcDbLine
 10
115.2604085174
 20
155.467108686
 30
0.0
 11
125.7922414585
 21
155.467108686
 31
0.0
  0
SPLINE
  5
278
330
1F
100
AcDbEntity
  8
0
  6
Continuous
 62
     7
370
    25
100
AcDbSpline
210
0.0
220
0.0
230
1.0
 70
     8
 71
     3
 72
    13
 73
     9
 74
     0
 42
0.00000001
 43
0.00000001
 40
0.0
 40
0.0
 40
0.0
 40
0.0
 40
0.1399238758459632
 40
0.2980933660537816
 40
0.4562343141984534
 40
0.5909644084361244
 40
0.7257155188638301
 40
1.0
 40
1.0
 40
1.0
 40
1.0
 10
114.6362681385005
 20
138.3276719253458
 30
0.0
 10
114.4942807939858
 20
137.7328086006538
 30
0.0
 10
114.1917914210498
 20
136.4655137252989
 30
0.0
 10
113.948843945431
 20
134.4936489926816
 30
0.0
 10
113.8925800618995
 20
132.53453660799
 30
0.0
 10
114.0310447860116
 20
130.6812175463978
 30
0.0
 10
114.3919518685849
 20
128.3393738452227
 30
0.0
 10
114.9118102677162
 20
126.6200350968842
 30
0.0
 10
115.2604085173816
 20
125.4671086860496
 30
0.0
  0
SPLINE
  5
279
330
1F
100
AcDbEntity
  8
0
  6
Continuous
 62
     7
370
    25
100
AcDbSpline
210
0.0
220
0.0
230
1.0
 70
    24
 71
     3
 72
    11
 73
     7
 74
     0
 42
0.00000001
 43
0.00000001
 40
0.0
 40
0.0
 40
0.0
 40
0.0
 40
0.250004565953178
 40
0.4999500236911758
 40
0.7547372290164385
 40
1.0
 40
1.0
 40
1.0
 40
1.0
 10
115.2604085173816
 20
125.4671086860496
 30
0.0
 10
115.0669050256317
 20
125.4671086860496
 30
0.0
 10
114.6799437918804
 20
125.4671086860496
 30
0.0
 10
114.2563923515889
 20
125.4671086860496
 30
0.0
 10
113.9733789883101
 20
125.4671086860496
 30
0.0
 10
113.9403331399823
 20
125.4671086860495
 30
0.0
 10
113.9241249273748
 20
125.4671086860495
 30
0.0
  0
SPLINE
  5
27A
330
1F
100
AcDbEntity
  8
0
  6
Continuous
 62
     7
370
    25
100
AcDbSpline
210
0.0
220
0.0
230
1.0
 70
    24
 71
     3
 72
    12
 73
     8
 74
     0
 42
0.00000001
 43
0.00000001
 40
0.0
 40
0.0
 40
0.0
 40
0.0
 40
0.0094801250423128
 40
0.2544738041293648
 40
0.4995079466326438
 40
0.7497243000776688
 40
1.0
 40
1.0
 40
1.0
 40
1.0
 10
113.9241249273748
 20
155.4671086860496
 30
0.0
 10
113.9229760150515
 20
155.4671086860496
 30
0.0
 10
113.8921359060642
 20
155.4671086860496
 30
0.0
 10
114.0019372075112
 20
155.4671086860496
 30
0.0
 10
114.2552395730722
 20
155.4671086860496
 30
0.0
 10
114.6809629898848
 20
155.4671086860496
 30
0.0
 10
115.0672447402673
 20
155.4671086860496
 30
0.0
 10
115.2604085173816
 20
155.4671086860496
 30
0.0
  0
LINE
  5
27B
330
1F
100
AcDbEntity
  8
0
  6
Continuous
 62
     7
370
    25
100
AcDbLine
 10
113.7763249879
 20
155.217108686
 30
0.0
 11
113.7763249879
 21
142.5840270429
 31
0.0
  0
LINE
  5
27C
330
1F
100
AcDbEntity
  8
0
  6
Continuous
 62
     7
370
    25
100
AcDbLine
 10
113.7763249879
 20
138.3501903292
 30
0.0
 11
113.7763249879
 21
125.717108686
 31
0.0
  0
SPLINE
  5
27D
330
1F
100
AcDbEntity
  8
0
  6
Continuous
 62
     7
370
    25
100
AcDbSpline
210
0.0
220
0.0
230
1.0
 70
    24
 71
     3
 72
    12
 73
     8
 74
     0
 42
0.00000001
 43
0.00000001
 40
0.0
 40
0.0
 40
0.0
 40
0.0
 40
0.0094801250423128
 40
0.2544738041293649
 40
0.4995079466326438
 40
0.7497243000776687
 40
1.0
 40
1.0
 40
1.0
 40
1.0
 10
127.1285250484825
 20
155.4671086860496
 30
0.0
 10
127.1296739608058
 20
155.4671086860496
 30
0.0
 10
127.1605140697931
 20
155.4671086860496
 30
0.0
 10
127.0507127683461
 20
155.4671086860496
 30
0.0
 10
126.7974104027851
 20
155.4671086860496
 30
0.0
 10
126.3716869859724
 20
155.4671086860496
 30
0.0
 10
125.98540523559
 20
155.4671086860496
 30
0.0
 10
125.7922414584756
 20
155.4671086860496
 30
0.0
  0
SPLINE
  5
27E
330
1F
100
AcDbEntity
  8
0
  6
Continuous
 62
     7
370
    25
100
AcDbSpline
210
0.0
220
0.0
230
1.0
 70
    24
 71
     3
 72
    11
 73
     7
 74
     0
 42
0.00000001
 43
0.00000001
 40
0.0
 40
0.0
 40
0.0
 40
0.0
 40
0.2500045659531782
 40
0.4999500236911759
 40
0.7547372290164386
 40
1.0
 40
1.0
 40
1.0
 40
1.0
 10
125.7922414584756
 20
125.4671086860496
 30
0.0
 10
125.9857449502256
 20
125.4671086860496
 30
0.0
 10
126.3727061839769
 20
125.4671086860496
 30
0.0
 10
126.7962576242684
 20
125.4671086860496
 30
0.0
 10
127.0792709875473
 20
125.4671086860496
 30
0.0
 10
127.112316835875
 20
125.4671086860495
 30
0.0
 10
127.1285250484825
 20
125.4671086860495
 30
0.0
  0
SPLINE
  5
27F
330
1F
100
AcDbEntity
  8
0
  6
Continuous
 62
     7
370
    25
100
AcDbSpline
210
0.0
220
0.0
230
1.0
 70
     8
 71
     3
 72
    13
 73
     9
 74
     0
 42
0.00000001
 43
0.00000001
 40
0.0
 40
0.0
 40
0.0
 40
0.0
 40
0.0716533476321567
 40
0.242377906328148
 40
0.4130716573688288
 40
0.5584962639195219
 40
0.7039435548688587
 40
1.0
 40
1.0
 40
1.0
 40
1.0
 10
126.623608409874
 20
137.3873026630735
 30
0.0
 10
126.6891986139565
 20
137.1048222286667
 30
0.0
 10
126.911067052299
 20
136.1492909306504
 30
0.0
 10
127.0998627288872
 20
134.4930708069078
 30
0.0
 10
127.1609519189964
 20
132.5346659317967
 30
0.0
 10
127.0213908306006
 20
130.6811861160178
 30
0.0
 10
126.6608195997053
 20
128.3393916590256
 30
0.0
 10
126.1408884751688
 20
126.6200422473396
 30
0.0
 10
125.7922414584756
 20
125.4671086860496
 30
0.0
  0
LINE
  5
280
330
1F
100
AcDbEntity
  8
0
  6
Continuous
 62
     7
370
    25
100
AcDbLine
 10
127.2763249879
 20
155.217108686
 30
0.0
 11
127.2763249879
 21
143.8164338789
 31
0.0
  0
LINE
  5
281
330
1F
100
AcDbEntity
  8
0
  6
Continuous
 62
     7
370
    25
100
AcDbLine
 10
127.2763249879
 20
137.11235197
 30
0.0
 11
127.2763249879
 21
125.717108686
 31
0.0
  0
LINE
  5
282
330
1F
100
AcDbEntity
  8
0
  6
Continuous
 62
     7
370
    25
100
AcDbLine
 10
115.2604085174
 20
125.467108686
 30
0.0
 11
125.7922414585
 21
125.467108686
 31
0.0
  0
LINE
  5
283
330
1F
100
AcDbEntity
  8
0
  6
Continuous
 62
     7
370
    25
100
AcDbLine
 10
112.2763249879
 20
155.217108686
 30
0.0
 11
112.2763249879
 21
142.5447481605
 31
0.0
  0
LINE
  5
284
330
1F
100
AcDbEntity
  8
0
  6
Continuous
 62
     7
370
    25
100
AcDbLine
 10
112.2763249879
 20
138.3894692116
 30
0.0
 11
112.2763249879
 21
125.717108686
 31
0.0
  0
LINE
  5
285
330
1F
100
AcDbEntity
  8
0
  6
Continuous
 62
     7
370
    25
100
AcDbLine
 10
128.7763249879
 20
125.717108686
 30
0.0
 11
128.7763249879
 21
136.2938439997
 31
0.0
  0
LINE
  5
286
330
1F
100
AcDbEntity
  8
0
  6
Continuous
 62
     7
370
    25
100
AcDbLine
 10
128.7763249879
 20
144.6392674138
 30
0.0
 11
128.7763249879
 21
155.217108686
 31
0.0
  0
LINE
  5
287
330
1F
100
AcDbEntity
  8
0
  6
Continuous
 62
     7
370
    25
100
AcDbLine
 10
111.7763249879
 20
126.217108686
 30
0.0
 11
111.7763249879
 21
138.4025621724
 31
0.0
  0
LINE
  5
288
330
1F
100
AcDbEntity
  8
0
  6
Continuous
 62
     7
370
    25
100
AcDbLine
 10
111.7763249879
 20
142.5316551997
 30
0.0
 11
111.7763249879
 21
154.717108686
 31
0.0
  0
LINE
  5
289
330
1F
100
AcDbEntity
  8
0
  6
Continuous
 62
     7
370
    25
100
AcDbLine
 10
129.2763249879
 20
154.717108686
 30
0.0
 11
129.2763249879
 21
144.9727165485
 31
0.0
  0
LINE
  5
28A
330
1F
100
AcDbEntity
  8
0
  6
Continuous
 62
     7
370
    25
100
AcDbLine
 10
129.2763249879
 20
135.9570995077
 30
0.0
 11
129.2763249879
 21
126.217108686
 31
0.0
  0
LINE
  5
28B
330
1F
100
AcDbEntity
  8
0
  6
Continuous
 62
     7
370
    25
100
AcDbLine
 10
135.4021580128
 20
128.2775395683
 30
0.0
 11
135.4021580128
 21
135.5512139901
 31
0.0
  0
LINE
  5
28C
330
1F
100
AcDbEntity
  8
0
  6
Continuous
 62
     7
370
    25
100
AcDbLine
 10
135.4021580128
 20
145.383003382
 30
0.0
 11
135.4021580128
 21
153.967108686
 31
0.0
  0
LINE
  5
28D
330
1F
100
AcDbEntity
  8
0
  6
Continuous
 62
     7
370
    25
100
AcDbLine
 10
135.4021580128
 20
126.967108686
 30
0.0
 11
135.4021580128
 21
128.2775395683
 31
0.0
  0
LINE
  5
28E
330
1F
100
AcDbEntity
  8
0
  6
Continuous
 62
     7
370
    25
100
AcDbLine
 10
131.9021580128
 20
128.5299087956
 30
0.0
 11
131.9021580128
 21
135.7456584345
 31
0.0
  0
LINE
  5
28F
330
1F
100
AcDbEntity
  8
0
  6
Continuous
 62
     7
370
    25
100
AcDbLine
 10
131.9021580128
 20
145.1885589376
 30
0.0
 11
131.9021580128
 21
153.687608686
 31
0.0
  0
LINE
  5
290
330
1F
100
AcDbEntity
  8
0
  6
Continuous
 62
     7
370
    25
100
AcDbLine
 10
131.9021580128
 20
127.246608686
 30
0.0
 11
131.9021580128
 21
128.5299087956
 31
0.0
  0
LINE
  5
291
330
1F
100
AcDbEntity
  8
0
  6
Continuous
 62
     7
370
    25
100
AcDbLine
 10
132.9021580128
 20
129.4328398413
 30
0.0
 11
132.9021580128
 21
128.246608686
 31
0.0
  0
LINE
  5
292
330
1F
100
AcDbEntity
  8
0
  6
Continuous
 62
     7
370
    25
100
AcDbLine
 10
132.9021580128
 20
152.687608686
 30
0.0
 11
132.9021580128
 21
145.2441144931
 31
0.0
  0
LINE
  5
293
330
1F
100
AcDbEntity
  8
0
  6
Continuous
 62
     7
370
    25
100
AcDbLine
 10
132.9021580128
 20
135.690102879
 30
0.0
 11
132.9021580128
 21
129.4328398413
 31
0.0
  0
LINE
  5
294
330
1F
100
AcDbEntity
  8
0
  6
Continuous
 62
     7
370
    25
100
AcDbLine
 10
162.9587823399
 20
149.1992332843
 30
0.0
 11
153.555737693
 21
149.1992332843
 31
0.0
  0
LINE
  5
295
330
1F
100
AcDbEntity
  8
0
  6
Continuous
 62
     7
370
    25
100
AcDbLine
 10
149.2485783327
 20
149.1992332843
 30
0.0
 11
139.8455336858
 21
149.1992332843
 31
0.0
  0
LINE
  5
296
330
1F
100
AcDbEntity
  8
0
  6
Continuous
 62
     7
370
    25
100
AcDbLine
 10
139.8455336858
 20
149.1992332843
 30
0.0
 11
139.8455336858
 21
154.467108686
 31
0.0
  0
LINE
  5
297
330
1F
100
AcDbEntity
  8
0
  6
Continuous
 62
     7
370
    25
100
AcDbLine
 10
162.9587823399
 20
154.467108686
 30
0.0
 11
139.8455336858
 21
154.467108686
 31
0.0
  0
LINE
  5
298
330
1F
100
AcDbEntity
  8
0
  6
Continuous
 62
     7
370
    25
100
AcDbLine
 10
162.9587823399
 20
154.467108686
 30
0.0
 11
162.9587823399
 21
149.1992332843
 31
0.0
  0
LINE
  5
299
330
1F
100
AcDbEntity
  8
0
  6
Continuous
 62
     7
370
    25
100
AcDbLine
 10
164.4021580128
 20
154.467108686
 30
0.0
 11
164.4021580128
 21
140.467108686
 31
0.0
  0
SPLINE
  5
29A
330
1F
100
AcDbEntity
  8
0
  6
Continuous
 62
     7
370
    25
100
AcDbSpline
210
0.0
220
0.0
230
1.0
 70
     8
 71
     3
 72
    12
 73
     8
 74
     0
 42
0.00000001
 43
0.00000001
 40
0.0
 40
0.0
 40
0.0
 40
0.0
 40
0.2500000000000001
 40
0.2500000000000001
 40
0.5000000000000001
 40
0.5000000000000001
 40
1.0
 40
1.0
 40
1.0
 40
1.0
 10
162.9587823398744
 20
149.199233284336
 30
0.0
 10
163.175437380919
 20
148.4901562068625
 30
0.0
 10
163.3756509047849
 20
147.7727011578792
 30
0.0
 10
163.7306895680024
 20
146.3275421477806
 30
0.0
 10
163.8848731605625
 20
145.6024754434465
 30
0.0
 10
164.2635312192942
 20
143.4183337704568
 30
0.0
 10
164.4021580128484
 20
141.9501088764663
 30
0.0
 10
164.4021580128484
 20
140.4671086860495
 30
0.0
  0
SPLINE
  5
29B
330
1F
100
AcDbEntity
  8
0
  6
Continuous
 62
     7
370
    25
100
AcDbSpline
210
0.0
220
0.0
230
1.0
 70
    24
 71
     3
 72
    12
 73
     8
 74
     0
 42
0.00000001
 43
0.00000001
 40
0.0
 40
0.0
 40
0.0
 40
0.0
 40
0.25
 40
0.25
 40
0.5
 40
0.5
 40
1.0
 40
1.0
 40
1.0
 40
1.0
 10
164.4021580128484
 20
154.4671086860496
 30
0.0
 10
164.4021580128484
 20
154.4671086860496
 30
0.0
 10
164.3673486478839
 20
154.4671086860496
 30
0.0
 10
164.2323084677765
 20
154.4671086860496
 30
0.0
 10
164.1326449991432
 20
154.4671086860496
 30
0.0
 10
163.7519500827913
 20
154.4671086860496
 30
0.0
 10
163.3899658598465
 20
154.4671086860496
 30
0.0
 10
162.9587823398744
 20
154.4671086860496
 30
0.0
  0
SPLINE
  5
29C
330
1F
100
AcDbEntity
  8
0
  6
Continuous
 62
     7
370
    25
100
AcDbSpline
210
0.0
220
0.0
230
1.0
 70
     8
 71
     3
 72
     9
 73
     5
 74
     0
 42
0.00000001
 43
0.00000001
 40
0.0
 40
0.0
 40
0.0
 40
0.0
 40
0.449429369649664
 40
1.0
 40
1.0
 40
1.0
 40
1.0
 10
138.9733639502868
 20
145.5814037118821
 30
0.0
 10
139.0707084709219
 20
146.1312803687438
 30
0.0
 10
139.2873042859906
 20
147.3547799751231
 30
0.0
 10
139.6473197466896
 20
148.5443119274962
 30
0.0
 10
139.8455336858225
 20
149.199233284336
 30
0.0
  0
LINE
  5
29D
330
1F
100
AcDbEntity
  8
0
  6
Continuous
 62
     7
370
    25
100
AcDbLine
 10
138.4021580128
 20
145.5496700487
 30
0.0
 11
138.4021580128
 21
154.467108686
 31
0.0
  0
SPLINE
  5
29E
330
1F
100
AcDbEntity
  8
0
  6
Continuous
 62
     7
370
    25
100
AcDbSpline
210
0.0
220
0.0
230
1.0
 70
    24
 71
     3
 72
    14
 73
    10
 74
     0
 42
0.00000001
 43
0.00000001
 40
0.0
 40
0.0
 40
0.0
 40
0.0
 40
0.125
 40
0.125
 40
0.25
 40
0.25
 40
0.5
 40
0.5
 40
1.0
 40
1.0
 40
1.0
 40
1.0
 10
138.4021580128484
 20
154.4671086860496
 30
0.0
 10
138.4021580128484
 20
154.4671086860496
 30
0.0
 10
138.4106863696686
 20
154.4671086860496
 30
0.0
 10
138.4448733030566
 20
154.4671086860496
 30
0.0
 10
138.4706208360977
 20
154.4671086860496
 30
0.0
 10
138.5719327787302
 20
154.4671086860496
 30
0.0
 10
138.6716508127474
 20
154.4671086860496
 30
0.0
 10
139.0524787939805
 20
154.4671086860496
 30
0.0
 10
139.4144955731391
 20
154.4671086860496
 30
0.0
 10
139.8455336858225
 20
154.4671086860496
 30
0.0
  0
SPLINE
  5
29F
330
1F
100
AcDbEntity
  8
0
  6
Continuous
 62
     7
370
    25
100
AcDbSpline
210
0.0
220
0.0
230
1.0
 70
     8
 71
     3
 72
    12
 73
     8
 74
     0
 42
0.00000001
 43
0.00000001
 40
0.0
 40
0.0
 40
0.0
 40
0.0
 40
0.25
 40
0.25
 40
0.5
 40
0.5
 40
1.0
 40
1.0
 40
1.0
 40
1.0
 10
164.4021580128484
 20
140.4671086860495
 30
0.0
 10
164.4021580128484
 20
139.7244519817625
 30
0.0
 10
164.3673486478881
 20
138.9742711702178
 30
0.0
 10
164.2323084677793
 20
137.4904367086198
 30
0.0
 10
164.1326449991442
 20
136.7564038405772
 30
0.0
 10
163.7519500827876
 20
134.5743463157531
 30
0.0
 10
163.3899658598415
 20
133.1461783471664
 30
0.0
 10
162.9587823398744
 20
131.7349840877631
 30
0.0
  0
LINE
  5
2A0
330
1F
100
AcDbEntity
  8
0
  6
Continuous
 62
     7
370
    25
100
AcDbLine
 10
162.9587823399
 20
131.7349840878
 30
0.0
 11
153.555737693
 21
131.7349840878
 31
0.0
  0
LINE
  5
2A1
330
1F
100
AcDbEntity
  8
0
  6
Continuous
 62
     7
370
    25
100
AcDbLine
 10
149.2485783327
 20
131.7349840878
 30
0.0
 11
139.8455336858
 21
131.7349840878
 31
0.0
  0
SPLINE
  5
2A2
330
1F
100
AcDbEntity
  8
0
  6
Continuous
 62
     7
370
    25
100
AcDbSpline
210
0.0
220
0.0
230
1.0
 70
     8
 71
     3
 72
     9
 73
     5
 74
     0
 42
0.00000001
 43
0.00000001
 40
0.0
 40
0.0
 40
0.0
 40
0.0
 40
0.9658343523982564
 40
1.0
 40
1.0
 40
1.0
 40
1.0
 10
139.8455336858225
 20
131.7349840877631
 30
0.0
 10
139.4810514902726
 20
132.8866719178038
 30
0.0
 10
139.1036760172996
 20
134.0790998193181
 30
0.0
 10
138.937879120013
 20
135.3129446303544
 30
0.0
 10
138.9322145616468
 20
135.3550997373635
 30
0.0
  0
LINE
  5
2A3
330
1F
100
AcDbEntity
  8
0
  6
Continuous
 62
     7
370
    25
100
AcDbLine
 10
162.9587823399
 20
131.7349840878
 30
0.0
 11
162.9587823399
 21
126.467108686
 31
0.0
  0
SPLINE
  5
2A4
330
1F
100
AcDbEntity
  8
0
  6
Continuous
 62
     7
370
    25
100
AcDbSpline
210
0.0
220
0.0
230
1.0
 70
    24
 71
     3
 72
    12
 73
     8
 74
     0
 42
0.00000001
 43
0.00000001
 40
0.0
 40
0.0
 40
0.0
 40
0.0
 40
0.25
 40
0.25
 40
0.5
 40
0.5
 40
1.0
 40
1.0
 40
1.0
 40
1.0
 10
164.4021580128484
 20
126.4671086860495
 30
0.0
 10
164.4021580128484
 20
126.4671086860495
 30
0.0
 10
164.3673486478839
 20
126.4671086860495
 30
0.0
 10
164.2323084677765
 20
126.4671086860495
 30
0.0
 10
164.1326449991432
 20
126.4671086860495
 30
0.0
 10
163.7519500827913
 20
126.4671086860495
 30
0.0
 10
163.3899658598464
 20
126.4671086860495
 30
0.0
 10
162.9587823398744
 20
126.4671086860495
 30
0.0
  0
LINE
  5
2A5
330
1F
100
AcDbEntity
  8
0
  6
Continuous
 62
     7
370
    25
100
AcDbLine
 10
164.4021580128
 20
140.467108686
 30
0.0
 11
164.4021580128
 21
126.467108686
 31
0.0
  0
LINE
  5
2A6
330
1F
100
AcDbEntity
  8
0
  6
Continuous
 62
     7
370
    25
100
AcDbLine
 10
139.8455336858
 20
126.467108686
 30
0.0
 11
139.8455336858
 21
131.7349840878
 31
0.0
  0
SPLINE
  5
2A7
330
1F
100
AcDbEntity
  8
0
  6
Continuous
 62
     7
370
    25
100
AcDbSpline
210
0.0
220
0.0
230
1.0
 70
    24
 71
     3
 72
    14
 73
    10
 74
     0
 42
0.00000001
 43
0.00000001
 40
0.0
 40
0.0
 40
0.0
 40
0.0
 40
0.125
 40
0.125
 40
0.2500000000000001
 40
0.2500000000000001
 40
0.5
 40
0.5
 40
1.0
 40
1.0
 40
1.0
 40
1.0
 10
138.4021580128484
 20
126.4671086860495
 30
0.0
 10
138.4021580128484
 20
126.4671086860495
 30
0.0
 10
138.4106863696686
 20
126.4671086860495
 30
0.0
 10
138.4448733030566
 20
126.4671086860495
 30
0.0
 10
138.4706208360976
 20
126.4671086860495
 30
0.0
 10
138.5719327787302
 20
126.4671086860495
 30
0.0
 10
138.6716508127474
 20
126.4671086860495
 30
0.0
 10
139.0524787939805
 20
126.4671086860495
 30
0.0
 10
139.4144955731391
 20
126.4671086860495
 30
0.0
 10
139.8455336858225
 20
126.4671086860495
 30
0.0
  0
LINE
  5
2A8
330
1F
100
AcDbEntity
  8
0
  6
Continuous
 62
     7
370
    25
100
AcDbLine
 10
138.4021580128
 20
126.467108686
 30
0.0
 11
138.4021580128
 21
135.3845473234
 31
0.0
  0
LINE
  5
2A9
330
1F
100
AcDbEntity
  8
0
  6
Continuous
 62
     7
370
    25
100
AcDbLine
 10
162.9587823399
 20
126.467108686
 30
0.0
 11
139.8455336858
 21
126.467108686
 31
0.0
  0
LINE
  5
2AA
330
1F
100
AcDbEntity
  8
0
  6
Continuous
 62
     7
370
    25
100
AcDbLine
 10
177.7969816739
 20
127.4630094255
 30
0.0
 11
177.7969816739
 21
153.4712079466
 31
0.0
  0
LINE
  5
2AB
330
1F
100
AcDbEntity
  8
0
  6
Continuous
 62
     7
370
    25
100
AcDbLine
 10
180.4021580128
 20
151.967108686
 30
0.0
 11
180.4021580128
 21
128.967108686
 31
0.0
  0
LINE
  5
2AC
330
1F
100
AcDbEntity
  8
0
  6
Continuous
 62
     7
370
    25
100
AcDbLine
 10
149.1646739913
 20
139.4918361411
 30
0.0
 11
149.1318784643
 21
139.5105801803
 31
0.0
  0
SPLINE
  5
2AD
330
1F
100
AcDbEntity
  8
0
  6
Continuous
 62
     7
370
    25
100
AcDbSpline
210
0.0
220
0.0
230
1.0
 70
     8
 71
     3
 72
    15
 73
    11
 74
     0
 42
0.00000001
 43
0.00000001
 40
0.0
 40
0.0
 40
0.0
 40
0.0
 40
0.1241930067305288
 40
0.2496556654892302
 40
0.3743703853151211
 40
0.4998404796364203
 40
0.6240146704162364
 40
0.7475381382242062
 40
0.8745858500551823
 40
1.0
 40
1.0
 40
1.0
 40
1.0
 10
149.9449637129789
 20
139.7642757916353
 30
0.0
 10
149.9294033178693
 20
139.7284285888914
 30
0.0
 10
149.8981234503578
 20
139.6563677096796
 30
0.0
 10
149.8206870908693
 20
139.5664921963367
 30
0.0
 10
149.7273330871304
 20
139.4941684185424
 30
0.0
 10
149.6201074811095
 20
139.4452410000378
 30
0.0
 10
149.5057215703885
 20
139.418912946583
 30
0.0
 10
149.3880508075032
 20
139.4180538525804
 30
0.0
 10
149.271167082278
 20
139.43943661321
 30
0.0
 10
149.2000182313833
 20
139.4744451396708
 30
0.0
 10
149.1646739912998
 20
139.4918361410522
 30
0.0
  0
LINE
  5
2AE
330
1F
100
AcDbEntity
  8
0
  6
Continuous
 62
     7
370
    25
100
AcDbLine
 10
150.9368177577
 20
142.5378550075
 30
0.0
 11
149.944963713
 21
139.7642757916
 31
0.0
  0
SPLINE
  5
2AF
330
1F
100
AcDbEntity
  8
0
  6
Continuous
 62
     7
370
    25
100
AcDbSpline
210
0.0
220
0.0
230
1.0
 70
     8
 71
     3
 72
    15
 73
    11
 74
     0
 42
0.00000001
 43
0.00000001
 40
0.0
 40
0.0
 40
0.0
 40
0.0
 40
0.1233025178081761
 40
0.2485158700387114
 40
0.3756924668130948
 40
0.499999088042933
 40
0.6243057092728392
 40
0.751482306047304
 40
0.8766757256079954
 40
1.0
 40
1.0
 40
1.0
 40
1.0
 10
151.8674982712001
 20
142.5378550075487
 30
0.0
 10
151.8433472992377
 20
142.5785001434844
 30
0.0
 10
151.794671084703
 20
142.6604202980723
 30
0.0
 10
151.6793204264979
 20
142.7502392538848
 30
0.0
 10
151.546160804236
 20
142.8078134020459
 30
0.0
 10
151.4021581608672
 20
142.826972097716
 30
0.0
 10
151.2581546321687
 20
142.807813994831
 30
0.0
 10
151.1250047592032
 20
142.7502398810924
 30
0.0
 10
151.0096424016688
 20
142.6604343189457
 30
0.0
 10
150.9609706159976
 20
142.578509387421
 30
0.0
 10
150.9368177576808
 20
142.5378550075488
 30
0.0
  0
LINE
  5
2B0
330
1F
100
AcDbEntity
  8
0
  6
Continuous
 62
     7
370
    25
100
AcDbLine
 10
152.8591211776
 20
139.7649221372
 30
0.0
 11
151.8674982712
 21
142.5378550075
 31
0.0
  0
SPLINE
  5
2B1
330
1F
100
AcDbEntity
  8
0
  6
Continuous
 62
     7
370
    25
100
AcDbSpline
210
0.0
220
0.0
230
1.0
 70
     8
 71
     3
 72
    15
 73
    11
 74
     0
 42
0.00000001
 43
0.00000001
 40
0.0
 40
0.0
 40
0.0
 40
0.0
 40
0.1253320172137761
 40
0.2522975129251758
 40
0.3758847553984064
 40
0.5001929511416492
 40
0.6255758307380153
 40
0.7502289462456483
 40
0.8757444935777824
 40
1.0
 40
1.0
 40
1.0
 40
1.0
 10
153.6318229421139
 20
139.4882262865944
 30
0.0
 10
153.5965720254859
 20
139.4715519781116
 30
0.0
 10
153.5256107596315
 20
139.4379860413823
 30
0.0
 10
153.4096238688432
 20
139.4182044251282
 30
0.0
 10
153.2930275026028
 20
139.4202772054748
 30
0.0
 10
153.1799068960213
 20
139.4473552318254
 30
0.0
 10
153.0740311816819
 20
139.4965680475325
 30
0.0
 10
152.9819220970627
 20
139.5686538114064
 30
0.0
 10
152.9054904331943
 20
139.6579413329058
 30
0.0
 10
152.874525525695
 20
139.7293820033429
 30
0.0
 10
152.8591211775738
 20
139.7649221372009
 30
0.0
  0
LINE
  5
2B2
330
1F
100
AcDbEntity
  8
0
  6
Continuous
 62
     7
370
    25
100
AcDbLine
 10
153.6724375646
 20
139.5105801803
 30
0.0
 11
153.6318229421
 21
139.4882262866
 31
0.0
  0
LINE
  5
2B3
330
1F
100
AcDbEntity
  8
0
  6
Continuous
 62
     7
370
    25
100
AcDbLine
 10
153.0454543681
 20
138.3151690768
 30
0.0
 11
153.6724375646
 21
139.5105801803
 31
0.0
  0
SPLINE
  5
2B4
330
1F
100
AcDbEntity
  8
0
  6
Continuous
 62
     7
370
    25
100
AcDbSpline
210
0.0
220
0.0
230
1.0
 70
     8
 71
     3
 72
    15
 73
    11
 74
     0
 42
0.00000001
 43
0.00000001
 40
0.0
 40
0.0
 40
0.0
 40
0.0
 40
0.124633218643857
 40
0.2519059530189797
 40
0.3765391000744913
 40
0.4994035903146549
 40
0.6264494152300148
 40
0.7526064410610425
 40
0.8746804377363274
 40
1.0
 40
1.0
 40
1.0
 40
1.0
 10
152.9402258793049
 20
138.2970519100969
 30
0.0
 10
152.944240354973
 20
138.2939466752443
 30
0.0
 10
152.9523543259517
 20
138.2876704420424
 30
0.0
 10
152.9667929177882
 20
138.2820574285626
 30
0.0
 10
152.9819263677213
 20
138.2795210759358
 30
0.0
 10
152.9972889100031
 20
138.2804064795036
 30
0.0
 10
153.0122194888398
 20
138.2845375500193
 30
0.0
 10
153.0257213888691
 20
138.2920282499652
 30
0.0
 10
153.0374070437555
 20
138.3021668318795
 30
0.0
 10
153.0427485680963
 20
138.3107972542223
 30
0.0
 10
153.045454368098
 20
138.3151690768146
 30
0.0
  0
SPLINE
  5
2B5
330
1F
100
AcDbEntity
  8
0
  6
Continuous
 62
     7
370
    25
100
AcDbSpline
210
0.0
220
0.0
230
1.0
 70
     8
 71
     3
 72
    11
 73
     7
 74
     0
 42
0.00000001
 43
0.00000001
 40
0.0
 40
0.0
 40
0.0
 40
0.0
 40
0.2506252605986012
 40
0.4999999999996215
 40
0.7493747394010043
 40
1.0
 40
1.0
 40
1.0
 40
1.0
 10
149.864090149576
 20
138.2970519100968
 30
0.0
 10
150.0938178437493
 20
138.4599062020578
 30
0.0
 10
150.5521269815123
 20
138.7848022072967
 30
0.0
 10
151.4021580144484
 20
138.9185341542338
 30
0.0
 10
152.2521890473786
 20
138.7848022072915
 30
0.0
 10
152.7104981851349
 20
138.4599062020561
 30
0.0
 10
152.9402258793049
 20
138.2970519100969
 30
0.0
  0
SPLINE
  5
2B6
330
1F
100
AcDbEntity
  8
0
  6
Continuous
 62
     7
370
    25
100
AcDbSpline
210
0.0
220
0.0
230
1.0
 70
     8
 71
     3
 72
    15
 73
    11
 74
     0
 42
0.00000001
 43
0.00000001
 40
0.0
 40
0.0
 40
0.0
 40
0.0
 40
0.1253191957979125
 40
0.2473928354984055
 40
0.37344924164897
 40
0.500595004607996
 40
0.6235484391777584
 40
0.7480947836179481
 40
0.8753671458153865
 40
1.0
 40
1.0
 40
1.0
 40
1.0
 10
149.7588616607828
 20
138.3151690768146
 30
0.0
 10
149.7615674571152
 20
138.3107972485306
 30
0.0
 10
149.7669089742124
 20
138.3021668149518
 30
0.0
 10
149.7785915468015
 20
138.292031037452
 30
0.0
 10
149.7920925267888
 20
138.2845389215784
 30
0.0
 10
149.8070265556388
 20
138.2804064762863
 30
0.0
 10
149.8223935668279
 20
138.2795185345127
 30
0.0
 10
149.8375263032661
 20
138.2820594767703
 30
0.0
 10
149.8519617330478
 20
138.2876702550375
 30
0.0
 10
149.860075683877
 20
138.2939466133462
 30
0.0
 10
149.864090149576
 20
138.2970519100969
 30
0.0
  0
LINE
  5
2B7
330
1F
100
AcDbEntity
  8
0
  6
Continuous
 62
     7
370
    25
100
AcDbLine
 10
149.1318784643
 20
139.5105801803
 30
0.0
 11
149.7588616608
 21
138.3151690768
 31
0.0
  0
SPLINE
  5
2B8
330
1F
100
AcDbEntity
  8
0
  6
Continuous
 62
     7
370
    25
100
AcDbSpline
210
0.0
220
0.0
230
1.0
 70
     8
 71
     3
 72
    15
 73
    11
 74
     0
 42
0.00000001
 43
0.00000001
 40
0.0
 40
0.0
 40
0.0
 40
0.0
 40
0.1233867499278388
 40
0.2487396502211602
 40
0.3739317114754986
 40
0.499997361762566
 40
0.6259591330513601
 40
0.7512551380600303
 40
0.8765613478174266
 40
1.0
 40
1.0
 40
1.0
 40
1.0
 10
151.3392751480424
 20
140.4885181441923
 30
0.0
 10
151.3421533492342
 20
140.4945329402753
 30
0.0
 10
151.3479556153458
 20
140.506658377364
 30
0.0
 10
151.3634850200666
 20
140.5200496377141
 30
0.0
 10
151.38183960194
 20
140.528927349294
 30
0.0
 10
151.402152418423
 20
140.5316840125905
 30
0.0
 10
151.422470836138
 20
140.5289293313899
 30
0.0
 10
151.4408237053022
 20
140.5200536331004
 30
0.0
 10
151.4563618096977
 20
140.5066632658467
 30
0.0
 10
151.462162371729
 20
140.4945361683006
 30
0.0
 10
151.4650408776545
 20
140.4885181441923
 30
0.0
  0
LINE
  5
2B9
330
1F
100
AcDbEntity
  8
0
  6
Continuous
 62
     7
370
    25
100
AcDbLine
 10
151.1001616223
 20
139.8502641149
 30
0.0
 11
151.339275148
 21
140.4885181442
 31
0.0
  0
SPLINE
  5
2BA
330
1F
100
AcDbEntity
  8
0
  6
Continuous
 62
     7
370
    25
100
AcDbSpline
210
0.0
220
0.0
230
1.0
 70
     8
 71
     3
 72
    15
 73
    11
 74
     0
 42
0.00000001
 43
0.00000001
 40
0.0
 40
0.0
 40
0.0
 40
0.0
 40
0.126158522421064
 40
0.2513121451548799
 40
0.3762846848783793
 40
0.499306278334087
 40
0.6261594278645742
 40
0.7521171342021308
 40
0.875819692269278
 40
1.0
 40
1.0
 40
1.0
 40
1.0
 10
151.1630444871707
 20
139.7651997615698
 30
0.0
 10
151.157813390682
 20
139.7655220681621
 30
0.0
 10
151.1473928653393
 20
139.7661641140546
 30
0.0
 10
151.1326063148249
 20
139.7716123544298
 30
0.0
 10
151.1194159621994
 20
139.7798349570154
 30
0.0
 10
151.1085453873582
 20
139.791091563328
 30
0.0
 10
151.1005378000296
 20
139.8046123086691
 30
0.0
 10
151.0963711729969
 20
139.8197491962459
 30
0.0
 10
151.0957501214853
 20
139.8354383278171
 30
0.0
 10
151.0986892338401
 20
139.8453158401757
 30
0.0
 10
151.1001616223228
 20
139.8502641149198
 30
0.0
  0
LINE
  5
2BB
330
1F
100
AcDbEntity
  8
0
  6
Continuous
 62
     7
370
    25
100
AcDbLine
 10
151.6412715413
 20
139.7651997616
 30
0.0
 11
151.1630444872
 21
139.7651997616
 31
0.0
  0
SPLINE
  5
2BC
330
1F
100
AcDbEntity
  8
0
  6
Continuous
 62
     7
370
    25
100
AcDbSpline
210
0.0
220
0.0
230
1.0
 70
     8
 71
     3
 72
    15
 73
    11
 74
     0
 42
0.00000001
 43
0.00000001
 40
0.0
 40
0.0
 40
0.0
 40
0.0
 40
0.1241186784437694
 40
0.2478474916628983
 40
0.3736574149478942
 40
0.5005082335853297
 40
0.6234527658309919
 40
0.7484986612277521
 40
0.8736976492452766
 40
1.0
 40
1.0
 40
1.0
 40
1.0
 10
151.7041544061
 20
139.8502641151428
 30
0.0
 10
151.7056254787088
 20
139.8453182694847
 30
0.0
 10
151.7085630031872
 20
139.8354421134066
 30
0.0
 10
151.7079462686871
 20
139.8197607177809
 30
0.0
 10
151.7037843070925
 20
139.8046281857006
 30
0.0
 10
151.6957855592941
 20
139.7911132780862
 30
0.0
 10
151.6849194677573
 20
139.7798532168902
 30
0.0
 10
151.6717317499327
 20
139.7716235044567
 30
0.0
 10
151.6569373033574
 20
139.7661639340716
 30
0.0
 10
151.6465087124501
 20
139.7655220910147
 30
0.0
 10
151.6412715413357
 20
139.7651997615698
 30
0.0
  0
LINE
  5
2BD
330
1F
100
AcDbEntity
  8
0
  6
Continuous
 62
     7
370
    25
100
AcDbLine
 10
151.4650408777
 20
140.4885181442
 30
0.0
 11
151.7041544061
 21
139.8502641151
 31
0.0
  0
CIRCLE
  5
2BE
330
1F
100
AcDbEntity
  8
0
  6
Continuous
 62
     7
370
    25
100
AcDbCircle
 10
151.4021580128
 20
140.467108686
 30
0.0
 40
4.5
  0
LINE
  5
2BF
330
1F
100
AcDbEntity
  8
0
  6
Continuous
 62
     7
370
    25
100
AcDbLine
 10
102.0201920016
 20
141.3457011382
 30
0.0
 11
136.2969297993
 21
142.2432691058
 31
0.0
  0
SPLINE
  5
2C0
330
1F
100
AcDbEntity
  8
0
  6
Continuous
 62
     7
370
    25
100
AcDbSpline
210
0.0
220
0.0
230
1.0
 70
    24
 71
     3
 72
    11
 73
     7
 74
     0
 42
0.00000001
 43
0.00000001
 40
0.0
 40
0.0
 40
0.0
 40
0.0
 40
0.2500000000000016
 40
0.5000000000000038
 40
0.7500000000000011
 40
1.0
 40
1.0
 40
1.0
 40
1.0
 10
102.0018744169133
 20
142.045221475363
 30
0.0
 10
102.0022022781691
 20
142.0327009591404
 30
0.0
 10
102.0028580006807
 20
142.0076599266953
 30
0.0
 10
102.00711696982
 20
141.8450164570727
 30
0.0
 10
102.0131088254818
 20
141.6161967210182
 30
0.0
 10
102.0178309428928
 20
141.435866332472
 30
0.0
 10
102.0201920015983
 20
141.3457011381989
 30
0.0
  0
LINE
  5
2C1
330
1F
100
AcDbEntity
  8
0
  6
Continuous
 62
     7
370
    25
100
AcDbLine
 10
136.2786122147
 20
142.942789443
 30
0.0
 11
102.0018744169
 21
142.0452214754
 31
0.0
  0
SPLINE
  5
2C2
330
1F
100
AcDbEntity
  8
0
  6
Continuous
 62
     7
370
    25
100
AcDbSpline
210
0.0
220
0.0
230
1.0
 70
    24
 71
     3
 72
    11
 73
     7
 74
     0
 42
0.00000001
 43
0.00000001
 40
0.0
 40
0.0
 40
0.0
 40
0.0
 40
0.2500000000000036
 40
0.500000000000002
 40
0.7500000000000007
 40
1.0
 40
1.0
 40
1.0
 40
1.0
 10
136.2786122146509
 20
142.9427894429822
 30
0.0
 10
136.2789400759067
 20
142.9302689267596
 30
0.0
 10
136.2795957984184
 20
142.9052278943145
 30
0.0
 10
136.2838547675576
 20
142.7425844246919
 30
0.0
 10
136.2898466232194
 20
142.5137646886374
 30
0.0
 10
136.2945687406304
 20
142.3334343000912
 30
0.0
 10
136.296929799336
 20
142.2432691058181
 30
0.0
  0
LINE
  5
2C3
330
1F
100
AcDbEntity
  8
0
  6
Continuous
 62
     7
370
    25
100
AcDbLine
 10
136.2969297993
 20
138.6909482663
 30
0.0
 11
102.0201920016
 21
139.5885162339
 31
0.0
  0
LINE
  5
2C4
330
1F
100
AcDbEntity
  8
0
  6
Continuous
 62
     7
370
    25
100
AcDbLine
 10
102.0201920016
 20
139.5885162339
 30
0.0
 11
102.0201920016
 21
141.3457011382
 31
0.0
  0
ELLIPSE
  5
2C5
330
1F
100
AcDbEntity
  8
0
  6
Continuous
 62
     7
370
    25
100
AcDbEllipse
 10
136.3021580128
 20
141.4428574494
 30
0.0
 11
0.9988086229566305
 21
0.06103964413864559
 31
0.0
210
0.0
220
0.0
230
0.9999999999999998
 40
0.7994627403
 41
0.878476908285599
 42
1.527206254409821
  0
LINE
  5
2C6
330
1F
100
AcDbEntity
  8
0
  6
Continuous
 62
     7
370
    25
100
AcDbLine
 10
136.9021580128
 20
142.0964878357
 30
0.0
 11
136.9021580128
 21
138.8377295364
 31
0.0
  0
ELLIPSE
  5
2C7
330
1F
100
AcDbEntity
  8
0
  6
Continuous
 62
     7
370
    25
100
AcDbEllipse
 10
136.3021580128
 20
139.4913599227
 30
0.0
 11
0.9988086229566305
 21
-0.06103964413861718
 31
0.0
210
0.0
220
0.0
230
0.9999999999999999
 40
0.7994627403
 41
4.755979052769751
 42
5.404708398893957
  0
LINE
  5
2C8
330
1F
100
AcDbEntity
  8
0
  6
Continuous
 62
     7
370
    25
100
AcDbLine
 10
138.1021580128
 20
139.4546924514
 30
0.0
 11
138.1021580128
 21
141.4795249207
 31
0.0
  0
SPLINE
  5
2C9
330
1F
100
AcDbEntity
  8
0
  6
Continuous
 62
     7
370
    25
100
AcDbSpline
210
0.0
220
0.0
230
1.0
 70
     8
 71
     3
 72
    11
 73
     7
 74
     0
 42
0.00000001
 43
0.00000001
 40
0.0
 40
0.0
 40
0.0
 40
0.0
 40
0.2561894651307309
 40
0.509604493920693
 40
0.7692742066553655
 40
1.0
 40
1.0
 40
1.0
 40
1.0
 10
138.1021580128484
 20
139.4546924514161
 30
0.0
 10
138.0265618805546
 20
139.3951804107677
 30
0.0
 10
137.8761882938799
 20
139.2768008226713
 30
0.0
 10
137.5769755079246
 20
139.1061632805359
 30
0.0
 10
137.2494557730379
 20
138.9545393696352
 30
0.0
 10
137.013277392224
 20
138.8751033339641
 30
0.0
 10
136.9021580128484
 20
138.8377295364411
 30
0.0
  0
SPLINE
  5
2CA
330
1F
100
AcDbEntity
  8
0
  6
Continuous
 62
     7
370
    25
100
AcDbSpline
210
0.0
220
0.0
230
1.0
 70
     8
 71
     3
 72
    11
 73
     7
 74
     0
 42
0.00000001
 43
0.00000001
 40
0.0
 40
0.0
 40
0.0
 40
0.0
 40
0.2307374805224084
 40
0.4903955403005853
 40
0.743810552073066
 40
1.0
 40
1.0
 40
1.0
 40
1.0
 10
136.9021580128484
 20
142.096487835658
 30
0.0
 10
137.0132832466048
 20
142.059112644745
 30
0.0
 10
137.2494621236803
 20
141.9796776656504
 30
0.0
 10
137.5769797646314
 20
141.8280509858867
 30
0.0
 10
137.8761883612939
 20
141.6574166809384
 30
0.0
 10
138.0265619031073
 20
141.5390370053271
 30
0.0
 10
138.1021580128484
 20
141.479524920683
 30
0.0
  0
LINE
  5
2CB
330
1F
100
AcDbEntity
  8
0
  6
Continuous
 62
     7
370
    25
100
AcDbLine
 10
102.0018744169
 20
138.8889958967
 30
0.0
 11
136.2786122147
 21
137.9914279291
 31
0.0
  0
SPLINE
  5
2CC
330
1F
100
AcDbEntity
  8
0
  6
Continuous
 62
     7
370
    25
100
AcDbSpline
210
0.0
220
0.0
230
1.0
 70
    24
 71
     3
 72
    11
 73
     7
 74
     0
 42
0.00000001
 43
0.00000001
 40
0.0
 40
0.0
 40
0.0
 40
0.0
 40
0.2500000000000036
 40
0.5000000000000021
 40
0.7500000000000009
 40
1.0
 40
1.0
 40
1.0
 40
1.0
 10
102.0018744169133
 20
138.888995896736
 30
0.0
 10
102.0022022781691
 20
138.9015164129586
 30
0.0
 10
102.0028580006807
 20
138.9265574454038
 30
0.0
 10
102.00711696982
 20
139.0892009150264
 30
0.0
 10
102.0131088254818
 20
139.3180206510808
 30
0.0
 10
102.0178309428928
 20
139.498351039627
 30
0.0
 10
102.0201920015983
 20
139.5885162339002
 30
0.0
  0
SPLINE
  5
2CD
330
1F
100
AcDbEntity
  8
0
  6
Continuous
 62
     7
370
    25
100
AcDbSpline
210
0.0
220
0.0
230
1.0
 70
    24
 71
     3
 72
    11
 73
     7
 74
     0
 42
0.00000001
 43
0.00000001
 40
0.0
 40
0.0
 40
0.0
 40
0.0
 40
0.2499999999999998
 40
0.4999999999999991
 40
0.7500000000000027
 40
1.0
 40
1.0
 40
1.0
 40
1.0
 10
136.296929799336
 20
138.690948266281
 30
0.0
 10
136.2945687406305
 20
138.6007830720079
 30
0.0
 10
136.2898466232195
 20
138.4204526834617
 30
0.0
 10
136.2838547675576
 20
138.1916329474072
 30
0.0
 10
136.2795957984184
 20
138.0289894777846
 30
0.0
 10
136.2789400759067
 20
138.0039484453395
 30
0.0
 10
136.2786122146509
 20
137.9914279291169
 30
0.0
  0
ELLIPSE
  5
2CE
330
1F
100
AcDbEntity
  8
0
  6
Continuous
 62
     7
370
    25
100
AcDbEllipse
 10
102.0201920016
 20
141.3666570565
 30
0.0
 11
1.499999971448745
 21
0.02095282558966005
 31
0.0
210
0.0
220
0.0
230
1.0
 40
0.0139678873
 41
3.842044658398471
 42
4.712193869245424
  0
ELLIPSE
  5
2CF
330
1F
100
AcDbEntity
  8
0
  6
Continuous
 62
     7
370
    25
100
AcDbEllipse
 10
102.0201920016
 20
139.5675603156
 30
0.0
 11
1.499999971448745
 21
-0.02095282558966005
 31
0.0
210
0.0
220
0.0
230
1.0
 40
0.0139678873
 41
1.570991437934172
 42
2.441140648780324
  0
SPLINE
  5
2D0
330
1F
100
AcDbEntity
  8
0
  6
Continuous
 62
     7
370
    25
100
AcDbSpline
210
0.0
220
0.0
230
1.0
 70
     8
 71
     3
 72
     9
 73
     5
 74
     0
 42
0.00000001
 43
0.00000001
 40
0.0
 40
0.0
 40
0.0
 40
0.0
 40
0.5600029565045499
 40
1.0
 40
1.0
 40
1.0
 40
1.0
 10
100.8735542861498
 20
139.5970845994256
 30
0.0
 10
100.8654065267967
 20
139.5970789613594
 30
0.0
 10
100.8508570333369
 20
139.5970688934371
 30
0.0
 10
100.8369123903964
 20
139.5971910700406
 30
0.0
 10
100.8307767887299
 20
139.5972448273849
 30
0.0
  0
ELLIPSE
  5
2D1
330
1F
100
AcDbEntity
  8
0
  6
Continuous
 62
     7
370
    25
100
AcDbEllipse
 10
102.0201920016
 20
139.5499711535
 30
0.0
 11
1.499999872704151
 21
-0.04307925670957503
 31
0.0
210
0.0
220
0.0
230
1.0
 40
0.0143449667
 41
2.486833182543503
 42
2.678357024934877
  0
LINE
  5
2D2
330
1F
100
AcDbEntity
  8
0
  6
Continuous
 62
     7
370
    25
100
AcDbLine
 10
100.6785512151
 20
141.3360920606
 30
0.0
 11
100.6785512151
 21
139.5981253115
 31
0.0
  0
ELLIPSE
  5
2D3
330
1F
100
AcDbEntity
  8
0
  6
Continuous
 62
     7
370
    25
100
AcDbEllipse
 10
102.0201920016
 20
141.3842462186
 30
0.0
 11
1.499999872704151
 21
0.04307925670957503
 31
0.0
210
0.0
220
0.0
230
1.0
 40
0.0143449667
 41
3.604828282245489
 42
3.796352124635644
  0
SPLINE
  5
2D4
330
1F
100
AcDbEntity
  8
0
  6
Continuous
 62
     7
370
    25
100
AcDbSpline
210
0.0
220
0.0
230
1.0
 70
     8
 71
     3
 72
     9
 73
     5
 74
     0
 42
0.00000001
 43
0.00000001
 40
0.0
 40
0.0
 40
0.0
 40
0.0
 40
0.5599925069634167
 40
1.0
 40
1.0
 40
1.0
 40
1.0
 10
100.8307767887299
 20
141.3369725447142
 30
0.0
 10
100.8385995985869
 20
141.3370382898656
 30
0.0
 10
100.8525690888205
 20
141.3371556934926
 30
0.0
 10
100.8671420666909
 20
141.3371397763399
 30
0.0
 10
100.8735542861498
 20
141.3371327726735
 30
0.0
  0
ELLIPSE
  5
2D5
330
1F
100
AcDbEntity
  8
0
  6
Continuous
 62
     7
370
    25
100
AcDbEllipse
 10
102.0018744169
 20
138.8680399784
 30
0.0
 11
0.7999998117959564
 21
-0.02096310677478641
 31
0.0
210
0.0
220
0.0
230
1.0
 40
0.026176936
 41
1.571482264229206
 42
2.4416314750781
  0
SPLINE
  5
2D6
330
1F
100
AcDbEntity
  8
0
  6
Continuous
 62
     7
370
    25
100
AcDbSpline
210
0.0
220
0.0
230
1.0
 70
     8
 71
     3
 72
    12
 73
     8
 74
     0
 42
0.00000001
 43
0.00000001
 40
0.0
 40
0.0
 40
0.0
 40
0.0
 40
0.2198609600791262
 40
0.4397396970008124
 40
0.6583291451397751
 40
0.8791239516843591
 40
1.0
 40
1.0
 40
1.0
 40
1.0
 10
101.3903343020074
 20
138.8975642622615
 30
0.0
 10
101.3304192392785
 20
138.9082362569056
 30
0.0
 10
101.2105842693925
 20
138.9295811090772
 30
0.0
 10
101.053849281118
 20
139.0576995043442
 30
0.0
 10
100.9372809573319
 20
139.2406374404093
 30
0.0
 10
100.8810242655376
 20
139.4321866122964
 30
0.0
 10
100.8755063943213
 20
139.5539922839814
 30
0.0
 10
100.8735542861498
 20
139.5970845994256
 30
0.0
  0
ELLIPSE
  5
2D7
330
1F
100
AcDbEntity
  8
0
  6
Continuous
 62
     7
370
    25
100
AcDbEllipse
 10
102.0018744169
 20
142.0661773937
 30
0.0
 11
0.7999998117959565
 21
0.02096310677475799
 31
0.0
210
0.0
220
0.0
230
1.0
 40
0.026176936
 41
3.841553832103647
 42
4.711703042950382
  0
SPLINE
  5
2D8
330
1F
100
AcDbEntity
  8
0
  6
Continuous
 62
     7
370
    25
100
AcDbSpline
210
0.0
220
0.0
230
1.0
 70
     8
 71
     3
 72
    12
 73
     8
 74
     0
 42
0.00000001
 43
0.00000001
 40
0.0
 40
0.0
 40
0.0
 40
0.0
 40
0.2198610998683207
 40
0.4397399767664978
 40
0.6583294271823329
 40
0.8791242261983195
 40
1.0
 40
1.0
 40
1.0
 40
1.0
 10
100.8735542861498
 20
141.3371327726735
 30
0.0
 10
100.8796572360451
 20
141.4158236823926
 30
0.0
 10
100.8918636292943
 20
141.5732118644419
 30
0.0
 10
100.9843875703926
 20
141.7824936129269
 30
0.0
 10
101.1201715178143
 20
141.9411429335913
 30
0.0
 10
101.2645993811777
 20
142.0212429963065
 30
0.0
 10
101.3574763928265
 20
142.0326260336082
 30
0.0
 10
101.3903343020074
 20
142.0366531098376
 30
0.0
  0
ELLIPSE
  5
2D9
330
1F
100
AcDbEntity
  8
0
  6
Continuous
 62
     7
370
    25
100
AcDbEllipse
 10
136.3021580128
 20
141.4428574494
 30
0.0
 11
1.557390436637235
 21
0.09517594847736177
 31
0.0
210
0.0
220
0.0
230
1.0
 40
0.9613560848
 41
0.8784769082855954
 42
1.527206254409823
  0
SPLINE
  5
2DA
330
1F
100
AcDbEntity
  8
0
  6
Continuous
 62
     7
370
    25
100
AcDbSpline
210
0.0
220
0.0
230
1.0
 70
    24
 71
     3
 72
    10
 73
     6
 74
     0
 42
0.00000001
 43
0.00000001
 40
0.0
 40
0.0
 40
0.0
 40
0.0
 40
0.2808335173386658
 40
0.5616510917414111
 40
1.0
 40
1.0
 40
1.0
 40
1.0
 10
137.2258460164834
 20
142.6561117538822
 30
0.0
 10
137.2076378968386
 20
142.6246317510872
 30
0.0
 10
137.171222691225
 20
142.5616735326189
 30
0.0
 10
137.0614396064246
 20
142.3718696493091
 30
0.0
 10
136.9624776536908
 20
142.2007744121607
 30
0.0
 10
136.9021580128484
 20
142.096487835658
 30
0.0
  0
SPLINE
  5
2DB
330
1F
100
AcDbEntity
  8
0
  6
Continuous
 62
     7
370
    25
100
AcDbSpline
210
0.0
220
0.0
230
1.0
 70
     8
 71
     3
 72
    11
 73
     7
 74
     0
 42
0.00000001
 43
0.00000001
 40
0.0
 40
0.0
 40
0.0
 40
0.0
 40
0.2561894651307118
 40
0.5096044939206585
 40
0.7692742066444709
 40
1.0
 40
1.0
 40
1.0
 40
1.0
 10
138.1021580128484
 20
141.479524920683
 30
0.0
 10
138.0577930222316
 20
141.5930324560042
 30
0.0
 10
137.9695434972969
 20
141.818818282381
 30
0.0
 10
137.7597314103725
 20
142.1440206181405
 30
0.0
 10
137.5122235408809
 20
142.4339769760697
 30
0.0
 10
137.3174737101427
 20
142.5850387972482
 30
0.0
 10
137.2258460164834
 20
142.6561117538822
 30
0.0
  0
SPLINE
  5
2DC
330
1F
100
AcDbEntity
  8
0
  6
Continuous
 62
     7
370
    25
100
AcDbSpline
210
0.0
220
0.0
230
1.0
 70
    24
 71
     3
 72
    10
 73
     6
 74
     0
 42
0.00000001
 43
0.00000001
 40
0.0
 40
0.0
 40
0.0
 40
0.0
 40
0.2808335173386727
 40
0.5616510917414161
 40
1.0
 40
1.0
 40
1.0
 40
1.0
 10
136.9021580128484
 20
138.8377295364411
 30
0.0
 10
136.9405084618109
 20
138.7714254773688
 30
0.0
 10
137.0172071825784
 20
138.6388211233096
 30
0.0
 10
137.1423615326204
 20
138.4224418724052
 30
0.0
 10
137.1942305989737
 20
138.3327654870548
 30
0.0
 10
137.2258460164834
 20
138.2781056182168
 30
0.0
  0
ELLIPSE
  5
2DD
330
1F
100
AcDbEntity
  8
0
  6
Continuous
 62
     7
370
    25
100
AcDbEllipse
 10
136.3021580128
 20
139.4913599227
 30
0.0
 11
1.557390436637235
 21
-0.09517594847730494
 31
0.0
210
0.0
220
0.0
230
1.0
 40
0.9613560848
 41
4.755979052769741
 42
5.404708398893996
  0
SPLINE
  5
2DE
330
1F
100
AcDbEntity
  8
0
  6
Continuous
 62
     7
370
    25
100
AcDbSpline
210
0.0
220
0.0
230
1.0
 70
     8
 71
     3
 72
    11
 73
     7
 74
     0
 42
0.00000001
 43
0.00000001
 40
0.0
 40
0.0
 40
0.0
 40
0.0
 40
0.2307374805226519
 40
0.4903955403005866
 40
0.7438105520730666
 40
0.9999999999999999
 40
0.9999999999999999
 40
0.9999999999999999
 40
0.9999999999999999
 10
137.2258460164835
 20
138.2781056182169
 30
0.0
 10
137.3174780212429
 20
138.349182636407
 30
0.0
 10
137.5122271637796
 20
138.5002454488263
 30
0.0
 10
137.7597347310176
 20
138.7902014779818
 30
0.0
 10
137.9695434604116
 20
139.1153991385305
 30
0.0
 10
138.057793009892
 20
139.3411849324246
 30
0.0
 10
138.1021580128484
 20
139.4546924514161
 30
0.0
  0
LINE
  5
2DF
330
1F
100
AcDbEntity
  8
0
  6
Continuous
 62
     7
370
    25
100
AcDbLine
 10
138.4021714681
 20
143.0725653562
 30
0.0
 11
136.2786122147
 21
142.942789443
 31
0.0
  0
SPLINE
  5
2E0
330
1F
100
AcDbEntity
  8
0
  6
Continuous
 62
     7
370
    25
100
AcDbSpline
210
0.0
220
0.0
230
1.0
 70
     8
 71
     3
 72
    13
 73
     9
 74
     0
 42
0.00000001
 43
0.00000001
 40
0.0
 40
0.0
 40
0.0
 40
0.0
 40
0.1035746466401556
 40
0.2111076158583395
 40
0.3219769626223819
 40
0.4454462032504121
 40
0.7113049728010379
 40
1.0
 40
1.0
 40
1.0
 40
1.0
 10
140.5021580128484
 20
141.6261948057497
 30
0.0
 10
140.494901848088
 20
141.7245375841985
 30
0.0
 10
140.4801122089964
 20
141.9249815168469
 30
0.0
 10
140.3538395994345
 20
142.2079235670768
 30
0.0
 10
140.1572922113037
 20
142.4661817920958
 30
0.0
 10
139.7934405382165
 20
142.7692771418508
 30
0.0
 10
139.1958531514811
 20
143.0348068081344
 30
0.0
 10
138.6738966679214
 20
143.0596383235492
 30
0.0
 10
138.402171468128
 20
143.0725653561655
 30
0.0
  0
LINE
  5
2E1
330
1F
100
AcDbEntity
  8
0
  6
Continuous
 62
     7
370
    25
100
AcDbLine
 10
138.1021580128
 20
141.4795249207
 30
0.0
 11
140.5021580128
 21
141.6261948057
 31
0.0
  0
LINE
  5
2E2
330
1F
100
AcDbEntity
  8
0
  6
Continuous
 62
     7
370
    25
100
AcDbLine
 10
140.5021580128
 20
139.3080225663
 30
0.0
 11
138.1021580128
 21
139.4546924514
 31
0.0
  0
SPLINE
  5
2E3
330
1F
100
AcDbEntity
  8
0
  6
Continuous
 62
     7
370
    25
100
AcDbSpline
210
0.0
220
0.0
230
1.0
 70
     8
 71
     3
 72
    13
 73
     9
 74
     0
 42
0.00000001
 43
0.00000001
 40
0.0
 40
0.0
 40
0.0
 40
0.0
 40
0.2886949682914851
 40
0.5545536835943151
 40
0.6780091910936105
 40
0.7888922083801199
 40
0.8964194071406489
 40
1.0
 40
1.0
 40
1.0
 40
1.0
 10
138.402171468128
 20
137.8616520159336
 30
0.0
 10
138.6738966587042
 20
137.8745790214164
 30
0.0
 10
139.1958531245587
 20
137.8994104847104
 30
0.0
 10
139.793428532662
 20
138.1649350861429
 30
0.0
 10
140.1572827128415
 20
138.4680260827472
 30
0.0
 10
140.3538302044071
 20
138.7262778368678
 30
0.0
 10
140.4801134935133
 20
139.0092292030361
 30
0.0
 10
140.4949019954844
 20
139.2096738657272
 30
0.0
 10
140.5021580128484
 20
139.3080225663494
 30
0.0
  0
LINE
  5
2E4
330
1F
100
AcDbEntity
  8
0
  6
Continuous
 62
     7
370
    25
100
AcDbLine
 10
136.2786122147
 20
137.9914279291
 30
0.0
 11
138.4021714681
 21
137.8616520159
 31
0.0
  0
SPLINE
  5
2E5
330
1F
100
AcDbEntity
  8
0
  6
Continuous
 62
     7
370
    25
100
AcDbSpline
210
0.0
220
0.0
230
1.0
 70
     8
 71
     3
 72
    12
 73
     8
 74
     0
 42
0.00000001
 43
0.00000001
 40
0.0
 40
0.0
 40
0.0
 40
0.0
 40
0.2225634137434379
 40
0.4462063173695244
 40
0.6680851268156934
 40
0.8917990985568368
 40
1.0
 40
1.0
 40
1.0
 40
1.0
 10
101.3482187189749
 20
142.0357078739655
 30
0.0
 10
101.28652215334
 20
142.0233547663988
 30
0.0
 10
101.1628297778357
 20
141.9985886355118
 30
0.0
 10
101.0036634360421
 20
141.8660047075139
 30
0.0
 10
100.8875815480252
 20
141.6796473040193
 30
0.0
 10
100.8358664972973
 20
141.4915564926661
 30
0.0
 10
100.8320280755204
 20
141.3749764597777
 30
0.0
 10
100.8307767887299
 20
141.3369725447142
 30
0.0
  0
SPLINE
  5
2E6
330
1F
100
AcDbEntity
  8
0
  6
Continuous
 62
     7
370
    25
100
AcDbSpline
210
0.0
220
0.0
230
1.0
 70
     8
 71
     3
 72
    12
 73
     8
 74
     0
 42
0.00000001
 43
0.00000001
 40
0.0
 40
0.0
 40
0.0
 40
0.0
 40
0.2225634137435277
 40
0.4462063173695683
 40
0.6680851268158055
 40
0.8917990985569333
 40
1.0
 40
1.0
 40
1.0
 40
1.0
 10
100.8307767887299
 20
139.5972448273849
 30
0.0
 10
100.8363633548325
 20
139.5187411673423
 30
0.0
 10
100.847563583322
 20
139.3613530842856
 30
0.0
 10
100.9416143610091
 20
139.1520015466582
 30
0.0
 10
101.0811054244071
 20
138.9932422521882
 30
0.0
 10
101.2263295242434
 20
138.9153933818715
 30
0.0
 10
101.3182526929735
 20
138.9026603410381
 30
0.0
 10
101.3482187189749
 20
138.8985094981335
 30
0.0
  0
ELLIPSE
  5
2E7
330
1F
100
AcDbEntity
  8
0
  6
Continuous
 62
     7
370
    25
100
AcDbEllipse
 10
101.9825734992
 20
138.8512358243
 30
0.0
 11
0.7999991634988676
 21
-0.04310148564320571
 31
0.0
210
0.0
220
0.0
230
0.9999999999999998
 40
0.0268411366
 41
2.487867318781157
 42
2.679391161172322
  0
SPLINE
  5
2E8
330
1F
100
AcDbEntity
  8
0
  6
Continuous
 62
     7
370
    25
100
AcDbSpline
210
0.0
220
0.0
230
1.0
 70
     8
 71
     3
 72
    11
 73
     7
 74
     0
 42
0.00000001
 43
0.00000001
 40
0.0
 40
0.0
 40
0.0
 40
0.0
 40
0.2500000000000017
 40
0.4999999999999978
 40
0.7499999999999992
 40
1.0
 40
1.0
 40
1.0
 40
1.0
 10
101.2670317463715
 20
138.8993899822795
 30
0.0
 10
101.1887966380392
 20
138.9143892874461
 30
0.0
 10
101.0323264213747
 20
138.9443878977793
 30
0.0
 10
100.8390002699582
 20
139.1079076005759
 30
0.0
 10
100.7046238376792
 20
139.3334872146583
 30
0.0
 10
100.687242089292
 20
139.5099126125733
 30
0.0
 10
100.6785512150984
 20
139.5981253115309
 30
0.0
  0
SPLINE
  5
2E9
330
1F
100
AcDbEntity
  8
0
  6
Continuous
 62
     7
370
    25
100
AcDbSpline
210
0.0
220
0.0
230
1.0
 70
     8
 71
     3
 72
    11
 73
     7
 74
     0
 42
0.00000001
 43
0.00000001
 40
0.0
 40
0.0
 40
0.0
 40
0.0
 40
0.2500000000000013
 40
0.5000000000000017
 40
0.7500000000000001
 40
1.0
 40
1.0
 40
1.0
 40
1.0
 10
101.2670317463715
 20
142.0348273898196
 30
0.0
 10
101.1887966380392
 20
142.019828084653
 30
0.0
 10
101.0323264213747
 20
141.9898294743198
 30
0.0
 10
100.8390002699582
 20
141.8263097715232
 30
0.0
 10
100.7046238376792
 20
141.6007301574408
 30
0.0
 10
100.687242089292
 20
141.4243047595257
 30
0.0
 10
100.6785512150984
 20
141.3360920605682
 30
0.0
  0
ELLIPSE
  5
2EA
330
1F
100
AcDbEntity
  8
0
  6
Continuous
 62
     7
370
    25
100
AcDbEllipse
 10
101.9825734992
 20
142.0829815478
 30
0.0
 11
0.7999991634988676
 21
0.04310148564320571
 31
0.0
210
0.0
220
0.0
230
0.9999999999999998
 40
0.0268411366
 41
3.60379414600604
 42
3.795317988398103
  0
LINE
  5
2EB
330
1F
100
AcDbEntity
  8
0
  6
Continuous
 62
     7
370
    25
100
AcDbLine
 10
140.5021580128
 20
141.6261948057
 30
0.0
 11
140.5021580128
 21
139.3080225663
 31
0.0
  0
LINE
  5
2EC
330
1F
100
AcDbEntity
  8
0
  6
Continuous
 62
     7
370
    25
100
AcDbLine
 10
101.1678893908
 20
142.2533493485
 30
0.0
 11
122.7954375596
 21
142.8196866285
 31
0.0
  0
SPLINE
  5
2ED
330
1F
100
AcDbEntity
  8
0
  6
Continuous
 62
     7
370
    25
100
AcDbSpline
210
0.0
220
0.0
230
1.0
 70
     8
 71
     3
 72
     9
 73
     5
 74
     0
 42
0.00000001
 43
0.00000001
 40
0.0
 40
0.0
 40
0.0
 40
0.0
 40
0.5600012771711204
 40
1.0
 40
1.0
 40
1.0
 40
1.0
 10
122.7954375595673
 20
142.8196866285467
 30
0.0
 10
123.2728676960923
 20
142.8078522162016
 30
0.0
 10
124.1254195669322
 20
142.7867193852109
 30
0.0
 10
124.9823087715757
 20
142.7657586557984
 30
0.0
 10
125.3593389272246
 20
142.7565359616273
 30
0.0
  0
SPLINE
  5
2EE
330
1F
100
AcDbEntity
  8
0
  6
Continuous
 62
     7
370
    25
100
AcDbSpline
210
0.0
220
0.0
230
1.0
 70
     8
 71
     3
 72
     9
 73
     5
 74
     0
 42
0.00000001
 43
0.00000001
 40
0.0
 40
0.0
 40
0.0
 40
0.0
 40
0.5599999095971008
 40
1.0
 40
1.0
 40
1.0
 40
1.0
 10
125.3593389272246
 20
142.7565359616273
 30
0.0
 10
125.4534684178871
 20
142.7542385517301
 30
0.0
 10
125.6215568212053
 20
142.7501360333942
 30
0.0
 10
125.7897993409011
 20
142.7460396402012
 30
0.0
 10
125.8638260647768
 20
142.7442372268259
 30
0.0
  0
LINE
  5
2EF
330
1F
100
AcDbEntity
  8
0
  6
Continuous
 62
     7
370
    25
100
AcDbLine
 10
125.8638260648
 20
142.7442372268
 30
0.0
 11
138.4021714681
 21
143.0725653562
 31
0.0
  0
LINE
  5
2F0
330
1F
100
AcDbEntity
  8
0
  6
Continuous
 62
     7
370
    25
100
AcDbLine
 10
101.390334302
 20
142.0366531098
 30
0.0
 11
101.1678893908
 21
142.2533493485
 31
0.0
  0
LINE
  5
2F1
330
1F
100
AcDbEntity
  8
0
  6
Continuous
 62
     7
370
    25
100
AcDbLine
 10
138.4021714681
 20
137.8616520159
 30
0.0
 11
125.8638260648
 21
138.1899801453
 31
0.0
  0
SPLINE
  5
2F2
330
1F
100
AcDbEntity
  8
0
  6
Continuous
 62
     7
370
    25
100
AcDbSpline
210
0.0
220
0.0
230
1.0
 70
     8
 71
     3
 72
     9
 73
     5
 74
     0
 42
0.00000001
 43
0.00000001
 40
0.0
 40
0.0
 40
0.0
 40
0.0
 40
0.5600000882143287
 40
1.0
 40
1.0
 40
1.0
 40
1.0
 10
125.8638260647768
 20
138.1899801452732
 30
0.0
 10
125.7696136492451
 20
138.1876860291321
 30
0.0
 10
125.60137721944
 20
138.1835893938112
 30
0.0
 10
125.4332950617715
 20
138.1794866273519
 30
0.0
 10
125.3593389272246
 20
138.1776814104717
 30
0.0
  0
SPLINE
  5
2F3
330
1F
100
AcDbEntity
  8
0
  6
Continuous
 62
     7
370
    25
100
AcDbSpline
210
0.0
220
0.0
230
1.0
 70
     8
 71
     3
 72
     9
 73
     5
 74
     0
 42
0.00000001
 43
0.00000001
 40
0.0
 40
0.0
 40
0.0
 40
0.0
 40
0.5599987526606142
 40
1.0
 40
1.0
 40
1.0
 40
1.0
 10
125.3593389272246
 20
138.1776814104717
 30
0.0
 10
124.8795726693375
 20
138.1659398239493
 30
0.0
 10
124.0228453005572
 20
138.1449726584573
 30
0.0
 10
123.1704795520846
 20
138.1238324580852
 30
0.0
 10
122.7954375595673
 20
138.1145307435524
 30
0.0
  0
LINE
  5
2F4
330
1F
100
AcDbEntity
  8
0
  6
Continuous
 62
     7
370
    25
100
AcDbLine
 10
122.7954375596
 20
138.1145307436
 30
0.0
 11
101.1678893908
 21
138.6808680236
 31
0.0
  0
LINE
  5
2F5
330
1F
100
AcDbEntity
  8
0
  6
Continuous
 62
     7
370
    25
100
AcDbLine
 10
101.1678893908
 20
138.6808680236
 30
0.0
 11
101.390334302
 21
138.8975642623
 31
0.0
  0
LINE
  5
2F6
330
1F
100
AcDbEntity
  8
0
  6
Continuous
 62
     7
370
    25
100
AcDbLine
 10
96.0996010719
 20
141.3360920606
 30
0.0
 11
100.6785512151
 21
141.3360920606
 31
0.0
  0
SPLINE
  5
2F7
330
1F
100
AcDbEntity
  8
0
  6
Continuous
 62
     7
370
    25
100
AcDbSpline
210
0.0
220
0.0
230
1.0
 70
     8
 71
     3
 72
    13
 73
     9
 74
     0
 42
0.00000001
 43
0.00000001
 40
0.0
 40
0.0
 40
0.0
 40
0.0
 40
0.1143463544469914
 40
0.2890454840074685
 40
0.5294852105593209
 40
0.7014879056604271
 40
0.9335094878266192
 40
1.0
 40
1.0
 40
1.0
 40
1.0
 10
96.86156192216691
 20
142.0348273898196
 30
0.0
 10
96.82036072145794
 20
142.0299927983145
 30
0.0
 10
96.71621204913511
 20
142.0177718853844
 30
0.0
 10
96.52885255475526
 20
141.9451237903434
 30
0.0
 10
96.34682482474648
 20
141.8146115239366
 30
0.0
 10
96.1945412435321
 20
141.6277439247669
 30
0.0
 10
96.12203796665213
 20
141.4663705200103
 30
0.0
 10
96.1036882773334
 20
141.3598241691584
 30
0.0
 10
96.09960107194321
 20
141.3360920605682
 30
0.0
  0
LINE
  5
2F8
330
1F
100
AcDbEntity
  8
0
  6
Continuous
 62
     7
370
    25
100
AcDbLine
 10
101.2670317464
 20
142.0348273898
 30
0.0
 11
96.8615619222
 21
142.0348273898
 31
0.0
  0
LINE
  5
2F9
330
1F
100
AcDbEntity
  8
0
  6
Continuous
 62
     7
370
    25
100
AcDbLine
 10
96.8615619222
 20
138.8993899823
 30
0.0
 11
101.2670317464
 21
138.8993899823
 31
0.0
  0
SPLINE
  5
2FA
330
1F
100
AcDbEntity
  8
0
  6
Continuous
 62
     7
370
    25
100
AcDbSpline
210
0.0
220
0.0
230
1.0
 70
     8
 71
     3
 72
    12
 73
     8
 74
     0
 42
0.00000001
 43
0.00000001
 40
0.0
 40
0.0
 40
0.0
 40
0.0
 40
0.1396834586182492
 40
0.383189627403831
 40
0.5513169293013304
 40
0.8194729461607057
 40
1.0
 40
1.0
 40
1.0
 40
1.0
 10
96.09960107194321
 20
139.5981253115309
 30
0.0
 10
96.10984245268949
 20
139.5484103910524
 30
0.0
 10
96.13793733887782
 20
139.4120288749946
 30
0.0
 10
96.2450877002326
 20
139.2321127657824
 30
0.0
 10
96.42542478764557
 20
139.0537713373975
 30
0.0
 10
96.63388093221457
 20
138.9332511128461
 30
0.0
 10
96.7962378329185
 20
138.9091050995392
 30
0.0
 10
96.86156192216689
 20
138.8993899822795
 30
0.0
  0
LINE
  5
2FB
330
1F
100
AcDbEntity
  8
0
  6
Continuous
 62
     7
370
    25
100
AcDbLine
 10
100.6785512151
 20
139.5981253115
 30
0.0
 11
96.0996010719
 21
139.5981253115
 31
0.0
  0
ELLIPSE
  5
2FC
330
1F
100
AcDbEntity
  8
0
  6
Continuous
 62
     7
370
    25
100
AcDbEllipse
 10
96.4549444173
 20
140.6416472412
 30
0.0
 11
0.008721666502680138
 21
1.000418978703749
 31
0.0
210
0.0
220
0.0
230
1.0
 40
0.499714557
 41
0.8079180407726724
 42
1.588240544501507
  0
ELLIPSE
  5
2FD
330
1F
100
AcDbEntity
  8
0
  6
Continuous
 62
     7
370
    25
100
AcDbEllipse
 10
96.4549444173
 20
140.2925701309
 30
0.0
 11
-0.008721666502680138
 21
1.000418978703721
 31
0.0
210
0.0
220
0.0
230
1.0
 40
0.499714557
 41
1.553352109088286
 42
2.333674612817135
  0
LINE
  5
2FE
330
1F
100
AcDbEntity
  8
0
  6
Continuous
 62
     7
370
    25
100
AcDbLine
 10
95.9549444173
 20
140.6285542804
 30
0.0
 11
95.9549444173
 21
140.3056630917
 31
0.0
  0
LINE
  5
2FF
330
1F
100
AcDbEntity
  8
0
  6
Continuous
 62
     7
370
    25
100
AcDbLine
 10
101.1690172481
 20
142.2102782181
 30
0.0
 11
101.1678893908
 21
142.2533493485
 31
0.0
  0
LINE
  5
300
330
1F
100
AcDbEntity
  8
0
  6
Continuous
 62
     7
370
    25
100
AcDbLine
 10
101.1690172481
 20
138.723939154
 30
0.0
 11
101.1678893908
 21
138.6808680236
 31
0.0
  0
ELLIPSE
  5
301
330
1F
100
AcDbEntity
  8
0
  6
Continuous
 62
     7
370
    25
100
AcDbEllipse
 10
64.9511508134
 20
140.3047809614
 30
0.0
 11
36.18915845259205
 21
1.947628334984217
 31
0.0
210
0.0
220
0.0
230
1.0
 40
0.0007414247
 41
0.0282885576640235
 42
0.4911607830438957
  0
LINE
  5
302
330
1F
100
AcDbEntity
  8
0
  6
Continuous
 62
     7
370
    25
100
AcDbLine
 10
101.1257893365
 20
142.2523889852
 30
0.0
 11
101.348218719
 21
142.035707874
 31
0.0
  0
LINE
  5
303
330
1F
100
AcDbEntity
  8
0
  6
Continuous
 62
     7
370
    25
100
AcDbLine
 10
101.348218719
 20
138.8985094981
 30
0.0
 11
101.1257893365
 21
138.6818283869
 31
0.0
  0
ELLIPSE
  5
304
330
1F
100
AcDbEntity
  8
0
  6
Continuous
 62
     7
370
    25
100
AcDbEllipse
 10
64.9511508134
 20
140.6294364107
 30
0.0
 11
36.18915845257634
 21
-1.947628334983363
 31
0.0
210
0.0
220
0.0
230
1.0
 40
0.0007414247
 41
5.792024524151191
 42
6.254896749548009
  0
LINE
  5
305
330
1F
100
AcDbEntity
  8
0
  6
Continuous
 62
     7
370
    25
100
AcDbLine
 10
128.9700335908
 20
143.3320570982
 30
0.0
 11
129.6206870569
 21
143.566152232
 31
0.0
  0
SPLINE
  5
306
330
1F
100
AcDbEntity
  8
0
  6
Continuous
 62
     7
370
    25
100
AcDbSpline
210
0.0
220
0.0
230
1.0
 70
     8
 71
     3
 72
    10
 73
     6
 74
     0
 42
0.00000001
 43
0.00000001
 40
0.0
 40
0.0
 40
0.0
 40
0.0
 40
0.2383396858856108
 40
0.571650633368965
 40
1.0
 40
1.0
 40
1.0
 40
1.0
 10
128.9721337507655
 20
143.3256311281043
 30
0.0
 10
128.7278674956655
 20
143.2510329256774
 30
0.0
 10
128.1420021626651
 20
143.0721113604035
 30
0.0
 10
127.1054473616595
 20
142.8357672481485
 30
0.0
 10
126.31075326606
 20
142.777183871963
 30
0.0
 10
125.863826064777
 20
142.7442372268259
 30
0.0
  0
SPLINE
  5
307
330
1F
100
AcDbEntity
  8
0
  6
Continuous
 62
     7
370
    25
100
AcDbSpline
210
0.0
220
0.0
230
1.0
 70
     8
 71
     3
 72
    11
 73
     7
 74
     0
 42
0.00000001
 43
0.00000001
 40
0.0
 40
0.0
 40
0.0
 40
0.0
 40
0.2506671725023491
 40
0.5010414677145718
 40
0.7508849997170934
 40
1.0
 40
1.0
 40
1.0
 40
1.0
 10
122.7954375595673
 20
142.8196866285467
 30
0.0
 10
123.2711255721279
 20
142.8465611952018
 30
0.0
 10
124.221945807615
 20
142.900278928508
 30
0.0
 10
125.6226184248273
 20
143.1857443921619
 30
0.0
 10
126.9861841860791
 20
143.6072725387816
 30
0.0
 10
127.838851732635
 20
144.0236296164786
 30
0.0
 10
128.2645630139484
 20
144.2315041928551
 30
0.0
  0
SPLINE
  5
308
330
1F
100
AcDbEntity
  8
0
  6
Continuous
 62
     7
370
    25
100
AcDbSpline
210
0.0
220
0.0
230
1.0
 70
     8
 71
     3
 72
     9
 73
     5
 74
     0
 42
0.00000001
 43
0.00000001
 40
0.0
 40
0.0
 40
0.0
 40
0.0
 40
0.501325902198991
 40
1.0
 40
1.0
 40
1.0
 40
1.0
 10
128.2645629845066
 20
144.2315042462192
 30
0.0
 10
128.4886386853406
 20
144.3565469036893
 30
0.0
 10
128.9356048202464
 20
144.6059707952569
 30
0.0
 10
129.3496500999419
 20
144.9077389036781
 30
0.0
 10
129.5561237562428
 20
145.0582228428902
 30
0.0
  0
LINE
  5
309
330
1F
100
AcDbEntity
  8
0
  6
Continuous
 62
     7
370
    25
100
AcDbLine
 10
131.6219042162
 20
145.1729892822
 30
0.0
 11
129.5559504813
 21
145.0582140747
 31
0.0
  0
SPLINE
  5
30A
330
1F
100
AcDbEntity
  8
0
  6
Continuous
 62
     7
370
    25
100
AcDbSpline
210
0.0
220
0.0
230
1.0
 70
     8
 71
     3
 72
    14
 73
    10
 74
     0
 42
0.00000001
 43
0.00000001
 40
0.0
 40
0.0
 40
0.0
 40
0.0
 40
0.0829413618596714
 40
0.1664594845668899
 40
0.2437726390188662
 40
0.3161479456895724
 40
0.435372571819233
 40
0.6486290670514198
 40
1.0
 40
1.0
 40
1.0
 40
1.0
 10
131.6219042034022
 20
145.1729892773869
 30
0.0
 10
131.667703504677
 20
145.1711740878045
 30
0.0
 10
131.7596205881781
 20
145.1675310861042
 30
0.0
 10
131.8101656207144
 20
145.0858699536166
 30
0.0
 10
131.7692607242742
 20
144.9525864733318
 30
0.0
 10
131.6336596781697
 20
144.7642600170942
 30
0.0
 10
131.3167514074249
 20
144.4659929374319
 30
0.0
 10
130.6397627971917
 20
144.0079657786466
 30
0.0
 10
130.0115959809783
 20
143.7356302499687
 30
0.0
 10
129.6206841172535
 20
143.5661542663189
 30
0.0
  0
LINE
  5
30B
330
1F
100
AcDbEntity
  8
0
  6
Continuous
 62
     7
370
    25
100
AcDbLine
 10
129.5559504813
 20
135.8760032974
 30
0.0
 11
131.6219042162
 21
135.7612280899
 31
0.0
  0
SPLINE
  5
30C
330
1F
100
AcDbEntity
  8
0
  6
Continuous
 62
     7
370
    25
100
AcDbSpline
210
0.0
220
0.0
230
1.0
 70
     8
 71
     3
 72
     9
 73
     5
 74
     0
 42
0.00000001
 43
0.00000001
 40
0.0
 40
0.0
 40
0.0
 40
0.0
 40
0.4986740982738613
 40
1.0
 40
1.0
 40
1.0
 40
1.0
 10
129.5561235550173
 20
135.8759943473736
 30
0.0
 10
129.3496499139475
 20
136.0264782836526
 30
0.0
 10
128.9356046651879
 20
136.3282463859061
 30
0.0
 10
128.488638563243
 20
136.5776702775283
 30
0.0
 10
128.2645628791444
 20
136.7027129349079
 30
0.0
  0
SPLINE
  5
30D
330
1F
100
AcDbEntity
  8
0
  6
Continuous
 62
     7
370
    25
100
AcDbSpline
210
0.0
220
0.0
230
1.0
 70
     8
 71
     3
 72
    11
 73
     7
 74
     0
 42
0.00000001
 43
0.00000001
 40
0.0
 40
0.0
 40
0.0
 40
0.0
 40
0.249115000282908
 40
0.4989585322854288
 40
0.749332827497652
 40
1.0
 40
1.0
 40
1.0
 40
1.0
 10
128.2645630139484
 20
136.702713179244
 30
0.0
 10
127.838851732635
 20
136.9105877556205
 30
0.0
 10
126.9861841860791
 20
137.3269448333175
 30
0.0
 10
125.6226184248273
 20
137.7484729799372
 30
0.0
 10
124.221945807615
 20
138.0339384435911
 30
0.0
 10
123.2711255721279
 20
138.0876561768972
 30
0.0
 10
122.7954375595673
 20
138.1145307435524
 30
0.0
  0
SPLINE
  5
30E
330
1F
100
AcDbEntity
  8
0
  6
Continuous
 62
     7
370
    25
100
AcDbSpline
210
0.0
220
0.0
230
1.0
 70
     8
 71
     3
 72
    10
 73
     6
 74
     0
 42
0.00000001
 43
0.00000001
 40
0.0
 40
0.0
 40
0.0
 40
0.0
 40
0.4283493666310629
 40
0.7616603141144171
 40
1.0
 40
1.0
 40
1.0
 40
1.0
 10
125.863826064777
 20
138.1899801452732
 30
0.0
 10
126.31075326606
 20
138.157033500136
 30
0.0
 10
127.1054473616596
 20
138.0984501239506
 30
0.0
 10
128.1420021626652
 20
137.8621060116957
 30
0.0
 10
128.7278674956655
 20
137.6831844464218
 30
0.0
 10
128.9721337507656
 20
137.6085862439949
 30
0.0
  0
LINE
  5
30F
330
1F
100
AcDbEntity
  8
0
  6
Continuous
 62
     7
370
    25
100
AcDbLine
 10
128.9700335907
 20
137.6021602736
 30
0.0
 11
129.6206870568
 21
137.3680651398
 31
0.0
  0
SPLINE
  5
310
330
1F
100
AcDbEntity
  8
0
  6
Continuous
 62
     7
370
    25
100
AcDbSpline
210
0.0
220
0.0
230
1.0
 70
     8
 71
     3
 72
    15
 73
    11
 74
     0
 42
0.00000001
 43
0.00000001
 40
0.0
 40
0.0
 40
0.0
 40
0.0
 40
0.2091652517822445
 40
0.4176299509274904
 40
0.5931463878153089
 40
0.6923603779431111
 40
0.7731125739307013
 40
0.8543366880968447
 40
0.9261517123972135
 40
1.0
 40
1.0
 40
1.0
 40
1.0
 10
129.6206841171629
 20
137.3680631055487
 30
0.0
 10
129.8542683292583
 20
137.2703654730593
 30
0.0
 10
130.3206544149184
 20
137.07529742464
 30
0.0
 10
130.9443045620976
 20
136.7260175712875
 30
0.0
 10
131.4041541913982
 20
136.3931273843441
 30
0.0
 10
131.666038562168
 20
136.1315092983081
 30
0.0
 10
131.7865085426833
 20
135.9509152853943
 30
0.0
 10
131.8053017695929
 20
135.828821122084
 30
0.0
 10
131.7442635682864
 20
135.7647711327655
 30
0.0
 10
131.6630684497751
 20
135.7624200467276
 30
0.0
 10
131.6219042033672
 20
135.7612280947141
 30
0.0
  0
SPLINE
  5
311
330
1F
100
AcDbEntity
  8
0
  6
Continuous
 62
     7
370
    25
100
AcDbSpline
210
0.0
220
0.0
230
1.0
 70
    24
 71
     3
 72
    11
 73
     7
 74
     0
 42
0.00000001
 43
0.00000001
 40
0.0
 40
0.0
 40
0.0
 40
0.0
 40
0.2500000000000002
 40
0.5000000000000003
 40
0.7499999999999994
 40
1.0
 40
1.0
 40
1.0
 40
1.0
 10
138.3890874790673
 20
137.361994632245
 30
0.0
 10
138.3907739495712
 20
137.4263983424401
 30
0.0
 10
138.3941468905791
 20
137.5552057628302
 30
0.0
 10
138.3984267874804
 20
137.7186484314406
 30
0.0
 10
138.4014689082942
 20
137.8348223383138
 30
0.0
 10
138.4019372815168
 20
137.8527087900604
 30
0.0
 10
138.402171468128
 20
137.8616520159336
 30
0.0
  0
LINE
  5
312
330
1F
100
AcDbEntity
  8
0
  6
Continuous
 62
     7
370
    25
100
AcDbLine
 10
128.9721337508
 20
137.608586244
 30
0.0
 11
138.3890874791
 21
137.3619946322
 31
0.0
  0
LINE
  5
313
330
1F
100
AcDbEntity
  8
0
  6
Continuous
 62
     7
370
    25
100
AcDbLine
 10
138.3890874791
 20
143.5722227399
 30
0.0
 11
128.9721337508
 21
143.3256311281
 31
0.0
  0
SPLINE
  5
314
330
1F
100
AcDbEntity
  8
0
  6
Continuous
 62
     7
370
    25
100
AcDbSpline
210
0.0
220
0.0
230
1.0
 70
    24
 71
     3
 72
    11
 73
     7
 74
     0
 42
0.00000001
 43
0.00000001
 40
0.0
 40
0.0
 40
0.0
 40
0.0
 40
0.2499999999999932
 40
0.5000000000000011
 40
0.7499999999999978
 40
1.0
 40
1.0
 40
1.0
 40
1.0
 10
138.402171468128
 20
143.0725653561655
 30
0.0
 10
138.4019372815167
 20
143.0815085820387
 30
0.0
 10
138.4014689082942
 20
143.0993950337852
 30
0.0
 10
138.3984267874804
 20
143.2155689406585
 30
0.0
 10
138.3941468905791
 20
143.3790116092689
 30
0.0
 10
138.3907739495712
 20
143.507819029659
 30
0.0
 10
138.3890874790673
 20
143.5722227398541
 30
0.0
  0
ELLIPSE
  5
315
330
1F
100
AcDbEntity
  8
0
  6
Continuous
 62
     7
370
    25
100
AcDbEllipse
 10
138.4021580128
 20
139.3630237732
 30
0.0
 11
2.497021557391548
 21
-0.1525991103465856
 31
2.131628207280301E-14
210
-8.504919643681511E-15
220
5.197564944335965E-16
230
0.9999999999999998
 40
0.7994627403
 41
4.755979052769769
 42
6.332003616895591
  0
SPLINE
  5
316
330
1F
100
AcDbEntity
  8
0
  6
Continuous
 62
     7
370
    25
100
AcDbSpline
210
0.0
220
0.0
230
1.0
 70
    24
 71
     3
 72
    11
 73
     7
 74
     0
 42
0.00000001
 43
0.00000001
 40
0.0
 40
0.0
 40
0.0
 40
0.0
 40
0.2500000000000022
 40
0.4999999999999972
 40
0.75
 40
1.0
 40
1.0
 40
1.0
 40
1.0
 10
140.5021580128484
 20
139.3080225663494
 30
0.0
 10
140.5274179510526
 20
139.3080225663494
 30
0.0
 10
140.5779378274609
 20
139.3080225663494
 30
0.0
 10
140.6767964366613
 20
139.3080225663494
 30
0.0
 10
140.7861837164847
 20
139.3080225663494
 30
0.0
 10
140.8634999140605
 20
139.3080225663494
 30
0.0
 10
140.9021580128484
 20
139.3080225663494
 30
0.0
  0
ELLIPSE
  5
317
330
1F
100
AcDbEntity
  8
0
  6
Continuous
 62
     7
370
    25
100
AcDbEllipse
 10
138.4021580128
 20
141.5711935988
 30
0.0
 11
2.497021557391548
 21
0.1525991103465856
 31
2.131628207280301E-14
210
-8.504919643681503E-15
220
-5.197564944337172E-16
230
0.9999999999999998
 40
0.7994627403
 41
6.234366997463598
 42
7.810391561589415
  0
SPLINE
  5
318
330
1F
100
AcDbEntity
  8
0
  6
Continuous
 62
     7
370
    25
100
AcDbSpline
210
0.0
220
0.0
230
1.0
 70
    24
 71
     3
 72
    11
 73
     7
 74
     0
 42
0.00000001
 43
0.00000001
 40
0.0
 40
0.0
 40
0.0
 40
0.0
 40
0.2500000000000001
 40
0.4999999999999958
 40
0.7499999999999905
 40
0.9999999999999999
 40
0.9999999999999999
 40
0.9999999999999999
 40
0.9999999999999999
 10
140.9021580128484
 20
141.6261948057497
 30
0.0
 10
140.8634999140605
 20
141.6261948057497
 30
0.0
 10
140.7861837164847
 20
141.6261948057497
 30
0.0
 10
140.6767964366612
 20
141.6261948057497
 30
0.0
 10
140.5779378274609
 20
141.6261948057497
 30
0.0
 10
140.5274179510526
 20
141.6261948057497
 30
0.0
 10
140.5021580128484
 20
141.6261948057497
 30
0.0
  0
LINE
  5
319
330
1F
100
AcDbEntity
  8
0
  6
Continuous
 62
     7
370
    25
100
AcDbLine
 10
141.0389796874
 20
136.7403702618
 30
0.0
 11
129.6232504039
 21
137.3745774442
 31
0.0
  0
LINE
  5
31A
330
1F
100
AcDbEntity
  8
0
  6
Continuous
 62
     7
370
    25
100
AcDbLine
 10
140.9557746579
 20
135.242679732
 30
0.0
 11
141.0389796874
 21
136.7403702618
 31
0.0
  0
LINE
  5
31B
330
1F
100
AcDbEntity
  8
0
  6
Continuous
 62
     7
370
    25
100
AcDbLine
 10
131.6220966464
 20
135.7612173993
 30
0.0
 11
140.9557746579
 21
135.242679732
 31
0.0
  0
LINE
  5
31C
330
1F
100
AcDbEntity
  8
0
  6
Continuous
 62
     7
370
    25
100
AcDbLine
 10
140.9021580128
 20
139.3080225663
 30
0.0
 11
140.9021580128
 21
141.6261948057
 31
0.0
  0
LINE
  5
31D
330
1F
100
AcDbEntity
  8
0
  6
Continuous
 62
     7
370
    25
100
AcDbLine
 10
140.9557746579
 20
145.6915376401
 30
0.0
 11
131.6220966464
 21
145.1729999728
 31
0.0
  0
LINE
  5
31E
330
1F
100
AcDbEntity
  8
0
  6
Continuous
 62
     7
370
    25
100
AcDbLine
 10
141.0389796874
 20
144.1938471103
 30
0.0
 11
140.9557746579
 21
145.6915376401
 31
0.0
  0
LINE
  5
31F
330
1F
100
AcDbEntity
  8
0
  6
Continuous
 62
     7
370
    25
100
AcDbLine
 10
129.6232504039
 20
143.5596399279
 30
0.0
 11
141.0389796874
 21
144.1938471103
 31
0.0
  0
LINE
  5
320
330
1F
100
AcDbEntity
  8
0
  6
Continuous
 62
     7
370
    25
100
AcDbLine
 10
141.4021580128
 20
137.1035485873
 30
0.0
 11
141.0389796874
 21
136.7403702618
 31
0.0
  0
LINE
  5
321
330
1F
100
AcDbEntity
  8
0
  6
Continuous
 62
     7
370
    25
100
AcDbLine
 10
141.0389796874
 20
144.1938471103
 30
0.0
 11
141.4021580128
 21
143.8306687848
 31
0.0
  0
LINE
  5
322
330
1F
100
AcDbEntity
  8
0
  6
Continuous
 62
     7
370
    25
100
AcDbLine
 10
141.4021580128
 20
137.1035485873
 30
0.0
 11
141.4021580128
 21
143.8306687848
 31
0.0
  0
LINE
  5
323
330
1F
100
AcDbEntity
  8
0
  6
Continuous
 62
     7
370
    25
100
AcDbLine
 10
141.4021580128
 20
144.5570254358
 30
0.0
 11
141.0389796874
 21
144.1938471103
 31
0.0
  0
ARC
  5
324
330
1F
100
AcDbEntity
  8
0
  6
Continuous
 62
     7
370
    25
100
AcDbCircle
 10
141.0389796874
 20
144.1938471103
 30
0.0
 40
1.500000000000034
100
AcDbArc
 50
75.9883675978
 51
93.1798301199
  0
LINE
  5
325
330
1F
100
AcDbEntity
  8
0
  6
Continuous
 62
     7
370
    25
100
AcDbLine
 10
141.4021580128
 20
144.5570254358
 30
0.0
 11
141.4021580128
 21
145.6492169959
 31
0.0
  0
LINE
  5
326
330
1F
100
AcDbEntity
  8
0
  6
Continuous
 62
     7
370
    25
100
AcDbLine
 10
141.4021580128
 20
143.8306687848
 30
0.0
 11
141.4021580128
 21
144.5570254358
 31
0.0
  0
LINE
  5
327
330
1F
100
AcDbEntity
  8
0
  6
Continuous
 62
     7
370
    25
100
AcDbLine
 10
141.0389796874
 20
136.7403702618
 30
0.0
 11
141.4021580128
 21
136.3771919363
 31
0.0
  0
LINE
  5
328
330
1F
100
AcDbEntity
  8
0
  6
Continuous
 62
     7
370
    25
100
AcDbLine
 10
141.4021580128
 20
136.3771919363
 30
0.0
 11
141.4021580128
 21
137.1035485873
 31
0.0
  0
ARC
  5
329
330
1F
100
AcDbEntity
  8
0
  6
Continuous
 62
     7
370
    25
100
AcDbCircle
 10
141.0389796874
 20
136.7403702618
 30
0.0
 40
1.500000000000034
100
AcDbArc
 50
266.8201698801
 51
284.0116324022
  0
LINE
  5
32A
330
1F
100
AcDbEntity
  8
0
  6
Continuous
 62
     7
370
    25
100
AcDbLine
 10
141.4021580128
 20
135.2850003762
 30
0.0
 11
141.4021580128
 21
136.3771919363
 31
0.0
  0
SPLINE
  5
32B
330
1F
100
AcDbEntity
  8
0
  6
Continuous
 62
     7
370
    25
100
AcDbSpline
210
0.0
220
0.0
230
1.0
 70
    24
 71
     3
 72
     9
 73
     5
 74
     0
 42
0.00000001
 43
0.00000001
 40
0.0
 40
0.0
 40
0.0
 40
0.0
 40
0.5389665913333166
 40
1.0
 40
1.0
 40
1.0
 40
1.0
 10
129.5561245516477
 20
145.0582237452911
 30
0.0
 10
129.5101986098702
 20
145.0556723040813
 30
0.0
 10
129.4249874993562
 20
145.0509383534972
 30
0.0
 10
129.4375686915193
 20
145.0516373086173
 30
0.0
 10
129.4433690414273
 20
145.0519595502789
 30
0.0
  0
SPLINE
  5
32C
330
1F
100
AcDbEntity
  8
0
  6
Continuous
 62
     7
370
    25
100
AcDbSpline
210
0.0
220
0.0
230
1.0
 70
    24
 71
     3
 72
     9
 73
     5
 74
     0
 42
0.00000001
 43
0.00000001
 40
0.0
 40
0.0
 40
0.0
 40
0.0
 40
0.4490009010282451
 40
1.0
 40
1.0
 40
1.0
 40
1.0
 10
129.4494671125926
 20
135.8819190400888
 30
0.0
 10
129.441081560001
 20
135.8823849041217
 30
0.0
 10
129.4224055338003
 20
135.8834224611328
 30
0.0
 10
129.5086202955858
 20
135.8786327521447
 30
0.0
 10
129.5561245516477
 20
135.8759936268079
 30
0.0
  0
SPLINE
  5
32D
330
1F
100
AcDbEntity
  8
0
  6
Continuous
 62
     7
370
    25
100
AcDbSpline
210
0.0
220
0.0
230
1.0
 70
     8
 71
     3
 72
     9
 73
     5
 74
     0
 42
0.00000001
 43
0.00000001
 40
0.0
 40
0.0
 40
0.0
 40
0.0
 40
0.5407747560677987
 40
1.0
 40
1.0
 40
1.0
 40
1.0
 10
101.1678893908263
 20
142.2533493484662
 30
0.0
 10
101.1601333487789
 20
142.253378848879
 30
0.0
 10
101.1457908855621
 20
142.2534334010054
 30
0.0
 10
101.1314723817542
 20
142.2528291558705
 30
0.0
 10
101.1248969633502
 20
142.252551671251
 30
0.0
  0
LINE
  5
32E
330
1F
100
AcDbEntity
  8
0
  6
Continuous
 62
     7
370
    25
100
AcDbLine
 10
101.1678893908
 20
138.6808680236
 30
0.0
 11
101.1248969633
 21
138.6816657008
 31
0.0
  0
CIRCLE
  5
32F
330
1F
100
AcDbEntity
  8
0
  6
Continuous
 62
     7
370
    25
100
AcDbCircle
 10
151.4021580128
 20
140.467108686
 30
0.0
 40
7.558608890731335
  0
CIRCLE
  5
330
330
1F
100
AcDbEntity
  8
0
  6
Continuous
 62
     7
370
    25
100
AcDbCircle
 10
151.4021580128
 20
140.467108686
 30
0.0
 40
5.5
  0
CIRCLE
  5
331
330
1F
100
AcDbEntity
  8
0
  6
Continuous
 62
     7
370
    25
100
AcDbCircle
 10
151.4021580128
 20
140.467108686
 30
0.0
 40
8.0547478290882
  0
SPLINE
  5
332
330
1F
100
AcDbEntity
  8
0
  6
Continuous
 62
     7
370
    25
100
AcDbSpline
210
0.0
220
0.0
230
1.0
 70
     8
 71
     3
 72
    11
 73
     7
 74
     0
 42
0.00000001
 43
0.00000001
 40
0.0
 40
0.0
 40
0.0
 40
0.0
 40
0.292057402818309
 40
0.5665622171831318
 40
0.8065682389915614
 40
1.0
 40
1.0
 40
1.0
 40
1.0
 10
143.285952405795
 20
138.9873429802585
 30
0.0
 10
143.3176129421105
 20
138.8197424448349
 30
0.0
 10
143.3790312231712
 20
138.4946141308994
 30
0.0
 10
143.4589435824358
 20
138.0940104650331
 30
0.0
 10
143.4980423961633
 20
137.8361702690279
 30
0.0
 10
143.4826260332336
 20
137.7855248407463
 30
0.0
 10
143.4757461202495
 20
137.7629231323399
 30
0.0
  0
ARC
  5
333
330
1F
100
AcDbEntity
  8
0
  6
Continuous
 62
     7
370
    25
100
AcDbCircle
 10
151.4021580128
 20
140.467108686
 30
0.0
 40
8.249999999999968
100
AcDbArc
 50
169.6671934996
 51
190.3328065004
  0
SPLINE
  5
334
330
1F
100
AcDbEntity
  8
0
  6
Continuous
 62
     7
370
    25
100
AcDbSpline
210
0.0
220
0.0
230
1.0
 70
     8
 71
     3
 72
    12
 73
     8
 74
     0
 42
0.00000001
 43
0.00000001
 40
0.0
 40
0.0
 40
0.0
 40
0.0
 40
0.1882084234719034
 40
0.3759134198095929
 40
0.5768476463044262
 40
0.8018243756979399
 40
0.9999999999999999
 40
0.9999999999999999
 40
0.9999999999999999
 40
0.9999999999999999
 10
143.4757461202529
 20
143.1712942397558
 30
0.0
 10
143.4826177116224
 20
143.1496910452431
 30
0.0
 10
143.4963425139643
 20
143.1065424412739
 30
0.0
 10
143.4705178140062
 20
142.9130025834914
 30
0.0
 10
143.4194380193646
 20
142.6381735254523
 30
0.0
 10
143.3521980176964
 20
142.302433388083
 30
0.0
 10
143.3070817705761
 20
142.0602816880702
 30
0.0
 10
143.285952405795
 20
141.9468743918405
 30
0.0
  0
ARC
  5
335
330
1F
100
AcDbEntity
  8
0
  6
Continuous
 62
     7
370
    25
100
AcDbCircle
 10
151.4021580128
 20
140.467108686
 30
0.0
 40
8.986048245082024
100
AcDbArc
 50
200.7364869057
 51
159.2635130943
  0
LINE
  5
336
330
1F
100
AcDbEntity
  8
0
  6
Continuous
 62
     7
370
    25
100
AcDbLine
 10
143.4757461202
 20
137.7629231323
 30
0.0
 11
141.7460864685
 21
136.0332634806
 31
0.0
  0
LINE
  5
337
330
1F
100
AcDbEntity
  8
0
  6
Continuous
 62
     7
370
    25
100
AcDbLine
 10
141.7460864685
 20
144.9009538915
 30
0.0
 11
143.4757461203
 21
143.1712942398
 31
0.0
  0
ARC
  5
338
330
1F
100
AcDbEntity
  8
0
  6
Continuous
 62
     7
370
    25
100
AcDbCircle
 10
141.0389796874
 20
144.1938471103
 30
0.0
 40
1.000000000000006
100
AcDbArc
 50
45.0
 51
68.7044833353
  0
ARC
  5
339
330
1F
100
AcDbEntity
  8
0
  6
Continuous
 62
     7
370
    25
100
AcDbCircle
 10
141.0389796874
 20
136.7403702618
 30
0.0
 40
1.000000000000006
100
AcDbArc
 50
291.2955166647
 51
315.0
  0
LINE
  5
33A
330
1F
100
AcDbEntity
  8
0
  6
Continuous
 62
     7
370
    25
100
AcDbLine
 10
128.2514830306
 20
136.6790053149
 30
0.0
 11
128.2645630139
 21
136.7027131792
 31
0.0
  0
ARC
  5
33B
330
1F
100
AcDbEntity
  8
0
  6
Continuous
 62
     7
370
    25
100
AcDbCircle
 10
96.3380167547
 20
139.4861177376
 30
0.0
 40
0.2634155165731553
100
AcDbArc
 50
154.835884439
 51
203.8550672366
  0
ARC
  5
33C
330
1F
100
AcDbEntity
  8
0
  6
Continuous
 62
     7
370
    25
100
AcDbCircle
 10
96.3379900881
 20
141.4480942359
 30
0.0
 40
0.2633890854111544
100
AcDbArc
 50
156.1139740163
 51
205.1655192549
  0
LINE
  5
33D
330
1F
100
AcDbEntity
  8
0
  6
Continuous
 62
     7
370
    25
100
AcDbLine
 10
95.9549444173
 20
140.6285542804
 30
0.0
 11
95.9021580941
 21
140.6285542804
 31
0.0
  0
LINE
  5
33E
330
1F
100
AcDbEntity
  8
0
  6
Continuous
 62
     7
370
    25
100
AcDbLine
 10
95.9549444173
 20
140.3056630917
 30
0.0
 11
95.9021580814
 21
140.3056630917
 31
0.0
  0
LINE
  5
33F
330
1F
100
AcDbEntity
  8
0
  6
Continuous
 62
     7
370
    25
100
AcDbLine
 10
141.7460864685
 20
136.0332634806
 30
0.0
 11
141.4021580128
 21
136.3771919363
 31
0.0
  0
LINE
  5
340
330
1F
100
AcDbEntity
  8
0
  6
Continuous
 62
     7
370
    25
100
AcDbLine
 10
141.4021580128
 20
137.1035485873
 30
0.0
 11
143.2859524058
 21
138.9873429803
 31
0.0
  0
LINE
  5
341
330
1F
100
AcDbEntity
  8
0
  6
Continuous
 62
     7
370
    25
100
AcDbLine
 10
143.2859524058
 20
141.9468743918
 30
0.0
 11
141.4021580128
 21
143.8306687848
 31
0.0
  0
LINE
  5
342
330
1F
100
AcDbEntity
  8
0
  6
Continuous
 62
     7
370
    25
100
AcDbLine
 10
141.7460864685
 20
144.9009538915
 30
0.0
 11
141.4021580128
 21
144.5570254358
 31
0.0
  0
INSERT
  5
34E
330
1F
100
AcDbEntity
  8
0
  6
Continuous
 62
     7
370
    18
100
AcDbBlockReference
  2
SW_CENTERMARKSYMBOL_1
 10
151.4021580128
 20
140.467108686
 30
0.0
  0
LINE
  5
34F
330
1F
100
AcDbEntity
  8
0
  6
Continuous
 62
     7
370
    18
100
AcDbLine
 10
164.9021580128
 20
127.924233686
 30
0.0
 11
179.379452053
 21
128.3766491248
 31
0.0
  0
LINE
  5
350
330
1F
100
AcDbEntity
  8
0
  6
Continuous
 62
     7
370
    18
100
AcDbLine
 10
179.379452053
 20
152.5575682473
 30
0.0
 11
164.9021580128
 21
153.009983686
 31
0.0
  0
LINE
  5
351
330
1F
100
AcDbEntity
  8
0
  6
Continuous
 62
     7
370
    18
100
AcDbLine
 10
132.9021580128
 20
152.525608686
 30
0.0
 11
129.2763249879
 21
152.525608686
 31
0.0
  0
LINE
  5
352
330
1F
100
AcDbEntity
  8
0
  6
Continuous
 62
     7
370
    18
100
AcDbLine
 10
129.2763249879
 20
128.408608686
 30
0.0
 11
132.9021580128
 21
128.408608686
 31
0.0
  0
LINE
  5
353
330
1F
100
AcDbEntity
  8
0
  6
Continuous
 62
     7
370
    25
100
AcDbLine
 10
132.9021580128
 20
152.687608686
 30
0.0
 11
132.9021580128
 21
152.6249092526
 31
0.0
  0
SPLINE
  5
354
330
1F
100
AcDbEntity
  8
0
  6
Continuous
 62
     7
370
     0
100
AcDbSpline
210
0.0
220
0.0
230
1.0
 70
     8
 71
     3
 72
    18
 73
    14
 74
     0
 42
0.00000001
 43
0.00000001
 40
0.0
 40
0.0
 40
0.0
 40
0.0
 40
0.0949015896725855
 40
0.1898031793402336
 40
0.2847047690078814
 40
0.3796063586755302
 40
0.474507948343178
 40
0.5694095380108263
 40
0.6643111276784741
 40
0.759212717346123
 40
0.8541143070137707
 40
0.9490158966814193
 40
1.0
 40
1.0
 40
1.0
 40
1.0
 10
132.9021453857422
 20
152.6249092525602
 30
0.0
 10
132.9021580128484
 20
152.4374543331256
 30
0.0
 10
132.9021580128484
 20
152.1271674688863
 30
0.0
 10
132.9021580128484
 20
151.6972326229545
 30
0.0
 10
132.9021580128484
 20
151.1520615086444
 30
0.0
 10
132.9021580128484
 20
150.497248319323
 30
0.0
 10
132.9021580128484
 20
149.7395123244167
 30
0.0
 10
132.9021580128484
 20
148.8866289206139
 30
0.0
 10
132.9021580128484
 20
147.9473498457732
 30
0.0
 10
132.9021580128484
 20
146.9313133742501
 30
0.0
 10
132.9021580128484
 20
145.8489454151595
 30
0.0
 10
132.9021580128484
 20
145.2441144931355
 30
0.0
 10
132.9021580128456
 20
145.4467503366102
 30
0.0
 10
132.9021580128485
 20
145.2441144931355
 30
0.0
  0
SPLINE
  5
355
330
1F
100
AcDbEntity
  8
0
  6
Continuous
 62
     7
370
     0
100
AcDbSpline
210
0.0
220
0.0
230
1.0
 70
     8
 71
     3
 72
    19
 73
    15
 74
     0
 42
0.00000001
 43
0.00000001
 40
0.0
 40
0.0
 40
0.0
 40
0.0
 40
0.0465650098681854
 40
0.1332409180619858
 40
0.2199168262557872
 40
0.3065927344495897
 40
0.39326864264339
 40
0.479944550837192
 40
0.5666204590309933
 40
0.6532963672247947
 40
0.7399722754185963
 40
0.8266481836123973
 40
0.9133240918061987
 40
1.0
 40
1.0
 40
1.0
 40
1.0
 10
132.9021453857422
 20
135.6901028789633
 30
0.0
 10
132.9021580128484
 20
135.0852719569394
 30
0.0
 10
132.9021580128484
 20
134.0029039978488
 30
0.0
 10
132.9021580128484
 20
132.9868675263257
 30
0.0
 10
132.9021580128484
 20
132.047588451485
 30
0.0
 10
132.9021580128484
 20
131.1947050476822
 30
0.0
 10
132.9021580128484
 20
130.4369690527759
 30
0.0
 10
132.9021580128484
 20
129.7821558634546
 30
0.0
 10
132.9021580128484
 20
129.2369847491444
 30
0.0
 10
132.9021580128484
 20
128.8070499032127
 30
0.0
 10
132.9021580128484
 20
128.4967630389734
 30
0.0
 10
132.9021580128484
 20
128.3093081195389
 30
0.0
 10
132.9021580128484
 20
128.2466086860495
 30
0.0
 10
132.9021580128534
 20
128.2586958686104
 30
0.0
 10
132.9021580128484
 20
128.2466086860495
 30
0.0
  0
ENDSEC
  0
SECTION
  2
OBJECTS
  0
DICTIONARY
  5
C
330
0
100
AcDbDictionary
281
     1
  3
ACAD_GROUP
350
D
  3
ACAD_LAYOUT
350
1A
  3
ACAD_MLINESTYLE
350
17
  3
ACAD_PLOTSETTINGS
350
19
  3
ACAD_PLOTSTYLENAME
350
E
  3
ACAD_SCALELIST
350
47
  3
DWGPROPS
350
356
  0
DICTIONARY
  5
D
102
{ACAD_REACTORS
330
C
102
}
330
C
100
AcDbDictionary
281
     1
  0
DICTIONARY
  5
1A
102
{ACAD_REACTORS
330
C
102
}
330
C
100
AcDbDictionary
281
     1
  3
Layout1
350
1E
  3
Layout2
350
26
  3
Model
350
22
  0
DICTIONARY
  5
17
102
{ACAD_REACTORS
330
C
102
}
330
C
100
AcDbDictionary
281
     1
  3
Standard
350
18
  0
DICTIONARY
  5
19
102
{ACAD_REACTORS
330
C
102
}
330
C
100
AcDbDictionary
281
     1
  0
ACDBDICTIONARYWDFLT
  5
E
102
{ACAD_REACTORS
330
C
102
}
330
C
100
AcDbDictionary
281
     1
  3
Normal
350
F
100
AcDbDictionaryWithDefault
340
F
  0
DICTIONARY
  5
47
102
{ACAD_REACTORS
330
C
102
}
330
C
100
AcDbDictionary
281
     1
  3
A0
350
48
  3
A1
350
49
  3
A2
350
4A
  3
A3
350
4B
  3
A4
350
4C
  3
A5
350
4D
  3
A6
350
4E
  3
A7
350
4F
  3
A8
350
50
  3
A9
350
51
  3
B0
350
52
  3
B1
350
53
  3
B2
350
54
  3
B3
350
55
  3
B4
350
56
  3
B5
350
57
  3
B6
350
58
  0
XRECORD
  5
356
102
{ACAD_REACTORS
330
C
102
}
330
C
100
AcDbXrecord
280
     1
  1
DWGPROPS COOKIE
  2

  3

  4

  6

  7

  8
user28
  9

300
=
301
=
302
=
303
=
304
=
305
=
306
=
307
=
308
=
309
=
 40
0.0
 41
2460297.305376921
 42
2460297.305378009
  1

 90
        0
  0
LAYOUT
  5
1E
102
{ACAD_REACTORS
330
1A
102
}
330
1A
100
AcDbPlotSettings
  1

  2
none_device
  4

  6

 40
0.0
 41
0.0
 42
0.0
 43
0.0
 44
0.0
 45
0.0
 46
0.0
 47
0.0
 48
0.0
 49
0.0
140
0.0
141
0.0
142
1.0
143
1.0
 70
   688
 72
     1
 73
     0
 74
     5
  7

 75
    16
147
1.0
148
0.0
149
0.0
100
AcDbLayout
  1
Layout1
 70
     1
 71
     1
 10
0.0
 20
0.0
 11
420.0
 21
297.0
 12
0.0
 22
0.0
 32
0.0
 14
1.0000000000E+20
 24
1.0000000000E+20
 34
1.0000000000E+20
 15
-1.0000000000E+20
 25
-1.0000000000E+20
 35
-1.0000000000E+20
146
0.0
 13
0.0
 23
0.0
 33
0.0
 16
1.0
 26
0.0
 36
0.0
 17
0.0
 27
1.0
 37
0.0
 76
     0
330
1B
  0
LAYOUT
  5
26
102
{ACAD_REACTORS
330
1A
102
}
330
1A
100
AcDbPlotSettings
  1

  2
none_device
  4

  6

 40
0.0
 41
0.0
 42
0.0
 43
0.0
 44
0.0
 45
0.0
 46
0.0
 47
0.0
 48
0.0
 49
0.0
140
0.0
141
0.0
142
1.0
143
1.0
 70
   688
 72
     1
 73
     0
 74
     5
  7

 75
    16
147
1.0
148
0.0
149
0.0
100
AcDbLayout
  1
Layout2
 70
     1
 71
     2
 10
0.0
 20
0.0
 11
0.0
 21
0.0
 12
0.0
 22
0.0
 32
0.0
 14
0.0
 24
0.0
 34
0.0
 15
0.0
 25
0.0
 35
0.0
146
0.0
 13
0.0
 23
0.0
 33
0.0
 16
1.0
 26
0.0
 36
0.0
 17
0.0
 27
1.0
 37
0.0
 76
     0
330
23
  0
LAYOUT
  5
22
102
{ACAD_REACTORS
330
1A
102
}
330
1A
100
AcDbPlotSettings
  1

  2
none_device
  4
Letter_(8.50_x_11.00_Inches)
  6

 40
6.35
 41
6.35
 42
6.35000508
 43
6.35000508
 44
215.9
 45
279.4
 46
0.0
 47
0.0
 48
0.0
 49
0.0
140
0.0
141
0.0
142
1.0
143
1.0
 70
  1712
 72
     1
 73
     0
 74
     0
  7

 75
     0
147
1.0
148
0.0
149
0.0
100
AcDbLayout
  1
Model
 70
     1
 71
     0
 10
0.0
 20
0.0
 11
431.8
 21
279.4
 12
0.0
 22
0.0
 32
0.0
 14
0.0
 24
0.0
 34
0.0
 15
431.8
 25
279.4
 35
0.0
146
0.0
 13
0.0
 23
0.0
 33
0.0
 16
1.0
 26
0.0
 36
0.0
 17
0.0
 27
1.0
 37
0.0
 76
     0
330
1F
331
29
  0
MLINESTYLE
  5
18
102
{ACAD_REACTORS
330
17
102
}
330
17
100
AcDbMlineStyle
  2
Standard
 70
     0
  3

 62
   256
 51
90.0
 52
90.0
 71
     2
 49
0.5
 62
   256
  6
BYLAYER
 49
-0.5
 62
   256
  6
BYLAYER
  0
ACDBPLACEHOLDER
  5
F
102
{ACAD_REACTORS
330
E
102
}
330
E
  0
SCALE
  5
48
102
{ACAD_REACTORS
330
47
102
}
330
47
100
AcDbScale
 70
     0
300
1:1
140
1.0
141
1.0
290
     1
  0
SCALE
  5
49
102
{ACAD_REACTORS
330
47
102
}
330
47
100
AcDbScale
 70
     0
300
1:2
140
1.0
141
2.0
290
     0
  0
SCALE
  5
4A
102
{ACAD_REACTORS
330
47
102
}
330
47
100
AcDbScale
 70
     0
300
1:4
140
1.0
141
4.0
290
     0
  0
SCALE
  5
4B
102
{ACAD_REACTORS
330
47
102
}
330
47
100
AcDbScale
 70
     0
300
1:5
140
1.0
141
5.0
290
     0
  0
SCALE
  5
4C
102
{ACAD_REACTORS
330
47
102
}
330
47
100
AcDbScale
 70
     0
300
1:8
140
1.0
141
8.0
290
     0
  0
SCALE
  5
4D
102
{ACAD_REACTORS
330
47
102
}
330
47
100
AcDbScale
 70
     0
300
1:10
140
1.0
141
10.0
290
     0
  0
SCALE
  5
4E
102
{ACAD_REACTORS
330
47
102
}
330
47
100
AcDbScale
 70
     0
300
1:16
140
1.0
141
16.0
290
     0
  0
SCALE
  5
4F
102
{ACAD_REACTORS
330
47
102
}
330
47
100
AcDbScale
 70
     0
300
1:20
140
1.0
141
20.0
290
     0
  0
SCALE
  5
50
102
{ACAD_REACTORS
330
47
102
}
330
47
100
AcDbScale
 70
     0
300
1:30
140
1.0
141
30.0
290
     0
  0
SCALE
  5
51
102
{ACAD_REACTORS
330
47
102
}
330
47
100
AcDbScale
 70
     0
300
1:40
140
1.0
141
40.0
290
     0
  0
SCALE
  5
52
102
{ACAD_REACTORS
330
47
102
}
330
47
100
AcDbScale
 70
     0
300
1:50
140
1.0
141
50.0
290
     0
  0
SCALE
  5
53
102
{ACAD_REACTORS
330
47
102
}
330
47
100
AcDbScale
 70
     0
300
1:100
140
1.0
141
100.0
290
     0
  0
SCALE
  5
54
102
{ACAD_REACTORS
330
47
102
}
330
47
100
AcDbScale
 70
     0
300
2:1
140
2.0
141
1.0
290
     0
  0
SCALE
  5
55
102
{ACAD_REACTORS
330
47
102
}
330
47
100
AcDbScale
 70
     0
300
4:1
140
4.0
141
1.0
290
     0
  0
SCALE
  5
56
102
{ACAD_REACTORS
330
47
102
}
330
47
100
AcDbScale
 70
     0
300
8:1
140
8.0
141
1.0
290
     0
  0
SCALE
  5
57
102
{ACAD_REACTORS
330
47
102
}
330
47
100
AcDbScale
 70
     0
300
10:1
140
10.0
141
1.0
290
     0
  0
SCALE
  5
58
102
{ACAD_REACTORS
330
47
102
}
330
47
100
AcDbScale
 70
     0
300
100:1
140
100.0
141
1.0
290
     0
  0
ENDSEC
  0
EOF
