  0
SECTION
  2
HEADER
  9
$ACADVER
  1
AC1015
  9
$ACADMAINTVER
 70
     6
  9
$DWGCODEPAGE
  3
DOS932
  9
$INSBASE
 10
0.0
 20
0.0
 30
0.0
  9
$EXTMIN
 10
0.0
 20
0.0
 30
0.0
  9
$EXTMAX
 10
431.8
 20
279.4
 30
0.0
  9
$LIMMIN
 10
0.0
 20
0.0
  9
$LIMMAX
 10
431.8
 20
279.4
  9
$ORTHOMODE
 70
     0
  9
$REGENMODE
 70
     1
  9
$FILLMODE
 70
     1
  9
$QTEXTMODE
 70
     0
  9
$MIRRTEXT
 70
     1
  9
$LTSCALE
 40
1.0
  9
$ATTMODE
 70
     1
  9
$TEXTSIZE
 40
3.5
  9
$TRACEWID
 40
1.0
  9
$TEXTSTYLE
  7
Standard
  9
$CLAYER
  8
0
  9
$CELTYPE
  6
ByLayer
  9
$CECOLOR
 62
   256
  9
$CELTSCALE
 40
1.0
  9
$DISPSILH
 70
     0
  9
$DIMSCALE
 40
1.0
  9
$DIMASZ
 40
3.556
  9
$DIMEXO
 40
1.0
  9
$DIMDLI
 40
3.75
  9
$DIMRND
 40
0.0
  9
$DIMDLE
 40
0.0
  9
$DIMEXE
 40
1.0
  9
$DIMTP
 40
0.0
  9
$DIMTM
 40
0.0
  9
$DIMTXT
 40
3.5
  9
$DIMCEN
 40
2.5
  9
$DIMTSZ
 40
0.0
  9
$DIMTOL
 70
     0
  9
$DIMLIM
 70
     0
  9
$DIMTIH
 70
     1
  9
$DIMTOH
 70
     1
  9
$DIMSE1
 70
     0
  9
$DIMSE2
 70
     0
  9
$DIMTAD
 70
     1
  9
$DIMZIN
 70
     0
  9
$DIMBLK
  1

  9
$DIMASO
 70
     1
  9
$DIMSHO
 70
     1
  9
$DIMPOST
  1

  9
$DIMAPOST
  1

  9
$DIMALT
 70
     0
  9
$DIMALTD
 70
     3
  9
$DIMALTF
 40
0.0393700787
  9
$DIMLFAC
 40
1.0
  9
$DIMTOFL
 70
     1
  9
$DIMTVP
 40
0.0
  9
$DIMTIX
 70
     0
  9
$DIMSOXD
 70
     0
  9
$DIMSAH
 70
     0
  9
$DIMBLK1
  1

  9
$DIMBLK2
  1

  9
$DIMSTYLE
  2
ISO-25
  9
$DIMCLRD
 70
     0
  9
$DIMCLRE
 70
     0
  9
$DIMCLRT
 70
     0
  9
$DIMTFAC
 40
1.0
  9
$DIMGAP
 40
1.524
  9
$DIMJUST
 70
     0
  9
$DIMSD1
 70
     0
  9
$DIMSD2
 70
     0
  9
$DIMTOLJ
 70
     0
  9
$DIMTZIN
 70
     0
  9
$DIMALTZ
 70
     0
  9
$DIMALTTZ
 70
     0
  9
$DIMUPT
 70
     0
  9
$DIMDEC
 70
     3
  9
$DIMTDEC
 70
     3
  9
$DIMALTU
 70
     2
  9
$DIMALTTD
 70
     3
  9
$DIMTXSTY
  7
Standard
  9
$DIMAUNIT
 70
     0
  9
$DIMADEC
 70
     2
  9
$DIMALTRND
 40
0.0
  9
$DIMAZIN
 70
     0
  9
$DIMDSEP
 70
    44
  9
$DIMATFIT
 70
     3
  9
$DIMFRAC
 70
     0
  9
$DIMLDRBLK
  1

  9
$DIMLUNIT
 70
     2
  9
$DIMLWD
 70
    -2
  9
$DIMLWE
 70
    -2
  9
$DIMTMOVE
 70
     0
  9
$LUNITS
 70
     2
  9
$LUPREC
 70
     3
  9
$SKETCHINC
 40
1.0
  9
$FILLETRAD
 40
0.0
  9
$AUNITS
 70
     0
  9
$AUPREC
 70
     2
  9
$MENU
  1
.
  9
$ELEVATION
 40
0.0
  9
$PELEVATION
 40
0.0
  9
$THICKNESS
 40
0.0
  9
$LIMCHECK
 70
     0
  9
$CHAMFERA
 40
0.0
  9
$CHAMFERB
 40
0.0
  9
$CHAMFERC
 40
0.0
  9
$CHAMFERD
 40
0.0
  9
$SKPOLY
 70
     0
  9
$TDCREATE
 40
2460297.678909236
  9
$TDUCREATE
 40
2460297.303909236
  9
$TDUPDATE
 40
2460297.678910289
  9
$TDUUPDATE
 40
2460297.303910289
  9
$TDINDWG
 40
0.0000000116
  9
$TDUSRTIMER
 40
0.0000000116
  9
$USRTIMER
 70
     1
  9
$ANGBASE
 50
0.0
  9
$ANGDIR
 70
     0
  9
$PDMODE
 70
     0
  9
$PDSIZE
 40
-1.0
  9
$PLINEWID
 40
0.0
  9
$SPLFRAME
 70
     0
  9
$SPLINETYPE
 70
     6
  9
$SPLINESEGS
 70
     8
  9
$HANDSEED
  5
365
  9
$SURFTAB1
 70
     6
  9
$SURFTAB2
 70
     6
  9
$SURFTYPE
 70
     6
  9
$SURFU
 70
     6
  9
$SURFV
 70
     6
  9
$UCSBASE
  2

  9
$UCSNAME
  2

  9
$UCSORG
 10
0.0
 20
0.0
 30
0.0
  9
$UCSXDIR
 10
1.0
 20
0.0
 30
0.0
  9
$UCSYDIR
 10
0.0
 20
1.0
 30
0.0
  9
$UCSORTHOREF
  2

  9
$UCSORTHOVIEW
 70
     0
  9
$UCSORGTOP
 10
0.0
 20
0.0
 30
0.0
  9
$UCSORGBOTTOM
 10
0.0
 20
0.0
 30
0.0
  9
$UCSORGLEFT
 10
0.0
 20
0.0
 30
0.0
  9
$UCSORGRIGHT
 10
0.0
 20
0.0
 30
0.0
  9
$UCSORGFRONT
 10
0.0
 20
0.0
 30
0.0
  9
$UCSORGBACK
 10
0.0
 20
0.0
 30
0.0
  9
$PUCSBASE
  2

  9
$PUCSNAME
  2

  9
$PUCSORG
 10
0.0
 20
0.0
 30
0.0
  9
$PUCSXDIR
 10
1.0
 20
0.0
 30
0.0
  9
$PUCSYDIR
 10
0.0
 20
1.0
 30
0.0
  9
$PUCSORTHOREF
  2

  9
$PUCSORTHOVIEW
 70
     0
  9
$PUCSORGTOP
 10
0.0
 20
0.0
 30
0.0
  9
$PUCSORGBOTTOM
 10
0.0
 20
0.0
 30
0.0
  9
$PUCSORGLEFT
 10
0.0
 20
0.0
 30
0.0
  9
$PUCSORGRIGHT
 10
0.0
 20
0.0
 30
0.0
  9
$PUCSORGFRONT
 10
0.0
 20
0.0
 30
0.0
  9
$PUCSORGBACK
 10
0.0
 20
0.0
 30
0.0
  9
$USERI1
 70
     0
  9
$USERI2
 70
     0
  9
$USERI3
 70
     0
  9
$USERI4
 70
     0
  9
$USERI5
 70
     0
  9
$USERR1
 40
0.0
  9
$USERR2
 40
0.0
  9
$USERR3
 40
0.0
  9
$USERR4
 40
0.0
  9
$USERR5
 40
0.0
  9
$WORLDVIEW
 70
     1
  9
$SHADEDGE
 70
     3
  9
$SHADEDIF
 70
    70
  9
$TILEMODE
 70
     1
  9
$MAXACTVP
 70
    64
  9
$PINSBASE
 10
0.0
 20
0.0
 30
0.0
  9
$PLIMCHECK
 70
     0
  9
$PEXTMIN
 10
1.0000000000E+20
 20
1.0000000000E+20
 30
1.0000000000E+20
  9
$PEXTMAX
 10
-1.0000000000E+20
 20
-1.0000000000E+20
 30
-1.0000000000E+20
  9
$PLIMMIN
 10
0.0
 20
0.0
  9
$PLIMMAX
 10
420.0
 20
297.0
  9
$UNITMODE
 70
     0
  9
$VISRETAIN
 70
     1
  9
$PLINEGEN
 70
     0
  9
$PSLTSCALE
 70
     1
  9
$TREEDEPTH
 70
  3020
  9
$CMLSTYLE
  2
Standard
  9
$CMLJUST
 70
     0
  9
$CMLSCALE
 40
20.0
  9
$PROXYGRAPHICS
 70
     1
  9
$MEASUREMENT
 70
     1
  9
$CELWEIGHT
370
    -1
  9
$ENDCAPS
280
     0
  9
$JOINSTYLE
280
     0
  9
$LWDISPLAY
290
     1
  9
$INSUNITS
 70
     4
  9
$HYPERLINKBASE
  1

  9
$STYLESHEET
  1

  9
$XEDIT
290
     1
  9
$CEPSNTYPE
380
     0
  9
$PSTYLEMODE
290
     1
  9
$FINGERPRINTGUID
  2
{62b23a2c-c1a9-4f7d-bae8-db210417720c}
  9
$VERSIONGUID
  2
{FAEB1C32-E019-11D5-929B-00C0DF256EC4}
  9
$EXTNAMES
290
     1
  9
$PSVPSCALE
 40
0.0
  9
$OLESTARTUP
290
     0
  0
ENDSEC
  0
SECTION
  2
CLASSES
  0
CLASS
  1
ACDBDICTIONARYWDFLT
  2
AcDbDictionaryWithDefault
  3
ObjectDBX Classes
 90
        0
280
     0
281
     0
  0
CLASS
  1
VISUALSTYLE
  2
AcDbVisualStyle
  3
ObjectDBX Classes
 90
     4095
280
     0
281
     0
  0
CLASS
  1
MATERIAL
  2
AcDbMaterial
  3
ObjectDBX Classes
 90
     1153
280
     0
281
     0
  0
CLASS
  1
SCALE
  2
AcDbScale
  3
ObjectDBX Classes
 90
     1153
280
     0
281
     0
  0
CLASS
  1
TABLESTYLE
  2
AcDbTableStyle
  3
ObjectDBX Classes
 90
     4095
280
     0
281
     0
  0
CLASS
  1
MLEADERSTYLE
  2
AcDbMLeaderStyle
  3
ACDB_MLEADERSTYLE_CLASS
 90
     4095
280
     0
281
     0
  0
CLASS
  1
SUN
  2
AcDbSun
  3
SCENEOE
 90
     1153
280
     0
281
     0
  0
CLASS
  1
ACDBPLACEHOLDER
  2
AcDbPlaceHolder
  3
ObjectDBX Classes
 90
        0
280
     0
281
     0
  0
CLASS
  1
LAYOUT
  2
AcDbLayout
  3
ObjectDBX Classes
 90
        0
280
     0
281
     0
  0
ENDSEC
  0
SECTION
  2
TABLES
  0
TABLE
  2
VPORT
  5
8
330
0
100
AcDbSymbolTable
 70
     1
  0
VPORT
  5
29
330
8
100
AcDbSymbolTableRecord
100
AcDbViewportTableRecord
  2
*Active
 70
     0
 10
0.0
 20
0.0
 11
1.0
 21
1.0
 12
215.9
 22
139.7
 13
0.0
 23
0.0
 14
10.0
 24
10.0
 15
10.0
 25
10.0
 16
0.0
 26
0.0
 36
1.0
 17
0.0
 27
0.0
 37
0.0
 40
279.4
 41
1.5454545455
 42
50.0
 43
0.0
 44
0.0
 50
0.0
 51
0.0
 71
     0
 72
  2000
 73
     1
 74
     3
 75
     0
 76
     0
 77
     0
 78
     0
281
     0
 65
     1
110
0.0
120
0.0
130
0.0
111
1.0
121
0.0
131
0.0
112
0.0
122
1.0
132
0.0
 79
     0
146
0.0
  0
ENDTAB
  0
TABLE
  2
LTYPE
  5
5
330
0
100
AcDbSymbolTable
 70
     6
  0
LTYPE
  5
14
330
5
100
AcDbSymbolTableRecord
100
AcDbLinetypeTableRecord
  2
ByBlock
 70
     0
  3

 72
    65
 73
     0
 40
0.0
  0
LTYPE
  5
15
330
5
100
AcDbSymbolTableRecord
100
AcDbLinetypeTableRecord
  2
ByLayer
 70
     0
  3

 72
    65
 73
     0
 40
0.0
  0
LTYPE
  5
16
330
5
100
AcDbSymbolTableRecord
100
AcDbLinetypeTableRecord
  2
Continuous
 70
     0
  3
Solid line
 72
    65
 73
     0
 40
0.0
  0
LTYPE
  5
5E
330
5
100
AcDbSymbolTableRecord
100
AcDbLinetypeTableRecord
  2
HIDDEN
 70
     0
  3
Hidden __ __ __ __ __ __ __ __ __ __ __ __ __ __
 72
    65
 73
     2
 40
1.905
 49
1.27
 74
     0
 49
-0.635
 74
     0
  0
LTYPE
  5
5F
330
5
100
AcDbSymbolTableRecord
100
AcDbLinetypeTableRecord
  2
PHANTOM
 70
     0
  3
Phantom ______  __  __  ______  __  __  ______
 72
    65
 73
     6
 40
12.7
 49
6.35
 74
     0
 49
-1.27
 74
     0
 49
1.27
 74
     0
 49
-1.27
 74
     0
 49
1.27
 74
     0
 49
-1.27
 74
     0
  0
LTYPE
  5
60
330
5
100
AcDbSymbolTableRecord
100
AcDbLinetypeTableRecord
  2
CENTER
 70
     0
  3
Center ____ _ ____ _ ____ _ ____ _ ____ _ ____
 72
    65
 73
     4
 40
10.16
 49
6.35
 74
     0
 49
-1.27
 74
     0
 49
1.27
 74
     0
 49
-1.27
 74
     0
  0
LTYPE
  5
61
330
5
100
AcDbSymbolTableRecord
100
AcDbLinetypeTableRecord
  2
CENTERX2
 70
     0
  3
Center (2x) ________  __  ________  __  _____
 72
    65
 73
     4
 40
20.32
 49
12.7
 74
     0
 49
-2.54
 74
     0
 49
2.54
 74
     0
 49
-2.54
 74
     0
  0
LTYPE
  5
62
330
5
100
AcDbSymbolTableRecord
100
AcDbLinetypeTableRecord
  2
DOT2
 70
     0
  3
Dot (.5x) ........................................
 72
    65
 73
     2
 40
0.635
 49
0.0
 74
     0
 49
-0.635
 74
     0
  0
ENDTAB
  0
TABLE
  2
LAYER
  5
2
330
0
100
AcDbSymbolTable
 70
     1
  0
LAYER
  5
10
330
2
100
AcDbSymbolTableRecord
100
AcDbLayerTableRecord
  2
0
 70
     0
 62
     7
  6
Continuous
370
    -3
390
F
  0
ENDTAB
  0
TABLE
  2
STYLE
  5
3
330
0
100
AcDbSymbolTable
 70
     2
  0
STYLE
  5
11
330
3
100
AcDbSymbolTableRecord
100
AcDbTextStyleTableRecord
  2
Standard
 70
     0
 40
0.0
 41
1.0
 50
0.0
 71
     0
 42
3.5
  3
txt
  4
bigfont
  0
STYLE
  5
63
330
3
100
AcDbSymbolTableRecord
100
AcDbTextStyleTableRecord
  2
SLDTEXTSTYLE0
 70
     0
 40
0.0
 41
0.7
 50
0.0
 71
     0
 42
3.5
  3
TXT
  4
bigfont
  0
ENDTAB
  0
TABLE
  2
VIEW
  5
6
330
0
100
AcDbSymbolTable
 70
     0
  0
ENDTAB
  0
TABLE
  2
UCS
  5
7
330
0
100
AcDbSymbolTable
 70
     0
  0
ENDTAB
  0
TABLE
  2
APPID
  5
9
330
0
100
AcDbSymbolTable
 70
     1
  0
APPID
  5
12
330
9
100
AcDbSymbolTableRecord
100
AcDbRegAppTableRecord
  2
ACAD
 70
     0
  0
ENDTAB
  0
TABLE
  2
DIMSTYLE
  5
A
330
0
100
AcDbSymbolTable
 70
     1
100
AcDbDimStyleTable
  0
DIMSTYLE
105
27
330
A
100
AcDbSymbolTableRecord
100
AcDbDimStyleTableRecord
  2
ISO-25
 70
     0
 41
2.5
 42
0.625
 43
3.75
 44
1.25
 73
     0
 74
     0
 77
     1
 78
     8
140
2.5
141
2.5
143
0.0393700787
147
0.625
171
     3
172
     1
178
     0
271
     2
272
     2
274
     3
278
    44
283
     0
284
     8
340
11
  0
ENDTAB
  0
TABLE
  2
BLOCK_RECORD
  5
1
330
0
100
AcDbSymbolTable
 70
     3
  0
BLOCK_RECORD
  5
1F
330
1
100
AcDbSymbolTableRecord
100
AcDbBlockTableRecord
  2
*Model_Space
340
22
  0
BLOCK_RECORD
  5
1B
330
1
100
AcDbSymbolTableRecord
100
AcDbBlockTableRecord
  2
*Paper_Space
340
1E
  0
BLOCK_RECORD
  5
23
330
1
100
AcDbSymbolTableRecord
100
AcDbBlockTableRecord
  2
*Paper_Space0
340
26
  0
BLOCK_RECORD
  5
230
330
1
100
AcDbSymbolTableRecord
100
AcDbBlockTableRecord
  2
SW_CENTERMARKSYMBOL_0
340
0
102
{BLKREFS
331
23B
102
}
  0
BLOCK_RECORD
  5
351
330
1
100
AcDbSymbolTableRecord
100
AcDbBlockTableRecord
  2
SW_CENTERMARKSYMBOL_1
340
0
102
{BLKREFS
331
35C
102
}
  0
ENDTAB
  0
ENDSEC
  0
SECTION
  2
BLOCKS
  0
BLOCK
  5
20
330
1F
100
AcDbEntity
  8
0
100
AcDbBlockBegin
  2
*Model_Space
 70
     0
 10
0.0
 20
0.0
 30
0.0
  3
*Model_Space
  1

  0
ENDBLK
  5
21
330
1F
100
AcDbEntity
  8
0
100
AcDbBlockEnd
  0
BLOCK
  5
1C
330
1B
100
AcDbEntity
 67
     1
  8
0
100
AcDbBlockBegin
  2
*Paper_Space
 70
     0
 10
0.0
 20
0.0
 30
0.0
  3
*Paper_Space
  1

  0
ENDBLK
  5
1D
330
1B
100
AcDbEntity
 67
     1
  8
0
100
AcDbBlockEnd
  0
BLOCK
  5
24
330
23
100
AcDbEntity
  8
0
100
AcDbBlockBegin
  2
*Paper_Space0
 70
     0
 10
0.0
 20
0.0
 30
0.0
  3
*Paper_Space0
  1

  0
ENDBLK
  5
25
330
23
100
AcDbEntity
  8
0
100
AcDbBlockEnd
  0
BLOCK
  5
231
330
230
100
AcDbEntity
  8
0
100
AcDbBlockBegin
  2
SW_CENTERMARKSYMBOL_0
 70
     0
 10
0.0
 20
0.0
 30
0.0
  3
SW_CENTERMARKSYMBOL_0
  1

  0
LINE
  5
233
330
230
100
AcDbEntity
  8
0
  6
Continuous
 62
     0
370
    18
100
AcDbLine
 10
0.0
 20
0.0
 30
0.0
 11
0.0
 21
2.5
 31
0.0
  0
LINE
  5
234
330
230
100
AcDbEntity
  8
0
  6
Continuous
 62
     0
370
    18
100
AcDbLine
 10
0.0
 20
0.0
 30
0.0
 11
-2.5
 21
0.0
 31
0.0
  0
LINE
  5
235
330
230
100
AcDbEntity
  8
0
  6
Continuous
 62
     0
370
    18
100
AcDbLine
 10
0.0
 20
0.0
 30
0.0
 11
0.0
 21
-2.5
 31
0.0
  0
LINE
  5
236
330
230
100
AcDbEntity
  8
0
  6
Continuous
 62
     0
370
    18
100
AcDbLine
 10
0.0
 20
0.0
 30
0.0
 11
2.5
 21
0.0
 31
0.0
  0
LINE
  5
237
330
230
100
AcDbEntity
  8
0
  6
Continuous
 62
     0
370
    18
100
AcDbLine
 10
0.0
 20
5.0
 30
0.0
 11
0.0
 21
40.8040074349
 31
0.0
  0
LINE
  5
238
330
230
100
AcDbEntity
  8
0
  6
Continuous
 62
     0
370
    18
100
AcDbLine
 10
-5.0
 20
0.0
 30
0.0
 11
-14.25
 21
0.0
 31
0.0
  0
LINE
  5
239
330
230
100
AcDbEntity
  8
0
  6
Continuous
 62
     0
370
    18
100
AcDbLine
 10
0.0
 20
-5.0
 30
0.0
 11
0.0
 21
-15.7437810759
 31
0.0
  0
LINE
  5
23A
330
230
100
AcDbEntity
  8
0
  6
Continuous
 62
     0
370
    18
100
AcDbLine
 10
5.0
 20
0.0
 30
0.0
 11
14.25
 21
0.0
 31
0.0
  0
ENDBLK
  5
232
330
230
100
AcDbEntity
  8
0
100
AcDbBlockEnd
  0
BLOCK
  5
352
330
351
100
AcDbEntity
  8
0
100
AcDbBlockBegin
  2
SW_CENTERMARKSYMBOL_1
 70
     0
 10
0.0
 20
0.0
 30
0.0
  3
SW_CENTERMARKSYMBOL_1
  1

  0
LINE
  5
354
330
351
100
AcDbEntity
  8
0
  6
Continuous
 62
     0
370
    18
100
AcDbLine
 10
0.0
 20
0.0
 30
0.0
 11
0.0
 21
2.5
 31
0.0
  0
LINE
  5
355
330
351
100
AcDbEntity
  8
0
  6
Continuous
 62
     0
370
    18
100
AcDbLine
 10
0.0
 20
0.0
 30
0.0
 11
-2.5
 21
0.0
 31
0.0
  0
LINE
  5
356
330
351
100
AcDbEntity
  8
0
  6
Continuous
 62
     0
370
    18
100
AcDbLine
 10
0.0
 20
0.0
 30
0.0
 11
0.0
 21
-2.5
 31
0.0
  0
LINE
  5
357
330
351
100
AcDbEntity
  8
0
  6
Continuous
 62
     0
370
    18
100
AcDbLine
 10
0.0
 20
0.0
 30
0.0
 11
2.5
 21
0.0
 31
0.0
  0
LINE
  5
358
330
351
100
AcDbEntity
  8
0
  6
Continuous
 62
     0
370
    18
100
AcDbLine
 10
0.0
 20
5.0
 30
0.0
 11
0.0
 21
13.952131783
 31
0.0
  0
LINE
  5
359
330
351
100
AcDbEntity
  8
0
  6
Continuous
 62
     0
370
    18
100
AcDbLine
 10
-5.0
 20
0.0
 30
0.0
 11
-69.5849640135
 21
0.0
 31
0.0
  0
LINE
  5
35A
330
351
100
AcDbEntity
  8
0
  6
Continuous
 62
     0
370
    18
100
AcDbLine
 10
0.0
 20
-5.0
 30
0.0
 11
0.0
 21
-14.414170191
 31
0.0
  0
LINE
  5
35B
330
351
100
AcDbEntity
  8
0
  6
Continuous
 62
     0
370
    18
100
AcDbLine
 10
5.0
 20
0.0
 30
0.0
 11
29.1661728049
 21
0.0
 31
0.0
  0
ENDBLK
  5
353
330
351
100
AcDbEntity
  8
0
100
AcDbBlockEnd
  0
ENDSEC
  0
SECTION
  2
ENTITIES
  0
MTEXT
  5
64
330
1F
100
AcDbEntity
  8
0
  6
Continuous
 62
     7
370
     0
100
AcDbMText
 10
167.0049820104
 20
115.7363938955
 30
0.0
 40
4.2333333333
 41
0.0
 71
     1
 72
     1
  1
エースボールZERO　BY-0414
  7
SLDTEXTSTYLE0
 73
     1
 44
1.0
  0
LINE
  5
65
330
1F
100
AcDbEntity
  8
0
  6
Continuous
 62
     7
370
    25
100
AcDbLine
 10
115.7884809312
 20
54.0193758692
 30
0.0
 11
116.2884809312
 21
54.0193758692
 31
0.0
  0
LINE
  5
66
330
1F
100
AcDbEntity
  8
0
  6
Continuous
 62
     7
370
    25
100
AcDbLine
 10
116.2884809312
 20
70.0193758692
 30
0.0
 11
115.7884809312
 21
70.0193758692
 31
0.0
  0
LINE
  5
67
330
1F
100
AcDbEntity
  8
0
  6
Continuous
 62
     7
370
    25
100
AcDbLine
 10
100.7884809312
 20
69.0193758692
 30
0.0
 11
96.2884809312
 21
68.0193758692
 31
0.0
  0
LINE
  5
68
330
1F
100
AcDbEntity
  8
0
  6
Continuous
 62
     7
370
    25
100
AcDbLine
 10
96.2884809312
 20
56.0193758692
 30
0.0
 11
100.7884809312
 21
55.0193758692
 31
0.0
  0
LINE
  5
69
330
1F
100
AcDbEntity
  8
0
  6
Continuous
 62
     7
370
    25
100
AcDbLine
 10
105.2884809312
 20
69.0193758692
 30
0.0
 11
100.7884809312
 21
68.0193758692
 31
0.0
  0
LINE
  5
6A
330
1F
100
AcDbEntity
  8
0
  6
Continuous
 62
     7
370
    25
100
AcDbLine
 10
100.7884809312
 20
56.0193758692
 30
0.0
 11
105.2884809312
 21
55.0193758692
 31
0.0
  0
LINE
  5
6B
330
1F
100
AcDbEntity
  8
0
  6
Continuous
 62
     7
370
    25
100
AcDbLine
 10
109.7884809312
 20
69.0193758692
 30
0.0
 11
105.2884809312
 21
68.0193758692
 31
0.0
  0
LINE
  5
6C
330
1F
100
AcDbEntity
  8
0
  6
Continuous
 62
     7
370
    25
100
AcDbLine
 10
105.2884809312
 20
56.0193758692
 30
0.0
 11
109.7884809312
 21
55.0193758692
 31
0.0
  0
LINE
  5
6D
330
1F
100
AcDbEntity
  8
0
  6
Continuous
 62
     7
370
    25
100
AcDbLine
 10
91.7884809312
 20
69.0193758692
 30
0.0
 11
86.0330263857
 21
68.1339213237
 31
0.0
  0
LINE
  5
6E
330
1F
100
AcDbEntity
  8
0
  6
Continuous
 62
     7
370
    25
100
AcDbLine
 10
86.0330263857
 20
55.9048304146
 30
0.0
 11
91.7884809312
 21
55.0193758692
 31
0.0
  0
LINE
  5
6F
330
1F
100
AcDbEntity
  8
0
  6
Continuous
 62
     7
370
    25
100
AcDbLine
 10
109.7884809312
 20
55.0193758692
 30
0.0
 11
115.7884809312
 21
55.0193758692
 31
0.0
  0
LINE
  5
70
330
1F
100
AcDbEntity
  8
0
  6
Continuous
 62
     7
370
    25
100
AcDbLine
 10
115.7884809312
 20
69.0193758692
 30
0.0
 11
109.7884809312
 21
69.0193758692
 31
0.0
  0
LINE
  5
71
330
1F
100
AcDbEntity
  8
0
  6
Continuous
 62
     7
370
    25
100
AcDbLine
 10
96.2884809312
 20
69.0193758692
 30
0.0
 11
91.7884809312
 21
68.0193758692
 31
0.0
  0
LINE
  5
72
330
1F
100
AcDbEntity
  8
0
  6
Continuous
 62
     7
370
    25
100
AcDbLine
 10
91.7884809312
 20
56.0193758692
 30
0.0
 11
96.2884809312
 21
55.0193758692
 31
0.0
  0
LINE
  5
73
330
1F
100
AcDbEntity
  8
0
  6
Continuous
 62
     7
370
    25
100
AcDbLine
 10
86.0330263857
 20
68.1339213237
 30
0.0
 11
85.2884809312
 21
67.3893758692
 31
0.0
  0
LINE
  5
74
330
1F
100
AcDbEntity
  8
0
  6
Continuous
 62
     7
370
    25
100
AcDbLine
 10
85.2884809312
 20
56.6493758692
 30
0.0
 11
86.0330263857
 21
55.9048304146
 31
0.0
  0
LINE
  5
75
330
1F
100
AcDbEntity
  8
0
  6
Continuous
 62
     7
370
    25
100
AcDbLine
 10
119.5046152682
 20
75.8757823297
 30
0.0
 11
118.2884809312
 21
73.7693758692
 31
0.0
  0
LINE
  5
76
330
1F
100
AcDbEntity
  8
0
  6
Continuous
 62
     7
370
    25
100
AcDbLine
 10
118.2884809312
 20
50.2693758692
 30
0.0
 11
119.5046152682
 21
48.1629694086
 31
0.0
  0
LINE
  5
77
330
1F
100
AcDbEntity
  8
0
  6
Continuous
 62
     7
370
    25
100
AcDbLine
 10
129.0723465942
 20
48.1629694086
 30
0.0
 11
130.2884809312
 21
50.2693758692
 31
0.0
  0
LINE
  5
78
330
1F
100
AcDbEntity
  8
0
  6
Continuous
 62
     7
370
    25
100
AcDbLine
 10
130.2884809312
 20
73.7693758692
 30
0.0
 11
129.0723465942
 21
75.8757823297
 31
0.0
  0
LINE
  5
79
330
1F
100
AcDbEntity
  8
0
  6
Continuous
 62
     7
370
    25
100
AcDbLine
 10
130.2884809312
 20
50.2693758692
 30
0.0
 11
131.7884809312
 21
50.2693758692
 31
0.0
  0
LINE
  5
7A
330
1F
100
AcDbEntity
  8
0
  6
Continuous
 62
     7
370
    25
100
AcDbLine
 10
131.7884809312
 20
73.7693758692
 30
0.0
 11
130.2884809312
 21
73.7693758692
 31
0.0
  0
LINE
  5
7B
330
1F
100
AcDbEntity
  8
0
  6
Continuous
 62
     7
370
    25
100
AcDbLine
 10
118.2884809312
 20
73.7693758692
 30
0.0
 11
116.7884809312
 21
73.7693758692
 31
0.0
  0
LINE
  5
7C
330
1F
100
AcDbEntity
  8
0
  6
Continuous
 62
     7
370
    25
100
AcDbLine
 10
116.7884809312
 20
50.2693758692
 30
0.0
 11
118.2884809312
 21
50.2693758692
 31
0.0
  0
LINE
  5
7D
330
1F
100
AcDbEntity
  8
0
  6
Continuous
 62
     7
370
    25
100
AcDbLine
 10
116.7884809312
 20
73.7693758692
 30
0.0
 11
116.2884809312
 21
73.2693758692
 31
0.0
  0
LINE
  5
7E
330
1F
100
AcDbEntity
  8
0
  6
Continuous
 62
     7
370
    25
100
AcDbLine
 10
116.2884809312
 20
50.7693758692
 30
0.0
 11
116.7884809312
 21
50.2693758692
 31
0.0
  0
LINE
  5
7F
330
1F
100
AcDbEntity
  8
0
  6
Continuous
 62
     7
370
    25
100
AcDbLine
 10
131.7884809312
 20
50.2693758692
 30
0.0
 11
132.2884809312
 21
50.7693758692
 31
0.0
  0
LINE
  5
80
330
1F
100
AcDbEntity
  8
0
  6
Continuous
 62
     7
370
    25
100
AcDbLine
 10
132.2884809312
 20
73.2693758692
 30
0.0
 11
131.7884809312
 21
73.7693758692
 31
0.0
  0
LINE
  5
81
330
1F
100
AcDbEntity
  8
0
  6
Continuous
 62
     7
370
    25
100
AcDbLine
 10
139.4224555274
 20
74.0193758692
 30
0.0
 11
136.6724555274
 21
74.0193758692
 31
0.0
  0
LINE
  5
82
330
1F
100
AcDbEntity
  8
0
  6
Continuous
 62
     7
370
    25
100
AcDbLine
 10
136.6724555274
 20
50.0193758692
 30
0.0
 11
139.4224555274
 21
50.0193758692
 31
0.0
  0
LINE
  5
83
330
1F
100
AcDbEntity
  8
0
  6
Continuous
 62
     7
370
    25
100
AcDbLine
 10
136.6724555274
 20
74.0193758692
 30
0.0
 11
136.4224555274
 21
73.7693758692
 31
0.0
  0
LINE
  5
84
330
1F
100
AcDbEntity
  8
0
  6
Continuous
 62
     7
370
    25
100
AcDbLine
 10
136.4224555274
 20
50.2693758692
 30
0.0
 11
136.6724555274
 21
50.0193758692
 31
0.0
  0
LINE
  5
85
330
1F
100
AcDbEntity
  8
0
  6
Continuous
 62
     7
370
    25
100
AcDbLine
 10
132.9224555274
 20
72.4968758692
 30
0.0
 11
132.2884809312
 21
72.4968758692
 31
0.0
  0
LINE
  5
86
330
1F
100
AcDbEntity
  8
0
  6
Continuous
 62
     7
370
    25
100
AcDbLine
 10
132.2884809312
 20
51.5418758692
 30
0.0
 11
132.9224555274
 21
51.5418758692
 31
0.0
  0
LINE
  5
87
330
1F
100
AcDbEntity
  8
0
  6
Continuous
 62
     7
370
    25
100
AcDbLine
 10
132.9224555274
 20
51.5418758692
 30
0.0
 11
133.9224555274
 21
52.5418758692
 31
0.0
  0
LINE
  5
88
330
1F
100
AcDbEntity
  8
0
  6
Continuous
 62
     7
370
    25
100
AcDbLine
 10
133.9224555274
 20
71.4968758692
 30
0.0
 11
132.9224555274
 21
72.4968758692
 31
0.0
  0
LINE
  5
89
330
1F
100
AcDbEntity
  8
0
  6
Continuous
 62
     7
370
    25
100
AcDbLine
 10
136.4224555274
 20
71.0193758692
 30
0.0
 11
133.9224555274
 21
71.0193758692
 31
0.0
  0
LINE
  5
8A
330
1F
100
AcDbEntity
  8
0
  6
Continuous
 62
     7
370
    25
100
AcDbLine
 10
133.9224555274
 20
53.0193758692
 30
0.0
 11
136.4224555274
 21
53.0193758692
 31
0.0
  0
LINE
  5
8B
330
1F
100
AcDbEntity
  8
0
  6
Continuous
 62
     7
370
    25
100
AcDbLine
 10
164.9224555274
 20
51.3281258692
 30
0.0
 11
177.2260642545
 21
51.7126136419
 31
0.0
  0
LINE
  5
8C
330
1F
100
AcDbEntity
  8
0
  6
Continuous
 62
     7
370
    25
100
AcDbLine
 10
177.2260642545
 20
72.3261380964
 30
0.0
 11
164.9224555274
 21
72.7106258692
 31
0.0
  0
LINE
  5
8D
330
1F
100
AcDbEntity
  8
0
  6
Continuous
 62
     7
370
    25
100
AcDbLine
 10
177.2260642545
 20
51.7126136419
 30
0.0
 11
179.9224555274
 21
53.2693758692
 31
0.0
  0
LINE
  5
8E
330
1F
100
AcDbEntity
  8
0
  6
Continuous
 62
     7
370
    25
100
AcDbLine
 10
179.9224555274
 20
70.7693758692
 30
0.0
 11
177.2260642545
 21
72.3261380964
 31
0.0
  0
ARC
  5
8F
330
1F
100
AcDbEntity
  8
0
  6
Continuous
 62
     7
370
    25
100
AcDbCircle
 10
160.9224555274
 20
74.7693758692
 30
0.0
 40
0.25
100
AcDbArc
 50
180.0
 51
270.0
  0
ARC
  5
90
330
1F
100
AcDbEntity
  8
0
  6
Continuous
 62
     7
370
    25
100
AcDbCircle
 10
143.9224555274
 20
74.7693758692
 30
0.0
 40
0.25
100
AcDbArc
 50
270.0
 51
0.0
  0
LINE
  5
91
330
1F
100
AcDbEntity
  8
0
  6
Continuous
 62
     7
370
    25
100
AcDbLine
 10
160.6724555274
 20
80.2193758692
 30
0.0
 11
160.1724555274
 21
80.7193758692
 31
0.0
  0
LINE
  5
92
330
1F
100
AcDbEntity
  8
0
  6
Continuous
 62
     7
370
    25
100
AcDbLine
 10
144.6724555274
 20
80.7193758692
 30
0.0
 11
144.1724555274
 21
80.2193758692
 31
0.0
  0
LINE
  5
93
330
1F
100
AcDbEntity
  8
0
  6
Continuous
 62
     7
370
    25
100
AcDbLine
 10
160.6724555274
 20
74.7693758692
 30
0.0
 11
160.6724555274
 21
80.2193758692
 31
0.0
  0
LINE
  5
94
330
1F
100
AcDbEntity
  8
0
  6
Continuous
 62
     7
370
    25
100
AcDbLine
 10
144.1724555274
 20
80.2193758692
 30
0.0
 11
144.1724555274
 21
74.7693758692
 31
0.0
  0
LINE
  5
95
330
1F
100
AcDbEntity
  8
0
  6
Continuous
 62
     7
370
    25
100
AcDbLine
 10
147.4224555274
 20
81.2193758692
 30
0.0
 11
147.4224555274
 21
80.7193758692
 31
0.0
  0
LINE
  5
96
330
1F
100
AcDbEntity
  8
0
  6
Continuous
 62
     7
370
    25
100
AcDbLine
 10
157.4224555274
 20
80.7193758692
 30
0.0
 11
157.4224555274
 21
81.2193758692
 31
0.0
  0
ARC
  5
97
330
1F
100
AcDbEntity
  8
0
  6
Continuous
 62
     7
370
    25
100
AcDbCircle
 10
152.4224555274
 20
78.7193758692
 30
0.0
 40
20.6
100
AcDbArc
 50
90.6206168136
 51
93.3558231766
  0
ARC
  5
98
330
1F
100
AcDbEntity
  8
0
  6
Continuous
 62
     7
370
    25
100
AcDbCircle
 10
152.4224555274
 20
78.7193758692
 30
0.0
 40
20.6
100
AcDbArc
 50
86.6441768145
 51
89.3913983397
  0
ARC
  5
99
330
1F
100
AcDbEntity
  8
0
  6
Continuous
 62
     7
370
    25
100
AcDbCircle
 10
160.4162258958
 20
91.2069551739
 30
0.0
 40
1.000000000000003
100
AcDbArc
 50
354.2894068625
 51
7.1250163489
  0
LINE
  5
9A
330
1F
100
AcDbEntity
  8
0
  6
Continuous
 62
     7
370
    25
100
AcDbLine
 10
144.0158276708
 20
85.2856544355
 30
0.0
 11
144.2424555274
 21
83.0193758692
 31
0.0
  0
LINE
  5
9B
330
1F
100
AcDbEntity
  8
0
  6
Continuous
 62
     7
370
    25
100
AcDbLine
 10
160.4674803415
 20
81.6696240097
 30
0.0
 11
161.411263086
 21
91.1074514549
 31
0.0
  0
LINE
  5
9C
330
1F
100
AcDbEntity
  8
0
  6
Continuous
 62
     7
370
    25
100
AcDbLine
 10
161.4085037725
 20
91.3309899085
 30
0.0
 11
160.4772033565
 21
98.7813932365
 31
0.0
  0
LINE
  5
9D
330
1F
100
AcDbEntity
  8
0
  6
Continuous
 62
     7
370
    25
100
AcDbLine
 10
144.3677076983
 20
98.7813932365
 30
0.0
 11
144.1724555274
 21
97.2193758692
 31
0.0
  0
ARC
  5
9E
330
1F
100
AcDbEntity
  8
0
  6
Continuous
 62
     7
370
    25
100
AcDbCircle
 10
144.8638466367
 20
98.7193758692
 30
0.0
 40
0.5000000000000017
100
AcDbArc
 50
90.0
 51
172.8749836511
  0
ARC
  5
9F
330
1F
100
AcDbEntity
  8
0
  6
Continuous
 62
     7
370
    25
100
AcDbCircle
 10
159.9810644181
 20
98.7193758692
 30
0.0
 40
0.5000000000000017
100
AcDbArc
 50
7.1250163489
 51
90.0
  0
ARC
  5
A0
330
1F
100
AcDbEntity
  8
0
  6
Continuous
 62
     7
370
    25
100
AcDbCircle
 10
159.9699617464
 20
81.7193758692
 30
0.0
 40
0.5
100
AcDbArc
 50
270.0
 51
354.2894068625
  0
LINE
  5
A1
330
1F
100
AcDbEntity
  8
0
  6
Continuous
 62
     7
370
    25
100
AcDbLine
 10
146.9224555274
 20
80.7193758692
 30
0.0
 11
146.9224555274
 21
81.2193758692
 31
0.0
  0
LINE
  5
A2
330
1F
100
AcDbEntity
  8
0
  6
Continuous
 62
     7
370
    25
100
AcDbLine
 10
144.9224555274
 20
81.2226106011
 30
0.0
 11
144.9224555274
 21
80.7193758692
 31
0.0
  0
LINE
  5
A3
330
1F
100
AcDbEntity
  8
0
  6
Continuous
 62
     7
370
    25
100
AcDbLine
 10
115.7884809312
 20
54.0193758692
 30
0.0
 11
115.7884809312
 21
70.0193758692
 31
0.0
  0
LINE
  5
A4
330
1F
100
AcDbEntity
  8
0
  6
Continuous
 62
     7
370
    25
100
AcDbLine
 10
100.7884809312
 20
55.0193758692
 30
0.0
 11
100.7884809312
 21
69.0193758692
 31
0.0
  0
LINE
  5
A5
330
1F
100
AcDbEntity
  8
0
  6
Continuous
 62
     7
370
    25
100
AcDbLine
 10
105.2884809312
 20
55.0193758692
 30
0.0
 11
105.2884809312
 21
69.0193758692
 31
0.0
  0
LINE
  5
A6
330
1F
100
AcDbEntity
  8
0
  6
Continuous
 62
     7
370
    25
100
AcDbLine
 10
109.7884809312
 20
55.0193758692
 30
0.0
 11
109.7884809312
 21
69.0193758692
 31
0.0
  0
LINE
  5
A7
330
1F
100
AcDbEntity
  8
0
  6
Continuous
 62
     7
370
    25
100
AcDbLine
 10
91.7884809312
 20
55.0193758692
 30
0.0
 11
91.7884809312
 21
69.0193758692
 31
0.0
  0
LINE
  5
A8
330
1F
100
AcDbEntity
  8
0
  6
Continuous
 62
     7
370
    25
100
AcDbLine
 10
86.0330263857
 20
68.1339213237
 30
0.0
 11
86.0330263857
 21
55.9048304146
 31
0.0
  0
LINE
  5
A9
330
1F
100
AcDbEntity
  8
0
  6
Continuous
 62
     7
370
    25
100
AcDbLine
 10
96.2884809312
 20
55.0193758692
 30
0.0
 11
96.2884809312
 21
69.0193758692
 31
0.0
  0
LINE
  5
AA
330
1F
100
AcDbEntity
  8
0
  6
Continuous
 62
     7
370
    25
100
AcDbLine
 10
85.2884809312
 20
56.6493758692
 30
0.0
 11
85.2884809312
 21
67.3893758692
 31
0.0
  0
SPLINE
  5
AB
330
1F
100
AcDbEntity
  8
0
  6
Continuous
 62
     7
370
    25
100
AcDbSpline
210
0.0
220
0.0
230
1.0
 70
     8
 71
     3
 72
    13
 73
     9
 74
     0
 42
0.00000001
 43
0.00000001
 40
0.0
 40
0.0
 40
0.0
 40
0.0
 40
0.1323387356962577
 40
0.2646400534003645
 40
0.3999010753899585
 40
0.5351376891511977
 40
0.765439027311563
 40
1.0
 40
1.0
 40
1.0
 40
1.0
 10
129.0723465941802
 20
55.09117263889213
 30
0.0
 10
129.2355132954826
 20
54.79184199416896
 30
0.0
 10
129.5618005636709
 20
54.19326533868602
 30
0.0
 10
129.912740164971
 20
53.27154308509657
 30
0.0
 10
130.1242637470866
 20
52.33231113303534
 30
0.0
 10
130.1764619983518
 20
51.15765536185405
 30
0.0
 10
129.9001987701953
 20
49.75087559892828
 30
0.0
 10
129.3499779173273
 20
48.69549503266187
 30
0.0
 10
129.0723465941802
 20
48.1629694086165
 30
0.0
  0
LINE
  5
AC
330
1F
100
AcDbEntity
  8
0
  6
Continuous
 62
     7
370
    25
100
AcDbLine
 10
119.5046152682
 20
48.1629694086
 30
0.0
 11
129.0723465942
 21
48.1629694086
 31
0.0
  0
SPLINE
  5
AD
330
1F
100
AcDbEntity
  8
0
  6
Continuous
 62
     7
370
    25
100
AcDbSpline
210
0.0
220
0.0
230
1.0
 70
     8
 71
     3
 72
    13
 73
     9
 74
     0
 42
0.00000001
 43
0.00000001
 40
0.0
 40
0.0
 40
0.0
 40
0.0
 40
0.1323387356962577
 40
0.2646400534003645
 40
0.3999010753899586
 40
0.5351376891511977
 40
0.7654390273115629
 40
1.0
 40
1.0
 40
1.0
 40
1.0
 10
119.504615268224
 20
55.09117263889213
 30
0.0
 10
119.3414485669216
 20
54.79184199416896
 30
0.0
 10
119.0151612987332
 20
54.19326533868602
 30
0.0
 10
118.6642216974332
 20
53.27154308509657
 30
0.0
 10
118.4526981153176
 20
52.33231113303534
 30
0.0
 10
118.4004998640524
 20
51.15765536185405
 30
0.0
 10
118.6767630922089
 20
49.75087559892828
 30
0.0
 10
119.2269839450769
 20
48.69549503266187
 30
0.0
 10
119.504615268224
 20
48.1629694086165
 30
0.0
  0
LINE
  5
AE
330
1F
100
AcDbEntity
  8
0
  6
Continuous
 62
     7
370
    25
100
AcDbLine
 10
119.5046152682
 20
55.0911726389
 30
0.0
 11
129.0723465942
 21
55.0911726389
 31
0.0
  0
SPLINE
  5
AF
330
1F
100
AcDbEntity
  8
0
  6
Continuous
 62
     7
370
    25
100
AcDbSpline
210
0.0
220
0.0
230
1.0
 70
     8
 71
     3
 72
    13
 73
     9
 74
     0
 42
0.00000001
 43
0.00000001
 40
0.0
 40
0.0
 40
0.0
 40
0.0
 40
0.1323387356962595
 40
0.2646400534003678
 40
0.3999010753899636
 40
0.5351376891512046
 40
0.7654390273115668
 40
1.0
 40
1.0
 40
1.0
 40
1.0
 10
119.504615268224
 20
75.87578232971856
 30
0.0
 10
119.3414485669216
 20
75.57645168499539
 30
0.0
 10
119.0151612987332
 20
74.97787502951248
 30
0.0
 10
118.6642216974332
 20
74.05615277592305
 30
0.0
 10
118.4526981153176
 20
73.11692082386185
 30
0.0
 10
118.4004998640524
 20
71.9422650526806
 30
0.0
 10
118.6767630922089
 20
70.5354852897549
 30
0.0
 10
119.2269839450769
 20
69.48010472348852
 30
0.0
 10
119.504615268224
 20
68.9475790994432
 30
0.0
  0
SPLINE
  5
B0
330
1F
100
AcDbEntity
  8
0
  6
Continuous
 62
     7
370
    25
100
AcDbSpline
210
0.0
220
0.0
230
1.0
 70
     8
 71
     3
 72
    13
 73
     9
 74
     0
 42
0.00000001
 43
0.00000001
 40
0.0
 40
0.0
 40
0.0
 40
0.0
 40
0.2506322241738398
 40
0.3784362686682596
 40
0.5062173214586155
 40
0.6283860820030432
 40
0.7505749875933544
 40
1.0
 40
1.0
 40
1.0
 40
1.0
 10
119.504615268224
 20
68.9475790994432
 30
0.0
 10
119.2085402393353
 20
67.80875613678766
 30
0.0
 10
118.761488669858
 20
66.0892170229259
 30
0.0
 10
118.4801318757814
 20
63.72919831290351
 30
0.0
 10
118.4067753229004
 20
61.95804847648967
 30
0.0
 10
118.4901281301065
 20
60.21391743167904
 30
0.0
 10
118.7704991697832
 20
57.9128729376195
 30
0.0
 10
119.2097755923239
 20
56.22443916625866
 30
0.0
 10
119.504615268224
 20
55.09117263889213
 30
0.0
  0
LINE
  5
B1
330
1F
100
AcDbEntity
  8
0
  6
Continuous
 62
     7
370
    25
100
AcDbLine
 10
118.2884809312
 20
73.7693758692
 30
0.0
 11
118.2884809312
 21
50.2693758692
 31
0.0
  0
SPLINE
  5
B2
330
1F
100
AcDbEntity
  8
0
  6
Continuous
 62
     7
370
    25
100
AcDbSpline
210
0.0
220
0.0
230
1.0
 70
     8
 71
     3
 72
    13
 73
     9
 74
     0
 42
0.00000001
 43
0.00000001
 40
0.0
 40
0.0
 40
0.0
 40
0.0
 40
0.2506322241738398
 40
0.3784362686682596
 40
0.5062173214586155
 40
0.6283860820030432
 40
0.7505749875933544
 40
1.0
 40
1.0
 40
1.0
 40
1.0
 10
129.0723465941802
 20
68.9475790994432
 30
0.0
 10
129.3684216230689
 20
67.80875613678766
 30
0.0
 10
129.8154731925462
 20
66.0892170229259
 30
0.0
 10
130.0968299866228
 20
63.72919831290351
 30
0.0
 10
130.1701865395038
 20
61.95804847648967
 30
0.0
 10
130.0868337322977
 20
60.21391743167904
 30
0.0
 10
129.806462692621
 20
57.9128729376195
 30
0.0
 10
129.3671862700803
 20
56.22443916625866
 30
0.0
 10
129.0723465941802
 20
55.09117263889213
 30
0.0
  0
SPLINE
  5
B3
330
1F
100
AcDbEntity
  8
0
  6
Continuous
 62
     7
370
    25
100
AcDbSpline
210
0.0
220
0.0
230
1.0
 70
     8
 71
     3
 72
    13
 73
     9
 74
     0
 42
0.00000001
 43
0.00000001
 40
0.0
 40
0.0
 40
0.0
 40
0.0
 40
0.1323387356962595
 40
0.2646400534003678
 40
0.3999010753899636
 40
0.5351376891512046
 40
0.7654390273115668
 40
1.0
 40
1.0
 40
1.0
 40
1.0
 10
129.0723465941802
 20
75.87578232971856
 30
0.0
 10
129.2355132954826
 20
75.57645168499539
 30
0.0
 10
129.5618005636709
 20
74.97787502951248
 30
0.0
 10
129.912740164971
 20
74.05615277592305
 30
0.0
 10
130.1242637470866
 20
73.11692082386185
 30
0.0
 10
130.1764619983518
 20
71.9422650526806
 30
0.0
 10
129.9001987701952
 20
70.5354852897549
 30
0.0
 10
129.3499779173273
 20
69.48010472348852
 30
0.0
 10
129.0723465941802
 20
68.9475790994432
 30
0.0
  0
LINE
  5
B4
330
1F
100
AcDbEntity
  8
0
  6
Continuous
 62
     7
370
    25
100
AcDbLine
 10
130.2884809312
 20
73.7693758692
 30
0.0
 11
130.2884809312
 21
50.2693758692
 31
0.0
  0
LINE
  5
B5
330
1F
100
AcDbEntity
  8
0
  6
Continuous
 62
     7
370
    25
100
AcDbLine
 10
119.5046152682
 20
68.9475790994
 30
0.0
 11
129.0723465942
 21
68.9475790994
 31
0.0
  0
LINE
  5
B6
330
1F
100
AcDbEntity
  8
0
  6
Continuous
 62
     7
370
    25
100
AcDbLine
 10
119.5046152682
 20
75.8757823297
 30
0.0
 11
129.0723465942
 21
75.8757823297
 31
0.0
  0
LINE
  5
B7
330
1F
100
AcDbEntity
  8
0
  6
Continuous
 62
     7
370
    25
100
AcDbLine
 10
131.7884809312
 20
50.2693758692
 30
0.0
 11
131.7884809312
 21
73.7693758692
 31
0.0
  0
LINE
  5
B8
330
1F
100
AcDbEntity
  8
0
  6
Continuous
 62
     7
370
    25
100
AcDbLine
 10
116.7884809312
 20
62.0193758692
 30
0.0
 11
116.7884809312
 21
50.2693758692
 31
0.0
  0
LINE
  5
B9
330
1F
100
AcDbEntity
  8
0
  6
Continuous
 62
     7
370
    25
100
AcDbLine
 10
116.7884809312
 20
73.7693758692
 30
0.0
 11
116.7884809312
 21
62.0193758692
 31
0.0
  0
LINE
  5
BA
330
1F
100
AcDbEntity
  8
0
  6
Continuous
 62
     7
370
    25
100
AcDbLine
 10
116.2884809312
 20
62.0193758692
 30
0.0
 11
116.2884809312
 21
73.2693758692
 31
0.0
  0
LINE
  5
BB
330
1F
100
AcDbEntity
  8
0
  6
Continuous
 62
     7
370
    25
100
AcDbLine
 10
116.2884809312
 20
50.7693758692
 30
0.0
 11
116.2884809312
 21
62.0193758692
 31
0.0
  0
LINE
  5
BC
330
1F
100
AcDbEntity
  8
0
  6
Continuous
 62
     7
370
    25
100
AcDbLine
 10
132.2884809312
 20
73.2693758692
 30
0.0
 11
132.2884809312
 21
50.7693758692
 31
0.0
  0
LINE
  5
BD
330
1F
100
AcDbEntity
  8
0
  6
Continuous
 62
     7
370
    25
100
AcDbLine
 10
136.6724555274
 20
69.9534718601
 30
0.0
 11
136.6724555274
 21
50.0193758692
 31
0.0
  0
LINE
  5
BE
330
1F
100
AcDbEntity
  8
0
  6
Continuous
 62
     7
370
    25
100
AcDbLine
 10
136.6724555274
 20
74.0193758692
 30
0.0
 11
136.6724555274
 21
69.9534718601
 31
0.0
  0
LINE
  5
BF
330
1F
100
AcDbEntity
  8
0
  6
Continuous
 62
     7
370
    25
100
AcDbLine
 10
136.4224555274
 20
69.7881781936
 30
0.0
 11
136.4224555274
 21
73.7693758692
 31
0.0
  0
LINE
  5
C0
330
1F
100
AcDbEntity
  8
0
  6
Continuous
 62
     7
370
    25
100
AcDbLine
 10
136.4224555274
 20
50.2693758692
 30
0.0
 11
136.4224555274
 21
69.7881781936
 31
0.0
  0
LINE
  5
C1
330
1F
100
AcDbEntity
  8
0
  6
Continuous
 62
     7
370
    25
100
AcDbLine
 10
132.9224555274
 20
68.9468334312
 30
0.0
 11
132.9224555274
 21
72.4968758692
 31
0.0
  0
LINE
  5
C2
330
1F
100
AcDbEntity
  8
0
  6
Continuous
 62
     7
370
    25
100
AcDbLine
 10
132.9224555274
 20
51.5418758692
 30
0.0
 11
132.9224555274
 21
68.9468334312
 31
0.0
  0
LINE
  5
C3
330
1F
100
AcDbEntity
  8
0
  6
Continuous
 62
     7
370
    25
100
AcDbLine
 10
133.9224555274
 20
68.2856587653
 30
0.0
 11
133.9224555274
 21
52.5418758692
 31
0.0
  0
LINE
  5
C4
330
1F
100
AcDbEntity
  8
0
  6
Continuous
 62
     7
370
    25
100
AcDbLine
 10
133.9224555274
 20
71.4968758692
 30
0.0
 11
133.9224555274
 21
68.2856587653
 31
0.0
  0
LINE
  5
C5
330
1F
100
AcDbEntity
  8
0
  6
Continuous
 62
     7
370
    25
100
AcDbLine
 10
163.3347422871
 20
49.5193758692
 30
0.0
 11
141.0101687677
 21
49.5193758692
 31
0.0
  0
LINE
  5
C6
330
1F
100
AcDbEntity
  8
0
  6
Continuous
 62
     7
370
    25
100
AcDbLine
 10
141.0101687677
 20
49.5193758692
 30
0.0
 11
141.0101687677
 21
53.2836732643
 31
0.0
  0
LINE
  5
C7
330
1F
100
AcDbEntity
  8
0
  6
Continuous
 62
     7
370
    25
100
AcDbLine
 10
163.3347422871
 20
53.2836732643
 30
0.0
 11
141.0101687677
 21
53.2836732643
 31
0.0
  0
LINE
  5
C8
330
1F
100
AcDbEntity
  8
0
  6
Continuous
 62
     7
370
    25
100
AcDbLine
 10
163.3347422871
 20
53.2836732643
 30
0.0
 11
163.3347422871
 21
49.5193758692
 31
0.0
  0
SPLINE
  5
C9
330
1F
100
AcDbEntity
  8
0
  6
Continuous
 62
     7
370
    25
100
AcDbSpline
210
0.0
220
0.0
230
1.0
 70
     8
 71
     3
 72
    12
 73
     8
 74
     0
 42
0.00000001
 43
0.00000001
 40
0.0
 40
0.0
 40
0.0
 40
0.0
 40
0.2499999999999999
 40
0.2499999999999999
 40
0.4999999999999998
 40
0.4999999999999998
 40
1.0
 40
1.0
 40
1.0
 40
1.0
 10
163.3347422871462
 20
53.28367326433947
 30
0.0
 10
163.5681932619976
 20
53.98954911189394
 30
0.0
 10
163.7850401311384
 20
54.70225080645366
 30
0.0
 10
164.1740237823422
 20
56.14603424080439
 30
0.0
 10
164.3443875825105
 20
56.8710418162363
 30
0.0
 10
164.7650394158493
 20
59.05664478278209
 30
0.0
 10
164.9224555274177
 20
60.52853035348465
 30
0.0
 10
164.9224555274177
 20
62.01937586916754
 30
0.0
  0
SPLINE
  5
CA
330
1F
100
AcDbEntity
  8
0
  6
Continuous
 62
     7
370
    25
100
AcDbSpline
210
0.0
220
0.0
230
1.0
 70
     8
 71
     3
 72
    10
 73
     6
 74
     0
 42
0.00000001
 43
0.00000001
 40
0.0
 40
0.0
 40
0.0
 40
0.0
 40
0.5
 40
0.5
 40
1.0
 40
1.0
 40
1.0
 40
1.0
 10
141.0101687676891
 20
53.28367326433947
 30
0.0
 10
140.5431658687953
 20
54.69573019525124
 30
0.0
 10
140.1407621216688
 20
56.1425131191291
 30
0.0
 10
139.580003551077
 20
59.05584276560428
 30
0.0
 10
139.4224555274177
 20
60.52780122146027
 30
0.0
 10
139.4224555274177
 20
62.01937586916754
 30
0.0
  0
SPLINE
  5
CB
330
1F
100
AcDbEntity
  8
0
  6
Continuous
 62
     7
370
    25
100
AcDbSpline
210
0.0
220
0.0
230
1.0
 70
     8
 71
     3
 72
    12
 73
     8
 74
     0
 42
0.00000001
 43
0.00000001
 40
0.0
 40
0.0
 40
0.0
 40
0.0
 40
0.2500000000000001
 40
0.2500000000000001
 40
0.5000000000000001
 40
0.5000000000000001
 40
1.0
 40
1.0
 40
1.0
 40
1.0
 10
139.4224555274177
 20
62.01937586916754
 30
0.0
 10
139.4224555274177
 20
62.76472208144185
 30
0.0
 10
139.4618486127873
 20
63.51654893131088
 30
0.0
 10
139.6124800155526
 20
64.99724939248615
 30
0.0
 10
139.7233604447244
 20
65.73022099708818
 30
0.0
 10
140.1445478506888
 20
67.91076511804417
 30
0.0
 10
140.5422355961685
 20
69.3402087170534
 30
0.0
 10
141.0101687676891
 20
70.75507847399561
 30
0.0
  0
LINE
  5
CC
330
1F
100
AcDbEntity
  8
0
  6
Continuous
 62
     7
370
    25
100
AcDbLine
 10
163.3347422871
 20
70.755078474
 30
0.0
 11
141.0101687677
 21
70.755078474
 31
0.0
  0
SPLINE
  5
CD
330
1F
100
AcDbEntity
  8
0
  6
Continuous
 62
     7
370
    25
100
AcDbSpline
210
0.0
220
0.0
230
1.0
 70
     8
 71
     3
 72
    12
 73
     8
 74
     0
 42
0.00000001
 43
0.00000001
 40
0.0
 40
0.0
 40
0.0
 40
0.0
 40
0.2500000000000001
 40
0.2500000000000001
 40
0.5
 40
0.5
 40
1.0
 40
1.0
 40
1.0
 40
1.0
 10
164.9224555274177
 20
62.01937586916754
 30
0.0
 10
164.9224555274177
 20
62.76420321761629
 30
0.0
 10
164.8831060018669
 20
63.51602769519807
 30
0.0
 10
164.7324464924932
 20
64.99719049652435
 30
0.0
 10
164.6215383097884
 20
65.73030940697295
 30
0.0
 10
164.2002892847936
 20
67.91109834094055
 30
0.0
 10
163.8025967961812
 20
69.34044656548694
 30
0.0
 10
163.3347422871462
 20
70.75507847399561
 30
0.0
  0
LINE
  5
CE
330
1F
100
AcDbEntity
  8
0
  6
Continuous
 62
     7
370
    25
100
AcDbLine
 10
139.4224555274
 20
62.0193758692
 30
0.0
 11
139.4224555274
 21
74.5193758692
 31
0.0
  0
SPLINE
  5
CF
330
1F
100
AcDbEntity
  8
0
  6
Continuous
 62
     7
370
    25
100
AcDbSpline
210
0.0
220
0.0
230
1.0
 70
    24
 71
     3
 72
    12
 73
     8
 74
     0
 42
0.00000001
 43
0.00000001
 40
0.0
 40
0.0
 40
0.0
 40
0.0
 40
0.2500000000000001
 40
0.2500000000000001
 40
0.5000000000000001
 40
0.5000000000000001
 40
1.0
 40
1.0
 40
1.0
 40
1.0
 10
139.4224555274177
 20
74.51937586916753
 30
0.0
 10
139.4224555274177
 20
74.51937586916753
 30
0.0
 10
139.4618486127872
 20
74.51937586916755
 30
0.0
 10
139.6124800155526
 20
74.51937586916755
 30
0.0
 10
139.7233604447244
 20
74.51937586916753
 30
0.0
 10
140.1445478506888
 20
74.51937586916755
 30
0.0
 10
140.5422355961685
 20
74.51937586916755
 30
0.0
 10
141.0101687676891
 20
74.51937586916753
 30
0.0
  0
LINE
  5
D0
330
1F
100
AcDbEntity
  8
0
  6
Continuous
 62
     7
370
    25
100
AcDbLine
 10
141.0101687677
 20
70.755078474
 30
0.0
 11
141.0101687677
 21
74.5193758692
 31
0.0
  0
SPLINE
  5
D1
330
1F
100
AcDbEntity
  8
0
  6
Continuous
 62
     7
370
    25
100
AcDbSpline
210
0.0
220
0.0
230
1.0
 70
    24
 71
     3
 72
    12
 73
     8
 74
     0
 42
0.00000001
 43
0.00000001
 40
0.0
 40
0.0
 40
0.0
 40
0.0
 40
0.2500000000000001
 40
0.2500000000000001
 40
0.5000000000000001
 40
0.5000000000000001
 40
1.0
 40
1.0
 40
1.0
 40
1.0
 10
139.4224555274177
 20
49.51937586916753
 30
0.0
 10
139.4224555274177
 20
49.51937586916753
 30
0.0
 10
139.4618486127873
 20
49.51937586916753
 30
0.0
 10
139.6124800155527
 20
49.51937586916753
 30
0.0
 10
139.7233604447244
 20
49.51937586916753
 30
0.0
 10
140.1445478506888
 20
49.51937586916752
 30
0.0
 10
140.5422355961684
 20
49.51937586916752
 30
0.0
 10
141.0101687676891
 20
49.51937586916753
 30
0.0
  0
LINE
  5
D2
330
1F
100
AcDbEntity
  8
0
  6
Continuous
 62
     7
370
    25
100
AcDbLine
 10
139.4224555274
 20
49.5193758692
 30
0.0
 11
139.4224555274
 21
62.0193758692
 31
0.0
  0
LINE
  5
D3
330
1F
100
AcDbEntity
  8
0
  6
Continuous
 62
     7
370
    25
100
AcDbLine
 10
163.3347422871
 20
74.5193758692
 30
0.0
 11
141.0101687677
 21
74.5193758692
 31
0.0
  0
LINE
  5
D4
330
1F
100
AcDbEntity
  8
0
  6
Continuous
 62
     7
370
    25
100
AcDbLine
 10
163.3347422871
 20
74.5193758692
 30
0.0
 11
163.3347422871
 21
70.755078474
 31
0.0
  0
LINE
  5
D5
330
1F
100
AcDbEntity
  8
0
  6
Continuous
 62
     7
370
    25
100
AcDbLine
 10
164.9224555274
 20
62.0193758692
 30
0.0
 11
164.9224555274
 21
49.5193758692
 31
0.0
  0
SPLINE
  5
D6
330
1F
100
AcDbEntity
  8
0
  6
Continuous
 62
     7
370
    25
100
AcDbSpline
210
0.0
220
0.0
230
1.0
 70
    24
 71
     3
 72
    12
 73
     8
 74
     0
 42
0.00000001
 43
0.00000001
 40
0.0
 40
0.0
 40
0.0
 40
0.0
 40
0.25
 40
0.25
 40
0.5
 40
0.5
 40
1.0
 40
1.0
 40
1.0
 40
1.0
 10
164.9224555274177
 20
49.51937586916753
 30
0.0
 10
164.9224555274176
 20
49.51937586916753
 30
0.0
 10
164.8831060018668
 20
49.51937586916753
 30
0.0
 10
164.7324464924932
 20
49.51937586916753
 30
0.0
 10
164.6215383097884
 20
49.51937586916753
 30
0.0
 10
164.2002892847936
 20
49.51937586916753
 30
0.0
 10
163.8025967961812
 20
49.51937586916753
 30
0.0
 10
163.3347422871462
 20
49.51937586916753
 30
0.0
  0
SPLINE
  5
D7
330
1F
100
AcDbEntity
  8
0
  6
Continuous
 62
     7
370
    25
100
AcDbSpline
210
0.0
220
0.0
230
1.0
 70
    24
 71
     3
 72
    12
 73
     8
 74
     0
 42
0.00000001
 43
0.00000001
 40
0.0
 40
0.0
 40
0.0
 40
0.0
 40
0.2500000000000001
 40
0.2500000000000001
 40
0.5000000000000001
 40
0.5000000000000001
 40
1.0
 40
1.0
 40
1.0
 40
1.0
 10
164.9224555274177
 20
74.51937586916753
 30
0.0
 10
164.9224555274177
 20
74.51937586916755
 30
0.0
 10
164.8831060018669
 20
74.51937586916755
 30
0.0
 10
164.7324464924932
 20
74.51937586916755
 30
0.0
 10
164.6215383097884
 20
74.51937586916755
 30
0.0
 10
164.2002892847936
 20
74.51937586916753
 30
0.0
 10
163.8025967961812
 20
74.51937586916755
 30
0.0
 10
163.3347422871462
 20
74.51937586916753
 30
0.0
  0
LINE
  5
D8
330
1F
100
AcDbEntity
  8
0
  6
Continuous
 62
     7
370
    25
100
AcDbLine
 10
164.9224555274
 20
74.5193758692
 30
0.0
 11
164.9224555274
 21
62.0193758692
 31
0.0
  0
LINE
  5
D9
330
1F
100
AcDbEntity
  8
0
  6
Continuous
 62
     7
370
    25
100
AcDbLine
 10
177.2260642545
 20
51.7126136419
 30
0.0
 11
177.2260642545
 21
72.3261380964
 31
0.0
  0
LINE
  5
DA
330
1F
100
AcDbEntity
  8
0
  6
Continuous
 62
     7
370
    25
100
AcDbLine
 10
179.9224555274
 20
70.7693758692
 30
0.0
 11
179.9224555274
 21
53.2693758692
 31
0.0
  0
LINE
  5
DB
330
1F
100
AcDbEntity
  8
0
  6
Continuous
 62
     7
370
    25
100
AcDbLine
 10
152.4224555274
 20
80.7193758692
 30
0.0
 11
160.1724555274
 21
80.7193758692
 31
0.0
  0
LINE
  5
DC
330
1F
100
AcDbEntity
  8
0
  6
Continuous
 62
     7
370
    25
100
AcDbLine
 10
144.6724555274
 20
80.7193758692
 30
0.0
 11
152.4224555274
 21
80.7193758692
 31
0.0
  0
LINE
  5
DD
330
1F
100
AcDbEntity
  8
0
  6
Continuous
 62
     7
370
    25
100
AcDbLine
 10
152.4224555274
 20
80.2193758692
 30
0.0
 11
144.1724555274
 21
80.2193758692
 31
0.0
  0
LINE
  5
DE
330
1F
100
AcDbEntity
  8
0
  6
Continuous
 62
     7
370
    25
100
AcDbLine
 10
160.6724555274
 20
80.2193758692
 30
0.0
 11
152.4224555274
 21
80.2193758692
 31
0.0
  0
ARC
  5
DF
330
1F
100
AcDbEntity
  8
0
  6
Continuous
 62
     7
370
    25
100
AcDbCircle
 10
151.3555038582
 20
96.9204519199
 30
0.0
 40
2.367678303592743
100
AcDbArc
 50
93.3632881502
 51
99.4868245016
  0
ARC
  5
E0
330
1F
100
AcDbEntity
  8
0
  6
Continuous
 62
     7
370
    25
100
AcDbCircle
 10
153.4894108832
 20
96.9204931707
 30
0.0
 40
2.367636907574306
100
AcDbArc
 50
80.5187694297
 51
86.6367422681
  0
SPLINE
  5
E1
330
1F
100
AcDbEntity
  8
0
  6
Continuous
 62
     7
370
    25
100
AcDbSpline
210
0.0
220
0.0
230
1.0
 70
     8
 71
     3
 72
    15
 73
    11
 74
     0
 42
0.00000001
 43
0.00000001
 40
0.0
 40
0.0
 40
0.0
 40
0.0
 40
0.1233867499278388
 40
0.2487396502211602
 40
0.3739317114754985
 40
0.4999973617625659
 40
0.6259591330513601
 40
0.7512551380600303
 40
0.8765613478174267
 40
1.0
 40
1.0
 40
1.0
 40
1.0
 10
152.3595726626116
 20
99.319268766472
 30
0.0
 10
152.3624508638034
 20
99.31926942554416
 30
0.0
 10
152.3682531299151
 20
99.31927075419065
 30
0.0
 10
152.3837825346358
 20
99.31927470381781
 30
0.0
 10
152.4021371165093
 20
99.31927648616718
 30
0.0
 10
152.4224499329922
 20
99.31927803974514
 30
0.0
 10
152.4427683507073
 20
99.3192764856102
 30
0.0
 10
152.4611212198714
 20
99.31927470872965
 30
0.0
 10
152.4766593242669
 20
99.3192707412115
 30
0.0
 10
152.4824598862982
 20
99.31926942141554
 30
0.0
 10
152.4853383922238
 20
99.31926876647202
 30
0.0
  0
ARC
  5
E2
330
1F
100
AcDbEntity
  8
0
  6
Continuous
 62
     7
370
    25
100
AcDbCircle
 10
152.3604670903
 20
96.7749193536
 30
0.0
 40
2.544349570044271
100
AcDbArc
 50
90.0201414662
 51
95.4127462175
  0
SPLINE
  5
E3
330
1F
100
AcDbEntity
  8
0
  6
Continuous
 62
     7
370
    25
100
AcDbSpline
210
0.0
220
0.0
230
1.0
 70
     8
 71
     3
 72
    15
 73
    11
 74
     0
 42
0.00000001
 43
0.00000001
 40
0.0
 40
0.0
 40
0.0
 40
0.0
 40
0.1261585224210646
 40
0.2513121451548803
 40
0.3762846848783793
 40
0.4993062783340885
 40
0.6261594278645746
 40
0.7521171342021311
 40
0.87581969226928
 40
1.0
 40
1.0
 40
1.0
 40
1.0
 10
152.1833420017399
 20
99.30602563506129
 30
0.0
 10
152.1781109052512
 20
99.30597470931082
 30
0.0
 10
152.1676903799086
 20
99.30587326345247
 30
0.0
 10
152.1529038293942
 20
99.30586908181522
 30
0.0
 10
152.1397134767687
 20
99.3059684206358
 30
0.0
 10
152.1288429019274
 20
99.3061889628389
 30
0.0
 10
152.1208353145988
 20
99.30651283024038
 30
0.0
 10
152.1166686875661
 20
99.30693270008784
 30
0.0
 10
152.1160476360546
 20
99.30741141715359
 30
0.0
 10
152.1189867484093
 20
99.30775270639914
 30
0.0
 10
152.120459136892
 20
99.30792367990875
 30
0.0
  0
ARC
  5
E4
330
1F
100
AcDbEntity
  8
0
  6
Continuous
 62
     7
370
    25
100
AcDbCircle
 10
152.4224555274
 20
78.7193758692
 30
0.0
 40
20.58803836847347
100
AcDbArc
 50
89.3345405821
 51
90.66545941
  0
SPLINE
  5
E5
330
1F
100
AcDbEntity
  8
0
  6
Continuous
 62
     7
370
    25
100
AcDbSpline
210
0.0
220
0.0
230
1.0
 70
     8
 71
     3
 72
    15
 73
    11
 74
     0
 42
0.00000001
 43
0.00000001
 40
0.0
 40
0.0
 40
0.0
 40
0.0
 40
0.1241186784437694
 40
0.2478474916628982
 40
0.3736574149478941
 40
0.5005082335853295
 40
0.6234527658309924
 40
0.7484986612277525
 40
0.873697649245277
 40
1.0
 40
1.0
 40
1.0
 40
1.0
 10
152.7244519206693
 20
99.30792367987546
 30
0.0
 10
152.7259229932781
 20
99.30775279959697
 30
0.0
 10
152.7288605177564
 20
99.30741157578659
 30
0.0
 10
152.7282437832563
 20
99.30693303949911
 30
0.0
 10
152.7240818216617
 20
99.3065132496272
 30
0.0
 10
152.7160830738634
 20
99.30618946178079
 30
0.0
 10
152.7052169823265
 20
99.30596876357508
 30
0.0
 10
152.6920292645019
 20
99.30586917166492
 30
0.0
 10
152.6772348179267
 20
99.30587308606354
 30
0.0
 10
152.6668062270194
 20
99.30597463686895
 30
0.0
 10
152.6615690559049
 20
99.30602563502866
 30
0.0
  0
ARC
  5
E6
330
1F
100
AcDbEntity
  8
0
  6
Continuous
 62
     7
370
    25
100
AcDbCircle
 10
152.4844439645
 20
96.7749193014
 30
0.0
 40
2.544349622290465
100
AcDbArc
 50
84.5872538302
 51
89.9798585321
  0
ELLIPSE
  5
E7
330
1F
100
AcDbEntity
  8
0
  6
Continuous
 62
     7
370
    25
100
AcDbEllipse
 10
254.9363509999
 20
83.8411985875
 30
0.0
 11
171.0000000000011
 21
2.842170943040401E-14
 31
0.0
210
0.0
220
0.0
230
1.0
 40
0.0555555556
 41
2.292395939553285
 42
2.365524293035123
  0
LINE
  5
E8
330
1F
100
AcDbEntity
  8
0
  6
Continuous
 62
     7
370
    25
100
AcDbLine
 10
141.9760721725
 20
90.9733236598
 30
0.0
 11
142.4224555274
 21
90.935861694
 31
0.0
  0
LINE
  5
E9
330
1F
100
AcDbEntity
  8
0
  6
Continuous
 62
     7
370
    25
100
AcDbLine
 10
142.4224555274
 20
86.1072590724
 30
0.0
 11
142.4224555274
 21
90.935861694
 31
0.0
  0
SPLINE
  5
EA
330
1F
100
AcDbEntity
  8
0
  6
Continuous
 62
     7
370
    25
100
AcDbSpline
210
0.0
220
0.0
230
1.0
 70
     8
 71
     3
 72
    12
 73
     8
 74
     0
 42
0.00000001
 43
0.00000001
 40
0.0
 40
0.0
 40
0.0
 40
0.0
 40
0.1374975366677113
 40
0.2750385788614215
 40
0.5575409445665216
 40
0.7769626822980097
 40
1.0
 40
1.0
 40
1.0
 40
1.0
 10
132.8982547600616
 20
90.49574847119379
 30
0.0
 10
133.3835631483186
 20
90.40943031682372
 30
0.0
 10
134.3543334810143
 20
90.23676669620005
 30
0.0
 10
136.2570289367021
 20
89.7041082440036
 30
0.0
 10
138.3402509251073
 20
88.85618897913335
 30
0.0
 10
140.5620275016384
 20
87.5923003033956
 30
0.0
 10
141.7989436746146
 20
86.6049621797235
 30
0.0
 10
142.4224555274177
 20
86.10725907236366
 30
0.0
  0
SPLINE
  5
EB
330
1F
100
AcDbEntity
  8
0
  6
Continuous
 62
     7
370
    25
100
AcDbSpline
210
0.0
220
0.0
230
1.0
 70
     8
 71
     3
 72
    11
 73
     7
 74
     0
 42
0.00000001
 43
0.00000001
 40
0.0
 40
0.0
 40
0.0
 40
0.0
 40
0.2795638428677822
 40
0.5590315779132445
 40
0.7794196683689394
 40
1.0
 40
1.0
 40
1.0
 40
1.0
 10
129.9861275733402
 20
90.71937586916754
 30
0.0
 10
129.862554227564
 20
90.75789472111562
 30
0.0
 10
129.6154500177755
 20
90.83491918308846
 30
0.0
 10
129.3616941098523
 20
91.36771708087814
 30
0.0
 10
129.2450756688718
 20
91.99545364774453
 30
0.0
 10
129.271595054907
 20
92.39643646391319
 30
0.0
 10
129.2848605285176
 20
92.59701527667777
 30
0.0
  0
SPLINE
  5
EC
330
1F
100
AcDbEntity
  8
0
  6
Continuous
 62
     7
370
    25
100
AcDbSpline
210
0.0
220
0.0
230
1.0
 70
     8
 71
     3
 72
     9
 73
     5
 74
     0
 42
0.00000001
 43
0.00000001
 40
0.0
 40
0.0
 40
0.0
 40
0.0
 40
0.4986740982738611
 40
1.0
 40
1.0
 40
1.0
 40
1.0
 10
130.5764210695865
 20
92.62681630210821
 30
0.0
 10
130.3699474285167
 20
92.62828138136486
 30
0.0
 10
129.9559021797571
 20
92.63121933074248
 30
0.0
 10
129.5089360778122
 20
92.60843605181077
 30
0.0
 10
129.2848603937137
 20
92.59701420395605
 30
0.0
  0
SPLINE
  5
ED
330
1F
100
AcDbEntity
  8
0
  6
Continuous
 62
     7
370
    25
100
AcDbSpline
210
0.0
220
0.0
230
1.0
 70
     8
 71
     3
 72
    13
 73
     9
 74
     0
 42
0.00000001
 43
0.00000001
 40
0.0
 40
0.0
 40
0.0
 40
0.0
 40
0.3327087167328945
 40
0.5628656559531297
 40
0.6987124125384699
 40
0.8016200683166477
 40
0.9052998751809793
 40
0.9999999999999999
 40
0.9999999999999999
 40
0.9999999999999999
 40
0.9999999999999999
 10
132.5672218098572
 20
90.54392290801842
 30
0.0
 10
132.20483097953
 20
90.62970848293655
 30
0.0
 10
131.5917501007766
 20
90.77483769497456
 30
0.0
 10
130.9422047761142
 20
91.22520439140186
 30
0.0
 10
130.5995077605161
 20
91.62494554000772
 30
0.0
 10
130.4505841493724
 20
91.98083778641929
 30
0.0
 10
130.4384114299457
 20
92.3282716334535
 30
0.0
 10
130.5318280237658
 20
92.53035050463258
 30
0.0
 10
130.5764220662169
 20
92.62681638281674
 30
0.0
  0
SPLINE
  5
EE
330
1F
100
AcDbEntity
  8
0
  6
Continuous
 62
     7
370
    25
100
AcDbSpline
210
0.0
220
0.0
230
1.0
 70
     8
 71
     3
 72
     9
 73
     5
 74
     0
 42
0.00000001
 43
0.00000001
 40
0.0
 40
0.0
 40
0.0
 40
0.0
 40
0.5551829690770671
 40
1.0
 40
1.0
 40
1.0
 40
1.0
 10
129.9861275733402
 20
90.71937586916754
 30
0.0
 10
130.5161504470614
 20
90.70637684867648
 30
0.0
 10
131.4708318822688
 20
90.68296290910143
 30
0.0
 10
132.2296753234262
 20
90.58672926974974
 30
0.0
 10
132.5672218098572
 20
90.54392290801842
 30
0.0
  0
LINE
  5
EF
330
1F
100
AcDbEntity
  8
0
  6
Continuous
 62
     7
370
    25
100
AcDbLine
 10
141.9760721725
 20
96.2193758692
 30
0.0
 11
141.9760721725
 21
90.9733236598
 31
0.0
  0
LINE
  5
F0
330
1F
100
AcDbEntity
  8
0
  6
Continuous
 62
     7
370
    25
100
AcDbLine
 10
142.4224555274
 20
96.2193758692
 30
0.0
 11
141.9760721725
 21
96.2193758692
 31
0.0
  0
LINE
  5
F1
330
1F
100
AcDbEntity
  8
0
  6
Continuous
 62
     7
370
    25
100
AcDbLine
 10
142.4224555274
 20
90.935861694
 30
0.0
 11
142.4224555274
 21
96.2193758692
 31
0.0
  0
ARC
  5
F2
330
1F
100
AcDbEntity
  8
0
  6
Continuous
 62
     7
370
    25
100
AcDbCircle
 10
148.7988845861
 20
96.593222023
 30
0.0
 40
6.833046917552511
100
AcDbArc
 50
170.513808076
 51
183.1363032674
  0
ARC
  5
F3
330
1F
100
AcDbEntity
  8
0
  6
Continuous
 62
     7
370
    25
100
AcDbCircle
 10
142.0548876611
 20
96.9291259207
 30
0.0
 40
0.7902621394874377
100
AcDbArc
 50
62.2819181136
 51
89.6817467964
  0
LINE
  5
F4
330
1F
100
AcDbEntity
  8
0
  6
Continuous
 62
     7
370
    25
100
AcDbLine
 10
142.4224555274
 20
96.2193758692
 30
0.0
 11
142.4224555274
 21
97.6287030164
 31
0.0
  0
LINE
  5
F5
330
1F
100
AcDbEntity
  8
0
  6
Continuous
 62
     7
370
    25
100
AcDbLine
 10
130.5762479959
 20
92.6269167885
 30
0.0
 11
132.6422017308
 21
96.2194868751
 31
0.0
  0
LINE
  5
F6
330
1F
100
AcDbEntity
  8
0
  6
Continuous
 62
     7
370
    25
100
AcDbLine
 10
132.642394161
 20
96.2193758692
 30
0.0
 11
141.9760721725
 21
96.2193758692
 31
0.0
  0
ARC
  5
F7
330
1F
100
AcDbEntity
  8
0
  6
Continuous
 62
     7
370
    25
100
AcDbCircle
 10
129.9861275734
 20
71.6463686219
 30
0.0
 40
19.07300724724771
100
AcDbArc
 50
81.2175477188
 51
82.2224666688
  0
LINE
  5
F8
330
1F
100
AcDbEntity
  8
0
  6
Continuous
 62
     7
370
    25
100
AcDbLine
 10
142.0592772019
 20
97.7193758692
 30
0.0
 11
130.6435479184
 21
97.7193758692
 31
0.0
  0
SPLINE
  5
F9
330
1F
100
AcDbEntity
  8
0
  6
Continuous
 62
     7
370
    25
100
AcDbSpline
210
0.0
220
0.0
230
1.0
 70
     8
 71
     3
 72
    15
 73
    11
 74
     0
 42
0.00000001
 43
0.00000001
 40
0.0
 40
0.0
 40
0.0
 40
0.0
 40
0.2070474010410777
 40
0.4175968630246832
 40
0.5931232720441627
 40
0.6923428991082514
 40
0.7730996831079096
 40
0.8543284120985933
 40
0.926147516637204
 40
1.0
 40
1.0
 40
1.0
 40
1.0
 10
130.6409816317322
 20
97.71936114306152
 30
0.0
 10
130.8720708686971
 20
97.71551090422021
 30
0.0
 10
131.3381580542886
 20
97.70774530245971
 30
0.0
 10
131.9627558535957
 20
97.62109533972226
 30
0.0
 10
132.4244350440264
 20
97.45114483017964
 30
0.0
 10
132.6863387430102
 20
97.22177997283111
 30
0.0
 10
132.8068053991413
 20
96.98398650755176
 30
0.0
 10
132.8255994373371
 20
96.72207353027855
 30
0.0
 10
132.764561045337
 20
96.45653112826315
 30
0.0
 10
132.6833659517222
 20
96.29923350524939
 30
0.0
 10
132.6422017179364
 20
96.21948686244839
 30
0.0
  0
SPLINE
  5
FA
330
1F
100
AcDbEntity
  8
0
  6
Continuous
 62
     7
370
    25
100
AcDbSpline
210
0.0
220
0.0
230
1.0
 70
     8
 71
     3
 72
    11
 73
     7
 74
     0
 42
0.00000001
 43
0.00000001
 40
0.0
 40
0.0
 40
0.0
 40
0.0
 40
0.2491150002829084
 40
0.498958532285429
 40
0.7493328274976521
 40
1.0
 40
1.0
 40
1.0
 40
1.0
 10
129.2848605285176
 20
92.59701527667775
 30
0.0
 10
128.8591492472042
 20
92.57076216870894
 30
0.0
 10
128.0064817006483
 20
92.51817917609435
 30
0.0
 10
126.6429159393965
 20
92.43385814586786
 30
0.0
 10
125.2422433221843
 20
92.34712487705612
 30
0.0
 10
124.2914230866971
 20
92.28814731162853
 30
0.0
 10
123.8157350741365
 20
92.25864129162935
 30
0.0
  0
SPLINE
  5
FB
330
1F
100
AcDbEntity
  8
0
  6
Continuous
 62
     7
370
    25
100
AcDbSpline
210
0.0
220
0.0
230
1.0
 70
     8
 71
     3
 72
     9
 73
     5
 74
     0
 42
0.00000001
 43
0.00000001
 40
0.0
 40
0.0
 40
0.0
 40
0.0
 40
0.5599987526606145
 40
1.0
 40
1.0
 40
1.0
 40
1.0
 10
126.3796364417939
 20
97.23246434332135
 30
0.0
 10
125.8998701839067
 20
96.30462304347202
 30
0.0
 10
125.0431428151265
 20
94.64775988897205
 30
0.0
 10
124.1907770666538
 20
92.98865118906157
 30
0.0
 10
123.8157350741365
 20
92.25864129162935
 30
0.0
  0
SPLINE
  5
FC
330
1F
100
AcDbEntity
  8
0
  6
Continuous
 62
     7
370
    25
100
AcDbSpline
210
0.0
220
0.0
230
1.0
 70
     8
 71
     3
 72
     9
 73
     5
 74
     0
 42
0.00000001
 43
0.00000001
 40
0.0
 40
0.0
 40
0.0
 40
0.0
 40
0.5600000882143288
 40
1.0
 40
1.0
 40
1.0
 40
1.0
 10
126.884123579346
 20
98.20628739501349
 30
0.0
 10
126.7899111638143
 20
98.0245285241817
 30
0.0
 10
126.6216747340093
 20
97.69995916311004
 30
0.0
 10
126.4535925763408
 20
97.37530996281322
 30
0.0
 10
126.3796364417939
 20
97.23246434332135
 30
0.0
  0
SPLINE
  5
FD
330
1F
100
AcDbEntity
  8
0
  6
Continuous
 62
     7
370
    25
100
AcDbSpline
210
0.0
220
0.0
230
1.0
 70
     8
 71
     3
 72
    10
 73
     6
 74
     0
 42
0.00000001
 43
0.00000001
 40
0.0
 40
0.0
 40
0.0
 40
0.0
 40
0.4283493666310625
 40
0.761660314114417
 40
0.9999999999999999
 40
0.9999999999999999
 40
0.9999999999999999
 40
0.9999999999999999
 10
126.8841235793462
 20
98.20628739501367
 30
0.0
 10
127.3310507806293
 20
98.10449113219052
 30
0.0
 10
128.1257448762288
 20
97.92348427293597
 30
0.0
 10
129.1622996772344
 20
97.74982188998291
 30
0.0
 10
129.7481650102348
 20
97.72833461208711
 30
0.0
 10
129.9924312653348
 20
97.71937586916745
 30
0.0
  0
LINE
  5
FE
330
1F
100
AcDbEntity
  8
0
  6
Continuous
 62
     7
370
    25
100
AcDbLine
 10
129.9903311053
 20
97.7193758692
 30
0.0
 11
130.6409845714
 21
97.7193758692
 31
0.0
  0
LINE
  5
FF
330
1F
100
AcDbEntity
  8
0
  6
Continuous
 62
     7
370
    25
100
AcDbLine
 10
142.4224555274
 20
97.7193758692
 30
0.0
 11
142.0592772019
 21
97.7193758692
 31
0.0
  0
LINE
  5
100
330
1F
100
AcDbEntity
  8
0
  6
Continuous
 62
     7
370
    25
100
AcDbLine
 10
142.4224555274
 20
97.6287030164
 30
0.0
 11
142.4224555274
 21
97.7193758692
 31
0.0
  0
SPLINE
  5
101
330
1F
100
AcDbEntity
  8
0
  6
Continuous
 62
     7
370
    25
100
AcDbSpline
210
0.0
220
0.0
230
1.0
 70
    24
 71
     3
 72
    11
 73
     7
 74
     0
 42
0.00000001
 43
0.00000001
 40
0.0
 40
0.0
 40
0.0
 40
0.0
 40
0.2799857774483056
 40
0.5599458358671285
 40
0.7799985659009367
 40
1.0
 40
1.0
 40
1.0
 40
1.0
 10
123.8549870413187
 20
90.71937586916754
 30
0.0
 10
124.4523110284027
 20
90.71937586916754
 30
0.0
 10
125.6469041333792
 20
90.71937586916754
 30
0.0
 10
127.2742658888618
 20
90.71937586916754
 30
0.0
 10
128.72999545836
 20
90.71937586916754
 30
0.0
 10
129.5674494082677
 20
90.71937586916754
 30
0.0
 10
129.9861275733402
 20
90.71937586916754
 30
0.0
  0
SPLINE
  5
102
330
1F
100
AcDbEntity
  8
0
  6
Continuous
 62
     7
370
    25
100
AcDbSpline
210
0.0
220
0.0
230
1.0
 70
     8
 71
     3
 72
    11
 73
     7
 74
     0
 42
0.00000001
 43
0.00000001
 40
0.0
 40
0.0
 40
0.0
 40
0.0
 40
0.2500000000000001
 40
0.4999999999999997
 40
0.75
 40
1.0
 40
1.0
 40
1.0
 40
1.0
 10
123.8549870413187
 20
90.71937586916754
 30
0.0
 10
123.8497560075586
 20
90.74269740147584
 30
0.0
 10
123.8392939400383
 20
90.78934046609244
 30
0.0
 10
123.826179452171
 20
91.14732153445915
 30
0.0
 10
123.8171551086771
 20
91.65751447250109
 30
0.0
 10
123.8162084189834
 20
92.05826568525328
 30
0.0
 10
123.8157350741365
 20
92.25864129162935
 30
0.0
  0
SPLINE
  5
103
330
1F
100
AcDbEntity
  8
0
  6
Continuous
 62
     7
370
    25
100
AcDbSpline
210
0.0
220
0.0
230
1.0
 70
     8
 71
     3
 72
    11
 73
     7
 74
     0
 42
0.00000001
 43
0.00000001
 40
0.0
 40
0.0
 40
0.0
 40
0.0
 40
0.2500000000000006
 40
0.5000000000000007
 40
0.7499999999999996
 40
1.0
 40
1.0
 40
1.0
 40
1.0
 10
139.4093849936365
 20
97.71937586916751
 30
0.0
 10
139.4110714641405
 20
97.72663817881966
 30
0.0
 10
139.4144444051483
 20
97.74116279812397
 30
0.0
 10
139.4187243020496
 20
97.85313500171644
 30
0.0
 10
139.4217664228634
 20
98.01364657974142
 30
0.0
 10
139.422234796086
 20
98.14207378992286
 30
0.0
 10
139.4224689826973
 20
98.20628739501358
 30
0.0
  0
SPLINE
  5
104
330
1F
100
AcDbEntity
  8
0
  6
Continuous
 62
     7
370
    25
100
AcDbSpline
210
0.0
220
0.0
230
1.0
 70
     8
 71
     3
 72
    13
 73
     9
 74
     0
 42
0.00000001
 43
0.00000001
 40
0.0
 40
0.0
 40
0.0
 40
0.0
 40
0.2886949682914849
 40
0.5545536835943156
 40
0.6780091910936107
 40
0.78889220838012
 40
0.896419407140649
 40
1.0
 40
1.0
 40
1.0
 40
1.0
 10
139.4224689826973
 20
98.20628739501358
 30
0.0
 10
139.6941941732735
 20
98.16765724113559
 30
0.0
 10
140.2161506391279
 20
98.09345264291335
 30
0.0
 10
140.8137260472312
 20
98.01038992338475
 30
0.0
 10
141.1775802274107
 20
97.96140899277611
 30
0.0
 10
141.3741277189764
 20
97.93539203300463
 30
0.0
 10
141.5004110080826
 20
97.92003322266041
 30
0.0
 10
141.5151995100537
 20
97.91959223897292
 30
0.0
 10
141.5224555274177
 20
97.91937586916755
 30
0.0
  0
SPLINE
  5
105
330
1F
100
AcDbEntity
  8
0
  6
Continuous
 62
     7
370
    25
100
AcDbSpline
210
0.0
220
0.0
230
1.0
 70
     8
 71
     3
 72
    11
 73
     7
 74
     0
 42
0.00000001
 43
0.00000001
 40
0.0
 40
0.0
 40
0.0
 40
0.0
 40
0.2500000000000007
 40
0.5000000000000022
 40
0.7500000000000036
 40
1.0
 40
1.0
 40
1.0
 40
1.0
 10
141.5224555274177
 20
97.91937586916755
 30
0.0
 10
141.5477154656218
 20
97.88999819933578
 30
0.0
 10
141.5982353420301
 20
97.83124285967222
 30
0.0
 10
141.6970939512305
 20
97.76865271679323
 30
0.0
 10
141.8064812310539
 20
97.72711991516032
 30
0.0
 10
141.8837974286297
 20
97.72195721783179
 30
0.0
 10
141.9224555274177
 20
97.71937586916754
 30
0.0
  0
LINE
  5
106
330
1F
100
AcDbEntity
  8
0
  6
Continuous
 62
     7
370
    25
100
AcDbLine
 10
139.4224689827
 20
98.206287395
 30
0.0
 11
126.8841235793
 21
98.206287395
 31
0.0
  0
LINE
  5
107
330
1F
100
AcDbEntity
  8
0
  6
Continuous
 62
     7
370
    25
100
AcDbLine
 10
141.5224555274
 20
97.9193758692
 30
0.0
 11
139.1224555274
 21
101.1193758692
 31
0.0
  0
LINE
  5
108
330
1F
100
AcDbEntity
  8
0
  6
Continuous
 62
     7
370
    25
100
AcDbLine
 10
137.2989097292
 20
101.037699733
 30
0.0
 11
139.4224689827
 21
98.206287395
 31
0.0
  0
ELLIPSE
  5
109
330
1F
100
AcDbEntity
  8
0
  6
Continuous
 62
     7
370
    25
100
AcDbEllipse
 10
137.3224555274
 20
101.0193758692
 30
0.0
 11
1.560063634884955
 21
0.4198716740993262
 31
0.0
210
0.0
220
0.0
230
1.0
 40
0.0147408623
 41
0.9331929812038817
 42
1.58192232732848
  0
SPLINE
  5
10A
330
1F
100
AcDbEntity
  8
0
  6
Continuous
 62
     7
370
    25
100
AcDbSpline
210
0.0
220
0.0
230
1.0
 70
     8
 71
     3
 72
    11
 73
     7
 74
     0
 42
0.00000001
 43
0.00000001
 40
0.0
 40
0.0
 40
0.0
 40
0.0
 40
0.2307374805226518
 40
0.490395540300586
 40
0.7438105520730652
 40
0.9999999999999999
 40
0.9999999999999999
 40
0.9999999999999999
 40
0.9999999999999999
 10
138.2461435310527
 20
101.2877918643209
 30
0.0
 10
138.3377755358122
 20
101.3065077147253
 30
0.0
 10
138.5325246783488
 20
101.3462852556367
 30
0.0
 10
138.7800322455868
 20
101.328965267078
 30
0.0
 10
138.9898409749809
 20
101.2579803747519
 30
0.0
 10
139.0780905244612
 20
101.1657447569482
 30
0.0
 10
139.1224555274177
 20
101.1193758691675
 30
0.0
  0
LINE
  5
10B
330
1F
100
AcDbEntity
  8
0
  6
Continuous
 62
     7
370
    25
100
AcDbLine
 10
123.8157350741
 20
92.2586412916
 30
0.0
 11
102.1881869054
 21
92.2586412916
 31
0.0
  0
LINE
  5
10C
330
1F
100
AcDbEntity
  8
0
  6
Continuous
 62
     7
370
    25
100
AcDbLine
 10
102.1881869054
 20
92.2586412916
 30
0.0
 11
102.4106318166
 21
100.7534697281
 31
0.0
  0
ARC
  5
10D
330
1F
100
AcDbEntity
  8
0
  6
Continuous
 62
     7
370
    25
100
AcDbCircle
 10
103.0221719315
 20
100.237699733
 30
0.0
 40
0.8000000000000114
100
AcDbArc
 50
90.0
 51
139.8558773282
  0
LINE
  5
10E
330
1F
100
AcDbEntity
  8
0
  6
Continuous
 62
     7
370
    25
100
AcDbLine
 10
103.0221719315
 20
101.037699733
 30
0.0
 11
137.2989097292
 21
101.037699733
 31
0.0
  0
SPLINE
  5
10F
330
1F
100
AcDbEntity
  8
0
  6
Continuous
 62
     7
370
    25
100
AcDbSpline
210
0.0
220
0.0
230
1.0
 70
     8
 71
     3
 72
    11
 73
     7
 74
     0
 42
0.00000001
 43
0.00000001
 40
0.0
 40
0.0
 40
0.0
 40
0.0
 40
0.2499999999999979
 40
0.4999999999999972
 40
0.75
 40
1.0
 40
1.0
 40
1.0
 40
1.0
 10
103.0221719314825
 20
101.037699732983
 30
0.0
 10
103.0224997927383
 20
101.1275987801101
 30
0.0
 10
103.0231555152499
 20
101.3073968743641
 30
0.0
 10
103.0274144843892
 20
101.532113083599
 30
0.0
 10
103.033406340051
 20
101.6888741686285
 30
0.0
 10
103.038128457462
 20
101.7092086356545
 30
0.0
 10
103.0404895161675
 20
101.7193758691675
 30
0.0
  0
LINE
  5
110
330
1F
100
AcDbEntity
  8
0
  6
Continuous
 62
     7
370
    25
100
AcDbLine
 10
137.3172273139
 20
101.7193758692
 30
0.0
 11
103.0404895162
 21
101.7193758692
 31
0.0
  0
SPLINE
  5
111
330
1F
100
AcDbEntity
  8
0
  6
Continuous
 62
     7
370
    25
100
AcDbSpline
210
0.0
220
0.0
230
1.0
 70
     8
 71
     3
 72
    11
 73
     7
 74
     0
 42
0.00000001
 43
0.00000001
 40
0.0
 40
0.0
 40
0.0
 40
0.0
 40
0.2499999999999999
 40
0.4999999999999992
 40
0.7500000000000028
 40
1.0
 40
1.0
 40
1.0
 40
1.0
 10
137.3172273139052
 20
101.7193758691675
 30
0.0
 10
137.3148662551997
 20
101.7092086356545
 30
0.0
 10
137.3101441377887
 20
101.6888741686285
 30
0.0
 10
137.3041522821269
 20
101.5321130835991
 30
0.0
 10
137.2998933129876
 20
101.3073968743641
 30
0.0
 10
137.299237590476
 20
101.12759878011
 30
0.0
 10
137.2989097292202
 20
101.037699732983
 30
0.0
  0
LINE
  5
112
330
1F
100
AcDbEntity
  8
0
  6
Continuous
 62
     7
370
    25
100
AcDbLine
 10
137.9224555274
 20
101.7193758692
 30
0.0
 11
137.3172273139
 21
101.7193758692
 31
0.0
  0
SPLINE
  5
113
330
1F
100
AcDbEntity
  8
0
  6
Continuous
 62
     7
370
    25
100
AcDbSpline
210
0.0
220
0.0
230
1.0
 70
     8
 71
     3
 72
    10
 73
     6
 74
     0
 42
0.00000001
 43
0.00000001
 40
0.0
 40
0.0
 40
0.0
 40
0.0
 40
0.2808335173386721
 40
0.5616510917414105
 40
1.0
 40
1.0
 40
1.0
 40
1.0
 10
137.9224555274177
 20
101.7193758691675
 30
0.0
 10
137.9608059763801
 20
101.7118012608996
 30
0.0
 10
138.0375046971477
 20
101.6966524743747
 30
0.0
 10
138.1626590471896
 20
101.5630215413151
 30
0.0
 10
138.2145281135429
 20
101.3920208269569
 30
0.0
 10
138.2461435310527
 20
101.2877918643208
 30
0.0
  0
LINE
  5
114
330
1F
100
AcDbEntity
  8
0
  6
Continuous
 62
     7
370
    25
100
AcDbLine
 10
102.1881869054
 20
92.2586412916
 30
0.0
 11
102.1451944779
 21
92.1957542068
 31
0.0
  0
ELLIPSE
  5
115
330
1F
100
AcDbEntity
  8
0
  6
Continuous
 62
     7
370
    25
100
AcDbEllipse
 10
97.9224555274
 20
92.2193758692
 30
0.0
 11
0.5000325503427092
 21
1.499994860147751
 31
0.0
210
0.0
220
0.0
230
1.0
 40
0.0078530307
 41
2.363888000156618
 42
3.144210503884629
  0
SPLINE
  5
116
330
1F
100
AcDbEntity
  8
0
  6
Continuous
 62
     7
370
    25
100
AcDbSpline
210
0.0
220
0.0
230
1.0
 70
     8
 71
     3
 72
    12
 73
     8
 74
     0
 42
0.00000001
 43
0.00000001
 40
0.0
 40
0.0
 40
0.0
 40
0.0
 40
0.071520202616614
 40
0.1260836237049448
 40
0.3855387013103015
 40
0.8475626424815556
 40
1.0
 40
1.0
 40
1.0
 40
1.0
 10
97.89702691441707
 20
91.54768381881672
 30
0.0
 10
97.8825727796382
 20
91.5445751709519
 30
0.0
 10
97.85709145235214
 20
91.53909490700856
 30
0.0
 10
97.79061972470593
 20
91.4995063615882
 30
0.0
 10
97.68591533757296
 20
91.39307222860586
 30
0.0
 10
97.59908677872656
 20
91.26256521289766
 30
0.0
 10
97.56609021201673
 20
91.17505549893431
 30
0.0
 10
97.5579043271658
 20
91.15334583295176
 30
0.0
  0
ELLIPSE
  5
117
330
1F
100
AcDbEntity
  8
0
  6
Continuous
 62
     7
370
    25
100
AcDbEllipse
 10
65.9983186868
 20
92.2193758692
 30
0.0
 11
36.17607470647089
 21
0.04043410480178977
 31
0.0
210
0.0
220
0.0
230
1.0
 40
0.0414488012
 41
5.791928562280354
 42
6.243021298617556
  0
ELLIPSE
  5
118
330
1F
100
AcDbEntity
  8
0
  6
Continuous
 62
     7
370
    25
100
AcDbEllipse
 10
102.2274388726
 20
92.2193758692
 30
0.0
 11
0.03725061189165046
 21
1.499998630535856
 31
0.0
210
0.0
220
0.0
230
1.0
 40
0.0544129722
 41
1.585352277991069
 42
1.587896030767898
  0
LINE
  5
119
330
1F
100
AcDbEntity
  8
0
  6
Continuous
 62
     7
370
    25
100
AcDbLine
 10
97.4224555274
 20
90.7193758692
 30
0.0
 11
123.8549870413
 21
90.7193758692
 31
0.0
  0
SPLINE
  5
11A
330
1F
100
AcDbEntity
  8
0
  6
Continuous
 62
     7
370
    25
100
AcDbSpline
210
0.0
220
0.0
230
1.0
 70
     8
 71
     3
 72
    11
 73
     7
 74
     0
 42
0.00000001
 43
0.00000001
 40
0.0
 40
0.0
 40
0.0
 40
0.0
 40
0.2561894651307308
 40
0.5096044939206931
 40
0.7692742066553655
 40
1.0
 40
1.0
 40
1.0
 40
1.0
 10
139.1224555274177
 20
101.1193758691675
 30
0.0
 10
139.0468593951238
 20
101.207386234156
 30
0.0
 10
138.8964858084491
 20
101.3824538447106
 30
0.0
 10
138.5972730224938
 20
101.5726414144121
 30
0.0
 10
138.2697532876071
 20
101.6966402151378
 30
0.0
 10
138.0335749067933
 20
101.712101501017
 30
0.0
 10
137.9224555274177
 20
101.7193758691675
 30
0.0
  0
ARC
  5
11B
330
1F
100
AcDbEntity
  8
0
  6
Continuous
 62
     7
370
    25
100
AcDbCircle
 10
106.6211937494
 20
92.2243799171
 30
0.0
 40
8.750371682022898
100
AcDbArc
 50
182.878079786
 51
184.4353064954
  0
ELLIPSE
  5
11C
330
1F
100
AcDbEntity
  8
0
  6
Continuous
 62
     7
370
    25
100
AcDbEllipse
 10
65.9714483279
 20
92.2328110486
 30
0.0
 11
36.18915847374971
 21
0.02692057091445577
 31
0.0
210
0.0
220
0.0
230
1.0
 40
0.0276225703
 41
5.791964074121238
 42
6.254836299513471
  0
SPLINE
  5
11D
330
1F
100
AcDbEntity
  8
0
  6
Continuous
 62
     7
370
    25
100
AcDbSpline
210
0.0
220
0.0
230
1.0
 70
     8
 71
     3
 72
     9
 73
     5
 74
     0
 42
0.00000001
 43
0.00000001
 40
0.0
 40
0.0
 40
0.0
 40
0.0
 40
0.8673350121727613
 40
1.0
 40
1.0
 40
1.0
 40
1.0
 10
102.1460868510932
 20
92.23138586503009
 30
0.0
 10
102.1458494654634
 20
92.2221874416549
 30
0.0
 10
102.1455757700324
 20
92.21158205475582
 30
0.0
 10
102.1453198835239
 20
92.20097643015443
 30
0.0
 10
102.1452859363433
 20
92.19956943509578
 30
0.0
  0
LINE
  5
11E
330
1F
100
AcDbEntity
  8
0
  6
Continuous
 62
     7
370
    25
100
AcDbLine
 10
102.3953865924
 20
100.7121861038
 30
0.0
 11
102.3685162335
 21
100.7256212832
 31
0.0
  0
LINE
  5
11F
330
1F
100
AcDbEntity
  8
0
  6
Continuous
 62
     7
370
    25
100
AcDbLine
 10
102.3953865924
 20
100.7121861038
 30
0.0
 11
102.1734585862
 21
92.2370974731
 31
0.0
  0
LINE
  5
120
330
1F
100
AcDbEntity
  8
0
  6
Continuous
 62
     7
370
    25
100
AcDbLine
 10
102.3685162335
 20
100.7256212832
 30
0.0
 11
102.1460868511
 21
92.231385865
 31
0.0
  0
ARC
  5
121
330
1F
100
AcDbEntity
  8
0
  6
Continuous
 62
     7
370
    25
100
AcDbCircle
 10
103.0028710137
 20
100.2381851204
 30
0.0
 40
0.7999999999999995
100
AcDbArc
 50
142.4614409777
 51
153.4349488229
  0
LINE
  5
122
330
1F
100
AcDbEntity
  8
0
  6
Continuous
 62
     7
370
    25
100
AcDbLine
 10
97.8818594367
 20
91.7850163484
 30
0.0
 11
102.2873292609
 21
100.5959559968
 31
0.0
  0
SPLINE
  5
123
330
1F
100
AcDbEntity
  8
0
  6
Continuous
 62
     7
370
    25
100
AcDbSpline
210
0.0
220
0.0
230
1.0
 70
     8
 71
     3
 72
    12
 73
     8
 74
     0
 42
0.00000001
 43
0.00000001
 40
0.0
 40
0.0
 40
0.0
 40
0.0
 40
0.1396834586182491
 40
0.3831896274038308
 40
0.5513169293013305
 40
0.8194729461607058
 40
1.0
 40
1.0
 40
1.0
 40
1.0
 10
97.11989858651243
 20
91.732295976107
 30
0.0
 10
97.13013996725873
 20
91.74560834976795
 30
0.0
 10
97.15823485344704
 20
91.78212780277589
 30
0.0
 10
97.26538521480182
 20
91.8197998633673
 30
0.0
 10
97.44572230221479
 20
91.84416718412879
 30
0.0
 10
97.6541784467838
 20
91.84305014936483
 30
0.0
 10
97.81653534748772
 20
91.80166686098725
 30
0.0
 10
97.88185943673612
 20
91.78501634837185
 30
0.0
  0
LWPOLYLINE
  5
124
330
1F
100
AcDbEntity
  8
0
  6
Continuous
 62
     7
370
    25
100
AcDbPolyline
 90
        9
 70
   128
 43
0.0
 10
97.1198985865
 20
91.7322959761
 10
97.0970480967
 20
91.6559654985
 10
97.0999532227
 20
91.5715654992
 10
97.1284547877
 20
91.4837203987
 10
97.1809911422
 20
91.3972433804
 10
97.2546837294
 20
91.316872668
 10
97.3454948063
 20
91.2470119107
 10
97.4484486785
 20
91.1914888987
 10
97.5579043272
 20
91.153345833
  0
SPLINE
  5
125
330
1F
100
AcDbEntity
  8
0
  6
Continuous
 62
     7
370
    25
100
AcDbSpline
210
0.0
220
0.0
230
1.0
 70
    24
 71
     3
 72
    11
 73
     7
 74
     0
 42
0.00000001
 43
0.00000001
 40
0.0
 40
0.0
 40
0.0
 40
0.0
 40
0.2499999999999989
 40
0.4999999999999977
 40
0.7499999999999992
 40
1.0
 40
1.0
 40
1.0
 40
1.0
 10
102.2873292609407
 20
100.595955996781
 30
0.0
 10
102.2090941526084
 20
100.6350735509471
 30
0.0
 10
102.0526239359439
 20
100.7133086592794
 30
0.0
 10
101.8592977845274
 20
100.8099717349876
 30
0.0
 10
101.7249213522484
 20
100.8771599511271
 30
0.0
 10
101.7075396038612
 20
100.8858508253207
 30
0.0
 10
101.6988487296677
 20
100.8901962624175
 30
0.0
  0
LINE
  5
126
330
1F
100
AcDbEntity
  8
0
  6
Continuous
 62
     7
370
    25
100
AcDbLine
 10
101.6988487297
 20
100.8901962624
 30
0.0
 11
97.1198985865
 21
91.7322959761
 31
0.0
  0
LINE
  5
127
330
1F
100
AcDbEntity
  8
0
  6
Continuous
 62
     7
370
    25
100
AcDbLine
 10
102.2760643725
 20
100.8640883631
 30
0.0
 11
101.8938518007
 21
101.18644461
 31
0.0
  0
SPLINE
  5
128
330
1F
100
AcDbEntity
  8
0
  6
Continuous
 62
     7
370
    25
100
AcDbSpline
210
0.0
220
0.0
230
1.0
 70
     8
 71
     3
 72
    12
 73
     8
 74
     0
 42
0.00000001
 43
0.00000001
 40
0.0
 40
0.0
 40
0.0
 40
0.0
 40
0.2198609600791261
 40
0.4397396970008124
 40
0.658329145139775
 40
0.8791239516843592
 40
1.0
 40
1.0
 40
1.0
 40
1.0
 10
102.4106318165766
 20
100.753469728098
 30
0.0
 10
102.3507167538477
 20
100.8039579442259
 30
0.0
 10
102.2308817839617
 20
100.9049384587029
 30
0.0
 10
102.0741467956872
 20
101.0366014516529
 30
0.0
 10
101.9575784719011
 20
101.134162774426
 30
0.0
 10
101.9013217801068
 20
101.1808221659027
 30
0.0
 10
101.8958039088905
 20
101.184975312904
 30
0.0
 10
101.893851800719
 20
101.1864446100081
 30
0.0
  0
SPLINE
  5
129
330
1F
100
AcDbEntity
  8
0
  6
Continuous
 62
     7
370
    25
100
AcDbSpline
210
0.0
220
0.0
230
1.0
 70
     8
 71
     3
 72
    12
 73
     8
 74
     0
 42
0.00000001
 43
0.00000001
 40
0.0
 40
0.0
 40
0.0
 40
0.0
 40
0.0006864401057837
 40
0.2840613788817051
 40
0.570317790216369
 40
0.8469872112136481
 40
1.0
 40
1.0
 40
1.0
 40
1.0
 10
102.3733600518871
 20
100.7827934155957
 30
0.0
 10
102.37331933413
 20
100.7828277102326
 30
0.0
 10
102.3564695869675
 20
100.7970194536432
 30
0.0
 10
102.327240650856
 20
100.8215517334924
 30
0.0
 10
102.2939946051566
 20
100.849381318239
 30
0.0
 10
102.2783123820469
 20
100.8623821812119
 30
0.0
 10
102.2767321542409
 20
100.8635749940979
 30
0.0
 10
102.2761694242558
 20
100.8639997629667
 30
0.0
  0
SPLINE
  5
12A
330
1F
100
AcDbEntity
  8
0
  6
Continuous
 62
     7
370
    25
100
AcDbSpline
210
0.0
220
0.0
230
1.0
 70
     8
 71
     3
 72
    12
 73
     8
 74
     0
 42
0.00000001
 43
0.00000001
 40
0.0
 40
0.0
 40
0.0
 40
0.0
 40
0.2225634137435262
 40
0.4462063173695686
 40
0.6680851268158022
 40
0.8917990985569295
 40
1.0
 40
1.0
 40
1.0
 40
1.0
 10
101.8510743032991
 20
101.1333186744881
 30
0.0
 10
101.8566608694017
 20
101.1278916018744
 30
0.0
 10
101.8678610978912
 20
101.117011133947
 30
0.0
 10
101.9619118755783
 20
101.0417177029267
 30
0.0
 10
102.1014029389763
 20
100.9322391581734
 30
0.0
 10
102.2466270388126
 20
100.8195245176269
 30
0.0
 10
102.3385502075427
 20
100.7487070601826
 30
0.0
 10
102.3685162335441
 20
100.7256212832186
 30
0.0
  0
LINE
  5
12B
330
1F
100
AcDbEntity
  8
0
  6
Continuous
 62
     7
370
    25
100
AcDbLine
 10
102.2475460409
 20
100.8286710727
 30
0.0
 11
101.8510743033
 21
101.1333186745
 31
0.0
  0
ARC
  5
12C
330
1F
100
AcDbEntity
  8
0
  6
Continuous
 62
     7
370
    25
100
AcDbCircle
 10
103.0404895162
 20
100.2193758692
 30
0.0
 40
1.5
100
AcDbArc
 50
90.0
 51
139.8558773282
  0
ARC
  5
12D
330
1F
100
AcDbEntity
  8
0
  6
Continuous
 62
     7
370
    25
100
AcDbCircle
 10
103.0404895162
 20
100.2193758692
 30
0.0
 40
1.500000000000013
100
AcDbArc
 50
142.4614409777
 51
153.4349488229
  0
LINE
  5
12E
330
1F
100
AcDbEntity
  8
0
  6
Continuous
 62
     7
370
    25
100
AcDbLine
 10
96.9752419319
 20
91.4429826669
 30
0.0
 11
97.1198985865
 21
91.7322959761
 31
0.0
  0
ARC
  5
12F
330
1F
100
AcDbEntity
  8
0
  6
Continuous
 62
     7
370
    25
100
AcDbCircle
 10
97.4224555274
 20
91.2193758692
 30
0.0
 40
0.5000000000000023
100
AcDbArc
 50
153.4349488229
 51
270.0
  0
SPLINE
  5
130
330
1F
100
AcDbEntity
  8
0
  6
Continuous
 62
     7
370
    25
100
AcDbSpline
210
0.0
220
0.0
230
1.0
 70
     8
 71
     3
 72
     9
 73
     5
 74
     0
 42
0.00000001
 43
0.00000001
 40
0.0
 40
0.0
 40
0.0
 40
0.0
 40
0.5600029565045049
 40
1.0
 40
1.0
 40
1.0
 40
1.0
 10
101.893851800719
 20
101.1864446100081
 30
0.0
 10
101.8857040413659
 20
101.1766581478482
 30
0.0
 10
101.8711545479061
 20
101.1591824148252
 30
0.0
 10
101.8572099049656
 20
101.1412214471594
 30
0.0
 10
101.8510743032991
 20
101.1333186744881
 30
0.0
  0
LINE
  5
131
330
1F
100
AcDbEntity
  8
0
  6
Continuous
 62
     7
370
    25
100
AcDbLine
 10
144.0163946724
 20
91.1074514549
 30
0.0
 11
144.0185347876
 21
91.3309899085
 31
0.0
  0
SPLINE
  5
132
330
1F
100
AcDbEntity
  8
0
  6
Continuous
 62
     7
370
    25
100
AcDbSpline
210
0.0
220
0.0
230
1.0
 70
     8
 71
     3
 72
    10
 73
     6
 74
     0
 42
0.00000001
 43
0.00000001
 40
0.0
 40
0.0
 40
0.0
 40
0.0
 40
0.3536466237081644
 40
0.7182931081305525
 40
1.0
 40
1.0
 40
1.0
 40
1.0
 10
144.1676826362068
 20
89.16118280845329
 30
0.0
 10
144.1301756018976
 20
88.71764515833473
 30
0.0
 10
144.0539949106521
 20
87.81677401771418
 30
0.0
 10
144.0924313132652
 20
86.4387647229029
 30
0.0
 10
144.1554134325982
 20
85.52073069159805
 30
0.0
 10
144.1828635825184
 20
85.12061440370461
 30
0.0
  0
LINE
  5
133
330
1F
100
AcDbEntity
  8
0
  6
Continuous
 62
     7
370
    25
100
AcDbLine
 10
144.0163946724
 20
91.1074514549
 30
0.0
 11
144.1676826362
 21
89.1611828085
 31
0.0
  0
LINE
  5
134
330
1F
100
AcDbEntity
  8
0
  6
Continuous
 62
     7
370
    25
100
AcDbLine
 10
144.2424555274
 20
83.0193758692
 30
0.0
 11
144.3038103202
 21
83.0193758692
 31
0.0
  0
LWPOLYLINE
  5
135
330
1F
100
AcDbEntity
  8
0
  6
Continuous
 62
     7
370
    25
100
AcDbPolyline
 90
        3
 70
   128
 43
0.0
 10
144.4398228628
 20
81.6696240097
 10
144.3985240905
 20
82.0794251542
 10
144.3038103202
 20
83.0193758692
  0
SPLINE
  5
136
330
1F
100
AcDbEntity
  8
0
  6
Continuous
 62
     7
370
    25
100
AcDbSpline
210
0.0
220
0.0
230
1.0
 70
     8
 71
     3
 72
    11
 73
     7
 74
     0
 42
0.00000001
 43
0.00000001
 40
0.0
 40
0.0
 40
0.0
 40
0.0
 40
0.2920574028183093
 40
0.5665622171831317
 40
0.8065682389915578
 40
1.0
 40
1.0
 40
1.0
 40
1.0
 10
144.3062499203643
 20
97.21937586916756
 30
0.0
 10
144.3379104566798
 20
97.20254407311886
 30
0.0
 10
144.3993287377404
 20
97.16989206842219
 30
0.0
 10
144.479241097005
 20
96.91450018138117
 30
0.0
 10
144.5183399107325
 20
96.57877726480656
 30
0.0
 10
144.5029235478029
 20
96.33027556998549
 30
0.0
 10
144.4960436348187
 20
96.21937586915544
 30
0.0
  0
LINE
  5
137
330
1F
100
AcDbEntity
  8
0
  6
Continuous
 62
     7
370
    25
100
AcDbLine
 10
144.4960436348
 20
96.2193758692
 30
0.0
 11
144.0185347876
 21
91.3309899085
 31
0.0
  0
LINE
  5
138
330
1F
100
AcDbEntity
  8
0
  6
Continuous
 62
     7
370
    25
100
AcDbLine
 10
144.8638466367
 20
99.2193758692
 30
0.0
 11
159.9810644181
 21
99.2193758692
 31
0.0
  0
LINE
  5
139
330
1F
100
AcDbEntity
  8
0
  6
Continuous
 62
     7
370
    25
100
AcDbLine
 10
159.9699617464
 20
81.2193758692
 30
0.0
 11
144.9414896723
 21
81.2193758692
 31
0.0
  0
SPLINE
  5
13A
330
1F
100
AcDbEntity
  8
0
  6
Continuous
 62
     7
370
    25
100
AcDbSpline
210
0.0
220
0.0
230
1.0
 70
     8
 71
     3
 72
    12
 73
     8
 74
     0
 42
0.00000001
 43
0.00000001
 40
0.0
 40
0.0
 40
0.0
 40
0.0
 40
0.2316347876629373
 40
0.4633066480819597
 40
0.6939442291381478
 40
0.9227406525226348
 40
0.9999999999999999
 40
0.9999999999999999
 40
0.9999999999999999
 40
0.9999999999999999
 10
144.9414896723293
 20
81.21937586916754
 30
0.0
 10
144.8844363546805
 20
81.22496533419782
 30
0.0
 10
144.770320588096
 20
81.23614515884279
 30
0.0
 10
144.618467257618
 20
81.32346822479845
 30
0.0
 10
144.5042998747341
 20
81.4517783985805
 30
0.0
 10
144.4525455423668
 20
81.57645782527831
 30
0.0
 10
144.4423871913797
 20
81.65084583403161
 30
0.0
 10
144.4398228627723
 20
81.66962400965704
 30
0.0
  0
SPLINE
  5
13B
330
1F
100
AcDbEntity
  8
0
  6
Continuous
 62
     7
370
    25
100
AcDbSpline
210
0.0
220
0.0
230
1.0
 70
     8
 71
     3
 72
     9
 73
     5
 74
     0
 42
0.00000001
 43
0.00000001
 40
0.0
 40
0.0
 40
0.0
 40
0.0
 40
0.7210175706402078
 40
0.9999999999999999
 40
0.9999999999999999
 40
0.9999999999999999
 40
0.9999999999999999
 10
142.7663839831151
 20
90.91717600540241
 30
0.0
 10
142.6974507641189
 20
90.98042681831173
 30
0.0
 10
142.6018453006694
 20
91.06815118937406
 30
0.0
 10
142.4615855370216
 20
91.11296037571799
 30
0.0
 10
142.4224555274176
 20
91.12546135138187
 30
0.0
  0
ARC
  5
13C
330
1F
100
AcDbEntity
  8
0
  6
Continuous
 62
     7
370
    25
100
AcDbCircle
 10
135.7002291885
 20
83.8411985875
 30
0.0
 40
9.999999999999993
100
AcDbArc
 50
32.1405798582
 51
45.0397956095
  0
LINE
  5
13D
330
1F
100
AcDbEntity
  8
0
  6
Continuous
 62
     7
370
    25
100
AcDbLine
 10
142.4224555274
 20
86.7400846568
 30
0.0
 11
144.1828635825
 21
85.1206144037
 31
0.0
  0
LINE
  5
13E
330
1F
100
AcDbEntity
  8
0
  6
Continuous
 62
     7
370
    25
100
AcDbLine
 10
142.7663839831
 20
96.2193758692
 30
0.0
 11
142.7663839831
 21
90.9171760054
 31
0.0
  0
LINE
  5
13F
330
1F
100
AcDbEntity
  8
0
  6
Continuous
 62
     7
370
    25
100
AcDbLine
 10
144.4960436348
 20
96.2193758692
 30
0.0
 11
142.7663839831
 21
96.2193758692
 31
0.0
  0
LINE
  5
140
330
1F
100
AcDbEntity
  8
0
  6
Continuous
 62
     7
370
    25
100
AcDbLine
 10
142.4224555274
 20
97.2193758692
 30
0.0
 11
144.3062499204
 21
97.2193758692
 31
0.0
  0
ARC
  5
141
330
1F
100
AcDbEntity
  8
0
  6
Continuous
 62
     7
370
    25
100
AcDbCircle
 10
104.8099148529
 20
103.9287210902
 30
0.0
 40
4.021945305413991
100
AcDbArc
 50
230.4243196696
 51
233.1058614851
  0
LINE
  5
142
330
1F
100
AcDbEntity
  8
0
  6
Continuous
 62
     7
370
    25
100
AcDbLine
 10
144.1724555274
 20
74.7693758692
 30
0.0
 11
160.6724555274
 21
74.7693758692
 31
0.0
  0
LINE
  5
143
330
1F
100
AcDbEntity
  8
0
  6
Continuous
 62
     7
370
    25
100
AcDbLine
 10
152.3595726626
 20
99.3073182046
 30
0.0
 11
152.3595726626
 21
99.3192687665
 31
0.0
  0
LINE
  5
144
330
1F
100
AcDbEntity
  8
0
  6
Continuous
 62
     7
370
    25
100
AcDbLine
 10
152.4853383922
 20
99.3073182046
 30
0.0
 11
152.4853383922
 21
99.3192687665
 31
0.0
  0
LINE
  5
145
330
1F
100
AcDbEntity
  8
0
  6
Continuous
 62
     7
370
    25
100
AcDbLine
 10
144.0185347876
 20
91.3309899085
 30
0.0
 11
161.4085037725
 21
91.3309899086
 31
0.0
  0
LINE
  5
146
330
1F
100
AcDbEntity
  8
0
  6
Continuous
 62
     7
370
    25
100
AcDbLine
 10
161.411263086
 20
91.1074514549
 30
0.0
 11
144.0163946724
 21
91.1074514549
 31
0.0
  0
LINE
  5
147
330
1F
100
AcDbEntity
  8
0
  6
Continuous
 62
     7
370
    25
100
AcDbLine
 10
144.4398228628
 20
81.6696240097
 30
0.0
 11
160.4674803415
 21
81.6696240097
 31
0.0
  0
LINE
  5
148
330
1F
100
AcDbEntity
  8
0
  6
Continuous
 62
     7
370
    25
100
AcDbLine
 10
160.4772033565
 20
98.7813932365
 30
0.0
 11
144.3677076983
 21
98.7813932365
 31
0.0
  0
LINE
  5
149
330
1F
100
AcDbEntity
  8
0
  6
Continuous
 62
     7
370
    25
100
AcDbLine
 10
142.4224555274
 20
96.2193758692
 30
0.0
 11
142.7663839831
 21
96.2193758692
 31
0.0
  0
ARC
  5
14A
330
1F
100
AcDbEntity
  8
0
  6
Continuous
 62
     7
370
    25
100
AcDbCircle
 10
141.6605102642
 20
96.2740404522
 30
0.0
 40
1.107223960533227
100
AcDbArc
 50
357.1701084939
 51
46.5155082001
  0
LINE
  5
14B
330
1F
100
AcDbEntity
  8
0
  6
Continuous
 62
     7
370
    25
100
AcDbLine
 10
102.1734585862
 20
92.2370974731
 30
0.0
 11
102.3953860226
 21
100.7121643444
 31
0.0
  0
LINE
  5
14C
330
1F
100
AcDbEntity
  8
0
  6
Continuous
 62
     7
370
    18
100
AcDbLine
 10
165.4224555274
 20
52.2507508692
 30
0.0
 11
178.8869314087
 21
52.6715157405
 31
0.0
  0
LINE
  5
14D
330
1F
100
AcDbEntity
  8
0
  6
Continuous
 62
     7
370
    18
100
AcDbLine
 10
178.8869314087
 20
71.3672359979
 30
0.0
 11
165.4224555274
 21
71.7880008692
 31
0.0
  0
LINE
  5
14E
330
1F
100
AcDbEntity
  8
0
  6
Continuous
 62
     7
370
    18
100
AcDbLine
 10
133.9224555274
 20
71.3348758692
 30
0.0
 11
132.2884809312
 21
71.3348758692
 31
0.0
  0
LINE
  5
14F
330
1F
100
AcDbEntity
  8
0
  6
Continuous
 62
     7
370
    18
100
AcDbLine
 10
132.2884809312
 20
52.7038758692
 30
0.0
 11
133.9224555274
 21
52.7038758692
 31
0.0
  0
LINE
  5
150
330
1F
100
AcDbEntity
  8
0
  6
Continuous
 62
     7
370
    25
100
AcDbLine
 10
133.9224555274
 20
71.4968758692
 30
0.0
 11
133.9224555274
 21
71.4645054016
 31
0.0
  0
SPLINE
  5
151
330
1F
100
AcDbEntity
  8
0
  6
Continuous
 62
     7
370
     0
100
AcDbSpline
210
0.0
220
0.0
230
1.0
 70
     8
 71
     3
 72
    35
 73
    31
 74
     0
 42
0.00000001
 43
0.00000001
 40
0.0
 40
0.0
 40
0.0
 40
0.0
 40
0.036035820466716
 40
0.0720716407070574
 40
0.1081074609473987
 40
0.1441432811877399
 40
0.1801791014280814
 40
0.2162149216684226
 40
0.2522507419087642
 40
0.2882865621491055
 40
0.3243223823894466
 40
0.3603582026297882
 40
0.3963940228701293
 40
0.4324298431104705
 40
0.4684656633508119
 40
0.5045014835911534
 40
0.5405373038314949
 40
0.5765731240718361
 40
0.6126089443121776
 40
0.6486447645525187
 40
0.6846805847928602
 40
0.7207164050332016
 40
0.7567522252735429
 40
0.7927880455138843
 40
0.8288238657542256
 40
0.8648596859945671
 40
0.9008955062349083
 40
0.9369313264752497
 40
0.972967146715591
 40
1.0
 40
1.0
 40
1.0
 40
1.0
 10
133.9223384857178
 20
71.46450540163823
 30
0.0
 10
133.9224555274177
 20
71.32108239646732
 30
0.0
 10
133.9224555274177
 20
71.06474927448055
 30
0.0
 10
133.9224555274177
 20
70.69861757254081
 30
0.0
 10
133.9224555274177
 20
70.22713163353453
 30
0.0
 10
133.9224555274177
 20
69.65601465806942
 30
0.0
 10
133.9224555274177
 20
68.9921992325721
 30
0.0
 10
133.9224555274177
 20
68.24374317707989
 30
0.0
 10
133.9224555274177
 20
67.41973173422103
 30
0.0
 10
133.9224555274177
 20
66.53016728667635
 30
0.0
 10
133.9224555274177
 20
65.58584794180308
 30
0.0
 10
133.9224555274177
 20
64.59823645723914
 30
0.0
 10
133.9224555274177
 20
63.57932109855313
 30
0.0
 10
133.9224555274177
 20
62.54147011794019
 30
0.0
 10
133.9224555274177
 20
61.49728162039475
 30
0.0
 10
133.9224555274177
 20
60.45943063978181
 30
0.0
 10
133.9224555274177
 20
59.4405152810958
 30
0.0
 10
133.9224555274177
 20
58.45290379653185
 30
0.0
 10
133.9224555274177
 20
57.5085844516586
 30
0.0
 10
133.9224555274177
 20
56.61902000411391
 30
0.0
 10
133.9224555274177
 20
55.79500856125507
 30
0.0
 10
133.9224555274177
 20
55.04655250576287
 30
0.0
 10
133.9224555274177
 20
54.38273708026556
 30
0.0
 10
133.9224555274177
 20
53.81162010480046
 30
0.0
 10
133.9224555274177
 20
53.34013416579418
 30
0.0
 10
133.9224555274177
 20
52.97400246385447
 30
0.0
 10
133.9224555274177
 20
52.71766934186772
 30
0.0
 10
133.9224555274177
 20
52.5742463366968
 30
0.0
 10
133.9224555274177
 20
52.54187586916754
 30
0.0
 10
133.9224555274177
 20
52.54823902286741
 30
0.0
 10
133.9224555274177
 20
52.54187586916754
 30
0.0
  0
LINE
  5
152
330
1F
100
AcDbEntity
  8
0
  6
CENTERX2
 62
     7
370
    18
100
AcDbLine
 10
83.2884809312
 20
62.0193758692
 30
0.0
 11
181.6043994375
 21
62.0193758692
 31
0.0
  0
LINE
  5
153
330
1F
100
AcDbEntity
  8
0
  6
CENTERX2
 62
     7
370
    18
100
AcDbLine
 10
152.4224555274
 20
47.7711658227
 30
0.0
 11
152.4224555274
 21
102.0458643118
 31
0.0
  0
ARC
  5
154
330
1F
100
AcDbEntity
  8
0
  6
Continuous
 62
     7
370
    25
100
AcDbCircle
 10
224.2011736763
 20
74.7693758692
 30
0.0
 40
0.25
100
AcDbArc
 50
180.0
 51
270.0
  0
ARC
  5
155
330
1F
100
AcDbEntity
  8
0
  6
Continuous
 62
     7
370
    25
100
AcDbCircle
 10
207.2011736763
 20
74.7693758692
 30
0.0
 40
0.2500000000000284
100
AcDbArc
 50
270.0
 51
0.0
  0
LINE
  5
156
330
1F
100
AcDbEntity
  8
0
  6
Continuous
 62
     7
370
    25
100
AcDbLine
 10
223.9511736763
 20
74.7693758692
 30
0.0
 11
223.9511736763
 21
80.2193758692
 31
0.0
  0
LINE
  5
157
330
1F
100
AcDbEntity
  8
0
  6
Continuous
 62
     7
370
    25
100
AcDbLine
 10
207.4511736763
 20
80.2193758692
 30
0.0
 11
207.4511736763
 21
74.7693758692
 31
0.0
  0
LINE
  5
158
330
1F
100
AcDbEntity
  8
0
  6
Continuous
 62
     7
370
    25
100
AcDbLine
 10
223.9511736763
 20
80.2193758692
 30
0.0
 11
223.4511736763
 21
80.7193758692
 31
0.0
  0
LINE
  5
159
330
1F
100
AcDbEntity
  8
0
  6
Continuous
 62
     7
370
    25
100
AcDbLine
 10
207.9511736763
 20
80.7193758692
 30
0.0
 11
207.4511736763
 21
80.2193758692
 31
0.0
  0
LINE
  5
15A
330
1F
100
AcDbEntity
  8
0
  6
Continuous
 62
     7
370
    25
100
AcDbLine
 10
210.7011736763
 20
83.0193758692
 30
0.0
 11
210.7011736763
 21
80.7193758692
 31
0.0
  0
LINE
  5
15B
330
1F
100
AcDbEntity
  8
0
  6
Continuous
 62
     7
370
    25
100
AcDbLine
 10
220.7011736763
 20
80.7193758692
 30
0.0
 11
220.7011736763
 21
81.2193758692
 31
0.0
  0
SPLINE
  5
15C
330
1F
100
AcDbEntity
  8
0
  6
Continuous
 62
     7
370
    25
100
AcDbSpline
210
0.0
220
0.0
230
1.0
 70
     8
 71
     3
 72
     9
 73
     5
 74
     0
 42
0.00000001
 43
0.00000001
 40
0.0
 40
0.0
 40
0.0
 40
0.0
 40
0.4993165458323764
 40
0.9999999999999999
 40
0.9999999999999999
 40
0.9999999999999999
 40
0.9999999999999999
 10
216.7104664712089
 20
101.7069432979192
 30
0.0
 10
216.6873358535617
 20
101.7102943335669
 30
0.0
 10
216.6410112968446
 20
101.7170055785188
 30
0.0
 10
216.5944519037163
 20
101.7126784092131
 30
0.0
 10
216.5711403859409
 20
101.7105118671384
 30
0.0
  0
SPLINE
  5
15D
330
1F
100
AcDbEntity
  8
0
  6
Continuous
 62
     7
370
    25
100
AcDbSpline
210
0.0
220
0.0
230
1.0
 70
     8
 71
     3
 72
     9
 73
     5
 74
     0
 42
0.00000001
 43
0.00000001
 40
0.0
 40
0.0
 40
0.0
 40
0.0
 40
0.5006834545219041
 40
1.0
 40
1.0
 40
1.0
 40
1.0
 10
214.8312069140608
 20
101.710511867066
 30
0.0
 10
214.8078953994098
 20
101.7126784077313
 30
0.0
 10
214.7613360125547
 20
101.7170055742189
 30
0.0
 10
214.7150114622982
 20
101.7102943278642
 30
0.0
 10
214.6918808478932
 20
101.7069432915185
 30
0.0
  0
LINE
  5
15E
330
1F
100
AcDbEntity
  8
0
  6
Continuous
 62
     7
370
    25
100
AcDbLine
 10
213.225319158
 20
101.0514262587
 30
0.0
 11
213.0945418034
 21
98.1981647685
 31
0.0
  0
LINE
  5
15F
330
1F
100
AcDbEntity
  8
0
  6
Continuous
 62
     7
370
    25
100
AcDbLine
 10
218.3078055492
 20
98.1981647685
 30
0.0
 11
218.1770281946
 21
101.0514262587
 31
0.0
  0
LINE
  5
160
330
1F
100
AcDbEntity
  8
0
  6
Continuous
 62
     7
370
    25
100
AcDbLine
 10
213.7481996961
 20
101.6965271497
 30
0.0
 11
213.6997687531
 21
101.6753226356
 31
0.0
  0
SPLINE
  5
161
330
1F
100
AcDbEntity
  8
0
  6
Continuous
 62
     7
370
    25
100
AcDbSpline
210
0.0
220
0.0
230
1.0
 70
     8
 71
     3
 72
     9
 73
     5
 74
     0
 42
0.00000001
 43
0.00000001
 40
0.0
 40
0.0
 40
0.0
 40
0.0
 40
0.0503631419175969
 40
0.9999999999999999
 40
0.9999999999999999
 40
0.9999999999999999
 40
0.9999999999999999
 10
213.2816814820784
 20
101.2899344271083
 30
0.0
 10
213.2797854014843
 20
101.2867643697443
 30
0.0
 10
213.242137222242
 20
101.2238203745266
 30
0.0
 10
213.2355967792267
 20
101.1486727758328
 30
0.0
 10
213.2293857334712
 20
101.0773098463167
 30
0.0
  0
SPLINE
  5
162
330
1F
100
AcDbEntity
  8
0
  6
Continuous
 62
     7
370
    25
100
AcDbSpline
210
0.0
220
0.0
230
1.0
 70
     8
 71
     3
 72
    11
 73
     7
 74
     0
 42
0.00000001
 43
0.00000001
 40
0.0
 40
0.0
 40
0.0
 40
0.0
 40
0.2436788845968561
 40
0.4915884466681913
 40
0.7437897073051966
 40
1.0
 40
1.0
 40
1.0
 40
1.0
 10
218.172961619148
 20
101.0773098463167
 30
0.0
 10
218.1616576623195
 20
101.1464291982135
 30
0.0
 10
218.1388534928581
 20
101.2858679308304
 30
0.0
 10
218.0256886939536
 20
101.4705218233703
 30
0.0
 10
217.8634051011433
 20
101.6211503291795
 30
0.0
 10
217.7242658612249
 20
101.6712698053423
 30
0.0
 10
217.6541476564924
 20
101.6965271496596
 30
0.0
  0
SPLINE
  5
163
330
1F
100
AcDbEntity
  8
0
  6
Continuous
 62
     7
370
    25
100
AcDbSpline
210
0.0
220
0.0
230
1.0
 70
     8
 71
     3
 72
     9
 73
     5
 74
     0
 42
0.00000001
 43
0.00000001
 40
0.0
 40
0.0
 40
0.0
 40
0.0
 40
0.5165223758948505
 40
1.0
 40
1.0
 40
1.0
 40
1.0
 10
218.5172378805855
 20
97.81151526822781
 30
0.0
 10
218.4643770236978
 20
97.85933668976145
 30
0.0
 10
218.3620371070658
 20
97.95192013583348
 30
0.0
 10
218.3110870414725
 20
98.08135364989005
 30
0.0
 10
218.2864538248114
 20
98.14393185774571
 30
0.0
  0
SPLINE
  5
164
330
1F
100
AcDbEntity
  8
0
  6
Continuous
 62
     7
370
    25
100
AcDbSpline
210
0.0
220
0.0
230
1.0
 70
     8
 71
     3
 72
     9
 73
     5
 74
     0
 42
0.00000001
 43
0.00000001
 40
0.0
 40
0.0
 40
0.0
 40
0.0
 40
0.4834776241051501
 40
1.0
 40
1.0
 40
1.0
 40
1.0
 10
213.1158935278078
 20
98.1439318577457
 30
0.0
 10
213.0912603111468
 20
98.08135364989005
 30
0.0
 10
213.0403102455534
 20
97.95192013583346
 30
0.0
 10
212.9379703289214
 20
97.85933668976145
 30
0.0
 10
212.8851094720337
 20
97.8115152682278
 30
0.0
  0
ARC
  5
165
330
1F
100
AcDbEntity
  8
0
  6
Continuous
 62
     7
370
    25
100
AcDbCircle
 10
211.9744352521
 20
96.2193758692
 30
0.0
 40
1.5
100
AcDbArc
 50
90.0
 51
180.0
  0
LINE
  5
166
330
1F
100
AcDbEntity
  8
0
  6
Continuous
 62
     7
370
    25
100
AcDbLine
 10
210.4744352521
 20
96.2193758692
 30
0.0
 11
210.4744352521
 21
90.966421237
 31
0.0
  0
ARC
  5
167
330
1F
100
AcDbEntity
  8
0
  6
Continuous
 62
     7
370
    25
100
AcDbCircle
 10
219.4279121005
 20
96.2193758692
 30
0.0
 40
1.5
100
AcDbArc
 50
0.0
 51
90.0
  0
LINE
  5
168
330
1F
100
AcDbEntity
  8
0
  6
Continuous
 62
     7
370
    25
100
AcDbLine
 10
220.9279121005
 20
90.966421237
 30
0.0
 11
220.9279121005
 21
96.2193758692
 31
0.0
  0
LINE
  5
169
330
1F
100
AcDbEntity
  8
0
  6
Continuous
 62
     7
370
    25
100
AcDbLine
 10
206.7123661177
 20
91.1074514549
 30
0.0
 11
207.5211736763
 21
83.0193758692
 31
0.0
  0
LINE
  5
16A
330
1F
100
AcDbEntity
  8
0
  6
Continuous
 62
     7
370
    25
100
AcDbLine
 10
223.7461984904
 20
81.6696240097
 30
0.0
 11
224.6899812349
 21
91.1074514549
 31
0.0
  0
ARC
  5
16B
330
1F
100
AcDbEntity
  8
0
  6
Continuous
 62
     7
370
    25
100
AcDbCircle
 10
223.6949440447
 20
91.2069551739
 30
0.0
 40
0.9999999999999971
100
AcDbArc
 50
354.2894068625
 51
7.1250163489
  0
ARC
  5
16C
330
1F
100
AcDbEntity
  8
0
  6
Continuous
 62
     7
370
    25
100
AcDbCircle
 10
207.7074033079
 20
91.2069551739
 30
0.0
 40
1.000000000000003
100
AcDbArc
 50
172.8749836511
 51
185.7105931375
  0
LINE
  5
16D
330
1F
100
AcDbEntity
  8
0
  6
Continuous
 62
     7
370
    25
100
AcDbLine
 10
224.6872219214
 20
91.3309899085
 30
0.0
 11
223.7559215054
 21
98.7813932365
 31
0.0
  0
LINE
  5
16E
330
1F
100
AcDbEntity
  8
0
  6
Continuous
 62
     7
370
    25
100
AcDbLine
 10
207.6464258472
 20
98.7813932365
 30
0.0
 11
206.7151254312
 21
91.3309899085
 31
0.0
  0
ARC
  5
16F
330
1F
100
AcDbEntity
  8
0
  6
Continuous
 62
     7
370
    25
100
AcDbCircle
 10
208.1425647856
 20
98.7193758692
 30
0.0
 40
0.5
100
AcDbArc
 50
90.0
 51
172.8749836511
  0
ARC
  5
170
330
1F
100
AcDbEntity
  8
0
  6
Continuous
 62
     7
370
    25
100
AcDbCircle
 10
223.259782567
 20
98.7193758692
 30
0.0
 40
0.5
100
AcDbArc
 50
7.1250163489
 51
90.0
  0
ARC
  5
171
330
1F
100
AcDbEntity
  8
0
  6
Continuous
 62
     7
370
    25
100
AcDbCircle
 10
223.2486798953
 20
81.7193758692
 30
0.0
 40
0.5000000000000254
100
AcDbArc
 50
270.0
 51
354.2894068625
  0
ARC
  5
172
330
1F
100
AcDbEntity
  8
0
  6
Continuous
 62
     7
370
    25
100
AcDbCircle
 10
214.9011736763
 20
82.5193758692
 30
0.0
 40
0.2000000000000028
100
AcDbArc
 50
90.0
 51
180.0
  0
ARC
  5
173
330
1F
100
AcDbEntity
  8
0
  6
Continuous
 62
     7
370
    25
100
AcDbCircle
 10
216.5011736763
 20
82.5193758692
 30
0.0
 40
0.2000000000000028
100
AcDbArc
 50
0.0
 51
90.0
  0
LINE
  5
174
330
1F
100
AcDbEntity
  8
0
  6
Continuous
 62
     7
370
    25
100
AcDbLine
 10
216.7011736763
 20
80.7193758692
 30
0.0
 11
216.7011736763
 21
81.1905847156
 31
0.0
  0
LINE
  5
175
330
1F
100
AcDbEntity
  8
0
  6
Continuous
 62
     7
370
    25
100
AcDbLine
 10
214.7011736763
 20
82.5193758692
 30
0.0
 11
214.7011736763
 21
80.7193758692
 31
0.0
  0
CIRCLE
  5
176
330
1F
100
AcDbEntity
  8
0
  6
Continuous
 62
     7
370
    25
100
AcDbCircle
 10
215.7011736763
 20
62.0193758692
 30
0.0
 40
5.369999999999989
  0
CIRCLE
  5
177
330
1F
100
AcDbEntity
  8
0
  6
Continuous
 62
     7
370
    25
100
AcDbCircle
 10
215.7011736763
 20
62.0193758692
 30
0.0
 40
6.114545454545468
  0
CIRCLE
  5
178
330
1F
100
AcDbEntity
  8
0
  6
Continuous
 62
     7
370
    25
100
AcDbCircle
 10
215.7011736763
 20
62.0193758692
 30
0.0
 40
5.200000000000008
  0
CIRCLE
  5
179
330
1F
100
AcDbEntity
  8
0
  6
Continuous
 62
     7
370
    25
100
AcDbCircle
 10
215.7011736763
 20
62.0193758692
 30
0.0
 40
5.000000000000007
  0
CIRCLE
  5
17A
330
1F
100
AcDbEntity
  8
0
  6
Continuous
 62
     7
370
    25
100
AcDbCircle
 10
215.7011736763
 20
62.0193758692
 30
0.0
 40
7.00000000000002
  0
CIRCLE
  5
17B
330
1F
100
AcDbEntity
  8
0
  6
Continuous
 62
     7
370
    25
100
AcDbCircle
 10
215.7011736763
 20
62.0193758692
 30
0.0
 40
8.000000000000016
  0
CIRCLE
  5
17C
330
1F
100
AcDbEntity
  8
0
  6
Continuous
 62
     7
370
    25
100
AcDbCircle
 10
215.7011736763
 20
62.0193758692
 30
0.0
 40
11.24999999999997
  0
CIRCLE
  5
17D
330
1F
100
AcDbEntity
  8
0
  6
Continuous
 62
     7
370
    25
100
AcDbCircle
 10
215.7011736763
 20
62.0193758692
 30
0.0
 40
8.349999999999966
  0
CIRCLE
  5
17E
330
1F
100
AcDbEntity
  8
0
  6
Continuous
 62
     7
370
    25
100
AcDbCircle
 10
215.7011736763
 20
62.0193758692
 30
0.0
 40
11.74999999999997
  0
CIRCLE
  5
17F
330
1F
100
AcDbEntity
  8
0
  6
Continuous
 62
     7
370
    25
100
AcDbCircle
 10
215.7011736763
 20
62.0193758692
 30
0.0
 40
8.249999999999972
  0
SPLINE
  5
180
330
1F
100
AcDbEntity
  8
0
  6
Continuous
 62
     7
370
    25
100
AcDbSpline
210
0.0
220
0.0
230
1.0
 70
    24
 71
     3
 72
    13
 73
     9
 74
     0
 42
0.00000001
 43
0.00000001
 40
0.0
 40
0.0
 40
0.0
 40
0.0
 40
0.1323387356962595
 40
0.2646400534003678
 40
0.3999010753899636
 40
0.5351376891512046
 40
0.7654390273115668
 40
1.0
 40
1.0
 40
1.0
 40
1.0
 10
215.7011736763096
 20
75.87578232971856
 30
0.0
 10
216.2196295612325
 20
75.57645168499539
 30
0.0
 10
217.2563947407536
 20
74.97787502951248
 30
0.0
 10
218.8528645144374
 20
74.05615277592305
 30
0.0
 10
220.4796619754995
 20
73.11692082386185
 30
0.0
 10
222.5142254525894
 20
71.9422650526806
 30
0.0
 10
224.9508394770365
 20
70.5354852897549
 30
0.0
 10
226.7788122391307
 20
69.48010472348852
 30
0.0
 10
227.7011736763095
 20
68.9475790994432
 30
0.0
  0
SPLINE
  5
181
330
1F
100
AcDbEntity
  8
0
  6
Continuous
 62
     7
370
    25
100
AcDbSpline
210
0.0
220
0.0
230
1.0
 70
    24
 71
     3
 72
    13
 73
     9
 74
     0
 42
0.00000001
 43
0.00000001
 40
0.0
 40
0.0
 40
0.0
 40
0.0
 40
0.2506322241738398
 40
0.3784362686682596
 40
0.5062173214586155
 40
0.6283860820030432
 40
0.7505749875933544
 40
1.0
 40
1.0
 40
1.0
 40
1.0
 10
227.7011736763095
 20
68.9475790994432
 30
0.0
 10
227.7011736763095
 20
67.80875613678766
 30
0.0
 10
227.7011736763095
 20
66.0892170229259
 30
0.0
 10
227.7011736763096
 20
63.72919831290351
 30
0.0
 10
227.7011736763096
 20
61.95804847648967
 30
0.0
 10
227.7011736763096
 20
60.21391743167904
 30
0.0
 10
227.7011736763097
 20
57.9128729376195
 30
0.0
 10
227.7011736763097
 20
56.22443916625866
 30
0.0
 10
227.7011736763097
 20
55.09117263889213
 30
0.0
  0
SPLINE
  5
182
330
1F
100
AcDbEntity
  8
0
  6
Continuous
 62
     7
370
    25
100
AcDbSpline
210
0.0
220
0.0
230
1.0
 70
    24
 71
     3
 72
    13
 73
     9
 74
     0
 42
0.00000001
 43
0.00000001
 40
0.0
 40
0.0
 40
0.0
 40
0.0
 40
0.1323387356962577
 40
0.2646400534003645
 40
0.3999010753899586
 40
0.5351376891511977
 40
0.7654390273115629
 40
1.0
 40
1.0
 40
1.0
 40
1.0
 10
227.7011736763097
 20
55.09117263889213
 30
0.0
 10
227.1827177913868
 20
54.79184199416896
 30
0.0
 10
226.1459526118657
 20
54.19326533868602
 30
0.0
 10
224.5494828381819
 20
53.27154308509657
 30
0.0
 10
222.9226853771198
 20
52.33231113303534
 30
0.0
 10
220.8881219000299
 20
51.15765536185405
 30
0.0
 10
218.4515078755828
 20
49.75087559892828
 30
0.0
 10
216.6235351134886
 20
48.69549503266187
 30
0.0
 10
215.7011736763097
 20
48.1629694086165
 30
0.0
  0
SPLINE
  5
183
330
1F
100
AcDbEntity
  8
0
  6
Continuous
 62
     7
370
    25
100
AcDbSpline
210
0.0
220
0.0
230
1.0
 70
    24
 71
     3
 72
    13
 73
     9
 74
     0
 42
0.00000001
 43
0.00000001
 40
0.0
 40
0.0
 40
0.0
 40
0.0
 40
0.1323387356962578
 40
0.2646400534003644
 40
0.3999010753899584
 40
0.5351376891511975
 40
0.7654390273115631
 40
0.9999999999999999
 40
0.9999999999999999
 40
0.9999999999999999
 40
0.9999999999999999
 10
215.7011736763097
 20
48.1629694086165
 30
0.0
 10
215.1827177913868
 20
48.46230005333967
 30
0.0
 10
214.1459526118657
 20
49.0608767088226
 30
0.0
 10
212.5494828381819
 20
49.98259896241202
 30
0.0
 10
210.9226853771198
 20
50.92183091447323
 30
0.0
 10
208.8881219000298
 20
52.09648668565448
 30
0.0
 10
206.4515078755827
 20
53.50326644858022
 30
0.0
 10
204.6235351134885
 20
54.55864701484662
 30
0.0
 10
203.7011736763096
 20
55.09117263889196
 30
0.0
  0
SPLINE
  5
184
330
1F
100
AcDbEntity
  8
0
  6
Continuous
 62
     7
370
    25
100
AcDbSpline
210
0.0
220
0.0
230
1.0
 70
    24
 71
     3
 72
    13
 73
     9
 74
     0
 42
0.00000001
 43
0.00000001
 40
0.0
 40
0.0
 40
0.0
 40
0.0
 40
0.2506322241738397
 40
0.3784362686682594
 40
0.5062173214586152
 40
0.6283860820030429
 40
0.7505749875933543
 40
1.0
 40
1.0
 40
1.0
 40
1.0
 10
203.7011736763096
 20
55.09117263889196
 30
0.0
 10
203.7011736763096
 20
56.22999560154749
 30
0.0
 10
203.7011736763096
 20
57.94953471540926
 30
0.0
 10
203.7011736763096
 20
60.30955342543164
 30
0.0
 10
203.7011736763096
 20
62.08070326184547
 30
0.0
 10
203.7011736763096
 20
63.82483430665611
 30
0.0
 10
203.7011736763096
 20
66.12587880071564
 30
0.0
 10
203.7011736763096
 20
67.8143125720765
 30
0.0
 10
203.7011736763096
 20
68.94757909944302
 30
0.0
  0
SPLINE
  5
185
330
1F
100
AcDbEntity
  8
0
  6
Continuous
 62
     7
370
    25
100
AcDbSpline
210
0.0
220
0.0
230
1.0
 70
    24
 71
     3
 72
    13
 73
     9
 74
     0
 42
0.00000001
 43
0.00000001
 40
0.0
 40
0.0
 40
0.0
 40
0.0
 40
0.1323387356962578
 40
0.2646400534003646
 40
0.3999010753899584
 40
0.5351376891511975
 40
0.7654390273115629
 40
0.9999999999999999
 40
0.9999999999999999
 40
0.9999999999999999
 40
0.9999999999999999
 10
203.7011736763096
 20
68.94757909944302
 30
0.0
 10
204.2196295612325
 20
69.24690974416619
 30
0.0
 10
205.2563947407536
 20
69.84548639964912
 30
0.0
 10
206.8528645144373
 20
70.76720865323857
 30
0.0
 10
208.4796619754995
 20
71.70644060529978
 30
0.0
 10
210.5142254525894
 20
72.88109637648105
 30
0.0
 10
212.9508394770365
 20
74.2878761394068
 30
0.0
 10
214.7788122391307
 20
75.34325670567321
 30
0.0
 10
215.7011736763096
 20
75.87578232971856
 30
0.0
  0
ARC
  5
186
330
1F
100
AcDbEntity
  8
0
  6
Continuous
 62
     7
370
    25
100
AcDbCircle
 10
215.7011736763
 20
62.0193758692
 30
0.0
 40
15.25000000000003
100
AcDbArc
 50
124.9480137199
 51
145.0519862801
  0
SPLINE
  5
187
330
1F
100
AcDbEntity
  8
0
  6
Continuous
 62
     7
370
    25
100
AcDbSpline
210
0.0
220
0.0
230
1.0
 70
    24
 71
     3
 72
    10
 73
     6
 74
     0
 42
0.00000001
 43
0.00000001
 40
0.0
 40
0.0
 40
0.0
 40
0.0
 40
0.1526027637132079
 40
0.6738810403163816
 40
1.0
 40
1.0
 40
1.0
 40
1.0
 10
213.3518087709206
 20
74.51937586916753
 30
0.0
 10
213.0198444606719
 20
74.51937586916753
 30
0.0
 10
211.5539178332964
 20
74.51937586916753
 30
0.0
 10
209.4132465031183
 20
74.51937586916755
 30
0.0
 10
207.6457053793212
 20
74.51937586916755
 30
0.0
 10
206.9654710714815
 20
74.51937586916755
 30
0.0
  0
ARC
  5
188
330
1F
100
AcDbEntity
  8
0
  6
Continuous
 62
     7
370
    25
100
AcDbCircle
 10
215.7011736763
 20
62.0193758692
 30
0.0
 40
12.50000000000002
100
AcDbArc
 50
104.5161825004
 51
136.0042620709
  0
ARC
  5
189
330
1F
100
AcDbEntity
  8
0
  6
Continuous
 62
     7
370
    25
100
AcDbCircle
 10
215.7011736763
 20
62.0193758692
 30
0.0
 40
12.50000000000003
100
AcDbArc
 50
164.7546344652
 51
180.0
  0
SPLINE
  5
18A
330
1F
100
AcDbEntity
  8
0
  6
Continuous
 62
     7
370
    25
100
AcDbSpline
210
0.0
220
0.0
230
1.0
 70
    24
 71
     3
 72
    12
 73
     8
 74
     0
 42
0.00000001
 43
0.00000001
 40
0.0
 40
0.0
 40
0.0
 40
0.0
 40
0.25
 40
0.25
 40
0.5
 40
0.5
 40
1.0
 40
1.0
 40
1.0
 40
1.0
 10
203.2011736763096
 20
62.01937586916754
 30
0.0
 10
203.2011736763096
 20
62.76472208144185
 30
0.0
 10
203.2011736763096
 20
63.51654893131088
 30
0.0
 10
203.2011736763096
 20
64.99724939248615
 30
0.0
 10
203.2011736763096
 20
65.73022099708818
 30
0.0
 10
203.2011736763096
 20
67.91076511804417
 30
0.0
 10
203.2011736763096
 20
69.3402087170534
 30
0.0
 10
203.2011736763096
 20
70.75507847399561
 30
0.0
  0
ARC
  5
18B
330
1F
100
AcDbEntity
  8
0
  6
Continuous
 62
     7
370
    25
100
AcDbCircle
 10
215.7011736763
 20
62.0193758692
 30
0.0
 40
15.25000000000001
100
AcDbArc
 50
214.9480137199
 51
235.0519862801
  0
ARC
  5
18C
330
1F
100
AcDbEntity
  8
0
  6
Continuous
 62
     7
370
    25
100
AcDbCircle
 10
215.7011736763
 20
62.0193758692
 30
0.0
 40
12.50000000000003
100
AcDbArc
 50
180.0
 51
195.3587303486
  0
ARC
  5
18D
330
1F
100
AcDbEntity
  8
0
  6
Continuous
 62
     7
370
    25
100
AcDbCircle
 10
215.7011736763
 20
62.0193758692
 30
0.0
 40
12.50000000000002
100
AcDbArc
 50
224.4062387788
 51
255.2216806389
  0
SPLINE
  5
18E
330
1F
100
AcDbEntity
  8
0
  6
Continuous
 62
     7
370
    25
100
AcDbSpline
210
0.0
220
0.0
230
1.0
 70
    24
 71
     3
 72
    10
 73
     6
 74
     0
 42
0.00000001
 43
0.00000001
 40
0.0
 40
0.0
 40
0.0
 40
0.0
 40
0.3261162085031177
 40
0.8381204174543887
 40
0.9999999999999999
 40
0.9999999999999999
 40
0.9999999999999999
 40
0.9999999999999999
 10
206.9654710714815
 20
49.51937586916754
 30
0.0
 10
207.6457079522165
 20
49.51937586916754
 30
0.0
 10
209.3939204101814
 20
49.51937586916754
 30
0.0
 10
211.5339571298323
 20
49.51937586916753
 30
0.0
 10
212.9997078366983
 20
49.51937586916753
 30
0.0
 10
213.3518087709207
 20
49.51937586916753
 30
0.0
  0
SPLINE
  5
18F
330
1F
100
AcDbEntity
  8
0
  6
Continuous
 62
     7
370
    25
100
AcDbSpline
210
0.0
220
0.0
230
1.0
 70
    24
 71
     3
 72
    10
 73
     6
 74
     0
 42
0.00000001
 43
0.00000001
 40
0.0
 40
0.0
 40
0.0
 40
0.0
 40
0.4999999999999999
 40
0.4999999999999999
 40
1.0
 40
1.0
 40
1.0
 40
1.0
 10
203.2011736763096
 20
53.28367326433948
 30
0.0
 10
203.2011736763096
 20
54.69573019525124
 30
0.0
 10
203.2011736763096
 20
56.1425131191291
 30
0.0
 10
203.2011736763096
 20
59.05584276560428
 30
0.0
 10
203.2011736763096
 20
60.52780122146027
 30
0.0
 10
203.2011736763096
 20
62.01937586916754
 30
0.0
  0
ARC
  5
190
330
1F
100
AcDbEntity
  8
0
  6
Continuous
 62
     7
370
    25
100
AcDbCircle
 10
215.7011736763
 20
62.0193758692
 30
0.0
 40
12.49999999999998
100
AcDbArc
 50
0.0
 51
15.3587303486
  0
ARC
  5
191
330
1F
100
AcDbEntity
  8
0
  6
Continuous
 62
     7
370
    25
100
AcDbCircle
 10
215.7011736763
 20
62.0193758692
 30
0.0
 40
12.5
100
AcDbArc
 50
44.4062387788
 51
75.2216806389
  0
ARC
  5
192
330
1F
100
AcDbEntity
  8
0
  6
Continuous
 62
     7
370
    25
100
AcDbCircle
 10
215.7011736763
 20
62.0193758692
 30
0.0
 40
12.5
100
AcDbArc
 50
284.5161825004
 51
316.0042620709
  0
ARC
  5
193
330
1F
100
AcDbEntity
  8
0
  6
Continuous
 62
     7
370
    25
100
AcDbCircle
 10
215.7011736763
 20
62.0193758692
 30
0.0
 40
12.5
100
AcDbArc
 50
344.7546344653
 51
0.0
  0
ARC
  5
194
330
1F
100
AcDbEntity
  8
0
  6
Continuous
 62
     7
370
    25
100
AcDbCircle
 10
215.7011736763
 20
62.0193758692
 30
0.0
 40
15.24999999999999
100
AcDbArc
 50
34.9480137199
 51
55.0519862801
  0
SPLINE
  5
195
330
1F
100
AcDbEntity
  8
0
  6
Continuous
 62
     7
370
    25
100
AcDbSpline
210
0.0
220
0.0
230
1.0
 70
    24
 71
     3
 72
    12
 73
     8
 74
     0
 42
0.00000001
 43
0.00000001
 40
0.0
 40
0.0
 40
0.0
 40
0.0
 40
0.2500000000000001
 40
0.2500000000000001
 40
0.5000000000000001
 40
0.5000000000000001
 40
1.0
 40
1.0
 40
1.0
 40
1.0
 10
228.2011736763096
 20
62.01937586916754
 30
0.0
 10
228.2011736763096
 20
62.76472208144185
 30
0.0
 10
228.2011736763096
 20
63.51654893131088
 30
0.0
 10
228.2011736763096
 20
64.99724939248615
 30
0.0
 10
228.2011736763096
 20
65.73022099708818
 30
0.0
 10
228.2011736763096
 20
67.91076511804417
 30
0.0
 10
228.2011736763096
 20
69.3402087170534
 30
0.0
 10
228.2011736763096
 20
70.75507847399561
 30
0.0
  0
SPLINE
  5
196
330
1F
100
AcDbEntity
  8
0
  6
Continuous
 62
     7
370
    25
100
AcDbSpline
210
0.0
220
0.0
230
1.0
 70
    24
 71
     3
 72
    11
 73
     7
 74
     0
 42
0.00000001
 43
0.00000001
 40
0.0
 40
0.0
 40
0.0
 40
0.0
 40
0.30177913379075
 40
0.60348547573953
 40
0.9105548427838265
 40
0.9999999999999999
 40
0.9999999999999999
 40
0.9999999999999999
 40
0.9999999999999999
 10
224.4368762811377
 20
74.51937586916753
 30
0.0
 10
223.8077017297123
 20
74.51937586916753
 30
0.0
 10
222.5495043894236
 20
74.51937586916753
 30
0.0
 10
220.6128802200914
 20
74.51937586916755
 30
0.0
 10
219.1102572058639
 20
74.51937586916753
 30
0.0
 10
218.2455891230427
 20
74.51937586916755
 30
0.0
 10
218.0505385816988
 20
74.51937586916753
 30
0.0
  0
SPLINE
  5
197
330
1F
100
AcDbEntity
  8
0
  6
Continuous
 62
     7
370
    25
100
AcDbSpline
210
0.0
220
0.0
230
1.0
 70
    24
 71
     3
 72
    10
 73
     6
 74
     0
 42
0.00000001
 43
0.00000001
 40
0.0
 40
0.0
 40
0.0
 40
0.0
 40
0.5
 40
0.5
 40
1.0
 40
1.0
 40
1.0
 40
1.0
 10
228.2011736763096
 20
53.28367326433947
 30
0.0
 10
228.2011736763096
 20
54.69573019525124
 30
0.0
 10
228.2011736763096
 20
56.1425131191291
 30
0.0
 10
228.2011736763096
 20
59.05584276560428
 30
0.0
 10
228.2011736763096
 20
60.52780122146027
 30
0.0
 10
228.2011736763096
 20
62.01937586916754
 30
0.0
  0
ARC
  5
198
330
1F
100
AcDbEntity
  8
0
  6
Continuous
 62
     7
370
    25
100
AcDbCircle
 10
215.7011736763
 20
62.0193758692
 30
0.0
 40
15.24999999999999
100
AcDbArc
 50
304.9480137199
 51
325.0519862801
  0
SPLINE
  5
199
330
1F
100
AcDbEntity
  8
0
  6
Continuous
 62
     7
370
    25
100
AcDbSpline
210
0.0
220
0.0
230
1.0
 70
    24
 71
     3
 72
    11
 73
     7
 74
     0
 42
0.00000001
 43
0.00000001
 40
0.0
 40
0.0
 40
0.0
 40
0.0
 40
0.0835775851071277
 40
0.3847513544982349
 40
0.6923360957570287
 40
1.0
 40
1.0
 40
1.0
 40
1.0
 10
218.0505385816988
 20
49.51937586916753
 30
0.0
 10
218.232799708812
 20
49.51937586916753
 30
0.0
 10
219.071843041295
 20
49.51937586916753
 30
0.0
 10
220.5623919843736
 20
49.51937586916753
 30
0.0
 10
222.5125180650489
 20
49.51937586916753
 30
0.0
 10
223.7953685217214
 20
49.51937586916753
 30
0.0
 10
224.4368762811377
 20
49.51937586916753
 30
0.0
  0
LINE
  5
19A
330
1F
100
AcDbEntity
  8
0
  6
Continuous
 62
     7
370
    25
100
AcDbLine
 10
223.9511736763
 20
80.2193758692
 30
0.0
 11
207.4511736763
 21
80.2193758692
 31
0.0
  0
LINE
  5
19B
330
1F
100
AcDbEntity
  8
0
  6
Continuous
 62
     7
370
    25
100
AcDbLine
 10
207.9511736763
 20
80.7193758692
 30
0.0
 11
223.4511736763
 21
80.7193758692
 31
0.0
  0
ELLIPSE
  5
19C
330
1F
100
AcDbEntity
  8
0
  6
Continuous
 62
     7
370
    25
100
AcDbEllipse
 10
215.5266351212
 20
92.4429826669
 30
0.0
 11
0.7234244958980298
 21
-0.7001325129304662
 31
0.0
210
0.0
220
0.0
230
1.0
 40
0.9869902583
 41
4.70764954536261
 42
5.487972049091454
  0
LINE
  5
19D
330
1F
100
AcDbEntity
  8
0
  6
Continuous
 62
     7
370
    25
100
AcDbLine
 10
215.539728082
 20
91.4429826669
 30
0.0
 11
215.539728082
 21
90.7193758692
 31
0.0
  0
ELLIPSE
  5
19E
330
1F
100
AcDbEntity
  8
0
  6
Continuous
 62
     7
370
    25
100
AcDbEllipse
 10
215.5266351212
 20
92.2193758692
 30
0.0
 11
1.074619436156752
 21
-1.056020081253678
 31
0.0
210
0.0
220
0.0
230
0.9999999999999999
 40
0.9913091236
 41
4.713099434383474
 42
5.493421938112335
  0
LWPOLYLINE
  5
19F
330
1F
100
AcDbEntity
  8
0
  6
Continuous
 62
     7
370
    25
100
AcDbPolyline
 90
        9
 70
   128
 43
0.0
 10
214.8321903018
 20
91.7322959761
 10
214.7464614197
 20
91.6559654985
 10
214.6654297698
 20
91.5715654992
 10
214.5935352149
 20
91.4837203987
 10
214.5347169807
 20
91.3972433804
 10
214.492197819
 20
91.316872668
 10
214.4683074273
 20
91.2470119107
 10
214.4643548012
 20
91.1914888987
 10
214.4805565118
 20
91.153345833
  0
ELLIPSE
  5
1A0
330
1F
100
AcDbEntity
  8
0
  6
Continuous
 62
     7
370
    25
100
AcDbEllipse
 10
215.8757122314
 20
92.4429826669
 30
0.0
 11
0.7234244958980298
 21
0.7001325129304519
 31
0.0
210
0.0
220
0.0
230
1.0
 40
0.9869902583
 41
3.936805911678021
 42
4.717128415406846
  0
LWPOLYLINE
  5
1A1
330
1F
100
AcDbEntity
  8
0
  6
Continuous
 62
     7
370
    25
100
AcDbPolyline
 90
        9
 70
   128
 43
0.0
 10
216.5701570508
 20
91.7322959761
 10
216.6558859329
 20
91.6559654985
 10
216.7369175828
 20
91.5715654992
 10
216.8088121377
 20
91.4837203987
 10
216.8676303719
 20
91.3972433804
 10
216.9101495336
 20
91.316872668
 10
216.9340399253
 20
91.2470119107
 10
216.9379925514
 20
91.1914888987
 10
216.9217908409
 20
91.153345833
  0
ELLIPSE
  5
1A2
330
1F
100
AcDbEntity
  8
0
  6
Continuous
 62
     7
370
    25
100
AcDbEllipse
 10
215.8757122314
 20
92.2193758692
 30
0.0
 11
1.074619436156752
 21
1.056020081253678
 31
0.0
210
0.0
220
0.0
230
0.9999999999999999
 40
0.9913091236
 41
3.9313560226571
 42
4.711678526385946
  0
LINE
  5
1A3
330
1F
100
AcDbEntity
  8
0
  6
Continuous
 62
     7
370
    25
100
AcDbLine
 10
215.8626192706
 20
91.4429826669
 30
0.0
 11
215.8626192706
 21
90.7193758692
 31
0.0
  0
LINE
  5
1A4
330
1F
100
AcDbEntity
  8
0
  6
Continuous
 62
     7
370
    25
100
AcDbLine
 10
215.539728082
 20
91.4429826669
 30
0.0
 11
215.8626192706
 21
91.4429826669
 31
0.0
  0
LINE
  5
1A5
330
1F
100
AcDbEntity
  8
0
  6
Continuous
 62
     7
370
    25
100
AcDbLine
 10
215.8626192706
 20
90.7193758692
 30
0.0
 11
215.539728082
 21
90.7193758692
 31
0.0
  0
LINE
  5
1A6
330
1F
100
AcDbEntity
  8
0
  6
Continuous
 62
     7
370
    25
100
AcDbLine
 10
214.8321903018
 20
91.7322959761
 30
0.0
 11
214.8321903018
 21
100.8901962624
 31
0.0
  0
LINE
  5
1A7
330
1F
100
AcDbEntity
  8
0
  6
Continuous
 62
     7
370
    25
100
AcDbLine
 10
214.8321903018
 20
100.8901962624
 30
0.0
 11
216.5701570508
 21
100.8901962624
 31
0.0
  0
LINE
  5
1A8
330
1F
100
AcDbEntity
  8
0
  6
Continuous
 62
     7
370
    25
100
AcDbLine
 10
216.5701570508
 20
100.8901962624
 30
0.0
 11
216.5701570508
 21
91.7322959761
 31
0.0
  0
SPLINE
  5
1A9
330
1F
100
AcDbEntity
  8
0
  6
Continuous
 62
     7
370
    25
100
AcDbSpline
210
0.0
220
0.0
230
1.0
 70
     8
 71
     3
 72
    12
 73
     8
 74
     0
 42
0.00000001
 43
0.00000001
 40
0.0
 40
0.0
 40
0.0
 40
0.0
 40
0.1396834586182491
 40
0.3831896274038308
 40
0.5513169293013305
 40
0.8194729461607058
 40
1.0
 40
1.0
 40
1.0
 40
1.0
 10
216.5701570508283
 20
91.732295976107
 30
0.0
 10
216.6198719713068
 20
91.74560834976795
 30
0.0
 10
216.7562534873646
 20
91.78212780277589
 30
0.0
 10
216.9361695965767
 20
91.8197998633673
 30
0.0
 10
217.1145110249616
 20
91.84416718412879
 30
0.0
 10
217.2350312495131
 20
91.84305014936483
 30
0.0
 10
217.2591772628199
 20
91.80166686098725
 30
0.0
 10
217.2688923800796
 20
91.78501634837185
 30
0.0
  0
ARC
  5
1AA
330
1F
100
AcDbEntity
  8
0
  6
Continuous
 62
     7
370
    25
100
AcDbCircle
 10
216.7706381994
 20
91.7701633627
 30
0.0
 40
0.4984755156838973
100
AcDbArc
 50
333.4921832491
 51
1.7074848132
  0
SPLINE
  5
1AB
330
1F
100
AcDbEntity
  8
0
  6
Continuous
 62
     7
370
    25
100
AcDbSpline
210
0.0
220
0.0
230
1.0
 70
     8
 71
     3
 72
    12
 73
     8
 74
     0
 42
0.00000001
 43
0.00000001
 40
0.0
 40
0.0
 40
0.0
 40
0.0
 40
0.071520202616614
 40
0.1260836237049448
 40
0.3855387013103015
 40
0.8475626424815556
 40
1.0
 40
1.0
 40
1.0
 40
1.0
 10
217.2167107185185
 20
91.54768381881672
 30
0.0
 10
217.2147746728133
 20
91.5445751709519
 30
0.0
 10
217.2113616000138
 20
91.53909490700856
 30
0.0
 10
217.1891791495085
 20
91.4995063615882
 30
0.0
 10
217.1261656747422
 20
91.39307222860586
 30
0.0
 10
217.0291193492702
 20
91.26256521289766
 30
0.0
 10
216.943124656052
 20
91.17505549893431
 30
0.0
 10
216.9217908408504
 20
91.15334583295176
 30
0.0
  0
SPLINE
  5
1AC
330
1F
100
AcDbEntity
  8
0
  6
Continuous
 62
     7
370
    25
100
AcDbSpline
210
0.0
220
0.0
230
1.0
 70
     8
 71
     3
 72
    11
 73
     7
 74
     0
 42
0.00000001
 43
0.00000001
 40
0.0
 40
0.0
 40
0.0
 40
0.0
 40
0.2499999999999989
 40
0.4999999999999977
 40
0.7499999999999992
 40
1.0
 40
1.0
 40
1.0
 40
1.0
 10
217.2688923800796
 20
100.595955996781
 30
0.0
 10
217.253893074913
 20
100.6350735509471
 30
0.0
 10
217.2238944645799
 20
100.7133086592794
 30
0.0
 10
217.0603747617832
 20
100.8099717349876
 30
0.0
 10
216.8347951477009
 20
100.8771599511271
 30
0.0
 10
216.6583697497858
 20
100.8858508253207
 30
0.0
 10
216.5701570508283
 20
100.8901962624175
 30
0.0
  0
LINE
  5
1AD
330
1F
100
AcDbEntity
  8
0
  6
Continuous
 62
     7
370
    25
100
AcDbLine
 10
217.2688923801
 20
91.7850163484
 30
0.0
 11
217.2688923801
 21
100.5959559968
 31
0.0
  0
SPLINE
  5
1AE
330
1F
100
AcDbEntity
  8
0
  6
Continuous
 62
     7
370
    25
100
AcDbSpline
210
0.0
220
0.0
230
1.0
 70
     8
 71
     3
 72
    13
 73
     9
 74
     0
 42
0.00000001
 43
0.00000001
 40
0.0
 40
0.0
 40
0.0
 40
0.0
 40
0.1143463544469914
 40
0.2890454840074684
 40
0.5294852105593207
 40
0.7014879056604273
 40
0.9335094878266192
 40
1.0
 40
1.0
 40
1.0
 40
1.0
 10
214.1334549725396
 20
91.78501634837185
 30
0.0
 10
214.1382895640447
 20
91.79640318012983
 30
0.0
 10
214.1505104769747
 20
91.82518689004971
 30
0.0
 10
214.2231585720158
 20
91.84543706749857
 30
0.0
 10
214.3536708384226
 20
91.83757974075297
 30
0.0
 10
214.5405384375922
 20
91.80505232442499
 30
0.0
 10
214.7019118423488
 20
91.76793096947311
 30
0.0
 10
214.8084581932007
 20
91.73878740635415
 30
0.0
 10
214.8321903017909
 20
91.732295976107
 30
0.0
  0
SPLINE
  5
1AF
330
1F
100
AcDbEntity
  8
0
  6
Continuous
 62
     7
370
    25
100
AcDbSpline
210
0.0
220
0.0
230
1.0
 70
     8
 71
     3
 72
    11
 73
     7
 74
     0
 42
0.00000001
 43
0.00000001
 40
0.0
 40
0.0
 40
0.0
 40
0.0
 40
0.3325271082490199
 40
0.7778992719027312
 40
0.9254453528959208
 40
1.0
 40
1.0
 40
1.0
 40
1.0
 10
214.4805565117688
 20
91.15334583295176
 30
0.0
 10
214.4353256886226
 20
91.20128238107993
 30
0.0
 10
214.3295146930069
 20
91.31342303055301
 30
0.0
 10
214.2417547185294
 20
91.44878324857018
 30
0.0
 10
214.1941418265916
 20
91.5337838823487
 30
0.0
 10
214.1877741366633
 20
91.54419052341481
 30
0.0
 10
214.1856366341007
 20
91.54768381881672
 30
0.0
  0
ARC
  5
1B0
330
1F
100
AcDbEntity
  8
0
  6
Continuous
 62
     7
370
    25
100
AcDbCircle
 10
214.6317091532
 20
91.7701633627
 30
0.0
 40
0.4984755156847144
100
AcDbArc
 50
178.2925151868
 51
206.5078167509
  0
SPLINE
  5
1B1
330
1F
100
AcDbEntity
  8
0
  6
Continuous
 62
     7
370
    25
100
AcDbSpline
210
0.0
220
0.0
230
1.0
 70
     8
 71
     3
 72
    11
 73
     7
 74
     0
 42
0.00000001
 43
0.00000001
 40
0.0
 40
0.0
 40
0.0
 40
0.0
 40
0.2499999999999988
 40
0.5000000000000019
 40
0.7499999999999991
 40
1.0
 40
1.0
 40
1.0
 40
1.0
 10
214.1334549725396
 20
100.5959559967809
 30
0.0
 10
214.1484542777062
 20
100.6350735509471
 30
0.0
 10
214.1784528880393
 20
100.7133086592793
 30
0.0
 10
214.341972590836
 20
100.8099717349876
 30
0.0
 10
214.5675522049183
 20
100.8771599511271
 30
0.0
 10
214.7439776028334
 20
100.8858508253207
 30
0.0
 10
214.8321903017909
 20
100.8901962624175
 30
0.0
  0
LINE
  5
1B2
330
1F
100
AcDbEntity
  8
0
  6
Continuous
 62
     7
370
    25
100
AcDbLine
 10
214.1334549725
 20
100.5959559968
 30
0.0
 11
214.1334549725
 21
91.7850163484
 31
0.0
  0
LINE
  5
1B3
330
1F
100
AcDbEntity
  8
0
  6
Continuous
 62
     7
370
    25
100
AcDbLine
 10
214.8475678849
 20
90.7193758692
 30
0.0
 11
215.539728082
 21
90.7193758692
 31
0.0
  0
SPLINE
  5
1B4
330
1F
100
AcDbEntity
  8
0
  6
Continuous
 62
     7
370
    25
100
AcDbSpline
210
0.0
220
0.0
230
1.0
 70
     8
 71
     3
 72
    11
 73
     7
 74
     0
 42
0.00000001
 43
0.00000001
 40
0.0
 40
0.0
 40
0.0
 40
0.0
 40
0.2500000000000002
 40
0.4999999999999997
 40
0.75
 40
1.0
 40
1.0
 40
1.0
 40
1.0
 10
213.3485957338125
 20
92.25864129162935
 30
0.0
 10
213.3666720442305
 20
92.05826568525326
 30
0.0
 10
213.4028246650666
 20
91.6575144725011
 30
0.0
 10
213.7474504392671
 20
91.14732153445914
 30
0.0
 10
214.2482725253873
 20
90.78934046609244
 30
0.0
 10
214.647802765048
 20
90.74269740147584
 30
0.0
 10
214.8475678848784
 20
90.71937586916754
 30
0.0
  0
LINE
  5
1B5
330
1F
100
AcDbEntity
  8
0
  6
Continuous
 62
     7
370
    25
100
AcDbLine
 10
213.9149330139
 20
92.2586412916
 30
0.0
 11
213.3485957338
 21
92.2586412916
 31
0.0
  0
SPLINE
  5
1B6
330
1F
100
AcDbEntity
  8
0
  6
Continuous
 62
     7
370
    25
100
AcDbSpline
210
0.0
220
0.0
230
1.0
 70
     8
 71
     3
 72
     9
 73
     5
 74
     0
 42
0.00000001
 43
0.00000001
 40
0.0
 40
0.0
 40
0.0
 40
0.0
 40
0.5407747560677784
 40
1.0
 40
1.0
 40
1.0
 40
1.0
 10
213.914933013893
 20
92.25864129162936
 30
0.0
 10
213.9149035134801
 20
92.24730733782867
 30
0.0
 10
213.9148489613537
 20
92.22634860468973
 30
0.0
 10
213.9154532064886
 20
92.20538241182176
 30
0.0
 10
213.9157306911081
 20
92.19575420678765
 30
0.0
  0
ELLIPSE
  5
1B7
330
1F
100
AcDbEntity
  8
0
  6
Continuous
 62
     7
370
    25
100
AcDbEllipse
 10
215.413905165
 20
92.2193758692
 30
0.0
 11
-0.399986139932537
 21
1.445826639360107
 31
0.0
210
0.0
220
0.0
230
1.0
 40
0.9987379186
 41
1.314426961368847
 42
1.316970714136595
  0
ELLIPSE
  5
1B8
330
1F
100
AcDbEntity
  8
0
  6
Continuous
 62
     7
370
    25
100
AcDbEllipse
 10
216.3625980647
 20
92.2193758692
 30
0.0
 11
2.447559743736974
 21
-0.02501587584980314
 31
0.0
210
0.0
220
0.0
230
1.0
 40
0.6127700831
 41
3.171475350442053
 42
3.622568086779199
  0
LINE
  5
1B9
330
1F
100
AcDbEntity
  8
0
  6
Continuous
 62
     7
370
    25
100
AcDbLine
 10
217.4874143387
 20
92.2586412916
 30
0.0
 11
217.4866166615
 21
92.1957542068
 31
0.0
  0
LINE
  5
1BA
330
1F
100
AcDbEntity
  8
0
  6
Continuous
 62
     7
370
    25
100
AcDbLine
 10
218.0537516188
 20
92.2586412916
 30
0.0
 11
217.4874143387
 21
92.2586412916
 31
0.0
  0
SPLINE
  5
1BB
330
1F
100
AcDbEntity
  8
0
  6
Continuous
 62
     7
370
    25
100
AcDbSpline
210
0.0
220
0.0
230
1.0
 70
     8
 71
     3
 72
    11
 73
     7
 74
     0
 42
0.00000001
 43
0.00000001
 40
0.0
 40
0.0
 40
0.0
 40
0.0
 40
0.2500000000000001
 40
0.4999999999999997
 40
0.75
 40
1.0
 40
1.0
 40
1.0
 40
1.0
 10
216.5547794677408
 20
90.71937586916754
 30
0.0
 10
216.7545445875712
 20
90.74269740147584
 30
0.0
 10
217.154074827232
 20
90.78934046609244
 30
0.0
 10
217.6548969133521
 20
91.14732153445915
 30
0.0
 10
217.9995226875526
 20
91.65751447250109
 30
0.0
 10
218.0356753083887
 20
92.05826568525328
 30
0.0
 10
218.0537516188067
 20
92.25864129162935
 30
0.0
  0
LINE
  5
1BC
330
1F
100
AcDbEntity
  8
0
  6
Continuous
 62
     7
370
    25
100
AcDbLine
 10
215.8626192706
 20
90.7193758692
 30
0.0
 11
216.5547794677
 21
90.7193758692
 31
0.0
  0
ELLIPSE
  5
1BD
330
1F
100
AcDbEntity
  8
0
  6
Continuous
 62
     7
370
    25
100
AcDbEllipse
 10
215.039749288
 20
92.2193758692
 30
0.0
 11
2.447559743736946
 21
0.02501587584980314
 31
0.0
210
0.0
220
0.0
230
1.0
 40
0.6127700831
 41
5.802209873990209
 42
6.253302610327353
  0
ELLIPSE
  5
1BE
330
1F
100
AcDbEntity
  8
0
  6
Continuous
 62
     7
370
    25
100
AcDbEllipse
 10
215.9884421877
 20
92.2193758692
 30
0.0
 11
0.399986139932537
 21
1.445826639360107
 31
0.0
210
0.0
220
0.0
230
1.0
 40
0.9987379186
 41
4.966214593033909
 42
4.968758345810739
  0
ELLIPSE
  5
1BF
330
1F
100
AcDbEntity
  8
0
  6
Continuous
 62
     7
370
    25
100
AcDbEllipse
 10
214.0853008145
 20
100.2381851204
 30
0.0
 11
0.02159772760040824
 21
0.7999991561933371
 31
0.0
210
0.0
220
0.0
230
1.0
 40
0.0537988877
 41
5.177489007048768
 42
5.369012849440353
  0
ELLIPSE
  5
1C0
330
1F
100
AcDbEntity
  8
0
  6
Continuous
 62
     7
370
    25
100
AcDbEllipse
 10
215.8635014009
 20
92.2328110486
 30
0.0
 11
1.947791790405574
 21
-0.01776981143129319
 31
0.0
210
0.0
220
0.0
230
1.0
 40
0.513320833
 41
3.160788584408895
 42
3.623660809788528
  0
LINE
  5
1C1
330
1F
100
AcDbEntity
  8
0
  6
Continuous
 62
     7
370
    25
100
AcDbLine
 10
213.9158933772
 20
92.231385865
 30
0.0
 11
214.1325744884
 21
100.7256212832
 31
0.0
  0
ELLIPSE
  5
1C2
330
1F
100
AcDbEntity
  8
0
  6
Continuous
 62
     7
370
    25
100
AcDbEllipse
 10
217.3170465381
 20
100.2381851204
 30
0.0
 11
-0.02159772760037982
 21
0.7999991561933372
 31
0.0
210
0.0
220
0.0
230
1.0
 40
0.0537988877
 41
0.9141724577388735
 42
1.105696300130721
  0
LINE
  5
1C3
330
1F
100
AcDbEntity
  8
0
  6
Continuous
 62
     7
370
    25
100
AcDbLine
 10
217.2697728642
 20
100.7256212832
 30
0.0
 11
217.4864539754
 21
92.231385865
 31
0.0
  0
ELLIPSE
  5
1C4
330
1F
100
AcDbEntity
  8
0
  6
Continuous
 62
     7
370
    25
100
AcDbEllipse
 10
215.5388459517
 20
92.2328110486
 30
0.0
 11
1.947791790405518
 21
0.01776981143132162
 31
0.0
210
0.0
220
0.0
230
0.9999999999999999
 40
0.513320833
 41
5.801117150980876
 42
6.263989376373003
  0
LINE
  5
1C5
330
1F
100
AcDbEntity
  8
0
  6
Continuous
 62
     7
370
    25
100
AcDbLine
 10
213.915673042
 20
92.1995694351
 30
0.0
 11
213.9158933772
 21
92.231385865
 31
0.0
  0
SPLINE
  5
1C6
330
1F
100
AcDbEntity
  8
0
  6
Continuous
 62
     7
370
    25
100
AcDbSpline
210
0.0
220
0.0
230
1.0
 70
     8
 71
     3
 72
     9
 73
     5
 74
     0
 42
0.00000001
 43
0.00000001
 40
0.0
 40
0.0
 40
0.0
 40
0.0
 40
0.8673350121727613
 40
1.0
 40
1.0
 40
1.0
 40
1.0
 10
217.486453975435
 20
92.23138586503009
 30
0.0
 10
217.4866247076223
 20
92.2221874416549
 30
0.0
 10
217.4868215544979
 20
92.21158205475582
 30
0.0
 10
217.4866915567326
 20
92.20097643015443
 30
0.0
 10
217.4866743105807
 20
92.19956943509578
 30
0.0
  0
ELLIPSE
  5
1C7
330
1F
100
AcDbEntity
  8
0
  6
Continuous
 62
     7
370
    25
100
AcDbEllipse
 10
214.8016253058
 20
100.2193758692
 30
0.0
 11
0.0209600052571659
 21
1.499999971448744
 31
0.0
210
0.0
220
0.0
230
1.0
 40
0.013963099
 41
5.413231207420207
 42
6.283380418266685
  0
LINE
  5
1C8
330
1F
100
AcDbEntity
  8
0
  6
Continuous
 62
     7
370
    25
100
AcDbLine
 10
216.5797661285
 20
101.7193758692
 30
0.0
 11
214.8225812242
 21
101.7193758692
 31
0.0
  0
ELLIPSE
  5
1C9
330
1F
100
AcDbEntity
  8
0
  6
Continuous
 62
     7
370
    25
100
AcDbEllipse
 10
216.6007220468
 20
100.2193758692
 30
0.0
 11
-0.0209600052571659
 21
1.49999997144873
 31
0.0
210
0.0
220
0.0
230
1.0
 40
0.013963099
 41
6.282990196093469
 42
7.153139406940912
  0
SPLINE
  5
1CA
330
1F
100
AcDbEntity
  8
0
  6
Continuous
 62
     7
370
    25
100
AcDbSpline
210
0.0
220
0.0
230
1.0
 70
     8
 71
     3
 72
     9
 73
     5
 74
     0
 42
0.00000001
 43
0.00000001
 40
0.0
 40
0.0
 40
0.0
 40
0.0
 40
0.5600029565045049
 40
1.0
 40
1.0
 40
1.0
 40
1.0
 10
216.5711977629335
 20
101.1864446100081
 30
0.0
 10
216.5712034009998
 20
101.1766581478482
 30
0.0
 10
216.571213468922
 20
101.1591824148252
 30
0.0
 10
216.5710912923186
 20
101.1412214471594
 30
0.0
 10
216.5710375349743
 20
101.1333186744881
 30
0.0
  0
ELLIPSE
  5
1CB
330
1F
100
AcDbEntity
  8
0
  6
Continuous
 62
     7
370
    25
100
AcDbEllipse
 10
216.6183112088
 20
100.2193758692
 30
0.0
 11
-0.02155295842285909
 21
1.499999872388898
 31
0.0
210
0.0
220
0.0
230
0.9999999999999998
 40
0.0287076702
 41
0.9152123852427785
 42
1.106736227634701
  0
ELLIPSE
  5
1CC
330
1F
100
AcDbEntity
  8
0
  6
Continuous
 62
     7
370
    25
100
AcDbEllipse
 10
214.7840361438
 20
100.2193758692
 30
0.0
 11
0.02155295842280225
 21
1.499999872388898
 31
0.0
210
0.0
220
0.0
230
1.0
 40
0.0287076702
 41
5.176449079545014
 42
5.3679729219369
  0
SPLINE
  5
1CD
330
1F
100
AcDbEntity
  8
0
  6
Continuous
 62
     7
370
    25
100
AcDbSpline
210
0.0
220
0.0
230
1.0
 70
     8
 71
     3
 72
     9
 73
     5
 74
     0
 42
0.00000001
 43
0.00000001
 40
0.0
 40
0.0
 40
0.0
 40
0.0
 40
0.5599925069634167
 40
1.0
 40
1.0
 40
1.0
 40
1.0
 10
214.8313098176449
 20
101.1333186744881
 30
0.0
 10
214.8312440724935
 20
101.143366268791
 30
0.0
 10
214.8311266688665
 20
101.1613086415512
 30
0.0
 10
214.8311425860192
 20
101.1787640843725
 30
0.0
 10
214.8311495896857
 20
101.1864446100081
 30
0.0
  0
SPLINE
  5
1CE
330
1F
100
AcDbEntity
  8
0
  6
Continuous
 62
     7
370
    25
100
AcDbSpline
210
0.0
220
0.0
230
1.0
 70
     8
 71
     3
 72
    12
 73
     8
 74
     0
 42
0.00000001
 43
0.00000001
 40
0.0
 40
0.0
 40
0.0
 40
0.0
 40
0.2225634137434379
 40
0.4462063173695244
 40
0.6680851268156931
 40
0.8917990985568365
 40
1.0
 40
1.0
 40
1.0
 40
1.0
 10
214.1325744883936
 20
100.7256212832186
 30
0.0
 10
214.1449275959604
 20
100.773207226525
 30
0.0
 10
214.1696937268474
 20
100.8686099172194
 30
0.0
 10
214.3022776548452
 20
100.9928286497924
 30
0.0
 10
214.4886350583398
 20
101.0847184508968
 30
0.0
 10
214.6767258696931
 20
101.127174029907
 30
0.0
 10
214.7933059025815
 20
101.1318080354221
 30
0.0
 10
214.8313098176449
 20
101.1333186744881
 30
0.0
  0
SPLINE
  5
1CF
330
1F
100
AcDbEntity
  8
0
  6
Continuous
 62
     7
370
    25
100
AcDbSpline
210
0.0
220
0.0
230
1.0
 70
     8
 71
     3
 72
    12
 73
     8
 74
     0
 42
0.00000001
 43
0.00000001
 40
0.0
 40
0.0
 40
0.0
 40
0.0
 40
0.2225634137435262
 40
0.4462063173695686
 40
0.6680851268158022
 40
0.8917990985569295
 40
1.0
 40
1.0
 40
1.0
 40
1.0
 10
216.5710375349743
 20
101.1333186744881
 30
0.0
 10
216.6495411950169
 20
101.1278916018744
 30
0.0
 10
216.8069292780735
 20
101.117011133947
 30
0.0
 10
217.0162808157009
 20
101.0417177029267
 30
0.0
 10
217.175040110171
 20
100.9322391581734
 30
0.0
 10
217.2528889804876
 20
100.8195245176269
 30
0.0
 10
217.265622021321
 20
100.7487070601826
 30
0.0
 10
217.2697728642256
 20
100.7256212832186
 30
0.0
  0
SPLINE
  5
1D0
330
1F
100
AcDbEntity
  8
0
  6
Continuous
 62
     7
370
    25
100
AcDbSpline
210
0.0
220
0.0
230
1.0
 70
     8
 71
     3
 72
    12
 73
     8
 74
     0
 42
0.00000001
 43
0.00000001
 40
0.0
 40
0.0
 40
0.0
 40
0.0
 40
0.2198609600791261
 40
0.4397396970008124
 40
0.658329145139775
 40
0.8791239516843592
 40
1.0
 40
1.0
 40
1.0
 40
1.0
 10
217.2707181000977
 20
100.753469728098
 30
0.0
 10
217.2600461054535
 20
100.8039579442259
 30
0.0
 10
217.238701253282
 20
100.9049384587029
 30
0.0
 10
217.110582858015
 20
101.0366014516529
 30
0.0
 10
216.9276449219499
 20
101.134162774426
 30
0.0
 10
216.7360957500628
 20
101.1808221659027
 30
0.0
 10
216.6142900783777
 20
101.184975312904
 30
0.0
 10
216.5711977629335
 20
101.1864446100081
 30
0.0
  0
SPLINE
  5
1D1
330
1F
100
AcDbEntity
  8
0
  6
Continuous
 62
     7
370
    25
100
AcDbSpline
210
0.0
220
0.0
230
1.0
 70
     8
 71
     3
 72
    12
 73
     8
 74
     0
 42
0.00000001
 43
0.00000001
 40
0.0
 40
0.0
 40
0.0
 40
0.0
 40
0.219861099868321
 40
0.439739976766498
 40
0.6583294271823363
 40
0.8791242261983193
 40
1.0
 40
1.0
 40
1.0
 40
1.0
 10
214.8311495896857
 20
101.1864446100081
 30
0.0
 10
214.7524586799665
 20
101.1816208166585
 30
0.0
 10
214.5950704979172
 20
101.1719728399279
 30
0.0
 10
214.3857887494322
 20
101.0947987022662
 30
0.0
 10
214.2271394287679
 20
100.980931193054
 30
0.0
 10
214.1470393660526
 20
100.8594506235504
 30
0.0
 10
214.1356563287509
 20
100.7811653803059
 30
0.0
 10
214.1316292525216
 20
100.753469728098
 30
0.0
  0
LINE
  5
1D2
330
1F
100
AcDbEntity
  8
0
  6
Continuous
 62
     7
370
    25
100
AcDbLine
 10
216.707255786
 20
101.6944414909
 30
0.0
 11
216.5797661285
 21
101.7193758692
 31
0.0
  0
ELLIPSE
  5
1D3
330
1F
100
AcDbEntity
  8
0
  6
Continuous
 62
     7
370
    25
100
AcDbEllipse
 10
217.3002423839
 20
100.237699733
 30
0.0
 11
-0.02097028290361891
 21
0.7999998117962973
 31
0.0
210
0.0
220
0.0
230
1.0
 40
0.0261679535
 41
6.28249937039185
 42
7.152648581237949
  0
ELLIPSE
  5
1D4
330
1F
100
AcDbEntity
  8
0
  6
Continuous
 62
     7
370
    25
100
AcDbEllipse
 10
214.1021049687
 20
100.237699733
 30
0.0
 11
0.02097028290364733
 21
0.7999998117962974
 31
0.0
210
0.0
220
0.0
230
0.9999999999999999
 40
0.0261679535
 41
5.413722033121131
 42
6.283871243969204
  0
SPLINE
  5
1D5
330
1F
100
AcDbEntity
  8
0
  6
Continuous
 62
     7
370
    25
100
AcDbSpline
210
0.0
220
0.0
230
1.0
 70
     8
 71
     3
 72
    11
 73
     7
 74
     0
 42
0.00000001
 43
0.00000001
 40
0.0
 40
0.0
 40
0.0
 40
0.0
 40
0.2500000000000021
 40
0.4999999999999994
 40
0.7500000000000007
 40
0.9999999999999999
 40
0.9999999999999999
 40
0.9999999999999999
 40
0.9999999999999999
 10
214.1230608869961
 20
101.037699732983
 30
0.0
 10
214.1355814032187
 20
101.1275987801101
 30
0.0
 10
214.1606224356639
 20
101.3073968743641
 30
0.0
 10
214.3232659052864
 20
101.532113083599
 30
0.0
 10
214.5520856413409
 20
101.6888741686285
 30
0.0
 10
214.7324160298871
 20
101.7092086356545
 30
0.0
 10
214.8225812241602
 20
101.7193758691675
 30
0.0
  0
LINE
  5
1D6
330
1F
100
AcDbEntity
  8
0
  6
Continuous
 62
     7
370
    25
100
AcDbLine
 10
217.485759817
 20
92.2585979516
 30
0.0
 11
217.4874143387
 21
92.2586412916
 31
0.0
  0
LINE
  5
1D7
330
1F
100
AcDbEntity
  8
0
  6
Continuous
 62
     7
370
    25
100
AcDbLine
 10
213.9165875356
 20
92.2585979516
 30
0.0
 11
213.9149330139
 21
92.2586412916
 31
0.0
  0
SPLINE
  5
1D8
330
1F
100
AcDbEntity
  8
0
  6
Continuous
 62
     7
370
    25
100
AcDbSpline
210
0.0
220
0.0
230
1.0
 70
     8
 71
     3
 72
     9
 73
     5
 74
     0
 42
0.00000001
 43
0.00000001
 40
0.0
 40
0.0
 40
0.0
 40
0.0
 40
0.5600012771711204
 40
1.0
 40
1.0
 40
1.0
 40
1.0
 10
213.3485957338125
 20
92.25864129162935
 30
0.0
 10
213.3604301461575
 20
93.18769093105753
 30
0.0
 10
213.3815629771483
 20
94.84670436067205
 30
0.0
 10
213.4025237065607
 20
96.50348359583863
 30
0.0
 10
213.4117464007318
 20
97.23246434332135
 30
0.0
  0
SPLINE
  5
1D9
330
1F
100
AcDbEntity
  8
0
  6
Continuous
 62
     7
370
    25
100
AcDbSpline
210
0.0
220
0.0
230
1.0
 70
     8
 71
     3
 72
     9
 73
     5
 74
     0
 42
0.00000001
 43
0.00000001
 40
0.0
 40
0.0
 40
0.0
 40
0.0
 40
0.5599999095971008
 40
1.0
 40
1.0
 40
1.0
 40
1.0
 10
213.4117464007318
 20
97.23246434332135
 30
0.0
 10
213.414043810629
 20
97.41426605807015
 30
0.0
 10
213.4181463289649
 20
97.73891202967327
 30
0.0
 10
213.422242722158
 20
98.06347823522778
 30
0.0
 10
213.4240451355332
 20
98.20628739501349
 30
0.0
  0
LINE
  5
1DA
330
1F
100
AcDbEntity
  8
0
  6
Continuous
 62
     7
370
    25
100
AcDbLine
 10
213.4240451355
 20
98.206287395
 30
0.0
 11
213.0957170062
 21
98.206287395
 31
0.0
  0
LINE
  5
1DB
330
1F
100
AcDbEntity
  8
0
  6
Continuous
 62
     7
370
    25
100
AcDbLine
 10
213.0957170062
 20
98.206287395
 30
0.0
 11
213.2254929194
 21
101.037699733
 31
0.0
  0
LINE
  5
1DC
330
1F
100
AcDbEntity
  8
0
  6
Continuous
 62
     7
370
    25
100
AcDbLine
 10
213.2254929194
 20
101.037699733
 30
0.0
 11
214.123060887
 21
101.037699733
 31
0.0
  0
LINE
  5
1DD
330
1F
100
AcDbEntity
  8
0
  6
Continuous
 62
     7
370
    25
100
AcDbLine
 10
214.1316292525
 20
100.7534697281
 30
0.0
 11
213.9149330139
 21
92.2586412916
 31
0.0
  0
LINE
  5
1DE
330
1F
100
AcDbEntity
  8
0
  6
Continuous
 62
     7
370
    25
100
AcDbLine
 10
218.3066303464
 20
98.206287395
 30
0.0
 11
217.9783022171
 21
98.206287395
 31
0.0
  0
SPLINE
  5
1DF
330
1F
100
AcDbEntity
  8
0
  6
Continuous
 62
     7
370
    25
100
AcDbSpline
210
0.0
220
0.0
230
1.0
 70
     8
 71
     3
 72
     9
 73
     5
 74
     0
 42
0.00000001
 43
0.00000001
 40
0.0
 40
0.0
 40
0.0
 40
0.0
 40
0.5600000882143288
 40
1.0
 40
1.0
 40
1.0
 40
1.0
 10
217.978302217086
 20
98.20628739501349
 30
0.0
 10
217.9805963332271
 20
98.0245285241817
 30
0.0
 10
217.9846929685479
 20
97.69995916311004
 30
0.0
 10
217.9887957350073
 20
97.37530996281322
 30
0.0
 10
217.9906009518874
 20
97.23246434332135
 30
0.0
  0
SPLINE
  5
1E0
330
1F
100
AcDbEntity
  8
0
  6
Continuous
 62
     7
370
    25
100
AcDbSpline
210
0.0
220
0.0
230
1.0
 70
     8
 71
     3
 72
     9
 73
     5
 74
     0
 42
0.00000001
 43
0.00000001
 40
0.0
 40
0.0
 40
0.0
 40
0.0
 40
0.5599987526606145
 40
1.0
 40
1.0
 40
1.0
 40
1.0
 10
217.9906009518874
 20
97.23246434332135
 30
0.0
 10
218.0023425384098
 20
96.30462304347202
 30
0.0
 10
218.0233097039018
 20
94.64775988897205
 30
0.0
 10
218.044449904274
 20
92.98865118906157
 30
0.0
 10
218.0537516188067
 20
92.25864129162935
 30
0.0
  0
LINE
  5
1E1
330
1F
100
AcDbEntity
  8
0
  6
Continuous
 62
     7
370
    25
100
AcDbLine
 10
217.4874143387
 20
92.2586412916
 30
0.0
 11
217.2707181001
 21
100.7534697281
 31
0.0
  0
LINE
  5
1E2
330
1F
100
AcDbEntity
  8
0
  6
Continuous
 62
     7
370
    25
100
AcDbLine
 10
217.2792864656
 20
101.037699733
 30
0.0
 11
218.1768544332
 21
101.037699733
 31
0.0
  0
LINE
  5
1E3
330
1F
100
AcDbEntity
  8
0
  6
Continuous
 62
     7
370
    25
100
AcDbLine
 10
218.1768544332
 20
101.037699733
 30
0.0
 11
218.3066303464
 21
98.206287395
 31
0.0
  0
LINE
  5
1E4
330
1F
100
AcDbEntity
  8
0
  6
Continuous
 62
     7
370
    25
100
AcDbLine
 10
214.8225812242
 20
101.7193758692
 30
0.0
 11
213.9250132565
 21
101.7193758692
 31
0.0
  0
SPLINE
  5
1E5
330
1F
100
AcDbEntity
  8
0
  6
Continuous
 62
     7
370
    25
100
AcDbSpline
210
0.0
220
0.0
230
1.0
 70
     8
 71
     3
 72
    11
 73
     7
 74
     0
 42
0.00000001
 43
0.00000001
 40
0.0
 40
0.0
 40
0.0
 40
0.0
 40
0.2500000000000036
 40
0.5000000000000021
 40
0.7500000000000009
 40
1.0
 40
1.0
 40
1.0
 40
1.0
 10
213.225492919377
 20
101.037699732983
 30
0.0
 10
213.2380134355996
 20
101.1275987801101
 30
0.0
 10
213.2630544680447
 20
101.3073968743641
 30
0.0
 10
213.4256979376673
 20
101.532113083599
 30
0.0
 10
213.6545176737217
 20
101.6888741686285
 30
0.0
 10
213.834848062268
 20
101.7092086356545
 30
0.0
 10
213.9250132565411
 20
101.7193758691675
 30
0.0
  0
LINE
  5
1E6
330
1F
100
AcDbEntity
  8
0
  6
Continuous
 62
     7
370
    25
100
AcDbLine
 10
217.4773340961
 20
101.7193758692
 30
0.0
 11
216.5797661285
 21
101.7193758692
 31
0.0
  0
SPLINE
  5
1E7
330
1F
100
AcDbEntity
  8
0
  6
Continuous
 62
     7
370
    25
100
AcDbSpline
210
0.0
220
0.0
230
1.0
 70
     8
 71
     3
 72
    11
 73
     7
 74
     0
 42
0.00000001
 43
0.00000001
 40
0.0
 40
0.0
 40
0.0
 40
0.0
 40
0.2499999999999999
 40
0.4999999999999992
 40
0.7500000000000028
 40
1.0
 40
1.0
 40
1.0
 40
1.0
 10
217.4773340960781
 20
101.7193758691675
 30
0.0
 10
217.5674992903512
 20
101.7092086356545
 30
0.0
 10
217.7478296788975
 20
101.6888741686285
 30
0.0
 10
217.9766494149519
 20
101.5321130835991
 30
0.0
 10
218.1392928845745
 20
101.3073968743641
 30
0.0
 10
218.1643339170196
 20
101.12759878011
 30
0.0
 10
218.1768544332422
 20
101.037699732983
 30
0.0
  0
LINE
  5
1E8
330
1F
100
AcDbEntity
  8
0
  6
Continuous
 62
     7
370
    25
100
AcDbLine
 10
212.8362252641
 20
97.7193758692
 30
0.0
 11
212.6021301303
 21
97.7193758692
 31
0.0
  0
SPLINE
  5
1E9
330
1F
100
AcDbEntity
  8
0
  6
Continuous
 62
     7
370
    25
100
AcDbSpline
210
0.0
220
0.0
230
1.0
 70
     8
 71
     3
 72
    10
 73
     6
 74
     0
 42
0.00000001
 43
0.00000001
 40
0.0
 40
0.0
 40
0.0
 40
0.0
 40
0.2383396858856105
 40
0.5716506333689656
 40
1.0
 40
1.0
 40
1.0
 40
1.0
 10
212.8426512342549
 20
97.71937586916745
 30
0.0
 10
212.9172494366818
 20
97.72833461208708
 30
0.0
 10
213.0961710019556
 20
97.74982188998281
 30
0.0
 10
213.3325151142106
 20
97.92348427293591
 30
0.0
 10
213.3910984903961
 20
98.1044911321905
 30
0.0
 10
213.4240451355332
 20
98.20628739501366
 30
0.0
  0
SPLINE
  5
1EA
330
1F
100
AcDbEntity
  8
0
  6
Continuous
 62
     7
370
    25
100
AcDbSpline
210
0.0
220
0.0
230
1.0
 70
     8
 71
     3
 72
    11
 73
     7
 74
     0
 42
0.00000001
 43
0.00000001
 40
0.0
 40
0.0
 40
0.0
 40
0.0
 40
0.250667172502349
 40
0.5010414677145716
 40
0.7508849997170931
 40
1.0
 40
1.0
 40
1.0
 40
1.0
 10
213.3485957338125
 20
92.25864129162935
 30
0.0
 10
213.3217211671573
 20
92.28814731162855
 30
0.0
 10
213.2680034338511
 20
92.34712487705613
 30
0.0
 10
212.9825379701972
 20
92.43385814586784
 30
0.0
 10
212.5610098235776
 20
92.51817917609435
 30
0.0
 10
212.1446527458806
 20
92.57076216870892
 30
0.0
 10
211.9367781695041
 20
92.59701527667775
 30
0.0
  0
SPLINE
  5
1EB
330
1F
100
AcDbEntity
  8
0
  6
Continuous
 62
     7
370
    25
100
AcDbSpline
210
0.0
220
0.0
230
1.0
 70
     8
 71
     3
 72
     9
 73
     5
 74
     0
 42
0.00000001
 43
0.00000001
 40
0.0
 40
0.0
 40
0.0
 40
0.0
 40
0.5013259021989908
 40
1.0
 40
1.0
 40
1.0
 40
1.0
 10
211.9367781161399
 20
92.59701504239052
 30
0.0
 10
211.8117354586698
 20
92.60843688950314
 30
0.0
 10
211.5623115671023
 20
92.63122016693309
 30
0.0
 10
211.260543458681
 20
92.6282822130256
 30
0.0
 10
211.1100595194689
 20
92.62681713151142
 30
0.0
  0
LINE
  5
1EC
330
1F
100
AcDbEntity
  8
0
  6
Continuous
 62
     7
370
    25
100
AcDbLine
 10
210.9952930801
 20
96.2194868751
 30
0.0
 11
211.1100682876
 21
92.6269167885
 31
0.0
  0
SPLINE
  5
1ED
330
1F
100
AcDbEntity
  8
0
  6
Continuous
 62
     7
370
    25
100
AcDbSpline
210
0.0
220
0.0
230
1.0
 70
     8
 71
     3
 72
    14
 73
    10
 74
     0
 42
0.00000001
 43
0.00000001
 40
0.0
 40
0.0
 40
0.0
 40
0.0
 40
0.0829413618596713
 40
0.1664594845668898
 40
0.2437726390188678
 40
0.3161479456895739
 40
0.4353725718192334
 40
0.64862906705142
 40
1.0
 40
1.0
 40
1.0
 40
1.0
 10
210.9952930849722
 20
96.21948686242823
 30
0.0
 10
210.9971082745546
 20
96.30935077001811
 30
0.0
 10
211.0007512762549
 20
96.48970348431143
 30
0.0
 10
211.0824124087425
 20
96.77758819509734
 30
0.0
 10
211.2156958890273
 20
97.02911422252409
 30
0.0
 10
211.404022345265
 20
97.26306355242511
 30
0.0
 10
211.7022894249272
 20
97.50387452293306
 30
0.0
 10
212.1603165837126
 20
97.69581612617247
 30
0.0
 10
212.4326521123904
 20
97.71032942979535
 30
0.0
 10
212.6021280960402
 20
97.71936114306257
 30
0.0
  0
LINE
  5
1EE
330
1F
100
AcDbEntity
  8
0
  6
Continuous
 62
     7
370
    25
100
AcDbLine
 10
220.292279065
 20
92.6269167885
 30
0.0
 11
220.4070542725
 21
96.2194868751
 31
0.0
  0
SPLINE
  5
1EF
330
1F
100
AcDbEntity
  8
0
  6
Continuous
 62
     7
370
    25
100
AcDbSpline
210
0.0
220
0.0
230
1.0
 70
     8
 71
     3
 72
     9
 73
     5
 74
     0
 42
0.00000001
 43
0.00000001
 40
0.0
 40
0.0
 40
0.0
 40
0.0
 40
0.4986740982738611
 40
1.0
 40
1.0
 40
1.0
 40
1.0
 10
220.2922880149855
 20
92.62681630210821
 30
0.0
 10
220.1418040787065
 20
92.62828138136486
 30
0.0
 10
219.8400359764531
 20
92.63121933074248
 30
0.0
 10
219.5906120848309
 20
92.60843605181077
 30
0.0
 10
219.4655694274513
 20
92.59701420395605
 30
0.0
  0
SPLINE
  5
1F0
330
1F
100
AcDbEntity
  8
0
  6
Continuous
 62
     7
370
    25
100
AcDbSpline
210
0.0
220
0.0
230
1.0
 70
     8
 71
     3
 72
    11
 73
     7
 74
     0
 42
0.00000001
 43
0.00000001
 40
0.0
 40
0.0
 40
0.0
 40
0.0
 40
0.2491150002829084
 40
0.498958532285429
 40
0.7493328274976521
 40
1.0
 40
1.0
 40
1.0
 40
1.0
 10
219.4655691831151
 20
92.59701527667775
 30
0.0
 10
219.2576946067386
 20
92.57076216870894
 30
0.0
 10
218.8413375290417
 20
92.51817917609435
 30
0.0
 10
218.419809382422
 20
92.43385814586786
 30
0.0
 10
218.1343439187681
 20
92.34712487705612
 30
0.0
 10
218.0806261854619
 20
92.28814731162853
 30
0.0
 10
218.0537516188067
 20
92.25864129162935
 30
0.0
  0
SPLINE
  5
1F1
330
1F
100
AcDbEntity
  8
0
  6
Continuous
 62
     7
370
    25
100
AcDbSpline
210
0.0
220
0.0
230
1.0
 70
     8
 71
     3
 72
    10
 73
     6
 74
     0
 42
0.00000001
 43
0.00000001
 40
0.0
 40
0.0
 40
0.0
 40
0.0
 40
0.4283493666310625
 40
0.761660314114417
 40
0.9999999999999999
 40
0.9999999999999999
 40
0.9999999999999999
 40
0.9999999999999999
 10
217.978302217086
 20
98.20628739501367
 30
0.0
 10
218.0112488622231
 20
98.10449113219052
 30
0.0
 10
218.0698322384086
 20
97.92348427293597
 30
0.0
 10
218.3061763506635
 20
97.74982188998291
 30
0.0
 10
218.4850979159373
 20
97.72833461208711
 30
0.0
 10
218.5596961183642
 20
97.71937586916745
 30
0.0
  0
LINE
  5
1F2
330
1F
100
AcDbEntity
  8
0
  6
Continuous
 62
     7
370
    25
100
AcDbLine
 10
218.5661220888
 20
97.7193758692
 30
0.0
 11
218.8002172225
 21
97.7193758692
 31
0.0
  0
SPLINE
  5
1F3
330
1F
100
AcDbEntity
  8
0
  6
Continuous
 62
     7
370
    25
100
AcDbSpline
210
0.0
220
0.0
230
1.0
 70
     8
 71
     3
 72
    15
 73
    11
 74
     0
 42
0.00000001
 43
0.00000001
 40
0.0
 40
0.0
 40
0.0
 40
0.0
 40
0.2091652517822445
 40
0.4176299509274902
 40
0.5931463878153087
 40
0.6923603779431098
 40
0.7731125739307014
 40
0.854336688096843
 40
0.9261517123972136
 40
1.0
 40
1.0
 40
1.0
 40
1.0
 10
218.8002192568104
 20
97.71936114306153
 30
0.0
 10
218.8979168892999
 20
97.71626965256306
 30
0.0
 10
219.0929849377191
 20
97.71009702582812
 30
0.0
 10
219.4422647910716
 20
97.61982356601793
 30
0.0
 10
219.7751549780151
 20
97.45121711391452
 30
0.0
 10
220.036773064051
 20
97.22176840586154
 30
0.0
 10
220.2173670769648
 20
96.9839893626052
 30
0.0
 10
220.3394612402751
 20
96.7220728657667
 30
0.0
 10
220.4035112295936
 20
96.45653129102872
 30
0.0
 10
220.4058623156316
 20
96.29923356000715
 30
0.0
 10
220.407054267645
 20
96.21948686244839
 30
0.0
  0
SPLINE
  5
1F4
330
1F
100
AcDbEntity
  8
0
  6
Continuous
 62
     7
370
    25
100
AcDbSpline
210
0.0
220
0.0
230
1.0
 70
     8
 71
     3
 72
    11
 73
     7
 74
     0
 42
0.00000001
 43
0.00000001
 40
0.0
 40
0.0
 40
0.0
 40
0.0
 40
0.2795638428304261
 40
0.5590315778757571
 40
0.7794196683313491
 40
1.0
 40
1.0
 40
1.0
 40
1.0
 10
211.9367781695041
 20
92.59701527667775
 30
0.0
 10
211.9130289933772
 20
92.33974966649693
 30
0.0
 10
211.865538805558
 20
91.82530688828759
 30
0.0
 10
212.2012258869761
 20
91.18279268904844
 30
0.0
 10
212.6799407762395
 20
90.79111938785454
 30
0.0
 10
213.0318263469088
 20
90.74329732477653
 30
0.0
 10
213.2078458349115
 20
90.71937586916754
 30
0.0
  0
SPLINE
  5
1F5
330
1F
100
AcDbEntity
  8
0
  6
Continuous
 62
     7
370
    25
100
AcDbSpline
210
0.0
220
0.0
230
1.0
 70
    24
 71
     3
 72
    11
 73
     7
 74
     0
 42
0.00000001
 43
0.00000001
 40
0.0
 40
0.0
 40
0.0
 40
0.0
 40
0.279931759629906
 40
0.5599103390525026
 40
0.7799480709991914
 40
1.0
 40
1.0
 40
1.0
 40
1.0
 10
213.2078458349115
 20
90.71937586916754
 30
0.0
 10
213.475413792351
 20
90.71937586916754
 30
0.0
 10
214.0105944591236
 20
90.71937586916752
 30
0.0
 10
214.484461252786
 20
90.71937586916755
 30
0.0
 10
214.7697110103348
 20
90.71937586916754
 30
0.0
 10
214.821615035232
 20
90.71937586916754
 30
0.0
 10
214.8475678848784
 20
90.71937586916754
 30
0.0
  0
SPLINE
  5
1F6
330
1F
100
AcDbEntity
  8
0
  6
Continuous
 62
     7
370
    25
100
AcDbSpline
210
0.0
220
0.0
230
1.0
 70
     8
 71
     3
 72
    11
 73
     7
 74
     0
 42
0.00000001
 43
0.00000001
 40
0.0
 40
0.0
 40
0.0
 40
0.0
 40
0.2795638428677822
 40
0.5590315779132445
 40
0.7794196683689394
 40
1.0
 40
1.0
 40
1.0
 40
1.0
 10
218.1945015177077
 20
90.71937586916754
 30
0.0
 10
218.418481933274
 20
90.75789472111562
 30
0.0
 10
218.8663657649284
 20
90.83491918308846
 30
0.0
 10
219.3263060000339
 20
91.36771708087814
 30
0.0
 10
219.5376804409332
 20
91.99545364774453
 30
0.0
 10
219.4896132540539
 20
92.39643646391319
 30
0.0
 10
219.4655691831151
 20
92.59701527667777
 30
0.0
  0
SPLINE
  5
1F7
330
1F
100
AcDbEntity
  8
0
  6
Continuous
 62
     7
370
    25
100
AcDbSpline
210
0.0
220
0.0
230
1.0
 70
    24
 71
     3
 72
    11
 73
     7
 74
     0
 42
0.00000001
 43
0.00000001
 40
0.0
 40
0.0
 40
0.0
 40
0.0
 40
0.2799857774483056
 40
0.5599458358671285
 40
0.7799985659009367
 40
1.0
 40
1.0
 40
1.0
 40
1.0
 10
216.5547794677408
 20
90.71937586916754
 30
0.0
 10
216.5925331873487
 20
90.71937586916754
 30
0.0
 10
216.6680371585703
 20
90.71937586916754
 30
0.0
 10
217.0495903088791
 20
90.71937586916754
 30
0.0
 10
217.5530209906922
 20
90.71937586916754
 30
0.0
 10
217.9806912928296
 20
90.71937586916754
 30
0.0
 10
218.1945015177077
 20
90.71937586916754
 30
0.0
  0
SPLINE
  5
1F8
330
1F
100
AcDbEntity
  8
0
  6
Continuous
 62
     7
370
    25
100
AcDbSpline
210
0.0
220
0.0
230
1.0
 70
     8
 71
     3
 72
    11
 73
     7
 74
     0
 42
0.00000001
 43
0.00000001
 40
0.0
 40
0.0
 40
0.0
 40
0.0
 40
0.2500000000000006
 40
0.5000000000000007
 40
0.7499999999999996
 40
1.0
 40
1.0
 40
1.0
 40
1.0
 10
218.8062877301141
 20
97.71937586916751
 30
0.0
 10
218.7418840199191
 20
97.72663817881966
 30
0.0
 10
218.6130765995289
 20
97.74116279812397
 30
0.0
 10
218.4496339309186
 20
97.85313500171644
 30
0.0
 10
218.3334600240453
 20
98.01364657974142
 30
0.0
 10
218.3155735722988
 20
98.14207378992286
 30
0.0
 10
218.3066303464255
 20
98.20628739501358
 30
0.0
  0
SPLINE
  5
1F9
330
1F
100
AcDbEntity
  8
0
  6
Continuous
 62
     7
370
    25
100
AcDbSpline
210
0.0
220
0.0
230
1.0
 70
     8
 71
     3
 72
    11
 73
     7
 74
     0
 42
0.00000001
 43
0.00000001
 40
0.0
 40
0.0
 40
0.0
 40
0.0
 40
0.2500000000000003
 40
0.4999999999999991
 40
0.7499999999999989
 40
0.9999999999999999
 40
0.9999999999999999
 40
0.9999999999999999
 40
0.9999999999999999
 10
213.0957170061937
 20
98.20628739501358
 30
0.0
 10
213.0867737803204
 20
98.14207378992286
 30
0.0
 10
213.0688873285739
 20
98.01364657974142
 30
0.0
 10
212.9527134217006
 20
97.85313500171642
 30
0.0
 10
212.7892707530903
 20
97.74116279812397
 30
0.0
 10
212.6604633327001
 20
97.72663817881967
 30
0.0
 10
212.596059622505
 20
97.71937586916751
 30
0.0
  0
SPLINE
  5
1FA
330
1F
100
AcDbEntity
  8
0
  6
Continuous
 62
     7
370
    25
100
AcDbSpline
210
0.0
220
0.0
230
1.0
 70
     8
 71
     3
 72
     9
 73
     5
 74
     0
 42
0.00000001
 43
0.00000001
 40
0.0
 40
0.0
 40
0.0
 40
0.0
 40
0.5642319118445199
 40
1.0
 40
1.0
 40
1.0
 40
1.0
 10
210.9994586313102
 20
90.54392290801842
 30
0.0
 10
211.4748902425837
 20
90.59750487674573
 30
0.0
 10
212.3175076154991
 20
90.69246931885279
 30
0.0
 10
212.9376204504042
 20
90.71120949739327
 30
0.0
 10
213.2078458349115
 20
90.71937586916754
 30
0.0
  0
SPLINE
  5
1FB
330
1F
100
AcDbEntity
  8
0
  6
Continuous
 62
     7
370
    25
100
AcDbSpline
210
0.0
220
0.0
230
1.0
 70
     8
 71
     3
 72
    13
 73
     9
 74
     0
 42
0.00000001
 43
0.00000001
 40
0.0
 40
0.0
 40
0.0
 40
0.0
 40
0.0926677825201017
 40
0.1856533156297215
 40
0.2733112842947874
 40
0.413548892575832
 40
0.6528449691515644
 40
1.0
 40
1.0
 40
1.0
 40
1.0
 10
211.110058617068
 20
92.62681638281674
 30
0.0
 10
211.1124932845191
 20
92.53258166569795
 30
0.0
 10
211.1173709677058
 20
92.34378910797447
 30
0.0
 10
211.1172964805598
 20
92.03057870375362
 30
0.0
 10
211.1109094235035
 20
91.68884456896053
 30
0.0
 10
211.0929947774067
 20
91.27199041205716
 30
0.0
 10
211.0559330366401
 20
90.78876176639427
 30
0.0
 10
211.0204582510864
 20
90.63496455604101
 30
0.0
 10
210.9994586313102
 20
90.54392290801842
 30
0.0
  0
SPLINE
  5
1FC
330
1F
100
AcDbEntity
  8
0
  6
Continuous
 62
     7
370
    25
100
AcDbSpline
210
0.0
220
0.0
230
1.0
 70
     8
 71
     3
 72
     9
 73
     5
 74
     0
 42
0.00000001
 43
0.00000001
 40
0.0
 40
0.0
 40
0.0
 40
0.0
 40
0.5551829690770671
 40
1.0
 40
1.0
 40
1.0
 40
1.0
 10
218.1945015177077
 20
90.71937586916754
 30
0.0
 10
218.5447559764558
 20
90.70637684867648
 30
0.0
 10
219.1756371062036
 20
90.68296290910143
 30
0.0
 10
220.0250537374025
 20
90.58672926974974
 30
0.0
 10
220.402888721309
 20
90.54392290801842
 30
0.0
  0
SPLINE
  5
1FD
330
1F
100
AcDbEntity
  8
0
  6
Continuous
 62
     7
370
    25
100
AcDbSpline
210
0.0
220
0.0
230
1.0
 70
     8
 71
     3
 72
    13
 73
     9
 74
     0
 42
0.00000001
 43
0.00000001
 40
0.0
 40
0.0
 40
0.0
 40
0.0
 40
0.3327087167328945
 40
0.5628656559531297
 40
0.6987124125384699
 40
0.8016200683166477
 40
0.9052998751809793
 40
0.9999999999999999
 40
0.9999999999999999
 40
0.9999999999999999
 40
0.9999999999999999
 10
220.402888721309
 20
90.54392290801842
 30
0.0
 10
220.3827558974019
 20
90.62970848293655
 30
0.0
 10
220.3486958485823
 20
90.77483769497456
 30
0.0
 10
220.3126099972121
 20
91.22520439140186
 30
0.0
 10
220.2935712741234
 20
91.62494554000772
 30
0.0
 10
220.2852977401709
 20
91.98083778641929
 30
0.0
 10
220.2846214779806
 20
92.3282716334535
 30
0.0
 10
220.2898112887484
 20
92.53035050463258
 30
0.0
 10
220.2922887355512
 20
92.62681638281674
 30
0.0
  0
SPLINE
  5
1FE
330
1F
100
AcDbEntity
  8
0
  6
Continuous
 62
     7
370
    25
100
AcDbSpline
210
0.0
220
0.0
230
1.0
 70
     8
 71
     3
 72
    12
 73
     8
 74
     0
 42
0.00000001
 43
0.00000001
 40
0.0
 40
0.0
 40
0.0
 40
0.0
 40
0.1400616260904703
 40
0.2801585537946015
 40
0.567938124810798
 40
0.7822341183891697
 40
1.0
 40
1.0
 40
1.0
 40
1.0
 10
213.4269511448047
 20
86.10725906809608
 30
0.0
 10
213.3381121236605
 20
86.42531780245479
 30
0.0
 10
213.1604116900797
 20
87.06151543578883
 30
0.0
 10
212.6859838928408
 20
88.17840047473115
 30
0.0
 10
212.0745854739189
 20
89.20737161023513
 30
0.0
 10
211.3999895465384
 20
90.05822185845783
 30
0.0
 10
211.1214540959596
 20
90.34912751271114
 30
0.0
 10
210.9810679118544
 20
90.49574847119379
 30
0.0
  0
ELLIPSE
  5
1FF
330
1F
100
AcDbEntity
  8
0
  6
Continuous
 62
     7
370
    25
100
AcDbEllipse
 10
211.1428527556
 20
71.6463686219
 30
0.0
 11
0.0
 21
19.0730072472477
 31
0.0
210
0.0
220
0.0
230
1.0
 40
0.0555555556
 41
0.1357435643135543
 42
0.1532827087060872
  0
ELLIPSE
  5
200
330
1F
100
AcDbEntity
  8
0
  6
Continuous
 62
     7
370
    25
100
AcDbEllipse
 10
220.2594945971
 20
71.6463686219
 30
0.0
 11
0.0
 21
19.0730072472477
 31
0.0
210
0.0
220
0.0
230
1.0
 40
0.0555555556
 41
6.129902598473742
 42
6.147441742866218
  0
SPLINE
  5
201
330
1F
100
AcDbEntity
  8
0
  6
Continuous
 62
     7
370
    25
100
AcDbSpline
210
0.0
220
0.0
230
1.0
 70
     8
 71
     3
 72
    12
 73
     8
 74
     0
 42
0.00000001
 43
0.00000001
 40
0.0
 40
0.0
 40
0.0
 40
0.0
 40
0.1374975366677113
 40
0.2750385788614215
 40
0.5575409445665216
 40
0.7769626822980097
 40
1.0
 40
1.0
 40
1.0
 40
1.0
 10
220.4212794407648
 20
90.49574847119379
 30
0.0
 10
220.3380035140025
 20
90.40943031682372
 30
0.0
 10
220.1714253111841
 20
90.23676669620005
 30
0.0
 10
219.7084827432061
 20
89.7041082440036
 30
0.0
 10
219.0985220744694
 20
88.85618897913335
 30
0.0
 10
218.4208834935687
 20
87.5923003033956
 30
0.0
 10
218.1246987341086
 20
86.6049621797235
 30
0.0
 10
217.9753962088626
 20
86.10725907236366
 30
0.0
  0
LINE
  5
202
330
1F
100
AcDbEntity
  8
0
  6
Continuous
 62
     7
370
    25
100
AcDbLine
 10
213.4269511448
 20
86.1072590681
 30
0.0
 11
217.9753962089
 21
86.1072590724
 31
0.0
  0
LINE
  5
203
330
1F
100
AcDbEntity
  8
0
  6
Continuous
 62
     7
370
    25
100
AcDbLine
 10
210.4767447223
 20
96.2193758692
 30
0.0
 11
210.9952823896
 21
96.2193758692
 31
0.0
  0
ARC
  5
204
330
1F
100
AcDbEntity
  8
0
  6
Continuous
 62
     7
370
    25
100
AcDbCircle
 10
204.2011736763
 20
83.8411985875
 30
0.0
 40
9.499999999999995
100
AcDbArc
 50
44.4654416734
 51
48.6553876907
  0
LINE
  5
205
330
1F
100
AcDbEntity
  8
0
  6
Continuous
 62
     7
370
    25
100
AcDbLine
 10
210.4767447223
 20
90.9733236598
 30
0.0
 11
210.4767447223
 21
96.2193758692
 31
0.0
  0
LINE
  5
206
330
1F
100
AcDbEntity
  8
0
  6
Continuous
 62
     7
370
    25
100
AcDbLine
 10
220.9256026303
 20
96.2193758692
 30
0.0
 11
220.9256026303
 21
90.9733236598
 31
0.0
  0
ARC
  5
207
330
1F
100
AcDbEntity
  8
0
  6
Continuous
 62
     7
370
    25
100
AcDbCircle
 10
227.2011736763
 20
83.8411985875
 30
0.0
 40
9.499999999999995
100
AcDbArc
 50
131.3446123093
 51
135.5345583266
  0
LINE
  5
208
330
1F
100
AcDbEntity
  8
0
  6
Continuous
 62
     7
370
    25
100
AcDbLine
 10
220.407064963
 20
96.2193758692
 30
0.0
 11
220.9256026303
 21
96.2193758692
 31
0.0
  0
ARC
  5
209
330
1F
100
AcDbEntity
  8
0
  6
Continuous
 62
     7
370
    25
100
AcDbCircle
 10
219.4267564751
 20
96.2205297153
 30
0.0
 40
1.498846599345492
100
AcDbArc
 50
359.9558924033
 51
89.9558243884
  0
LINE
  5
20A
330
1F
100
AcDbEntity
  8
0
  6
Continuous
 62
     7
370
    25
100
AcDbLine
 10
219.4279121005
 20
97.7193758692
 30
0.0
 11
218.7937049181
 21
97.7193758692
 31
0.0
  0
ARC
  5
20B
330
1F
100
AcDbEntity
  8
0
  6
Continuous
 62
     7
370
    25
100
AcDbCircle
 10
211.9755908775
 20
96.2205297153
 30
0.0
 40
1.498846599345492
100
AcDbArc
 50
90.0441756116
 51
180.0441075967
  0
LINE
  5
20C
330
1F
100
AcDbEntity
  8
0
  6
Continuous
 62
     7
370
    25
100
AcDbLine
 10
212.6086424345
 20
97.7193758692
 30
0.0
 11
211.9744352521
 21
97.7193758692
 31
0.0
  0
LINE
  5
20D
330
1F
100
AcDbEntity
  8
0
  6
Continuous
 62
     7
370
    25
100
AcDbLine
 10
213.1412290391
 20
98.1491191272
 30
0.0
 11
213.1031877916
 21
98.1969032425
 31
0.0
  0
LINE
  5
20E
330
1F
100
AcDbEntity
  8
0
  6
Continuous
 62
     7
370
    25
100
AcDbLine
 10
218.2991595611
 20
98.1969032425
 30
0.0
 11
218.2611183135
 21
98.1491191272
 31
0.0
  0
ELLIPSE
  5
20F
330
1F
100
AcDbEntity
  8
0
  6
Continuous
 62
     7
370
    25
100
AcDbEllipse
 10
216.6769224397
 20
101.0193758692
 30
0.0
 11
1.500207016110437
 21
0.02894030982645291
 31
0.0
210
0.0
220
0.0
230
1.0
 40
0.2796306798
 41
6.257897524076059
 42
6.352561004482542
  0
LINE
  5
210
330
1F
100
AcDbEntity
  8
0
  6
Continuous
 62
     7
370
    25
100
AcDbLine
 10
210.4845423638
 20
90.966421237
 30
0.0
 11
210.4767447223
 21
90.9733236598
 31
0.0
  0
LINE
  5
211
330
1F
100
AcDbEntity
  8
0
  6
Continuous
 62
     7
370
    25
100
AcDbLine
 10
220.9256026303
 20
90.9733236598
 30
0.0
 11
220.9178049889
 21
90.966421237
 31
0.0
  0
LINE
  5
212
330
1F
100
AcDbEntity
  8
0
  6
Continuous
 62
     7
370
    25
100
AcDbLine
 10
217.504401119
 20
86.1072590719
 30
0.0
 11
217.2833566195
 21
85.1206144037
 31
0.0
  0
SPLINE
  5
213
330
1F
100
AcDbEntity
  8
0
  6
Continuous
 62
     7
370
    25
100
AcDbSpline
210
0.0
220
0.0
230
1.0
 70
     8
 71
     3
 72
    10
 73
     6
 74
     0
 42
0.00000001
 43
0.00000001
 40
0.0
 40
0.0
 40
0.0
 40
0.0
 40
0.2746918501531821
 40
0.5573359346812419
 40
1.0
 40
1.0
 40
1.0
 40
1.0
 10
217.2833566194696
 20
85.12061440370461
 30
0.0
 10
216.9987358611153
 20
85.1738384468677
 30
0.0
 10
216.4212546715619
 20
85.28182735089702
 30
0.0
 10
215.3422367283951
 20
85.32361342413559
 30
0.0
 10
214.5826036839624
 20
85.19755148360505
 30
0.0
 10
214.1189907331496
 20
85.12061440370461
 30
0.0
  0
LINE
  5
214
330
1F
100
AcDbEntity
  8
0
  6
Continuous
 62
     7
370
    25
100
AcDbLine
 10
214.1189907331
 20
85.1206144037
 30
0.0
 11
213.9037559474
 21
86.1072590685
 31
0.0
  0
LINE
  5
215
330
1F
100
AcDbEntity
  8
0
  6
Continuous
 62
     7
370
    25
100
AcDbLine
 10
207.5211736763
 20
83.0193758692
 30
0.0
 11
216.7011736763
 21
83.0193758692
 31
0.0
  0
LWPOLYLINE
  5
216
330
1F
100
AcDbEntity
  8
0
  6
Continuous
 62
     7
370
    25
100
AcDbPolyline
 90
        3
 70
   128
 43
0.0
 10
207.5825284691
 20
83.0193758692
 10
207.6760121453
 20
82.0916316798
 10
207.7185410117
 20
81.6696240097
  0
LINE
  5
217
330
1F
100
AcDbEntity
  8
0
  6
Continuous
 62
     7
370
    25
100
AcDbLine
 10
216.7011736763
 20
81.6696240097
 30
0.0
 11
216.7011736763
 21
83.0193758692
 31
0.0
  0
LINE
  5
218
330
1F
100
AcDbEntity
  8
0
  6
Continuous
 62
     7
370
    25
100
AcDbLine
 10
208.1425647856
 20
99.2193758692
 30
0.0
 11
213.1413483392
 21
99.2193758692
 31
0.0
  0
LINE
  5
219
330
1F
100
AcDbEntity
  8
0
  6
Continuous
 62
     7
370
    25
100
AcDbLine
 10
218.2609990134
 20
99.2193758692
 30
0.0
 11
223.2597825597
 21
99.2193758692
 31
0.0
  0
SPLINE
  5
21A
330
1F
100
AcDbEntity
  8
0
  6
Continuous
 62
     7
370
    25
100
AcDbSpline
210
0.0
220
0.0
230
1.0
 70
     8
 71
     3
 72
    12
 73
     8
 74
     0
 42
0.00000001
 43
0.00000001
 40
0.0
 40
0.0
 40
0.0
 40
0.0
 40
0.2271543139929638
 40
0.4542742953683996
 40
0.6823371405829713
 40
0.9121899191033221
 40
1.0
 40
1.0
 40
1.0
 40
1.0
 10
207.7185410116642
 20
81.66962400965704
 30
0.0
 10
207.7296449568626
 20
81.61450420276267
 30
0.0
 10
207.7518511689839
 20
81.5042729199064
 30
0.0
 10
207.8523473805224
 20
81.36441886031798
 30
0.0
 10
207.9898096553528
 20
81.26417047123242
 30
0.0
 10
208.120783238709
 20
81.22324178065767
 30
0.0
 10
208.1986762225238
 20
81.22021307916835
 30
0.0
 10
208.2202078212212
 20
81.21937586916754
 30
0.0
  0
LINE
  5
21B
330
1F
100
AcDbEntity
  8
0
  6
Continuous
 62
     7
370
    25
100
AcDbLine
 10
223.2486798953
 20
81.2193758692
 30
0.0
 11
216.7011736763
 21
81.2193758692
 31
0.0
  0
SPLINE
  5
21C
330
1F
100
AcDbEntity
  8
0
  6
Continuous
 62
     7
370
    25
100
AcDbSpline
210
0.0
220
0.0
230
1.0
 70
    24
 71
     3
 72
    12
 73
     8
 74
     0
 42
0.00000001
 43
0.00000001
 40
0.0
 40
0.0
 40
0.0
 40
0.0
 40
0.2316347876629373
 40
0.4633066480819597
 40
0.6939442291381478
 40
0.9227406525226348
 40
0.9999999999999999
 40
0.9999999999999999
 40
0.9999999999999999
 40
0.9999999999999999
 10
216.7011736763096
 20
81.21937586916754
 30
0.0
 10
216.7011736763096
 20
81.22496533419782
 30
0.0
 10
216.7011736763096
 20
81.23614515884279
 30
0.0
 10
216.7011736763096
 20
81.32346822479845
 30
0.0
 10
216.7011736763096
 20
81.4517783985805
 30
0.0
 10
216.7011736763096
 20
81.57645782527831
 30
0.0
 10
216.7011736763096
 20
81.65084583403161
 30
0.0
 10
216.7011736763096
 20
81.66962400965704
 30
0.0
  0
SPLINE
  5
21D
330
1F
100
AcDbEntity
  8
0
  6
Continuous
 62
     7
370
    25
100
AcDbSpline
210
0.0
220
0.0
230
1.0
 70
     8
 71
     3
 72
    11
 73
     7
 74
     0
 42
0.00000001
 43
0.00000001
 40
0.0
 40
0.0
 40
0.0
 40
0.0
 40
0.298199512551763
 40
0.5964325929955625
 40
0.8933636912282921
 40
1.0
 40
1.0
 40
1.0
 40
1.0
 10
209.78509389321
 20
81.21937586916754
 30
0.0
 10
209.9011163848184
 20
81.23057263477315
 30
0.0
 10
210.1331744285208
 20
81.25296742638827
 30
0.0
 10
210.435078278689
 20
81.43231635253237
 30
0.0
 10
210.6350254071089
 20
81.63046304610168
 30
0.0
 10
210.6873482041676
 20
81.77807946795319
 30
0.0
 10
210.7011736763096
 20
81.81708477429638
 30
0.0
  0
LINE
  5
21E
330
1F
100
AcDbEntity
  8
0
  6
Continuous
 62
     7
370
    25
100
AcDbLine
 10
210.7011736763
 20
81.2193758692
 30
0.0
 11
209.7850938932
 21
81.2193758692
 31
0.0
  0
LINE
  5
21F
330
1F
100
AcDbEntity
  8
0
  6
Continuous
 62
     7
370
    25
100
AcDbLine
 10
208.2202078212
 20
81.2193758692
 30
0.0
 11
209.7850938932
 21
81.2193758692
 31
0.0
  0
LINE
  5
220
330
1F
100
AcDbEntity
  8
0
  6
Continuous
 62
     7
370
    25
100
AcDbLine
 10
214.9011736763
 20
82.7193758692
 30
0.0
 11
216.5011736763
 21
82.7193758692
 31
0.0
  0
LINE
  5
221
330
1F
100
AcDbEntity
  8
0
  6
Continuous
 62
     7
370
    25
100
AcDbLine
 10
207.4511736763
 20
74.7693758692
 30
0.0
 11
213.7734566288
 21
74.7693758692
 31
0.0
  0
LINE
  5
222
330
1F
100
AcDbEntity
  8
0
  6
Continuous
 62
     7
370
    25
100
AcDbLine
 10
217.6289079478
 20
74.7693758692
 30
0.0
 11
223.9511736763
 21
74.7693758692
 31
0.0
  0
SPLINE
  5
223
330
1F
100
AcDbEntity
  8
0
  6
Continuous
 62
     7
370
    25
100
AcDbSpline
210
0.0
220
0.0
230
1.0
 70
     8
 71
     3
 72
    11
 73
     7
 74
     0
 42
0.00000001
 43
0.00000001
 40
0.0
 40
0.0
 40
0.0
 40
0.0
 40
0.2843931288920268
 40
0.5687862577840551
 40
0.8531793866760874
 40
1.0
 40
1.0
 40
1.0
 40
1.0
 10
217.2792864656231
 20
101.037699732983
 30
0.0
 10
217.2668199420077
 20
101.1277623538315
 30
0.0
 10
217.2418868947769
 20
101.3078875955284
 30
0.0
 10
217.0784335360467
 20
101.530150198942
 30
0.0
 10
216.8890915975405
 20
101.6694543320791
 30
0.0
 10
216.7534420465617
 20
101.6880947574186
 30
0.0
 10
216.7072557859628
 20
101.6944414908666
 30
0.0
  0
LINE
  5
224
330
1F
100
AcDbEntity
  8
0
  6
Continuous
 62
     7
370
    25
100
AcDbLine
 10
213.1031877916
 20
98.1969032425
 30
0.0
 11
213.0957170062
 21
98.206287395
 31
0.0
  0
ELLIPSE
  5
225
330
1F
100
AcDbEntity
  8
0
  6
Continuous
 62
     7
370
    25
100
AcDbEllipse
 10
214.7254249129
 20
101.0193758692
 30
0.0
 11
1.500207016110437
 21
-0.02894030982645291
 31
0.0
210
0.0
220
0.0
230
1.0
 40
0.2796306798
 41
3.07224830439137
 42
3.16688043669342
  0
LINE
  5
226
330
1F
100
AcDbEntity
  8
0
  6
Continuous
 62
     7
370
    25
100
AcDbLine
 10
210.4767447223
 20
96.2193758692
 30
0.0
 11
210.4744352521
 21
96.2193758692
 31
0.0
  0
LINE
  5
227
330
1F
100
AcDbEntity
  8
0
  6
Continuous
 62
     7
370
    25
100
AcDbLine
 10
220.9279121005
 20
96.2193758692
 30
0.0
 11
220.9256026303
 21
96.2193758692
 31
0.0
  0
LINE
  5
228
330
1F
100
AcDbEntity
  8
0
  6
Continuous
 62
     7
370
    25
100
AcDbLine
 10
210.4744352521
 20
91.1074514549
 30
0.0
 11
206.7123661177
 21
91.1074514549
 31
0.0
  0
LINE
  5
229
330
1F
100
AcDbEntity
  8
0
  6
Continuous
 62
     7
370
    25
100
AcDbLine
 10
224.6899812349
 20
91.1074514549
 30
0.0
 11
220.9279121005
 21
91.1074514549
 31
0.0
  0
LINE
  5
22A
330
1F
100
AcDbEntity
  8
0
  6
Continuous
 62
     7
370
    25
100
AcDbLine
 10
216.7011736763
 20
81.6696240097
 30
0.0
 11
223.7461984904
 21
81.6696240097
 31
0.0
  0
LINE
  5
22B
330
1F
100
AcDbEntity
  8
0
  6
Continuous
 62
     7
370
    25
100
AcDbLine
 10
220.9279121005
 20
91.3309899085
 30
0.0
 11
224.6872219214
 21
91.3309899085
 31
0.0
  0
LINE
  5
22C
330
1F
100
AcDbEntity
  8
0
  6
Continuous
 62
     7
370
    25
100
AcDbLine
 10
206.7151254312
 20
91.3309899085
 30
0.0
 11
210.4744352521
 21
91.3309899085
 31
0.0
  0
LINE
  5
22D
330
1F
100
AcDbEntity
  8
0
  6
Continuous
 62
     7
370
    25
100
AcDbLine
 10
223.7559215054
 20
98.7813932365
 30
0.0
 11
218.2810736579
 21
98.7813932365
 31
0.0
  0
LINE
  5
22E
330
1F
100
AcDbEntity
  8
0
  6
Continuous
 62
     7
370
    25
100
AcDbLine
 10
213.1212736947
 20
98.7813932365
 30
0.0
 11
207.6464258472
 21
98.7813932365
 31
0.0
  0
LINE
  5
22F
330
1F
100
AcDbEntity
  8
0
  6
Continuous
 62
     7
370
    25
100
AcDbLine
 10
216.7011736763
 20
82.5193758692
 30
0.0
 11
214.7011736763
 21
82.5193758692
 31
0.0
  0
INSERT
  5
23B
330
1F
100
AcDbEntity
  8
0
  6
Continuous
 62
     7
370
    18
100
AcDbBlockReference
  2
SW_CENTERMARKSYMBOL_0
 10
215.7011736763
 20
62.0193758692
 30
0.0
  0
LINE
  5
23C
330
1F
100
AcDbEntity
  8
0
  6
Continuous
 62
     7
370
    25
100
AcDbLine
 10
115.7884809312
 20
130.4845401031
 30
0.0
 11
116.2884809312
 21
130.4845401031
 31
0.0
  0
LINE
  5
23D
330
1F
100
AcDbEntity
  8
0
  6
Continuous
 62
     7
370
    25
100
AcDbLine
 10
116.2884809312
 20
146.4845401031
 30
0.0
 11
115.7884809312
 21
146.4845401031
 31
0.0
  0
LINE
  5
23E
330
1F
100
AcDbEntity
  8
0
  6
Continuous
 62
     7
370
    25
100
AcDbLine
 10
96.2884809312
 20
145.4845401031
 30
0.0
 11
91.7884809312
 21
144.4845401031
 31
0.0
  0
LINE
  5
23F
330
1F
100
AcDbEntity
  8
0
  6
Continuous
 62
     7
370
    25
100
AcDbLine
 10
91.7884809312
 20
132.4845401031
 30
0.0
 11
96.2884809312
 21
131.4845401031
 31
0.0
  0
LINE
  5
240
330
1F
100
AcDbEntity
  8
0
  6
Continuous
 62
     7
370
    25
100
AcDbLine
 10
100.7884809312
 20
145.4845401031
 30
0.0
 11
96.2884809312
 21
144.4845401031
 31
0.0
  0
LINE
  5
241
330
1F
100
AcDbEntity
  8
0
  6
Continuous
 62
     7
370
    25
100
AcDbLine
 10
96.2884809312
 20
132.4845401031
 30
0.0
 11
100.7884809312
 21
131.4845401031
 31
0.0
  0
LINE
  5
242
330
1F
100
AcDbEntity
  8
0
  6
Continuous
 62
     7
370
    25
100
AcDbLine
 10
109.7884809312
 20
145.4845401031
 30
0.0
 11
105.2884809312
 21
144.4845401031
 31
0.0
  0
LINE
  5
243
330
1F
100
AcDbEntity
  8
0
  6
Continuous
 62
     7
370
    25
100
AcDbLine
 10
105.2884809312
 20
132.4845401031
 30
0.0
 11
109.7884809312
 21
131.4845401031
 31
0.0
  0
LINE
  5
244
330
1F
100
AcDbEntity
  8
0
  6
Continuous
 62
     7
370
    25
100
AcDbLine
 10
109.7884809312
 20
131.4845401031
 30
0.0
 11
115.7884809312
 21
131.4845401031
 31
0.0
  0
LINE
  5
245
330
1F
100
AcDbEntity
  8
0
  6
Continuous
 62
     7
370
    25
100
AcDbLine
 10
115.7884809312
 20
145.4845401031
 30
0.0
 11
109.7884809312
 21
145.4845401031
 31
0.0
  0
LINE
  5
246
330
1F
100
AcDbEntity
  8
0
  6
Continuous
 62
     7
370
    25
100
AcDbLine
 10
105.2884809312
 20
145.4845401031
 30
0.0
 11
100.7884809312
 21
144.4845401031
 31
0.0
  0
LINE
  5
247
330
1F
100
AcDbEntity
  8
0
  6
Continuous
 62
     7
370
    25
100
AcDbLine
 10
100.7884809312
 20
132.4845401031
 30
0.0
 11
105.2884809312
 21
131.4845401031
 31
0.0
  0
LINE
  5
248
330
1F
100
AcDbEntity
  8
0
  6
Continuous
 62
     7
370
    25
100
AcDbLine
 10
91.7884809312
 20
145.4845401031
 30
0.0
 11
86.0330263857
 21
144.5990855576
 31
0.0
  0
LINE
  5
249
330
1F
100
AcDbEntity
  8
0
  6
Continuous
 62
     7
370
    25
100
AcDbLine
 10
86.0330263857
 20
132.3699946485
 30
0.0
 11
91.7884809312
 21
131.4845401031
 31
0.0
  0
LINE
  5
24A
330
1F
100
AcDbEntity
  8
0
  6
Continuous
 62
     7
370
    25
100
AcDbLine
 10
86.0330263857
 20
144.5990855576
 30
0.0
 11
85.2884809312
 21
143.8545401031
 31
0.0
  0
LINE
  5
24B
330
1F
100
AcDbEntity
  8
0
  6
Continuous
 62
     7
370
    25
100
AcDbLine
 10
85.2884809312
 20
133.1145401031
 30
0.0
 11
86.0330263857
 21
132.3699946485
 31
0.0
  0
LINE
  5
24C
330
1F
100
AcDbEntity
  8
0
  6
Continuous
 62
     7
370
    25
100
AcDbLine
 10
118.4328184985
 20
150.4845401031
 30
0.0
 11
118.2884809312
 21
150.2345401031
 31
0.0
  0
LINE
  5
24D
330
1F
100
AcDbEntity
  8
0
  6
Continuous
 62
     7
370
    25
100
AcDbLine
 10
118.2884809312
 20
126.7345401031
 30
0.0
 11
118.4328184985
 21
126.4845401031
 31
0.0
  0
LINE
  5
24E
330
1F
100
AcDbEntity
  8
0
  6
Continuous
 62
     7
370
    25
100
AcDbLine
 10
130.1441433639
 20
126.4845401031
 30
0.0
 11
130.2884809312
 21
126.7345401031
 31
0.0
  0
LINE
  5
24F
330
1F
100
AcDbEntity
  8
0
  6
Continuous
 62
     7
370
    25
100
AcDbLine
 10
130.2884809312
 20
150.2345401031
 30
0.0
 11
130.1441433639
 21
150.4845401031
 31
0.0
  0
LINE
  5
250
330
1F
100
AcDbEntity
  8
0
  6
Continuous
 62
     7
370
    25
100
AcDbLine
 10
118.2884809312
 20
150.2345401031
 30
0.0
 11
116.7884809312
 21
150.2345401031
 31
0.0
  0
LINE
  5
251
330
1F
100
AcDbEntity
  8
0
  6
Continuous
 62
     7
370
    25
100
AcDbLine
 10
116.7884809312
 20
126.7345401031
 30
0.0
 11
118.2884809312
 21
126.7345401031
 31
0.0
  0
LINE
  5
252
330
1F
100
AcDbEntity
  8
0
  6
Continuous
 62
     7
370
    25
100
AcDbLine
 10
130.2884809312
 20
126.7345401031
 30
0.0
 11
131.7884809312
 21
126.7345401031
 31
0.0
  0
LINE
  5
253
330
1F
100
AcDbEntity
  8
0
  6
Continuous
 62
     7
370
    25
100
AcDbLine
 10
131.7884809312
 20
150.2345401031
 30
0.0
 11
130.2884809312
 21
150.2345401031
 31
0.0
  0
LINE
  5
254
330
1F
100
AcDbEntity
  8
0
  6
Continuous
 62
     7
370
    25
100
AcDbLine
 10
131.7884809312
 20
126.7345401031
 30
0.0
 11
132.2884809312
 21
127.2345401031
 31
0.0
  0
LINE
  5
255
330
1F
100
AcDbEntity
  8
0
  6
Continuous
 62
     7
370
    25
100
AcDbLine
 10
132.2884809312
 20
149.7345401031
 30
0.0
 11
131.7884809312
 21
150.2345401031
 31
0.0
  0
LINE
  5
256
330
1F
100
AcDbEntity
  8
0
  6
Continuous
 62
     7
370
    25
100
AcDbLine
 10
116.7884809312
 20
150.2345401031
 30
0.0
 11
116.2884809312
 21
149.7345401031
 31
0.0
  0
LINE
  5
257
330
1F
100
AcDbEntity
  8
0
  6
Continuous
 62
     7
370
    25
100
AcDbLine
 10
116.2884809312
 20
127.2345401031
 30
0.0
 11
116.7884809312
 21
126.7345401031
 31
0.0
  0
LINE
  5
258
330
1F
100
AcDbEntity
  8
0
  6
Continuous
 62
     7
370
    25
100
AcDbLine
 10
136.6724555274
 20
150.4845401031
 30
0.0
 11
136.4224555274
 21
150.2345401031
 31
0.0
  0
LINE
  5
259
330
1F
100
AcDbEntity
  8
0
  6
Continuous
 62
     7
370
    25
100
AcDbLine
 10
136.4224555274
 20
126.7345401031
 30
0.0
 11
136.6724555274
 21
126.4845401031
 31
0.0
  0
LINE
  5
25A
330
1F
100
AcDbEntity
  8
0
  6
Continuous
 62
     7
370
    25
100
AcDbLine
 10
139.4224555274
 20
150.4845401031
 30
0.0
 11
136.6724555274
 21
150.4845401031
 31
0.0
  0
LINE
  5
25B
330
1F
100
AcDbEntity
  8
0
  6
Continuous
 62
     7
370
    25
100
AcDbLine
 10
136.6724555274
 20
126.4845401031
 30
0.0
 11
139.4224555274
 21
126.4845401031
 31
0.0
  0
LINE
  5
25C
330
1F
100
AcDbEntity
  8
0
  6
Continuous
 62
     7
370
    25
100
AcDbLine
 10
132.9224555274
 20
128.0070401031
 30
0.0
 11
133.9224555274
 21
129.0070401031
 31
0.0
  0
LINE
  5
25D
330
1F
100
AcDbEntity
  8
0
  6
Continuous
 62
     7
370
    25
100
AcDbLine
 10
133.9224555274
 20
147.9620401031
 30
0.0
 11
132.9224555274
 21
148.9620401031
 31
0.0
  0
LINE
  5
25E
330
1F
100
AcDbEntity
  8
0
  6
Continuous
 62
     7
370
    25
100
AcDbLine
 10
132.9224555274
 20
148.9620401031
 30
0.0
 11
132.2884809312
 21
148.9620401031
 31
0.0
  0
LINE
  5
25F
330
1F
100
AcDbEntity
  8
0
  6
Continuous
 62
     7
370
    25
100
AcDbLine
 10
132.2884809312
 20
128.0070401031
 30
0.0
 11
132.9224555274
 21
128.0070401031
 31
0.0
  0
LINE
  5
260
330
1F
100
AcDbEntity
  8
0
  6
Continuous
 62
     7
370
    25
100
AcDbLine
 10
136.4224555274
 20
147.4845401031
 30
0.0
 11
133.9224555274
 21
147.4845401031
 31
0.0
  0
LINE
  5
261
330
1F
100
AcDbEntity
  8
0
  6
Continuous
 62
     7
370
    25
100
AcDbLine
 10
133.9224555274
 20
129.4845401031
 30
0.0
 11
136.4224555274
 21
129.4845401031
 31
0.0
  0
LINE
  5
262
330
1F
100
AcDbEntity
  8
0
  6
Continuous
 62
     7
370
    25
100
AcDbLine
 10
164.9224555274
 20
127.7932901031
 30
0.0
 11
177.2260642545
 21
128.1777778758
 31
0.0
  0
LINE
  5
263
330
1F
100
AcDbEntity
  8
0
  6
Continuous
 62
     7
370
    25
100
AcDbLine
 10
177.2260642545
 20
148.7913023303
 30
0.0
 11
164.9224555274
 21
149.1757901031
 31
0.0
  0
LINE
  5
264
330
1F
100
AcDbEntity
  8
0
  6
Continuous
 62
     7
370
    25
100
AcDbLine
 10
177.2260642545
 20
128.1777778758
 30
0.0
 11
179.9224555274
 21
129.7345401031
 31
0.0
  0
LINE
  5
265
330
1F
100
AcDbEntity
  8
0
  6
Continuous
 62
     7
370
    25
100
AcDbLine
 10
179.9224555274
 20
147.2345401031
 30
0.0
 11
177.2260642545
 21
148.7913023303
 31
0.0
  0
LINE
  5
266
330
1F
100
AcDbEntity
  8
0
  6
Continuous
 62
     7
370
    25
100
AcDbLine
 10
101.8786301353
 20
137.6145110207
 30
0.0
 11
101.8960491257
 21
137.6145110206
 31
0.0
  0
LINE
  5
267
330
1F
100
AcDbEntity
  8
0
  6
Continuous
 62
     7
370
    25
100
AcDbLine
 10
130.4568032048
 20
143.0796984625
 30
0.0
 11
129.264563148
 21
142.2857252242
 31
0.0
  0
LINE
  5
268
330
1F
100
AcDbEntity
  8
0
  6
Continuous
 62
     7
370
    25
100
AcDbLine
 10
129.2645630887
 20
134.6833548745
 30
0.0
 11
130.4611823608
 21
133.886465352
 31
0.0
  0
SPLINE
  5
269
330
1F
100
AcDbEntity
  8
0
  6
Continuous
 62
     7
370
    25
100
AcDbSpline
210
0.0
220
0.0
230
1.0
 70
     8
 71
     3
 72
    11
 73
     7
 74
     0
 42
0.00000001
 43
0.00000001
 40
0.0
 40
0.0
 40
0.0
 40
0.0
 40
0.2485427336868733
 40
0.4982459407376392
 40
0.748834762140144
 40
1.0
 40
1.0
 40
1.0
 40
1.0
 10
129.2644833059659
 20
142.2858699402206
 30
0.0
 10
128.8432031629098
 20
142.0721047067654
 30
0.0
 10
127.9986758734679
 20
141.6435761464653
 30
0.0
 10
126.6420703062338
 20
141.204882184852
 30
0.0
 10
125.2439732001073
 20
140.9039532403579
 30
0.0
 10
124.2926173011266
 20
140.8426725562452
 30
0.0
 10
123.8163928914862
 20
140.8119970144788
 30
0.0
  0
SPLINE
  5
26A
330
1F
100
AcDbEntity
  8
0
  6
Continuous
 62
     7
370
    25
100
AcDbSpline
210
0.0
220
0.0
230
1.0
 70
     8
 71
     3
 72
    10
 73
     6
 74
     0
 42
0.00000001
 43
0.00000001
 40
0.0
 40
0.0
 40
0.0
 40
0.0
 40
0.0711023749285973
 40
0.5366329433438183
 40
1.0
 40
1.0
 40
1.0
 40
1.0
 10
126.4249682186226
 20
135.7846341458693
 30
0.0
 10
126.495942610976
 20
135.7704077922666
 30
0.0
 10
127.0316096278497
 20
135.6630368357478
 30
0.0
 10
127.9968848431335
 20
135.316547136067
 30
0.0
 10
128.8426070805231
 20
134.8939944977084
 30
0.0
 10
129.2644833059659
 20
134.6832102659117
 30
0.0
  0
LINE
  5
26B
330
1F
100
AcDbEntity
  8
0
  6
Continuous
 62
     7
370
    25
100
AcDbLine
 10
123.8157216189
 20
140.837631882
 30
0.0
 11
102.1613305891
 21
140.2705916968
 31
0.0
  0
LINE
  5
26C
330
1F
100
AcDbEntity
  8
0
  6
Continuous
 62
     7
370
    25
100
AcDbLine
 10
102.1613341076
 20
136.6984884172
 30
0.0
 11
123.8157216189
 21
136.1314483242
 31
0.0
  0
SPLINE
  5
26D
330
1F
100
AcDbEntity
  8
0
  6
Continuous
 62
     7
370
    25
100
AcDbSpline
210
0.0
220
0.0
230
1.0
 70
     8
 71
     3
 72
    12
 73
     8
 74
     0
 42
0.00000001
 43
0.00000001
 40
0.0
 40
0.0
 40
0.0
 40
0.0
 40
0.1188618733510494
 40
0.3398700396864537
 40
0.6125520939727969
 40
0.8625977402820827
 40
1.0
 40
1.0
 40
1.0
 40
1.0
 10
97.1228147444371
 20
137.3994929049454
 30
0.0
 10
97.1389486405224
 20
137.3652686340014
 30
0.0
 10
97.18508141420513
 20
137.2674087905037
 30
0.0
 10
97.32173741248805
 20
137.1295132793165
 30
0.0
 10
97.5136769431436
 20
137.0079234781129
 30
0.0
 10
97.71085044222008
 20
136.9318901710078
 30
0.0
 10
97.83805660776224
 20
136.9247446246335
 30
0.0
 10
97.88316825844778
 20
136.9222105698523
 30
0.0
  0
SPLINE
  5
26E
330
1F
100
AcDbEntity
  8
0
  6
Continuous
 62
     7
370
    25
100
AcDbSpline
210
0.0
220
0.0
230
1.0
 70
     8
 71
     3
 72
    12
 73
     8
 74
     0
 42
0.00000001
 43
0.00000001
 40
0.0
 40
0.0
 40
0.0
 40
0.0
 40
0.0692840470964001
 40
0.2376447237444098
 40
0.4633991284592999
 40
0.7715848328699918
 40
1.0
 40
1.0
 40
1.0
 40
1.0
 10
97.88292487138983
 20
140.0480903070574
 30
0.0
 10
97.86024143803398
 20
140.0479942470434
 30
0.0
 10
97.78243711684698
 20
140.0476647605828
 30
0.0
 10
97.63653693691853
 20
140.0075381684334
 30
0.0
 10
97.43776026381218
 20
139.9222803532206
 30
0.0
 10
97.24334084393209
 20
139.7815085149035
 30
0.0
 10
97.15807179920894
 20
139.6339175579976
 30
0.0
 10
97.12177528137897
 20
139.5710924399694
 30
0.0
  0
SPLINE
  5
26F
330
1F
100
AcDbEntity
  8
0
  6
Continuous
 62
     7
370
    25
100
AcDbSpline
210
0.0
220
0.0
230
1.0
 70
     8
 71
     3
 72
    10
 73
     6
 74
     0
 42
0.00000001
 43
0.00000001
 40
0.0
 40
0.0
 40
0.0
 40
0.0
 40
0.2330035446244546
 40
0.6482306229999785
 40
1.0
 40
1.0
 40
1.0
 40
1.0
 10
97.11784254646481
 20
139.5729700418663
 30
0.0
 10
97.09034714415608
 20
139.5104109053622
 30
0.0
 10
97.01385319297198
 20
139.3363674241965
 30
0.0
 10
96.93859395716487
 20
139.0223798943576
 30
0.0
 10
96.9275298738212
 20
138.764333923935
 30
0.0
 10
96.92245552741765
 20
138.6459856973992
 30
0.0
  0
SPLINE
  5
270
330
1F
100
AcDbEntity
  8
0
  6
Continuous
 62
     7
370
    25
100
AcDbSpline
210
0.0
220
0.0
230
1.0
 70
     8
 71
     3
 72
    10
 73
     6
 74
     0
 42
0.00000001
 43
0.00000001
 40
0.0
 40
0.0
 40
0.0
 40
0.0
 40
0.2078306138119136
 40
0.6062078816204212
 40
1.0
 40
1.0
 40
1.0
 40
1.0
 10
96.92245552741765
 20
138.323094508733
 30
0.0
 10
96.92430030525055
 20
138.2532983221611
 30
0.0
 10
96.92968122022569
 20
138.0497142705583
 30
0.0
 10
96.98374831698547
 20
137.7216752903635
 30
0.0
 10
97.07331728111195
 20
137.5042123077021
 30
0.0
 10
97.11784254646483
 20
137.3961101642659
 30
0.0
  0
LINE
  5
271
330
1F
100
AcDbEntity
  8
0
  6
Continuous
 62
     7
370
    25
100
AcDbLine
 10
96.9224555274
 20
138.6459856974
 30
0.0
 11
96.9224555274
 21
138.3230945087
 31
0.0
  0
ARC
  5
272
330
1F
100
AcDbEntity
  8
0
  6
Continuous
 62
     7
370
    25
100
AcDbCircle
 10
152.4224555274
 20
138.4845401031
 30
0.0
 40
8.993770368365603
100
AcDbArc
 50
200.7433676295
 51
90.0
  0
ARC
  5
273
330
1F
100
AcDbEntity
  8
0
  6
Continuous
 62
     7
370
    25
100
AcDbCircle
 10
152.4224555274
 20
138.4845401031
 30
0.0
 40
8.993770368365603
100
AcDbArc
 50
90.0
 51
159.2621713518
  0
LINE
  5
274
330
1F
100
AcDbEntity
  8
0
  6
Continuous
 62
     7
370
    25
100
AcDbLine
 10
115.7884809312
 20
130.4845401031
 30
0.0
 11
115.7884809312
 21
136.3416490192
 31
0.0
  0
LINE
  5
275
330
1F
100
AcDbEntity
  8
0
  6
Continuous
 62
     7
370
    25
100
AcDbLine
 10
115.7884809312
 20
140.6274311869
 30
0.0
 11
115.7884809312
 21
146.4845401031
 31
0.0
  0
LINE
  5
276
330
1F
100
AcDbEntity
  8
0
  6
Continuous
 62
     7
370
    25
100
AcDbLine
 10
96.2884809312
 20
131.4845401031
 30
0.0
 11
96.2884809312
 21
145.4845401031
 31
0.0
  0
LINE
  5
277
330
1F
100
AcDbEntity
  8
0
  6
Continuous
 62
     7
370
    25
100
AcDbLine
 10
100.7884809312
 20
131.4845401031
 30
0.0
 11
100.7884809312
 21
136.765746073
 31
0.0
  0
LINE
  5
278
330
1F
100
AcDbEntity
  8
0
  6
Continuous
 62
     7
370
    25
100
AcDbLine
 10
100.7884809312
 20
140.2033341332
 30
0.0
 11
100.7884809312
 21
145.4845401031
 31
0.0
  0
LINE
  5
279
330
1F
100
AcDbEntity
  8
0
  6
Continuous
 62
     7
370
    25
100
AcDbLine
 10
109.7884809312
 20
131.4845401031
 30
0.0
 11
109.7884809312
 21
136.4987645487
 31
0.0
  0
LINE
  5
27A
330
1F
100
AcDbEntity
  8
0
  6
Continuous
 62
     7
370
    25
100
AcDbLine
 10
109.7884809312
 20
140.4703156575
 30
0.0
 11
109.7884809312
 21
145.4845401031
 31
0.0
  0
LINE
  5
27B
330
1F
100
AcDbEntity
  8
0
  6
Continuous
 62
     7
370
    25
100
AcDbLine
 10
105.2884809312
 20
131.4845401031
 30
0.0
 11
105.2884809312
 21
136.6166011957
 31
0.0
  0
LINE
  5
27C
330
1F
100
AcDbEntity
  8
0
  6
Continuous
 62
     7
370
    25
100
AcDbLine
 10
105.2884809312
 20
140.3524790104
 30
0.0
 11
105.2884809312
 21
145.4845401031
 31
0.0
  0
LINE
  5
27D
330
1F
100
AcDbEntity
  8
0
  6
Continuous
 62
     7
370
    25
100
AcDbLine
 10
86.0330263857
 20
144.5990855576
 30
0.0
 11
86.0330263857
 21
132.3699946485
 31
0.0
  0
LINE
  5
27E
330
1F
100
AcDbEntity
  8
0
  6
Continuous
 62
     7
370
    25
100
AcDbLine
 10
91.7884809312
 20
131.4845401031
 30
0.0
 11
91.7884809312
 21
145.4845401031
 31
0.0
  0
LINE
  5
27F
330
1F
100
AcDbEntity
  8
0
  6
Continuous
 62
     7
370
    25
100
AcDbLine
 10
85.2884809312
 20
133.1145401031
 30
0.0
 11
85.2884809312
 21
143.8545401031
 31
0.0
  0
SPLINE
  5
280
330
1F
100
AcDbEntity
  8
0
  6
Continuous
 62
     7
370
    25
100
AcDbSpline
210
0.0
220
0.0
230
1.0
 70
     8
 71
     3
 72
    12
 73
     8
 74
     0
 42
0.00000001
 43
0.00000001
 40
0.0
 40
0.0
 40
0.0
 40
0.0
 40
0.0945674924736483
 40
0.261111410016244
 40
0.4276252742448051
 40
0.7111902400298417
 40
1.0
 40
1.0
 40
1.0
 40
1.0
 10
118.8923384283006
 20
136.2603716502545
 30
0.0
 10
118.8206214657802
 20
135.9547490772126
 30
0.0
 10
118.6226029213953
 20
135.1108910146546
 30
0.0
 10
118.4567113200101
 20
133.7053507689502
 30
0.0
 10
118.3985657607885
 20
131.6718261799591
 30
0.0
 10
118.6773594464843
 20
129.2347701299365
 30
0.0
 10
119.2271839404762
 20
127.4068666046336
 30
0.0
 10
119.504615268224
 20
126.4845401030662
 30
0.0
  0
SPLINE
  5
281
330
1F
100
AcDbEntity
  8
0
  6
Continuous
 62
     7
370
    25
100
AcDbSpline
210
0.0
220
0.0
230
1.0
 70
    24
 71
     3
 72
    10
 73
     6
 74
     0
 42
0.00000001
 43
0.00000001
 40
0.0
 40
0.0
 40
0.0
 40
0.0
 40
0.5012215560354568
 40
0.7568077730922337
 40
1.0
 40
1.0
 40
1.0
 40
1.0
 10
119.504615268224
 20
126.4845401030662
 30
0.0
 10
119.2102535117366
 20
126.4845401030662
 30
0.0
 10
118.7657888578761
 20
126.4845401030662
 30
0.0
 10
118.4757984127412
 20
126.4845401030662
 30
0.0
 10
118.4493108570811
 20
126.4845401030662
 30
0.0
 10
118.43639616976
 20
126.4845401030662
 30
0.0
  0
SPLINE
  5
282
330
1F
100
AcDbEntity
  8
0
  6
Continuous
 62
     7
370
    25
100
AcDbSpline
210
0.0
220
0.0
230
1.0
 70
    24
 71
     3
 72
    11
 73
     7
 74
     0
 42
0.00000001
 43
0.00000001
 40
0.0
 40
0.0
 40
0.0
 40
0.0
 40
0.0123501242321847
 40
0.2567085564291928
 40
0.50110728216611
 40
1.0
 40
1.0
 40
1.0
 40
1.0
 10
118.43639616976
 20
150.4845401030661
 30
0.0
 10
118.4352105545138
 20
150.4845401030661
 30
0.0
 10
118.4105664640896
 20
150.4845401030661
 30
0.0
 10
118.500301144701
 20
150.4845401030662
 30
0.0
 10
118.7647147301849
 20
150.4845401030662
 30
0.0
 10
119.2074524144233
 20
150.4845401030662
 30
0.0
 10
119.504615268224
 20
150.4845401030662
 30
0.0
  0
SPLINE
  5
283
330
1F
100
AcDbEntity
  8
0
  6
Continuous
 62
     7
370
    25
100
AcDbSpline
210
0.0
220
0.0
230
1.0
 70
     8
 71
     3
 72
    13
 73
     9
 74
     0
 42
0.00000001
 43
0.00000001
 40
0.0
 40
0.0
 40
0.0
 40
0.0
 40
0.1628873490318642
 40
0.3257286426324482
 40
0.4922128483588343
 40
0.6586670115463497
 40
0.942130309378759
 40
1.0
 40
1.0
 40
1.0
 40
1.0
 10
119.504615268224
 20
150.4845401030662
 30
0.0
 10
119.3414059521522
 20
149.9660766724649
 30
0.0
 10
119.0150334664742
 20
148.9292964037206
 30
0.0
 10
118.6647376223081
 20
147.3329406183173
 30
0.0
 10
118.4507151332233
 20
145.7057006827667
 30
0.0
 10
118.410093630208
 20
143.6731870682059
 30
0.0
 10
118.5485687230567
 20
141.9889597165416
 30
0.0
 10
118.8551378362136
 20
140.894628654014
 30
0.0
 10
118.9071136496642
 20
140.7090954586654
 30
0.0
  0
LINE
  5
284
330
1F
100
AcDbEntity
  8
0
  6
Continuous
 62
     7
370
    25
100
AcDbLine
 10
118.2884809312
 20
150.2345401031
 30
0.0
 11
118.2884809312
 21
140.6928959908
 31
0.0
  0
LINE
  5
285
330
1F
100
AcDbEntity
  8
0
  6
Continuous
 62
     7
370
    25
100
AcDbLine
 10
118.2884809312
 20
136.2761842153
 30
0.0
 11
118.2884809312
 21
126.7345401031
 31
0.0
  0
SPLINE
  5
286
330
1F
100
AcDbEntity
  8
0
  6
Continuous
 62
     7
370
    25
100
AcDbSpline
210
0.0
220
0.0
230
1.0
 70
     8
 71
     3
 72
    12
 73
     8
 74
     0
 42
0.00000001
 43
0.00000001
 40
0.0
 40
0.0
 40
0.0
 40
0.0
 40
0.2063181567205242
 40
0.4125779782066353
 40
0.6234520249186928
 40
0.8342880188213709
 40
1.0
 40
1.0
 40
1.0
 40
1.0
 10
129.0723465941802
 20
150.4845401030662
 30
0.0
 10
129.235338446142
 20
149.9660995462189
 30
0.0
 10
129.5612760650868
 20
148.9293650185151
 30
0.0
 10
129.9148570161348
 20
147.3326636922931
 30
0.0
 10
130.1161275277289
 20
145.7067650612724
 30
0.0
 10
130.1911380792548
 20
144.1728704964777
 30
0.0
 10
130.0523201529894
 20
143.1984665076745
 30
0.0
 10
129.991228884129
 20
142.769648863872
 30
0.0
  0
SPLINE
  5
287
330
1F
100
AcDbEntity
  8
0
  6
Continuous
 62
     7
370
    25
100
AcDbSpline
210
0.0
220
0.0
230
1.0
 70
    24
 71
     3
 72
    11
 73
     7
 74
     0
 42
0.00000001
 43
0.00000001
 40
0.0
 40
0.0
 40
0.0
 40
0.0
 40
0.0123501242321847
 40
0.2567085564291928
 40
0.50110728216611
 40
1.0
 40
1.0
 40
1.0
 40
1.0
 10
130.1405656926442
 20
150.4845401030661
 30
0.0
 10
130.1417513078904
 20
150.4845401030661
 30
0.0
 10
130.1663953983146
 20
150.4845401030661
 30
0.0
 10
130.0766607177031
 20
150.4845401030662
 30
0.0
 10
129.8122471322193
 20
150.4845401030662
 30
0.0
 10
129.3695094479809
 20
150.4845401030662
 30
0.0
 10
129.0723465941802
 20
150.4845401030662
 30
0.0
  0
SPLINE
  5
288
330
1F
100
AcDbEntity
  8
0
  6
Continuous
 62
     7
370
    25
100
AcDbSpline
210
0.0
220
0.0
230
1.0
 70
    24
 71
     3
 72
    10
 73
     6
 74
     0
 42
0.00000001
 43
0.00000001
 40
0.0
 40
0.0
 40
0.0
 40
0.0
 40
0.5012215560354567
 40
0.7568077730922336
 40
0.9999999999999999
 40
0.9999999999999999
 40
0.9999999999999999
 40
0.9999999999999999
 10
129.0723465941802
 20
126.4845401030662
 30
0.0
 10
129.3667083506676
 20
126.4845401030662
 30
0.0
 10
129.8111730045281
 20
126.4845401030662
 30
0.0
 10
130.101163449663
 20
126.4845401030662
 30
0.0
 10
130.1276510053231
 20
126.4845401030662
 30
0.0
 10
130.1405656926442
 20
126.4845401030662
 30
0.0
  0
SPLINE
  5
289
330
1F
100
AcDbEntity
  8
0
  6
Continuous
 62
     7
370
    25
100
AcDbSpline
210
0.0
220
0.0
230
1.0
 70
     8
 71
     3
 72
    11
 73
     7
 74
     0
 42
0.00000001
 43
0.00000001
 40
0.0
 40
0.0
 40
0.0
 40
0.0
 40
0.0601535499286321
 40
0.271954714954498
 40
0.63264173877704
 40
1.0
 40
1.0
 40
1.0
 40
1.0
 10
130.0365399906567
 20
134.169256264224
 30
0.0
 10
130.0577977565249
 20
134.0143889364896
 30
0.0
 10
130.1539042982688
 20
133.3142324200451
 30
0.0
 10
130.1632580197642
 20
131.6703688647187
 30
0.0
 10
129.9042700363112
 20
129.2352194731492
 30
0.0
 10
129.3513432709875
 20
127.4070172979026
 30
0.0
 10
129.0723465941802
 20
126.4845401030662
 30
0.0
  0
LINE
  5
28A
330
1F
100
AcDbEntity
  8
0
  6
Continuous
 62
     7
370
    25
100
AcDbLine
 10
130.2884809312
 20
150.2345401031
 30
0.0
 11
130.2884809312
 21
142.9924482914
 31
0.0
  0
LINE
  5
28B
330
1F
100
AcDbEntity
  8
0
  6
Continuous
 62
     7
370
    25
100
AcDbLine
 10
130.2884809312
 20
133.9780898683
 30
0.0
 11
130.2884809312
 21
126.7345401031
 31
0.0
  0
LINE
  5
28C
330
1F
100
AcDbEntity
  8
0
  6
Continuous
 62
     7
370
    25
100
AcDbLine
 10
119.5046152682
 20
150.4845401031
 30
0.0
 11
129.0723465942
 21
150.4845401031
 31
0.0
  0
LINE
  5
28D
330
1F
100
AcDbEntity
  8
0
  6
Continuous
 62
     7
370
    25
100
AcDbLine
 10
119.5046152682
 20
126.4845401031
 30
0.0
 11
129.0723465942
 21
126.4845401031
 31
0.0
  0
LINE
  5
28E
330
1F
100
AcDbEntity
  8
0
  6
Continuous
 62
     7
370
    25
100
AcDbLine
 10
116.7884809312
 20
150.2345401031
 30
0.0
 11
116.7884809312
 21
140.6536171085
 31
0.0
  0
LINE
  5
28F
330
1F
100
AcDbEntity
  8
0
  6
Continuous
 62
     7
370
    25
100
AcDbLine
 10
116.7884809312
 20
136.3154630977
 30
0.0
 11
116.7884809312
 21
126.7345401031
 31
0.0
  0
LINE
  5
290
330
1F
100
AcDbEntity
  8
0
  6
Continuous
 62
     7
370
    25
100
AcDbLine
 10
131.7884809312
 20
126.7345401031
 30
0.0
 11
131.7884809312
 21
133.8010397513
 31
0.0
  0
LINE
  5
291
330
1F
100
AcDbEntity
  8
0
  6
Continuous
 62
     7
370
    25
100
AcDbLine
 10
131.7884809312
 20
143.1673154182
 30
0.0
 11
131.7884809312
 21
150.2345401031
 31
0.0
  0
LINE
  5
292
330
1F
100
AcDbEntity
  8
0
  6
Continuous
 62
     7
370
    25
100
AcDbLine
 10
132.2884809312
 20
149.7345401031
 30
0.0
 11
132.2884809312
 21
143.1919503111
 31
0.0
  0
LINE
  5
293
330
1F
100
AcDbEntity
  8
0
  6
Continuous
 62
     7
370
    25
100
AcDbLine
 10
132.2884809312
 20
133.7736334019
 30
0.0
 11
132.2884809312
 21
127.2345401031
 31
0.0
  0
LINE
  5
294
330
1F
100
AcDbEntity
  8
0
  6
Continuous
 62
     7
370
    25
100
AcDbLine
 10
116.2884809312
 20
127.2345401031
 30
0.0
 11
116.2884809312
 21
136.3285560585
 31
0.0
  0
LINE
  5
295
330
1F
100
AcDbEntity
  8
0
  6
Continuous
 62
     7
370
    25
100
AcDbLine
 10
116.2884809312
 20
140.6405241477
 30
0.0
 11
116.2884809312
 21
149.7345401031
 31
0.0
  0
LINE
  5
296
330
1F
100
AcDbEntity
  8
0
  6
Continuous
 62
     7
370
    25
100
AcDbLine
 10
136.4224555274
 20
129.6693140456
 30
0.0
 11
136.4224555274
 21
133.5686454071
 31
0.0
  0
LINE
  5
297
330
1F
100
AcDbEntity
  8
0
  6
Continuous
 62
     7
370
    25
100
AcDbLine
 10
136.4224555274
 20
143.400434799
 30
0.0
 11
136.4224555274
 21
150.2345401031
 31
0.0
  0
LINE
  5
298
330
1F
100
AcDbEntity
  8
0
  6
Continuous
 62
     7
370
    25
100
AcDbLine
 10
136.4224555274
 20
126.7345401031
 30
0.0
 11
136.4224555274
 21
129.6693140456
 31
0.0
  0
LINE
  5
299
330
1F
100
AcDbEntity
  8
0
  6
Continuous
 62
     7
370
    25
100
AcDbLine
 10
136.6724555274
 20
129.4817560444
 30
0.0
 11
136.6724555274
 21
126.4845401031
 31
0.0
  0
LINE
  5
29A
330
1F
100
AcDbEntity
  8
0
  6
Continuous
 62
     7
370
    25
100
AcDbLine
 10
136.6724555274
 20
150.4845401031
 30
0.0
 11
136.6724555274
 21
143.4143236879
 31
0.0
  0
LINE
  5
29B
330
1F
100
AcDbEntity
  8
0
  6
Continuous
 62
     7
370
    25
100
AcDbLine
 10
136.6724555274
 20
133.5547565182
 30
0.0
 11
136.6724555274
 21
129.4817560444
 31
0.0
  0
LINE
  5
29C
330
1F
100
AcDbEntity
  8
0
  6
Continuous
 62
     7
370
    25
100
AcDbLine
 10
132.9224555274
 20
130.6239842718
 30
0.0
 11
132.9224555274
 21
133.7630898515
 31
0.0
  0
LINE
  5
29D
330
1F
100
AcDbEntity
  8
0
  6
Continuous
 62
     7
370
    25
100
AcDbLine
 10
132.9224555274
 20
143.2059903546
 30
0.0
 11
132.9224555274
 21
148.9620401031
 31
0.0
  0
LINE
  5
29E
330
1F
100
AcDbEntity
  8
0
  6
Continuous
 62
     7
370
    25
100
AcDbLine
 10
132.9224555274
 20
128.0070401031
 30
0.0
 11
132.9224555274
 21
130.6239842718
 31
0.0
  0
LINE
  5
29F
330
1F
100
AcDbEntity
  8
0
  6
Continuous
 62
     7
370
    25
100
AcDbLine
 10
133.9224555274
 20
131.3742162767
 30
0.0
 11
133.9224555274
 21
129.0070401031
 31
0.0
  0
LINE
  5
2A0
330
1F
100
AcDbEntity
  8
0
  6
Continuous
 62
     7
370
    25
100
AcDbLine
 10
133.9224555274
 20
147.9620401031
 30
0.0
 11
133.9224555274
 21
143.2615459102
 31
0.0
  0
LINE
  5
2A1
330
1F
100
AcDbEntity
  8
0
  6
Continuous
 62
     7
370
    25
100
AcDbLine
 10
133.9224555274
 20
133.707534296
 30
0.0
 11
133.9224555274
 21
131.3742162767
 31
0.0
  0
LINE
  5
2A2
330
1F
100
AcDbEntity
  8
0
  6
Continuous
 62
     7
370
    25
100
AcDbLine
 10
164.9224555274
 20
150.9845401031
 30
0.0
 11
164.9224555274
 21
138.4845401031
 31
0.0
  0
SPLINE
  5
2A3
330
1F
100
AcDbEntity
  8
0
  6
Continuous
 62
     7
370
    25
100
AcDbSpline
210
0.0
220
0.0
230
1.0
 70
     8
 71
     3
 72
    12
 73
     8
 74
     0
 42
0.00000001
 43
0.00000001
 40
0.0
 40
0.0
 40
0.0
 40
0.0
 40
0.2500000000000001
 40
0.2500000000000001
 40
0.5000000000000001
 40
0.5000000000000001
 40
1.0
 40
1.0
 40
1.0
 40
1.0
 10
163.3347422871462
 20
147.2202427078942
 30
0.0
 10
163.5681932619976
 20
146.5143668603397
 30
0.0
 10
163.7850401311384
 20
145.80166516578
 30
0.0
 10
164.1740237823422
 20
144.3578817314293
 30
0.0
 10
164.3443875825106
 20
143.6328741559974
 30
0.0
 10
164.7650394158493
 20
141.4472711894516
 30
0.0
 10
164.9224555274177
 20
139.975385618749
 30
0.0
 10
164.9224555274177
 20
138.4845401030661
 30
0.0
  0
LINE
  5
2A4
330
1F
100
AcDbEntity
  8
0
  6
Continuous
 62
     7
370
    25
100
AcDbLine
 10
163.3347422871
 20
150.9845401031
 30
0.0
 11
163.3347422871
 21
147.2202427079
 31
0.0
  0
SPLINE
  5
2A5
330
1F
100
AcDbEntity
  8
0
  6
Continuous
 62
     7
370
    25
100
AcDbSpline
210
0.0
220
0.0
230
1.0
 70
    24
 71
     3
 72
    12
 73
     8
 74
     0
 42
0.00000001
 43
0.00000001
 40
0.0
 40
0.0
 40
0.0
 40
0.0
 40
0.25
 40
0.25
 40
0.5
 40
0.5
 40
1.0
 40
1.0
 40
1.0
 40
1.0
 10
164.9224555274177
 20
150.9845401030661
 30
0.0
 10
164.9224555274177
 20
150.9845401030661
 30
0.0
 10
164.8831060018669
 20
150.9845401030661
 30
0.0
 10
164.7324464924932
 20
150.9845401030661
 30
0.0
 10
164.6215383097884
 20
150.9845401030661
 30
0.0
 10
164.2002892847936
 20
150.9845401030661
 30
0.0
 10
163.8025967961812
 20
150.9845401030661
 30
0.0
 10
163.3347422871462
 20
150.9845401030661
 30
0.0
  0
LINE
  5
2A6
330
1F
100
AcDbEntity
  8
0
  6
Continuous
 62
     7
370
    25
100
AcDbLine
 10
141.0101687677
 20
147.2202427079
 30
0.0
 11
141.0101687677
 21
150.9845401031
 31
0.0
  0
SPLINE
  5
2A7
330
1F
100
AcDbEntity
  8
0
  6
Continuous
 62
     7
370
    25
100
AcDbSpline
210
0.0
220
0.0
230
1.0
 70
     8
 71
     3
 72
     9
 73
     5
 74
     0
 42
0.00000001
 43
0.00000001
 40
0.0
 40
0.0
 40
0.0
 40
0.0
 40
0.4287809552668792
 40
0.9999999999999999
 40
0.9999999999999999
 40
0.9999999999999999
 40
0.9999999999999999
 10
140.0551004218683
 20
143.6022484042883
 30
0.0
 10
140.1576470370246
 20
144.1281060936345
 30
0.0
 10
140.3968055488398
 20
145.3545077863564
 30
0.0
 10
140.7871796477952
 20
146.5419519735892
 30
0.0
 10
141.0101687676891
 20
147.2202427078942
 30
0.0
  0
SPLINE
  5
2A8
330
1F
100
AcDbEntity
  8
0
  6
Continuous
 62
     7
370
    25
100
AcDbSpline
210
0.0
220
0.0
230
1.0
 70
    24
 71
     3
 72
    12
 73
     8
 74
     0
 42
0.00000001
 43
0.00000001
 40
0.0
 40
0.0
 40
0.0
 40
0.0
 40
0.25
 40
0.25
 40
0.5
 40
0.5
 40
1.0
 40
1.0
 40
1.0
 40
1.0
 10
139.4224555274177
 20
150.9845401030661
 30
0.0
 10
139.4224555274177
 20
150.9845401030661
 30
0.0
 10
139.4618486127872
 20
150.9845401030661
 30
0.0
 10
139.6124800155526
 20
150.9845401030661
 30
0.0
 10
139.7233604447244
 20
150.9845401030661
 30
0.0
 10
140.1445478506888
 20
150.9845401030661
 30
0.0
 10
140.5422355961686
 20
150.9845401030661
 30
0.0
 10
141.0101687676891
 20
150.9845401030661
 30
0.0
  0
LINE
  5
2A9
330
1F
100
AcDbEntity
  8
0
  6
Continuous
 62
     7
370
    25
100
AcDbLine
 10
139.4224555274
 20
143.5671014657
 30
0.0
 11
139.4224555274
 21
150.9845401031
 31
0.0
  0
LINE
  5
2AA
330
1F
100
AcDbEntity
  8
0
  6
Continuous
 62
     7
370
    25
100
AcDbLine
 10
163.3347422871
 20
147.2202427079
 30
0.0
 11
154.5614752653
 21
147.2202427079
 31
0.0
  0
LINE
  5
2AB
330
1F
100
AcDbEntity
  8
0
  6
Continuous
 62
     7
370
    25
100
AcDbLine
 10
150.2834357896
 20
147.2202427079
 30
0.0
 11
141.0101687677
 21
147.2202427079
 31
0.0
  0
LINE
  5
2AC
330
1F
100
AcDbEntity
  8
0
  6
Continuous
 62
     7
370
    25
100
AcDbLine
 10
163.3347422871
 20
150.9845401031
 30
0.0
 11
141.0101687677
 21
150.9845401031
 31
0.0
  0
SPLINE
  5
2AD
330
1F
100
AcDbEntity
  8
0
  6
Continuous
 62
     7
370
    25
100
AcDbSpline
210
0.0
220
0.0
230
1.0
 70
     8
 71
     3
 72
    12
 73
     8
 74
     0
 42
0.00000001
 43
0.00000001
 40
0.0
 40
0.0
 40
0.0
 40
0.0
 40
0.2500000000000001
 40
0.2500000000000001
 40
0.5000000000000001
 40
0.5000000000000001
 40
1.0
 40
1.0
 40
1.0
 40
1.0
 10
164.9224555274177
 20
138.4845401030661
 30
0.0
 10
164.9224555274177
 20
137.7397127546174
 30
0.0
 10
164.8831060018669
 20
136.9878882770356
 30
0.0
 10
164.7324464924932
 20
135.5067254757093
 30
0.0
 10
164.6215383097884
 20
134.7736065652607
 30
0.0
 10
164.2002892847936
 20
132.5928176312931
 30
0.0
 10
163.8025967961812
 20
131.1634694067467
 30
0.0
 10
163.3347422871462
 20
129.7488374982381
 30
0.0
  0
LINE
  5
2AE
330
1F
100
AcDbEntity
  8
0
  6
Continuous
 62
     7
370
    25
100
AcDbLine
 10
163.3347422871
 20
129.7488374982
 30
0.0
 11
154.5614752653
 21
129.7488374982
 31
0.0
  0
LINE
  5
2AF
330
1F
100
AcDbEntity
  8
0
  6
Continuous
 62
     7
370
    25
100
AcDbLine
 10
150.2834357896
 20
129.7488374982
 30
0.0
 11
141.0101687677
 21
129.7488374982
 31
0.0
  0
SPLINE
  5
2B0
330
1F
100
AcDbEntity
  8
0
  6
Continuous
 62
     7
370
    25
100
AcDbSpline
210
0.0
220
0.0
230
1.0
 70
     8
 71
     3
 72
     9
 73
     5
 74
     0
 42
0.00000001
 43
0.00000001
 40
0.0
 40
0.0
 40
0.0
 40
0.0
 40
0.5268904349897643
 40
0.9999999999999999
 40
0.9999999999999999
 40
0.9999999999999999
 40
0.9999999999999999
 10
141.0101687676891
 20
129.7488374982381
 30
0.0
 10
140.8083754768281
 20
130.3775676247439
 30
0.0
 10
140.425386381828
 20
131.5708520056191
 30
0.0
 10
140.1428915899763
 20
132.7917575015311
 30
0.0
 10
140.0092406018858
 20
133.3693795696207
 30
0.0
  0
SPLINE
  5
2B1
330
1F
100
AcDbEntity
  8
0
  6
Continuous
 62
     7
370
    25
100
AcDbSpline
210
0.0
220
0.0
230
1.0
 70
    24
 71
     3
 72
    12
 73
     8
 74
     0
 42
0.00000001
 43
0.00000001
 40
0.0
 40
0.0
 40
0.0
 40
0.0
 40
0.2500000000000001
 40
0.2500000000000001
 40
0.5
 40
0.5
 40
1.0
 40
1.0
 40
1.0
 40
1.0
 10
164.9224555274177
 20
125.9845401030661
 30
0.0
 10
164.9224555274177
 20
125.9845401030661
 30
0.0
 10
164.8831060018669
 20
125.9845401030661
 30
0.0
 10
164.7324464924932
 20
125.9845401030661
 30
0.0
 10
164.6215383097884
 20
125.9845401030661
 30
0.0
 10
164.2002892847936
 20
125.9845401030661
 30
0.0
 10
163.8025967961812
 20
125.9845401030661
 30
0.0
 10
163.3347422871462
 20
125.9845401030661
 30
0.0
  0
LINE
  5
2B2
330
1F
100
AcDbEntity
  8
0
  6
Continuous
 62
     7
370
    25
100
AcDbLine
 10
163.3347422871
 20
129.7488374982
 30
0.0
 11
163.3347422871
 21
125.9845401031
 31
0.0
  0
LINE
  5
2B3
330
1F
100
AcDbEntity
  8
0
  6
Continuous
 62
     7
370
    25
100
AcDbLine
 10
164.9224555274
 20
138.4845401031
 30
0.0
 11
164.9224555274
 21
125.9845401031
 31
0.0
  0
LINE
  5
2B4
330
1F
100
AcDbEntity
  8
0
  6
Continuous
 62
     7
370
    25
100
AcDbLine
 10
141.0101687677
 20
125.9845401031
 30
0.0
 11
141.0101687677
 21
129.7488374982
 31
0.0
  0
SPLINE
  5
2B5
330
1F
100
AcDbEntity
  8
0
  6
Continuous
 62
     7
370
    25
100
AcDbSpline
210
0.0
220
0.0
230
1.0
 70
    24
 71
     3
 72
    12
 73
     8
 74
     0
 42
0.00000001
 43
0.00000001
 40
0.0
 40
0.0
 40
0.0
 40
0.0
 40
0.2500000000000001
 40
0.2500000000000001
 40
0.5000000000000001
 40
0.5000000000000001
 40
1.0
 40
1.0
 40
1.0
 40
1.0
 10
139.4224555274177
 20
125.9845401030661
 30
0.0
 10
139.4224555274177
 20
125.9845401030661
 30
0.0
 10
139.4618486127873
 20
125.9845401030661
 30
0.0
 10
139.6124800155526
 20
125.9845401030661
 30
0.0
 10
139.7233604447244
 20
125.9845401030661
 30
0.0
 10
140.1445478506888
 20
125.9845401030661
 30
0.0
 10
140.5422355961685
 20
125.9845401030661
 30
0.0
 10
141.0101687676891
 20
125.9845401030661
 30
0.0
  0
LINE
  5
2B6
330
1F
100
AcDbEntity
  8
0
  6
Continuous
 62
     7
370
    25
100
AcDbLine
 10
139.4224555274
 20
125.9845401031
 30
0.0
 11
139.4224555274
 21
133.4019787404
 31
0.0
  0
LINE
  5
2B7
330
1F
100
AcDbEntity
  8
0
  6
Continuous
 62
     7
370
    25
100
AcDbLine
 10
163.3347422871
 20
125.9845401031
 30
0.0
 11
141.0101687677
 21
125.9845401031
 31
0.0
  0
LINE
  5
2B8
330
1F
100
AcDbEntity
  8
0
  6
Continuous
 62
     7
370
    25
100
AcDbLine
 10
177.2260642545
 20
128.1777778758
 30
0.0
 11
177.2260642545
 21
148.7913023303
 31
0.0
  0
LINE
  5
2B9
330
1F
100
AcDbEntity
  8
0
  6
Continuous
 62
     7
370
    25
100
AcDbLine
 10
179.9224555274
 20
147.2345401031
 30
0.0
 11
179.9224555274
 21
129.7345401031
 31
0.0
  0
LINE
  5
2BA
330
1F
100
AcDbEntity
  8
0
  6
Continuous
 62
     7
370
    25
100
AcDbLine
 10
150.1849715059
 20
137.5092675581
 30
0.0
 11
150.1521759789
 21
137.5280115973
 31
0.0
  0
SPLINE
  5
2BB
330
1F
100
AcDbEntity
  8
0
  6
Continuous
 62
     7
370
    25
100
AcDbSpline
210
0.0
220
0.0
230
1.0
 70
     8
 71
     3
 72
    15
 73
    11
 74
     0
 42
0.00000001
 43
0.00000001
 40
0.0
 40
0.0
 40
0.0
 40
0.0
 40
0.1241930067305288
 40
0.2496556654892296
 40
0.3743703853151211
 40
0.4998404796364202
 40
0.6240146704162363
 40
0.7475381382242062
 40
0.8745858500551816
 40
1.0
 40
1.0
 40
1.0
 40
1.0
 10
150.9652612275482
 20
137.7817072086519
 30
0.0
 10
150.9497008324385
 20
137.745860005908
 30
0.0
 10
150.918420964927
 20
137.6737991266962
 30
0.0
 10
150.8409846054386
 20
137.5839236133533
 30
0.0
 10
150.7476306016997
 20
137.511599835559
 30
0.0
 10
150.6404049956787
 20
137.4626724170544
 30
0.0
 10
150.5260190849578
 20
137.4363443635996
 30
0.0
 10
150.4083483220724
 20
137.435485269597
 30
0.0
 10
150.2914645968472
 20
137.4568680302266
 30
0.0
 10
150.2203157459525
 20
137.4918765566874
 30
0.0
 10
150.1849715058691
 20
137.5092675580688
 30
0.0
  0
LINE
  5
2BC
330
1F
100
AcDbEntity
  8
0
  6
Continuous
 62
     7
370
    25
100
AcDbLine
 10
151.9571152723
 20
140.5552864246
 30
0.0
 11
150.9652612275
 21
137.7817072087
 31
0.0
  0
SPLINE
  5
2BD
330
1F
100
AcDbEntity
  8
0
  6
Continuous
 62
     7
370
    25
100
AcDbSpline
210
0.0
220
0.0
230
1.0
 70
     8
 71
     3
 72
    15
 73
    11
 74
     0
 42
0.00000001
 43
0.00000001
 40
0.0
 40
0.0
 40
0.0
 40
0.0
 40
0.1233025178081761
 40
0.2485158700387114
 40
0.3756924668130947
 40
0.4999990880429331
 40
0.6243057092728396
 40
0.7514823060473044
 40
0.8766757256079959
 40
1.0
 40
1.0
 40
1.0
 40
1.0
 10
152.8877957857693
 20
140.5552864245653
 30
0.0
 10
152.863644813807
 20
140.595931560501
 30
0.0
 10
152.8149685992722
 20
140.6778517150889
 30
0.0
 10
152.6996179410671
 20
140.7676706709014
 30
0.0
 10
152.5664583188052
 20
140.8252448190625
 30
0.0
 10
152.4224556754365
 20
140.8444035147326
 30
0.0
 10
152.278452146738
 20
140.8252454118475
 30
0.0
 10
152.1453022737725
 20
140.767671298109
 30
0.0
 10
152.029939916238
 20
140.6778657359623
 30
0.0
 10
151.9812681305668
 20
140.5959408044376
 30
0.0
 10
151.95711527225
 20
140.5552864245654
 30
0.0
  0
LINE
  5
2BE
330
1F
100
AcDbEntity
  8
0
  6
Continuous
 62
     7
370
    25
100
AcDbLine
 10
153.8794186921
 20
137.7823535542
 30
0.0
 11
152.8877957858
 21
140.5552864246
 31
0.0
  0
SPLINE
  5
2BF
330
1F
100
AcDbEntity
  8
0
  6
Continuous
 62
     7
370
    25
100
AcDbSpline
210
0.0
220
0.0
230
1.0
 70
     8
 71
     3
 72
    15
 73
    11
 74
     0
 42
0.00000001
 43
0.00000001
 40
0.0
 40
0.0
 40
0.0
 40
0.0
 40
0.1253320172137755
 40
0.2522975129251765
 40
0.3758847553984062
 40
0.5001929511416483
 40
0.6255758307380151
 40
0.7502289462456482
 40
0.8757444935777828
 40
1.0
 40
1.0
 40
1.0
 40
1.0
 10
154.6521204566832
 20
137.505657703611
 30
0.0
 10
154.6168695400551
 20
137.4889833951282
 30
0.0
 10
154.5459082742008
 20
137.4554174583989
 30
0.0
 10
154.4299213834124
 20
137.4356358421448
 30
0.0
 10
154.313325017172
 20
137.4377086224914
 30
0.0
 10
154.2002044105905
 20
137.464786648842
 30
0.0
 10
154.0943286962511
 20
137.5139994645492
 30
0.0
 10
154.0022196116319
 20
137.586085228423
 30
0.0
 10
153.9257879477636
 20
137.6753727499224
 30
0.0
 10
153.8948230402642
 20
137.7468134203595
 30
0.0
 10
153.879418692143
 20
137.7823535542175
 30
0.0
  0
LINE
  5
2C0
330
1F
100
AcDbEntity
  8
0
  6
Continuous
 62
     7
370
    25
100
AcDbLine
 10
154.6927350792
 20
137.5280115973
 30
0.0
 11
154.6521204567
 21
137.5056577036
 31
0.0
  0
LINE
  5
2C1
330
1F
100
AcDbEntity
  8
0
  6
Continuous
 62
     7
370
    25
100
AcDbLine
 10
154.0657518827
 20
136.3326004938
 30
0.0
 11
154.6927350792
 21
137.5280115973
 31
0.0
  0
SPLINE
  5
2C2
330
1F
100
AcDbEntity
  8
0
  6
Continuous
 62
     7
370
    25
100
AcDbSpline
210
0.0
220
0.0
230
1.0
 70
     8
 71
     3
 72
    15
 73
    11
 74
     0
 42
0.00000001
 43
0.00000001
 40
0.0
 40
0.0
 40
0.0
 40
0.0
 40
0.1246332186438571
 40
0.2519059530189798
 40
0.3765391000744966
 40
0.4994035903146521
 40
0.6264494152300174
 40
0.7526064410610431
 40
0.8746804377363274
 40
1.0
 40
1.0
 40
1.0
 40
1.0
 10
153.9605233938741
 20
136.3144833271135
 30
0.0
 10
153.9645378695423
 20
136.3113780922608
 30
0.0
 10
153.9726518405209
 20
136.305101859059
 30
0.0
 10
153.9870904323575
 20
136.2994888455792
 30
0.0
 10
154.0022238822906
 20
136.2969524929524
 30
0.0
 10
154.0175864245723
 20
136.2978378965202
 30
0.0
 10
154.032517003409
 20
136.3019689670359
 30
0.0
 10
154.0460189034383
 20
136.3094596669818
 30
0.0
 10
154.0577045583247
 20
136.3195982488961
 30
0.0
 10
154.0630460826655
 20
136.3282286712389
 30
0.0
 10
154.0657518826673
 20
136.3326004938311
 30
0.0
  0
SPLINE
  5
2C3
330
1F
100
AcDbEntity
  8
0
  6
Continuous
 62
     7
370
    25
100
AcDbSpline
210
0.0
220
0.0
230
1.0
 70
     8
 71
     3
 72
    11
 73
     7
 74
     0
 42
0.00000001
 43
0.00000001
 40
0.0
 40
0.0
 40
0.0
 40
0.0
 40
0.250625260598601
 40
0.4999999999996214
 40
0.7493747394010042
 40
1.0
 40
1.0
 40
1.0
 40
1.0
 10
150.8843876641452
 20
136.3144833271134
 30
0.0
 10
151.1141153583185
 20
136.4773376190744
 30
0.0
 10
151.5724244960815
 20
136.8022336243133
 30
0.0
 10
152.4224555290176
 20
136.9359655712504
 30
0.0
 10
153.2724865619479
 20
136.8022336243081
 30
0.0
 10
153.7307956997041
 20
136.4773376190727
 30
0.0
 10
153.9605233938741
 20
136.3144833271135
 30
0.0
  0
SPLINE
  5
2C4
330
1F
100
AcDbEntity
  8
0
  6
Continuous
 62
     7
370
    25
100
AcDbSpline
210
0.0
220
0.0
230
1.0
 70
     8
 71
     3
 72
    15
 73
    11
 74
     0
 42
0.00000001
 43
0.00000001
 40
0.0
 40
0.0
 40
0.0
 40
0.0
 40
0.125319195797913
 40
0.2473928354984057
 40
0.3734492416489697
 40
0.5005950046079961
 40
0.6235484391777629
 40
0.7480947836179478
 40
0.875367145815393
 40
1.0
 40
1.0
 40
1.0
 40
1.0
 10
150.779159175352
 20
136.3326004938311
 30
0.0
 10
150.7818649716845
 20
136.3282286655472
 30
0.0
 10
150.7872064887816
 20
136.3195982319684
 30
0.0
 10
150.7988890613707
 20
136.3094624544686
 30
0.0
 10
150.812390041358
 20
136.301970338595
 30
0.0
 10
150.827324070208
 20
136.2978378933028
 30
0.0
 10
150.8426910813971
 20
136.2969499515293
 30
0.0
 10
150.8578238178353
 20
136.2994908937869
 30
0.0
 10
150.872259247617
 20
136.3051016720541
 30
0.0
 10
150.8803731984462
 20
136.3113780303628
 30
0.0
 10
150.8843876641452
 20
136.3144833271135
 30
0.0
  0
LINE
  5
2C5
330
1F
100
AcDbEntity
  8
0
  6
Continuous
 62
     7
370
    25
100
AcDbLine
 10
150.1521759789
 20
137.5280115973
 30
0.0
 11
150.7791591754
 21
136.3326004938
 31
0.0
  0
SPLINE
  5
2C6
330
1F
100
AcDbEntity
  8
0
  6
Continuous
 62
     7
370
    25
100
AcDbSpline
210
0.0
220
0.0
230
1.0
 70
     8
 71
     3
 72
    15
 73
    11
 74
     0
 42
0.00000001
 43
0.00000001
 40
0.0
 40
0.0
 40
0.0
 40
0.0
 40
0.1233867499278388
 40
0.2487396502211602
 40
0.3739317114754985
 40
0.4999973617625659
 40
0.6259591330513601
 40
0.7512551380600303
 40
0.8765613478174267
 40
1.0
 40
1.0
 40
1.0
 40
1.0
 10
152.3595726626116
 20
138.5059495612089
 30
0.0
 10
152.3624508638034
 20
138.5119643572919
 30
0.0
 10
152.3682531299151
 20
138.5240897943806
 30
0.0
 10
152.3837825346358
 20
138.5374810547306
 30
0.0
 10
152.4021371165093
 20
138.5463587663106
 30
0.0
 10
152.4224499329922
 20
138.549115429607
 30
0.0
 10
152.4427683507073
 20
138.5463607484064
 30
0.0
 10
152.4611212198714
 20
138.537485050117
 30
0.0
 10
152.4766593242669
 20
138.5240946828633
 30
0.0
 10
152.4824598862982
 20
138.5119675853172
 30
0.0
 10
152.4853383922238
 20
138.5059495612089
 30
0.0
  0
LINE
  5
2C7
330
1F
100
AcDbEntity
  8
0
  6
Continuous
 62
     7
370
    25
100
AcDbLine
 10
152.1204591369
 20
137.8676955319
 30
0.0
 11
152.3595726626
 21
138.5059495612
 31
0.0
  0
SPLINE
  5
2C8
330
1F
100
AcDbEntity
  8
0
  6
Continuous
 62
     7
370
    25
100
AcDbSpline
210
0.0
220
0.0
230
1.0
 70
     8
 71
     3
 72
    15
 73
    11
 74
     0
 42
0.00000001
 43
0.00000001
 40
0.0
 40
0.0
 40
0.0
 40
0.0
 40
0.1261585224210646
 40
0.2513121451548803
 40
0.3762846848783793
 40
0.4993062783340885
 40
0.6261594278645746
 40
0.7521171342021311
 40
0.87581969226928
 40
1.0
 40
1.0
 40
1.0
 40
1.0
 10
152.1833420017399
 20
137.7826311785864
 30
0.0
 10
152.1781109052512
 20
137.7829534851788
 30
0.0
 10
152.1676903799086
 20
137.7835955310712
 30
0.0
 10
152.1529038293942
 20
137.7890437714464
 30
0.0
 10
152.1397134767687
 20
137.797266374032
 30
0.0
 10
152.1288429019274
 20
137.8085229803446
 30
0.0
 10
152.1208353145988
 20
137.8220437256857
 30
0.0
 10
152.1166686875661
 20
137.8371806132625
 30
0.0
 10
152.1160476360546
 20
137.8528697448337
 30
0.0
 10
152.1189867484093
 20
137.8627472571923
 30
0.0
 10
152.120459136892
 20
137.8676955319363
 30
0.0
  0
LINE
  5
2C9
330
1F
100
AcDbEntity
  8
0
  6
Continuous
 62
     7
370
    25
100
AcDbLine
 10
152.6615690559
 20
137.7826311786
 30
0.0
 11
152.1833420017
 21
137.7826311786
 31
0.0
  0
SPLINE
  5
2CA
330
1F
100
AcDbEntity
  8
0
  6
Continuous
 62
     7
370
    25
100
AcDbSpline
210
0.0
220
0.0
230
1.0
 70
     8
 71
     3
 72
    15
 73
    11
 74
     0
 42
0.00000001
 43
0.00000001
 40
0.0
 40
0.0
 40
0.0
 40
0.0
 40
0.1241186784437694
 40
0.2478474916628982
 40
0.3736574149478941
 40
0.5005082335853295
 40
0.6234527658309924
 40
0.7484986612277525
 40
0.873697649245277
 40
1.0
 40
1.0
 40
1.0
 40
1.0
 10
152.7244519206693
 20
137.8676955321594
 30
0.0
 10
152.7259229932781
 20
137.8627496865013
 30
0.0
 10
152.7288605177564
 20
137.8528735304232
 30
0.0
 10
152.7282437832563
 20
137.8371921347975
 30
0.0
 10
152.7240818216617
 20
137.8220596027172
 30
0.0
 10
152.7160830738634
 20
137.8085446951028
 30
0.0
 10
152.7052169823265
 20
137.7972846339068
 30
0.0
 10
152.6920292645019
 20
137.7890549214733
 30
0.0
 10
152.6772348179267
 20
137.7835953510883
 30
0.0
 10
152.6668062270194
 20
137.7829535080313
 30
0.0
 10
152.6615690559049
 20
137.7826311785864
 30
0.0
  0
LINE
  5
2CB
330
1F
100
AcDbEntity
  8
0
  6
Continuous
 62
     7
370
    25
100
AcDbLine
 10
152.4853383922
 20
138.5059495612
 30
0.0
 11
152.7244519207
 21
137.8676955322
 31
0.0
  0
CIRCLE
  5
2CC
330
1F
100
AcDbEntity
  8
0
  6
Continuous
 62
     7
370
    25
100
AcDbCircle
 10
152.4224555274
 20
138.4845401031
 30
0.0
 40
4.5
  0
LINE
  5
2CD
330
1F
100
AcDbEntity
  8
0
  6
Continuous
 62
     7
370
    25
100
AcDbLine
 10
103.0404895162
 20
139.3631325552
 30
0.0
 11
137.3172273139
 21
140.2607005228
 31
0.0
  0
SPLINE
  5
2CE
330
1F
100
AcDbEntity
  8
0
  6
Continuous
 62
     7
370
    25
100
AcDbSpline
210
0.0
220
0.0
230
1.0
 70
    24
 71
     3
 72
    11
 73
     7
 74
     0
 42
0.00000001
 43
0.00000001
 40
0.0
 40
0.0
 40
0.0
 40
0.0
 40
0.2500000000000021
 40
0.4999999999999994
 40
0.7500000000000007
 40
0.9999999999999999
 40
0.9999999999999999
 40
0.9999999999999999
 40
0.9999999999999999
 10
103.0221719314825
 20
140.0626528923796
 30
0.0
 10
103.0224997927383
 20
140.050132376157
 30
0.0
 10
103.0231555152499
 20
140.0250913437119
 30
0.0
 10
103.0274144843892
 20
139.8624478740893
 30
0.0
 10
103.033406340051
 20
139.6336281380349
 30
0.0
 10
103.038128457462
 20
139.4532977494886
 30
0.0
 10
103.0404895161675
 20
139.3631325552155
 30
0.0
  0
LINE
  5
2CF
330
1F
100
AcDbEntity
  8
0
  6
Continuous
 62
     7
370
    25
100
AcDbLine
 10
137.2989097292
 20
140.96022086
 30
0.0
 11
103.0221719315
 21
140.0626528924
 31
0.0
  0
SPLINE
  5
2D0
330
1F
100
AcDbEntity
  8
0
  6
Continuous
 62
     7
370
    25
100
AcDbSpline
210
0.0
220
0.0
230
1.0
 70
    24
 71
     3
 72
    11
 73
     7
 74
     0
 42
0.00000001
 43
0.00000001
 40
0.0
 40
0.0
 40
0.0
 40
0.0
 40
0.2500000000000036
 40
0.5000000000000021
 40
0.7500000000000009
 40
1.0
 40
1.0
 40
1.0
 40
1.0
 10
137.2989097292202
 20
140.9602208599988
 30
0.0
 10
137.299237590476
 20
140.9477003437762
 30
0.0
 10
137.2998933129876
 20
140.922659311331
 30
0.0
 10
137.3041522821269
 20
140.7600158417085
 30
0.0
 10
137.3101441377887
 20
140.531196105654
 30
0.0
 10
137.3148662551997
 20
140.3508657171078
 30
0.0
 10
137.3172273139052
 20
140.2607005228346
 30
0.0
  0
LINE
  5
2D1
330
1F
100
AcDbEntity
  8
0
  6
Continuous
 62
     7
370
    25
100
AcDbLine
 10
137.3172273139
 20
136.7083796833
 30
0.0
 11
103.0404895162
 21
137.6059476509
 31
0.0
  0
LINE
  5
2D2
330
1F
100
AcDbEntity
  8
0
  6
Continuous
 62
     7
370
    25
100
AcDbLine
 10
103.0404895162
 20
137.6059476509
 30
0.0
 11
103.0404895162
 21
139.3631325552
 31
0.0
  0
ELLIPSE
  5
2D3
330
1F
100
AcDbEntity
  8
0
  6
Continuous
 62
     7
370
    25
100
AcDbEllipse
 10
137.3224555274
 20
139.4602888664
 30
0.0
 11
0.9988086229566305
 21
0.06103964413861718
 31
0.0
210
0.0
220
0.0
230
0.9999999999999999
 40
0.7994627403
 41
0.8784769082856015
 42
1.527206254409844
  0
LINE
  5
2D4
330
1F
100
AcDbEntity
  8
0
  6
Continuous
 62
     7
370
    25
100
AcDbLine
 10
137.9224555274
 20
140.1139192527
 30
0.0
 11
137.9224555274
 21
136.8551609535
 31
0.0
  0
ELLIPSE
  5
2D5
330
1F
100
AcDbEntity
  8
0
  6
Continuous
 62
     7
370
    25
100
AcDbEllipse
 10
137.3224555274
 20
137.5087913397
 30
0.0
 11
0.9988086229566591
 21
-0.06103964413861718
 31
0.0
210
0.0
220
0.0
230
1.0
 40
0.7994627403
 41
4.75597905276975
 42
5.404708398893981
  0
LINE
  5
2D6
330
1F
100
AcDbEntity
  8
0
  6
Continuous
 62
     7
370
    25
100
AcDbLine
 10
139.1224555274
 20
137.4721238684
 30
0.0
 11
139.1224555274
 21
139.4969563377
 31
0.0
  0
SPLINE
  5
2D7
330
1F
100
AcDbEntity
  8
0
  6
Continuous
 62
     7
370
    25
100
AcDbSpline
210
0.0
220
0.0
230
1.0
 70
     8
 71
     3
 72
    11
 73
     7
 74
     0
 42
0.00000001
 43
0.00000001
 40
0.0
 40
0.0
 40
0.0
 40
0.0
 40
0.2561894651307308
 40
0.5096044939206931
 40
0.7692742066553655
 40
1.0
 40
1.0
 40
1.0
 40
1.0
 10
139.1224555274177
 20
137.4721238684327
 30
0.0
 10
139.0468593951238
 20
137.4126118277843
 30
0.0
 10
138.8964858084491
 20
137.2942322396879
 30
0.0
 10
138.5972730224938
 20
137.1235946975525
 30
0.0
 10
138.2697532876071
 20
136.9719707866518
 30
0.0
 10
138.0335749067933
 20
136.8925347509807
 30
0.0
 10
137.9224555274177
 20
136.8551609534577
 30
0.0
  0
SPLINE
  5
2D8
330
1F
100
AcDbEntity
  8
0
  6
Continuous
 62
     7
370
    25
100
AcDbSpline
210
0.0
220
0.0
230
1.0
 70
     8
 71
     3
 72
    11
 73
     7
 74
     0
 42
0.00000001
 43
0.00000001
 40
0.0
 40
0.0
 40
0.0
 40
0.0
 40
0.2307374805224083
 40
0.4903955403005851
 40
0.7438105520730633
 40
1.0
 40
1.0
 40
1.0
 40
1.0
 10
137.9224555274177
 20
140.1139192526746
 30
0.0
 10
138.0335807611741
 20
140.0765440617616
 30
0.0
 10
138.2697596382495
 20
139.997109082667
 30
0.0
 10
138.5972772792007
 20
139.8454824029033
 30
0.0
 10
138.8964858758631
 20
139.674848097955
 30
0.0
 10
139.0468594176766
 20
139.5564684223436
 30
0.0
 10
139.1224555274177
 20
139.4969563376996
 30
0.0
  0
LINE
  5
2D9
330
1F
100
AcDbEntity
  8
0
  6
Continuous
 62
     7
370
    25
100
AcDbLine
 10
103.0221719315
 20
136.9064273138
 30
0.0
 11
137.2989097292
 21
136.0088593461
 31
0.0
  0
SPLINE
  5
2DA
330
1F
100
AcDbEntity
  8
0
  6
Continuous
 62
     7
370
    25
100
AcDbSpline
210
0.0
220
0.0
230
1.0
 70
    24
 71
     3
 72
    11
 73
     7
 74
     0
 42
0.00000001
 43
0.00000001
 40
0.0
 40
0.0
 40
0.0
 40
0.0
 40
0.2499999999999979
 40
0.4999999999999972
 40
0.75
 40
1.0
 40
1.0
 40
1.0
 40
1.0
 10
103.0221719314825
 20
136.9064273137527
 30
0.0
 10
103.0224997927383
 20
136.9189478299753
 30
0.0
 10
103.0231555152499
 20
136.9439888624204
 30
0.0
 10
103.0274144843892
 20
137.106632332043
 30
0.0
 10
103.033406340051
 20
137.3354520680974
 30
0.0
 10
103.038128457462
 20
137.5157824566436
 30
0.0
 10
103.0404895161675
 20
137.6059476509168
 30
0.0
  0
SPLINE
  5
2DB
330
1F
100
AcDbEntity
  8
0
  6
Continuous
 62
     7
370
    25
100
AcDbSpline
210
0.0
220
0.0
230
1.0
 70
    24
 71
     3
 72
    11
 73
     7
 74
     0
 42
0.00000001
 43
0.00000001
 40
0.0
 40
0.0
 40
0.0
 40
0.0
 40
0.2499999999999999
 40
0.4999999999999992
 40
0.7500000000000028
 40
1.0
 40
1.0
 40
1.0
 40
1.0
 10
137.3172273139052
 20
136.7083796832976
 30
0.0
 10
137.3148662551997
 20
136.6182144890245
 30
0.0
 10
137.3101441377887
 20
136.4378841004783
 30
0.0
 10
137.3041522821269
 20
136.2090643644238
 30
0.0
 10
137.2998933129876
 20
136.0464208948012
 30
0.0
 10
137.299237590476
 20
136.0213798623561
 30
0.0
 10
137.2989097292202
 20
136.0088593461335
 30
0.0
  0
ELLIPSE
  5
2DC
330
1F
100
AcDbEntity
  8
0
  6
Continuous
 62
     7
370
    25
100
AcDbEllipse
 10
103.0404895162
 20
139.3840884735
 30
0.0
 11
1.499999971448745
 21
0.02095282558968847
 31
0.0
210
0.0
220
0.0
230
0.9999999999999998
 40
0.0139678873
 41
3.842044658397004
 42
4.712193869245424
  0
ELLIPSE
  5
2DD
330
1F
100
AcDbEntity
  8
0
  6
Continuous
 62
     7
370
    25
100
AcDbEllipse
 10
103.0404895162
 20
137.5849917326
 30
0.0
 11
1.499999971448745
 21
-0.02095282558966005
 31
0.0
210
0.0
220
0.0
230
1.0
 40
0.0139678873
 41
1.570991437934171
 42
2.441140648780701
  0
SPLINE
  5
2DE
330
1F
100
AcDbEntity
  8
0
  6
Continuous
 62
     7
370
    25
100
AcDbSpline
210
0.0
220
0.0
230
1.0
 70
     8
 71
     3
 72
     9
 73
     5
 74
     0
 42
0.00000001
 43
0.00000001
 40
0.0
 40
0.0
 40
0.0
 40
0.0
 40
0.5600029565045049
 40
1.0
 40
1.0
 40
1.0
 40
1.0
 10
101.893851800719
 20
137.6145160164422
 30
0.0
 10
101.8857040413659
 20
137.614510378376
 30
0.0
 10
101.8711545479061
 20
137.6145003104537
 30
0.0
 10
101.8572099049656
 20
137.6146224870572
 30
0.0
 10
101.8510743032991
 20
137.6146762444015
 30
0.0
  0
ELLIPSE
  5
2DF
330
1F
100
AcDbEntity
  8
0
  6
Continuous
 62
     7
370
    25
100
AcDbEllipse
 10
103.0404895162
 20
137.5674025705
 30
0.0
 11
1.499999872704166
 21
-0.0430792567095466
 31
0.0
210
0.0
220
0.0
230
1.0
 40
0.0143449667
 41
2.486833182542661
 42
2.678357024934972
  0
LINE
  5
2E0
330
1F
100
AcDbEntity
  8
0
  6
Continuous
 62
     7
370
    25
100
AcDbLine
 10
101.6988487297
 20
139.3535234776
 30
0.0
 11
101.6988487297
 21
137.6155567285
 31
0.0
  0
ELLIPSE
  5
2E1
330
1F
100
AcDbEntity
  8
0
  6
Continuous
 62
     7
370
    25
100
AcDbEllipse
 10
103.0404895162
 20
139.4016776356
 30
0.0
 11
1.499999872704166
 21
0.0430792567095466
 31
0.0
210
0.0
220
0.0
230
1.0
 40
0.0143449667
 41
3.604828282247117
 42
3.796352124638184
  0
SPLINE
  5
2E2
330
1F
100
AcDbEntity
  8
0
  6
Continuous
 62
     7
370
    25
100
AcDbSpline
210
0.0
220
0.0
230
1.0
 70
     8
 71
     3
 72
     9
 73
     5
 74
     0
 42
0.00000001
 43
0.00000001
 40
0.0
 40
0.0
 40
0.0
 40
0.0
 40
0.5599925069634167
 40
1.0
 40
1.0
 40
1.0
 40
1.0
 10
101.8510743032991
 20
139.3544039617308
 30
0.0
 10
101.8588971131561
 20
139.3544697068822
 30
0.0
 10
101.8728666033897
 20
139.3545871105092
 30
0.0
 10
101.8874395812602
 20
139.3545711933565
 30
0.0
 10
101.893851800719
 20
139.3545641896901
 30
0.0
  0
ELLIPSE
  5
2E3
330
1F
100
AcDbEntity
  8
0
  6
Continuous
 62
     7
370
    25
100
AcDbEllipse
 10
103.0221719315
 20
136.8854713954
 30
0.0
 11
0.7999998117959422
 21
-0.02096310677481484
 31
0.0
210
0.0
220
0.0
230
0.9999999999999999
 40
0.026176936
 41
1.571482264229207
 42
2.441631475078941
  0
SPLINE
  5
2E4
330
1F
100
AcDbEntity
  8
0
  6
Continuous
 62
     7
370
    25
100
AcDbSpline
210
0.0
220
0.0
230
1.0
 70
     8
 71
     3
 72
    12
 73
     8
 74
     0
 42
0.00000001
 43
0.00000001
 40
0.0
 40
0.0
 40
0.0
 40
0.0
 40
0.2198609600791261
 40
0.4397396970008124
 40
0.658329145139775
 40
0.8791239516843592
 40
1.0
 40
1.0
 40
1.0
 40
1.0
 10
102.4106318165766
 20
136.9149956792781
 30
0.0
 10
102.3507167538477
 20
136.9256676739222
 30
0.0
 10
102.2308817839617
 20
136.9470125260938
 30
0.0
 10
102.0741467956872
 20
137.0751309213608
 30
0.0
 10
101.9575784719011
 20
137.2580688574259
 30
0.0
 10
101.9013217801068
 20
137.449618029313
 30
0.0
 10
101.8958039088905
 20
137.571423700998
 30
0.0
 10
101.893851800719
 20
137.6145160164422
 30
0.0
  0
ELLIPSE
  5
2E5
330
1F
100
AcDbEntity
  8
0
  6
Continuous
 62
     7
370
    25
100
AcDbEllipse
 10
103.0221719315
 20
140.0836088107
 30
0.0
 11
0.7999998117959422
 21
0.02096310677475799
 31
0.0
210
0.0
220
0.0
230
1.0
 40
0.026176936
 41
3.841553832104649
 42
4.711703042950382
  0
SPLINE
  5
2E6
330
1F
100
AcDbEntity
  8
0
  6
Continuous
 62
     7
370
    25
100
AcDbSpline
210
0.0
220
0.0
230
1.0
 70
     8
 71
     3
 72
    12
 73
     8
 74
     0
 42
0.00000001
 43
0.00000001
 40
0.0
 40
0.0
 40
0.0
 40
0.0
 40
0.219861099868321
 40
0.439739976766498
 40
0.6583294271823363
 40
0.8791242261983193
 40
1.0
 40
1.0
 40
1.0
 40
1.0
 10
101.893851800719
 20
139.3545641896901
 30
0.0
 10
101.8999547506144
 20
139.4332550994092
 30
0.0
 10
101.9121611438635
 20
139.5906432814585
 30
0.0
 10
102.0046850849618
 20
139.7999250299435
 30
0.0
 10
102.1404690323836
 20
139.9585743506079
 30
0.0
 10
102.2848968957469
 20
140.0386744133231
 30
0.0
 10
102.3777739073957
 20
140.0500574506248
 30
0.0
 10
102.4106318165766
 20
140.0540845268542
 30
0.0
  0
ELLIPSE
  5
2E7
330
1F
100
AcDbEntity
  8
0
  6
Continuous
 62
     7
370
    25
100
AcDbEllipse
 10
137.3224555274
 20
139.4602888664
 30
0.0
 11
1.557390436637235
 21
0.09517594847733335
 31
0.0
210
0.0
220
0.0
230
1.0
 40
0.9613560848
 41
0.8784769082856017
 42
1.527206254409841
  0
SPLINE
  5
2E8
330
1F
100
AcDbEntity
  8
0
  6
Continuous
 62
     7
370
    25
100
AcDbSpline
210
0.0
220
0.0
230
1.0
 70
    24
 71
     3
 72
    10
 73
     6
 74
     0
 42
0.00000001
 43
0.00000001
 40
0.0
 40
0.0
 40
0.0
 40
0.0
 40
0.2808335173386723
 40
0.561651091741412
 40
0.9999999999999999
 40
0.9999999999999999
 40
0.9999999999999999
 40
0.9999999999999999
 10
138.2461435310527
 20
140.6735431708988
 30
0.0
 10
138.2279354114078
 20
140.6420631681038
 30
0.0
 10
138.1915202057942
 20
140.5791049496355
 30
0.0
 10
138.0817371209939
 20
140.3893010663257
 30
0.0
 10
137.98277516826
 20
140.2182058291773
 30
0.0
 10
137.9224555274177
 20
140.1139192526746
 30
0.0
  0
SPLINE
  5
2E9
330
1F
100
AcDbEntity
  8
0
  6
Continuous
 62
     7
370
    25
100
AcDbSpline
210
0.0
220
0.0
230
1.0
 70
     8
 71
     3
 72
    11
 73
     7
 74
     0
 42
0.00000001
 43
0.00000001
 40
0.0
 40
0.0
 40
0.0
 40
0.0
 40
0.2561894651307118
 40
0.5096044939206583
 40
0.7692742066444709
 40
1.0
 40
1.0
 40
1.0
 40
1.0
 10
139.1224555274177
 20
139.4969563376996
 30
0.0
 10
139.0780905368009
 20
139.6104638730208
 30
0.0
 10
138.9898410118662
 20
139.8362496993977
 30
0.0
 10
138.7800289249417
 20
140.1614520351571
 30
0.0
 10
138.5325210554501
 20
140.4514083930864
 30
0.0
 10
138.3377712247119
 20
140.6024702142647
 30
0.0
 10
138.2461435310527
 20
140.6735431708988
 30
0.0
  0
SPLINE
  5
2EA
330
1F
100
AcDbEntity
  8
0
  6
Continuous
 62
     7
370
    25
100
AcDbSpline
210
0.0
220
0.0
230
1.0
 70
    24
 71
     3
 72
    10
 73
     6
 74
     0
 42
0.00000001
 43
0.00000001
 40
0.0
 40
0.0
 40
0.0
 40
0.0
 40
0.2808335173386721
 40
0.5616510917414105
 40
1.0
 40
1.0
 40
1.0
 40
1.0
 10
137.9224555274177
 20
136.8551609534577
 30
0.0
 10
137.9608059763801
 20
136.7888568943854
 30
0.0
 10
138.0375046971477
 20
136.6562525403262
 30
0.0
 10
138.1626590471896
 20
136.4398732894218
 30
0.0
 10
138.2145281135429
 20
136.3501969040714
 30
0.0
 10
138.2461435310527
 20
136.2955370352335
 30
0.0
  0
ELLIPSE
  5
2EB
330
1F
100
AcDbEntity
  8
0
  6
Continuous
 62
     7
370
    25
100
AcDbEllipse
 10
137.3224555274
 20
137.5087913397
 30
0.0
 11
1.557390436637235
 21
-0.09517594847733335
 31
0.0
210
0.0
220
0.0
230
1.0
 40
0.9613560848
 41
4.755979052769777
 42
5.404708398894013
  0
SPLINE
  5
2EC
330
1F
100
AcDbEntity
  8
0
  6
Continuous
 62
     7
370
    25
100
AcDbSpline
210
0.0
220
0.0
230
1.0
 70
     8
 71
     3
 72
    11
 73
     7
 74
     0
 42
0.00000001
 43
0.00000001
 40
0.0
 40
0.0
 40
0.0
 40
0.0
 40
0.2307374805226518
 40
0.490395540300586
 40
0.7438105520730652
 40
0.9999999999999999
 40
0.9999999999999999
 40
0.9999999999999999
 40
0.9999999999999999
 10
138.2461435310527
 20
136.2955370352335
 30
0.0
 10
138.3377755358122
 20
136.3666140534236
 30
0.0
 10
138.5325246783488
 20
136.5176768658429
 30
0.0
 10
138.7800322455868
 20
136.8076328949984
 30
0.0
 10
138.9898409749809
 20
137.1328305555471
 30
0.0
 10
139.0780905244612
 20
137.3586163494412
 30
0.0
 10
139.1224555274177
 20
137.4721238684327
 30
0.0
  0
LINE
  5
2ED
330
1F
100
AcDbEntity
  8
0
  6
Continuous
 62
     7
370
    25
100
AcDbLine
 10
139.4224689827
 20
141.0899967732
 30
0.0
 11
137.2989097292
 21
140.96022086
 31
0.0
  0
SPLINE
  5
2EE
330
1F
100
AcDbEntity
  8
0
  6
Continuous
 62
     7
370
    25
100
AcDbSpline
210
0.0
220
0.0
230
1.0
 70
     8
 71
     3
 72
    13
 73
     9
 74
     0
 42
0.00000001
 43
0.00000001
 40
0.0
 40
0.0
 40
0.0
 40
0.0
 40
0.1035746466401554
 40
0.2111076158583393
 40
0.3219769626223817
 40
0.4454462032504116
 40
0.711304972801038
 40
1.0
 40
1.0
 40
1.0
 40
1.0
 10
141.5224555274177
 20
139.6436262227663
 30
0.0
 10
141.5151993626573
 20
139.7419690012151
 30
0.0
 10
141.5004097235656
 20
139.9424129338635
 30
0.0
 10
141.3741371140038
 20
140.2253549840934
 30
0.0
 10
141.1775897258729
 20
140.4836132091124
 30
0.0
 10
140.8137380527857
 20
140.7867085588674
 30
0.0
 10
140.2161506660504
 20
141.0522382251509
 30
0.0
 10
139.6941941824906
 20
141.0770697405658
 30
0.0
 10
139.4224689826973
 20
141.0899967731821
 30
0.0
  0
LINE
  5
2EF
330
1F
100
AcDbEntity
  8
0
  6
Continuous
 62
     7
370
    25
100
AcDbLine
 10
139.1224555274
 20
139.4969563377
 30
0.0
 11
141.5224555274
 21
139.6436262228
 31
0.0
  0
LINE
  5
2F0
330
1F
100
AcDbEntity
  8
0
  6
Continuous
 62
     7
370
    25
100
AcDbLine
 10
141.5224555274
 20
137.3254539834
 30
0.0
 11
139.1224555274
 21
137.4721238684
 31
0.0
  0
SPLINE
  5
2F1
330
1F
100
AcDbEntity
  8
0
  6
Continuous
 62
     7
370
    25
100
AcDbSpline
210
0.0
220
0.0
230
1.0
 70
     8
 71
     3
 72
    13
 73
     9
 74
     0
 42
0.00000001
 43
0.00000001
 40
0.0
 40
0.0
 40
0.0
 40
0.0
 40
0.2886949682914849
 40
0.5545536835943156
 40
0.6780091910936107
 40
0.78889220838012
 40
0.896419407140649
 40
1.0
 40
1.0
 40
1.0
 40
1.0
 10
139.4224689826973
 20
135.8790834329502
 30
0.0
 10
139.6941941732735
 20
135.892010438433
 30
0.0
 10
140.2161506391279
 20
135.916841901727
 30
0.0
 10
140.8137260472312
 20
136.1823665031595
 30
0.0
 10
141.1775802274107
 20
136.4854574997638
 30
0.0
 10
141.3741277189764
 20
136.7437092538844
 30
0.0
 10
141.5004110080826
 20
137.0266606200526
 30
0.0
 10
141.5151995100537
 20
137.2271052827438
 30
0.0
 10
141.5224555274177
 20
137.3254539833659
 30
0.0
  0
LINE
  5
2F2
330
1F
100
AcDbEntity
  8
0
  6
Continuous
 62
     7
370
    25
100
AcDbLine
 10
137.2989097292
 20
136.0088593461
 30
0.0
 11
139.4224689827
 21
135.879083433
 31
0.0
  0
SPLINE
  5
2F3
330
1F
100
AcDbEntity
  8
0
  6
Continuous
 62
     7
370
    25
100
AcDbSpline
210
0.0
220
0.0
230
1.0
 70
     8
 71
     3
 72
    12
 73
     8
 74
     0
 42
0.00000001
 43
0.00000001
 40
0.0
 40
0.0
 40
0.0
 40
0.0
 40
0.2225634137434379
 40
0.4462063173695244
 40
0.6680851268156931
 40
0.8917990985568365
 40
1.0
 40
1.0
 40
1.0
 40
1.0
 10
102.3685162335441
 20
140.0531392909821
 30
0.0
 10
102.3068196679093
 20
140.0407861834154
 30
0.0
 10
102.1831272924049
 20
140.0160200525284
 30
0.0
 10
102.0239609506113
 20
139.8834361245305
 30
0.0
 10
101.9078790625945
 20
139.6970787210359
 30
0.0
 10
101.8561640118665
 20
139.5089879096827
 30
0.0
 10
101.8523255900896
 20
139.3924078767943
 30
0.0
 10
101.8510743032991
 20
139.3544039617308
 30
0.0
  0
SPLINE
  5
2F4
330
1F
100
AcDbEntity
  8
0
  6
Continuous
 62
     7
370
    25
100
AcDbSpline
210
0.0
220
0.0
230
1.0
 70
     8
 71
     3
 72
    12
 73
     8
 74
     0
 42
0.00000001
 43
0.00000001
 40
0.0
 40
0.0
 40
0.0
 40
0.0
 40
0.2225634137435262
 40
0.4462063173695686
 40
0.6680851268158022
 40
0.8917990985569295
 40
1.0
 40
1.0
 40
1.0
 40
1.0
 10
101.8510743032991
 20
137.6146762444015
 30
0.0
 10
101.8566608694017
 20
137.5361725843589
 30
0.0
 10
101.8678610978912
 20
137.3787845013022
 30
0.0
 10
101.9619118755783
 20
137.1694329636748
 30
0.0
 10
102.1014029389763
 20
137.0106736692048
 30
0.0
 10
102.2466270388126
 20
136.9328247988881
 30
0.0
 10
102.3385502075427
 20
136.9200917580547
 30
0.0
 10
102.3685162335441
 20
136.9159409151501
 30
0.0
  0
ELLIPSE
  5
2F5
330
1F
100
AcDbEntity
  8
0
  6
Continuous
 62
     7
370
    25
100
AcDbEllipse
 10
103.0028710137
 20
136.8686672413
 30
0.0
 11
0.7999991634988818
 21
-0.04310148564323413
 31
0.0
210
0.0
220
0.0
230
1.0
 40
0.0268411366
 41
2.487867318781961
 42
2.679391161174528
  0
SPLINE
  5
2F6
330
1F
100
AcDbEntity
  8
0
  6
Continuous
 62
     7
370
    25
100
AcDbSpline
210
0.0
220
0.0
230
1.0
 70
     8
 71
     3
 72
    11
 73
     7
 74
     0
 42
0.00000001
 43
0.00000001
 40
0.0
 40
0.0
 40
0.0
 40
0.0
 40
0.2499999999999989
 40
0.4999999999999977
 40
0.7499999999999992
 40
1.0
 40
1.0
 40
1.0
 40
1.0
 10
102.2873292609407
 20
136.9168213992961
 30
0.0
 10
102.2090941526084
 20
136.9318207044627
 30
0.0
 10
102.0526239359439
 20
136.9618193147958
 30
0.0
 10
101.8592977845274
 20
137.1253390175925
 30
0.0
 10
101.7249213522484
 20
137.3509186316749
 30
0.0
 10
101.7075396038612
 20
137.5273440295899
 30
0.0
 10
101.6988487296677
 20
137.6155567285474
 30
0.0
  0
SPLINE
  5
2F7
330
1F
100
AcDbEntity
  8
0
  6
Continuous
 62
     7
370
    25
100
AcDbSpline
210
0.0
220
0.0
230
1.0
 70
     8
 71
     3
 72
    11
 73
     7
 74
     0
 42
0.00000001
 43
0.00000001
 40
0.0
 40
0.0
 40
0.0
 40
0.0
 40
0.2499999999999988
 40
0.5000000000000019
 40
0.7499999999999991
 40
1.0
 40
1.0
 40
1.0
 40
1.0
 10
102.2873292609407
 20
140.0522588068361
 30
0.0
 10
102.2090941526085
 20
140.0372595016696
 30
0.0
 10
102.0526239359439
 20
140.0072608913364
 30
0.0
 10
101.8592977845274
 20
139.8437411885398
 30
0.0
 10
101.7249213522484
 20
139.6181615744574
 30
0.0
 10
101.7075396038612
 20
139.4417361765423
 30
0.0
 10
101.6988487296677
 20
139.3535234775848
 30
0.0
  0
ELLIPSE
  5
2F8
330
1F
100
AcDbEntity
  8
0
  6
Continuous
 62
     7
370
    25
100
AcDbEllipse
 10
103.0028710137
 20
140.1004129649
 30
0.0
 11
0.7999991634988818
 21
0.04310148564320571
 31
0.0
210
0.0
220
0.0
230
0.9999999999999999
 40
0.0268411366
 41
3.603794146007254
 42
3.795317988398133
  0
LINE
  5
2F9
330
1F
100
AcDbEntity
  8
0
  6
Continuous
 62
     7
370
    25
100
AcDbLine
 10
141.5224555274
 20
139.6436262228
 30
0.0
 11
141.5224555274
 21
137.3254539834
 31
0.0
  0
LINE
  5
2FA
330
1F
100
AcDbEntity
  8
0
  6
Continuous
 62
     7
370
    25
100
AcDbLine
 10
102.1881869054
 20
140.2707807655
 30
0.0
 11
123.8157350741
 21
140.8371180456
 31
0.0
  0
SPLINE
  5
2FB
330
1F
100
AcDbEntity
  8
0
  6
Continuous
 62
     7
370
    25
100
AcDbSpline
210
0.0
220
0.0
230
1.0
 70
     8
 71
     3
 72
     9
 73
     5
 74
     0
 42
0.00000001
 43
0.00000001
 40
0.0
 40
0.0
 40
0.0
 40
0.0
 40
0.5600012771711204
 40
1.0
 40
1.0
 40
1.0
 40
1.0
 10
123.8157350741365
 20
140.8371180455633
 30
0.0
 10
124.2931652106615
 20
140.8252836332182
 30
0.0
 10
125.1457170815015
 20
140.8041508022275
 30
0.0
 10
126.0026062861449
 20
140.783190072815
 30
0.0
 10
126.3796364417939
 20
140.773967378644
 30
0.0
  0
SPLINE
  5
2FC
330
1F
100
AcDbEntity
  8
0
  6
Continuous
 62
     7
370
    25
100
AcDbSpline
210
0.0
220
0.0
230
1.0
 70
     8
 71
     3
 72
     9
 73
     5
 74
     0
 42
0.00000001
 43
0.00000001
 40
0.0
 40
0.0
 40
0.0
 40
0.0
 40
0.5599999095971008
 40
1.0
 40
1.0
 40
1.0
 40
1.0
 10
126.3796364417939
 20
140.773967378644
 30
0.0
 10
126.4737659324564
 20
140.7716699687467
 30
0.0
 10
126.6418543357745
 20
140.7675674504108
 30
0.0
 10
126.8100968554703
 20
140.7634710572178
 30
0.0
 10
126.884123579346
 20
140.7616686438425
 30
0.0
  0
LINE
  5
2FD
330
1F
100
AcDbEntity
  8
0
  6
Continuous
 62
     7
370
    25
100
AcDbLine
 10
126.8841235793
 20
140.7616686438
 30
0.0
 11
139.4224689827
 21
141.0899967732
 31
0.0
  0
LINE
  5
2FE
330
1F
100
AcDbEntity
  8
0
  6
Continuous
 62
     7
370
    25
100
AcDbLine
 10
102.4106318166
 20
140.0540845269
 30
0.0
 11
102.1881869054
 21
140.2707807655
 31
0.0
  0
LINE
  5
2FF
330
1F
100
AcDbEntity
  8
0
  6
Continuous
 62
     7
370
    25
100
AcDbLine
 10
139.4224689827
 20
135.879083433
 30
0.0
 11
126.8841235793
 21
136.2074115623
 31
0.0
  0
SPLINE
  5
300
330
1F
100
AcDbEntity
  8
0
  6
Continuous
 62
     7
370
    25
100
AcDbSpline
210
0.0
220
0.0
230
1.0
 70
     8
 71
     3
 72
     9
 73
     5
 74
     0
 42
0.00000001
 43
0.00000001
 40
0.0
 40
0.0
 40
0.0
 40
0.0
 40
0.5600000882143288
 40
1.0
 40
1.0
 40
1.0
 40
1.0
 10
126.884123579346
 20
136.2074115622897
 30
0.0
 10
126.7899111638143
 20
136.2051174461487
 30
0.0
 10
126.6216747340093
 20
136.2010208108278
 30
0.0
 10
126.4535925763408
 20
136.1969180443685
 30
0.0
 10
126.3796364417939
 20
136.1951128274883
 30
0.0
  0
SPLINE
  5
301
330
1F
100
AcDbEntity
  8
0
  6
Continuous
 62
     7
370
    25
100
AcDbSpline
210
0.0
220
0.0
230
1.0
 70
     8
 71
     3
 72
     9
 73
     5
 74
     0
 42
0.00000001
 43
0.00000001
 40
0.0
 40
0.0
 40
0.0
 40
0.0
 40
0.5599987526606145
 40
1.0
 40
1.0
 40
1.0
 40
1.0
 10
126.3796364417939
 20
136.1951128274883
 30
0.0
 10
125.8998701839067
 20
136.1833712409659
 30
0.0
 10
125.0431428151265
 20
136.1624040754739
 30
0.0
 10
124.1907770666538
 20
136.1412638751017
 30
0.0
 10
123.8157350741365
 20
136.131962160569
 30
0.0
  0
LINE
  5
302
330
1F
100
AcDbEntity
  8
0
  6
Continuous
 62
     7
370
    25
100
AcDbLine
 10
123.8157350741
 20
136.1319621606
 30
0.0
 11
102.1881869054
 21
136.6982994406
 31
0.0
  0
LINE
  5
303
330
1F
100
AcDbEntity
  8
0
  6
Continuous
 62
     7
370
    25
100
AcDbLine
 10
102.1881869054
 20
136.6982994406
 30
0.0
 11
102.4106318166
 21
136.9149956793
 31
0.0
  0
LINE
  5
304
330
1F
100
AcDbEntity
  8
0
  6
Continuous
 62
     7
370
    25
100
AcDbLine
 10
97.8818594367
 20
136.9168213993
 30
0.0
 11
102.2873292609
 21
136.9168213993
 31
0.0
  0
SPLINE
  5
305
330
1F
100
AcDbEntity
  8
0
  6
Continuous
 62
     7
370
    25
100
AcDbSpline
210
0.0
220
0.0
230
1.0
 70
     8
 71
     3
 72
    12
 73
     8
 74
     0
 42
0.00000001
 43
0.00000001
 40
0.0
 40
0.0
 40
0.0
 40
0.0
 40
0.1396834586182491
 40
0.3831896274038308
 40
0.5513169293013305
 40
0.8194729461607058
 40
1.0
 40
1.0
 40
1.0
 40
1.0
 10
97.11989858651243
 20
137.6155567285474
 30
0.0
 10
97.13013996725873
 20
137.565841808069
 30
0.0
 10
97.15823485344704
 20
137.4294602920112
 30
0.0
 10
97.26538521480182
 20
137.249544182799
 30
0.0
 10
97.44572230221479
 20
137.0712027544141
 30
0.0
 10
97.6541784467838
 20
136.9506825298627
 30
0.0
 10
97.81653534748772
 20
136.9265365165558
 30
0.0
 10
97.88185943673612
 20
136.9168213992961
 30
0.0
  0
LINE
  5
306
330
1F
100
AcDbEntity
  8
0
  6
Continuous
 62
     7
370
    25
100
AcDbLine
 10
101.6988487297
 20
137.6155567285
 30
0.0
 11
97.1198985865
 21
137.6155567285
 31
0.0
  0
LINE
  5
307
330
1F
100
AcDbEntity
  8
0
  6
Continuous
 62
     7
370
    25
100
AcDbLine
 10
97.1198985865
 20
139.3535234776
 30
0.0
 11
101.6988487297
 21
139.3535234776
 31
0.0
  0
SPLINE
  5
308
330
1F
100
AcDbEntity
  8
0
  6
Continuous
 62
     7
370
    25
100
AcDbSpline
210
0.0
220
0.0
230
1.0
 70
     8
 71
     3
 72
    13
 73
     9
 74
     0
 42
0.00000001
 43
0.00000001
 40
0.0
 40
0.0
 40
0.0
 40
0.0
 40
0.1143463544469914
 40
0.2890454840074684
 40
0.5294852105593207
 40
0.7014879056604273
 40
0.9335094878266192
 40
1.0
 40
1.0
 40
1.0
 40
1.0
 10
97.88185943673614
 20
140.0522588068361
 30
0.0
 10
97.84065823602717
 20
140.0474242153311
 30
0.0
 10
97.73650956370433
 20
140.035203302401
 30
0.0
 10
97.5491500693245
 20
139.96255520736
 30
0.0
 10
97.36712233931567
 20
139.8320429409532
 30
0.0
 10
97.21483875810134
 20
139.6451753417836
 30
0.0
 10
97.14233548122131
 20
139.483801937027
 30
0.0
 10
97.12398579190265
 20
139.377255586175
 30
0.0
 10
97.11989858651243
 20
139.3535234775848
 30
0.0
  0
LINE
  5
309
330
1F
100
AcDbEntity
  8
0
  6
Continuous
 62
     7
370
    25
100
AcDbLine
 10
102.2873292609
 20
140.0522588068
 30
0.0
 11
97.8818594367
 21
140.0522588068
 31
0.0
  0
ELLIPSE
  5
30A
330
1F
100
AcDbEntity
  8
0
  6
Continuous
 62
     7
370
    25
100
AcDbEllipse
 10
97.4752419319
 20
138.6590786582
 30
0.0
 11
0.008721666502680138
 21
1.000418978703721
 31
0.0
210
0.0
220
0.0
230
1.0
 40
0.499714557
 41
0.8079180407726582
 42
1.588240544501508
  0
ELLIPSE
  5
30B
330
1F
100
AcDbEntity
  8
0
  6
Continuous
 62
     7
370
    25
100
AcDbEllipse
 10
97.4752419319
 20
138.3100015479
 30
0.0
 11
-0.008721666502680138
 21
1.000418978703749
 31
0.0
210
0.0
220
0.0
230
1.0
 40
0.499714557
 41
1.553352109088258
 42
2.333674612817121
  0
LINE
  5
30C
330
1F
100
AcDbEntity
  8
0
  6
Continuous
 62
     7
370
    25
100
AcDbLine
 10
96.9752419319
 20
138.6459856974
 30
0.0
 11
96.9752419319
 21
138.3230945087
 31
0.0
  0
LINE
  5
30D
330
1F
100
AcDbEntity
  8
0
  6
Continuous
 62
     7
370
    25
100
AcDbLine
 10
102.1893147626
 20
140.2277096351
 30
0.0
 11
102.1881869054
 21
140.2707807655
 31
0.0
  0
LINE
  5
30E
330
1F
100
AcDbEntity
  8
0
  6
Continuous
 62
     7
370
    25
100
AcDbLine
 10
102.1893147626
 20
136.741370571
 30
0.0
 11
102.1881869054
 21
136.6982994406
 31
0.0
  0
ELLIPSE
  5
30F
330
1F
100
AcDbEntity
  8
0
  6
Continuous
 62
     7
370
    25
100
AcDbEllipse
 10
65.9714483279
 20
138.3222123785
 30
0.0
 11
36.18915845259187
 21
1.947628334984216
 31
0.0
210
0.0
220
0.0
230
1.0
 40
0.0007414247
 41
0.028288557662673
 42
0.4911607830431262
  0
LINE
  5
310
330
1F
100
AcDbEntity
  8
0
  6
Continuous
 62
     7
370
    25
100
AcDbLine
 10
102.1460868511
 20
140.2698204022
 30
0.0
 11
102.3685162335
 21
140.053139291
 31
0.0
  0
LINE
  5
311
330
1F
100
AcDbEntity
  8
0
  6
Continuous
 62
     7
370
    25
100
AcDbLine
 10
102.3685162335
 20
136.9159409152
 30
0.0
 11
102.1460868511
 21
136.6992598039
 31
0.0
  0
ELLIPSE
  5
312
330
1F
100
AcDbEntity
  8
0
  6
Continuous
 62
     7
370
    25
100
AcDbEllipse
 10
65.9714483279
 20
138.6468678277
 30
0.0
 11
36.18915845257648
 21
-1.947628334983363
 31
0.0
210
0.0
220
0.0
230
1.0
 40
0.0007414247
 41
5.792024524150259
 42
6.254896749548009
  0
LINE
  5
313
330
1F
100
AcDbEntity
  8
0
  6
Continuous
 62
     7
370
    25
100
AcDbLine
 10
129.9903311054
 20
141.3494885152
 30
0.0
 11
130.6409845715
 21
141.5835836491
 31
0.0
  0
SPLINE
  5
314
330
1F
100
AcDbEntity
  8
0
  6
Continuous
 62
     7
370
    25
100
AcDbSpline
210
0.0
220
0.0
230
1.0
 70
     8
 71
     3
 72
    10
 73
     6
 74
     0
 42
0.00000001
 43
0.00000001
 40
0.0
 40
0.0
 40
0.0
 40
0.0
 40
0.2383396858856105
 40
0.5716506333689656
 40
1.0
 40
1.0
 40
1.0
 40
1.0
 10
129.9924312653348
 20
141.3430625451209
 30
0.0
 10
129.7481650102347
 20
141.268464342694
 30
0.0
 10
129.1622996772343
 20
141.0895427774201
 30
0.0
 10
128.1257448762287
 20
140.8531986651651
 30
0.0
 10
127.3310507806292
 20
140.7946152889797
 30
0.0
 10
126.8841235793462
 20
140.7616686438425
 30
0.0
  0
SPLINE
  5
315
330
1F
100
AcDbEntity
  8
0
  6
Continuous
 62
     7
370
    25
100
AcDbSpline
210
0.0
220
0.0
230
1.0
 70
     8
 71
     3
 72
    11
 73
     7
 74
     0
 42
0.00000001
 43
0.00000001
 40
0.0
 40
0.0
 40
0.0
 40
0.0
 40
0.250667172502349
 40
0.5010414677145716
 40
0.7508849997170931
 40
1.0
 40
1.0
 40
1.0
 40
1.0
 10
123.8157350741365
 20
140.8371180455633
 30
0.0
 10
124.2914230866971
 20
140.8639926122184
 30
0.0
 10
125.2422433221843
 20
140.9177103455246
 30
0.0
 10
126.6429159393965
 20
141.2031758091785
 30
0.0
 10
128.0064817006483
 20
141.6247039557982
 30
0.0
 10
128.8591492472042
 20
142.0410610334951
 30
0.0
 10
129.2848605285176
 20
142.2489356098716
 30
0.0
  0
SPLINE
  5
316
330
1F
100
AcDbEntity
  8
0
  6
Continuous
 62
     7
370
    25
100
AcDbSpline
210
0.0
220
0.0
230
1.0
 70
     8
 71
     3
 72
     9
 73
     5
 74
     0
 42
0.00000001
 43
0.00000001
 40
0.0
 40
0.0
 40
0.0
 40
0.0
 40
0.5013259021989908
 40
1.0
 40
1.0
 40
1.0
 40
1.0
 10
129.2848604990758
 20
142.2489356632358
 30
0.0
 10
129.5089361999099
 20
142.3739783207059
 30
0.0
 10
129.9559023348156
 20
142.6234022122735
 30
0.0
 10
130.3699476145111
 20
142.9251703206947
 30
0.0
 10
130.5764212708121
 20
143.0756542599068
 30
0.0
  0
LINE
  5
317
330
1F
100
AcDbEntity
  8
0
  6
Continuous
 62
     7
370
    25
100
AcDbLine
 10
132.6422017308
 20
143.1904206992
 30
0.0
 11
130.5762479959
 21
143.0756454917
 31
0.0
  0
SPLINE
  5
318
330
1F
100
AcDbEntity
  8
0
  6
Continuous
 62
     7
370
    25
100
AcDbSpline
210
0.0
220
0.0
230
1.0
 70
     8
 71
     3
 72
    14
 73
    10
 74
     0
 42
0.00000001
 43
0.00000001
 40
0.0
 40
0.0
 40
0.0
 40
0.0
 40
0.0829413618596713
 40
0.1664594845668898
 40
0.2437726390188678
 40
0.3161479456895739
 40
0.4353725718192334
 40
0.64862906705142
 40
1.0
 40
1.0
 40
1.0
 40
1.0
 10
132.6422017179714
 20
143.1904206944035
 30
0.0
 10
132.6880010192463
 20
143.1886055048211
 30
0.0
 10
132.7799181027474
 20
143.1849625031208
 30
0.0
 10
132.8304631352837
 20
143.1033013706332
 30
0.0
 10
132.7895582388434
 20
142.9700178903484
 30
0.0
 10
132.6539571927389
 20
142.7816914341108
 30
0.0
 10
132.3370489219942
 20
142.4834243544485
 30
0.0
 10
131.660060311761
 20
142.0253971956632
 30
0.0
 10
131.0318934955475
 20
141.7530616669853
 30
0.0
 10
130.6409816318227
 20
141.5835856833355
 30
0.0
  0
LINE
  5
319
330
1F
100
AcDbEntity
  8
0
  6
Continuous
 62
     7
370
    25
100
AcDbLine
 10
130.5762479959
 20
133.8934347144
 30
0.0
 11
132.6422017308
 21
133.7786595069
 31
0.0
  0
SPLINE
  5
31A
330
1F
100
AcDbEntity
  8
0
  6
Continuous
 62
     7
370
    25
100
AcDbSpline
210
0.0
220
0.0
230
1.0
 70
     8
 71
     3
 72
     9
 73
     5
 74
     0
 42
0.00000001
 43
0.00000001
 40
0.0
 40
0.0
 40
0.0
 40
0.0
 40
0.4986740982738611
 40
1.0
 40
1.0
 40
1.0
 40
1.0
 10
130.5764210695865
 20
133.8934257643902
 30
0.0
 10
130.3699474285167
 20
134.0439097006692
 30
0.0
 10
129.9559021797571
 20
134.3456778029226
 30
0.0
 10
129.5089360778122
 20
134.5951016945449
 30
0.0
 10
129.2848603937137
 20
134.7201443519245
 30
0.0
  0
SPLINE
  5
31B
330
1F
100
AcDbEntity
  8
0
  6
Continuous
 62
     7
370
    25
100
AcDbSpline
210
0.0
220
0.0
230
1.0
 70
     8
 71
     3
 72
    11
 73
     7
 74
     0
 42
0.00000001
 43
0.00000001
 40
0.0
 40
0.0
 40
0.0
 40
0.0
 40
0.2491150002829084
 40
0.498958532285429
 40
0.7493328274976521
 40
1.0
 40
1.0
 40
1.0
 40
1.0
 10
129.2848605285176
 20
134.7201445962606
 30
0.0
 10
128.8591492472042
 20
134.9280191726371
 30
0.0
 10
128.0064817006483
 20
135.3443762503341
 30
0.0
 10
126.6429159393965
 20
135.7659043969538
 30
0.0
 10
125.2422433221843
 20
136.0513698606077
 30
0.0
 10
124.2914230866971
 20
136.1050875939139
 30
0.0
 10
123.8157350741365
 20
136.131962160569
 30
0.0
  0
SPLINE
  5
31C
330
1F
100
AcDbEntity
  8
0
  6
Continuous
 62
     7
370
    25
100
AcDbSpline
210
0.0
220
0.0
230
1.0
 70
     8
 71
     3
 72
    10
 73
     6
 74
     0
 42
0.00000001
 43
0.00000001
 40
0.0
 40
0.0
 40
0.0
 40
0.0
 40
0.4283493666310625
 40
0.761660314114417
 40
0.9999999999999999
 40
0.9999999999999999
 40
0.9999999999999999
 40
0.9999999999999999
 10
126.8841235793462
 20
136.2074115622898
 30
0.0
 10
127.3310507806293
 20
136.1744649171526
 30
0.0
 10
128.1257448762288
 20
136.1158815409672
 30
0.0
 10
129.1622996772344
 20
135.8795374287123
 30
0.0
 10
129.7481650102348
 20
135.7006158634385
 30
0.0
 10
129.9924312653348
 20
135.6260176610116
 30
0.0
  0
LINE
  5
31D
330
1F
100
AcDbEntity
  8
0
  6
Continuous
 62
     7
370
    25
100
AcDbLine
 10
129.9903311053
 20
135.6195916906
 30
0.0
 11
130.6409845714
 21
135.3854965568
 31
0.0
  0
SPLINE
  5
31E
330
1F
100
AcDbEntity
  8
0
  6
Continuous
 62
     7
370
    25
100
AcDbSpline
210
0.0
220
0.0
230
1.0
 70
     8
 71
     3
 72
    15
 73
    11
 74
     0
 42
0.00000001
 43
0.00000001
 40
0.0
 40
0.0
 40
0.0
 40
0.0
 40
0.2091652517822445
 40
0.4176299509274902
 40
0.5931463878153087
 40
0.6923603779431098
 40
0.7731125739307014
 40
0.854336688096843
 40
0.9261517123972136
 40
1.0
 40
1.0
 40
1.0
 40
1.0
 10
130.6409816317322
 20
135.3854945225653
 30
0.0
 10
130.8745658438276
 20
135.2877968900759
 30
0.0
 10
131.3409519294877
 20
135.0927288416566
 30
0.0
 10
131.9646020766668
 20
134.7434489883041
 30
0.0
 10
132.4244517059674
 20
134.4105588013607
 30
0.0
 10
132.6863360767373
 20
134.1489407153247
 30
0.0
 10
132.8068060572525
 20
133.9683467024109
 30
0.0
 10
132.8255992841622
 20
133.8462525391006
 30
0.0
 10
132.7645610828557
 20
133.7822025497821
 30
0.0
 10
132.6833659643443
 20
133.7798514637442
 30
0.0
 10
132.6422017179364
 20
133.7786595117307
 30
0.0
  0
SPLINE
  5
31F
330
1F
100
AcDbEntity
  8
0
  6
Continuous
 62
     7
370
    25
100
AcDbSpline
210
0.0
220
0.0
230
1.0
 70
    24
 71
     3
 72
    11
 73
     7
 74
     0
 42
0.00000001
 43
0.00000001
 40
0.0
 40
0.0
 40
0.0
 40
0.0
 40
0.2500000000000006
 40
0.5000000000000007
 40
0.7499999999999996
 40
1.0
 40
1.0
 40
1.0
 40
1.0
 10
139.4093849936365
 20
135.3794260492616
 30
0.0
 10
139.4110714641405
 20
135.4438297594567
 30
0.0
 10
139.4144444051483
 20
135.5726371798468
 30
0.0
 10
139.4187243020496
 20
135.7360798484571
 30
0.0
 10
139.4217664228634
 20
135.8522537553305
 30
0.0
 10
139.422234796086
 20
135.870140207077
 30
0.0
 10
139.4224689826973
 20
135.8790834329502
 30
0.0
  0
LINE
  5
320
330
1F
100
AcDbEntity
  8
0
  6
Continuous
 62
     7
370
    25
100
AcDbLine
 10
129.9924312653
 20
135.626017661
 30
0.0
 11
139.4093849936
 21
135.3794260493
 31
0.0
  0
LINE
  5
321
330
1F
100
AcDbEntity
  8
0
  6
Continuous
 62
     7
370
    25
100
AcDbLine
 10
139.4093849936
 20
141.5896541569
 30
0.0
 11
129.9924312653
 21
141.3430625451
 31
0.0
  0
SPLINE
  5
322
330
1F
100
AcDbEntity
  8
0
  6
Continuous
 62
     7
370
    25
100
AcDbSpline
210
0.0
220
0.0
230
1.0
 70
    24
 71
     3
 72
    11
 73
     7
 74
     0
 42
0.00000001
 43
0.00000001
 40
0.0
 40
0.0
 40
0.0
 40
0.0
 40
0.2500000000000003
 40
0.4999999999999991
 40
0.7499999999999989
 40
0.9999999999999999
 40
0.9999999999999999
 40
0.9999999999999999
 40
0.9999999999999999
 10
139.4224689826973
 20
141.0899967731821
 30
0.0
 10
139.422234796086
 20
141.0989399990553
 30
0.0
 10
139.4217664228634
 20
141.1168264508019
 30
0.0
 10
139.4187243020496
 20
141.2330003576751
 30
0.0
 10
139.4144444051483
 20
141.3964430262855
 30
0.0
 10
139.4110714641405
 20
141.5252504466756
 30
0.0
 10
139.4093849936365
 20
141.5896541568707
 30
0.0
  0
ELLIPSE
  5
323
330
1F
100
AcDbEntity
  8
0
  6
Continuous
 62
     7
370
    25
100
AcDbEllipse
 10
139.4224555274
 20
137.3804551903
 30
0.0
 11
2.497021557391577
 21
-0.152599110346614
 31
2.131628207280301E-14
210
-8.504919643681399E-15
220
5.197564944337183E-16
230
0.9999999999999998
 40
0.7994627403
 41
4.755979052769776
 42
6.332003616895593
  0
SPLINE
  5
324
330
1F
100
AcDbEntity
  8
0
  6
Continuous
 62
     7
370
    25
100
AcDbSpline
210
0.0
220
0.0
230
1.0
 70
    24
 71
     3
 72
    11
 73
     7
 74
     0
 42
0.00000001
 43
0.00000001
 40
0.0
 40
0.0
 40
0.0
 40
0.0
 40
0.2500000000000007
 40
0.5000000000000022
 40
0.7500000000000036
 40
1.0
 40
1.0
 40
1.0
 40
1.0
 10
141.5224555274177
 20
137.3254539833659
 30
0.0
 10
141.5477154656218
 20
137.3254539833659
 30
0.0
 10
141.5982353420301
 20
137.3254539833659
 30
0.0
 10
141.6970939512305
 20
137.3254539833659
 30
0.0
 10
141.8064812310539
 20
137.3254539833659
 30
0.0
 10
141.8837974286297
 20
137.3254539833659
 30
0.0
 10
141.9224555274177
 20
137.3254539833659
 30
0.0
  0
ELLIPSE
  5
325
330
1F
100
AcDbEntity
  8
0
  6
Continuous
 62
     7
370
    25
100
AcDbEllipse
 10
139.4224555274
 20
139.5886250159
 30
0.0
 11
2.497021557391577
 21
0.1525991103465856
 31
2.131628207280301E-14
210
-8.504919643681416E-15
220
-5.197564944335982E-16
230
1.0
 40
0.7994627403
 41
6.234366997463597
 42
7.810391561589416
  0
SPLINE
  5
326
330
1F
100
AcDbEntity
  8
0
  6
Continuous
 62
     7
370
    25
100
AcDbSpline
210
0.0
220
0.0
230
1.0
 70
    24
 71
     3
 72
    11
 73
     7
 74
     0
 42
0.00000001
 43
0.00000001
 40
0.0
 40
0.0
 40
0.0
 40
0.0
 40
0.2499999999999994
 40
0.4999999999999963
 40
0.7500000000000001
 40
0.9999999999999999
 40
0.9999999999999999
 40
0.9999999999999999
 40
0.9999999999999999
 10
141.9224555274177
 20
139.6436262227663
 30
0.0
 10
141.8837974286297
 20
139.6436262227663
 30
0.0
 10
141.8064812310539
 20
139.6436262227663
 30
0.0
 10
141.6970939512305
 20
139.6436262227663
 30
0.0
 10
141.5982353420301
 20
139.6436262227663
 30
0.0
 10
141.5477154656218
 20
139.6436262227663
 30
0.0
 10
141.5224555274177
 20
139.6436262227663
 30
0.0
  0
LINE
  5
327
330
1F
100
AcDbEntity
  8
0
  6
Continuous
 62
     7
370
    25
100
AcDbLine
 10
142.0592772019
 20
134.7578016788
 30
0.0
 11
130.6435479184
 21
135.3920088613
 31
0.0
  0
LINE
  5
328
330
1F
100
AcDbEntity
  8
0
  6
Continuous
 62
     7
370
    25
100
AcDbLine
 10
141.9760721725
 20
133.260111149
 30
0.0
 11
142.0592772019
 21
134.7578016788
 31
0.0
  0
LINE
  5
329
330
1F
100
AcDbEntity
  8
0
  6
Continuous
 62
     7
370
    25
100
AcDbLine
 10
132.642394161
 20
133.7786488163
 30
0.0
 11
141.9760721725
 21
133.260111149
 31
0.0
  0
LINE
  5
32A
330
1F
100
AcDbEntity
  8
0
  6
Continuous
 62
     7
370
    25
100
AcDbLine
 10
141.9224555274
 20
137.3254539834
 30
0.0
 11
141.9224555274
 21
139.6436262228
 31
0.0
  0
LINE
  5
32B
330
1F
100
AcDbEntity
  8
0
  6
Continuous
 62
     7
370
    25
100
AcDbLine
 10
141.9760721725
 20
143.7089690571
 30
0.0
 11
132.642394161
 21
143.1904313898
 31
0.0
  0
LINE
  5
32C
330
1F
100
AcDbEntity
  8
0
  6
Continuous
 62
     7
370
    25
100
AcDbLine
 10
142.0592772019
 20
142.2112785273
 30
0.0
 11
141.9760721725
 21
143.7089690571
 31
0.0
  0
LINE
  5
32D
330
1F
100
AcDbEntity
  8
0
  6
Continuous
 62
     7
370
    25
100
AcDbLine
 10
130.6435479184
 20
141.5770713449
 30
0.0
 11
142.0592772019
 21
142.2112785273
 31
0.0
  0
LINE
  5
32E
330
1F
100
AcDbEntity
  8
0
  6
Continuous
 62
     7
370
    25
100
AcDbLine
 10
142.4224555274
 20
135.1209800043
 30
0.0
 11
142.0592772019
 21
134.7578016788
 31
0.0
  0
LINE
  5
32F
330
1F
100
AcDbEntity
  8
0
  6
Continuous
 62
     7
370
    25
100
AcDbLine
 10
142.0592772019
 20
142.2112785273
 30
0.0
 11
142.4224555274
 21
141.8481002018
 31
0.0
  0
LINE
  5
330
330
1F
100
AcDbEntity
  8
0
  6
Continuous
 62
     7
370
    25
100
AcDbLine
 10
142.4224555274
 20
135.1209800043
 30
0.0
 11
142.4224555274
 21
141.8481002018
 31
0.0
  0
LINE
  5
331
330
1F
100
AcDbEntity
  8
0
  6
Continuous
 62
     7
370
    25
100
AcDbLine
 10
142.4224555274
 20
142.5744568528
 30
0.0
 11
142.0592772019
 21
142.2112785273
 31
0.0
  0
ARC
  5
332
330
1F
100
AcDbEntity
  8
0
  6
Continuous
 62
     7
370
    25
100
AcDbCircle
 10
142.0592772019
 20
142.2112785273
 30
0.0
 40
1.500000000000007
100
AcDbArc
 50
75.9883675978
 51
93.1798301199
  0
LINE
  5
333
330
1F
100
AcDbEntity
  8
0
  6
Continuous
 62
     7
370
    25
100
AcDbLine
 10
142.4224555274
 20
142.5744568528
 30
0.0
 11
142.4224555274
 21
143.6666484129
 31
0.0
  0
LINE
  5
334
330
1F
100
AcDbEntity
  8
0
  6
Continuous
 62
     7
370
    25
100
AcDbLine
 10
142.4224555274
 20
141.8481002018
 30
0.0
 11
142.4224555274
 21
142.5744568528
 31
0.0
  0
ARC
  5
335
330
1F
100
AcDbEntity
  8
0
  6
Continuous
 62
     7
370
    25
100
AcDbCircle
 10
142.0592772019
 20
134.7578016788
 30
0.0
 40
1.500000000000007
100
AcDbArc
 50
266.8201698801
 51
284.0116324022
  0
LINE
  5
336
330
1F
100
AcDbEntity
  8
0
  6
Continuous
 62
     7
370
    25
100
AcDbLine
 10
142.0592772019
 20
134.7578016788
 30
0.0
 11
142.4224555274
 21
134.3946233534
 31
0.0
  0
LINE
  5
337
330
1F
100
AcDbEntity
  8
0
  6
Continuous
 62
     7
370
    25
100
AcDbLine
 10
142.4224555274
 20
133.3024317932
 30
0.0
 11
142.4224555274
 21
134.3946233534
 31
0.0
  0
LINE
  5
338
330
1F
100
AcDbEntity
  8
0
  6
Continuous
 62
     7
370
    25
100
AcDbLine
 10
142.4224555274
 20
134.3946233534
 30
0.0
 11
142.4224555274
 21
135.1209800043
 31
0.0
  0
SPLINE
  5
339
330
1F
100
AcDbEntity
  8
0
  6
Continuous
 62
     7
370
    25
100
AcDbSpline
210
0.0
220
0.0
230
1.0
 70
    24
 71
     3
 72
     9
 73
     5
 74
     0
 42
0.00000001
 43
0.00000001
 40
0.0
 40
0.0
 40
0.0
 40
0.0
 40
0.5389665913333166
 40
1.0
 40
1.0
 40
1.0
 40
1.0
 10
130.576422066217
 20
143.0756551623078
 30
0.0
 10
130.5304961244395
 20
143.0731037210979
 30
0.0
 10
130.4452850139254
 20
143.0683697705138
 30
0.0
 10
130.4578662060885
 20
143.0690687256339
 30
0.0
 10
130.4636665559966
 20
143.0693909672955
 30
0.0
  0
SPLINE
  5
33A
330
1F
100
AcDbEntity
  8
0
  6
Continuous
 62
     7
370
    25
100
AcDbSpline
210
0.0
220
0.0
230
1.0
 70
    24
 71
     3
 72
     9
 73
     5
 74
     0
 42
0.00000001
 43
0.00000001
 40
0.0
 40
0.0
 40
0.0
 40
0.0
 40
0.449000901028251
 40
1.0
 40
1.0
 40
1.0
 40
1.0
 10
130.4697646271619
 20
133.8993504571054
 30
0.0
 10
130.4613790745702
 20
133.8998163211382
 30
0.0
 10
130.4427030483695
 20
133.9008538781494
 30
0.0
 10
130.5289178101551
 20
133.8960641691613
 30
0.0
 10
130.5764220662169
 20
133.8934250438245
 30
0.0
  0
SPLINE
  5
33B
330
1F
100
AcDbEntity
  8
0
  6
Continuous
 62
     7
370
    25
100
AcDbSpline
210
0.0
220
0.0
230
1.0
 70
     8
 71
     3
 72
     9
 73
     5
 74
     0
 42
0.00000001
 43
0.00000001
 40
0.0
 40
0.0
 40
0.0
 40
0.0
 40
0.5407747560677784
 40
1.0
 40
1.0
 40
1.0
 40
1.0
 10
102.1881869053956
 20
140.2707807654828
 30
0.0
 10
102.1804308633481
 20
140.2708102658956
 30
0.0
 10
102.1660884001314
 20
140.270864818022
 30
0.0
 10
102.1517698963234
 20
140.2702605728871
 30
0.0
 10
102.1451944779194
 20
140.2699830882676
 30
0.0
  0
LINE
  5
33C
330
1F
100
AcDbEntity
  8
0
  6
Continuous
 62
     7
370
    25
100
AcDbLine
 10
102.1881869054
 20
136.6982994406
 30
0.0
 11
102.1451944779
 21
136.6990971179
 31
0.0
  0
CIRCLE
  5
33D
330
1F
100
AcDbEntity
  8
0
  6
Continuous
 62
     7
370
    25
100
AcDbCircle
 10
152.4224555274
 20
138.4845401031
 30
0.0
 40
7.558608890731335
  0
CIRCLE
  5
33E
330
1F
100
AcDbEntity
  8
0
  6
Continuous
 62
     7
370
    25
100
AcDbCircle
 10
152.4224555274
 20
138.4845401031
 30
0.0
 40
8.054747829088143
  0
CIRCLE
  5
33F
330
1F
100
AcDbEntity
  8
0
  6
Continuous
 62
     7
370
    25
100
AcDbCircle
 10
152.4224555274
 20
138.4845401031
 30
0.0
 40
5.499999999999972
  0
SPLINE
  5
340
330
1F
100
AcDbEntity
  8
0
  6
Continuous
 62
     7
370
    25
100
AcDbSpline
210
0.0
220
0.0
230
1.0
 70
     8
 71
     3
 72
    11
 73
     7
 74
     0
 42
0.00000001
 43
0.00000001
 40
0.0
 40
0.0
 40
0.0
 40
0.0
 40
0.2920574028183093
 40
0.5665622171831317
 40
0.8065682389915578
 40
1.0
 40
1.0
 40
1.0
 40
1.0
 10
144.3062499203643
 20
137.0047743972752
 30
0.0
 10
144.3379104566798
 20
136.8371738618515
 30
0.0
 10
144.3993287377404
 20
136.512045547916
 30
0.0
 10
144.479241097005
 20
136.1114418820497
 30
0.0
 10
144.5183399107325
 20
135.8536016860446
 30
0.0
 10
144.5029235478029
 20
135.8029562577629
 30
0.0
 10
144.4960436348187
 20
135.7803545493565
 30
0.0
  0
ARC
  5
341
330
1F
100
AcDbEntity
  8
0
  6
Continuous
 62
     7
370
    25
100
AcDbCircle
 10
152.4224555274
 20
138.4845401031
 30
0.0
 40
8.249999999999996
100
AcDbArc
 50
169.6671934996
 51
190.3328065004
  0
SPLINE
  5
342
330
1F
100
AcDbEntity
  8
0
  6
Continuous
 62
     7
370
    25
100
AcDbSpline
210
0.0
220
0.0
230
1.0
 70
     8
 71
     3
 72
    12
 73
     8
 74
     0
 42
0.00000001
 43
0.00000001
 40
0.0
 40
0.0
 40
0.0
 40
0.0
 40
0.1882084234719069
 40
0.3759134198095926
 40
0.5768476463044281
 40
0.8018243756979396
 40
0.9999999999999999
 40
0.9999999999999999
 40
0.9999999999999999
 40
0.9999999999999999
 10
144.4960436348221
 20
141.1887256567724
 30
0.0
 10
144.5029152261916
 20
141.1671224622597
 30
0.0
 10
144.5166400285335
 20
141.1239738582906
 30
0.0
 10
144.4908153285755
 20
140.930434000508
 30
0.0
 10
144.4397355339338
 20
140.6556049424689
 30
0.0
 10
144.3724955322656
 20
140.3198648050996
 30
0.0
 10
144.3273792851454
 20
140.0777131050868
 30
0.0
 10
144.3062499203643
 20
139.9643058088571
 30
0.0
  0
ARC
  5
343
330
1F
100
AcDbEntity
  8
0
  6
Continuous
 62
     7
370
    25
100
AcDbCircle
 10
152.4224555274
 20
138.4845401031
 30
0.0
 40
8.986048245081998
100
AcDbArc
 50
200.7364869057
 51
159.2635130943
  0
LINE
  5
344
330
1F
100
AcDbEntity
  8
0
  6
Continuous
 62
     7
370
    25
100
AcDbLine
 10
144.4960436348
 20
135.7803545494
 30
0.0
 11
142.7663839831
 21
134.0506948977
 31
0.0
  0
LINE
  5
345
330
1F
100
AcDbEntity
  8
0
  6
Continuous
 62
     7
370
    25
100
AcDbLine
 10
142.7663839831
 20
142.9183853085
 30
0.0
 11
144.4960436348
 21
141.1887256568
 31
0.0
  0
ARC
  5
346
330
1F
100
AcDbEntity
  8
0
  6
Continuous
 62
     7
370
    25
100
AcDbCircle
 10
142.0592772019
 20
142.2112785273
 30
0.0
 40
1.000000000000006
100
AcDbArc
 50
45.0
 51
68.7044833353
  0
ARC
  5
347
330
1F
100
AcDbEntity
  8
0
  6
Continuous
 62
     7
370
    25
100
AcDbCircle
 10
142.0592772019
 20
134.7578016788
 30
0.0
 40
1.000000000000006
100
AcDbArc
 50
291.2955166647
 51
315.0
  0
LINE
  5
348
330
1F
100
AcDbEntity
  8
0
  6
Continuous
 62
     7
370
    25
100
AcDbLine
 10
129.2717823279
 20
134.6964399633
 30
0.0
 11
129.2848605285
 21
134.7201445963
 31
0.0
  0
ARC
  5
349
330
1F
100
AcDbEntity
  8
0
  6
Continuous
 62
     7
370
    25
100
AcDbCircle
 10
97.3583247445
 20
137.5035470341
 30
0.0
 40
0.2634258994116323
100
AcDbArc
 50
154.8364357798
 51
203.8429131849
  0
ARC
  5
34A
330
1F
100
AcDbEntity
  8
0
  6
Continuous
 62
     7
370
    25
100
AcDbCircle
 10
97.358230124
 20
139.4655140159
 30
0.0
 40
0.263332114332407
100
AcDbArc
 50
156.0471524688
 51
205.168545671
  0
LINE
  5
34B
330
1F
100
AcDbEntity
  8
0
  6
Continuous
 62
     7
370
    25
100
AcDbLine
 10
96.9752419319
 20
138.6459856974
 30
0.0
 11
96.922455612
 21
138.6459856974
 31
0.0
  0
LINE
  5
34C
330
1F
100
AcDbEntity
  8
0
  6
Continuous
 62
     7
370
    25
100
AcDbLine
 10
96.9752419319
 20
138.3230945087
 30
0.0
 11
96.9224555954
 21
138.3230945087
 31
0.0
  0
LINE
  5
34D
330
1F
100
AcDbEntity
  8
0
  6
Continuous
 62
     7
370
    25
100
AcDbLine
 10
142.7663839831
 20
134.0506948977
 30
0.0
 11
142.4224555274
 21
134.3946233534
 31
0.0
  0
LINE
  5
34E
330
1F
100
AcDbEntity
  8
0
  6
Continuous
 62
     7
370
    25
100
AcDbLine
 10
142.4224555274
 20
135.1209800043
 30
0.0
 11
144.3062499204
 21
137.0047743973
 31
0.0
  0
LINE
  5
34F
330
1F
100
AcDbEntity
  8
0
  6
Continuous
 62
     7
370
    25
100
AcDbLine
 10
144.3062499204
 20
139.9643058089
 30
0.0
 11
142.4224555274
 21
141.8481002018
 31
0.0
  0
LINE
  5
350
330
1F
100
AcDbEntity
  8
0
  6
Continuous
 62
     7
370
    25
100
AcDbLine
 10
142.7663839831
 20
142.9183853085
 30
0.0
 11
142.4224555274
 21
142.5744568528
 31
0.0
  0
INSERT
  5
35C
330
1F
100
AcDbEntity
  8
0
  6
Continuous
 62
     7
370
    18
100
AcDbBlockReference
  2
SW_CENTERMARKSYMBOL_1
 10
152.4224555274
 20
138.4845401031
 30
0.0
  0
LINE
  5
35D
330
1F
100
AcDbEntity
  8
0
  6
Continuous
 62
     7
370
    18
100
AcDbLine
 10
165.4224555274
 20
128.7159151031
 30
0.0
 11
178.8869314087
 21
129.1366799744
 31
0.0
  0
LINE
  5
35E
330
1F
100
AcDbEntity
  8
0
  6
Continuous
 62
     7
370
    18
100
AcDbLine
 10
178.8869314087
 20
147.8324002318
 30
0.0
 11
165.4224555274
 21
148.2531651031
 31
0.0
  0
LINE
  5
35F
330
1F
100
AcDbEntity
  8
0
  6
Continuous
 62
     7
370
    18
100
AcDbLine
 10
133.9224555274
 20
147.8000401031
 30
0.0
 11
132.2884809312
 21
147.8000401031
 31
0.0
  0
LINE
  5
360
330
1F
100
AcDbEntity
  8
0
  6
Continuous
 62
     7
370
    18
100
AcDbLine
 10
132.2884809312
 20
129.1690401031
 30
0.0
 11
133.9224555274
 21
129.1690401031
 31
0.0
  0
LINE
  5
361
330
1F
100
AcDbEntity
  8
0
  6
Continuous
 62
     7
370
    25
100
AcDbLine
 10
133.9224555274
 20
147.9620401031
 30
0.0
 11
133.9224555274
 21
147.9045180973
 31
0.0
  0
SPLINE
  5
362
330
1F
100
AcDbEntity
  8
0
  6
Continuous
 62
     7
370
     0
100
AcDbSpline
210
0.0
220
0.0
230
1.0
 70
     8
 71
     3
 72
    16
 73
    12
 74
     0
 42
0.00000001
 43
0.00000001
 40
0.0
 40
0.0
 40
0.0
 40
0.0
 40
0.1182334580933539
 40
0.2364669154439719
 40
0.3547003727945918
 40
0.4729338301452097
 40
0.5911672874958281
 40
0.7094007448464481
 40
0.827634202197066
 40
0.9458676595476857
 40
1.0
 40
1.0
 40
1.0
 40
1.0
 10
133.9223384857178
 20
147.904518097347
 30
0.0
 10
133.9224555274177
 20
147.7326503194176
 30
0.0
 10
133.9224555274177
 20
147.4485230112839
 30
0.0
 10
133.9224555274177
 20
147.0555850935774
 30
0.0
 10
133.9224555274177
 20
146.5586063003313
 30
0.0
 10
133.9224555274177
 20
145.9636192808704
 30
0.0
 10
133.9224555274177
 20
145.2778463716201
 30
0.0
 10
133.9224555274177
 20
144.5096119267261
 30
0.0
 10
133.9224555274177
 20
143.6682412716714
 30
0.0
 10
133.9224555274177
 20
143.2615459101521
 30
0.0
 10
133.9224555271334
 20
143.3979524378831
 30
0.0
 10
133.9224555274177
 20
143.2615459101521
 30
0.0
  0
SPLINE
  5
363
330
1F
100
AcDbEntity
  8
0
  6
Continuous
 62
     7
370
     0
100
AcDbSpline
210
0.0
220
0.0
230
1.0
 70
     8
 71
     3
 72
    17
 73
    13
 74
     0
 42
0.00000001
 43
0.00000001
 40
0.0
 40
0.0
 40
0.0
 40
0.0
 40
0.1012593532963687
 40
0.206991184621362
 40
0.3127230159463554
 40
0.4184548472713493
 40
0.5241866785963417
 40
0.6299185099213348
 40
0.7356503412463281
 40
0.8413821725713211
 40
0.9471140038963142
 40
1.0
 40
1.0
 40
1.0
 40
1.0
 10
133.9223384857178
 20
133.7075342959799
 30
0.0
 10
133.9224555274177
 20
132.8716304959337
 30
0.0
 10
133.9224555274177
 20
132.0656040079831
 30
0.0
 10
133.9224555274177
 20
131.3374947089056
 30
0.0
 10
133.9224555274177
 20
130.6961408592688
 30
0.0
 10
133.9224555274177
 20
130.1493276260066
 30
0.0
 10
133.9224555274177
 20
129.7036925810378
 30
0.0
 10
133.9224555274177
 20
129.3646451301352
 30
0.0
 10
133.9224555274177
 20
129.1363008500668
 30
0.0
 10
133.9224555274177
 20
129.0214315310694
 30
0.0
 10
133.9224555274177
 20
129.0070401030661
 30
0.0
 10
133.9224555275118
 20
129.0099447411838
 30
0.0
 10
133.9224555274177
 20
129.0070401030661
 30
0.0
  0
ENDSEC
  0
SECTION
  2
OBJECTS
  0
DICTIONARY
  5
C
330
0
100
AcDbDictionary
281
     1
  3
ACAD_GROUP
350
D
  3
ACAD_LAYOUT
350
1A
  3
ACAD_MLINESTYLE
350
17
  3
ACAD_PLOTSETTINGS
350
19
  3
ACAD_PLOTSTYLENAME
350
E
  3
ACAD_SCALELIST
350
47
  3
DWGPROPS
350
364
  0
DICTIONARY
  5
D
102
{ACAD_REACTORS
330
C
102
}
330
C
100
AcDbDictionary
281
     1
  0
DICTIONARY
  5
1A
102
{ACAD_REACTORS
330
C
102
}
330
C
100
AcDbDictionary
281
     1
  3
Layout1
350
1E
  3
Layout2
350
26
  3
Model
350
22
  0
DICTIONARY
  5
17
102
{ACAD_REACTORS
330
C
102
}
330
C
100
AcDbDictionary
281
     1
  3
Standard
350
18
  0
DICTIONARY
  5
19
102
{ACAD_REACTORS
330
C
102
}
330
C
100
AcDbDictionary
281
     1
  0
ACDBDICTIONARYWDFLT
  5
E
102
{ACAD_REACTORS
330
C
102
}
330
C
100
AcDbDictionary
281
     1
  3
Normal
350
F
100
AcDbDictionaryWithDefault
340
F
  0
DICTIONARY
  5
47
102
{ACAD_REACTORS
330
C
102
}
330
C
100
AcDbDictionary
281
     1
  3
A0
350
48
  3
A1
350
49
  3
A2
350
4A
  3
A3
350
4B
  3
A4
350
4C
  3
A5
350
4D
  3
A6
350
4E
  3
A7
350
4F
  3
A8
350
50
  3
A9
350
51
  3
B0
350
52
  3
B1
350
53
  3
B2
350
54
  3
B3
350
55
  3
B4
350
56
  3
B5
350
57
  3
B6
350
58
  0
XRECORD
  5
364
102
{ACAD_REACTORS
330
C
102
}
330
C
100
AcDbXrecord
280
     1
  1
DWGPROPS COOKIE
  2

  3

  4

  6

  7

  8
user28
  9

300
=
301
=
302
=
303
=
304
=
305
=
306
=
307
=
308
=
309
=
 40
0.0
 41
2460297.303909236
 42
2460297.303910289
  1

 90
        0
  0
LAYOUT
  5
1E
102
{ACAD_REACTORS
330
1A
102
}
330
1A
100
AcDbPlotSettings
  1

  2
none_device
  4

  6

 40
0.0
 41
0.0
 42
0.0
 43
0.0
 44
0.0
 45
0.0
 46
0.0
 47
0.0
 48
0.0
 49
0.0
140
0.0
141
0.0
142
1.0
143
1.0
 70
   688
 72
     1
 73
     0
 74
     5
  7

 75
    16
147
1.0
148
0.0
149
0.0
100
AcDbLayout
  1
Layout1
 70
     1
 71
     1
 10
0.0
 20
0.0
 11
420.0
 21
297.0
 12
0.0
 22
0.0
 32
0.0
 14
1.0000000000E+20
 24
1.0000000000E+20
 34
1.0000000000E+20
 15
-1.0000000000E+20
 25
-1.0000000000E+20
 35
-1.0000000000E+20
146
0.0
 13
0.0
 23
0.0
 33
0.0
 16
1.0
 26
0.0
 36
0.0
 17
0.0
 27
1.0
 37
0.0
 76
     0
330
1B
  0
LAYOUT
  5
26
102
{ACAD_REACTORS
330
1A
102
}
330
1A
100
AcDbPlotSettings
  1

  2
none_device
  4

  6

 40
0.0
 41
0.0
 42
0.0
 43
0.0
 44
0.0
 45
0.0
 46
0.0
 47
0.0
 48
0.0
 49
0.0
140
0.0
141
0.0
142
1.0
143
1.0
 70
   688
 72
     1
 73
     0
 74
     5
  7

 75
    16
147
1.0
148
0.0
149
0.0
100
AcDbLayout
  1
Layout2
 70
     1
 71
     2
 10
0.0
 20
0.0
 11
0.0
 21
0.0
 12
0.0
 22
0.0
 32
0.0
 14
0.0
 24
0.0
 34
0.0
 15
0.0
 25
0.0
 35
0.0
146
0.0
 13
0.0
 23
0.0
 33
0.0
 16
1.0
 26
0.0
 36
0.0
 17
0.0
 27
1.0
 37
0.0
 76
     0
330
23
  0
LAYOUT
  5
22
102
{ACAD_REACTORS
330
1A
102
}
330
1A
100
AcDbPlotSettings
  1

  2
none_device
  4
Letter_(8.50_x_11.00_Inches)
  6

 40
6.35
 41
6.35
 42
6.35000508
 43
6.35000508
 44
215.9
 45
279.4
 46
0.0
 47
0.0
 48
0.0
 49
0.0
140
0.0
141
0.0
142
1.0
143
1.0
 70
  1712
 72
     1
 73
     0
 74
     0
  7

 75
     0
147
1.0
148
0.0
149
0.0
100
AcDbLayout
  1
Model
 70
     1
 71
     0
 10
0.0
 20
0.0
 11
431.8
 21
279.4
 12
0.0
 22
0.0
 32
0.0
 14
0.0
 24
0.0
 34
0.0
 15
431.8
 25
279.4
 35
0.0
146
0.0
 13
0.0
 23
0.0
 33
0.0
 16
1.0
 26
0.0
 36
0.0
 17
0.0
 27
1.0
 37
0.0
 76
     0
330
1F
331
29
  0
MLINESTYLE
  5
18
102
{ACAD_REACTORS
330
17
102
}
330
17
100
AcDbMlineStyle
  2
Standard
 70
     0
  3

 62
   256
 51
90.0
 52
90.0
 71
     2
 49
0.5
 62
   256
  6
BYLAYER
 49
-0.5
 62
   256
  6
BYLAYER
  0
ACDBPLACEHOLDER
  5
F
102
{ACAD_REACTORS
330
E
102
}
330
E
  0
SCALE
  5
48
102
{ACAD_REACTORS
330
47
102
}
330
47
100
AcDbScale
 70
     0
300
1:1
140
1.0
141
1.0
290
     1
  0
SCALE
  5
49
102
{ACAD_REACTORS
330
47
102
}
330
47
100
AcDbScale
 70
     0
300
1:2
140
1.0
141
2.0
290
     0
  0
SCALE
  5
4A
102
{ACAD_REACTORS
330
47
102
}
330
47
100
AcDbScale
 70
     0
300
1:4
140
1.0
141
4.0
290
     0
  0
SCALE
  5
4B
102
{ACAD_REACTORS
330
47
102
}
330
47
100
AcDbScale
 70
     0
300
1:5
140
1.0
141
5.0
290
     0
  0
SCALE
  5
4C
102
{ACAD_REACTORS
330
47
102
}
330
47
100
AcDbScale
 70
     0
300
1:8
140
1.0
141
8.0
290
     0
  0
SCALE
  5
4D
102
{ACAD_REACTORS
330
47
102
}
330
47
100
AcDbScale
 70
     0
300
1:10
140
1.0
141
10.0
290
     0
  0
SCALE
  5
4E
102
{ACAD_REACTORS
330
47
102
}
330
47
100
AcDbScale
 70
     0
300
1:16
140
1.0
141
16.0
290
     0
  0
SCALE
  5
4F
102
{ACAD_REACTORS
330
47
102
}
330
47
100
AcDbScale
 70
     0
300
1:20
140
1.0
141
20.0
290
     0
  0
SCALE
  5
50
102
{ACAD_REACTORS
330
47
102
}
330
47
100
AcDbScale
 70
     0
300
1:30
140
1.0
141
30.0
290
     0
  0
SCALE
  5
51
102
{ACAD_REACTORS
330
47
102
}
330
47
100
AcDbScale
 70
     0
300
1:40
140
1.0
141
40.0
290
     0
  0
SCALE
  5
52
102
{ACAD_REACTORS
330
47
102
}
330
47
100
AcDbScale
 70
     0
300
1:50
140
1.0
141
50.0
290
     0
  0
SCALE
  5
53
102
{ACAD_REACTORS
330
47
102
}
330
47
100
AcDbScale
 70
     0
300
1:100
140
1.0
141
100.0
290
     0
  0
SCALE
  5
54
102
{ACAD_REACTORS
330
47
102
}
330
47
100
AcDbScale
 70
     0
300
2:1
140
2.0
141
1.0
290
     0
  0
SCALE
  5
55
102
{ACAD_REACTORS
330
47
102
}
330
47
100
AcDbScale
 70
     0
300
4:1
140
4.0
141
1.0
290
     0
  0
SCALE
  5
56
102
{ACAD_REACTORS
330
47
102
}
330
47
100
AcDbScale
 70
     0
300
8:1
140
8.0
141
1.0
290
     0
  0
SCALE
  5
57
102
{ACAD_REACTORS
330
47
102
}
330
47
100
AcDbScale
 70
     0
300
10:1
140
10.0
141
1.0
290
     0
  0
SCALE
  5
58
102
{ACAD_REACTORS
330
47
102
}
330
47
100
AcDbScale
 70
     0
300
100:1
140
100.0
141
1.0
290
     0
  0
ENDSEC
  0
EOF
