  0
SECTION
  2
HEADER
  9
$ACADVER
  1
AC1015
  9
$ACADMAINTVER
 70
     6
  9
$DWGCODEPAGE
  3
DOS932
  9
$INSBASE
 10
0.0
 20
0.0
 30
0.0
  9
$EXTMIN
 10
0.0
 20
0.0
 30
0.0
  9
$EXTMAX
 10
594.0
 20
420.0
 30
0.0
  9
$LIMMIN
 10
0.0
 20
0.0
  9
$LIMMAX
 10
594.0
 20
420.0
  9
$ORTHOMODE
 70
     0
  9
$REGENMODE
 70
     1
  9
$FILLMODE
 70
     1
  9
$QTEXTMODE
 70
     0
  9
$MIRRTEXT
 70
     1
  9
$LTSCALE
 40
2.0
  9
$ATTMODE
 70
     1
  9
$TEXTSIZE
 40
7.0555555556
  9
$TRACEWID
 40
1.0
  9
$TEXTSTYLE
  7
Standard
  9
$CLAYER
  8
0
  9
$CELTYPE
  6
ByLayer
  9
$CECOLOR
 62
   256
  9
$CELTSCALE
 40
1.0
  9
$DISPSILH
 70
     0
  9
$DIMSCALE
 40
1.0
  9
$DIMASZ
 40
5.45703125
  9
$DIMEXO
 40
2.0
  9
$DIMDLI
 40
3.75
  9
$DIMRND
 40
0.0
  9
$DIMDLE
 40
0.0
  9
$DIMEXE
 40
2.0
  9
$DIMTP
 40
0.0
  9
$DIMTM
 40
0.0
  9
$DIMTXT
 40
7.0555555556
  9
$DIMCEN
 40
2.5
  9
$DIMTSZ
 40
0.0
  9
$DIMTOL
 70
     0
  9
$DIMLIM
 70
     0
  9
$DIMTIH
 70
     1
  9
$DIMTOH
 70
     1
  9
$DIMSE1
 70
     0
  9
$DIMSE2
 70
     0
  9
$DIMTAD
 70
     1
  9
$DIMZIN
 70
     0
  9
$DIMBLK
  1

  9
$DIMASO
 70
     1
  9
$DIMSHO
 70
     1
  9
$DIMPOST
  1

  9
$DIMAPOST
  1

  9
$DIMALT
 70
     0
  9
$DIMALTD
 70
     3
  9
$DIMALTF
 40
0.0393700787
  9
$DIMLFAC
 40
1.0
  9
$DIMTOFL
 70
     1
  9
$DIMTVP
 40
0.0
  9
$DIMTIX
 70
     0
  9
$DIMSOXD
 70
     0
  9
$DIMSAH
 70
     0
  9
$DIMBLK1
  1

  9
$DIMBLK2
  1

  9
$DIMSTYLE
  2
ISO-25
  9
$DIMCLRD
 70
     0
  9
$DIMCLRE
 70
     0
  9
$DIMCLRT
 70
     0
  9
$DIMTFAC
 40
1.0
  9
$DIMGAP
 40
3.048
  9
$DIMJUST
 70
     0
  9
$DIMSD1
 70
     0
  9
$DIMSD2
 70
     0
  9
$DIMTOLJ
 70
     0
  9
$DIMTZIN
 70
     0
  9
$DIMALTZ
 70
     0
  9
$DIMALTTZ
 70
     0
  9
$DIMUPT
 70
     0
  9
$DIMDEC
 70
     2
  9
$DIMTDEC
 70
     2
  9
$DIMALTU
 70
     2
  9
$DIMALTTD
 70
     3
  9
$DIMTXSTY
  7
Standard
  9
$DIMAUNIT
 70
     0
  9
$DIMADEC
 70
     2
  9
$DIMALTRND
 40
0.0
  9
$DIMAZIN
 70
     0
  9
$DIMDSEP
 70
    44
  9
$DIMATFIT
 70
     3
  9
$DIMFRAC
 70
     0
  9
$DIMLDRBLK
  1

  9
$DIMLUNIT
 70
     2
  9
$DIMLWD
 70
    -2
  9
$DIMLWE
 70
    -2
  9
$DIMTMOVE
 70
     0
  9
$LUNITS
 70
     2
  9
$LUPREC
 70
     2
  9
$SKETCHINC
 40
1.0
  9
$FILLETRAD
 40
0.0
  9
$AUNITS
 70
     0
  9
$AUPREC
 70
     2
  9
$MENU
  1
.
  9
$ELEVATION
 40
0.0
  9
$PELEVATION
 40
0.0
  9
$THICKNESS
 40
0.0
  9
$LIMCHECK
 70
     0
  9
$CHAMFERA
 40
0.0
  9
$CHAMFERB
 40
0.0
  9
$CHAMFERC
 40
0.0
  9
$CHAMFERD
 40
0.0
  9
$SKPOLY
 70
     0
  9
$TDCREATE
 40
2460326.689742396
  9
$TDUCREATE
 40
2460326.314742396
  9
$TDUPDATE
 40
2460326.689743171
  9
$TDUUPDATE
 40
2460326.314743171
  9
$TDINDWG
 40
0.0000000116
  9
$TDUSRTIMER
 40
0.0000000116
  9
$USRTIMER
 70
     1
  9
$ANGBASE
 50
0.0
  9
$ANGDIR
 70
     0
  9
$PDMODE
 70
     0
  9
$PDSIZE
 40
-1.0
  9
$PLINEWID
 40
0.0
  9
$SPLFRAME
 70
     0
  9
$SPLINETYPE
 70
     6
  9
$SPLINESEGS
 70
     8
  9
$HANDSEED
  5
261
  9
$SURFTAB1
 70
     6
  9
$SURFTAB2
 70
     6
  9
$SURFTYPE
 70
     6
  9
$SURFU
 70
     6
  9
$SURFV
 70
     6
  9
$UCSBASE
  2

  9
$UCSNAME
  2

  9
$UCSORG
 10
0.0
 20
0.0
 30
0.0
  9
$UCSXDIR
 10
1.0
 20
0.0
 30
0.0
  9
$UCSYDIR
 10
0.0
 20
1.0
 30
0.0
  9
$UCSORTHOREF
  2

  9
$UCSORTHOVIEW
 70
     0
  9
$UCSORGTOP
 10
0.0
 20
0.0
 30
0.0
  9
$UCSORGBOTTOM
 10
0.0
 20
0.0
 30
0.0
  9
$UCSORGLEFT
 10
0.0
 20
0.0
 30
0.0
  9
$UCSORGRIGHT
 10
0.0
 20
0.0
 30
0.0
  9
$UCSORGFRONT
 10
0.0
 20
0.0
 30
0.0
  9
$UCSORGBACK
 10
0.0
 20
0.0
 30
0.0
  9
$PUCSBASE
  2

  9
$PUCSNAME
  2

  9
$PUCSORG
 10
0.0
 20
0.0
 30
0.0
  9
$PUCSXDIR
 10
1.0
 20
0.0
 30
0.0
  9
$PUCSYDIR
 10
0.0
 20
1.0
 30
0.0
  9
$PUCSORTHOREF
  2

  9
$PUCSORTHOVIEW
 70
     0
  9
$PUCSORGTOP
 10
0.0
 20
0.0
 30
0.0
  9
$PUCSORGBOTTOM
 10
0.0
 20
0.0
 30
0.0
  9
$PUCSORGLEFT
 10
0.0
 20
0.0
 30
0.0
  9
$PUCSORGRIGHT
 10
0.0
 20
0.0
 30
0.0
  9
$PUCSORGFRONT
 10
0.0
 20
0.0
 30
0.0
  9
$PUCSORGBACK
 10
0.0
 20
0.0
 30
0.0
  9
$USERI1
 70
     0
  9
$USERI2
 70
     0
  9
$USERI3
 70
     0
  9
$USERI4
 70
     0
  9
$USERI5
 70
     0
  9
$USERR1
 40
0.0
  9
$USERR2
 40
0.0
  9
$USERR3
 40
0.0
  9
$USERR4
 40
0.0
  9
$USERR5
 40
0.0
  9
$WORLDVIEW
 70
     1
  9
$SHADEDGE
 70
     3
  9
$SHADEDIF
 70
    70
  9
$TILEMODE
 70
     1
  9
$MAXACTVP
 70
    64
  9
$PINSBASE
 10
0.0
 20
0.0
 30
0.0
  9
$PLIMCHECK
 70
     0
  9
$PEXTMIN
 10
1.0000000000E+20
 20
1.0000000000E+20
 30
1.0000000000E+20
  9
$PEXTMAX
 10
-1.0000000000E+20
 20
-1.0000000000E+20
 30
-1.0000000000E+20
  9
$PLIMMIN
 10
0.0
 20
0.0
  9
$PLIMMAX
 10
420.0
 20
297.0
  9
$UNITMODE
 70
     0
  9
$VISRETAIN
 70
     1
  9
$PLINEGEN
 70
     0
  9
$PSLTSCALE
 70
     1
  9
$TREEDEPTH
 70
  3020
  9
$CMLSTYLE
  2
Standard
  9
$CMLJUST
 70
     0
  9
$CMLSCALE
 40
20.0
  9
$PROXYGRAPHICS
 70
     1
  9
$MEASUREMENT
 70
     1
  9
$CELWEIGHT
370
    -1
  9
$ENDCAPS
280
     0
  9
$JOINSTYLE
280
     0
  9
$LWDISPLAY
290
     1
  9
$INSUNITS
 70
     4
  9
$HYPERLINKBASE
  1

  9
$STYLESHEET
  1

  9
$XEDIT
290
     1
  9
$CEPSNTYPE
380
     0
  9
$PSTYLEMODE
290
     1
  9
$FINGERPRINTGUID
  2
{f221a03d-f85e-4a61-902b-28f09bdf7821}
  9
$VERSIONGUID
  2
{FAEB1C32-E019-11D5-929B-00C0DF256EC4}
  9
$EXTNAMES
290
     1
  9
$PSVPSCALE
 40
0.0
  9
$OLESTARTUP
290
     0
  0
ENDSEC
  0
SECTION
  2
CLASSES
  0
CLASS
  1
ACDBDICTIONARYWDFLT
  2
AcDbDictionaryWithDefault
  3
ObjectDBX Classes
 90
        0
280
     0
281
     0
  0
CLASS
  1
VISUALSTYLE
  2
AcDbVisualStyle
  3
ObjectDBX Classes
 90
     4095
280
     0
281
     0
  0
CLASS
  1
MATERIAL
  2
AcDbMaterial
  3
ObjectDBX Classes
 90
     1153
280
     0
281
     0
  0
CLASS
  1
SCALE
  2
AcDbScale
  3
ObjectDBX Classes
 90
     1153
280
     0
281
     0
  0
CLASS
  1
TABLESTYLE
  2
AcDbTableStyle
  3
ObjectDBX Classes
 90
     4095
280
     0
281
     0
  0
CLASS
  1
MLEADERSTYLE
  2
AcDbMLeaderStyle
  3
ACDB_MLEADERSTYLE_CLASS
 90
     4095
280
     0
281
     0
  0
CLASS
  1
SUN
  2
AcDbSun
  3
SCENEOE
 90
     1153
280
     0
281
     0
  0
CLASS
  1
ACDBPLACEHOLDER
  2
AcDbPlaceHolder
  3
ObjectDBX Classes
 90
        0
280
     0
281
     0
  0
CLASS
  1
LAYOUT
  2
AcDbLayout
  3
ObjectDBX Classes
 90
        0
280
     0
281
     0
  0
ENDSEC
  0
SECTION
  2
TABLES
  0
TABLE
  2
VPORT
  5
8
330
0
100
AcDbSymbolTable
 70
     1
  0
VPORT
  5
29
330
8
100
AcDbSymbolTableRecord
100
AcDbViewportTableRecord
  2
*Active
 70
     0
 10
0.0
 20
0.0
 11
1.0
 21
1.0
 12
297.0
 22
210.0
 13
0.0
 23
0.0
 14
10.0
 24
10.0
 15
10.0
 25
10.0
 16
0.0
 26
0.0
 36
1.0
 17
0.0
 27
0.0
 37
0.0
 40
420.0
 41
1.4142857143
 42
50.0
 43
0.0
 44
0.0
 50
0.0
 51
0.0
 71
     0
 72
  2000
 73
     1
 74
     3
 75
     0
 76
     0
 77
     0
 78
     0
281
     0
 65
     1
110
0.0
120
0.0
130
0.0
111
1.0
121
0.0
131
0.0
112
0.0
122
1.0
132
0.0
 79
     0
146
0.0
  0
ENDTAB
  0
TABLE
  2
LTYPE
  5
5
330
0
100
AcDbSymbolTable
 70
     6
  0
LTYPE
  5
14
330
5
100
AcDbSymbolTableRecord
100
AcDbLinetypeTableRecord
  2
ByBlock
 70
     0
  3

 72
    65
 73
     0
 40
0.0
  0
LTYPE
  5
15
330
5
100
AcDbSymbolTableRecord
100
AcDbLinetypeTableRecord
  2
ByLayer
 70
     0
  3

 72
    65
 73
     0
 40
0.0
  0
LTYPE
  5
16
330
5
100
AcDbSymbolTableRecord
100
AcDbLinetypeTableRecord
  2
Continuous
 70
     0
  3
Solid line
 72
    65
 73
     0
 40
0.0
  0
LTYPE
  5
5E
330
5
100
AcDbSymbolTableRecord
100
AcDbLinetypeTableRecord
  2
HIDDEN
 70
     0
  3
Hidden __ __ __ __ __ __ __ __ __ __ __ __ __ __
 72
    65
 73
     2
 40
1.905
 49
1.27
 74
     0
 49
-0.635
 74
     0
  0
LTYPE
  5
5F
330
5
100
AcDbSymbolTableRecord
100
AcDbLinetypeTableRecord
  2
PHANTOM
 70
     0
  3
Phantom ______  __  __  ______  __  __  ______
 72
    65
 73
     6
 40
12.7
 49
6.35
 74
     0
 49
-1.27
 74
     0
 49
1.27
 74
     0
 49
-1.27
 74
     0
 49
1.27
 74
     0
 49
-1.27
 74
     0
  0
LTYPE
  5
60
330
5
100
AcDbSymbolTableRecord
100
AcDbLinetypeTableRecord
  2
CENTER
 70
     0
  3
Center ____ _ ____ _ ____ _ ____ _ ____ _ ____
 72
    65
 73
     4
 40
10.16
 49
6.35
 74
     0
 49
-1.27
 74
     0
 49
1.27
 74
     0
 49
-1.27
 74
     0
  0
LTYPE
  5
61
330
5
100
AcDbSymbolTableRecord
100
AcDbLinetypeTableRecord
  2
CENTERX2
 70
     0
  3
Center (2x) ________  __  ________  __  _____
 72
    65
 73
     4
 40
20.32
 49
12.7
 74
     0
 49
-2.54
 74
     0
 49
2.54
 74
     0
 49
-2.54
 74
     0
  0
LTYPE
  5
62
330
5
100
AcDbSymbolTableRecord
100
AcDbLinetypeTableRecord
  2
DOT2
 70
     0
  3
Dot (.5x) ........................................
 72
    65
 73
     2
 40
0.635
 49
0.0
 74
     0
 49
-0.635
 74
     0
  0
ENDTAB
  0
TABLE
  2
LAYER
  5
2
330
0
100
AcDbSymbolTable
 70
     2
  0
LAYER
  5
10
330
2
100
AcDbSymbolTableRecord
100
AcDbLayerTableRecord
  2
0
 70
     0
 62
     7
  6
Continuous
370
    -3
390
F
  0
LAYER
  5
63
330
2
100
AcDbSymbolTableRecord
100
AcDbLayerTableRecord
  2
FORMAT
 70
     0
 62
     7
  6
Continuous
370
    -3
390
F
  0
ENDTAB
  0
TABLE
  2
STYLE
  5
3
330
0
100
AcDbSymbolTable
 70
     2
  0
STYLE
  5
11
330
3
100
AcDbSymbolTableRecord
100
AcDbTextStyleTableRecord
  2
Standard
 70
     0
 40
0.0
 41
1.0
 50
0.0
 71
     0
 42
7.0555555556
  3
txt
  4
bigfont
  0
STYLE
  5
64
330
3
100
AcDbSymbolTableRecord
100
AcDbTextStyleTableRecord
  2
SLDTEXTSTYLE0
 70
     0
 40
0.0
 41
0.7
 50
0.0
 71
     0
 42
7.0555555556
  3
TXT
  4
bigfont
  0
ENDTAB
  0
TABLE
  2
VIEW
  5
6
330
0
100
AcDbSymbolTable
 70
     0
  0
ENDTAB
  0
TABLE
  2
UCS
  5
7
330
0
100
AcDbSymbolTable
 70
     0
  0
ENDTAB
  0
TABLE
  2
APPID
  5
9
330
0
100
AcDbSymbolTable
 70
     1
  0
APPID
  5
12
330
9
100
AcDbSymbolTableRecord
100
AcDbRegAppTableRecord
  2
ACAD
 70
     0
  0
ENDTAB
  0
TABLE
  2
DIMSTYLE
  5
A
330
0
100
AcDbSymbolTable
 70
     1
100
AcDbDimStyleTable
  0
DIMSTYLE
105
27
330
A
100
AcDbSymbolTableRecord
100
AcDbDimStyleTableRecord
  2
ISO-25
 70
     0
 41
2.5
 42
0.625
 43
3.75
 44
1.25
 73
     0
 74
     0
 77
     1
 78
     8
140
2.5
141
2.5
143
0.0393700787
147
0.625
171
     3
172
     1
178
     0
271
     2
272
     2
274
     3
278
    44
283
     0
284
     8
340
11
  0
ENDTAB
  0
TABLE
  2
BLOCK_RECORD
  5
1
330
0
100
AcDbSymbolTable
 70
     3
  0
BLOCK_RECORD
  5
1F
330
1
100
AcDbSymbolTableRecord
100
AcDbBlockTableRecord
  2
*Model_Space
340
22
  0
BLOCK_RECORD
  5
1B
330
1
100
AcDbSymbolTableRecord
100
AcDbBlockTableRecord
  2
*Paper_Space
340
1E
  0
BLOCK_RECORD
  5
23
330
1
100
AcDbSymbolTableRecord
100
AcDbBlockTableRecord
  2
*Paper_Space0
340
26
  0
BLOCK_RECORD
  5
1C4
330
1
100
AcDbSymbolTableRecord
100
AcDbBlockTableRecord
  2
SW_CENTERMARKSYMBOL_0
340
0
102
{BLKREFS
331
1CF
102
}
  0
BLOCK_RECORD
  5
254
330
1
100
AcDbSymbolTableRecord
100
AcDbBlockTableRecord
  2
SW_CENTERMARKSYMBOL_1
340
0
102
{BLKREFS
331
25F
102
}
  0
ENDTAB
  0
ENDSEC
  0
SECTION
  2
BLOCKS
  0
BLOCK
  5
20
330
1F
100
AcDbEntity
  8
0
100
AcDbBlockBegin
  2
*Model_Space
 70
     0
 10
0.0
 20
0.0
 30
0.0
  3
*Model_Space
  1

  0
ENDBLK
  5
21
330
1F
100
AcDbEntity
  8
0
100
AcDbBlockEnd
  0
BLOCK
  5
1C
330
1B
100
AcDbEntity
 67
     1
  8
0
100
AcDbBlockBegin
  2
*Paper_Space
 70
     0
 10
0.0
 20
0.0
 30
0.0
  3
*Paper_Space
  1

  0
ENDBLK
  5
1D
330
1B
100
AcDbEntity
 67
     1
  8
0
100
AcDbBlockEnd
  0
BLOCK
  5
24
330
23
100
AcDbEntity
  8
0
100
AcDbBlockBegin
  2
*Paper_Space0
 70
     0
 10
0.0
 20
0.0
 30
0.0
  3
*Paper_Space0
  1

  0
ENDBLK
  5
25
330
23
100
AcDbEntity
  8
0
100
AcDbBlockEnd
  0
BLOCK
  5
1C5
330
1C4
100
AcDbEntity
  8
0
100
AcDbBlockBegin
  2
SW_CENTERMARKSYMBOL_0
 70
     0
 10
0.0
 20
0.0
 30
0.0
  3
SW_CENTERMARKSYMBOL_0
  1

  0
LINE
  5
1C7
330
1C4
100
AcDbEntity
  8
FORMAT
 62
     0
100
AcDbLine
 10
0.0
 20
0.0
 30
0.0
 11
0.0
 21
2.5
 31
0.0
  0
LINE
  5
1C8
330
1C4
100
AcDbEntity
  8
FORMAT
 62
     0
100
AcDbLine
 10
0.0
 20
0.0
 30
0.0
 11
-2.5
 21
0.0
 31
0.0
  0
LINE
  5
1C9
330
1C4
100
AcDbEntity
  8
FORMAT
 62
     0
100
AcDbLine
 10
0.0
 20
0.0
 30
0.0
 11
0.0
 21
-2.5
 31
0.0
  0
LINE
  5
1CA
330
1C4
100
AcDbEntity
  8
FORMAT
 62
     0
100
AcDbLine
 10
0.0
 20
0.0
 30
0.0
 11
2.5
 21
0.0
 31
0.0
  0
LINE
  5
1CB
330
1C4
100
AcDbEntity
  8
FORMAT
 62
     0
100
AcDbLine
 10
0.0
 20
5.0
 30
0.0
 11
0.0
 21
30.4936118417
 31
0.0
  0
LINE
  5
1CC
330
1C4
100
AcDbEntity
  8
FORMAT
 62
     0
100
AcDbLine
 10
-5.0
 20
0.0
 30
0.0
 11
-10.75
 21
0.0
 31
0.0
  0
LINE
  5
1CD
330
1C4
100
AcDbEntity
  8
FORMAT
 62
     0
100
AcDbLine
 10
0.0
 20
-5.0
 30
0.0
 11
0.0
 21
-25.3677958895
 31
0.0
  0
LINE
  5
1CE
330
1C4
100
AcDbEntity
  8
FORMAT
 62
     0
100
AcDbLine
 10
5.0
 20
0.0
 30
0.0
 11
10.75
 21
0.0
 31
0.0
  0
ENDBLK
  5
1C6
330
1C4
100
AcDbEntity
  8
0
100
AcDbBlockEnd
  0
BLOCK
  5
255
330
254
100
AcDbEntity
  8
0
100
AcDbBlockBegin
  2
SW_CENTERMARKSYMBOL_1
 70
     0
 10
0.0
 20
0.0
 30
0.0
  3
SW_CENTERMARKSYMBOL_1
  1

  0
LINE
  5
257
330
254
100
AcDbEntity
  8
FORMAT
 62
     0
100
AcDbLine
 10
0.0
 20
0.0
 30
0.0
 11
0.0
 21
2.5
 31
0.0
  0
LINE
  5
258
330
254
100
AcDbEntity
  8
FORMAT
 62
     0
100
AcDbLine
 10
0.0
 20
0.0
 30
0.0
 11
-2.5
 21
0.0
 31
0.0
  0
LINE
  5
259
330
254
100
AcDbEntity
  8
FORMAT
 62
     0
100
AcDbLine
 10
0.0
 20
0.0
 30
0.0
 11
0.0
 21
-2.5
 31
0.0
  0
LINE
  5
25A
330
254
100
AcDbEntity
  8
FORMAT
 62
     0
100
AcDbLine
 10
0.0
 20
0.0
 30
0.0
 11
2.5
 21
0.0
 31
0.0
  0
LINE
  5
25B
330
254
100
AcDbEntity
  8
FORMAT
 62
     0
100
AcDbLine
 10
0.0
 20
5.0
 30
0.0
 11
0.0
 21
9.95
 31
0.0
  0
LINE
  5
25C
330
254
100
AcDbEntity
  8
FORMAT
 62
     0
100
AcDbLine
 10
-5.0
 20
0.0
 30
0.0
 11
-26.3760551106
 21
0.0
 31
0.0
  0
LINE
  5
25D
330
254
100
AcDbEntity
  8
FORMAT
 62
     0
100
AcDbLine
 10
0.0
 20
-5.0
 30
0.0
 11
0.0
 21
-9.95
 31
0.0
  0
LINE
  5
25E
330
254
100
AcDbEntity
  8
FORMAT
 62
     0
100
AcDbLine
 10
5.0
 20
0.0
 30
0.0
 11
42.3293989238
 21
0.0
 31
0.0
  0
ENDBLK
  5
256
330
254
100
AcDbEntity
  8
0
100
AcDbBlockEnd
  0
ENDSEC
  0
SECTION
  2
ENTITIES
  0
MTEXT
  5
65
330
1F
100
AcDbEntity
  8
FORMAT
100
AcDbMText
 10
240.0846161874
 20
166.7393843441
 30
0.0
 40
5.2916666667
 41
0.0
 71
     1
 72
     1
  1
エースボール　アングル型
  7
SLDTEXTSTYLE0
 73
     1
 44
1.0
  0
MTEXT
  5
66
330
1F
100
AcDbEntity
  8
FORMAT
100
AcDbMText
 10
240.0846161874
 20
157.683828546
 30
0.0
 40
5.2916666667
 41
0.0
 71
     1
 72
     1
  1
BW-3011
  7
SLDTEXTSTYLE0
 73
     1
 44
1.0
  0
LINE
  5
67
330
1F
100
AcDbEntity
  8
0
  6
Continuous
 62
     7
370
    25
100
AcDbLine
 10
197.7012119334
 20
100.1890697796
 30
0.0
 11
199.1888162405
 21
99.3302010325
 31
0.0
  0
LINE
  5
68
330
1F
100
AcDbEntity
  8
0
  6
Continuous
 62
     7
370
    25
100
AcDbLine
 10
215.6888162405
 20
99.3302010325
 30
0.0
 11
217.1764205475
 21
100.1890697796
 31
0.0
  0
LINE
  5
69
330
1F
100
AcDbEntity
  8
0
  6
Continuous
 62
     7
370
    25
100
AcDbLine
 10
218.5799474934
 20
102.0925967255
 30
0.0
 11
219.4388162405
 21
103.5802010325
 31
0.0
  0
LINE
  5
6A
330
1F
100
AcDbEntity
  8
0
  6
Continuous
 62
     7
370
    25
100
AcDbLine
 10
219.4388162405
 20
120.0802010325
 30
0.0
 11
218.5799474934
 21
121.5678053396
 31
0.0
  0
SPLINE
  5
6B
330
1F
100
AcDbEntity
  8
0
  6
Continuous
 62
     7
370
    25
100
AcDbSpline
210
0.0
220
0.0
230
1.0
 70
     8
 71
     3
 72
    12
 73
     8
 74
     0
 42
0.00000001
 43
0.00000001
 40
0.0
 40
0.0
 40
0.0
 40
0.0
 40
0.1051134865414776
 40
0.3721655672460082
 40
0.6463155227908308
 40
0.9231053695635812
 40
1.0
 40
1.0
 40
1.0
 40
1.0
 10
201.5479332523839
 20
121.3299233870087
 30
0.0
 10
201.5495111143019
 20
121.3024090970787
 30
0.0
 10
201.5550977035691
 20
121.204991804055
 30
0.0
 10
201.5205735750192
 20
121.0363522143906
 30
0.0
 10
201.4398463834984
 20
120.8383085893755
 30
0.0
 10
201.3514385891113
 20
120.6957109131844
 30
0.0
 10
201.282366471117
 20
120.6338282479882
 30
0.0
 10
201.26734948471
 20
120.6203743223078
 30
0.0
  0
SPLINE
  5
6C
330
1F
100
AcDbEntity
  8
0
  6
Continuous
 62
     7
370
    25
100
AcDbSpline
210
0.0
220
0.0
230
1.0
 70
     8
 71
     3
 72
    11
 73
     7
 74
     0
 42
0.00000001
 43
0.00000001
 40
0.0
 40
0.0
 40
0.0
 40
0.0
 40
0.2243425853809364
 40
0.5189628416073198
 40
0.7865172086142103
 40
1.0
 40
1.0
 40
1.0
 40
1.0
 10
213.6247989701571
 20
120.6341629795126
 30
0.0
 10
213.5855469946477
 20
120.6763003863786
 30
0.0
 10
213.4947469500889
 20
120.773775185325
 30
0.0
 10
213.4036932469579
 20
120.9558997942606
 30
0.0
 10
213.3465819158138
 20
121.1476117733089
 30
0.0
 10
213.3421336435241
 20
121.2709401611997
 30
0.0
 10
213.3401595141483
 20
121.3256729153013
 30
0.0
  0
LINE
  5
6D
330
1F
100
AcDbEntity
  8
0
  6
Continuous
 62
     7
370
    25
100
AcDbLine
 10
200.9388162405
 20
88.5802010325
 30
0.0
 11
201.1888162405
 21
88.3302010325
 31
0.0
  0
LINE
  5
6E
330
1F
100
AcDbEntity
  8
0
  6
Continuous
 62
     7
370
    25
100
AcDbLine
 10
213.6888162405
 20
88.3302010325
 30
0.0
 11
213.9388162405
 21
88.5802010325
 31
0.0
  0
LINE
  5
6F
330
1F
100
AcDbEntity
  8
0
  6
Continuous
 62
     7
370
    25
100
AcDbLine
 10
213.9388162405
 20
88.5802010325
 30
0.0
 11
213.9388162405
 21
99.3302010325
 31
0.0
  0
LINE
  5
70
330
1F
100
AcDbEntity
  8
0
  6
Continuous
 62
     7
370
    25
100
AcDbLine
 10
200.9388162405
 20
99.3302010325
 30
0.0
 11
200.9388162405
 21
88.5802010325
 31
0.0
  0
LINE
  5
71
330
1F
100
AcDbEntity
  8
0
  6
Continuous
 62
     7
370
    25
100
AcDbLine
 10
213.3388162405
 20
121.3256702124
 30
0.0
 11
213.3388162405
 21
122.3302010325
 31
0.0
  0
LINE
  5
72
330
1F
100
AcDbEntity
  8
0
  6
Continuous
 62
     7
370
    25
100
AcDbLine
 10
201.5388162405
 20
122.3302010325
 30
0.0
 11
201.5388162405
 21
121.3302010325
 31
0.0
  0
LINE
  5
73
330
1F
100
AcDbEntity
  8
0
  6
Continuous
 62
     7
370
    25
100
AcDbLine
 10
201.2686493331
 20
120.6249387618
 30
0.0
 11
200.7242850607
 21
121.5678053396
 31
0.0
  0
LINE
  5
74
330
1F
100
AcDbEntity
  8
0
  6
Continuous
 62
     7
370
    25
100
AcDbLine
 10
214.1533474203
 20
121.5678053396
 30
0.0
 11
213.6089831478
 21
120.6249387618
 31
0.0
  0
LINE
  5
75
330
1F
100
AcDbEntity
  8
0
  6
Continuous
 62
     7
370
    25
100
AcDbLine
 10
196.6533474203
 20
121.5678053396
 30
0.0
 11
195.9388162405
 21
120.3302010325
 31
0.0
  0
LINE
  5
76
330
1F
100
AcDbEntity
  8
0
  6
Continuous
 62
     7
370
    25
100
AcDbLine
 10
195.9388162405
 20
103.3302010325
 30
0.0
 11
196.6533474203
 21
102.0925967255
 31
0.0
  0
LINE
  5
77
330
1F
100
AcDbEntity
  8
0
  6
Continuous
 62
     7
370
    25
100
AcDbLine
 10
217.1764205475
 20
100.1865093983
 30
0.0
 11
217.1764205475
 21
102.0925967255
 31
0.0
  0
LINE
  5
78
330
1F
100
AcDbEntity
  8
0
  6
Continuous
 62
     7
370
    25
100
AcDbLine
 10
217.1764205475
 20
102.0925967255
 30
0.0
 11
218.5825155488
 21
102.0925967255
 31
0.0
  0
LINE
  5
79
330
1F
100
AcDbEntity
  8
0
  6
Continuous
 62
     7
370
    25
100
AcDbLine
 10
200.7268531161
 20
121.5678053396
 30
0.0
 11
196.650787039
 21
121.5678053396
 31
0.0
  0
LINE
  5
7A
330
1F
100
AcDbEntity
  8
0
  6
Continuous
 62
     7
370
    25
100
AcDbLine
 10
218.5825155488
 20
121.5678053396
 30
0.0
 11
214.1507793648
 21
121.5678053396
 31
0.0
  0
LINE
  5
7B
330
1F
100
AcDbEntity
  8
0
  6
Continuous
 62
     7
370
    25
100
AcDbLine
 10
197.7012119334
 20
102.0925967255
 30
0.0
 11
197.7012119334
 21
100.1865093983
 31
0.0
  0
LINE
  5
7C
330
1F
100
AcDbEntity
  8
0
  6
Continuous
 62
     7
370
    25
100
AcDbLine
 10
196.650787039
 20
102.0925967255
 30
0.0
 11
197.7012119334
 21
102.0925967255
 31
0.0
  0
LINE
  5
7D
330
1F
100
AcDbEntity
  8
0
  6
Continuous
 62
     7
370
    25
100
AcDbLine
 10
199.9888162405
 20
130.3302010325
 30
0.0
 11
200.4388162405
 21
122.3302010325
 31
0.0
  0
LINE
  5
7E
330
1F
100
AcDbEntity
  8
0
  6
Continuous
 62
     7
370
    25
100
AcDbLine
 10
201.9388162405
 20
138.3302010325
 30
0.0
 11
199.9888162405
 21
130.3302010325
 31
0.0
  0
LINE
  5
7F
330
1F
100
AcDbEntity
  8
0
  6
Continuous
 62
     7
370
    25
100
AcDbLine
 10
214.4388162405
 20
122.3302010325
 30
0.0
 11
214.5094728662
 21
123.5863188238
 31
0.0
  0
LINE
  5
80
330
1F
100
AcDbEntity
  8
0
  6
Continuous
 62
     7
370
    25
100
AcDbLine
 10
213.192047775
 20
137.2913024293
 30
0.0
 11
212.9388162405
 21
138.3302010325
 31
0.0
  0
LINE
  5
81
330
1F
100
AcDbEntity
  8
0
  6
Continuous
 62
     7
370
    25
100
AcDbLine
 10
193.1388162405
 20
119.8302010325
 30
0.0
 11
192.9388162405
 21
119.6302010325
 31
0.0
  0
LINE
  5
82
330
1F
100
AcDbEntity
  8
0
  6
Continuous
 62
     7
370
    25
100
AcDbLine
 10
192.9388162405
 20
104.0302010325
 30
0.0
 11
193.1388162405
 21
103.8302010325
 31
0.0
  0
LINE
  5
83
330
1F
100
AcDbEntity
  8
0
  6
Continuous
 62
     7
370
    25
100
AcDbLine
 10
195.9388162405
 20
119.8302010325
 30
0.0
 11
193.1388162405
 21
119.8302010325
 31
0.0
  0
LINE
  5
84
330
1F
100
AcDbEntity
  8
0
  6
Continuous
 62
     7
370
    25
100
AcDbLine
 10
193.1388162405
 20
103.8302010325
 30
0.0
 11
195.9388162405
 21
103.8302010325
 31
0.0
  0
LINE
  5
85
330
1F
100
AcDbEntity
  8
0
  6
Continuous
 62
     7
370
    25
100
AcDbLine
 10
183.4388162405
 20
118.3302010325
 30
0.0
 11
182.9388162405
 21
117.8302010325
 31
0.0
  0
LINE
  5
86
330
1F
100
AcDbEntity
  8
0
  6
Continuous
 62
     7
370
    25
100
AcDbLine
 10
182.9388162405
 20
105.8302010325
 30
0.0
 11
183.4388162405
 21
105.3302010325
 31
0.0
  0
LINE
  5
87
330
1F
100
AcDbEntity
  8
0
  6
Continuous
 62
     7
370
    25
100
AcDbLine
 10
192.9388162405
 20
118.3302010325
 30
0.0
 11
183.4388162405
 21
118.3302010325
 31
0.0
  0
LINE
  5
88
330
1F
100
AcDbEntity
  8
0
  6
Continuous
 62
     7
370
    25
100
AcDbLine
 10
183.4388162405
 20
105.3302010325
 30
0.0
 11
192.9388162405
 21
105.3302010325
 31
0.0
  0
LINE
  5
89
330
1F
100
AcDbEntity
  8
0
  6
Continuous
 62
     7
370
    25
100
AcDbLine
 10
202.820014087
 20
103.8638044927
 30
0.0
 11
202.820014087
 21
100.1522600051
 31
0.0
  0
SPLINE
  5
8A
330
1F
100
AcDbEntity
  8
0
  6
Continuous
 62
     7
370
    25
100
AcDbSpline
210
0.0
220
0.0
230
1.0
 70
     8
 71
     3
 72
     8
 73
     4
 74
     0
 42
0.00000001
 43
0.00000001
 40
0.0
 40
0.0
 40
0.0
 40
0.0
 40
1.0
 40
1.0
 40
1.0
 40
1.0
 10
202.8200140869555
 20
103.8638044926623
 30
0.0
 10
203.0251999094988
 20
103.9203654597865
 30
0.0
 10
203.2314231102061
 20
103.9743055312003
 30
0.0
 10
203.4388162404725
 20
104.0252898209433
 30
0.0
  0
LINE
  5
8B
330
1F
100
AcDbEntity
  8
0
  6
Continuous
 62
     7
370
    25
100
AcDbLine
 10
203.4388162405
 20
104.0252898209
 30
0.0
 11
203.4388162405
 21
107.8302010325
 31
0.0
  0
LINE
  5
8C
330
1F
100
AcDbEntity
  8
0
  6
Continuous
 62
     7
370
    25
100
AcDbLine
 10
203.4388162405
 20
107.8302010325
 30
0.0
 11
200.9225801635
 21
107.8302010325
 31
0.0
  0
SPLINE
  5
8D
330
1F
100
AcDbEntity
  8
0
  6
Continuous
 62
     7
370
    25
100
AcDbSpline
210
0.0
220
0.0
230
1.0
 70
     8
 71
     3
 72
     8
 73
     4
 74
     0
 42
0.00000001
 43
0.00000001
 40
0.0
 40
0.0
 40
0.0
 40
0.0
 40
1.0
 40
1.0
 40
1.0
 40
1.0
 10
200.7610948352123
 20
107.2113988790002
 30
0.0
 10
200.8176582046805
 20
107.41659341651
 30
0.0
 10
200.8715981275018
 20
107.6228170700272
 30
0.0
 10
200.9225801634933
 20
107.8302010325173
 30
0.0
  0
LINE
  5
8E
330
1F
100
AcDbEntity
  8
0
  6
Continuous
 62
     7
370
    25
100
AcDbLine
 10
196.6165376457
 20
107.211398879
 30
0.0
 11
200.7610948352
 21
107.211398879
 31
0.0
  0
SPLINE
  5
8F
330
1F
100
AcDbEntity
  8
0
  6
Continuous
 62
     7
370
    25
100
AcDbSpline
210
0.0
220
0.0
230
1.0
 70
     8
 71
     3
 72
    10
 73
     6
 74
     0
 42
0.00000001
 43
0.00000001
 40
0.0
 40
0.0
 40
0.0
 40
0.0
 40
0.5
 40
0.5
 40
1.0
 40
1.0
 40
1.0
 40
1.0
 10
196.6165376457327
 20
107.2113988790002
 30
0.0
 10
196.4084689695015
 20
107.9662081520495
 30
0.0
 10
196.2380699634769
 20
108.7269545392814
 30
0.0
 10
196.0029099837781
 20
110.2650969169047
 30
0.0
 10
195.9388162404725
 20
111.0425980694295
 30
0.0
 10
195.9388162404725
 20
111.8302010325173
 30
0.0
  0
SPLINE
  5
90
330
1F
100
AcDbEntity
  8
0
  6
Continuous
 62
     7
370
    25
100
AcDbSpline
210
0.0
220
0.0
230
1.0
 70
     8
 71
     3
 72
    12
 73
     8
 74
     0
 42
0.00000001
 43
0.00000001
 40
0.0
 40
0.0
 40
0.0
 40
0.0
 40
0.2500000000000001
 40
0.2500000000000001
 40
0.5000000000000001
 40
0.5000000000000001
 40
1.0
 40
1.0
 40
1.0
 40
1.0
 10
195.9388162404725
 20
111.8302010325173
 30
0.0
 10
195.9388162404725
 20
112.2245191131891
 30
0.0
 10
195.9548150454536
 20
112.6181781571395
 30
0.0
 10
196.0165851837679
 20
113.3977141566849
 30
0.0
 10
196.0623273080695
 20
113.7846673448103
 30
0.0
 10
196.2389974554164
 20
114.9380539076643
 30
0.0
 10
196.4092525208967
 20
115.6970363968693
 30
0.0
 10
196.6165376457327
 20
116.4490031860343
 30
0.0
  0
LINE
  5
91
330
1F
100
AcDbEntity
  8
0
  6
Continuous
 62
     7
370
    25
100
AcDbLine
 10
200.7610948352
 20
116.449003186
 30
0.0
 11
196.6165376457
 21
116.449003186
 31
0.0
  0
SPLINE
  5
92
330
1F
100
AcDbEntity
  8
0
  6
Continuous
 62
     7
370
    25
100
AcDbSpline
210
0.0
220
0.0
230
1.0
 70
     8
 71
     3
 72
     8
 73
     4
 74
     0
 42
0.00000001
 43
0.00000001
 40
0.0
 40
0.0
 40
0.0
 40
0.0
 40
1.0
 40
1.0
 40
1.0
 40
1.0
 10
200.9225801634933
 20
115.8302010325173
 30
0.0
 10
200.8716814465708
 20
116.0372460709462
 30
0.0
 10
200.81774731032
 20
116.2434854006229
 30
0.0
 10
200.7610948352123
 20
116.4490031860343
 30
0.0
  0
LINE
  5
93
330
1F
100
AcDbEntity
  8
0
  6
Continuous
 62
     7
370
    25
100
AcDbLine
 10
213.9550523175
 20
115.8302010325
 30
0.0
 11
200.9225801635
 21
115.8302010325
 31
0.0
  0
SPLINE
  5
94
330
1F
100
AcDbEntity
  8
0
  6
Continuous
 62
     7
370
    25
100
AcDbSpline
210
0.0
220
0.0
230
1.0
 70
     8
 71
     3
 72
     8
 73
     4
 74
     0
 42
0.00000001
 43
0.00000001
 40
0.0
 40
0.0
 40
0.0
 40
0.0
 40
1.0
 40
1.0
 40
1.0
 40
1.0
 10
213.9550523174516
 20
115.8302010325173
 30
0.0
 10
214.0059485507068
 20
116.0372359679211
 30
0.0
 10
214.0598825056704
 20
116.2434757329861
 30
0.0
 10
214.1165376457327
 20
116.4490031860343
 30
0.0
  0
LINE
  5
95
330
1F
100
AcDbEntity
  8
0
  6
Continuous
 62
     7
370
    25
100
AcDbLine
 10
218.6167572679
 20
116.449003186
 30
0.0
 11
214.1165376457
 21
116.449003186
 31
0.0
  0
SPLINE
  5
96
330
1F
100
AcDbEntity
  8
0
  6
Continuous
 62
     7
370
    25
100
AcDbSpline
210
0.0
220
0.0
230
1.0
 70
     8
 71
     3
 72
    14
 73
    10
 74
     0
 42
0.00000001
 43
0.00000001
 40
0.0
 40
0.0
 40
0.0
 40
0.0
 40
0.25
 40
0.25
 40
0.5
 40
0.5
 40
0.75
 40
0.75
 40
1.0
 40
1.0
 40
1.0
 40
1.0
 10
218.6167572679149
 20
107.2113988790002
 30
0.0
 10
218.8247076286207
 20
107.9657789396502
 30
0.0
 10
218.9969294373095
 20
108.7352201071157
 30
0.0
 10
219.2315645600604
 20
110.2757314680568
 30
0.0
 10
219.2945086186881
 20
111.0505858480639
 30
0.0
 10
219.2944487059567
 20
112.6109468029494
 30
0.0
 10
219.2298340396645
 20
113.4014029957345
 30
0.0
 10
218.9932747002633
 20
114.9436826585429
 30
0.0
 10
218.8229295601839
 20
115.7010734117441
 30
0.0
 10
218.6167572679149
 20
116.4490031860343
 30
0.0
  0
LINE
  5
97
330
1F
100
AcDbEntity
  8
0
  6
Continuous
 62
     7
370
    25
100
AcDbLine
 10
214.1165376457
 20
107.211398879
 30
0.0
 11
218.6167572679
 21
107.211398879
 31
0.0
  0
SPLINE
  5
98
330
1F
100
AcDbEntity
  8
0
  6
Continuous
 62
     7
370
    25
100
AcDbSpline
210
0.0
220
0.0
230
1.0
 70
     8
 71
     3
 72
     8
 73
     4
 74
     0
 42
0.00000001
 43
0.00000001
 40
0.0
 40
0.0
 40
0.0
 40
0.0
 40
1.0
 40
1.0
 40
1.0
 40
1.0
 10
214.1165376457326
 20
107.2113988790002
 30
0.0
 10
214.0599758022957
 20
107.416587880537
 30
0.0
 10
214.0060357850394
 20
107.6228112466017
 30
0.0
 10
213.9550523174516
 20
107.8302010325172
 30
0.0
  0
LINE
  5
99
330
1F
100
AcDbEntity
  8
0
  6
Continuous
 62
     7
370
    25
100
AcDbLine
 10
213.9550523175
 20
107.8302010325
 30
0.0
 11
211.4388162405
 21
107.8302010325
 31
0.0
  0
LINE
  5
9A
330
1F
100
AcDbEntity
  8
0
  6
Continuous
 62
     7
370
    25
100
AcDbLine
 10
211.4388162405
 20
104.0252898209
 30
0.0
 11
211.4388162405
 21
107.8302010325
 31
0.0
  0
SPLINE
  5
9B
330
1F
100
AcDbEntity
  8
0
  6
Continuous
 62
     7
370
    25
100
AcDbSpline
210
0.0
220
0.0
230
1.0
 70
     8
 71
     3
 72
     8
 73
     4
 74
     0
 42
0.00000001
 43
0.00000001
 40
0.0
 40
0.0
 40
0.0
 40
0.0
 40
1.0
 40
1.0
 40
1.0
 40
1.0
 10
211.4388162404725
 20
104.0252898209433
 30
0.0
 10
211.6458453038079
 20
103.9743950312425
 30
0.0
 10
211.8520853210772
 20
103.920461181881
 30
0.0
 10
212.0576183939895
 20
103.8638044926623
 30
0.0
  0
LINE
  5
9C
330
1F
100
AcDbEntity
  8
0
  6
Continuous
 62
     7
370
    25
100
AcDbLine
 10
212.057618394
 20
100.1522600051
 30
0.0
 11
212.057618394
 21
103.8638044927
 31
0.0
  0
SPLINE
  5
9D
330
1F
100
AcDbEntity
  8
0
  6
Continuous
 62
     7
370
    25
100
AcDbSpline
210
0.0
220
0.0
230
1.0
 70
     8
 71
     3
 72
    18
 73
    14
 74
     0
 42
0.00000001
 43
0.00000001
 40
0.0
 40
0.0
 40
0.0
 40
0.0
 40
0.2499999999999997
 40
0.2499999999999997
 40
0.3749999999999997
 40
0.3749999999999997
 40
0.4999999999999997
 40
0.4999999999999997
 40
0.7499999999999998
 40
0.7499999999999998
 40
0.8749999999999999
 40
0.8749999999999999
 40
1.0
 40
1.0
 40
1.0
 40
1.0
 10
202.8200140869555
 20
100.1522600050749
 30
0.0
 10
203.5707060020896
 20
99.94532630855515
 30
0.0
 10
204.3323893908678
 20
99.7740103664054
 30
0.0
 10
205.4992860548802
 20
99.59601230376
 30
0.0
 10
205.8915974156976
 20
99.5501900256948
 30
0.0
 10
206.6711784200208
 20
99.48946238815199
 30
0.0
 10
207.0600395366133
 20
99.47430053762119
 30
0.0
 10
208.2237979044894
 20
99.47502324078627
 30
0.0
 10
208.9958287608125
 20
99.53779344302494
 30
0.0
 10
210.1488901921989
 20
99.71348603402936
 30
0.0
 10
210.5324245586277
 20
99.78545388456618
 30
0.0
 10
211.298062661918
 20
99.95279040653692
 30
0.0
 10
211.6805512728883
 20
100.0483187055451
 30
0.0
 10
212.0576183939895
 20
100.1522600050749
 30
0.0
  0
ARC
  5
9E
330
1F
100
AcDbEntity
  8
0
  6
Continuous
 62
     7
370
    25
100
AcDbCircle
 10
208.9895475962
 20
111.2532820392
 30
0.0
 40
0.8889999999999868
100
AcDbArc
 50
45.0
 51
315.0
  0
LINE
  5
9F
330
1F
100
AcDbEntity
  8
0
  6
Continuous
 62
     7
370
    25
100
AcDbLine
 10
209.6181655247
 20
111.8818999677
 30
0.0
 11
210.0847759103
 21
112.3485103533
 31
0.0
  0
ARC
  5
A0
330
1F
100
AcDbEntity
  8
0
  6
Continuous
 62
     7
370
    25
100
AcDbCircle
 10
208.9895475962
 20
111.2532820392
 30
0.0
 40
1.548886735692394
100
AcDbArc
 50
45.0
 51
315.0
  0
LINE
  5
A1
330
1F
100
AcDbEntity
  8
0
  6
Continuous
 62
     7
370
    25
100
AcDbLine
 10
210.0847759103
 20
110.1580537251
 30
0.0
 11
209.6181655247
 21
110.6246641107
 31
0.0
  0
ARC
  5
A2
330
1F
100
AcDbEntity
  8
0
  6
Continuous
 62
     7
370
    25
100
AcDbCircle
 10
212.3316921926
 20
111.2532820392
 30
0.0
 40
0.8889999999999667
100
AcDbArc
 50
45.0
 51
159.0751675724
  0
LINE
  5
A3
330
1F
100
AcDbEntity
  8
0
  6
Continuous
 62
     7
370
    25
100
AcDbLine
 10
212.960310121
 20
111.8818999677
 30
0.0
 11
213.4269205066
 21
112.3485103533
 31
0.0
  0
ARC
  5
A4
330
1F
100
AcDbEntity
  8
0
  6
Continuous
 62
     7
370
    25
100
AcDbCircle
 10
212.3316921926
 20
111.2532820392
 30
0.0
 40
1.548886735692404
100
AcDbArc
 50
45.0
 51
315.0
  0
LINE
  5
A5
330
1F
100
AcDbEntity
  8
0
  6
Continuous
 62
     7
370
    25
100
AcDbLine
 10
213.4269205066
 20
110.1580537251
 30
0.0
 11
212.960310121
 21
110.6246641107
 31
0.0
  0
ARC
  5
A6
330
1F
100
AcDbEntity
  8
0
  6
Continuous
 62
     7
370
    25
100
AcDbCircle
 10
212.3316921926
 20
111.2532820392
 30
0.0
 40
0.8890000000000191
100
AcDbArc
 50
200.9248324276
 51
315.0
  0
LINE
  5
A7
330
1F
100
AcDbEntity
  8
0
  6
Continuous
 62
     7
370
    25
100
AcDbLine
 10
211.5013219438
 20
110.9357820392
 30
0.0
 11
213.4269205066
 21
110.9357820392
 31
0.0
  0
LINE
  5
A8
330
1F
100
AcDbEntity
  8
0
  6
Continuous
 62
     7
370
    25
100
AcDbLine
 10
213.4269205066
 20
110.9357820392
 30
0.0
 11
213.4269205066
 21
111.5707820392
 31
0.0
  0
LINE
  5
A9
330
1F
100
AcDbEntity
  8
0
  6
Continuous
 62
     7
370
    25
100
AcDbLine
 10
213.4269205066
 20
111.5707820392
 30
0.0
 11
211.5013219438
 21
111.5707820392
 31
0.0
  0
LINE
  5
AA
330
1F
100
AcDbEntity
  8
0
  6
Continuous
 62
     7
370
    25
100
AcDbLine
 10
206.5370573265
 20
110.4078280149
 30
0.0
 11
206.4954070072
 21
110.3840230851
 31
0.0
  0
ELLIPSE
  5
AB
330
1F
100
AcDbEntity
  8
0
  6
Continuous
 62
     7
370
    25
100
AcDbEllipse
 10
206.1465638277
 20
110.9387055563
 30
0.0
 11
0.6784129479252385
 21
6.110667527536862E-13
 31
0.0
210
0.0
220
0.0
230
1.0
 40
0.9533039403
 41
3.470145824140259
 42
5.252469180536318
  0
LINE
  5
AC
330
1F
100
AcDbEntity
  8
0
  6
Continuous
 62
     7
370
    25
100
AcDbLine
 10
205.5044390607
 20
110.7300214413
 30
0.0
 11
204.2447848557
 21
114.252465838
 31
0.0
  0
ELLIPSE
  5
AD
330
1F
100
AcDbEntity
  8
0
  6
Continuous
 62
     7
370
    25
100
AcDbEllipse
 10
203.6538022978
 20
113.9901266019
 30
0.0
 11
0.6519124952381503
 21
5.968558980384842E-13
 31
0.0
210
0.0
220
0.0
230
1.0
 40
0.9533023292
 41
0.4357905044354998
 42
2.705800116361537
  0
LINE
  5
AE
330
1F
100
AcDbEntity
  8
0
  6
Continuous
 62
     7
370
    25
100
AcDbLine
 10
203.0628202993
 20
114.2524669832
 30
0.0
 11
201.8034554976
 21
110.7308435815
 31
0.0
  0
ELLIPSE
  5
AF
330
1F
100
AcDbEntity
  8
0
  6
Continuous
 62
     7
370
    25
100
AcDbEllipse
 10
201.1613343136
 20
110.9395264152
 30
0.0
 11
-0.6784085062757583
 21
3.268496584496461E-13
 31
0.0
210
0.0
220
0.0
230
1.0
 40
0.9533122623
 41
1.047193771187968
 42
2.81304232019993
  0
LINE
  5
B0
330
1F
100
AcDbEntity
  8
0
  6
Continuous
 62
     7
370
    25
100
AcDbLine
 10
200.8221278397
 20
110.3794385699
 30
0.0
 11
200.7705472691
 21
110.4078280149
 31
0.0
  0
LINE
  5
B1
330
1F
100
AcDbEntity
  8
0
  6
Continuous
 62
     7
370
    25
100
AcDbLine
 10
200.7705472691
 20
110.4078280149
 30
0.0
 11
201.5668159287
 21
108.8896559135
 31
0.0
  0
ELLIPSE
  5
B2
330
1F
100
AcDbEntity
  8
0
  6
Continuous
 62
     7
370
    25
100
AcDbEllipse
 10
201.6426648021
 20
108.9258094285
 30
0.0
 11
0.08480161849064416
 21
-2.842170943040401E-14
 31
0.0
210
0.0
220
0.0
230
1.0
 40
0.9533039403
 41
3.605240262590848
 42
5.462183310215358
  0
ELLIPSE
  5
B3
330
1F
100
AcDbEntity
  8
0
  6
Continuous
 62
     7
370
    25
100
AcDbEllipse
 10
203.6538022978
 20
106.8669608079
 30
0.0
 11
2.866293551216216
 21
-1.506350599811412E-12
 31
0.0
210
0.0
220
0.0
230
1.0
 40
0.9533046568
 41
0.8210016221243841
 42
2.32059103146644
  0
ELLIPSE
  5
B4
330
1F
100
AcDbEntity
  8
0
  6
Continuous
 62
     7
370
    25
100
AcDbEllipse
 10
205.6649397935
 20
108.9258094285
 30
0.0
 11
0.08480161849061574
 21
0.0
 31
0.0
210
0.0
220
0.0
230
1.0
 40
0.9533039403
 41
3.962594650556611
 42
5.819537698177178
  0
LINE
  5
B5
330
1F
100
AcDbEntity
  8
0
  6
Continuous
 62
     7
370
    25
100
AcDbLine
 10
205.740788667
 20
108.8896559135
 30
0.0
 11
206.5370573265
 21
110.4078280149
 31
0.0
  0
LINE
  5
B6
330
1F
100
AcDbEntity
  8
0
  6
Continuous
 62
     7
370
    25
100
AcDbLine
 10
201.4388162405
 20
119.1914169647
 30
0.0
 11
201.4388162405
 21
115.8302010325
 31
0.0
  0
SPLINE
  5
B7
330
1F
100
AcDbEntity
  8
0
  6
Continuous
 62
     7
370
    25
100
AcDbSpline
210
0.0
220
0.0
230
1.0
 70
     8
 71
     3
 72
    10
 73
     6
 74
     0
 42
0.00000001
 43
0.00000001
 40
0.0
 40
0.0
 40
0.0
 40
0.0
 40
0.5
 40
0.5
 40
1.0
 40
1.0
 40
1.0
 40
1.0
 10
200.7610948352123
 20
116.8820158879265
 30
0.0
 10
200.7374194407879
 20
116.8390723570253
 30
0.0
 10
200.7243283309033
 20
116.7756299124011
 30
0.0
 10
200.724242009615
 20
116.6231510752822
 30
0.0
 10
200.7374109435588
 20
116.5349210731749
 30
0.0
 10
200.7610948352123
 20
116.4490031860343
 30
0.0
  0
SPLINE
  5
B8
330
1F
100
AcDbEntity
  8
0
  6
Continuous
 62
     7
370
    25
100
AcDbSpline
210
0.0
220
0.0
230
1.0
 70
     8
 71
     3
 72
    12
 73
     8
 74
     0
 42
0.00000001
 43
0.00000001
 40
0.0
 40
0.0
 40
0.0
 40
0.0
 40
0.2500000000000001
 40
0.2500000000000001
 40
0.5000000000000002
 40
0.5000000000000002
 40
1.0
 40
1.0
 40
1.0
 40
1.0
 10
201.4388162404725
 20
119.191416964685
 30
0.0
 10
201.4388162404725
 20
118.9956747018055
 30
0.0
 10
201.4229733043835
 20
118.7990080926149
 30
0.0
 10
201.3614704441459
 20
118.4097398652866
 30
0.0
 10
201.3158668031022
 20
118.2163358323337
 30
0.0
 10
201.139415785613
 20
117.639406781077
 30
0.0
 10
200.9690184183611
 20
117.2591573478739
 30
0.0
 10
200.7610948352123
 20
116.8820158879265
 30
0.0
  0
SPLINE
  5
B9
330
1F
100
AcDbEntity
  8
0
  6
Continuous
 62
     7
370
    25
100
AcDbSpline
210
0.0
220
0.0
230
1.0
 70
     8
 71
     3
 72
     8
 73
     4
 74
     0
 42
0.00000001
 43
0.00000001
 40
0.0
 40
0.0
 40
0.0
 40
0.0
 40
1.0
 40
1.0
 40
1.0
 40
1.0
 10
200.1494400558558
 20
104.5408248478885
 30
0.0
 10
200.4584571984976
 20
104.6418299557186
 30
0.0
 10
200.7737749548156
 20
104.7384867447846
 30
0.0
 10
201.0962542816586
 20
104.8302010325173
 30
0.0
  0
SPLINE
  5
BA
330
1F
100
AcDbEntity
  8
0
  6
Continuous
 62
     7
370
    25
100
AcDbSpline
210
0.0
220
0.0
230
1.0
 70
     8
 71
     3
 72
    10
 73
     6
 74
     0
 42
0.00000001
 43
0.00000001
 40
0.0
 40
0.0
 40
0.0
 40
0.0
 40
0.5
 40
0.5
 40
1.0
 40
1.0
 40
1.0
 40
1.0
 10
202.3870013850633
 20
103.8638044926623
 30
0.0
 10
202.4299449159645
 20
103.8401290982379
 30
0.0
 10
202.4933873605886
 20
103.8270379883532
 30
0.0
 10
202.6458661977076
 20
103.8269516670649
 30
0.0
 10
202.7340961998148
 20
103.8401206010088
 30
0.0
 10
202.8200140869555
 20
103.8638044926623
 30
0.0
  0
SPLINE
  5
BB
330
1F
100
AcDbEntity
  8
0
  6
Continuous
 62
     7
370
    25
100
AcDbSpline
210
0.0
220
0.0
230
1.0
 70
     8
 71
     3
 72
    12
 73
     8
 74
     0
 42
0.00000001
 43
0.00000001
 40
0.0
 40
0.0
 40
0.0
 40
0.0
 40
0.2500000000000002
 40
0.2500000000000002
 40
0.5000000000000004
 40
0.5000000000000004
 40
1.0
 40
1.0
 40
1.0
 40
1.0
 10
200.1494400558506
 20
104.5408248478824
 30
0.0
 10
200.3394662311538
 20
104.537116362026
 30
0.0
 10
200.5296812938397
 20
104.5185338591883
 30
0.0
 10
200.906618052972
 20
104.4536668222221
 30
0.0
 10
201.0939408442316
 20
104.4074012689719
 30
0.0
 10
201.6528508005457
 20
104.2316767386649
 30
0.0
 10
202.021386458656
 20
104.0653733298882
 30
0.0
 10
202.3870013850633
 20
103.8638044926623
 30
0.0
  0
LINE
  5
BC
330
1F
100
AcDbEntity
  8
0
  6
Continuous
 62
     7
370
    25
100
AcDbLine
 10
215.6888162405
 20
99.3302010325
 30
0.0
 11
199.1888162405
 21
99.3302010325
 31
0.0
  0
SPLINE
  5
BD
330
1F
100
AcDbEntity
  8
0
  6
Continuous
 62
     7
370
    25
100
AcDbSpline
210
0.0
220
0.0
230
1.0
 70
     8
 71
     3
 72
    10
 73
     6
 74
     0
 42
0.00000001
 43
0.00000001
 40
0.0
 40
0.0
 40
0.0
 40
0.0
 40
0.5
 40
0.5
 40
1.0
 40
1.0
 40
1.0
 40
1.0
 10
202.3870013850633
 20
100.1522600050749
 30
0.0
 10
202.4299391941625
 20
100.1759322449864
 30
0.0
 10
202.4933797840547
 20
100.1890262349217
 30
0.0
 10
202.6458689295635
 20
100.1891131023831
 30
0.0
 10
202.7340983187669
 20
100.1759433126238
 30
0.0
 10
202.8200140869555
 20
100.1522600050749
 30
0.0
  0
SPLINE
  5
BE
330
1F
100
AcDbEntity
  8
0
  6
Continuous
 62
     7
370
    25
100
AcDbSpline
210
0.0
220
0.0
230
1.0
 70
     8
 71
     3
 72
    10
 73
     6
 74
     0
 42
0.00000001
 43
0.00000001
 40
0.0
 40
0.0
 40
0.0
 40
0.0
 40
0.5
 40
0.5
 40
1.0
 40
1.0
 40
1.0
 40
1.0
 10
212.0576183939895
 20
100.1522600050749
 30
0.0
 10
212.143500036496
 20
100.1759339056308
 30
0.0
 10
212.2309092424614
 20
100.1890264628099
 30
0.0
 10
212.3835517275363
 20
100.1891128767922
 30
0.0
 10
212.4476747126187
 20
100.1759424851936
 30
0.0
 10
212.4906310958817
 20
100.1522600050749
 30
0.0
  0
SPLINE
  5
BF
330
1F
100
AcDbEntity
  8
0
  6
Continuous
 62
     7
370
    25
100
AcDbSpline
210
0.0
220
0.0
230
1.0
 70
     8
 71
     3
 72
    16
 73
    12
 74
     0
 42
0.00000001
 43
0.00000001
 40
0.0
 40
0.0
 40
0.0
 40
0.0
 40
0.2500000000000001
 40
0.2500000000000001
 40
0.5000000000000001
 40
0.5000000000000001
 40
0.6250000000000001
 40
0.6250000000000001
 40
0.7500000000000002
 40
0.7500000000000002
 40
1.0
 40
1.0
 40
1.0
 40
1.0
 10
217.1094332493987
 20
100.1522600050744
 30
0.0
 10
216.7317182016758
 20
99.94402019462574
 30
0.0
 10
216.3515604530498
 20
99.7738469082163
 30
0.0
 10
215.5844671211584
 20
99.53912464860045
 30
0.0
 10
215.1974897638207
 20
99.47522667352597
 30
0.0
 10
214.6109389887961
 20
99.47420297143948
 30
0.0
 10
214.413859828873
 20
99.48968951858417
 30
0.0
 10
214.0233306893647
 20
99.55081324004217
 30
0.0
 10
213.8292989856917
 20
99.59633496733719
 30
0.0
 10
213.2504949132706
 20
99.77283433108236
 30
0.0
 10
212.8690061791041
 20
99.94365630743619
 30
0.0
 10
212.4906310958817
 20
100.1522600050747
 30
0.0
  0
SPLINE
  5
C0
330
1F
100
AcDbEntity
  8
0
  6
Continuous
 62
     7
370
    25
100
AcDbSpline
210
0.0
220
0.0
230
1.0
 70
     8
 71
     3
 72
     9
 73
     5
 74
     0
 42
0.00000001
 43
0.00000001
 40
0.0
 40
0.0
 40
0.0
 40
0.0
 40
0.5789479223911497
 40
1.0
 40
1.0
 40
1.0
 40
1.0
 10
217.1094332493987
 20
100.1522600050749
 30
0.0
 10
217.1318746165914
 20
100.1646008953893
 30
0.0
 10
217.1706369410159
 20
100.1859169582632
 30
0.0
 10
217.171402843875
 20
100.1863251321776
 30
0.0
 10
217.1717253288651
 20
100.1864969946522
 30
0.0
  0
SPLINE
  5
C1
330
1F
100
AcDbEntity
  8
0
  6
Continuous
 62
     7
370
    25
100
AcDbSpline
210
0.0
220
0.0
230
1.0
 70
     8
 71
     3
 72
    10
 73
     6
 74
     0
 42
0.00000001
 43
0.00000001
 40
0.0
 40
0.0
 40
0.0
 40
0.0
 40
0.1593935213061664
 40
0.7189934545756295
 40
1.0
 40
1.0
 40
1.0
 40
1.0
 10
197.7059071520799
 20
100.1864969946522
 30
0.0
 10
197.7045172332533
 20
100.1872585216497
 30
0.0
 10
197.6982475773064
 20
100.1906936231656
 30
0.0
 10
197.7247315191304
 20
100.1761990006989
 30
0.0
 10
197.7573089231771
 20
100.1582576302064
 30
0.0
 10
197.7681992315462
 20
100.1522600050749
 30
0.0
  0
SPLINE
  5
C2
330
1F
100
AcDbEntity
  8
0
  6
Continuous
 62
     7
370
    25
100
AcDbSpline
210
0.0
220
0.0
230
1.0
 70
     8
 71
     3
 72
    16
 73
    12
 74
     0
 42
0.00000001
 43
0.00000001
 40
0.0
 40
0.0
 40
0.0
 40
0.0
 40
0.2500000000000003
 40
0.2500000000000003
 40
0.5000000000000006
 40
0.5000000000000006
 40
0.6250000000000006
 40
0.6250000000000006
 40
0.7500000000000004
 40
0.7500000000000004
 40
1.0
 40
1.0
 40
1.0
 40
1.0
 10
202.3870013850633
 20
100.1522600050744
 30
0.0
 10
202.0092863373403
 20
99.94402019462574
 30
0.0
 10
201.6291285887143
 20
99.7738469082163
 30
0.0
 10
200.8620352568229
 20
99.53912464860045
 30
0.0
 10
200.4750578994853
 20
99.47522667352598
 30
0.0
 10
199.8885071244606
 20
99.47420297143948
 30
0.0
 10
199.6914279645375
 20
99.48968951858417
 30
0.0
 10
199.3008988250293
 20
99.55081324004217
 30
0.0
 10
199.1068671213562
 20
99.59633496733719
 30
0.0
 10
198.5280630489352
 20
99.77283433108236
 30
0.0
 10
198.1465743147687
 20
99.94365630743619
 30
0.0
 10
197.7681992315462
 20
100.1522600050747
 30
0.0
  0
LINE
  5
C3
330
1F
100
AcDbEntity
  8
0
  6
Continuous
 62
     7
370
    25
100
AcDbLine
 10
218.6167572679
 20
106.7783861771
 30
0.0
 11
214.1165376457
 21
106.7783861771
 31
0.0
  0
SPLINE
  5
C4
330
1F
100
AcDbEntity
  8
0
  6
Continuous
 62
     7
370
    25
100
AcDbSpline
210
0.0
220
0.0
230
1.0
 70
     8
 71
     3
 72
    10
 73
     6
 74
     0
 42
0.00000001
 43
0.00000001
 40
0.0
 40
0.0
 40
0.0
 40
0.0
 40
0.5
 40
0.5
 40
1.0
 40
1.0
 40
1.0
 40
1.0
 10
214.1165376457294
 20
106.778386177108
 30
0.0
 10
214.1402130401537
 20
106.8213297080092
 30
0.0
 10
214.1533041500417
 20
106.884772152633
 30
0.0
 10
214.15339047133
 20
107.0372509897521
 30
0.0
 10
214.1402215373862
 20
107.1254809918595
 30
0.0
 10
214.1165376457327
 20
107.2113988790002
 30
0.0
  0
SPLINE
  5
C5
330
1F
100
AcDbEntity
  8
0
  6
Continuous
 62
     7
370
    25
100
AcDbSpline
210
0.0
220
0.0
230
1.0
 70
     8
 71
     3
 72
    10
 73
     6
 74
     0
 42
0.00000001
 43
0.00000001
 40
0.0
 40
0.0
 40
0.0
 40
0.0
 40
0.5
 40
0.5
 40
1.0
 40
1.0
 40
1.0
 40
1.0
 10
218.6167572679148
 20
107.2113988790002
 30
0.0
 10
218.5930818734904
 20
107.1255118171978
 30
0.0
 10
218.5799907636058
 20
107.0381046082177
 30
0.0
 10
218.5799044423176
 20
106.8854681656239
 30
0.0
 10
218.5930733762614
 20
106.8213451206783
 30
0.0
 10
218.6167572679149
 20
106.778386177108
 30
0.0
  0
SPLINE
  5
C6
330
1F
100
AcDbEntity
  8
0
  6
Continuous
 62
     7
370
    25
100
AcDbSpline
210
0.0
220
0.0
230
1.0
 70
     8
 71
     3
 72
    10
 73
     6
 74
     0
 42
0.00000001
 43
0.00000001
 40
0.0
 40
0.0
 40
0.0
 40
0.0
 40
0.5
 40
0.5
 40
1.0
 40
1.0
 40
1.0
 40
1.0
 10
214.1165376457327
 20
116.4490031860343
 30
0.0
 10
214.1402130401571
 20
116.5348902478367
 30
0.0
 10
214.1533041500417
 20
116.6222974568168
 30
0.0
 10
214.15339047133
 20
116.7749338994106
 30
0.0
 10
214.1402215373862
 20
116.8390569443561
 30
0.0
 10
214.1165376457327
 20
116.8820158879265
 30
0.0
  0
LINE
  5
C7
330
1F
100
AcDbEntity
  8
0
  6
Continuous
 62
     7
370
    25
100
AcDbLine
 10
214.1165376457
 20
116.8820158879
 30
0.0
 11
218.6167572679
 21
116.8820158879
 31
0.0
  0
SPLINE
  5
C8
330
1F
100
AcDbEntity
  8
0
  6
Continuous
 62
     7
370
    25
100
AcDbSpline
210
0.0
220
0.0
230
1.0
 70
     8
 71
     3
 72
    10
 73
     6
 74
     0
 42
0.00000001
 43
0.00000001
 40
0.0
 40
0.0
 40
0.0
 40
0.0
 40
0.5
 40
0.5
 40
1.0
 40
1.0
 40
1.0
 40
1.0
 10
218.6167572679149
 20
116.8820158879265
 30
0.0
 10
218.5930818734905
 20
116.8390723570253
 30
0.0
 10
218.5799907636058
 20
116.7756299124011
 30
0.0
 10
218.5799044423176
 20
116.6231510752822
 30
0.0
 10
218.5930733762614
 20
116.5349210731749
 30
0.0
 10
218.6167572679149
 20
116.4490031860343
 30
0.0
  0
LINE
  5
C9
330
1F
100
AcDbEntity
  8
0
  6
Continuous
 62
     7
370
    25
100
AcDbLine
 10
202.3870013851
 20
100.1522600051
 30
0.0
 11
202.3870013851
 21
103.8638044927
 31
0.0
  0
SPLINE
  5
CA
330
1F
100
AcDbEntity
  8
0
  6
Continuous
 62
     7
370
    25
100
AcDbSpline
210
0.0
220
0.0
230
1.0
 70
     8
 71
     3
 72
    10
 73
     6
 74
     0
 42
0.00000001
 43
0.00000001
 40
0.0
 40
0.0
 40
0.0
 40
0.0
 40
0.5
 40
0.5
 40
1.0
 40
1.0
 40
1.0
 40
1.0
 10
212.0576183939895
 20
103.8638044926622
 30
0.0
 10
212.143505455792
 20
103.8401290982378
 30
0.0
 10
212.2309126647722
 20
103.8270379883532
 30
0.0
 10
212.3835491073661
 20
103.826951667065
 30
0.0
 10
212.4476721523119
 20
103.8401206010089
 30
0.0
 10
212.4906310958821
 20
103.8638044926625
 30
0.0
  0
LINE
  5
CB
330
1F
100
AcDbEntity
  8
0
  6
Continuous
 62
     7
370
    25
100
AcDbLine
 10
212.4906310959
 20
103.8638044927
 30
0.0
 11
212.4906310959
 21
100.1522600051
 31
0.0
  0
SPLINE
  5
CC
330
1F
100
AcDbEntity
  8
0
  6
Continuous
 62
     7
370
    25
100
AcDbSpline
210
0.0
220
0.0
230
1.0
 70
     8
 71
     3
 72
    10
 73
     6
 74
     0
 42
0.00000001
 43
0.00000001
 40
0.0
 40
0.0
 40
0.0
 40
0.0
 40
0.5
 40
0.5
 40
1.0
 40
1.0
 40
1.0
 40
1.0
 10
196.6165376457322
 20
116.8820158879265
 30
0.0
 10
196.407727721066
 20
117.2607650353177
 30
0.0
 10
196.2371935813187
 20
117.641970311729
 30
0.0
 10
196.0024077762998
 20
118.4112009329168
 30
0.0
 10
195.9388162404725
 20
118.7992686377151
 30
0.0
 10
195.9388162404725
 20
119.191416964685
 30
0.0
  0
SPLINE
  5
CD
330
1F
100
AcDbEntity
  8
0
  6
Continuous
 62
     7
370
    25
100
AcDbSpline
210
0.0
220
0.0
230
1.0
 70
     8
 71
     3
 72
    10
 73
     6
 74
     0
 42
0.00000001
 43
0.00000001
 40
0.0
 40
0.0
 40
0.0
 40
0.0
 40
0.5
 40
0.5
 40
1.0
 40
1.0
 40
1.0
 40
1.0
 10
196.6165376457327
 20
116.8820158879265
 30
0.0
 10
196.6402098856442
 20
116.8390780788272
 30
0.0
 10
196.6533038755795
 20
116.775637488935
 30
0.0
 10
196.6533907430409
 20
116.6231483434262
 30
0.0
 10
196.6402209532816
 20
116.5349189542229
 30
0.0
 10
196.6165376457327
 20
116.4490031860343
 30
0.0
  0
LINE
  5
CE
330
1F
100
AcDbEntity
  8
0
  6
Continuous
 62
     7
370
    25
100
AcDbLine
 10
195.9388162405
 20
111.8302010325
 30
0.0
 11
195.9388162405
 21
119.1914169647
 31
0.0
  0
SPLINE
  5
CF
330
1F
100
AcDbEntity
  8
0
  6
Continuous
 62
     7
370
    25
100
AcDbSpline
210
0.0
220
0.0
230
1.0
 70
     8
 71
     3
 72
     8
 73
     4
 74
     0
 42
0.00000001
 43
0.00000001
 40
0.0
 40
0.0
 40
0.0
 40
0.0
 40
1.0
 40
1.0
 40
1.0
 40
1.0
 10
213.5601997319686
 20
105.420079499192
 30
0.0
 10
213.5190844563274
 20
105.5561098936816
 30
0.0
 10
213.4785954734595
 20
105.692813958319
 30
0.0
 10
213.4388162404725
 20
105.8302010325173
 30
0.0
  0
LINE
  5
D0
330
1F
100
AcDbEntity
  8
0
  6
Continuous
 62
     7
370
    25
100
AcDbLine
 10
213.4388162405
 20
107.8302010325
 30
0.0
 11
213.4388162405
 21
105.8302010325
 31
0.0
  0
SPLINE
  5
D1
330
1F
100
AcDbEntity
  8
0
  6
Continuous
 62
     7
370
    25
100
AcDbSpline
210
0.0
220
0.0
230
1.0
 70
     8
 71
     3
 72
     8
 73
     4
 74
     0
 42
0.00000001
 43
0.00000001
 40
0.0
 40
0.0
 40
0.0
 40
0.0
 40
1.0
 40
1.0
 40
1.0
 40
1.0
 10
213.5601997319686
 20
105.420079499192
 30
0.0
 10
213.6758323419977
 20
105.8786304312498
 30
0.0
 10
213.8697217468181
 20
106.330700027008
 30
0.0
 10
214.1165376457325
 20
106.7783861771078
 30
0.0
  0
LINE
  5
D2
330
1F
100
AcDbEntity
  8
0
  6
Continuous
 62
     7
370
    25
100
AcDbLine
 10
203.6088681768
 20
112.174383522
 30
0.0
 11
203.3051939957
 21
111.3638009051
 31
0.0
  0
ELLIPSE
  5
D3
330
1F
100
AcDbEntity
  8
0
  6
Continuous
 62
     7
370
    25
100
AcDbEllipse
 10
203.6887294151
 20
112.1471935101
 30
0.0
 11
0.08480161849067258
 21
0.0
 31
0.0
210
0.0
220
0.0
230
1.0
 40
0.9533039403
 41
0.3430239404208013
 42
2.798568713168992
  0
LINE
  5
D4
330
1F
100
AcDbEntity
  8
0
  6
Continuous
 62
     7
370
    25
100
AcDbLine
 10
204.0722648311
 20
111.3638009048
 30
0.0
 11
203.7685906534
 21
112.174383522
 31
0.0
  0
LINE
  5
D5
330
1F
100
AcDbEntity
  8
0
  6
Continuous
 62
     7
370
    25
100
AcDbLine
 10
203.385055234
 20
111.255769176
 30
0.0
 11
203.9924035927
 21
111.255769176
 31
0.0
  0
ELLIPSE
  5
D6
330
1F
100
AcDbEntity
  8
0
  6
Continuous
 62
     7
370
    25
100
AcDbEllipse
 10
203.9924035927
 20
111.3366108931
 30
0.0
 11
-0.08480161849067258
 21
-4.263256414560601E-14
 31
0.0
210
0.0
220
0.0
230
1.0
 40
0.9533039403
 41
1.570796326794417
 42
3.4846165921492
  0
ELLIPSE
  5
D7
330
1F
100
AcDbEntity
  8
0
  6
Continuous
 62
     7
370
    25
100
AcDbEllipse
 10
203.385055234
 20
111.3366108931
 30
0.0
 11
0.08480161849067258
 21
-1.421085471520200E-14
 31
0.0
210
0.0
220
0.0
230
1.0
 40
0.9533039403
 41
2.798568711308387
 42
4.712388980384862
  0
SPLINE
  5
D8
330
1F
100
AcDbEntity
  8
0
  6
Continuous
 62
     7
370
    25
100
AcDbSpline
210
0.0
220
0.0
230
1.0
 70
     8
 71
     3
 72
     8
 73
     4
 74
     0
 42
0.00000001
 43
0.00000001
 40
0.0
 40
0.0
 40
0.0
 40
0.0
 40
1.0
 40
1.0
 40
1.0
 40
1.0
 10
213.7813781992863
 20
104.8302010325173
 30
0.0
 10
214.1038575261356
 20
104.7384867447828
 30
0.0
 10
214.4191752824596
 20
104.6418299557149
 30
0.0
 10
214.7281924251071
 20
104.5408248478826
 30
0.0
  0
SPLINE
  5
D9
330
1F
100
AcDbEntity
  8
0
  6
Continuous
 62
     7
370
    25
100
AcDbSpline
210
0.0
220
0.0
230
1.0
 70
     8
 71
     3
 72
    10
 73
     6
 74
     0
 42
0.00000001
 43
0.00000001
 40
0.0
 40
0.0
 40
0.0
 40
0.0
 40
0.5
 40
0.5
 40
1.0
 40
1.0
 40
1.0
 40
1.0
 10
212.490631095882
 20
103.8638044926624
 30
0.0
 10
212.8571490427225
 20
104.0658711782133
 30
0.0
 10
213.2262292681883
 20
104.232263950484
 30
0.0
 10
213.9714816164157
 20
104.466310924354
 30
0.0
 10
214.3476943883635
 20
104.5333991783129
 30
0.0
 10
214.7281924251071
 20
104.5408248478826
 30
0.0
  0
LINE
  5
DA
330
1F
100
AcDbEntity
  8
0
  6
Continuous
 62
     7
370
    25
100
AcDbLine
 10
213.4388162405
 20
119.1914169647
 30
0.0
 11
213.4388162405
 21
115.8302010325
 31
0.0
  0
SPLINE
  5
DB
330
1F
100
AcDbEntity
  8
0
  6
Continuous
 62
     7
370
    25
100
AcDbSpline
210
0.0
220
0.0
230
1.0
 70
     8
 71
     3
 72
    10
 73
     6
 74
     0
 42
0.00000001
 43
0.00000001
 40
0.0
 40
0.0
 40
0.0
 40
0.0
 40
0.5
 40
0.5
 40
1.0
 40
1.0
 40
1.0
 40
1.0
 10
214.1165376457327
 20
116.8820158879265
 30
0.0
 10
213.9081168929152
 20
117.2600591373286
 30
0.0
 10
213.7376530576378
 20
117.6408286421245
 30
0.0
 10
213.5026706226994
 20
118.409977167682
 30
0.0
 10
213.4388162404725
 20
118.7984038958573
 30
0.0
 10
213.4388162404725
 20
119.191416964685
 30
0.0
  0
SPLINE
  5
DC
330
1F
100
AcDbEntity
  8
0
  6
Continuous
 62
     7
370
    25
100
AcDbSpline
210
0.0
220
0.0
230
1.0
 70
     8
 71
     3
 72
    16
 73
    12
 74
     0
 42
0.00000001
 43
0.00000001
 40
0.0
 40
0.0
 40
0.0
 40
0.0
 40
0.2500000000000001
 40
0.2500000000000001
 40
0.5000000000000001
 40
0.5000000000000001
 40
0.6250000000000001
 40
0.6250000000000001
 40
0.7500000000000002
 40
0.7500000000000002
 40
1.0
 40
1.0
 40
1.0
 40
1.0
 10
218.6167572679149
 20
121.5008180414435
 30
0.0
 10
218.8247727160206
 20
121.123509952567
 30
0.0
 10
218.9949790209936
 20
120.7434862221928
 30
0.0
 10
219.2299150525612
 20
119.9758629067821
 30
0.0
 10
219.2939871842248
 20
119.5882160899933
 30
0.0
 10
219.2947201331459
 20
118.9998955381055
 30
0.0
 10
219.2790606530629
 20
118.8028223455498
 30
0.0
 10
219.2177855264259
 20
118.4127653679957
 30
0.0
 10
219.1722292539268
 20
118.2189724674077
 30
0.0
 10
218.9957432211705
 20
117.6408914826442
 30
0.0
 10
218.8250867676848
 20
117.2598936183094
 30
0.0
 10
218.6167572679149
 20
116.8820158879265
 30
0.0
  0
SPLINE
  5
DD
330
1F
100
AcDbEntity
  8
0
  6
Continuous
 62
     7
370
    25
100
AcDbSpline
210
0.0
220
0.0
230
1.0
 70
     8
 71
     3
 72
    10
 73
     6
 74
     0
 42
0.00000001
 43
0.00000001
 40
0.0
 40
0.0
 40
0.0
 40
0.0
 40
0.1601790552921226
 40
0.7197651707803578
 40
1.0
 40
1.0
 40
1.0
 40
1.0
 10
218.582527834798
 20
121.5630963201932
 30
0.0
 10
218.5817650447047
 20
121.5644885482196
 30
0.0
 10
218.578337444631
 20
121.5707445299479
 30
0.0
 10
218.5928449094293
 20
121.54423726522
 30
0.0
 10
218.6107744625471
 20
121.5116814100749
 30
0.0
 10
218.6167572679149
 20
121.5008180414435
 30
0.0
  0
SPLINE
  5
DE
330
1F
100
AcDbEntity
  8
0
  6
Continuous
 62
     7
370
    25
100
AcDbSpline
210
0.0
220
0.0
230
1.0
 70
     8
 71
     3
 72
     9
 73
     5
 74
     0
 42
0.00000001
 43
0.00000001
 40
0.0
 40
0.0
 40
0.0
 40
0.0
 40
0.5797912171256352
 40
1.0
 40
1.0
 40
1.0
 40
1.0
 10
218.6167572679149
 20
102.159584023591
 30
0.0
 10
218.6043986645684
 20
102.1371103753499
 30
0.0
 10
218.583083054774
 20
102.0983487529291
 30
0.0
 10
218.5826921122712
 20
102.0976143481709
 30
0.0
 10
218.582527834798
 20
102.0973057448413
 30
0.0
  0
SPLINE
  5
DF
330
1F
100
AcDbEntity
  8
0
  6
Continuous
 62
     7
370
    25
100
AcDbSpline
210
0.0
220
0.0
230
1.0
 70
     8
 71
     3
 72
    16
 73
    12
 74
     0
 42
0.00000001
 43
0.00000001
 40
0.0
 40
0.0
 40
0.0
 40
0.0
 40
0.2500000000000001
 40
0.2500000000000001
 40
0.5000000000000002
 40
0.5000000000000002
 40
0.6250000000000001
 40
0.6250000000000001
 40
0.7500000000000001
 40
0.7500000000000001
 40
1.0
 40
1.0
 40
1.0
 40
1.0
 10
218.6167572679149
 20
106.778386177108
 30
0.0
 10
218.8247727160206
 20
106.4010780882315
 30
0.0
 10
218.9949790209936
 20
106.0210543578573
 30
0.0
 10
219.2299150525612
 20
105.2534310424466
 30
0.0
 10
219.2939871842248
 20
104.8657842256578
 30
0.0
 10
219.2947201331459
 20
104.27746367377
 30
0.0
 10
219.2790606530629
 20
104.0803904812143
 30
0.0
 10
219.2177855264259
 20
103.6903335036602
 30
0.0
 10
219.1722292539268
 20
103.4965406030722
 30
0.0
 10
218.9957432211705
 20
102.9184596183088
 30
0.0
 10
218.8250867676848
 20
102.537461753974
 30
0.0
 10
218.6167572679149
 20
102.159584023591
 30
0.0
  0
LINE
  5
E0
330
1F
100
AcDbEntity
  8
0
  6
Continuous
 62
     7
370
    25
100
AcDbLine
 10
219.4388162405
 20
120.0802010325
 30
0.0
 11
219.4388162405
 21
103.5802010325
 31
0.0
  0
SPLINE
  5
E1
330
1F
100
AcDbEntity
  8
0
  6
Continuous
 62
     7
370
    25
100
AcDbSpline
210
0.0
220
0.0
230
1.0
 70
     8
 71
     3
 72
    10
 73
     6
 74
     0
 42
0.00000001
 43
0.00000001
 40
0.0
 40
0.0
 40
0.0
 40
0.0
 40
0.5
 40
0.5
 40
1.0
 40
1.0
 40
1.0
 40
1.0
 10
196.6165376457327
 20
107.2113988790002
 30
0.0
 10
196.6402115462886
 20
107.1255172364938
 30
0.0
 10
196.6533041034678
 20
107.0381080305283
 30
0.0
 10
196.65339051745
 20
106.8854655454534
 30
0.0
 10
196.6402201258514
 20
106.8213425603711
 30
0.0
 10
196.6165376457327
 20
106.778386177108
 30
0.0
  0
SPLINE
  5
E2
330
1F
100
AcDbEntity
  8
0
  6
Continuous
 62
     7
370
    25
100
AcDbSpline
210
0.0
220
0.0
230
1.0
 70
     8
 71
     3
 72
    12
 73
     8
 74
     0
 42
0.00000001
 43
0.00000001
 40
0.0
 40
0.0
 40
0.0
 40
0.0
 40
0.2499999999999999
 40
0.2499999999999999
 40
0.4999999999999998
 40
0.4999999999999998
 40
1.0
 40
1.0
 40
1.0
 40
1.0
 10
195.9388162404725
 20
104.4689851003495
 30
0.0
 10
195.9388162404725
 20
104.6639885803553
 30
0.0
 10
195.9545625704944
 20
104.8605232393797
 30
0.0
 10
196.0160075950799
 20
105.2499429269853
 30
0.0
 10
196.0615963543336
 20
105.4434276200456
 30
0.0
 10
196.2380473565902
 20
106.0206112188012
 30
0.0
 10
196.4085050585537
 20
106.4010470005841
 30
0.0
 10
196.6165376457325
 20
106.778386177108
 30
0.0
  0
LINE
  5
E3
330
1F
100
AcDbEntity
  8
0
  6
Continuous
 62
     7
370
    25
100
AcDbLine
 10
195.9388162405
 20
111.8302010325
 30
0.0
 11
195.9388162405
 21
104.4689851003
 31
0.0
  0
LINE
  5
E4
330
1F
100
AcDbEntity
  8
0
  6
Continuous
 62
     7
370
    25
100
AcDbLine
 10
201.4388162405
 20
107.8302010325
 30
0.0
 11
201.4388162405
 21
105.8302010325
 31
0.0
  0
SPLINE
  5
E5
330
1F
100
AcDbEntity
  8
0
  6
Continuous
 62
     7
370
    25
100
AcDbSpline
210
0.0
220
0.0
230
1.0
 70
     8
 71
     3
 72
     8
 73
     4
 74
     0
 42
0.00000001
 43
0.00000001
 40
0.0
 40
0.0
 40
0.0
 40
0.0
 40
1.0
 40
1.0
 40
1.0
 40
1.0
 10
201.4388162404725
 20
105.8302010325173
 30
0.0
 10
201.3990375822823
 20
105.6928159435171
 30
0.0
 10
201.3585486194541
 20
105.5561118617054
 30
0.0
 10
201.3174327489763
 20
105.420079499192
 30
0.0
  0
SPLINE
  5
E6
330
1F
100
AcDbEntity
  8
0
  6
Continuous
 62
     7
370
    25
100
AcDbSpline
210
0.0
220
0.0
230
1.0
 70
     8
 71
     3
 72
     8
 73
     4
 74
     0
 42
0.00000001
 43
0.00000001
 40
0.0
 40
0.0
 40
0.0
 40
0.0
 40
1.0
 40
1.0
 40
1.0
 40
1.0
 10
200.7610948352123
 20
106.778386177108
 30
0.0
 10
201.0082686160962
 20
106.3300508840567
 30
0.0
 10
201.2019902844002
 20
105.8778763933131
 30
0.0
 10
201.3174327489763
 20
105.420079499192
 30
0.0
  0
SPLINE
  5
E7
330
1F
100
AcDbEntity
  8
0
  6
Continuous
 62
     7
370
    25
100
AcDbSpline
210
0.0
220
0.0
230
1.0
 70
     8
 71
     3
 72
    10
 73
     6
 74
     0
 42
0.00000001
 43
0.00000001
 40
0.0
 40
0.0
 40
0.0
 40
0.0
 40
0.5
 40
0.5
 40
1.0
 40
1.0
 40
1.0
 40
1.0
 10
200.7610948352122
 20
107.2113988790002
 30
0.0
 10
200.7374194407878
 20
107.1255118171978
 30
0.0
 10
200.7243283309033
 20
107.0381046082177
 30
0.0
 10
200.724242009615
 20
106.8854681656239
 30
0.0
 10
200.7374109435588
 20
106.8213451206783
 30
0.0
 10
200.7610948352123
 20
106.778386177108
 30
0.0
  0
LINE
  5
E8
330
1F
100
AcDbEntity
  8
0
  6
Continuous
 62
     7
370
    25
100
AcDbLine
 10
200.7610948352
 20
106.7783861771
 30
0.0
 11
196.6165376457
 21
106.7783861771
 31
0.0
  0
LINE
  5
E9
330
1F
100
AcDbEntity
  8
0
  6
Continuous
 62
     7
370
    25
100
AcDbLine
 10
196.6165376457
 20
116.8820158879
 30
0.0
 11
200.7610948352
 21
116.8820158879
 31
0.0
  0
SPLINE
  5
EA
330
1F
100
AcDbEntity
  8
0
  6
Continuous
 62
     7
370
    25
100
AcDbSpline
210
0.0
220
0.0
230
1.0
 70
     8
 71
     3
 72
    12
 73
     8
 74
     0
 42
0.00000001
 43
0.00000001
 40
0.0
 40
0.0
 40
0.0
 40
0.0
 40
0.2499999999999999
 40
0.2499999999999999
 40
0.4999999999999998
 40
0.4999999999999998
 40
1.0
 40
1.0
 40
1.0
 40
1.0
 10
213.4388162404725
 20
119.191416964685
 30
0.0
 10
213.4388162404725
 20
119.3871592275645
 30
0.0
 10
213.4546591765614
 20
119.5838258367551
 30
0.0
 10
213.5161620367991
 20
119.9730940640833
 30
0.0
 10
213.5617656778428
 20
120.1664980970363
 30
0.0
 10
213.738216695332
 20
120.743427148293
 30
0.0
 10
213.9086140625839
 20
121.123676581496
 30
0.0
 10
214.1165376457327
 20
121.5008180414435
 30
0.0
  0
LINE
  5
EB
330
1F
100
AcDbEntity
  8
0
  6
Continuous
 62
     7
370
    25
100
AcDbLine
 10
218.6167572679
 20
121.5008180414
 30
0.0
 11
214.1165376457
 21
121.5008180414
 31
0.0
  0
ELLIPSE
  5
EC
330
1F
100
AcDbEntity
  8
0
  6
Continuous
 62
     7
370
    25
100
AcDbEllipse
 10
207.4388162405
 20
102.0152464563
 30
0.0
 11
8.5
 21
0.0
 31
0.0
210
0.0
220
0.0
230
1.0
 40
0.5773502692
 41
2.374833212873085
 42
2.53069227991306
  0
LINE
  5
ED
330
1F
100
AcDbEntity
  8
0
  6
Continuous
 62
     7
370
    25
100
AcDbLine
 10
200.1494400559
 20
104.5408248479
 30
0.0
 11
197.7681992315
 21
102.1595840236
 31
0.0
  0
LINE
  5
EE
330
1F
100
AcDbEntity
  8
0
  6
Continuous
 62
     7
370
    25
100
AcDbLine
 10
196.6165376457
 20
102.1595840236
 30
0.0
 11
197.7681992315
 21
102.1595840236
 31
0.0
  0
SPLINE
  5
EF
330
1F
100
AcDbEntity
  8
0
  6
Continuous
 62
     7
370
    25
100
AcDbSpline
210
0.0
220
0.0
230
1.0
 70
     8
 71
     3
 72
    10
 73
     6
 74
     0
 42
0.00000001
 43
0.00000001
 40
0.0
 40
0.0
 40
0.0
 40
0.0
 40
0.5
 40
0.5
 40
1.0
 40
1.0
 40
1.0
 40
1.0
 10
196.6165376457322
 20
102.159584023591
 30
0.0
 10
196.407727721066
 20
102.5383331709823
 30
0.0
 10
196.2371935813187
 20
102.9195384473936
 30
0.0
 10
196.0024077762998
 20
103.6887690685814
 30
0.0
 10
195.9388162404725
 20
104.0768367733797
 30
0.0
 10
195.9388162404725
 20
104.4689851003495
 30
0.0
  0
ELLIPSE
  5
F0
330
1F
100
AcDbEntity
  8
0
  6
Continuous
 62
     7
370
    25
100
AcDbEllipse
 10
207.4388162405
 20
102.0152464563
 30
0.0
 11
8.5
 21
0.0
 31
0.0
210
0.0
220
0.0
230
1.0
 40
0.5773502692
 41
0.6109003736767299
 42
0.7667594407167091
  0
LINE
  5
F1
330
1F
100
AcDbEntity
  8
0
  6
Continuous
 62
     7
370
    25
100
AcDbLine
 10
217.1094332494
 20
102.1595840236
 30
0.0
 11
218.6167572679
 21
102.1595840236
 31
0.0
  0
LINE
  5
F2
330
1F
100
AcDbEntity
  8
0
  6
Continuous
 62
     7
370
    25
100
AcDbLine
 10
217.1094332494
 20
102.1595840236
 30
0.0
 11
214.7281924251
 21
104.5408248479
 31
0.0
  0
SPLINE
  5
F3
330
1F
100
AcDbEntity
  8
0
  6
Continuous
 62
     7
370
    25
100
AcDbSpline
210
0.0
220
0.0
230
1.0
 70
     8
 71
     3
 72
    12
 73
     8
 74
     0
 42
0.00000001
 43
0.00000001
 40
0.0
 40
0.0
 40
0.0
 40
0.0
 40
0.2499999999999999
 40
0.2499999999999999
 40
0.5
 40
0.5
 40
1.0
 40
1.0
 40
1.0
 40
1.0
 10
195.9388162404725
 20
119.191416964685
 30
0.0
 10
195.9388162404725
 20
119.3864204446908
 30
0.0
 10
195.9545625704944
 20
119.5829551037152
 30
0.0
 10
196.0160075950799
 20
119.9723747913207
 30
0.0
 10
196.0615963543336
 20
120.165859484381
 30
0.0
 10
196.2380473565902
 20
120.7430430831366
 30
0.0
 10
196.4085050585537
 20
121.1234788649196
 30
0.0
 10
196.6165376457325
 20
121.5008180414435
 30
0.0
  0
LINE
  5
F4
330
1F
100
AcDbEntity
  8
0
  6
Continuous
 62
     7
370
    25
100
AcDbLine
 10
200.7610948352
 20
121.5008180414
 30
0.0
 11
196.6165376457
 21
121.5008180414
 31
0.0
  0
SPLINE
  5
F5
330
1F
100
AcDbEntity
  8
0
  6
Continuous
 62
     7
370
    25
100
AcDbSpline
210
0.0
220
0.0
230
1.0
 70
     8
 71
     3
 72
    10
 73
     6
 74
     0
 42
0.00000001
 43
0.00000001
 40
0.0
 40
0.0
 40
0.0
 40
0.0
 40
0.5
 40
0.5
 40
1.0
 40
1.0
 40
1.0
 40
1.0
 10
200.7610948352122
 20
121.5008180414435
 30
0.0
 10
200.9695155880297
 20
121.1227747920414
 30
0.0
 10
201.1399794233071
 20
120.7420052872455
 30
0.0
 10
201.3749618582455
 20
119.972856761688
 30
0.0
 10
201.4388162404725
 20
119.5844300335127
 30
0.0
 10
201.4388162404725
 20
119.191416964685
 30
0.0
  0
LINE
  5
F6
330
1F
100
AcDbEntity
  8
0
  6
Continuous
 62
     7
370
    25
100
AcDbLine
 10
217.1094332494
 20
100.1522600051
 30
0.0
 11
217.1094332494
 21
102.1595840236
 31
0.0
  0
LINE
  5
F7
330
1F
100
AcDbEntity
  8
0
  6
Continuous
 62
     7
370
    25
100
AcDbLine
 10
197.7681992315
 20
102.1595840236
 30
0.0
 11
197.7681992315
 21
100.1522600051
 31
0.0
  0
LINE
  5
F8
330
1F
100
AcDbEntity
  8
0
  6
Continuous
 62
     7
370
    25
100
AcDbLine
 10
213.4388162405
 20
105.8302010325
 30
0.0
 11
211.4388162405
 21
107.8302010325
 31
0.0
  0
LINE
  5
F9
330
1F
100
AcDbEntity
  8
0
  6
Continuous
 62
     7
370
    25
100
AcDbLine
 10
211.4388162405
 20
104.8302010325
 30
0.0
 11
214.4014373131
 21
104.8302010325
 31
0.0
  0
LINE
  5
FA
330
1F
100
AcDbEntity
  8
0
  6
Continuous
 62
     7
370
    25
100
AcDbLine
 10
203.4388162405
 20
107.8302010325
 30
0.0
 11
201.4388162405
 21
105.8302010325
 31
0.0
  0
LINE
  5
FB
330
1F
100
AcDbEntity
  8
0
  6
Continuous
 62
     7
370
    25
100
AcDbLine
 10
200.4761951678
 20
104.8302010325
 30
0.0
 11
203.4388162405
 21
104.8302010325
 31
0.0
  0
LINE
  5
FC
330
1F
100
AcDbEntity
  8
0
  6
Continuous
 62
     7
370
    25
100
AcDbLine
 10
201.4388162405
 20
119.7646555107
 30
0.0
 11
201.4388162405
 21
119.1914169647
 31
0.0
  0
SPLINE
  5
FD
330
1F
100
AcDbEntity
  8
0
  6
Continuous
 62
     7
370
    25
100
AcDbSpline
210
0.0
220
0.0
230
1.0
 70
     8
 71
     3
 72
    32
 73
    28
 74
     0
 42
0.00000001
 43
0.00000001
 40
0.0
 40
0.0
 40
0.0
 40
0.0
 40
0.0625000000000001
 40
0.0625000000000001
 40
0.1250000000000001
 40
0.1250000000000001
 40
0.1875000000000002
 40
0.1875000000000002
 40
0.2500000000000003
 40
0.2500000000000003
 40
0.3750000000000003
 40
0.3750000000000003
 40
0.4375000000000003
 40
0.4375000000000003
 40
0.5000000000000002
 40
0.5000000000000002
 40
0.5625000000000002
 40
0.5625000000000002
 40
0.6250000000000001
 40
0.6250000000000001
 40
0.7500000000000001
 40
0.7500000000000001
 40
0.8750000000000002
 40
0.8750000000000002
 40
0.9375000000000001
 40
0.9375000000000001
 40
1.0
 40
1.0
 40
1.0
 40
1.0
 10
213.438816240464
 20
119.7646555107379
 30
0.0
 10
213.2819599045471
 20
119.6696985328422
 30
0.0
 10
213.1089614703915
 20
119.566945358217
 30
0.0
 10
212.7322568837657
 20
119.3502341565688
 30
0.0
 10
212.529404103309
 20
119.2368154460788
 30
0.0
 10
212.1034228405064
 20
119.0087253093806
 30
0.0
 10
211.8792448802184
 20
118.8934184269287
 30
0.0
 10
211.407893786642
 20
118.6650953245539
 30
0.0
 10
211.1592082712769
 20
118.5514453084202
 30
0.0
 10
210.3886357865853
 20
118.2283812771862
 30
0.0
 10
209.8429983765031
 20
118.0354827530226
 30
0.0
 10
208.9602186280067
 20
117.823888827749
 30
0.0
 10
208.6615795281339
 20
117.7682464416312
 30
0.0
 10
208.0550779274181
 20
117.6925783722674
 30
0.0
 10
207.7449306887522
 20
117.672605126491
 30
0.0
 10
207.1248452000684
 20
117.6729388927443
 30
0.0
 10
206.8182741626004
 20
117.6929378580671
 30
0.0
 10
206.2116194152922
 20
117.7689766442636
 30
0.0
 10
205.9092463506669
 20
117.8256297443951
 30
0.0
 10
205.0326100479139
 20
118.0364082944409
 30
0.0
 10
204.484555915937
 20
118.2299541250127
 30
0.0
 10
203.4540586486937
 20
118.6625734182885
 30
0.0
 10
202.9864986134143
 20
118.8950500629789
 30
0.0
 10
202.3482850097864
 20
119.236788063898
 30
0.0
 10
202.1450752715965
 20
119.3504055793264
 30
0.0
 10
201.7687383452021
 20
119.5669079716826
 30
0.0
 10
201.5957597367106
 20
119.669645768127
 30
0.0
 10
201.4388162404725
 20
119.7646555107431
 30
0.0
  0
LINE
  5
FE
330
1F
100
AcDbEntity
  8
0
  6
Continuous
 62
     7
370
    25
100
AcDbLine
 10
213.4388162405
 20
119.7646555107
 30
0.0
 11
213.4388162405
 21
119.1914169647
 31
0.0
  0
SPLINE
  5
FF
330
1F
100
AcDbEntity
  8
0
  6
Continuous
 62
     7
370
    25
100
AcDbSpline
210
0.0
220
0.0
230
1.0
 70
     8
 71
     3
 72
    12
 73
     8
 74
     0
 42
0.00000001
 43
0.00000001
 40
0.0
 40
0.0
 40
0.0
 40
0.0
 40
0.0821802609328194
 40
0.3096985391947991
 40
0.5425085147867982
 40
0.7710700002283166
 40
1.0
 40
1.0
 40
1.0
 40
1.0
 10
213.6122551992768
 20
120.6234097276549
 30
0.0
 10
213.6133874154628
 20
120.6271801549358
 30
0.0
 10
213.6176542028263
 20
120.6413891122667
 30
0.0
 10
213.5851986906262
 20
120.5340321441419
 30
0.0
 10
213.5292339357851
 20
120.3280933795069
 30
0.0
 10
213.4610245813737
 20
120.0447981660188
 30
0.0
 10
213.4462229950521
 20
119.8580865285767
 30
0.0
 10
213.4388162404725
 20
119.7646555107359
 30
0.0
  0
SPLINE
  5
100
330
1F
100
AcDbEntity
  8
0
  6
Continuous
 62
     7
370
    25
100
AcDbSpline
210
0.0
220
0.0
230
1.0
 70
     8
 71
     3
 72
    11
 73
     7
 74
     0
 42
0.00000001
 43
0.00000001
 40
0.0
 40
0.0
 40
0.0
 40
0.0
 40
0.3176378828350087
 40
0.6359629025504985
 40
0.8656935334876892
 40
1.0
 40
1.0
 40
1.0
 40
1.0
 10
201.4388162404725
 20
119.764655510743
 30
0.0
 10
201.425177478993
 20
119.8959201574459
 30
0.0
 10
201.3978704516944
 20
120.15873341188
 30
0.0
 10
201.3098658614684
 20
120.4703777182201
 30
0.0
 10
201.2653056737304
 20
120.6241235751049
 30
0.0
 10
201.2656543338761
 20
120.6226104118044
 30
0.0
 10
201.2657829672284
 20
120.6220521510734
 30
0.0
  0
LINE
  5
101
330
1F
100
AcDbEntity
  8
0
  6
Continuous
 62
     7
370
    25
100
AcDbLine
 10
201.5388162405
 20
121.3302010325
 30
0.0
 11
201.5394662804
 21
121.3296489638
 31
0.0
  0
LINE
  5
102
330
1F
100
AcDbEntity
  8
0
  6
Continuous
 62
     7
370
    25
100
AcDbLine
 10
213.6888162405
 20
88.3302010325
 30
0.0
 11
201.1888162405
 21
88.3302010325
 31
0.0
  0
LINE
  5
103
330
1F
100
AcDbEntity
  8
0
  6
Continuous
 62
     7
370
    25
100
AcDbLine
 10
200.9388162405
 20
88.5802010325
 30
0.0
 11
213.9388162405
 21
88.5802010325
 31
0.0
  0
SPLINE
  5
104
330
1F
100
AcDbEntity
  8
0
  6
Continuous
 62
     7
370
    25
100
AcDbSpline
210
0.0
220
0.0
230
1.0
 70
     8
 71
     3
 72
    10
 73
     6
 74
     0
 42
0.00000001
 43
0.00000001
 40
0.0
 40
0.0
 40
0.0
 40
0.0
 40
0.1601790552921523
 40
0.7197651707804853
 40
1.0
 40
1.0
 40
1.0
 40
1.0
 10
200.7268654020954
 20
121.5630963201932
 30
0.0
 10
200.7261026120021
 20
121.5644885482196
 30
0.0
 10
200.7226750119284
 20
121.5707445299479
 30
0.0
 10
200.7371824767267
 20
121.54423726522
 30
0.0
 10
200.7551120298445
 20
121.5116814100749
 30
0.0
 10
200.7610948352122
 20
121.5008180414435
 30
0.0
  0
SPLINE
  5
105
330
1F
100
AcDbEntity
  8
0
  6
Continuous
 62
     7
370
    25
100
AcDbSpline
210
0.0
220
0.0
230
1.0
 70
     8
 71
     3
 72
     9
 73
     5
 74
     0
 42
0.00000001
 43
0.00000001
 40
0.0
 40
0.0
 40
0.0
 40
0.0
 40
0.5797912171256431
 40
1.0
 40
1.0
 40
1.0
 40
1.0
 10
214.1165376457327
 20
121.5008180414435
 30
0.0
 10
214.1288962490791
 20
121.5232916896846
 30
0.0
 10
214.1502118588735
 20
121.5620533121054
 30
0.0
 10
214.1506028013763
 20
121.5627877168637
 30
0.0
 10
214.1507670788496
 20
121.5630963201932
 30
0.0
  0
SPLINE
  5
106
330
1F
100
AcDbEntity
  8
0
  6
Continuous
 62
     7
370
    25
100
AcDbSpline
210
0.0
220
0.0
230
1.0
 70
     8
 71
     3
 72
    10
 73
     6
 74
     0
 42
0.00000001
 43
0.00000001
 40
0.0
 40
0.0
 40
0.0
 40
0.0
 40
0.1593935212994522
 40
0.7189934545690309
 40
1.0
 40
1.0
 40
1.0
 40
1.0
 10
196.6507746353101
 20
121.56311012091
 30
0.0
 10
196.6515361623076
 20
121.5645000397366
 30
0.0
 10
196.6549712638235
 20
121.5707696956835
 30
0.0
 10
196.640476641357
 20
121.5442857538597
 30
0.0
 10
196.6225352708643
 20
121.5117083498128
 30
0.0
 10
196.6165376457327
 20
121.5008180414435
 30
0.0
  0
LINE
  5
107
330
1F
100
AcDbEntity
  8
0
  6
Continuous
 62
     7
370
    25
100
AcDbLine
 10
195.9388162405
 20
120.3302010325
 30
0.0
 11
195.9388162405
 21
119.1914169647
 31
0.0
  0
SPLINE
  5
108
330
1F
100
AcDbEntity
  8
0
  6
Continuous
 62
     7
370
    25
100
AcDbSpline
210
0.0
220
0.0
230
1.0
 70
     8
 71
     3
 72
     9
 73
     5
 74
     0
 42
0.00000001
 43
0.00000001
 40
0.0
 40
0.0
 40
0.0
 40
0.0
 40
0.5789479223839474
 40
0.9999999999999999
 40
0.9999999999999999
 40
0.9999999999999999
 40
0.9999999999999999
 10
196.6165376457327
 20
102.159584023591
 30
0.0
 10
196.6288785360469
 20
102.1371426563986
 30
0.0
 10
196.6501945989208
 20
102.0983803319741
 30
0.0
 10
196.6506027728354
 20
102.0976144291147
 30
0.0
 10
196.6507746353101
 20
102.0972919441245
 30
0.0
  0
LINE
  5
109
330
1F
100
AcDbEntity
  8
0
  6
Continuous
 62
     7
370
    25
100
AcDbLine
 10
195.9388162405
 20
104.4689851003
 30
0.0
 11
195.9388162405
 21
103.3302010325
 31
0.0
  0
LINE
  5
10A
330
1F
100
AcDbEntity
  8
0
  6
Continuous
 62
     7
370
    25
100
AcDbLine
 10
217.1764205475
 20
102.0925967255
 30
0.0
 11
217.1094332494
 21
102.1595840236
 31
0.0
  0
LINE
  5
10B
330
1F
100
AcDbEntity
  8
0
  6
Continuous
 62
     7
370
    25
100
AcDbLine
 10
197.7681992315
 20
102.1595840236
 30
0.0
 11
197.7012119334
 21
102.0925967255
 31
0.0
  0
SPLINE
  5
10C
330
1F
100
AcDbEntity
  8
0
  6
Continuous
 62
     7
370
    25
100
AcDbSpline
210
0.0
220
0.0
230
1.0
 70
     8
 71
     3
 72
    15
 73
    11
 74
     0
 42
0.00000001
 43
0.00000001
 40
0.0
 40
0.0
 40
0.0
 40
0.0
 40
0.0090459071881971
 40
0.1032433785236875
 40
0.1542564497735247
 40
0.3133169026715109
 40
0.5243720399414432
 40
0.667806000850919
 40
0.9918332554187028
 40
1.0
 40
1.0
 40
1.0
 40
1.0
 10
212.6779015731306
 20
138.9302010325172
 30
0.0
 10
212.6778958811639
 20
138.9318821311017
 30
0.0
 10
212.6778309172131
 20
138.9510689626572
 30
0.0
 10
212.6758352307772
 20
138.9797632421772
 30
0.0
 10
212.6680182345608
 20
139.0304392821491
 30
0.0
 10
212.6508484108058
 20
139.088315581726
 30
0.0
 10
212.6242645142383
 20
139.1331810964607
 30
0.0
 10
212.5864352157496
 20
139.1705434797152
 30
0.0
 10
212.5581544357394
 20
139.1800894919847
 30
0.0
 10
212.5383232882081
 20
139.1801983561715
 30
0.0
 10
212.5378357540653
 20
139.1802010325173
 30
0.0
  0
LINE
  5
10D
330
1F
100
AcDbEntity
  8
0
  6
Continuous
 62
     7
370
    25
100
AcDbLine
 10
212.6779015731
 20
138.9302010325
 30
0.0
 11
202.1997309078
 21
138.9302010325
 31
0.0
  0
SPLINE
  5
10E
330
1F
100
AcDbEntity
  8
0
  6
Continuous
 62
     7
370
    25
100
AcDbSpline
210
0.0
220
0.0
230
1.0
 70
     8
 71
     3
 72
    15
 73
    11
 74
     0
 42
0.00000001
 43
0.00000001
 40
0.0
 40
0.0
 40
0.0
 40
0.0
 40
0.0081667445812973
 40
0.3321939991490812
 40
0.4756279600585594
 40
0.6866830973284901
 40
0.8457435502264811
 40
0.8967566214763184
 40
0.9909540928118028
 40
1.0
 40
1.0
 40
1.0
 40
1.0
 10
202.3397967268797
 20
139.1802010325173
 30
0.0
 10
202.3393091927368
 20
139.1801983561715
 30
0.0
 10
202.3194780452055
 20
139.1800894919849
 30
0.0
 10
202.2911972651953
 20
139.1705434797152
 30
0.0
 10
202.2533679667067
 20
139.1331810964607
 30
0.0
 10
202.2267840701391
 20
139.088315581726
 30
0.0
 10
202.2096142463842
 20
139.0304392821491
 30
0.0
 10
202.2017972501677
 20
138.9797632421772
 30
0.0
 10
202.1998015637318
 20
138.9510689626572
 30
0.0
 10
202.1997365997811
 20
138.9318821311017
 30
0.0
 10
202.1997309078144
 20
138.9302010325173
 30
0.0
  0
LINE
  5
10F
330
1F
100
AcDbEntity
  8
0
  6
Continuous
 62
     7
370
    25
100
AcDbLine
 10
202.3397967269
 20
139.1802010325
 30
0.0
 11
212.5378357541
 21
139.1802010325
 31
0.0
  0
LINE
  5
110
330
1F
100
AcDbEntity
  8
0
  6
Continuous
 62
     7
370
    25
100
AcDbLine
 10
212.6779015731
 20
138.3302010325
 30
0.0
 11
212.6779015731
 21
138.9302010325
 31
0.0
  0
LINE
  5
111
330
1F
100
AcDbEntity
  8
0
  6
Continuous
 62
     7
370
    25
100
AcDbLine
 10
202.1997309078
 20
138.9302010325
 30
0.0
 11
202.1997309078
 21
138.3302010325
 31
0.0
  0
LINE
  5
112
330
1F
100
AcDbEntity
  8
0
  6
Continuous
 62
     7
370
    25
100
AcDbLine
 10
202.1997309078
 20
138.3302010325
 30
0.0
 11
212.6779015731
 21
138.3302010325
 31
0.0
  0
SPLINE
  5
113
330
1F
100
AcDbEntity
  8
0
  6
Continuous
 62
     7
370
    25
100
AcDbSpline
210
0.0
220
0.0
230
1.0
 70
     8
 71
     3
 72
    15
 73
    11
 74
     0
 42
0.00000001
 43
0.00000001
 40
0.0
 40
0.0
 40
0.0
 40
0.0
 40
0.0089557228015919
 40
0.0999003359608152
 40
0.1531632460581696
 40
0.3125636920784856
 40
0.5249666935695051
 40
0.6689893599351772
 40
0.9919152533810449
 40
1.0
 40
1.0
 40
1.0
 40
1.0
 10
201.9615906654208
 20
138.9302010325173
 30
0.0
 10
201.9616064209994
 20
138.9318821580902
 30
0.0
 10
201.961782173156
 20
138.9506349727146
 30
0.0
 10
201.9672111891755
 20
138.9793972018221
 30
0.0
 10
201.9887466728828
 20
139.0302842752904
 30
0.0
 10
202.0364521011477
 20
139.0884199254231
 30
0.0
 10
202.1088430461396
 20
139.1331277986065
 30
0.0
 10
202.2107621581572
 20
139.1704096220683
 30
0.0
 10
202.2861172496123
 20
139.1800887769057
 30
0.0
 10
202.3385168953356
 20
139.1801983561076
 30
0.0
 10
202.3397967268797
 20
139.1802010325173
 30
0.0
  0
LINE
  5
114
330
1F
100
AcDbEntity
  8
0
  6
Continuous
 62
     7
370
    25
100
AcDbLine
 10
201.9615906654
 20
138.9302010325
 30
0.0
 11
202.1997309078
 21
138.9302010325
 31
0.0
  0
SPLINE
  5
115
330
1F
100
AcDbEntity
  8
0
  6
Continuous
 62
     7
370
    25
100
AcDbSpline
210
0.0
220
0.0
230
1.0
 70
     8
 71
     3
 72
    15
 73
    11
 74
     0
 42
0.00000001
 43
0.00000001
 40
0.0
 40
0.0
 40
0.0
 40
0.0
 40
0.0080847466189581
 40
0.3310106400648237
 40
0.4750333064304936
 40
0.6874363079215092
 40
0.8468367539418249
 40
0.9000996640391791
 40
0.9910442771984082
 40
1.0
 40
1.0
 40
1.0
 40
1.0
 10
212.5378357540653
 20
139.1802010325173
 30
0.0
 10
212.5391155856094
 20
139.1801983561076
 30
0.0
 10
212.5915152313326
 20
139.1800887769058
 30
0.0
 10
212.6668703227878
 20
139.1704096220682
 30
0.0
 10
212.7687894348054
 20
139.1331277986065
 30
0.0
 10
212.8411803797973
 20
139.0884199254231
 30
0.0
 10
212.8888858080622
 20
139.0302842752904
 30
0.0
 10
212.9104212917695
 20
138.9793972018221
 30
0.0
 10
212.915850307789
 20
138.9506349727146
 30
0.0
 10
212.9160260599455
 20
138.9318821580902
 30
0.0
 10
212.9160418155242
 20
138.9302010325172
 30
0.0
  0
LINE
  5
116
330
1F
100
AcDbEntity
  8
0
  6
Continuous
 62
     7
370
    25
100
AcDbLine
 10
212.6779015731
 20
138.9302010325
 30
0.0
 11
212.9160418155
 21
138.9302010325
 31
0.0
  0
LINE
  5
117
330
1F
100
AcDbEntity
  8
0
  6
Continuous
 62
     7
370
    25
100
AcDbLine
 10
201.9615906654
 20
138.3302010325
 30
0.0
 11
201.9615906654
 21
138.9302010325
 31
0.0
  0
LINE
  5
118
330
1F
100
AcDbEntity
  8
0
  6
Continuous
 62
     7
370
    25
100
AcDbLine
 10
202.1997309078
 20
138.3302010325
 30
0.0
 11
201.9615906654
 21
138.3302010325
 31
0.0
  0
LINE
  5
119
330
1F
100
AcDbEntity
  8
0
  6
Continuous
 62
     7
370
    25
100
AcDbLine
 10
212.9160418155
 20
138.9302010325
 30
0.0
 11
212.9160418155
 21
138.3302010325
 31
0.0
  0
LINE
  5
11A
330
1F
100
AcDbEntity
  8
0
  6
Continuous
 62
     7
370
    25
100
AcDbLine
 10
212.9160418155
 20
138.3302010325
 30
0.0
 11
212.6779015731
 21
138.3302010325
 31
0.0
  0
LINE
  5
11B
330
1F
100
AcDbEntity
  8
0
  6
Continuous
 62
     7
370
    25
100
AcDbLine
 10
201.9615906654
 20
138.9302010325
 30
0.0
 11
201.6888162405
 21
138.9302010325
 31
0.0
  0
LINE
  5
11C
330
1F
100
AcDbEntity
  8
0
  6
Continuous
 62
     7
370
    25
100
AcDbLine
 10
201.6888162405
 20
139.1802010325
 30
0.0
 11
201.6888162405
 21
138.9302010325
 31
0.0
  0
LINE
  5
11D
330
1F
100
AcDbEntity
  8
0
  6
Continuous
 62
     7
370
    25
100
AcDbLine
 10
201.6888162405
 20
139.1802010325
 30
0.0
 11
202.3397967269
 21
139.1802010325
 31
0.0
  0
ARC
  5
11E
330
1F
100
AcDbEntity
  8
0
  6
Continuous
 62
     7
370
    25
100
AcDbCircle
 10
201.6888162405
 20
138.9302010325
 30
0.0
 40
0.2500000000000284
100
AcDbArc
 50
90.0
 51
180.0
  0
LINE
  5
11F
330
1F
100
AcDbEntity
  8
0
  6
Continuous
 62
     7
370
    25
100
AcDbLine
 10
201.4388162405
 20
138.9302010325
 30
0.0
 11
201.6888162405
 21
138.9302010325
 31
0.0
  0
LINE
  5
120
330
1F
100
AcDbEntity
  8
0
  6
Continuous
 62
     7
370
    25
100
AcDbLine
 10
201.6888162405
 20
138.9302010325
 30
0.0
 11
201.6888162405
 21
138.3302010325
 31
0.0
  0
LINE
  5
121
330
1F
100
AcDbEntity
  8
0
  6
Continuous
 62
     7
370
    25
100
AcDbLine
 10
201.6888162405
 20
138.3302010325
 30
0.0
 11
201.9615906654
 21
138.3302010325
 31
0.0
  0
LINE
  5
122
330
1F
100
AcDbEntity
  8
0
  6
Continuous
 62
     7
370
    25
100
AcDbLine
 10
201.4388162405
 20
138.3302010325
 30
0.0
 11
201.4388162405
 21
138.9302010325
 31
0.0
  0
LINE
  5
123
330
1F
100
AcDbEntity
  8
0
  6
Continuous
 62
     7
370
    25
100
AcDbLine
 10
201.6888162405
 20
138.3302010325
 30
0.0
 11
201.4388162405
 21
138.3302010325
 31
0.0
  0
LINE
  5
124
330
1F
100
AcDbEntity
  8
0
  6
Continuous
 62
     7
370
    25
100
AcDbLine
 10
213.1888162405
 20
138.3302010325
 30
0.0
 11
213.1888162405
 21
138.9302010325
 31
0.0
  0
LINE
  5
125
330
1F
100
AcDbEntity
  8
0
  6
Continuous
 62
     7
370
    25
100
AcDbLine
 10
213.1888162405
 20
138.9302010325
 30
0.0
 11
212.9160418155
 21
138.9302010325
 31
0.0
  0
LINE
  5
126
330
1F
100
AcDbEntity
  8
0
  6
Continuous
 62
     7
370
    25
100
AcDbLine
 10
212.9160418155
 20
138.3302010325
 30
0.0
 11
213.1888162405
 21
138.3302010325
 31
0.0
  0
LINE
  5
127
330
1F
100
AcDbEntity
  8
0
  6
Continuous
 62
     7
370
    25
100
AcDbLine
 10
213.1888162405
 20
138.9302010325
 30
0.0
 11
213.4388162405
 21
138.9302010325
 31
0.0
  0
LINE
  5
128
330
1F
100
AcDbEntity
  8
0
  6
Continuous
 62
     7
370
    25
100
AcDbLine
 10
213.4388162405
 20
138.9302010325
 30
0.0
 11
213.4388162405
 21
138.3302010325
 31
0.0
  0
LINE
  5
129
330
1F
100
AcDbEntity
  8
0
  6
Continuous
 62
     7
370
    25
100
AcDbLine
 10
213.4388162405
 20
138.3302010325
 30
0.0
 11
213.1888162405
 21
138.3302010325
 31
0.0
  0
LINE
  5
12A
330
1F
100
AcDbEntity
  8
0
  6
Continuous
 62
     7
370
    25
100
AcDbLine
 10
213.1888162405
 20
138.9302010325
 30
0.0
 11
213.1888162405
 21
139.1802010325
 31
0.0
  0
LINE
  5
12B
330
1F
100
AcDbEntity
  8
0
  6
Continuous
 62
     7
370
    25
100
AcDbLine
 10
212.5378357541
 20
139.1802010325
 30
0.0
 11
213.1888162405
 21
139.1802010325
 31
0.0
  0
ARC
  5
12C
330
1F
100
AcDbEntity
  8
0
  6
Continuous
 62
     7
370
    25
100
AcDbCircle
 10
213.1888162405
 20
138.9302010325
 30
0.0
 40
0.2500000000000284
100
AcDbArc
 50
0.0
 51
90.0
  0
LINE
  5
12D
330
1F
100
AcDbEntity
  8
0
  6
Continuous
 62
     7
370
    25
100
AcDbLine
 10
202.4388162405
 20
139.1802010325
 30
0.0
 11
202.4388162405
 21
139.1902010325
 31
0.0
  0
LINE
  5
12E
330
1F
100
AcDbEntity
  8
0
  6
Continuous
 62
     7
370
    25
100
AcDbLine
 10
202.4388162405
 20
139.1902010325
 30
0.0
 11
212.4388162405
 21
139.1902010325
 31
0.0
  0
LINE
  5
12F
330
1F
100
AcDbEntity
  8
0
  6
Continuous
 62
     7
370
    25
100
AcDbLine
 10
212.4388162405
 20
139.1802010325
 30
0.0
 11
212.4388162405
 21
139.1902010325
 31
0.0
  0
LINE
  5
130
330
1F
100
AcDbEntity
  8
0
  6
Continuous
 62
     7
370
    25
100
AcDbLine
 10
209.4388162405
 20
122.3302010325
 30
0.0
 11
209.438816335
 21
122.3680179105
 31
0.0
  0
LINE
  5
131
330
1F
100
AcDbEntity
  8
0
  6
Continuous
 62
     7
370
    25
100
AcDbLine
 10
200.4388162405
 20
122.3302010325
 30
0.0
 11
209.4388162405
 21
122.3302010325
 31
0.0
  0
LINE
  5
132
330
1F
100
AcDbEntity
  8
0
  6
Continuous
 62
     7
370
    25
100
AcDbLine
 10
199.9888162405
 20
130.3302010325
 30
0.0
 11
211.9133631246
 21
130.3302010325
 31
0.0
  0
SPLINE
  5
133
330
1F
100
AcDbEntity
  8
0
  6
Continuous
 62
     7
370
    25
100
AcDbSpline
210
0.0
220
0.0
230
1.0
 70
     8
 71
     3
 72
    16
 73
    12
 74
     0
 42
0.00000001
 43
0.00000001
 40
0.0
 40
0.0
 40
0.0
 40
0.0
 40
0.0155634360124117
 40
0.0359329243097674
 40
0.0739120889290614
 40
0.1570057548437684
 40
0.2406581385754913
 40
0.4592958294318596
 40
0.6783839187935417
 40
0.8974954344294845
 40
1.0
 40
1.0
 40
1.0
 40
1.0
 10
209.5947614908996
 20
122.3302010325174
 30
0.0
 10
209.6371534801683
 20
122.3353944042965
 30
0.0
 10
209.7350282772578
 20
122.3473848821643
 30
0.0
 10
209.9085069482706
 20
122.4657108061613
 30
0.0
 10
210.1568406272733
 20
122.7769621136102
 30
0.0
 10
210.4113051693192
 20
123.3026096149753
 30
0.0
 10
210.7549845810103
 20
124.3411557792454
 30
0.0
 10
211.136204600277
 20
125.7762298215915
 30
0.0
 10
211.4863062562767
 20
127.614481923031
 30
0.0
 10
211.7300981053649
 20
129.1356647718504
 30
0.0
 10
211.8690703005219
 20
130.0414968126469
 30
0.0
 10
211.9133631245546
 20
130.3302010325149
 30
0.0
  0
SPLINE
  5
134
330
1F
100
AcDbEntity
  8
0
  6
Continuous
 62
     7
370
    25
100
AcDbSpline
210
0.0
220
0.0
230
1.0
 70
     8
 71
     3
 72
     9
 73
     5
 74
     0
 42
0.00000001
 43
0.00000001
 40
0.0
 40
0.0
 40
0.0
 40
0.0
 40
0.5124861829376838
 40
0.9999999999999999
 40
0.9999999999999999
 40
0.9999999999999999
 40
0.9999999999999999
 10
209.4388163350038
 20
122.3680179104575
 30
0.0
 10
209.4644588391757
 20
122.3569899975063
 30
0.0
 10
209.5144943426206
 20
122.3354715384369
 30
0.0
 10
209.568454949479
 20
122.3319283740917
 30
0.0
 10
209.5947614908996
 20
122.3302010325174
 30
0.0
  0
LINE
  5
135
330
1F
100
AcDbEntity
  8
0
  6
Continuous
 62
     7
370
    25
100
AcDbLine
 10
212.6626184148
 20
138.3302010325
 30
0.0
 11
202.1997309078
 21
138.3302010325
 31
0.0
  0
LINE
  5
136
330
1F
100
AcDbEntity
  8
0
  6
Continuous
 62
     7
370
    25
100
AcDbLine
 10
214.3907570788
 20
131.3249446105
 30
0.0
 11
212.6626184148
 21
138.3302010325
 31
0.0
  0
SPLINE
  5
137
330
1F
100
AcDbEntity
  8
0
  6
Continuous
 62
     7
370
    25
100
AcDbSpline
210
0.0
220
0.0
230
1.0
 70
     8
 71
     3
 72
     9
 73
     5
 74
     0
 42
0.00000001
 43
0.00000001
 40
0.0
 40
0.0
 40
0.0
 40
0.0
 40
0.4983247250277991
 40
1.0
 40
1.0
 40
1.0
 40
1.0
 10
211.9133631245546
 20
130.3302010325149
 30
0.0
 10
211.7972528280755
 20
130.5039931463739
 30
0.0
 10
211.564251552707
 20
130.8527458875697
 30
0.0
 10
211.2904911793653
 20
131.167193844984
 30
0.0
 10
211.1531523687926
 20
131.3249446104842
 30
0.0
  0
LINE
  5
138
330
1F
100
AcDbEntity
  8
0
  6
Continuous
 62
     7
370
    25
100
AcDbLine
 10
211.1531523688
 20
131.3249446105
 30
0.0
 11
229.614253102
 21
131.3249446105
 31
0.0
  0
LINE
  5
139
330
1F
100
AcDbEntity
  8
0
  6
Continuous
 62
     7
370
    25
100
AcDbLine
 10
229.614253102
 20
131.3249446105
 30
0.0
 11
229.614253102
 21
128.0823767255
 31
0.0
  0
SPLINE
  5
13A
330
1F
100
AcDbEntity
  8
0
  6
Continuous
 62
     7
370
    25
100
AcDbSpline
210
0.0
220
0.0
230
1.0
 70
     8
 71
     3
 72
    11
 73
     7
 74
     0
 42
0.00000001
 43
0.00000001
 40
0.0
 40
0.0
 40
0.0
 40
0.0
 40
0.2488607147078904
 40
0.4977191536447657
 40
0.7488602698858827
 40
0.9999999999999999
 40
0.9999999999999999
 40
0.9999999999999999
 40
0.9999999999999999
 10
222.5438594797654
 20
126.7591762245073
 30
0.0
 10
223.1204524386481
 20
126.9086551613954
 30
0.0
 10
224.2736330836105
 20
127.207611668223
 30
0.0
 10
226.034547405541
 20
127.5694156416817
 30
0.0
 10
227.8145261191201
 20
127.8716902849212
 30
0.0
 10
229.0143452114125
 20
128.0121480411744
 30
0.0
 10
229.6142531020091
 20
128.0823767254928
 30
0.0
  0
LINE
  5
13B
330
1F
100
AcDbEntity
  8
0
  6
Continuous
 62
     7
370
    25
100
AcDbLine
 10
222.5438594798
 20
126.7591762245
 30
0.0
 11
216.7641026299
 21
125.190554784
 31
0.0
  0
SPLINE
  5
13C
330
1F
100
AcDbEntity
  8
0
  6
Continuous
 62
     7
370
    25
100
AcDbSpline
210
0.0
220
0.0
230
1.0
 70
     8
 71
     3
 72
    13
 73
     9
 74
     0
 42
0.00000001
 43
0.00000001
 40
0.0
 40
0.0
 40
0.0
 40
0.0
 40
0.1610294006389558
 40
0.3266880383557516
 40
0.4877296220820636
 40
0.6535536198224136
 40
0.8237602734841889
 40
1.0
 40
1.0
 40
1.0
 40
1.0
 10
216.7641026299101
 20
125.1905547840244
 30
0.0
 10
216.550232575879
 20
125.1211578894472
 30
0.0
 10
216.1163441794916
 20
124.9803690939386
 30
0.0
 10
215.525023430826
 20
124.634244276231
 30
0.0
 10
214.9910920819753
 20
124.1950376331789
 30
0.0
 10
214.5374081101722
 20
123.6614357962393
 30
0.0
 10
214.1629543971867
 20
123.0376094895396
 30
0.0
 10
214.0143913264279
 20
122.5687255913377
 30
0.0
 10
213.9388162404725
 20
122.3302010325173
 30
0.0
  0
LINE
  5
13D
330
1F
100
AcDbEntity
  8
0
  6
Continuous
 62
     7
370
    25
100
AcDbLine
 10
213.9388162405
 20
122.3302010325
 30
0.0
 11
209.5947614909
 21
122.3302010325
 31
0.0
  0
LINE
  5
13E
330
1F
100
AcDbEntity
  8
0
  6
Continuous
 62
     7
370
    25
100
AcDbLine
 10
209.4456155984
 20
122.3302010325
 30
0.0
 11
209.438816335
 21
122.3680179105
 31
0.0
  0
LINE
  5
13F
330
1F
100
AcDbEntity
  8
0
  6
Continuous
 62
     7
370
    25
100
AcDbLine
 10
209.4388162405
 20
122.3302010325
 30
0.0
 11
209.4456155984
 21
122.3302010325
 31
0.0
  0
LINE
  5
140
330
1F
100
AcDbEntity
  8
0
  6
Continuous
 62
     7
370
    25
100
AcDbLine
 10
209.5947614909
 20
122.3302010325
 30
0.0
 11
209.4456155984
 21
122.3302010325
 31
0.0
  0
LINE
  5
141
330
1F
100
AcDbEntity
  8
0
  6
Continuous
 62
     7
370
    25
100
AcDbLine
 10
229.614253102
 20
131.3249446105
 30
0.0
 11
229.614253102
 21
140.3302010325
 31
0.0
  0
LINE
  5
142
330
1F
100
AcDbEntity
  8
0
  6
Continuous
 62
     7
370
    25
100
AcDbLine
 10
229.614253102
 20
140.3302010325
 30
0.0
 11
247.4388162405
 21
140.3302010325
 31
0.0
  0
LINE
  5
143
330
1F
100
AcDbEntity
  8
0
  6
Continuous
 62
     7
370
    25
100
AcDbLine
 10
247.4388162405
 20
140.3302010325
 30
0.0
 11
247.4388162405
 21
133.3302010325
 31
0.0
  0
ARC
  5
144
330
1F
100
AcDbEntity
  8
0
  6
Continuous
 62
     7
370
    25
100
AcDbCircle
 10
242.4388162405
 20
133.3302010325
 30
0.0
 40
5.0
100
AcDbArc
 50
270.0
 51
0.0
  0
LINE
  5
145
330
1F
100
AcDbEntity
  8
0
  6
Continuous
 62
     7
370
    25
100
AcDbLine
 10
242.4388162405
 20
128.3302010325
 30
0.0
 11
234.3304840982
 21
128.3302010325
 31
0.0
  0
ARC
  5
146
330
1F
100
AcDbEntity
  8
0
  6
Continuous
 62
     7
370
    25
100
AcDbCircle
 10
234.3304840982
 20
83.3300717783
 30
0.0
 40
45.00012925418373
100
AcDbArc
 50
90.0
 51
96.0159222295
  0
ARC
  5
147
330
1F
100
AcDbEntity
  8
0
  6
Continuous
 62
     7
370
    25
100
AcDbCircle
 10
221.8277698047
 20
142.3302010325
 30
0.0
 40
10.00000000000848
100
AcDbArc
 50
203.5781784783
 51
264.4198332155
  0
ARC
  5
148
330
1F
100
AcDbEntity
  8
0
  6
Continuous
 62
     7
370
    25
100
AcDbCircle
 10
221.4388162405
 20
138.3491565559
 30
0.0
 40
6.000000000000003
100
AcDbArc
 50
264.4198332155
 51
0.0
  0
LINE
  5
149
330
1F
100
AcDbEntity
  8
0
  6
Continuous
 62
     7
370
    25
100
AcDbLine
 10
227.4388162405
 20
140.3302010325
 30
0.0
 11
227.4388162405
 21
138.3491565559
 31
0.0
  0
LINE
  5
14A
330
1F
100
AcDbEntity
  8
0
  6
Continuous
 62
     7
370
    25
100
AcDbLine
 10
227.4388162405
 20
140.3302010325
 30
0.0
 11
229.614253102
 21
140.3302010325
 31
0.0
  0
LINE
  5
14B
330
1F
100
AcDbEntity
  8
0
  6
Continuous
 62
     7
370
    25
100
AcDbLine
 10
214.4388162405
 20
122.3302010325
 30
0.0
 11
213.9388162405
 21
122.3302010325
 31
0.0
  0
LINE
  5
14C
330
1F
100
AcDbEntity
  8
0
  6
Continuous
 62
     7
370
    25
100
AcDbLine
 10
212.6626184148
 20
138.3302010325
 30
0.0
 11
212.6779015731
 21
138.3302010325
 31
0.0
  0
LINE
  5
14D
330
1F
100
AcDbEntity
  8
0
  6
Continuous
 62
     7
370
    25
100
AcDbLine
 10
193.1388162405
 20
119.8302010325
 30
0.0
 11
193.1388162405
 21
103.8302010325
 31
0.0
  0
LINE
  5
14E
330
1F
100
AcDbEntity
  8
0
  6
Continuous
 62
     7
370
    25
100
AcDbLine
 10
192.9388162405
 20
104.0302010325
 30
0.0
 11
192.9388162405
 21
119.6302010325
 31
0.0
  0
LINE
  5
14F
330
1F
100
AcDbEntity
  8
0
  6
Continuous
 62
     7
370
    25
100
AcDbLine
 10
182.9388162405
 20
106.1522180462
 30
0.0
 11
182.9388162405
 21
117.8302010325
 31
0.0
  0
LINE
  5
150
330
1F
100
AcDbEntity
  8
0
  6
Continuous
 62
     7
370
    25
100
AcDbLine
 10
182.9388162405
 20
105.8302010325
 30
0.0
 11
182.9388162405
 21
106.1522180462
 31
0.0
  0
LINE
  5
151
330
1F
100
AcDbEntity
  8
0
  6
Continuous
 62
     7
370
    25
100
AcDbLine
 10
183.4388162405
 20
105.6790527974
 30
0.0
 11
183.4388162405
 21
105.3302010325
 31
0.0
  0
LINE
  5
152
330
1F
100
AcDbEntity
  8
0
  6
Continuous
 62
     7
370
    25
100
AcDbLine
 10
183.4388162405
 20
118.3302010325
 30
0.0
 11
183.4388162405
 21
105.6790527974
 31
0.0
  0
SPLINE
  5
153
330
1F
100
AcDbEntity
  8
0
  6
Continuous
 62
     7
370
    25
100
AcDbSpline
210
0.0
220
0.0
230
1.0
 70
     8
 71
     3
 72
    31
 73
    27
 74
     0
 42
0.00000001
 43
0.00000001
 40
0.0
 40
0.0
 40
0.0
 40
0.0
 40
0.0092781411901379
 40
0.0517188321436448
 40
0.0941867865518315
 40
0.1321087149433713
 40
0.1702207927043291
 40
0.2082119828615707
 40
0.2154747396225864
 40
0.2764901832159285
 40
0.3375048494916537
 40
0.3848249986090008
 40
0.4320499556943281
 40
0.4692188976470718
 40
0.5063489217661955
 40
0.5434366737664846
 40
0.5805737288178637
 40
0.6303366686214448
 40
0.680191782136902
 40
0.733471349067083
 40
0.786742192656239
 40
0.8315864311711358
 40
0.8763957095131021
 40
0.9190714555328492
 40
0.961712032057091
 40
1.0
 40
1.0
 40
1.0
 40
1.0
 10
201.5394662804447
 20
121.3296489637795
 30
0.0
 10
201.5402113044117
 20
121.3290177094602
 30
0.0
 10
201.5443642665948
 20
121.3254989296197
 30
0.0
 10
201.6146469746936
 20
121.2655722552377
 30
0.0
 10
201.8059670292738
 20
121.1051813478986
 30
0.0
 10
202.0808882659791
 20
120.8788867573617
 30
0.0
 10
202.413305412299
 20
120.6135169568267
 30
0.0
 10
202.7003685546032
 20
120.3934381885879
 30
0.0
 10
203.0963159618613
 20
120.0996392181611
 30
0.0
 10
203.6319352085427
 20
119.7192168397354
 30
0.0
 10
204.447688695441
 20
119.2211923595921
 30
0.0
 10
205.289247853103
 20
118.8090746803098
 30
0.0
 10
206.0726549230888
 20
118.5320755190266
 30
0.0
 10
206.8456397677525
 20
118.3806583756561
 30
0.0
 10
207.5762300817418
 20
118.3425089043717
 30
0.0
 10
208.3009525350711
 20
118.4218407954824
 30
0.0
 10
209.074322154662
 20
118.6143440033275
 30
0.0
 10
209.8647169767081
 20
118.9315034723696
 30
0.0
 10
210.6615215241309
 20
119.3567820107276
 30
0.0
 10
211.3888886283638
 20
119.819242719075
 30
0.0
 10
212.0030944719587
 20
120.2596561009486
 30
0.0
 10
212.4965526774946
 20
120.6381152646072
 30
0.0
 10
212.8716210621872
 20
120.9398862263715
 30
0.0
 10
213.1418097929692
 20
121.1634755783371
 30
0.0
 10
213.3102659982264
 20
121.3059643026558
 30
0.0
 10
213.3256803782113
 20
121.3189831140529
 30
0.0
 10
213.3329730496736
 20
121.3251424220783
 30
0.0
  0
LINE
  5
154
330
1F
100
AcDbEntity
  8
FORMAT
  6
CENTERX2
370
    18
100
AcDbLine
 10
207.4388162405
 20
141.9830876646
 30
0.0
 11
207.4388162405
 21
84.5802010325
 31
0.0
  0
LINE
  5
155
330
1F
100
AcDbEntity
  8
FORMAT
  6
CENTERX2
370
    18
100
AcDbLine
 10
179.4388162405
 20
111.8302010325
 30
0.0
 11
221.9361654956
 21
111.8302010325
 31
0.0
  0
LINE
  5
156
330
1F
100
AcDbEntity
  8
0
  6
Continuous
 62
     7
370
    25
100
AcDbLine
 10
279.9401270208
 20
99.4745385998
 30
0.0
 11
280.1901270208
 21
99.3302010325
 31
0.0
  0
LINE
  5
157
330
1F
100
AcDbEntity
  8
0
  6
Continuous
 62
     7
370
    25
100
AcDbLine
 10
296.6901270208
 20
99.3302010325
 30
0.0
 11
296.9401270208
 21
99.4745385998
 31
0.0
  0
LINE
  5
158
330
1F
100
AcDbEntity
  8
0
  6
Continuous
 62
     7
370
    25
100
AcDbLine
 10
281.9401270208
 20
88.5802010325
 30
0.0
 11
282.1901270208
 21
88.3302010325
 31
0.0
  0
LINE
  5
159
330
1F
100
AcDbEntity
  8
0
  6
Continuous
 62
     7
370
    25
100
AcDbLine
 10
294.6901270208
 20
88.3302010325
 30
0.0
 11
294.9401270208
 21
88.5802010325
 31
0.0
  0
LINE
  5
15A
330
1F
100
AcDbEntity
  8
0
  6
Continuous
 62
     7
370
    25
100
AcDbLine
 10
294.9401270208
 20
88.5802010325
 30
0.0
 11
294.9401270208
 21
99.3302010325
 31
0.0
  0
LINE
  5
15B
330
1F
100
AcDbEntity
  8
0
  6
Continuous
 62
     7
370
    25
100
AcDbLine
 10
281.9401270208
 20
99.3302010325
 30
0.0
 11
281.9401270208
 21
88.5802010325
 31
0.0
  0
SPLINE
  5
15C
330
1F
100
AcDbEntity
  8
0
  6
Continuous
 62
     7
370
    25
100
AcDbSpline
210
0.0
220
0.0
230
1.0
 70
     8
 71
     3
 72
     9
 73
     5
 74
     0
 42
0.00000001
 43
0.00000001
 40
0.0
 40
0.0
 40
0.0
 40
0.0
 40
0.876976613661887
 40
1.0
 40
1.0
 40
1.0
 40
1.0
 10
294.3531292909244
 20
118.2312821563571
 30
0.0
 10
294.3452958922608
 20
118.2695720491108
 30
0.0
 10
294.3363636145447
 20
118.3132332963518
 30
0.0
 10
294.3403083559078
 20
118.357164489844
 30
0.0
 10
294.3407936513485
 20
118.3625690540333
 30
0.0
  0
LINE
  5
15D
330
1F
100
AcDbEntity
  8
0
  6
Continuous
 62
     7
370
    25
100
AcDbLine
 10
282.541257889
 20
118.3700866196
 30
0.0
 11
282.5312705364
 21
118.2336757269
 31
0.0
  0
LINE
  5
15E
330
1F
100
AcDbEntity
  8
0
  6
Continuous
 62
     7
370
    25
100
AcDbLine
 10
294.3401270208
 20
118.3634272857
 30
0.0
 11
294.3401270208
 21
122.3302010325
 31
0.0
  0
LINE
  5
15F
330
1F
100
AcDbEntity
  8
0
  6
Continuous
 62
     7
370
    25
100
AcDbLine
 10
282.5401270208
 20
122.3302010325
 30
0.0
 11
282.5401270208
 21
118.3687296964
 31
0.0
  0
ARC
  5
160
330
1F
100
AcDbEntity
  8
0
  6
Continuous
 62
     7
370
    25
100
AcDbCircle
 10
283.1901270208
 20
138.9302010325
 30
0.0
 40
0.2500000000000284
100
AcDbArc
 50
90.0
 51
180.0
  0
ARC
  5
161
330
1F
100
AcDbEntity
  8
0
  6
Continuous
 62
     7
370
    25
100
AcDbCircle
 10
293.6901270208
 20
138.9302010325
 30
0.0
 40
0.2500000000000568
100
AcDbArc
 50
0.0
 51
90.0
  0
LINE
  5
162
330
1F
100
AcDbEntity
  8
0
  6
Continuous
 62
     7
370
    25
100
AcDbLine
 10
282.9401270208
 20
138.9302010325
 30
0.0
 11
282.9401270208
 21
138.3302010325
 31
0.0
  0
LINE
  5
163
330
1F
100
AcDbEntity
  8
0
  6
Continuous
 62
     7
370
    25
100
AcDbLine
 10
293.9401270208
 20
138.3302010325
 30
0.0
 11
293.9401270208
 21
138.9302010325
 31
0.0
  0
LINE
  5
164
330
1F
100
AcDbEntity
  8
0
  6
Continuous
 62
     7
370
    25
100
AcDbLine
 10
295.8901270208
 20
130.3302010325
 30
0.0
 11
293.9401270208
 21
138.3302010325
 31
0.0
  0
LINE
  5
165
330
1F
100
AcDbEntity
  8
0
  6
Continuous
 62
     7
370
    25
100
AcDbLine
 10
282.9401270208
 20
138.3302010325
 30
0.0
 11
280.9901270208
 21
130.3302010325
 31
0.0
  0
LINE
  5
166
330
1F
100
AcDbEntity
  8
0
  6
Continuous
 62
     7
370
    25
100
AcDbLine
 10
280.9901270208
 20
130.3302010325
 30
0.0
 11
281.4401270208
 21
122.3302010325
 31
0.0
  0
LINE
  5
167
330
1F
100
AcDbEntity
  8
0
  6
Continuous
 62
     7
370
    25
100
AcDbLine
 10
295.4401270208
 20
122.3302010325
 30
0.0
 11
295.8901270208
 21
130.3302010325
 31
0.0
  0
SPLINE
  5
168
330
1F
100
AcDbEntity
  8
0
  6
Continuous
 62
     7
370
    25
100
AcDbSpline
210
0.0
220
0.0
230
1.0
 70
     8
 71
     3
 72
    10
 73
     6
 74
     0
 42
0.00000001
 43
0.00000001
 40
0.0
 40
0.0
 40
0.0
 40
0.0
 40
0.5
 40
0.5
 40
1.0
 40
1.0
 40
1.0
 40
1.0
 10
279.9401270207851
 20
107.2113988790002
 30
0.0
 10
279.9401270207851
 20
107.1255118171978
 30
0.0
 10
279.9629194701149
 20
107.0381046082177
 30
0.0
 10
280.050862174208
 20
106.8854681656239
 30
0.0
 10
280.1157199478818
 20
106.8213451206783
 30
0.0
 10
280.1901270207851
 20
106.778386177108
 30
0.0
  0
SPLINE
  5
169
330
1F
100
AcDbEntity
  8
0
  6
Continuous
 62
     7
370
    25
100
AcDbSpline
210
0.0
220
0.0
230
1.0
 70
    24
 71
     3
 72
    14
 73
    10
 74
     0
 42
0.00000001
 43
0.00000001
 40
0.0
 40
0.0
 40
0.0
 40
0.0
 40
0.25
 40
0.25
 40
0.5
 40
0.5
 40
0.75
 40
0.75
 40
1.0
 40
1.0
 40
1.0
 40
1.0
 10
279.9401270207851
 20
107.2113988790002
 30
0.0
 10
279.9401270207851
 20
107.9657789396502
 30
0.0
 10
279.9401270207851
 20
108.7352201071157
 30
0.0
 10
279.9401270207851
 20
110.2757314680568
 30
0.0
 10
279.9401270207851
 20
111.0505858480639
 30
0.0
 10
279.9401270207851
 20
112.6109468029494
 30
0.0
 10
279.9401270207851
 20
113.4014029957345
 30
0.0
 10
279.9401270207851
 20
114.9436826585429
 30
0.0
 10
279.9401270207851
 20
115.7010734117441
 30
0.0
 10
279.9401270207851
 20
116.4490031860343
 30
0.0
  0
SPLINE
  5
16A
330
1F
100
AcDbEntity
  8
0
  6
Continuous
 62
     7
370
    25
100
AcDbSpline
210
0.0
220
0.0
230
1.0
 70
     8
 71
     3
 72
    10
 73
     6
 74
     0
 42
0.00000001
 43
0.00000001
 40
0.0
 40
0.0
 40
0.0
 40
0.0
 40
0.5
 40
0.5
 40
1.0
 40
1.0
 40
1.0
 40
1.0
 10
280.1901270207851
 20
116.8820158879265
 30
0.0
 10
280.1157466434078
 20
116.8390723570253
 30
0.0
 10
280.051446004622
 20
116.7756299124011
 30
0.0
 10
279.9632303198391
 20
116.6231510752822
 30
0.0
 10
279.9401270207851
 20
116.5349210731749
 30
0.0
 10
279.9401270207851
 20
116.4490031860343
 30
0.0
  0
SPLINE
  5
16B
330
1F
100
AcDbEntity
  8
0
  6
Continuous
 62
     7
370
    25
100
AcDbSpline
210
0.0
220
0.0
230
1.0
 70
    24
 71
     3
 72
    16
 73
    12
 74
     0
 42
0.00000001
 43
0.00000001
 40
0.0
 40
0.0
 40
0.0
 40
0.0
 40
0.2500000000000001
 40
0.2500000000000001
 40
0.5000000000000001
 40
0.5000000000000001
 40
0.6250000000000001
 40
0.6250000000000001
 40
0.7500000000000002
 40
0.7500000000000002
 40
1.0
 40
1.0
 40
1.0
 40
1.0
 10
288.1901270207851
 20
121.5008180414435
 30
0.0
 10
287.5366102407443
 20
121.123509952567
 30
0.0
 10
286.8783898316543
 20
120.7434862221928
 30
0.0
 10
285.5488272482885
 20
119.9758629067821
 30
0.0
 10
284.877403266218
 20
119.5882160899933
 30
0.0
 10
283.8584021792113
 20
118.9998955381055
 30
0.0
 10
283.5170613968951
 20
118.8028223455498
 30
0.0
 10
282.8414628939246
 20
118.4127653679957
 30
0.0
 10
282.50580374396
 20
118.2189724674077
 30
0.0
 10
281.5045381074603
 20
117.6408914826442
 30
0.0
 10
280.8446304488572
 20
117.2598936183094
 30
0.0
 10
280.1901270207851
 20
116.8820158879265
 30
0.0
  0
SPLINE
  5
16C
330
1F
100
AcDbEntity
  8
0
  6
Continuous
 62
     7
370
    25
100
AcDbSpline
210
0.0
220
0.0
230
1.0
 70
     8
 71
     3
 72
    10
 73
     6
 74
     0
 42
0.00000001
 43
0.00000001
 40
0.0
 40
0.0
 40
0.0
 40
0.0
 40
0.5
 40
0.5
 40
1.0
 40
1.0
 40
1.0
 40
1.0
 10
288.6901270207851
 20
121.5008180414435
 30
0.0
 10
288.6157466434078
 20
121.5437615723447
 30
0.0
 10
288.5286535552922
 20
121.5677263367007
 30
0.0
 10
288.3524951664162
 20
121.5678839421755
 30
0.0
 10
288.2645340936883
 20
121.5437769850138
 30
0.0
 10
288.1901270207851
 20
121.5008180414435
 30
0.0
  0
SPLINE
  5
16D
330
1F
100
AcDbEntity
  8
0
  6
Continuous
 62
     7
370
    25
100
AcDbSpline
210
0.0
220
0.0
230
1.0
 70
    24
 71
     3
 72
    16
 73
    12
 74
     0
 42
0.00000001
 43
0.00000001
 40
0.0
 40
0.0
 40
0.0
 40
0.0
 40
0.2499999999999997
 40
0.2499999999999997
 40
0.4999999999999993
 40
0.4999999999999993
 40
0.6249999999999993
 40
0.6249999999999993
 40
0.7499999999999996
 40
0.7499999999999996
 40
1.0
 40
1.0
 40
1.0
 40
1.0
 10
296.690127020785
 20
116.8820158879265
 30
0.0
 10
296.0366102407443
 20
117.259323976803
 30
0.0
 10
295.3783898316543
 20
117.6393477071772
 30
0.0
 10
294.0488272482885
 20
118.4069710225879
 30
0.0
 10
293.377403266218
 20
118.7946178393767
 30
0.0
 10
292.3584021792113
 20
119.3829383912645
 30
0.0
 10
292.0170613968951
 20
119.5800115838202
 30
0.0
 10
291.3414628939246
 20
119.9700685613743
 30
0.0
 10
291.00580374396
 20
120.1638614619623
 30
0.0
 10
290.0045381074603
 20
120.7419424467257
 30
0.0
 10
289.3446304488572
 20
121.1229403110606
 30
0.0
 10
288.6901270207851
 20
121.5008180414435
 30
0.0
  0
SPLINE
  5
16E
330
1F
100
AcDbEntity
  8
0
  6
Continuous
 62
     7
370
    25
100
AcDbSpline
210
0.0
220
0.0
230
1.0
 70
     8
 71
     3
 72
    10
 73
     6
 74
     0
 42
0.00000001
 43
0.00000001
 40
0.0
 40
0.0
 40
0.0
 40
0.0
 40
0.5
 40
0.5
 40
1.0
 40
1.0
 40
1.0
 40
1.0
 10
296.9401270207851
 20
116.4490031860343
 30
0.0
 10
296.9401270207851
 20
116.5348902478367
 30
0.0
 10
296.9173345714553
 20
116.6222974568168
 30
0.0
 10
296.8293918673622
 20
116.7749338994106
 30
0.0
 10
296.7645340936884
 20
116.8390569443562
 30
0.0
 10
296.690127020785
 20
116.8820158879265
 30
0.0
  0
SPLINE
  5
16F
330
1F
100
AcDbEntity
  8
0
  6
Continuous
 62
     7
370
    25
100
AcDbSpline
210
0.0
220
0.0
230
1.0
 70
    24
 71
     3
 72
    14
 73
    10
 74
     0
 42
0.00000001
 43
0.00000001
 40
0.0
 40
0.0
 40
0.0
 40
0.0
 40
0.25
 40
0.25
 40
0.5
 40
0.5
 40
0.75
 40
0.75
 40
1.0
 40
1.0
 40
1.0
 40
1.0
 10
296.9401270207851
 20
107.2113988790002
 30
0.0
 10
296.9401270207851
 20
107.9657789396502
 30
0.0
 10
296.9401270207851
 20
108.7352201071157
 30
0.0
 10
296.9401270207851
 20
110.2757314680568
 30
0.0
 10
296.9401270207851
 20
111.0505858480639
 30
0.0
 10
296.9401270207851
 20
112.6109468029494
 30
0.0
 10
296.9401270207851
 20
113.4014029957345
 30
0.0
 10
296.9401270207851
 20
114.9436826585429
 30
0.0
 10
296.9401270207851
 20
115.7010734117441
 30
0.0
 10
296.9401270207851
 20
116.4490031860343
 30
0.0
  0
SPLINE
  5
170
330
1F
100
AcDbEntity
  8
0
  6
Continuous
 62
     7
370
    25
100
AcDbSpline
210
0.0
220
0.0
230
1.0
 70
     8
 71
     3
 72
    10
 73
     6
 74
     0
 42
0.00000001
 43
0.00000001
 40
0.0
 40
0.0
 40
0.0
 40
0.0
 40
0.5
 40
0.5
 40
1.0
 40
1.0
 40
1.0
 40
1.0
 10
296.690127020785
 20
106.778386177108
 30
0.0
 10
296.7645073981622
 20
106.8213297080092
 30
0.0
 10
296.8288080369478
 20
106.8847721526328
 30
0.0
 10
296.917023721731
 20
107.037250989752
 30
0.0
 10
296.9401270207851
 20
107.1254809918594
 30
0.0
 10
296.9401270207851
 20
107.2113988790002
 30
0.0
  0
SPLINE
  5
171
330
1F
100
AcDbEntity
  8
0
  6
Continuous
 62
     7
370
    25
100
AcDbSpline
210
0.0
220
0.0
230
1.0
 70
    24
 71
     3
 72
    16
 73
    12
 74
     0
 42
0.00000001
 43
0.00000001
 40
0.0
 40
0.0
 40
0.0
 40
0.0
 40
0.2500000000000002
 40
0.2500000000000002
 40
0.5000000000000004
 40
0.5000000000000004
 40
0.6250000000000003
 40
0.6250000000000003
 40
0.7500000000000002
 40
0.7500000000000002
 40
1.0
 40
1.0
 40
1.0
 40
1.0
 10
288.690127020785
 20
102.159584023591
 30
0.0
 10
289.3436438008258
 20
102.5368921124675
 30
0.0
 10
290.0018642099158
 20
102.9169158428417
 30
0.0
 10
291.3314267932814
 20
103.6845391582523
 30
0.0
 10
292.0028507753519
 20
104.0721859750411
 30
0.0
 10
293.0218518623586
 20
104.6605065269289
 30
0.0
 10
293.3631926446748
 20
104.8575797194845
 30
0.0
 10
294.0387911476452
 20
105.2476366970386
 30
0.0
 10
294.3744502976097
 20
105.4414295976266
 30
0.0
 10
295.3757159341094
 20
106.01951058239
 30
0.0
 10
296.0356235927125
 20
106.4005084467248
 30
0.0
 10
296.6901270207845
 20
106.7783861771077
 30
0.0
  0
SPLINE
  5
172
330
1F
100
AcDbEntity
  8
0
  6
Continuous
 62
     7
370
    25
100
AcDbSpline
210
0.0
220
0.0
230
1.0
 70
     8
 71
     3
 72
    10
 73
     6
 74
     0
 42
0.00000001
 43
0.00000001
 40
0.0
 40
0.0
 40
0.0
 40
0.0
 40
0.5
 40
0.5
 40
1.0
 40
1.0
 40
1.0
 40
1.0
 10
288.190127020785
 20
102.159584023591
 30
0.0
 10
288.2645073981624
 20
102.1166404926898
 30
0.0
 10
288.351600486278
 20
102.0926757283338
 30
0.0
 10
288.5277588751539
 20
102.092518122859
 30
0.0
 10
288.6157199478818
 20
102.1166250800207
 30
0.0
 10
288.690127020785
 20
102.159584023591
 30
0.0
  0
SPLINE
  5
173
330
1F
100
AcDbEntity
  8
0
  6
Continuous
 62
     7
370
    25
100
AcDbSpline
210
0.0
220
0.0
230
1.0
 70
    24
 71
     3
 72
    16
 73
    12
 74
     0
 42
0.00000001
 43
0.00000001
 40
0.0
 40
0.0
 40
0.0
 40
0.0
 40
0.2500000000000001
 40
0.2500000000000001
 40
0.5000000000000002
 40
0.5000000000000002
 40
0.6250000000000001
 40
0.6250000000000001
 40
0.7500000000000001
 40
0.7500000000000001
 40
1.0
 40
1.0
 40
1.0
 40
1.0
 10
280.1901270207851
 20
106.778386177108
 30
0.0
 10
280.8436438008259
 20
106.4010780882315
 30
0.0
 10
281.5018642099159
 20
106.0210543578573
 30
0.0
 10
282.8314267932817
 20
105.2534310424466
 30
0.0
 10
283.5028507753522
 20
104.8657842256578
 30
0.0
 10
284.5218518623589
 20
104.27746367377
 30
0.0
 10
284.8631926446751
 20
104.0803904812143
 30
0.0
 10
285.5387911476456
 20
103.6903335036602
 30
0.0
 10
285.8744502976102
 20
103.4965406030722
 30
0.0
 10
286.8757159341098
 20
102.9184596183088
 30
0.0
 10
287.535623592713
 20
102.537461753974
 30
0.0
 10
288.190127020785
 20
102.159584023591
 30
0.0
  0
CIRCLE
  5
174
330
1F
100
AcDbEntity
  8
0
  6
Continuous
 62
     7
370
    25
100
AcDbCircle
 10
288.4401270208
 20
111.8302010325
 30
0.0
 40
8.249999999999943
  0
LINE
  5
175
330
1F
100
AcDbEntity
  8
0
  6
Continuous
 62
     7
370
    25
100
AcDbLine
 10
296.6901270208
 20
99.3302010325
 30
0.0
 11
280.1901270208
 21
99.3302010325
 31
0.0
  0
SPLINE
  5
176
330
1F
100
AcDbEntity
  8
0
  6
Continuous
 62
     7
370
    25
100
AcDbSpline
210
0.0
220
0.0
230
1.0
 70
     8
 71
     3
 72
    10
 73
     6
 74
     0
 42
0.00000001
 43
0.00000001
 40
0.0
 40
0.0
 40
0.0
 40
0.0
 40
0.5
 40
0.5
 40
1.0
 40
1.0
 40
1.0
 40
1.0
 10
279.9401270207851
 20
100.1522600050749
 30
0.0
 10
279.9401270207851
 20
100.1759339056308
 30
0.0
 10
279.9629175924325
 20
100.1890264628099
 30
0.0
 10
280.0508635897314
 20
100.1891128767922
 30
0.0
 10
280.1157243824641
 20
100.1759424851936
 30
0.0
 10
280.1901270207851
 20
100.1522600050749
 30
0.0
  0
SPLINE
  5
177
330
1F
100
AcDbEntity
  8
0
  6
Continuous
 62
     7
370
    25
100
AcDbSpline
210
0.0
220
0.0
230
1.0
 70
     8
 71
     3
 72
    16
 73
    12
 74
     0
 42
0.00000001
 43
0.00000001
 40
0.0
 40
0.0
 40
0.0
 40
0.0
 40
0.2500000000000001
 40
0.2500000000000001
 40
0.5000000000000001
 40
0.5000000000000001
 40
0.6250000000000001
 40
0.6250000000000001
 40
0.7500000000000002
 40
0.7500000000000002
 40
1.0
 40
1.0
 40
1.0
 40
1.0
 10
288.1901270207851
 20
100.1522600050744
 30
0.0
 10
287.5359053673457
 20
99.94402019462574
 30
0.0
 10
286.8774528318345
 20
99.7738469082163
 30
0.0
 10
285.5488082068512
 20
99.53912464860045
 30
0.0
 10
284.8785437625637
 20
99.47522667352597
 30
0.0
 10
283.862608019002
 20
99.47420297143948
 30
0.0
 10
283.5212569009023
 20
99.48968951858417
 30
0.0
 10
282.8448405894378
 20
99.55081324004217
 30
0.0
 10
282.5087678203969
 20
99.59633496733719
 30
0.0
 10
281.506249759336
 20
99.77283433108236
 30
0.0
 10
280.8454918892444
 20
99.94365630743619
 30
0.0
 10
280.190127020785
 20
100.1522600050747
 30
0.0
  0
SPLINE
  5
178
330
1F
100
AcDbEntity
  8
0
  6
Continuous
 62
     7
370
    25
100
AcDbSpline
210
0.0
220
0.0
230
1.0
 70
     8
 71
     3
 72
    10
 73
     6
 74
     0
 42
0.00000001
 43
0.00000001
 40
0.0
 40
0.0
 40
0.0
 40
0.0
 40
0.5
 40
0.5
 40
1.0
 40
1.0
 40
1.0
 40
1.0
 10
288.1901270207851
 20
100.1522600050749
 30
0.0
 10
288.2645017747751
 20
100.175933609566
 30
0.0
 10
288.351595506341
 20
100.1890263853592
 30
0.0
 10
288.5277613348855
 20
100.1891129534602
 30
0.0
 10
288.6157223587758
 20
100.1759431293369
 30
0.0
 10
288.690127020785
 20
100.1522600050749
 30
0.0
  0
SPLINE
  5
179
330
1F
100
AcDbEntity
  8
0
  6
Continuous
 62
     7
370
    25
100
AcDbSpline
210
0.0
220
0.0
230
1.0
 70
     8
 71
     3
 72
    16
 73
    12
 74
     0
 42
0.00000001
 43
0.00000001
 40
0.0
 40
0.0
 40
0.0
 40
0.0
 40
0.2500000000000001
 40
0.2500000000000001
 40
0.5000000000000002
 40
0.5000000000000002
 40
0.6250000000000001
 40
0.6250000000000001
 40
0.75
 40
0.75
 40
1.0
 40
1.0
 40
1.0
 40
1.0
 10
296.6901270207851
 20
100.1522600050744
 30
0.0
 10
296.0359053673457
 20
99.94402019462574
 30
0.0
 10
295.3774528318345
 20
99.77384690821631
 30
0.0
 10
294.0488082068513
 20
99.53912464860045
 30
0.0
 10
293.3785437625637
 20
99.47522667352598
 30
0.0
 10
292.362608019002
 20
99.47420297143948
 30
0.0
 10
292.0212569009023
 20
99.48968951858417
 30
0.0
 10
291.3448405894378
 20
99.55081324004217
 30
0.0
 10
291.008767820397
 20
99.59633496733719
 30
0.0
 10
290.0062497593359
 20
99.77283433108236
 30
0.0
 10
289.3454918892444
 20
99.94365630743619
 30
0.0
 10
288.690127020785
 20
100.1522600050747
 30
0.0
  0
SPLINE
  5
17A
330
1F
100
AcDbEntity
  8
0
  6
Continuous
 62
     7
370
    25
100
AcDbSpline
210
0.0
220
0.0
230
1.0
 70
     8
 71
     3
 72
    10
 73
     6
 74
     0
 42
0.00000001
 43
0.00000001
 40
0.0
 40
0.0
 40
0.0
 40
0.0
 40
0.5
 40
0.5
 40
1.0
 40
1.0
 40
1.0
 40
1.0
 10
296.690127020785
 20
100.1522600050749
 30
0.0
 10
296.7644974877107
 20
100.1759322449864
 30
0.0
 10
296.8288030839985
 20
100.1890262349217
 30
0.0
 10
296.9170258718044
 20
100.1891131023831
 30
0.0
 10
296.9401270207851
 20
100.1759433126238
 30
0.0
 10
296.9401270207851
 20
100.1522600050749
 30
0.0
  0
SPLINE
  5
17B
330
1F
100
AcDbEntity
  8
0
  6
Continuous
 62
     7
370
    25
100
AcDbSpline
210
0.0
220
0.0
230
1.0
 70
    24
 71
     3
 72
    11
 73
     7
 74
     0
 42
0.00000001
 43
0.00000001
 40
0.0
 40
0.0
 40
0.0
 40
0.0
 40
0.1494817998391901
 40
0.4649957304855153
 40
0.7803786925205703
 40
0.9999999999999999
 40
0.9999999999999999
 40
0.9999999999999999
 40
0.9999999999999999
 10
279.9401270207851
 20
100.1522600050749
 30
0.0
 10
279.9401270207851
 20
100.0921307575407
 30
0.0
 10
279.9401270207851
 20
99.90508562287695
 30
0.0
 10
279.9401270207851
 20
99.66580097477635
 30
0.0
 10
279.9401270207851
 20
99.4915297646162
 30
0.0
 10
279.9401270207851
 20
99.49230555297817
 30
0.0
 10
279.9401270207851
 20
99.4926240170804
 30
0.0
  0
SPLINE
  5
17C
330
1F
100
AcDbEntity
  8
0
  6
Continuous
 62
     7
370
    25
100
AcDbSpline
210
0.0
220
0.0
230
1.0
 70
    24
 71
     3
 72
    11
 73
     7
 74
     0
 42
0.00000001
 43
0.00000001
 40
0.0
 40
0.0
 40
0.0
 40
0.0
 40
0.1965435500283199
 40
0.5234543911405443
 40
0.8505151200688306
 40
0.9999999999999999
 40
0.9999999999999999
 40
0.9999999999999999
 40
0.9999999999999999
 10
296.9401270207851
 20
99.49235693775735
 30
0.0
 10
296.9401270207851
 20
99.49089078674406
 30
0.0
 10
296.9401270207851
 20
99.48698598709086
 30
0.0
 10
296.9401270207851
 20
99.65613900319251
 30
0.0
 10
296.9401270207851
 20
99.90042915608154
 30
0.0
 10
296.9401270207851
 20
100.0921273040343
 30
0.0
 10
296.9401270207851
 20
100.1522600050749
 30
0.0
  0
LINE
  5
17D
330
1F
100
AcDbEntity
  8
0
  6
Continuous
 62
     7
370
    25
100
AcDbLine
 10
288.6901270208
 20
102.1595840236
 30
0.0
 11
288.6901270208
 21
100.1522600051
 31
0.0
  0
LINE
  5
17E
330
1F
100
AcDbEntity
  8
0
  6
Continuous
 62
     7
370
    25
100
AcDbLine
 10
288.1901270208
 20
100.1522600051
 30
0.0
 11
288.1901270208
 21
102.1595840236
 31
0.0
  0
LINE
  5
17F
330
1F
100
AcDbEntity
  8
0
  6
Continuous
 62
     7
370
    25
100
AcDbLine
 10
280.1901270208
 20
103.8638044927
 30
0.0
 11
280.1901270208
 21
100.1522600051
 31
0.0
  0
SPLINE
  5
180
330
1F
100
AcDbEntity
  8
0
  6
Continuous
 62
     7
370
    25
100
AcDbSpline
210
0.0
220
0.0
230
1.0
 70
     8
 71
     3
 72
    10
 73
     6
 74
     0
 42
0.00000001
 43
0.00000001
 40
0.0
 40
0.0
 40
0.0
 40
0.0
 40
0.5
 40
0.5
 40
1.0
 40
1.0
 40
1.0
 40
1.0
 10
280.1901270207856
 20
103.8638044926624
 30
0.0
 10
280.8249547265992
 20
104.0658711782133
 30
0.0
 10
281.464220429175
 20
104.232263950484
 30
0.0
 10
282.7550353607649
 20
104.466310924354
 30
0.0
 10
283.4066549962347
 20
104.5333991783129
 30
0.0
 10
284.0656969280548
 20
104.5408248478826
 30
0.0
  0
SPLINE
  5
181
330
1F
100
AcDbEntity
  8
0
  6
Continuous
 62
     7
370
    25
100
AcDbSpline
210
0.0
220
0.0
230
1.0
 70
     8
 71
     3
 72
    12
 73
     8
 74
     0
 42
0.00000001
 43
0.00000001
 40
0.0
 40
0.0
 40
0.0
 40
0.0
 40
0.2499999999999999
 40
0.2499999999999999
 40
0.4999999999999998
 40
0.4999999999999998
 40
1.0
 40
1.0
 40
1.0
 40
1.0
 10
292.8145571135374
 20
104.5408248478824
 30
0.0
 10
293.1436921039306
 20
104.537116362026
 30
0.0
 10
293.4731542568674
 20
104.5185338591883
 30
0.0
 10
294.1260278749251
 20
104.4536668222221
 30
0.0
 10
294.4504804668021
 20
104.4074012689719
 30
0.0
 10
295.4185409079942
 20
104.2316767386649
 30
0.0
 10
296.0568633922421
 20
104.0653733298882
 30
0.0
 10
296.690127020785
 20
103.8638044926623
 30
0.0
  0
LINE
  5
182
330
1F
100
AcDbEntity
  8
0
  6
Continuous
 62
     7
370
    25
100
AcDbLine
 10
296.6901270208
 20
100.1522600051
 30
0.0
 11
296.6901270208
 21
103.8638044927
 31
0.0
  0
SPLINE
  5
183
330
1F
100
AcDbEntity
  8
0
  6
Continuous
 62
     7
370
    25
100
AcDbSpline
210
0.0
220
0.0
230
1.0
 70
     8
 71
     3
 72
     8
 73
     4
 74
     0
 42
0.00000001
 43
0.00000001
 40
0.0
 40
0.0
 40
0.0
 40
0.0
 40
1.0
 40
1.0
 40
1.0
 40
1.0
 10
279.9401270207851
 20
104.0252898209433
 30
0.0
 10
280.4619331720869
 20
104.2978799566126
 30
0.0
 10
280.9855866409431
 20
104.567032457734
 30
0.0
 10
281.5119237905096
 20
104.8302010325173
 30
0.0
  0
SPLINE
  5
184
330
1F
100
AcDbEntity
  8
0
  6
Continuous
 62
     7
370
    25
100
AcDbSpline
210
0.0
220
0.0
230
1.0
 70
     8
 71
     3
 72
    10
 73
     6
 74
     0
 42
0.00000001
 43
0.00000001
 40
0.0
 40
0.0
 40
0.0
 40
0.0
 40
0.5
 40
0.5
 40
1.0
 40
1.0
 40
1.0
 40
1.0
 10
279.9401270207851
 20
103.8638044926622
 30
0.0
 10
279.9401270207851
 20
103.8401290982378
 30
0.0
 10
279.9629194701149
 20
103.8270379883532
 30
0.0
 10
280.0508621742081
 20
103.826951667065
 30
0.0
 10
280.1157199478824
 20
103.8401206010089
 30
0.0
 10
280.1901270207858
 20
103.8638044926625
 30
0.0
  0
SPLINE
  5
185
330
1F
100
AcDbEntity
  8
0
  6
Continuous
 62
     7
370
    25
100
AcDbSpline
210
0.0
220
0.0
230
1.0
 70
    24
 71
     3
 72
     8
 73
     4
 74
     0
 42
0.00000001
 43
0.00000001
 40
0.0
 40
0.0
 40
0.0
 40
0.0
 40
1.0
 40
1.0
 40
1.0
 40
1.0
 10
279.9401270207851
 20
104.0252898209433
 30
0.0
 10
279.9401270207851
 20
103.9743950312425
 30
0.0
 10
279.9401270207851
 20
103.920461181881
 30
0.0
 10
279.9401270207851
 20
103.8638044926623
 30
0.0
  0
SPLINE
  5
186
330
1F
100
AcDbEntity
  8
0
  6
Continuous
 62
     7
370
    25
100
AcDbSpline
210
0.0
220
0.0
230
1.0
 70
     8
 71
     3
 72
     8
 73
     4
 74
     0
 42
0.00000001
 43
0.00000001
 40
0.0
 40
0.0
 40
0.0
 40
0.0
 40
1.0
 40
1.0
 40
1.0
 40
1.0
 10
295.3683302510606
 20
104.8302010325173
 30
0.0
 10
295.8947511122698
 20
104.5669906019127
 30
0.0
 10
296.4182955689835
 20
104.2978931735259
 30
0.0
 10
296.9401270207851
 20
104.0252898209433
 30
0.0
  0
SPLINE
  5
187
330
1F
100
AcDbEntity
  8
0
  6
Continuous
 62
     7
370
    25
100
AcDbSpline
210
0.0
220
0.0
230
1.0
 70
     8
 71
     3
 72
    10
 73
     6
 74
     0
 42
0.00000001
 43
0.00000001
 40
0.0
 40
0.0
 40
0.0
 40
0.0
 40
0.5
 40
0.5
 40
1.0
 40
1.0
 40
1.0
 40
1.0
 10
296.690127020785
 20
103.8638044926623
 30
0.0
 10
296.7645073981624
 20
103.8401290982379
 30
0.0
 10
296.8288080369481
 20
103.8270379883532
 30
0.0
 10
296.9170237217311
 20
103.8269516670649
 30
0.0
 10
296.9401270207851
 20
103.8401206010088
 30
0.0
 10
296.9401270207851
 20
103.8638044926623
 30
0.0
  0
SPLINE
  5
188
330
1F
100
AcDbEntity
  8
0
  6
Continuous
 62
     7
370
    25
100
AcDbSpline
210
0.0
220
0.0
230
1.0
 70
    24
 71
     3
 72
     8
 73
     4
 74
     0
 42
0.00000001
 43
0.00000001
 40
0.0
 40
0.0
 40
0.0
 40
0.0
 40
1.0
 40
1.0
 40
1.0
 40
1.0
 10
296.9401270207851
 20
104.0252898209433
 30
0.0
 10
296.9401270207851
 20
103.9743950312425
 30
0.0
 10
296.9401270207851
 20
103.920461181881
 30
0.0
 10
296.9401270207851
 20
103.8638044926623
 30
0.0
  0
LINE
  5
189
330
1F
100
AcDbEntity
  8
0
  6
Continuous
 62
     7
370
    25
100
AcDbLine
 10
295.9401270208
 20
106.3453734752
 30
0.0
 11
295.9401270208
 21
104.8302010325
 31
0.0
  0
LINE
  5
18A
330
1F
100
AcDbEntity
  8
0
  6
Continuous
 62
     7
370
    25
100
AcDbLine
 10
293.3157713678
 20
104.8302010325
 30
0.0
 11
295.9401270208
 21
104.8302010325
 31
0.0
  0
LINE
  5
18B
330
1F
100
AcDbEntity
  8
0
  6
Continuous
 62
     7
370
    25
100
AcDbLine
 10
280.9401270208
 20
104.8302010325
 30
0.0
 11
280.9401270208
 21
106.3453734752
 31
0.0
  0
LINE
  5
18C
330
1F
100
AcDbEntity
  8
0
  6
Continuous
 62
     7
370
    25
100
AcDbLine
 10
280.9401270208
 20
104.8302010325
 30
0.0
 11
283.5644826738
 21
104.8302010325
 31
0.0
  0
LINE
  5
18D
330
1F
100
AcDbEntity
  8
0
  6
Continuous
 62
     7
370
    25
100
AcDbLine
 10
288.4401270208
 20
88.3302010325
 30
0.0
 11
282.1901270208
 21
88.3302010325
 31
0.0
  0
LINE
  5
18E
330
1F
100
AcDbEntity
  8
0
  6
Continuous
 62
     7
370
    25
100
AcDbLine
 10
294.6901270208
 20
88.3302010325
 30
0.0
 11
288.4401270208
 21
88.3302010325
 31
0.0
  0
LINE
  5
18F
330
1F
100
AcDbEntity
  8
0
  6
Continuous
 62
     7
370
    25
100
AcDbLine
 10
288.4401270208
 20
88.5802010325
 30
0.0
 11
294.9401270208
 21
88.5802010325
 31
0.0
  0
LINE
  5
190
330
1F
100
AcDbEntity
  8
0
  6
Continuous
 62
     7
370
    25
100
AcDbLine
 10
281.9401270208
 20
88.5802010325
 30
0.0
 11
288.4401270208
 21
88.5802010325
 31
0.0
  0
LINE
  5
191
330
1F
100
AcDbEntity
  8
0
  6
Continuous
 62
     7
370
    25
100
AcDbLine
 10
279.9401270208
 20
100.1522600051
 30
0.0
 11
279.9401270208
 21
103.8638044927
 31
0.0
  0
LINE
  5
192
330
1F
100
AcDbEntity
  8
0
  6
Continuous
 62
     7
370
    25
100
AcDbLine
 10
296.9401270208
 20
103.8638044927
 30
0.0
 11
296.9401270208
 21
100.1522600051
 31
0.0
  0
LINE
  5
193
330
1F
100
AcDbEntity
  8
0
  6
Continuous
 62
     7
370
    25
100
AcDbLine
 10
279.9401270208
 20
104.0252898209
 30
0.0
 11
279.9401270208
 21
107.1822787388
 31
0.0
  0
LINE
  5
194
330
1F
100
AcDbEntity
  8
0
  6
Continuous
 62
     7
370
    25
100
AcDbLine
 10
296.9401270208
 20
104.0252898209
 30
0.0
 11
296.9401270208
 21
107.1822787388
 31
0.0
  0
LINE
  5
195
330
1F
100
AcDbEntity
  8
0
  6
Continuous
 62
     7
370
    25
100
AcDbLine
 10
283.1901270208
 20
139.1802010325
 30
0.0
 11
284.9401270208
 21
139.1802010325
 31
0.0
  0
LINE
  5
196
330
1F
100
AcDbEntity
  8
0
  6
Continuous
 62
     7
370
    25
100
AcDbLine
 10
291.9401270208
 20
139.1802010325
 30
0.0
 11
293.6901270208
 21
139.1802010325
 31
0.0
  0
LINE
  5
197
330
1F
100
AcDbEntity
  8
0
  6
Continuous
 62
     7
370
    25
100
AcDbLine
 10
282.9401270208
 20
138.3302010325
 30
0.0
 11
284.9401270208
 21
138.3302010325
 31
0.0
  0
LINE
  5
198
330
1F
100
AcDbEntity
  8
0
  6
Continuous
 62
     7
370
    25
100
AcDbLine
 10
291.9401270208
 20
138.3302010325
 30
0.0
 11
293.9401270208
 21
138.3302010325
 31
0.0
  0
LINE
  5
199
330
1F
100
AcDbEntity
  8
0
  6
Continuous
 62
     7
370
    25
100
AcDbLine
 10
284.9401270208
 20
133.3302010325
 30
0.0
 11
291.9401270208
 21
133.3302010325
 31
0.0
  0
LINE
  5
19A
330
1F
100
AcDbEntity
  8
0
  6
Continuous
 62
     7
370
    25
100
AcDbLine
 10
284.9401270208
 20
140.3302010325
 30
0.0
 11
284.9401270208
 21
133.3302010325
 31
0.0
  0
LINE
  5
19B
330
1F
100
AcDbEntity
  8
0
  6
Continuous
 62
     7
370
    25
100
AcDbLine
 10
284.9401270208
 20
140.3302010325
 30
0.0
 11
291.9401270208
 21
140.3302010325
 31
0.0
  0
LINE
  5
19C
330
1F
100
AcDbEntity
  8
0
  6
Continuous
 62
     7
370
    25
100
AcDbLine
 10
291.9401270208
 20
133.3302010325
 30
0.0
 11
291.9401270208
 21
140.3302010325
 31
0.0
  0
LINE
  5
19D
330
1F
100
AcDbEntity
  8
0
  6
Continuous
 62
     7
370
    25
100
AcDbLine
 10
291.9401270208
 20
128.3302010325
 30
0.0
 11
284.9401270208
 21
128.3302010325
 31
0.0
  0
LINE
  5
19E
330
1F
100
AcDbEntity
  8
0
  6
Continuous
 62
     7
370
    25
100
AcDbLine
 10
284.9401270208
 20
128.3302010325
 30
0.0
 11
284.9401270208
 21
133.3302010325
 31
0.0
  0
LINE
  5
19F
330
1F
100
AcDbEntity
  8
0
  6
Continuous
 62
     7
370
    25
100
AcDbLine
 10
291.9401270208
 20
133.3302010325
 30
0.0
 11
291.9401270208
 21
128.3302010325
 31
0.0
  0
SPLINE
  5
1A0
330
1F
100
AcDbEntity
  8
0
  6
Continuous
 62
     7
370
    25
100
AcDbSpline
210
0.0
220
0.0
230
1.0
 70
     8
 71
     3
 72
    11
 73
     7
 74
     0
 42
0.00000001
 43
0.00000001
 40
0.0
 40
0.0
 40
0.0
 40
0.0
 40
0.2488466353289361
 40
0.4976946020535204
 40
0.7488461225871278
 40
1.0
 40
1.0
 40
1.0
 40
1.0
 10
291.9401270207851
 20
128.0823767254928
 30
0.0
 10
291.9448185567245
 20
128.0128523489992
 30
0.0
 10
291.9542016537043
 20
127.873803224038
 30
0.0
 10
292.0306235371911
 20
127.5734744859127
 30
0.0
 10
292.1483496651549
 20
127.2115648676576
 30
0.0
 10
292.2666585884879
 20
126.909972910593
 30
0.0
 10
292.3258133277145
 20
126.7591762245073
 30
0.0
  0
LINE
  5
1A1
330
1F
100
AcDbEntity
  8
0
  6
Continuous
 62
     7
370
    25
100
AcDbLine
 10
292.3258133277
 20
126.7591762245
 30
0.0
 11
284.5544407139
 21
126.7591762245
 31
0.0
  0
SPLINE
  5
1A2
330
1F
100
AcDbEntity
  8
0
  6
Continuous
 62
     7
370
    25
100
AcDbSpline
210
0.0
220
0.0
230
1.0
 70
     8
 71
     3
 72
    11
 73
     7
 74
     0
 42
0.00000001
 43
0.00000001
 40
0.0
 40
0.0
 40
0.0
 40
0.0
 40
0.2488607147078904
 40
0.4977191536447657
 40
0.7488602698858827
 40
0.9999999999999999
 40
0.9999999999999999
 40
0.9999999999999999
 40
0.9999999999999999
 10
284.5544407138557
 20
126.7591762245073
 30
0.0
 10
284.613094205542
 20
126.9086551613954
 30
0.0
 10
284.7304006525426
 20
127.207611668223
 30
0.0
 10
284.8484364590755
 20
127.5694156416817
 30
0.0
 10
284.9257911403558
 20
127.8716902849212
 30
0.0
 10
284.9353484027669
 20
128.0121480411744
 30
0.0
 10
284.9401270207851
 20
128.0823767254928
 30
0.0
  0
LINE
  5
1A3
330
1F
100
AcDbEntity
  8
0
  6
Continuous
 62
     7
370
    25
100
AcDbLine
 10
284.9401270208
 20
128.0823767255
 30
0.0
 11
284.9401270208
 21
128.3302010325
 31
0.0
  0
LINE
  5
1A4
330
1F
100
AcDbEntity
  8
0
  6
Continuous
 62
     7
370
    25
100
AcDbLine
 10
291.9401270208
 20
128.3302010325
 30
0.0
 11
291.9401270208
 21
128.0823767255
 31
0.0
  0
SPLINE
  5
1A5
330
1F
100
AcDbEntity
  8
0
  6
Continuous
 62
     7
370
    25
100
AcDbSpline
210
0.0
220
0.0
230
1.0
 70
     8
 71
     3
 72
    16
 73
    12
 74
     0
 42
0.00000001
 43
0.00000001
 40
0.0
 40
0.0
 40
0.0
 40
0.0
 40
0.0155634360124117
 40
0.0359329243097674
 40
0.0739120889290614
 40
0.1570057548437684
 40
0.2406581385754913
 40
0.4592958294318596
 40
0.6783839187935417
 40
0.8974954344294845
 40
1.0
 40
1.0
 40
1.0
 40
1.0
 10
281.7804047985628
 20
122.3302010325174
 30
0.0
 10
281.7940984655762
 20
122.3353944042965
 30
0.0
 10
281.8257144596228
 20
122.3473848821643
 30
0.0
 10
281.8811941499329
 20
122.4657108061613
 30
0.0
 10
281.9597949604234
 20
122.7769621136102
 30
0.0
 10
282.0391351470525
 20
123.3026096149753
 30
0.0
 10
282.1443628551556
 20
124.3411557792454
 30
0.0
 10
282.2593562563749
 20
125.7762298215915
 30
0.0
 10
282.3617562567898
 20
127.614481923031
 30
0.0
 10
282.4315051366702
 20
129.1356647718504
 30
0.0
 10
282.470963756099
 20
130.0414968126469
 30
0.0
 10
282.483539895412
 20
130.3302010325149
 30
0.0
  0
SPLINE
  5
1A6
330
1F
100
AcDbEntity
  8
0
  6
Continuous
 62
     7
370
    25
100
AcDbSpline
210
0.0
220
0.0
230
1.0
 70
     8
 71
     3
 72
     9
 73
     5
 74
     0
 42
0.00000001
 43
0.00000001
 40
0.0
 40
0.0
 40
0.0
 40
0.0
 40
0.4983247250277991
 40
1.0
 40
1.0
 40
1.0
 40
1.0
 10
282.483539895412
 20
130.3302010325149
 30
0.0
 10
282.4505373562534
 20
130.5039931463739
 30
0.0
 10
282.3843103811486
 20
130.8527458875697
 30
0.0
 10
282.3037795213627
 20
131.167193844984
 30
0.0
 10
282.2633791801359
 20
131.3249446104842
 30
0.0
  0
LINE
  5
1A7
330
1F
100
AcDbEntity
  8
0
  6
Continuous
 62
     7
370
    25
100
AcDbLine
 10
282.2633791801
 20
131.3249446105
 30
0.0
 11
284.9401270208
 21
131.3249446105
 31
0.0
  0
ELLIPSE
  5
1A8
330
1F
100
AcDbEntity
  8
0
  6
Continuous
 62
     7
370
    25
100
AcDbEllipse
 10
219.9401270208
 20
128.6780754648
 30
0.0
 11
65.00000000000003
 21
0.0
 31
0.0
210
0.0
220
0.0
230
1.0
 40
0.2713992096
 41
6.084179739699223
 42
6.174194364446292
  0
SPLINE
  5
1A9
330
1F
100
AcDbEntity
  8
0
  6
Continuous
 62
     7
370
    25
100
AcDbSpline
210
0.0
220
0.0
230
1.0
 70
     8
 71
     3
 72
    13
 73
     9
 74
     0
 42
0.00000001
 43
0.00000001
 40
0.0
 40
0.0
 40
0.0
 40
0.0
 40
0.1610294006389558
 40
0.3266880383557516
 40
0.4877296220820636
 40
0.6535536198224136
 40
0.8237602734841889
 40
1.0
 40
1.0
 40
1.0
 40
1.0
 10
283.6572646906805
 20
125.1905547840244
 30
0.0
 10
283.6134609232481
 20
125.1211578894472
 30
0.0
 10
283.5245941275059
 20
124.9803690939386
 30
0.0
 10
283.3955741088339
 20
124.634244276231
 30
0.0
 10
283.2745640130665
 20
124.1950376331789
 30
0.0
 10
283.1678830299419
 20
123.6614357962393
 30
0.0
 10
283.0772157425861
 20
123.0376094895396
 30
0.0
 10
283.0403969336894
 20
122.5687255913377
 30
0.0
 10
283.021666944918
 20
122.3302010325173
 30
0.0
  0
LINE
  5
1AA
330
1F
100
AcDbEntity
  8
0
  6
Continuous
 62
     7
370
    25
100
AcDbLine
 10
283.0216669449
 20
122.3302010325
 30
0.0
 11
281.7804047986
 21
122.3302010325
 31
0.0
  0
SPLINE
  5
1AB
330
1F
100
AcDbEntity
  8
0
  6
Continuous
 62
     7
370
    25
100
AcDbSpline
210
0.0
220
0.0
230
1.0
 70
     8
 71
     3
 72
    17
 73
    13
 74
     0
 42
0.00000001
 43
0.00000001
 40
0.0
 40
0.0
 40
0.0
 40
0.0
 40
0.3241697628029873
 40
0.542275846362072
 40
0.689509052693928
 40
0.7894036290694506
 40
0.8577090008137827
 40
0.9049823971474139
 40
0.9551712229700868
 40
0.9753097783197817
 40
0.9919572060138849
 40
1.0
 40
1.0
 40
1.0
 40
1.0
 10
294.3967141461582
 20
130.3302010325149
 30
0.0
 10
294.4373645848849
 20
129.4175875299092
 30
0.0
 10
294.5053652240406
 20
127.8909545236479
 30
0.0
 10
294.6167981233569
 20
125.9641816213669
 30
0.0
 10
294.7093027834155
 20
124.6765461504341
 30
0.0
 10
294.7872042397329
 20
123.8173941837124
 30
0.0
 10
294.8532567391553
 20
123.243926295335
 30
0.0
 10
294.9166133465176
 20
122.822394141305
 30
0.0
 10
294.9747398142115
 20
122.5419015985096
 30
0.0
 10
295.0340816425343
 20
122.3863529299289
 30
0.0
 10
295.071087711157
 20
122.3357423307314
 30
0.0
 10
295.0927822780275
 20
122.3315625789268
 30
0.0
 10
295.0998492430073
 20
122.3302010325173
 30
0.0
  0
LINE
  5
1AC
330
1F
100
AcDbEntity
  8
0
  6
Continuous
 62
     7
370
    25
100
AcDbLine
 10
295.099849243
 20
122.3302010325
 30
0.0
 11
293.8585870967
 21
122.3302010325
 31
0.0
  0
SPLINE
  5
1AD
330
1F
100
AcDbEntity
  8
0
  6
Continuous
 62
     7
370
    25
100
AcDbSpline
210
0.0
220
0.0
230
1.0
 70
     8
 71
     3
 72
    14
 73
    10
 74
     0
 42
0.00000001
 43
0.00000001
 40
0.0
 40
0.0
 40
0.0
 40
0.0
 40
0.1576095309202821
 40
0.3152382602707094
 40
0.4726926441579496
 40
0.6301650083177254
 40
0.7907313191165902
 40
0.9513050385928076
 40
1.0
 40
1.0
 40
1.0
 40
1.0
 10
293.8585870966521
 20
122.3302010325173
 30
0.0
 10
293.8420817598097
 20
122.5437028209947
 30
0.0
 10
293.8090690756084
 20
122.9707324046202
 30
0.0
 10
293.7292653856964
 20
123.5559794834765
 30
0.0
 10
293.6314779782102
 20
124.0781340242989
 30
0.0
 10
293.5178881385282
 20
124.5271121517188
 30
0.0
 10
293.3933460394965
 20
124.8863938835252
 30
0.0
 10
293.29298869872
 20
125.0909600626264
 30
0.0
 10
293.2362029011049
 20
125.1717546109776
 30
0.0
 10
293.2229893508896
 20
125.1905547840244
 30
0.0
  0
ELLIPSE
  5
1AE
330
1F
100
AcDbEntity
  8
0
  6
Continuous
 62
     7
370
    25
100
AcDbEllipse
 10
356.9401270208
 20
128.6780754648
 30
0.0
 11
65.0
 21
0.0
 31
0.0
210
0.0
220
0.0
230
1.0
 40
0.2713992096
 41
3.25058359632319
 42
3.340598221070255
  0
SPLINE
  5
1AF
330
1F
100
AcDbEntity
  8
0
  6
Continuous
 62
     7
370
    25
100
AcDbSpline
210
0.0
220
0.0
230
1.0
 70
     8
 71
     3
 72
     9
 73
     5
 74
     0
 42
0.00000001
 43
0.00000001
 40
0.0
 40
0.0
 40
0.0
 40
0.0
 40
0.4978401817595073
 40
1.0
 40
1.0
 40
1.0
 40
1.0
 10
294.6168748614342
 20
131.3249446104842
 30
0.0
 10
294.5767716969728
 20
131.1684334277916
 30
0.0
 10
294.4962174027821
 20
130.8540530534726
 30
0.0
 10
294.429977276122
 20
130.5053205054463
 30
0.0
 10
294.3967141461582
 20
130.3302010325149
 30
0.0
  0
LINE
  5
1B0
330
1F
100
AcDbEntity
  8
0
  6
Continuous
 62
     7
370
    25
100
AcDbLine
 10
291.9401270208
 20
131.3249446105
 30
0.0
 11
294.6168748614
 21
131.3249446105
 31
0.0
  0
LINE
  5
1B1
330
1F
100
AcDbEntity
  8
0
  6
Continuous
 62
     7
370
    25
100
AcDbLine
 10
283.6572646907
 20
125.190554784
 30
0.0
 11
293.2229893509
 21
125.190554784
 31
0.0
  0
SPLINE
  5
1B2
330
1F
100
AcDbEntity
  8
0
  6
Continuous
 62
     7
370
    25
100
AcDbSpline
210
0.0
220
0.0
230
1.0
 70
     8
 71
     3
 72
    20
 73
    16
 74
     0
 42
0.00000001
 43
0.00000001
 40
0.0
 40
0.0
 40
0.0
 40
0.0
 40
0.0541983873786813
 40
0.1084549937743861
 40
0.1748676008326813
 40
0.2413639405081385
 40
0.3280943358185923
 40
0.4149092203660895
 40
0.5031829151074113
 40
0.5914553293759743
 40
0.690663243287035
 40
0.7897037236706678
 40
0.8506104062320281
 40
0.9114495521941833
 40
1.0
 40
1.0
 40
1.0
 40
1.0
 10
291.0382032321384
 20
122.3302010325173
 30
0.0
 10
290.9844858896125
 20
122.424927336329
 30
0.0
 10
290.876993502274
 20
122.6144816973912
 30
0.0
 10
290.6405783934696
 20
122.87220512481
 30
0.0
 10
290.3455113948952
 20
123.1013036811614
 30
0.0
 10
289.9565935534353
 20
123.3096846989958
 30
0.0
 10
289.4946016379425
 20
123.4687055408258
 30
0.0
 10
288.965393767679
 20
123.5674871158227
 30
0.0
 10
288.4211739229768
 20
123.5986979519999
 30
0.0
 10
287.8517597698612
 20
123.5611941288299
 30
0.0
 10
287.2750760426819
 20
123.4422511018158
 30
0.0
 10
286.7847481445369
 20
123.2484861680764
 30
0.0
 10
286.4118782805877
 20
123.012972477023
 30
0.0
 10
286.0917358357842
 20
122.7391961223346
 30
0.0
 10
285.9349722057116
 20
122.4824103795198
 30
0.0
 10
285.8420508094318
 20
122.3302010325173
 30
0.0
  0
LINE
  5
1B3
330
1F
100
AcDbEntity
  8
0
  6
Continuous
 62
     7
370
    25
100
AcDbLine
 10
285.8420508094
 20
122.3302010325
 30
0.0
 11
283.0216669449
 21
122.3302010325
 31
0.0
  0
LINE
  5
1B4
330
1F
100
AcDbEntity
  8
0
  6
Continuous
 62
     7
370
    25
100
AcDbLine
 10
293.8585870967
 20
122.3302010325
 30
0.0
 11
291.0382032321
 21
122.3302010325
 31
0.0
  0
LINE
  5
1B5
330
1F
100
AcDbEntity
  8
0
  6
Continuous
 62
     7
370
    25
100
AcDbLine
 10
291.0382032321
 20
122.3302010325
 30
0.0
 11
285.8420508094
 21
122.3302010325
 31
0.0
  0
LINE
  5
1B6
330
1F
100
AcDbEntity
  8
0
  6
Continuous
 62
     7
370
    25
100
AcDbLine
 10
294.3967141462
 20
130.3302010325
 30
0.0
 11
295.8901270208
 21
130.3302010325
 31
0.0
  0
LINE
  5
1B7
330
1F
100
AcDbEntity
  8
0
  6
Continuous
 62
     7
370
    25
100
AcDbLine
 10
280.9901270208
 20
130.3302010325
 30
0.0
 11
282.4835398954
 21
130.3302010325
 31
0.0
  0
SPLINE
  5
1B8
330
1F
100
AcDbEntity
  8
0
  6
Continuous
 62
     7
370
    25
100
AcDbSpline
210
0.0
220
0.0
230
1.0
 70
     8
 71
     3
 72
     9
 73
     5
 74
     0
 42
0.00000001
 43
0.00000001
 40
0.0
 40
0.0
 40
0.0
 40
0.0
 40
0.4875141023677128
 40
0.9999999999999999
 40
0.9999999999999999
 40
0.9999999999999999
 40
0.9999999999999999
 10
295.0998492430073
 20
122.3302010325173
 30
0.0
 10
295.1083753545431
 20
122.331928378489
 30
0.0
 10
295.1258643081844
 20
122.3354715497805
 30
0.0
 10
295.1421860120707
 20
122.3569900357298
 30
0.0
 10
295.1505506551379
 20
122.3680179563172
 30
0.0
  0
SPLINE
  5
1B9
330
1F
100
AcDbEntity
  8
0
  6
Continuous
 62
     7
370
    25
100
AcDbSpline
210
0.0
220
0.0
230
1.0
 70
     8
 71
     3
 72
     9
 73
     5
 74
     0
 42
0.00000001
 43
0.00000001
 40
0.0
 40
0.0
 40
0.0
 40
0.0
 40
0.5124861829376838
 40
0.9999999999999999
 40
0.9999999999999999
 40
0.9999999999999999
 40
0.9999999999999999
 10
281.7297034172985
 20
122.3680179104575
 30
0.0
 10
281.7380680604221
 20
122.3569899975063
 30
0.0
 10
281.7543897553324
 20
122.3354715384369
 30
0.0
 10
281.7718786975742
 20
122.3319283740917
 30
0.0
 10
281.7804047985628
 20
122.3302010325174
 30
0.0
  0
LINE
  5
1BA
330
1F
100
AcDbEntity
  8
0
  6
Continuous
 62
     7
370
    25
100
AcDbLine
 10
295.1483309533
 20
122.3302010325
 30
0.0
 11
295.4401270208
 21
122.3302010325
 31
0.0
  0
LINE
  5
1BB
330
1F
100
AcDbEntity
  8
0
  6
Continuous
 62
     7
370
    25
100
AcDbLine
 10
281.4401270208
 20
122.3302010325
 30
0.0
 11
281.7319230883
 21
122.3302010325
 31
0.0
  0
LINE
  5
1BC
330
1F
100
AcDbEntity
  8
0
  6
Continuous
 62
     7
370
    25
100
AcDbLine
 10
295.1505506551
 20
122.3680179563
 30
0.0
 11
295.1483309533
 21
122.3302010325
 31
0.0
  0
LINE
  5
1BD
330
1F
100
AcDbEntity
  8
0
  6
Continuous
 62
     7
370
    25
100
AcDbLine
 10
295.1483309533
 20
122.3302010325
 30
0.0
 11
295.099849243
 21
122.3302010325
 31
0.0
  0
LINE
  5
1BE
330
1F
100
AcDbEntity
  8
0
  6
Continuous
 62
     7
370
    25
100
AcDbLine
 10
281.7319230883
 20
122.3302010325
 30
0.0
 11
281.7297034173
 21
122.3680179105
 31
0.0
  0
LINE
  5
1BF
330
1F
100
AcDbEntity
  8
0
  6
Continuous
 62
     7
370
    25
100
AcDbLine
 10
281.7804047986
 20
122.3302010325
 30
0.0
 11
281.7319230883
 21
122.3302010325
 31
0.0
  0
SPLINE
  5
1C0
330
1F
100
AcDbEntity
  8
0
  6
Continuous
 62
     7
370
    25
100
AcDbSpline
210
0.0
220
0.0
230
1.0
 70
     8
 71
     3
 72
    19
 73
    15
 74
     0
 42
0.00000001
 43
0.00000001
 40
0.0
 40
0.0
 40
0.0
 40
0.0
 40
0.0167886037649171
 40
0.0955042275824195
 40
0.1743244929652186
 40
0.2799421332471412
 40
0.385755404454062
 40
0.4988367890470905
 40
0.6118996590849487
 40
0.7070777709665597
 40
0.8021816828313842
 40
0.8927573523892343
 40
0.9832583776607976
 40
1.0
 40
1.0
 40
1.0
 40
1.0
 10
282.5477785066975
 20
118.3696145883065
 30
0.0
 10
282.5452501357345
 20
118.3664763973804
 30
0.0
 10
282.530867157898
 20
118.3486243767716
 30
0.0
 10
282.5943124591374
 20
118.4276873370754
 30
0.0
 10
282.7494202409088
 20
118.6121745469768
 30
0.0
 10
283.0377171219746
 20
118.9321526780666
 30
0.0
 10
283.4701512354339
 20
119.3566011877332
 30
0.0
 10
284.0245839350317
 20
119.8192656974369
 30
0.0
 10
284.6674795042948
 20
120.25974571075
 30
0.0
 10
285.3669164259874
 20
120.6378066402344
 30
0.0
 10
286.0889167468469
 20
120.941030171222
 30
0.0
 10
286.8666361358916
 20
121.1594292891178
 30
0.0
 10
287.4546846087014
 20
121.2808290489604
 30
0.0
 10
287.7842747872139
 20
121.2941288763073
 30
0.0
 10
287.8357270258362
 20
121.296205108959
 30
0.0
  0
SPLINE
  5
1C1
330
1F
100
AcDbEntity
  8
0
  6
Continuous
 62
     7
370
    25
100
AcDbSpline
210
0.0
220
0.0
230
1.0
 70
     8
 71
     3
 72
    19
 73
    15
 74
     0
 42
0.00000001
 43
0.00000001
 40
0.0
 40
0.0
 40
0.0
 40
0.0
 40
0.0313543496269446
 40
0.0973973684921412
 40
0.1974115022097763
 40
0.2975379019539016
 40
0.4181262162453708
 40
0.538810973839721
 40
0.6564427314597319
 40
0.7739080937378405
 40
0.850443121712466
 40
0.9268774396041435
 40
0.9967447548685623
 40
1.0
 40
1.0
 40
1.0
 40
1.0
 10
289.0523242307261
 20
121.2917033847843
 30
0.0
 10
289.148196152349
 20
121.2864833452515
 30
0.0
 10
289.4460072372369
 20
121.2702681113217
 30
0.0
 10
290.0288926391724
 20
121.1558956464664
 30
0.0
 10
290.7781369777682
 20
120.9466231408012
 30
0.0
 10
291.5986017028688
 20
120.602301249119
 30
0.0
 10
292.3657483919259
 20
120.1667022044263
 30
0.0
 10
293.047038975652
 20
119.6713033231867
 30
0.0
 10
293.597749110873
 20
119.1809072407944
 30
0.0
 10
293.9664865361065
 20
118.7979513763215
 30
0.0
 10
294.1945121969082
 20
118.5371990715383
 30
0.0
 10
294.305617087682
 20
118.4027434865349
 30
0.0
 10
294.3495939824043
 20
118.348844796421
 30
0.0
 10
294.3386705084312
 20
118.3621763680533
 30
0.0
 10
294.3381842209534
 20
118.362769858399
 30
0.0
  0
LINE
  5
1C2
330
1F
100
AcDbEntity
  8
0
  6
Continuous
 62
     7
370
    25
100
AcDbLine
 10
284.9401270208
 20
138.9302010325
 30
0.0
 11
282.9401270208
 21
138.9302010325
 31
0.0
  0
LINE
  5
1C3
330
1F
100
AcDbEntity
  8
0
  6
Continuous
 62
     7
370
    25
100
AcDbLine
 10
293.9401270208
 20
138.9302010325
 30
0.0
 11
291.9401270208
 21
138.9302010325
 31
0.0
  0
INSERT
  5
1CF
330
1F
100
AcDbEntity
  8
FORMAT
100
AcDbBlockReference
  2
SW_CENTERMARKSYMBOL_0
 10
288.4401270208
 20
111.8302010325
 30
0.0
  0
LINE
  5
1D0
330
1F
100
AcDbEntity
  8
0
  6
Continuous
 62
     7
370
    25
100
AcDbLine
 10
219.2944786732
 20
167.4493294142
 30
0.0
 11
219.4388162405
 21
167.6993294142
 31
0.0
  0
LINE
  5
1D1
330
1F
100
AcDbEntity
  8
0
  6
Continuous
 62
     7
370
    25
100
AcDbLine
 10
219.4388162405
 20
184.1993294142
 30
0.0
 11
219.2944786732
 21
184.4493294142
 31
0.0
  0
LINE
  5
1D2
330
1F
100
AcDbEntity
  8
0
  6
Continuous
 62
     7
370
    25
100
AcDbLine
 10
193.1388162405
 20
183.9493294142
 30
0.0
 11
192.9388162405
 21
183.7493294142
 31
0.0
  0
LINE
  5
1D3
330
1F
100
AcDbEntity
  8
0
  6
Continuous
 62
     7
370
    25
100
AcDbLine
 10
192.9388162405
 20
168.1493294142
 30
0.0
 11
193.1388162405
 21
167.9493294142
 31
0.0
  0
LINE
  5
1D4
330
1F
100
AcDbEntity
  8
0
  6
Continuous
 62
     7
370
    25
100
AcDbLine
 10
195.9388162405
 20
183.9493294142
 30
0.0
 11
193.1388162405
 21
183.9493294142
 31
0.0
  0
LINE
  5
1D5
330
1F
100
AcDbEntity
  8
0
  6
Continuous
 62
     7
370
    25
100
AcDbLine
 10
193.1388162405
 20
167.9493294142
 30
0.0
 11
195.9388162405
 21
167.9493294142
 31
0.0
  0
LINE
  5
1D6
330
1F
100
AcDbEntity
  8
0
  6
Continuous
 62
     7
370
    25
100
AcDbLine
 10
183.4388162405
 20
182.4493294142
 30
0.0
 11
182.9388162405
 21
181.9493294142
 31
0.0
  0
LINE
  5
1D7
330
1F
100
AcDbEntity
  8
0
  6
Continuous
 62
     7
370
    25
100
AcDbLine
 10
182.9388162405
 20
169.9493294142
 30
0.0
 11
183.4388162405
 21
169.4493294142
 31
0.0
  0
LINE
  5
1D8
330
1F
100
AcDbEntity
  8
0
  6
Continuous
 62
     7
370
    25
100
AcDbLine
 10
192.9388162405
 20
182.4493294142
 30
0.0
 11
183.4388162405
 21
182.4493294142
 31
0.0
  0
LINE
  5
1D9
330
1F
100
AcDbEntity
  8
0
  6
Continuous
 62
     7
370
    25
100
AcDbLine
 10
183.4388162405
 20
169.4493294142
 30
0.0
 11
192.9388162405
 21
169.4493294142
 31
0.0
  0
SPLINE
  5
1DA
330
1F
100
AcDbEntity
  8
0
  6
Continuous
 62
     7
370
    25
100
AcDbSpline
210
0.0
220
0.0
230
1.0
 70
    24
 71
     3
 72
    10
 73
     6
 74
     0
 42
0.00000001
 43
0.00000001
 40
0.0
 40
0.0
 40
0.0
 40
0.0
 40
0.3696315591092578
 40
0.7423087816537998
 40
0.9999999999999999
 40
0.9999999999999999
 40
0.9999999999999999
 40
0.9999999999999999
 10
218.6167572679149
 20
167.4493294142395
 30
0.0
 10
218.7579598573992
 20
167.4493294142395
 30
0.0
 10
219.0415285072706
 20
167.4493294142395
 30
0.0
 10
219.2606628161625
 20
167.4493294142395
 30
0.0
 10
219.2830537440468
 20
167.4493294142395
 30
0.0
 10
219.2922070345863
 20
167.4493294142395
 30
0.0
  0
SPLINE
  5
1DB
330
1F
100
AcDbEntity
  8
0
  6
Continuous
 62
     7
370
    25
100
AcDbSpline
210
0.0
220
0.0
230
1.0
 70
     8
 71
     3
 72
    10
 73
     6
 74
     0
 42
0.00000001
 43
0.00000001
 40
0.0
 40
0.0
 40
0.0
 40
0.0
 40
0.5
 40
0.5
 40
1.0
 40
1.0
 40
1.0
 40
1.0
 10
218.6167572679149
 20
167.6993294142395
 30
0.0
 10
218.5930818734905
 20
167.6249490368621
 30
0.0
 10
218.5799907636058
 20
167.5606483980763
 30
0.0
 10
218.5799044423176
 20
167.4724327132934
 30
0.0
 10
218.5930733762614
 20
167.4493294142395
 30
0.0
 10
218.6167572679149
 20
167.4493294142395
 30
0.0
  0
SPLINE
  5
1DC
330
1F
100
AcDbEntity
  8
0
  6
Continuous
 62
     7
370
    25
100
AcDbSpline
210
0.0
220
0.0
230
1.0
 70
     8
 71
     3
 72
    12
 73
     8
 74
     0
 42
0.00000001
 43
0.00000001
 40
0.0
 40
0.0
 40
0.0
 40
0.0
 40
0.0534260789738017
 40
0.2881285786769552
 40
0.5228602282918263
 40
0.7614105850343766
 40
1.0
 40
1.0
 40
1.0
 40
1.0
 10
219.2855239013937
 20
171.6088665074783
 30
0.0
 10
219.2876794161068
 20
171.5382788664953
 30
0.0
 10
219.2993041769455
 20
171.1575974266584
 30
0.0
 10
219.2335285106702
 20
170.467214702828
 30
0.0
 10
219.0998589005185
 20
169.5390025018401
 30
0.0
 10
218.8929234297406
 20
168.6144945281778
 30
0.0
 10
218.708817678766
 20
168.004401099448
 30
0.0
 10
218.6167572679149
 20
167.6993294142395
 30
0.0
  0
SPLINE
  5
1DD
330
1F
100
AcDbEntity
  8
0
  6
Continuous
 62
     7
370
    25
100
AcDbSpline
210
0.0
220
0.0
230
1.0
 70
     8
 71
     3
 72
    11
 73
     7
 74
     0
 42
0.00000001
 43
0.00000001
 40
0.0
 40
0.0
 40
0.0
 40
0.0
 40
0.2728554918221553
 40
0.545643850356855
 40
0.8240927209587009
 40
1.0
 40
1.0
 40
1.0
 40
1.0
 10
218.6167572679149
 20
184.1993294142395
 30
0.0
 10
218.7213104992952
 20
183.8513753150052
 30
0.0
 10
218.9303912378086
 20
183.155552727064
 30
0.0
 10
219.1485653130968
 20
182.0859512774996
 30
0.0
 10
219.275767577612
 20
181.1326217160903
 30
0.0
 10
219.2796301498485
 20
180.5338788180945
 30
0.0
 10
219.2811255727073
 20
180.3020711621081
 30
0.0
  0
SPLINE
  5
1DE
330
1F
100
AcDbEntity
  8
0
  6
Continuous
 62
     7
370
    25
100
AcDbSpline
210
0.0
220
0.0
230
1.0
 70
     8
 71
     3
 72
    10
 73
     6
 74
     0
 42
0.00000001
 43
0.00000001
 40
0.0
 40
0.0
 40
0.0
 40
0.0
 40
0.5
 40
0.5
 40
1.0
 40
1.0
 40
1.0
 40
1.0
 10
218.6167572679149
 20
184.4493294142395
 30
0.0
 10
218.5930818734905
 20
184.4493294142395
 30
0.0
 10
218.5799907636058
 20
184.4265369649096
 30
0.0
 10
218.5799044423176
 20
184.3385942608166
 30
0.0
 10
218.5930733762614
 20
184.2737364871427
 30
0.0
 10
218.6167572679149
 20
184.1993294142395
 30
0.0
  0
SPLINE
  5
1DF
330
1F
100
AcDbEntity
  8
0
  6
Continuous
 62
     7
370
    25
100
AcDbSpline
210
0.0
220
0.0
230
1.0
 70
    24
 71
     3
 72
    10
 73
     6
 74
     0
 42
0.00000001
 43
0.00000001
 40
0.0
 40
0.0
 40
0.0
 40
0.0
 40
0.2576880169931979
 40
0.6270662118498459
 40
1.0
 40
1.0
 40
1.0
 40
1.0
 10
219.2908655812997
 20
184.4493294142395
 30
0.0
 10
219.282262632684
 20
184.4493294142395
 30
0.0
 10
219.261327944055
 20
184.4493294142395
 30
0.0
 10
219.0423628269946
 20
184.4493294142395
 30
0.0
 10
218.7590780885899
 20
184.4493294142395
 30
0.0
 10
218.6167572679149
 20
184.4493294142395
 30
0.0
  0
LINE
  5
1E0
330
1F
100
AcDbEntity
  8
0
  6
Continuous
 62
     7
370
    25
100
AcDbLine
 10
219.4388162405
 20
184.1993294142
 30
0.0
 11
219.4388162405
 21
180.2507275239
 31
0.0
  0
LINE
  5
1E1
330
1F
100
AcDbEntity
  8
0
  6
Continuous
 62
     7
370
    25
100
AcDbLine
 10
219.4388162405
 20
171.6479313046
 30
0.0
 11
219.4388162405
 21
167.6993294142
 31
0.0
  0
SPLINE
  5
1E2
330
1F
100
AcDbEntity
  8
0
  6
Continuous
 62
     7
370
    25
100
AcDbSpline
210
0.0
220
0.0
230
1.0
 70
     8
 71
     3
 72
    10
 73
     6
 74
     0
 42
0.00000001
 43
0.00000001
 40
0.0
 40
0.0
 40
0.0
 40
0.0
 40
0.5
 40
0.5
 40
1.0
 40
1.0
 40
1.0
 40
1.0
 10
196.6165376457327
 20
176.1993294142394
 30
0.0
 10
196.6402112502238
 20
176.1249546602494
 30
0.0
 10
196.653304026017
 20
176.0378609286835
 30
0.0
 10
196.653390594118
 20
175.861695100139
 30
0.0
 10
196.6402207699947
 20
175.7737340762487
 30
0.0
 10
196.6165376457327
 20
175.6993294142394
 30
0.0
  0
SPLINE
  5
1E3
330
1F
100
AcDbEntity
  8
0
  6
Continuous
 62
     7
370
    25
100
AcDbSpline
210
0.0
220
0.0
230
1.0
 70
     8
 71
     3
 72
    12
 73
     8
 74
     0
 42
0.00000001
 43
0.00000001
 40
0.0
 40
0.0
 40
0.0
 40
0.0
 40
0.2499999999999999
 40
0.2499999999999999
 40
0.5
 40
0.5
 40
1.0
 40
1.0
 40
1.0
 40
1.0
 10
195.9388162404725
 20
171.6993294142394
 30
0.0
 10
195.9388162404725
 20
172.0370853492622
 30
0.0
 10
195.9545625704944
 20
172.3774933641407
 30
0.0
 10
196.0160075950799
 20
173.0519880485411
 30
0.0
 10
196.0615963543336
 20
173.3871133674084
 30
0.0
 10
196.2380473565902
 20
174.3868246857485
 30
0.0
 10
196.4085050585537
 20
175.0457587888138
 30
0.0
 10
196.6165376457325
 20
175.6993294142395
 30
0.0
  0
LINE
  5
1E4
330
1F
100
AcDbEntity
  8
0
  6
Continuous
 62
     7
370
    25
100
AcDbLine
 10
195.9388162405
 20
180.1993294142
 30
0.0
 11
195.9388162405
 21
171.6993294142
 31
0.0
  0
SPLINE
  5
1E5
330
1F
100
AcDbEntity
  8
0
  6
Continuous
 62
     7
370
    25
100
AcDbSpline
210
0.0
220
0.0
230
1.0
 70
     8
 71
     3
 72
    10
 73
     6
 74
     0
 42
0.00000001
 43
0.00000001
 40
0.0
 40
0.0
 40
0.0
 40
0.0
 40
0.5
 40
0.5
 40
1.0
 40
1.0
 40
1.0
 40
1.0
 10
196.6165376457322
 20
176.1993294142394
 30
0.0
 10
196.407727721066
 20
176.8553421808445
 30
0.0
 10
196.2371935813187
 20
177.5156090877022
 30
0.0
 10
196.0024077762998
 20
178.8479556063372
 30
0.0
 10
195.9388162404725
 20
179.5201085878246
 30
0.0
 10
195.9388162404725
 20
180.1993294142394
 30
0.0
  0
SPLINE
  5
1E6
330
1F
100
AcDbEntity
  8
0
  6
Continuous
 62
     7
370
    25
100
AcDbSpline
210
0.0
220
0.0
230
1.0
 70
     8
 71
     3
 72
    10
 73
     6
 74
     0
 42
0.00000001
 43
0.00000001
 40
0.0
 40
0.0
 40
0.0
 40
0.0
 40
0.3155879045104457
 40
0.6577659395827478
 40
1.0
 40
1.0
 40
1.0
 40
1.0
 10
213.5157726796465
 20
181.4881801882423
 30
0.0
 10
213.5545217316446
 20
181.7770473899091
 30
0.0
 10
213.6352846703731
 20
182.3791205479844
 30
0.0
 10
213.8409994179258
 20
183.2840740965028
 30
0.0
 10
214.0246865576436
 20
183.8942276594573
 30
0.0
 10
214.1165376457327
 20
184.1993294142395
 30
0.0
  0
LINE
  5
1E7
330
1F
100
AcDbEntity
  8
0
  6
Continuous
 62
     7
370
    25
100
AcDbLine
 10
218.6167572679
 20
184.1993294142
 30
0.0
 11
214.1165376457
 21
184.1993294142
 31
0.0
  0
SPLINE
  5
1E8
330
1F
100
AcDbEntity
  8
0
  6
Continuous
 62
     7
370
    25
100
AcDbSpline
210
0.0
220
0.0
230
1.0
 70
     8
 71
     3
 72
    12
 73
     8
 74
     0
 42
0.00000001
 43
0.00000001
 40
0.0
 40
0.0
 40
0.0
 40
0.0
 40
0.2500000000000001
 40
0.2500000000000001
 40
0.5000000000000002
 40
0.5000000000000002
 40
1.0
 40
1.0
 40
1.0
 40
1.0
 10
195.9388162404725
 20
180.1993294142394
 30
0.0
 10
195.9388162404725
 20
180.5370853492622
 30
0.0
 10
195.9545625704944
 20
180.8774933641407
 30
0.0
 10
196.0160075950799
 20
181.5519880485411
 30
0.0
 10
196.0615963543336
 20
181.8871133674084
 30
0.0
 10
196.2380473565902
 20
182.8868246857485
 30
0.0
 10
196.4085050585537
 20
183.5457587888138
 30
0.0
 10
196.6165376457325
 20
184.1993294142395
 30
0.0
  0
LINE
  5
1E9
330
1F
100
AcDbEntity
  8
0
  6
Continuous
 62
     7
370
    25
100
AcDbLine
 10
200.7610948352
 20
184.1993294142
 30
0.0
 11
196.6165376457
 21
184.1993294142
 31
0.0
  0
SPLINE
  5
1EA
330
1F
100
AcDbEntity
  8
0
  6
Continuous
 62
     7
370
    25
100
AcDbSpline
210
0.0
220
0.0
230
1.0
 70
     8
 71
     3
 72
    11
 73
     7
 74
     0
 42
0.00000001
 43
0.00000001
 40
0.0
 40
0.0
 40
0.0
 40
0.0
 40
0.2572636051886501
 40
0.5144763153639695
 40
0.7761723488446675
 40
1.0
 40
1.0
 40
1.0
 40
1.0
 10
200.7610948352123
 20
184.1993294142395
 30
0.0
 10
200.858857425882
 20
183.8750755613342
 30
0.0
 10
201.0543632666376
 20
183.2266320033621
 30
0.0
 10
201.2666810060232
 20
182.2320756714164
 30
0.0
 10
201.405517391734
 20
181.2709345840929
 30
0.0
 10
201.4236257389865
 20
180.6385420758589
 30
0.0
 10
201.4319737330392
 20
180.3470075241874
 30
0.0
  0
SPLINE
  5
1EB
330
1F
100
AcDbEntity
  8
0
  6
Continuous
 62
     7
370
    25
100
AcDbSpline
210
0.0
220
0.0
230
1.0
 70
     8
 71
     3
 72
    12
 73
     8
 74
     0
 42
0.00000001
 43
0.00000001
 40
0.0
 40
0.0
 40
0.0
 40
0.0
 40
0.0399894811454186
 40
0.2780235781256331
 40
0.5160872387999768
 40
0.7580238130731052
 40
1.0
 40
1.0
 40
1.0
 40
1.0
 10
201.4368201742339
 20
171.5534114344343
 30
0.0
 10
201.4362693307655
 20
171.5013094464596
 30
0.0
 10
201.4324396368636
 20
171.1390746609798
 30
0.0
 10
201.3817646465597
 20
170.4672320865119
 30
0.0
 10
201.2431378967325
 20
169.5389977816808
 30
0.0
 10
201.0375274676885
 20
168.6144957163682
 30
0.0
 10
200.8532440744607
 20
168.004401495533
 30
0.0
 10
200.7610948352123
 20
167.6993294142395
 30
0.0
  0
LINE
  5
1EC
330
1F
100
AcDbEntity
  8
0
  6
Continuous
 62
     7
370
    25
100
AcDbLine
 10
196.6165376457
 20
167.6993294142
 30
0.0
 11
200.7610948352
 21
167.6993294142
 31
0.0
  0
SPLINE
  5
1ED
330
1F
100
AcDbEntity
  8
0
  6
Continuous
 62
     7
370
    25
100
AcDbSpline
210
0.0
220
0.0
230
1.0
 70
     8
 71
     3
 72
    10
 73
     6
 74
     0
 42
0.00000001
 43
0.00000001
 40
0.0
 40
0.0
 40
0.0
 40
0.0
 40
0.5
 40
0.5
 40
1.0
 40
1.0
 40
1.0
 40
1.0
 10
196.6165376457322
 20
167.6993294142394
 30
0.0
 10
196.407727721066
 20
168.3553421808445
 30
0.0
 10
196.2371935813187
 20
169.0156090877022
 30
0.0
 10
196.0024077762998
 20
170.3479556063372
 30
0.0
 10
195.9388162404725
 20
171.0201085878246
 30
0.0
 10
195.9388162404725
 20
171.6993294142394
 30
0.0
  0
LINE
  5
1EE
330
1F
100
AcDbEntity
  8
0
  6
Continuous
 62
     7
370
    25
100
AcDbLine
 10
214.1165376457
 20
167.6993294142
 30
0.0
 11
218.6167572679
 21
167.6993294142
 31
0.0
  0
SPLINE
  5
1EF
330
1F
100
AcDbEntity
  8
0
  6
Continuous
 62
     7
370
    25
100
AcDbSpline
210
0.0
220
0.0
230
1.0
 70
     8
 71
     3
 72
    10
 73
     6
 74
     0
 42
0.00000001
 43
0.00000001
 40
0.0
 40
0.0
 40
0.0
 40
0.0
 40
0.3653727514177445
 40
0.7306732203568209
 40
1.0
 40
1.0
 40
1.0
 40
1.0
 10
214.1165376457327
 20
167.6993294142394
 30
0.0
 10
214.0194712688927
 20
168.0236369628541
 30
0.0
 10
213.825357718063
 20
168.6721879016223
 30
0.0
 10
213.6232251820081
 20
169.5736751871895
 30
0.0
 10
213.5534846848315
 20
170.1526123115634
 30
0.0
 10
213.5238878095677
 20
170.3983049944286
 30
0.0
  0
LINE
  5
1F0
330
1F
100
AcDbEntity
  8
0
  6
Continuous
 62
     7
370
    25
100
AcDbLine
 10
213.4388162405
 20
170.4045138103
 30
0.0
 11
213.4388162405
 21
168.4493294142
 31
0.0
  0
LINE
  5
1F1
330
1F
100
AcDbEntity
  8
0
  6
Continuous
 62
     7
370
    25
100
AcDbLine
 10
213.4388162405
 20
168.4493294142
 30
0.0
 11
201.4388162405
 21
168.4493294142
 31
0.0
  0
LINE
  5
1F2
330
1F
100
AcDbEntity
  8
0
  6
Continuous
 62
     7
370
    25
100
AcDbLine
 10
201.4388162405
 20
171.5331659209
 30
0.0
 11
201.4388162405
 21
168.4493294142
 31
0.0
  0
LINE
  5
1F3
330
1F
100
AcDbEntity
  8
0
  6
Continuous
 62
     7
370
    25
100
AcDbLine
 10
201.4388162405
 20
183.4493294142
 30
0.0
 11
201.4388162405
 21
180.3654929076
 31
0.0
  0
LINE
  5
1F4
330
1F
100
AcDbEntity
  8
0
  6
Continuous
 62
     7
370
    25
100
AcDbLine
 10
201.4388162405
 20
183.4493294142
 30
0.0
 11
213.4388162405
 21
183.4493294142
 31
0.0
  0
LINE
  5
1F5
330
1F
100
AcDbEntity
  8
0
  6
Continuous
 62
     7
370
    25
100
AcDbLine
 10
213.4388162405
 20
183.4493294142
 30
0.0
 11
213.4388162405
 21
181.4941450182
 31
0.0
  0
SPLINE
  5
1F6
330
1F
100
AcDbEntity
  8
0
  6
Continuous
 62
     7
370
    25
100
AcDbSpline
210
0.0
220
0.0
230
1.0
 70
     8
 71
     3
 72
     8
 73
     4
 74
     0
 42
0.00000001
 43
0.00000001
 40
0.0
 40
0.0
 40
0.0
 40
0.0
 40
1.0
 40
1.0
 40
1.0
 40
1.0
 10
200.9225801634933
 20
184.4493294142395
 30
0.0
 10
201.0962832397131
 20
184.1168179921039
 30
0.0
 10
201.2685854587758
 20
183.7834908922051
 30
0.0
 10
201.4388162404725
 20
183.4493294142394
 30
0.0
  0
SPLINE
  5
1F7
330
1F
100
AcDbEntity
  8
0
  6
Continuous
 62
     7
370
    25
100
AcDbSpline
210
0.0
220
0.0
230
1.0
 70
     8
 71
     3
 72
    10
 73
     6
 74
     0
 42
0.00000001
 43
0.00000001
 40
0.0
 40
0.0
 40
0.0
 40
0.0
 40
0.5
 40
0.5
 40
1.0
 40
1.0
 40
1.0
 40
1.0
 10
200.7610948352179
 20
184.4493294142395
 30
0.0
 10
200.7374194407936
 20
184.4493294142395
 30
0.0
 10
200.7243283309033
 20
184.42653696491
 30
0.0
 10
200.7242420096149
 20
184.3385942608169
 30
0.0
 10
200.7374109435588
 20
184.2737364871429
 30
0.0
 10
200.7610948352122
 20
184.1993294142395
 30
0.0
  0
SPLINE
  5
1F8
330
1F
100
AcDbEntity
  8
0
  6
Continuous
 62
     7
370
    25
100
AcDbSpline
210
0.0
220
0.0
230
1.0
 70
    24
 71
     3
 72
     8
 73
     4
 74
     0
 42
0.00000001
 43
0.00000001
 40
0.0
 40
0.0
 40
0.0
 40
0.0
 40
1.0
 40
1.0
 40
1.0
 40
1.0
 10
200.9225801634933
 20
184.4493294142395
 30
0.0
 10
200.8716814465709
 20
184.4493294142395
 30
0.0
 10
200.8177473103203
 20
184.4493294142395
 30
0.0
 10
200.7610948352127
 20
184.4493294142395
 30
0.0
  0
SPLINE
  5
1F9
330
1F
100
AcDbEntity
  8
0
  6
Continuous
 62
     7
370
    25
100
AcDbSpline
210
0.0
220
0.0
230
1.0
 70
     8
 71
     3
 72
     8
 73
     4
 74
     0
 42
0.00000001
 43
0.00000001
 40
0.0
 40
0.0
 40
0.0
 40
0.0
 40
1.0
 40
1.0
 40
1.0
 40
1.0
 10
213.4388162404725
 20
183.4493294142394
 30
0.0
 10
213.6090938478162
 20
183.7835828105248
 30
0.0
 10
213.7813655964419
 20
184.1168493000937
 30
0.0
 10
213.9550523174515
 20
184.4493294142392
 30
0.0
  0
SPLINE
  5
1FA
330
1F
100
AcDbEntity
  8
0
  6
Continuous
 62
     7
370
    25
100
AcDbSpline
210
0.0
220
0.0
230
1.0
 70
    24
 71
     3
 72
     8
 73
     4
 74
     0
 42
0.00000001
 43
0.00000001
 40
0.0
 40
0.0
 40
0.0
 40
0.0
 40
1.0
 40
1.0
 40
1.0
 40
1.0
 10
213.9550523174511
 20
184.4493294142395
 30
0.0
 10
214.0059485507064
 20
184.4493294142395
 30
0.0
 10
214.0598825056702
 20
184.4493294142395
 30
0.0
 10
214.1165376457327
 20
184.4493294142395
 30
0.0
  0
SPLINE
  5
1FB
330
1F
100
AcDbEntity
  8
0
  6
Continuous
 62
     7
370
    25
100
AcDbSpline
210
0.0
220
0.0
230
1.0
 70
     8
 71
     3
 72
    10
 73
     6
 74
     0
 42
0.00000001
 43
0.00000001
 40
0.0
 40
0.0
 40
0.0
 40
0.0
 40
0.5
 40
0.5
 40
1.0
 40
1.0
 40
1.0
 40
1.0
 10
214.1165376457327
 20
184.1993294142395
 30
0.0
 10
214.1402130401571
 20
184.2737097916168
 30
0.0
 10
214.1533041500417
 20
184.3380104304025
 30
0.0
 10
214.15339047133
 20
184.4262261151855
 30
0.0
 10
214.1402215373862
 20
184.4493294142395
 30
0.0
 10
214.1165376457327
 20
184.4493294142395
 30
0.0
  0
SPLINE
  5
1FC
330
1F
100
AcDbEntity
  8
0
  6
Continuous
 62
     7
370
    25
100
AcDbSpline
210
0.0
220
0.0
230
1.0
 70
     8
 71
     3
 72
    10
 73
     6
 74
     0
 42
0.00000001
 43
0.00000001
 40
0.0
 40
0.0
 40
0.0
 40
0.0
 40
0.5
 40
0.5
 40
1.0
 40
1.0
 40
1.0
 40
1.0
 10
196.6165376457327
 20
184.4493294142395
 30
0.0
 10
196.6402115462886
 20
184.4493294142395
 30
0.0
 10
196.6533041034678
 20
184.426538842592
 30
0.0
 10
196.65339051745
 20
184.3385928452932
 30
0.0
 10
196.6402201258514
 20
184.2737320525604
 30
0.0
 10
196.6165376457327
 20
184.1993294142395
 30
0.0
  0
SPLINE
  5
1FD
330
1F
100
AcDbEntity
  8
0
  6
Continuous
 62
     7
370
    25
100
AcDbSpline
210
0.0
220
0.0
230
1.0
 70
    24
 71
     3
 72
    12
 73
     8
 74
     0
 42
0.00000001
 43
0.00000001
 40
0.0
 40
0.0
 40
0.0
 40
0.0
 40
0.2499999999999999
 40
0.2499999999999999
 40
0.4999999999999998
 40
0.4999999999999998
 40
1.0
 40
1.0
 40
1.0
 40
1.0
 10
195.9388162404725
 20
184.4493294142395
 30
0.0
 10
195.9388162404725
 20
184.4493294142395
 30
0.0
 10
195.9548150454536
 20
184.4493294142395
 30
0.0
 10
196.0165851837679
 20
184.4493294142395
 30
0.0
 10
196.0623273080695
 20
184.4493294142395
 30
0.0
 10
196.2389974554164
 20
184.4493294142395
 30
0.0
 10
196.4092525208967
 20
184.4493294142395
 30
0.0
 10
196.6165376457327
 20
184.4493294142395
 30
0.0
  0
LINE
  5
1FE
330
1F
100
AcDbEntity
  8
0
  6
Continuous
 62
     7
370
    25
100
AcDbLine
 10
195.9388162405
 20
184.4493294142
 30
0.0
 11
195.9388162405
 21
180.1993294142
 31
0.0
  0
SPLINE
  5
1FF
330
1F
100
AcDbEntity
  8
0
  6
Continuous
 62
     7
370
    25
100
AcDbSpline
210
0.0
220
0.0
230
1.0
 70
     8
 71
     3
 72
     8
 73
     4
 74
     0
 42
0.00000001
 43
0.00000001
 40
0.0
 40
0.0
 40
0.0
 40
0.0
 40
1.0
 40
1.0
 40
1.0
 40
1.0
 10
213.9550523174516
 20
167.4493294142394
 30
0.0
 10
213.7813492412319
 20
167.7818408363749
 30
0.0
 10
213.6090470221692
 20
168.1151679362738
 30
0.0
 10
213.4388162404725
 20
168.4493294142395
 30
0.0
  0
SPLINE
  5
200
330
1F
100
AcDbEntity
  8
0
  6
Continuous
 62
     7
370
    25
100
AcDbSpline
210
0.0
220
0.0
230
1.0
 70
     8
 71
     3
 72
    10
 73
     6
 74
     0
 42
0.00000001
 43
0.00000001
 40
0.0
 40
0.0
 40
0.0
 40
0.0
 40
0.5
 40
0.5
 40
1.0
 40
1.0
 40
1.0
 40
1.0
 10
214.1165376457327
 20
167.4493294142395
 30
0.0
 10
214.1402130401571
 20
167.4493294142395
 30
0.0
 10
214.1533041500417
 20
167.4721218635692
 30
0.0
 10
214.15339047133
 20
167.5600645676623
 30
0.0
 10
214.1402215373862
 20
167.6249223413361
 30
0.0
 10
214.1165376457327
 20
167.6993294142394
 30
0.0
  0
SPLINE
  5
201
330
1F
100
AcDbEntity
  8
0
  6
Continuous
 62
     7
370
    25
100
AcDbSpline
210
0.0
220
0.0
230
1.0
 70
    24
 71
     3
 72
     8
 73
     4
 74
     0
 42
0.00000001
 43
0.00000001
 40
0.0
 40
0.0
 40
0.0
 40
0.0
 40
1.0
 40
1.0
 40
1.0
 40
1.0
 10
213.9550523174516
 20
167.4493294142395
 30
0.0
 10
214.0059485507068
 20
167.4493294142395
 30
0.0
 10
214.0598825056704
 20
167.4493294142395
 30
0.0
 10
214.1165376457327
 20
167.4493294142395
 30
0.0
  0
SPLINE
  5
202
330
1F
100
AcDbEntity
  8
0
  6
Continuous
 62
     7
370
    25
100
AcDbSpline
210
0.0
220
0.0
230
1.0
 70
     8
 71
     3
 72
     8
 73
     4
 74
     0
 42
0.00000001
 43
0.00000001
 40
0.0
 40
0.0
 40
0.0
 40
0.0
 40
1.0
 40
1.0
 40
1.0
 40
1.0
 10
201.4388162404725
 20
168.4493294142395
 30
0.0
 10
201.2685386331287
 20
168.115076017954
 30
0.0
 10
201.096266884503
 20
167.781809528385
 30
0.0
 10
200.9225801634933
 20
167.4493294142395
 30
0.0
  0
SPLINE
  5
203
330
1F
100
AcDbEntity
  8
0
  6
Continuous
 62
     7
370
    25
100
AcDbSpline
210
0.0
220
0.0
230
1.0
 70
    24
 71
     3
 72
     8
 73
     4
 74
     0
 42
0.00000001
 43
0.00000001
 40
0.0
 40
0.0
 40
0.0
 40
0.0
 40
1.0
 40
1.0
 40
1.0
 40
1.0
 10
200.9225801634933
 20
167.4493294142395
 30
0.0
 10
200.8716814465708
 20
167.4493294142395
 30
0.0
 10
200.81774731032
 20
167.4493294142395
 30
0.0
 10
200.7610948352123
 20
167.4493294142395
 30
0.0
  0
SPLINE
  5
204
330
1F
100
AcDbEntity
  8
0
  6
Continuous
 62
     7
370
    25
100
AcDbSpline
210
0.0
220
0.0
230
1.0
 70
     8
 71
     3
 72
    10
 73
     6
 74
     0
 42
0.00000001
 43
0.00000001
 40
0.0
 40
0.0
 40
0.0
 40
0.0
 40
0.5
 40
0.5
 40
1.0
 40
1.0
 40
1.0
 40
1.0
 10
200.7610948352123
 20
167.6993294142395
 30
0.0
 10
200.7374194407879
 20
167.6249490368621
 30
0.0
 10
200.7243283309033
 20
167.5606483980763
 30
0.0
 10
200.724242009615
 20
167.4724327132934
 30
0.0
 10
200.7374109435588
 20
167.4493294142395
 30
0.0
 10
200.7610948352123
 20
167.4493294142395
 30
0.0
  0
SPLINE
  5
205
330
1F
100
AcDbEntity
  8
0
  6
Continuous
 62
     7
370
    25
100
AcDbSpline
210
0.0
220
0.0
230
1.0
 70
     8
 71
     3
 72
    10
 73
     6
 74
     0
 42
0.00000001
 43
0.00000001
 40
0.0
 40
0.0
 40
0.0
 40
0.0
 40
0.5
 40
0.5
 40
1.0
 40
1.0
 40
1.0
 40
1.0
 10
196.6165376457327
 20
167.6993294142395
 30
0.0
 10
196.6402098856442
 20
167.6249589473139
 30
0.0
 10
196.6533038755795
 20
167.560653351026
 30
0.0
 10
196.6533907430409
 20
167.4724305632202
 30
0.0
 10
196.6402209532816
 20
167.4493294142395
 30
0.0
 10
196.6165376457327
 20
167.4493294142395
 30
0.0
  0
SPLINE
  5
206
330
1F
100
AcDbEntity
  8
0
  6
Continuous
 62
     7
370
    25
100
AcDbSpline
210
0.0
220
0.0
230
1.0
 70
    24
 71
     3
 72
    12
 73
     8
 74
     0
 42
0.00000001
 43
0.00000001
 40
0.0
 40
0.0
 40
0.0
 40
0.0
 40
0.2500000000000001
 40
0.2500000000000001
 40
0.5000000000000001
 40
0.5000000000000001
 40
1.0
 40
1.0
 40
1.0
 40
1.0
 10
195.9388162404725
 20
167.4493294142395
 30
0.0
 10
195.9388162404725
 20
167.4493294142395
 30
0.0
 10
195.9548150454536
 20
167.4493294142395
 30
0.0
 10
196.0165851837679
 20
167.4493294142395
 30
0.0
 10
196.0623273080695
 20
167.4493294142395
 30
0.0
 10
196.2389974554164
 20
167.4493294142395
 30
0.0
 10
196.4092525208967
 20
167.4493294142395
 30
0.0
 10
196.6165376457327
 20
167.4493294142395
 30
0.0
  0
LINE
  5
207
330
1F
100
AcDbEntity
  8
0
  6
Continuous
 62
     7
370
    25
100
AcDbLine
 10
195.9388162405
 20
167.4493294142
 30
0.0
 11
195.9388162405
 21
171.6993294142
 31
0.0
  0
LINE
  5
208
330
1F
100
AcDbEntity
  8
0
  6
Continuous
 62
     7
370
    25
100
AcDbLine
 10
214.1165376457
 20
184.4493294142
 30
0.0
 11
218.6167572679
 21
184.4493294142
 31
0.0
  0
LINE
  5
209
330
1F
100
AcDbEntity
  8
0
  6
Continuous
 62
     7
370
    25
100
AcDbLine
 10
196.6165376457
 20
184.4493294142
 30
0.0
 11
200.7610948352
 21
184.4493294142
 31
0.0
  0
LINE
  5
20A
330
1F
100
AcDbEntity
  8
0
  6
Continuous
 62
     7
370
    25
100
AcDbLine
 10
218.6167572679
 20
167.4493294142
 30
0.0
 11
214.1165376457
 21
167.4493294142
 31
0.0
  0
LINE
  5
20B
330
1F
100
AcDbEntity
  8
0
  6
Continuous
 62
     7
370
    25
100
AcDbLine
 10
200.7610948352
 20
167.4493294142
 30
0.0
 11
196.6165376457
 21
167.4493294142
 31
0.0
  0
LINE
  5
20C
330
1F
100
AcDbEntity
  8
0
  6
Continuous
 62
     7
370
    25
100
AcDbLine
 10
213.9550523175
 20
184.4493294142
 30
0.0
 11
200.9225801635
 21
184.4493294142
 31
0.0
  0
LINE
  5
20D
330
1F
100
AcDbEntity
  8
0
  6
Continuous
 62
     7
370
    25
100
AcDbLine
 10
213.9550523175
 20
167.4493294142
 30
0.0
 11
200.9225801635
 21
167.4493294142
 31
0.0
  0
SPLINE
  5
20E
330
1F
100
AcDbEntity
  8
0
  6
Continuous
 62
     7
370
    25
100
AcDbSpline
210
0.0
220
0.0
230
1.0
 70
     8
 71
     3
 72
    15
 73
    11
 74
     0
 42
0.00000001
 43
0.00000001
 40
0.0
 40
0.0
 40
0.0
 40
0.0
 40
0.0081667445812695
 40
0.3321939991490075
 40
0.4756279600585577
 40
0.6866830973284901
 40
0.8457435502264808
 40
0.8967566214763126
 40
0.9909540928118029
 40
1.0
 40
1.0
 40
1.0
 40
1.0
 10
212.5378357540653
 20
177.1993294142394
 30
0.0
 10
212.5383232882081
 20
177.2007668771784
 30
0.0
 10
212.5581544357402
 20
177.2592377351302
 30
0.0
 10
212.5864352157495
 20
177.3436629128497
 30
0.0
 10
212.6242645142383
 20
177.4582419848721
 30
0.0
 10
212.6508484108058
 20
177.5396128720687
 30
0.0
 10
212.6680182345608
 20
177.5926318640703
 30
0.0
 10
212.6758352307772
 20
177.6168337959145
 30
0.0
 10
212.6778309172131
 20
177.6230234165807
 30
0.0
 10
212.6778958811639
 20
177.6232248119933
 30
0.0
 10
212.6779015731306
 20
177.6232424577177
 30
0.0
  0
ARC
  5
20F
330
1F
100
AcDbEntity
  8
0
  6
Continuous
 62
     7
370
    25
100
AcDbCircle
 10
207.4388162405
 20
175.9493294142
 30
0.0
 40
5.250000000000009
100
AcDbArc
 50
13.774146998
 51
166.225853002
  0
SPLINE
  5
210
330
1F
100
AcDbEntity
  8
0
  6
Continuous
 62
     7
370
    25
100
AcDbSpline
210
0.0
220
0.0
230
1.0
 70
     8
 71
     3
 72
    15
 73
    11
 74
     0
 42
0.00000001
 43
0.00000001
 40
0.0
 40
0.0
 40
0.0
 40
0.0
 40
0.0090459071881971
 40
0.1032433785236816
 40
0.1542564497735189
 40
0.3133169026715102
 40
0.5243720399414394
 40
0.6678060008509896
 40
0.9918332554187292
 40
1.0
 40
1.0
 40
1.0
 40
1.0
 10
202.1997309078144
 20
177.6232424577177
 30
0.0
 10
202.1997365997811
 20
177.6232248119933
 30
0.0
 10
202.1998015637318
 20
177.6230234165807
 30
0.0
 10
202.2017972501677
 20
177.6168337959145
 30
0.0
 10
202.2096142463842
 20
177.5926318640703
 30
0.0
 10
202.2267840701391
 20
177.5396128720687
 30
0.0
 10
202.2533679667066
 20
177.4582419848721
 30
0.0
 10
202.2911972651954
 20
177.3436629128497
 30
0.0
 10
202.3194780452047
 20
177.2592377351302
 30
0.0
 10
202.3393091927368
 20
177.2007668771784
 30
0.0
 10
202.3397967268797
 20
177.1993294142394
 30
0.0
  0
ARC
  5
211
330
1F
100
AcDbEntity
  8
0
  6
Continuous
 62
     7
370
    25
100
AcDbCircle
 10
207.4388162405
 20
175.9493294142
 30
0.0
 40
5.500000000000029
100
AcDbArc
 50
17.7189318734
 51
162.2810681266
  0
SPLINE
  5
212
330
1F
100
AcDbEntity
  8
0
  6
Continuous
 62
     7
370
    25
100
AcDbSpline
210
0.0
220
0.0
230
1.0
 70
     8
 71
     3
 72
    15
 73
    11
 74
     0
 42
0.00000001
 43
0.00000001
 40
0.0
 40
0.0
 40
0.0
 40
0.0
 40
0.0090459071881971
 40
0.1032433785236875
 40
0.1542564497735247
 40
0.3133169026715109
 40
0.5243720399414432
 40
0.667806000850919
 40
0.9918332554187028
 40
1.0
 40
1.0
 40
1.0
 40
1.0
 10
212.6779015731306
 20
174.2754163707612
 30
0.0
 10
212.6778958811639
 20
174.2754340164857
 30
0.0
 10
212.6778309172131
 20
174.2756354118982
 30
0.0
 10
212.6758352307772
 20
174.2818250325644
 30
0.0
 10
212.6680182345608
 20
174.3060269644085
 30
0.0
 10
212.6508484108058
 20
174.3590459564102
 30
0.0
 10
212.6242645142383
 20
174.4404168436068
 30
0.0
 10
212.5864352157496
 20
174.5549959156293
 30
0.0
 10
212.5581544357394
 20
174.6394210933484
 30
0.0
 10
212.5383232882081
 20
174.6978919513004
 30
0.0
 10
212.5378357540653
 20
174.6993294142394
 30
0.0
  0
ARC
  5
213
330
1F
100
AcDbEntity
  8
0
  6
Continuous
 62
     7
370
    25
100
AcDbCircle
 10
207.4388162405
 20
175.9493294142
 30
0.0
 40
5.50000000000002
100
AcDbArc
 50
197.7189318734
 51
342.2810681266
  0
SPLINE
  5
214
330
1F
100
AcDbEntity
  8
0
  6
Continuous
 62
     7
370
    25
100
AcDbSpline
210
0.0
220
0.0
230
1.0
 70
     8
 71
     3
 72
    15
 73
    11
 74
     0
 42
0.00000001
 43
0.00000001
 40
0.0
 40
0.0
 40
0.0
 40
0.0
 40
0.0081667445812973
 40
0.3321939991490812
 40
0.4756279600585594
 40
0.6866830973284901
 40
0.8457435502264811
 40
0.8967566214763184
 40
0.9909540928118028
 40
1.0
 40
1.0
 40
1.0
 40
1.0
 10
202.3397967268797
 20
174.6993294142394
 30
0.0
 10
202.3393091927368
 20
174.6978919513004
 30
0.0
 10
202.3194780452055
 20
174.6394210933484
 30
0.0
 10
202.2911972651953
 20
174.5549959156293
 30
0.0
 10
202.2533679667067
 20
174.4404168436068
 30
0.0
 10
202.2267840701391
 20
174.3590459564102
 30
0.0
 10
202.2096142463842
 20
174.3060269644085
 30
0.0
 10
202.2017972501677
 20
174.2818250325644
 30
0.0
 10
202.1998015637318
 20
174.2756354118982
 30
0.0
 10
202.1997365997811
 20
174.2754340164857
 30
0.0
 10
202.1997309078144
 20
174.2754163707612
 30
0.0
  0
ARC
  5
215
330
1F
100
AcDbEntity
  8
0
  6
Continuous
 62
     7
370
    25
100
AcDbCircle
 10
207.4388162405
 20
175.9493294142
 30
0.0
 40
5.250000000000009
100
AcDbArc
 50
193.774146998
 51
346.225853002
  0
ARC
  5
216
330
1F
100
AcDbEntity
  8
0
  6
Continuous
 62
     7
370
    25
100
AcDbCircle
 10
201.9615906654
 20
177.6993294142
 30
0.0
 40
0.25
100
AcDbArc
 50
270.0
 51
342.2810681266
  0
SPLINE
  5
217
330
1F
100
AcDbEntity
  8
0
  6
Continuous
 62
     7
370
    25
100
AcDbSpline
210
0.0
220
0.0
230
1.0
 70
     8
 71
     3
 72
    15
 73
    11
 74
     0
 42
0.00000001
 43
0.00000001
 40
0.0
 40
0.0
 40
0.0
 40
0.0
 40
0.0080847466189819
 40
0.3310106400647581
 40
0.4750333064304993
 40
0.6874363079215137
 40
0.8468367539418307
 40
0.9000996640391851
 40
0.991044277198408
 40
1.0
 40
1.0
 40
1.0
 40
1.0
 10
202.3397967268797
 20
177.1993294142394
 30
0.0
 10
202.3385168953355
 20
177.2001453502277
 30
0.0
 10
202.2861172496118
 20
177.2335519004213
 30
0.0
 10
202.2107621581573
 20
177.2823654651562
 30
0.0
 10
202.1088430461396
 20
177.3497359374244
 30
0.0
 10
202.0364521011477
 20
177.3983199777679
 30
0.0
 10
201.9887466728828
 20
177.4307688392264
 30
0.0
 10
201.9672111891755
 20
177.4454798802927
 30
0.0
 10
201.961782173156
 20
177.4491983312108
 30
0.0
 10
201.9616064209994
 20
177.4493186298763
 30
0.0
 10
201.9615906654208
 20
177.4493294142394
 30
0.0
  0
SPLINE
  5
218
330
1F
100
AcDbEntity
  8
0
  6
Continuous
 62
     7
370
    25
100
AcDbSpline
210
0.0
220
0.0
230
1.0
 70
     8
 71
     3
 72
    15
 73
    11
 74
     0
 42
0.00000001
 43
0.00000001
 40
0.0
 40
0.0
 40
0.0
 40
0.0
 40
0.0080847466189581
 40
0.3310106400648237
 40
0.4750333064304936
 40
0.6874363079215092
 40
0.8468367539418249
 40
0.9000996640391791
 40
0.9910442771984082
 40
1.0
 40
1.0
 40
1.0
 40
1.0
 10
212.5378357540653
 20
174.6993294142394
 30
0.0
 10
212.5391155856094
 20
174.6985134782512
 30
0.0
 10
212.5915152313326
 20
174.6651069280566
 30
0.0
 10
212.6668703227878
 20
174.6162933633228
 30
0.0
 10
212.7687894348054
 20
174.5489228910545
 30
0.0
 10
212.8411803797973
 20
174.500338850711
 30
0.0
 10
212.8888858080622
 20
174.4678899892525
 30
0.0
 10
212.9104212917695
 20
174.4531789481862
 30
0.0
 10
212.915850307789
 20
174.4494604972681
 30
0.0
 10
212.9160260599455
 20
174.4493401986026
 30
0.0
 10
212.9160418155242
 20
174.4493294142394
 30
0.0
  0
ARC
  5
219
330
1F
100
AcDbEntity
  8
0
  6
Continuous
 62
     7
370
    25
100
AcDbCircle
 10
212.9160418155
 20
174.1993294142
 30
0.0
 40
0.25
100
AcDbArc
 50
90.0
 51
162.2810681266
  0
SPLINE
  5
21A
330
1F
100
AcDbEntity
  8
0
  6
Continuous
 62
     7
370
    25
100
AcDbSpline
210
0.0
220
0.0
230
1.0
 70
     8
 71
     3
 72
    15
 73
    11
 74
     0
 42
0.00000001
 43
0.00000001
 40
0.0
 40
0.0
 40
0.0
 40
0.0
 40
0.0089557228015919
 40
0.0999003359608152
 40
0.1531632460581696
 40
0.3125636920784856
 40
0.5249666935695051
 40
0.6689893599351772
 40
0.9919152533810449
 40
1.0
 40
1.0
 40
1.0
 40
1.0
 10
201.9615906654208
 20
174.4493294142394
 30
0.0
 10
201.9616064209994
 20
174.4493401986026
 30
0.0
 10
201.961782173156
 20
174.4494604972681
 30
0.0
 10
201.9672111891755
 20
174.4531789481862
 30
0.0
 10
201.9887466728828
 20
174.4678899892525
 30
0.0
 10
202.0364521011477
 20
174.500338850711
 30
0.0
 10
202.1088430461396
 20
174.5489228910545
 30
0.0
 10
202.2107621581572
 20
174.6162933633228
 30
0.0
 10
202.2861172496123
 20
174.6651069280567
 30
0.0
 10
202.3385168953356
 20
174.6985134782512
 30
0.0
 10
202.3397967268797
 20
174.6993294142394
 30
0.0
  0
ARC
  5
21B
330
1F
100
AcDbEntity
  8
0
  6
Continuous
 62
     7
370
    25
100
AcDbCircle
 10
201.9615906654
 20
174.1993294142
 30
0.0
 40
0.25
100
AcDbArc
 50
17.7189318734
 51
90.0
  0
ARC
  5
21C
330
1F
100
AcDbEntity
  8
0
  6
Continuous
 62
     7
370
    25
100
AcDbCircle
 10
212.9160418155
 20
177.6993294142
 30
0.0
 40
0.25
100
AcDbArc
 50
197.7189318734
 51
270.0
  0
SPLINE
  5
21D
330
1F
100
AcDbEntity
  8
0
  6
Continuous
 62
     7
370
    25
100
AcDbSpline
210
0.0
220
0.0
230
1.0
 70
     8
 71
     3
 72
    15
 73
    11
 74
     0
 42
0.00000001
 43
0.00000001
 40
0.0
 40
0.0
 40
0.0
 40
0.0
 40
0.0089557228015919
 40
0.0999003359608146
 40
0.1531632460581687
 40
0.3125636920784844
 40
0.524966693569502
 40
0.6689893599352451
 40
0.9919152533810159
 40
1.0
 40
1.0
 40
1.0
 40
1.0
 10
212.9160418155242
 20
177.4493294142394
 30
0.0
 10
212.9160260599455
 20
177.4493186298763
 30
0.0
 10
212.915850307789
 20
177.4491983312108
 30
0.0
 10
212.9104212917695
 20
177.4454798802927
 30
0.0
 10
212.8888858080622
 20
177.4307688392264
 30
0.0
 10
212.8411803797973
 20
177.3983199777679
 30
0.0
 10
212.7687894348054
 20
177.3497359374244
 30
0.0
 10
212.6668703227876
 20
177.2823654651562
 30
0.0
 10
212.5915152313331
 20
177.2335519004214
 30
0.0
 10
212.5391155856094
 20
177.2001453502277
 30
0.0
 10
212.5378357540653
 20
177.1993294142394
 30
0.0
  0
LINE
  5
21E
330
1F
100
AcDbEntity
  8
0
  6
Continuous
 62
     7
370
    25
100
AcDbLine
 10
212.4388162405
 20
176.5493294142
 30
0.0
 11
202.4388162405
 21
176.5493294142
 31
0.0
  0
LINE
  5
21F
330
1F
100
AcDbEntity
  8
0
  6
Continuous
 62
     7
370
    25
100
AcDbLine
 10
212.4388162405
 20
175.3493294142
 30
0.0
 11
212.4388162405
 21
176.5493294142
 31
0.0
  0
LINE
  5
220
330
1F
100
AcDbEntity
  8
0
  6
Continuous
 62
     7
370
    25
100
AcDbLine
 10
202.4388162405
 20
175.3493294142
 30
0.0
 11
212.4388162405
 21
175.3493294142
 31
0.0
  0
LINE
  5
221
330
1F
100
AcDbEntity
  8
0
  6
Continuous
 62
     7
370
    25
100
AcDbLine
 10
202.4388162405
 20
176.5493294142
 30
0.0
 11
202.4388162405
 21
175.3493294142
 31
0.0
  0
LINE
  5
222
330
1F
100
AcDbEntity
  8
0
  6
Continuous
 62
     7
370
    25
100
AcDbLine
 10
213.1888162405
 20
177.1993294142
 30
0.0
 11
212.5378357541
 21
177.1993294142
 31
0.0
  0
LINE
  5
223
330
1F
100
AcDbEntity
  8
0
  6
Continuous
 62
     7
370
    25
100
AcDbLine
 10
213.1888162405
 20
174.6993294142
 30
0.0
 11
213.1888162405
 21
177.1993294142
 31
0.0
  0
LINE
  5
224
330
1F
100
AcDbEntity
  8
0
  6
Continuous
 62
     7
370
    25
100
AcDbLine
 10
212.5378357541
 20
174.6993294142
 30
0.0
 11
213.1888162405
 21
174.6993294142
 31
0.0
  0
LINE
  5
225
330
1F
100
AcDbEntity
  8
0
  6
Continuous
 62
     7
370
    25
100
AcDbLine
 10
201.6888162405
 20
174.6993294142
 30
0.0
 11
202.3397967269
 21
174.6993294142
 31
0.0
  0
LINE
  5
226
330
1F
100
AcDbEntity
  8
0
  6
Continuous
 62
     7
370
    25
100
AcDbLine
 10
201.6888162405
 20
177.1993294142
 30
0.0
 11
201.6888162405
 21
174.6993294142
 31
0.0
  0
LINE
  5
227
330
1F
100
AcDbEntity
  8
0
  6
Continuous
 62
     7
370
    25
100
AcDbLine
 10
202.3397967269
 20
177.1993294142
 30
0.0
 11
201.6888162405
 21
177.1993294142
 31
0.0
  0
LINE
  5
228
330
1F
100
AcDbEntity
  8
0
  6
Continuous
 62
     7
370
    25
100
AcDbLine
 10
201.6888162405
 20
177.4493294142
 30
0.0
 11
201.6888162405
 21
177.1993294142
 31
0.0
  0
LINE
  5
229
330
1F
100
AcDbEntity
  8
0
  6
Continuous
 62
     7
370
    25
100
AcDbLine
 10
201.6888162405
 20
177.4493294142
 30
0.0
 11
201.9615906654
 21
177.4493294142
 31
0.0
  0
LINE
  5
22A
330
1F
100
AcDbEntity
  8
0
  6
Continuous
 62
     7
370
    25
100
AcDbLine
 10
213.1888162405
 20
177.1993294142
 30
0.0
 11
213.1888162405
 21
177.4493294142
 31
0.0
  0
LINE
  5
22B
330
1F
100
AcDbEntity
  8
0
  6
Continuous
 62
     7
370
    25
100
AcDbLine
 10
212.9160418155
 20
177.4493294142
 30
0.0
 11
213.1888162405
 21
177.4493294142
 31
0.0
  0
LINE
  5
22C
330
1F
100
AcDbEntity
  8
0
  6
Continuous
 62
     7
370
    25
100
AcDbLine
 10
201.6888162405
 20
177.1993294142
 30
0.0
 11
201.4388162405
 21
177.1993294142
 31
0.0
  0
ARC
  5
22D
330
1F
100
AcDbEntity
  8
0
  6
Continuous
 62
     7
370
    25
100
AcDbCircle
 10
201.6888162405
 20
177.1993294142
 30
0.0
 40
0.25
100
AcDbArc
 50
90.0
 51
180.0
  0
ARC
  5
22E
330
1F
100
AcDbEntity
  8
0
  6
Continuous
 62
     7
370
    25
100
AcDbCircle
 10
213.1888162405
 20
177.1993294142
 30
0.0
 40
0.25
100
AcDbArc
 50
0.0
 51
90.0
  0
LINE
  5
22F
330
1F
100
AcDbEntity
  8
0
  6
Continuous
 62
     7
370
    25
100
AcDbLine
 10
213.4388162405
 20
177.1993294142
 30
0.0
 11
213.1888162405
 21
177.1993294142
 31
0.0
  0
LINE
  5
230
330
1F
100
AcDbEntity
  8
0
  6
Continuous
 62
     7
370
    25
100
AcDbLine
 10
213.4388162405
 20
177.1993294142
 30
0.0
 11
213.4388162405
 21
174.6993294142
 31
0.0
  0
LINE
  5
231
330
1F
100
AcDbEntity
  8
0
  6
Continuous
 62
     7
370
    25
100
AcDbLine
 10
213.1888162405
 20
174.6993294142
 30
0.0
 11
213.4388162405
 21
174.6993294142
 31
0.0
  0
LINE
  5
232
330
1F
100
AcDbEntity
  8
0
  6
Continuous
 62
     7
370
    25
100
AcDbLine
 10
201.4388162405
 20
174.6993294142
 30
0.0
 11
201.6888162405
 21
174.6993294142
 31
0.0
  0
LINE
  5
233
330
1F
100
AcDbEntity
  8
0
  6
Continuous
 62
     7
370
    25
100
AcDbLine
 10
201.4388162405
 20
174.6993294142
 30
0.0
 11
201.4388162405
 21
177.1993294142
 31
0.0
  0
LINE
  5
234
330
1F
100
AcDbEntity
  8
0
  6
Continuous
 62
     7
370
    25
100
AcDbLine
 10
201.9615906654
 20
174.4493294142
 30
0.0
 11
201.6888162405
 21
174.4493294142
 31
0.0
  0
LINE
  5
235
330
1F
100
AcDbEntity
  8
0
  6
Continuous
 62
     7
370
    25
100
AcDbLine
 10
201.6888162405
 20
174.6993294142
 30
0.0
 11
201.6888162405
 21
174.4493294142
 31
0.0
  0
LINE
  5
236
330
1F
100
AcDbEntity
  8
0
  6
Continuous
 62
     7
370
    25
100
AcDbLine
 10
213.1888162405
 20
174.4493294142
 30
0.0
 11
213.1888162405
 21
174.6993294142
 31
0.0
  0
LINE
  5
237
330
1F
100
AcDbEntity
  8
0
  6
Continuous
 62
     7
370
    25
100
AcDbLine
 10
213.1888162405
 20
174.4493294142
 30
0.0
 11
212.9160418155
 21
174.4493294142
 31
0.0
  0
ARC
  5
238
330
1F
100
AcDbEntity
  8
0
  6
Continuous
 62
     7
370
    25
100
AcDbCircle
 10
201.6888162405
 20
174.6993294142
 30
0.0
 40
0.25
100
AcDbArc
 50
180.0
 51
270.0
  0
ARC
  5
239
330
1F
100
AcDbEntity
  8
0
  6
Continuous
 62
     7
370
    25
100
AcDbCircle
 10
213.1888162405
 20
174.6993294142
 30
0.0
 40
0.25
100
AcDbArc
 50
270.0
 51
0.0
  0
LINE
  5
23A
330
1F
100
AcDbEntity
  8
0
  6
Continuous
 62
     7
370
    25
100
AcDbLine
 10
227.4388162405
 20
172.6776301502
 30
0.0
 11
229.614253102
 21
172.4493294142
 31
0.0
  0
LINE
  5
23B
330
1F
100
AcDbEntity
  8
0
  6
Continuous
 62
     7
370
    25
100
AcDbLine
 10
227.4388162405
 20
179.2210286783
 30
0.0
 11
227.4388162405
 21
172.6776301502
 31
0.0
  0
LINE
  5
23C
330
1F
100
AcDbEntity
  8
0
  6
Continuous
 62
     7
370
    25
100
AcDbLine
 10
229.614253102
 20
172.4493294142
 30
0.0
 11
247.4388162405
 21
172.4493294142
 31
0.0
  0
LINE
  5
23D
330
1F
100
AcDbEntity
  8
0
  6
Continuous
 62
     7
370
    25
100
AcDbLine
 10
229.614253102
 20
179.4493294142
 30
0.0
 11
227.4388162405
 21
179.2210286783
 31
0.0
  0
LINE
  5
23E
330
1F
100
AcDbEntity
  8
0
  6
Continuous
 62
     7
370
    25
100
AcDbLine
 10
247.4388162405
 20
179.4493294142
 30
0.0
 11
229.614253102
 21
179.4493294142
 31
0.0
  0
LINE
  5
23F
330
1F
100
AcDbEntity
  8
0
  6
Continuous
 62
     7
370
    25
100
AcDbLine
 10
247.4388162405
 20
172.4493294142
 30
0.0
 11
247.4388162405
 21
179.4493294142
 31
0.0
  0
LINE
  5
240
330
1F
100
AcDbEntity
  8
0
  6
Continuous
 62
     7
370
    25
100
AcDbLine
 10
212.6626184148
 20
174.2283149334
 30
0.0
 11
212.7910274535
 21
174.4124565669
 31
0.0
  0
LINE
  5
241
330
1F
100
AcDbEntity
  8
0
  6
Continuous
 62
     7
370
    25
100
AcDbLine
 10
212.7814601127
 20
177.4945470816
 30
0.0
 11
212.6626184148
 21
177.670343895
 31
0.0
  0
LINE
  5
242
330
1F
100
AcDbEntity
  8
0
  6
Continuous
 62
     7
370
    25
100
AcDbLine
 10
220.8553858941
 20
173.3685267787
 30
0.0
 11
220.8553858941
 21
178.5301320498
 31
0.0
  0
LINE
  5
243
330
1F
100
AcDbEntity
  8
0
  6
Continuous
 62
     7
370
    25
100
AcDbLine
 10
220.8553858941
 20
173.3685267787
 30
0.0
 11
212.6626184148
 21
174.2283149334
 31
0.0
  0
LINE
  5
244
330
1F
100
AcDbEntity
  8
0
  6
Continuous
 62
     7
370
    25
100
AcDbLine
 10
212.6626184148
 20
177.6703438951
 30
0.0
 11
220.8553858941
 21
178.5301320498
 31
0.0
  0
LINE
  5
245
330
1F
100
AcDbEntity
  8
0
  6
Continuous
 62
     7
370
    25
100
AcDbLine
 10
227.4388162405
 20
172.6776301502
 30
0.0
 11
220.8553858941
 21
173.3685267787
 31
0.0
  0
LINE
  5
246
330
1F
100
AcDbEntity
  8
0
  6
Continuous
 62
     7
370
    25
100
AcDbLine
 10
220.8553858941
 20
178.5301320498
 30
0.0
 11
227.4388162405
 21
179.2210286783
 31
0.0
  0
ARC
  5
247
330
1F
100
AcDbEntity
  8
0
  6
Continuous
 62
     7
370
    25
100
AcDbCircle
 10
207.4388162405
 20
175.9493294142
 30
0.0
 40
7.450000000000667
100
AcDbArc
 50
53.0863788866
 51
306.9136211134
  0
ARC
  5
248
330
1F
100
AcDbEntity
  8
0
  6
Continuous
 62
     7
370
    25
100
AcDbCircle
 10
207.4388162405
 20
175.9493294142
 30
0.0
 40
7.207531252870791
100
AcDbArc
 50
15.3041237151
 51
58.9797515565
  0
ARC
  5
249
330
1F
100
AcDbEntity
  8
0
  6
Continuous
 62
     7
370
    25
100
AcDbCircle
 10
207.4388162405
 20
175.9493294142
 30
0.0
 40
7.207531252872454
100
AcDbArc
 50
301.0202484435
 51
344.6958762849
  0
ARC
  5
24A
330
1F
100
AcDbEntity
  8
0
  6
Continuous
 62
     7
370
    25
100
AcDbCircle
 10
229.614253102
 20
244.4493294142
 30
0.0
 40
65.0
100
AcDbArc
 50
253.4999050078
 51
270.0
  0
ARC
  5
24B
330
1F
100
AcDbEntity
  8
0
  6
Continuous
 62
     7
370
    25
100
AcDbCircle
 10
229.614253102
 20
107.4493294142
 30
0.0
 40
65.0
100
AcDbArc
 50
90.0
 51
106.5000949923
  0
LINE
  5
24C
330
1F
100
AcDbEntity
  8
0
  6
Continuous
 62
     7
370
    25
100
AcDbLine
 10
193.1388162405
 20
178.5349337346
 30
0.0
 11
193.1388162405
 21
167.9493294142
 31
0.0
  0
LINE
  5
24D
330
1F
100
AcDbEntity
  8
0
  6
Continuous
 62
     7
370
    25
100
AcDbLine
 10
193.1388162405
 20
183.9493294142
 30
0.0
 11
193.1388162405
 21
178.5349337346
 31
0.0
  0
LINE
  5
24E
330
1F
100
AcDbEntity
  8
0
  6
Continuous
 62
     7
370
    25
100
AcDbLine
 10
192.9388162405
 20
178.4702936266
 30
0.0
 11
192.9388162405
 21
183.7493294142
 31
0.0
  0
LINE
  5
24F
330
1F
100
AcDbEntity
  8
0
  6
Continuous
 62
     7
370
    25
100
AcDbLine
 10
192.9388162405
 20
168.1493294142
 30
0.0
 11
192.9388162405
 21
178.4702936266
 31
0.0
  0
LINE
  5
250
330
1F
100
AcDbEntity
  8
0
  6
Continuous
 62
     7
370
    25
100
AcDbLine
 10
182.9388162405
 20
169.9493294142
 30
0.0
 11
182.9388162405
 21
181.9493294142
 31
0.0
  0
LINE
  5
251
330
1F
100
AcDbEntity
  8
0
  6
Continuous
 62
     7
370
    25
100
AcDbLine
 10
183.4388162405
 20
182.4493294142
 30
0.0
 11
183.4388162405
 21
169.4493294142
 31
0.0
  0
LINE
  5
252
330
1F
100
AcDbEntity
  8
0
  6
Continuous
 62
     7
370
    25
100
AcDbLine
 10
199.9930120529
 20
175.6993294142
 30
0.0
 11
196.6165376457
 21
175.6993294142
 31
0.0
  0
LINE
  5
253
330
1F
100
AcDbEntity
  8
0
  6
Continuous
 62
     7
370
    25
100
AcDbLine
 10
196.6165376457
 20
176.1993294142
 30
0.0
 11
199.9930120529
 21
176.1993294142
 31
0.0
  0
INSERT
  5
25F
330
1F
100
AcDbEntity
  8
FORMAT
100
AcDbBlockReference
  2
SW_CENTERMARKSYMBOL_1
 10
207.4388162405
 20
175.9493294142
 30
0.0
  0
ENDSEC
  0
SECTION
  2
OBJECTS
  0
DICTIONARY
  5
C
330
0
100
AcDbDictionary
281
     1
  3
ACAD_GROUP
350
D
  3
ACAD_LAYOUT
350
1A
  3
ACAD_MLINESTYLE
350
17
  3
ACAD_PLOTSETTINGS
350
19
  3
ACAD_PLOTSTYLENAME
350
E
  3
ACAD_SCALELIST
350
47
  3
DWGPROPS
350
260
  0
DICTIONARY
  5
D
102
{ACAD_REACTORS
330
C
102
}
330
C
100
AcDbDictionary
281
     1
  0
DICTIONARY
  5
1A
102
{ACAD_REACTORS
330
C
102
}
330
C
100
AcDbDictionary
281
     1
  3
Layout1
350
1E
  3
Layout2
350
26
  3
Model
350
22
  0
DICTIONARY
  5
17
102
{ACAD_REACTORS
330
C
102
}
330
C
100
AcDbDictionary
281
     1
  3
Standard
350
18
  0
DICTIONARY
  5
19
102
{ACAD_REACTORS
330
C
102
}
330
C
100
AcDbDictionary
281
     1
  0
ACDBDICTIONARYWDFLT
  5
E
102
{ACAD_REACTORS
330
C
102
}
330
C
100
AcDbDictionary
281
     1
  3
Normal
350
F
100
AcDbDictionaryWithDefault
340
F
  0
DICTIONARY
  5
47
102
{ACAD_REACTORS
330
C
102
}
330
C
100
AcDbDictionary
281
     1
  3
A0
350
48
  3
A1
350
49
  3
A2
350
4A
  3
A3
350
4B
  3
A4
350
4C
  3
A5
350
4D
  3
A6
350
4E
  3
A7
350
4F
  3
A8
350
50
  3
A9
350
51
  3
B0
350
52
  3
B1
350
53
  3
B2
350
54
  3
B3
350
55
  3
B4
350
56
  3
B5
350
57
  3
B6
350
58
  0
XRECORD
  5
260
102
{ACAD_REACTORS
330
C
102
}
330
C
100
AcDbXrecord
280
     1
  1
DWGPROPS COOKIE
  2

  3

  4

  6

  7

  8
user28
  9

300
=
301
=
302
=
303
=
304
=
305
=
306
=
307
=
308
=
309
=
 40
0.0
 41
2460326.314742396
 42
2460326.314743171
  1

 90
        0
  0
LAYOUT
  5
1E
102
{ACAD_REACTORS
330
1A
102
}
330
1A
100
AcDbPlotSettings
  1

  2
none_device
  4

  6

 40
0.0
 41
0.0
 42
0.0
 43
0.0
 44
0.0
 45
0.0
 46
0.0
 47
0.0
 48
0.0
 49
0.0
140
0.0
141
0.0
142
1.0
143
1.0
 70
   688
 72
     1
 73
     0
 74
     5
  7

 75
    16
147
1.0
148
0.0
149
0.0
100
AcDbLayout
  1
Layout1
 70
     1
 71
     1
 10
0.0
 20
0.0
 11
420.0
 21
297.0
 12
0.0
 22
0.0
 32
0.0
 14
1.0000000000E+20
 24
1.0000000000E+20
 34
1.0000000000E+20
 15
-1.0000000000E+20
 25
-1.0000000000E+20
 35
-1.0000000000E+20
146
0.0
 13
0.0
 23
0.0
 33
0.0
 16
1.0
 26
0.0
 36
0.0
 17
0.0
 27
1.0
 37
0.0
 76
     0
330
1B
  0
LAYOUT
  5
26
102
{ACAD_REACTORS
330
1A
102
}
330
1A
100
AcDbPlotSettings
  1

  2
none_device
  4

  6

 40
0.0
 41
0.0
 42
0.0
 43
0.0
 44
0.0
 45
0.0
 46
0.0
 47
0.0
 48
0.0
 49
0.0
140
0.0
141
0.0
142
1.0
143
1.0
 70
   688
 72
     1
 73
     0
 74
     5
  7

 75
    16
147
1.0
148
0.0
149
0.0
100
AcDbLayout
  1
Layout2
 70
     1
 71
     2
 10
0.0
 20
0.0
 11
0.0
 21
0.0
 12
0.0
 22
0.0
 32
0.0
 14
0.0
 24
0.0
 34
0.0
 15
0.0
 25
0.0
 35
0.0
146
0.0
 13
0.0
 23
0.0
 33
0.0
 16
1.0
 26
0.0
 36
0.0
 17
0.0
 27
1.0
 37
0.0
 76
     0
330
23
  0
LAYOUT
  5
22
102
{ACAD_REACTORS
330
1A
102
}
330
1A
100
AcDbPlotSettings
  1

  2
none_device
  4
Letter_(8.50_x_11.00_Inches)
  6

 40
6.35
 41
6.35
 42
6.35000508
 43
6.35000508
 44
215.9
 45
279.4
 46
0.0
 47
0.0
 48
0.0
 49
0.0
140
0.0
141
0.0
142
1.0
143
1.0
 70
  1712
 72
     1
 73
     0
 74
     0
  7

 75
     0
147
1.0
148
0.0
149
0.0
100
AcDbLayout
  1
Model
 70
     1
 71
     0
 10
0.0
 20
0.0
 11
594.0
 21
420.0
 12
0.0
 22
0.0
 32
0.0
 14
0.0
 24
0.0
 34
0.0
 15
594.0
 25
420.0
 35
0.0
146
0.0
 13
0.0
 23
0.0
 33
0.0
 16
1.0
 26
0.0
 36
0.0
 17
0.0
 27
1.0
 37
0.0
 76
     0
330
1F
331
29
  0
MLINESTYLE
  5
18
102
{ACAD_REACTORS
330
17
102
}
330
17
100
AcDbMlineStyle
  2
Standard
 70
     0
  3

 62
   256
 51
90.0
 52
90.0
 71
     2
 49
0.5
 62
   256
  6
BYLAYER
 49
-0.5
 62
   256
  6
BYLAYER
  0
ACDBPLACEHOLDER
  5
F
102
{ACAD_REACTORS
330
E
102
}
330
E
  0
SCALE
  5
48
102
{ACAD_REACTORS
330
47
102
}
330
47
100
AcDbScale
 70
     0
300
1:1
140
1.0
141
1.0
290
     1
  0
SCALE
  5
49
102
{ACAD_REACTORS
330
47
102
}
330
47
100
AcDbScale
 70
     0
300
1:2
140
1.0
141
2.0
290
     0
  0
SCALE
  5
4A
102
{ACAD_REACTORS
330
47
102
}
330
47
100
AcDbScale
 70
     0
300
1:4
140
1.0
141
4.0
290
     0
  0
SCALE
  5
4B
102
{ACAD_REACTORS
330
47
102
}
330
47
100
AcDbScale
 70
     0
300
1:5
140
1.0
141
5.0
290
     0
  0
SCALE
  5
4C
102
{ACAD_REACTORS
330
47
102
}
330
47
100
AcDbScale
 70
     0
300
1:8
140
1.0
141
8.0
290
     0
  0
SCALE
  5
4D
102
{ACAD_REACTORS
330
47
102
}
330
47
100
AcDbScale
 70
     0
300
1:10
140
1.0
141
10.0
290
     0
  0
SCALE
  5
4E
102
{ACAD_REACTORS
330
47
102
}
330
47
100
AcDbScale
 70
     0
300
1:16
140
1.0
141
16.0
290
     0
  0
SCALE
  5
4F
102
{ACAD_REACTORS
330
47
102
}
330
47
100
AcDbScale
 70
     0
300
1:20
140
1.0
141
20.0
290
     0
  0
SCALE
  5
50
102
{ACAD_REACTORS
330
47
102
}
330
47
100
AcDbScale
 70
     0
300
1:30
140
1.0
141
30.0
290
     0
  0
SCALE
  5
51
102
{ACAD_REACTORS
330
47
102
}
330
47
100
AcDbScale
 70
     0
300
1:40
140
1.0
141
40.0
290
     0
  0
SCALE
  5
52
102
{ACAD_REACTORS
330
47
102
}
330
47
100
AcDbScale
 70
     0
300
1:50
140
1.0
141
50.0
290
     0
  0
SCALE
  5
53
102
{ACAD_REACTORS
330
47
102
}
330
47
100
AcDbScale
 70
     0
300
1:100
140
1.0
141
100.0
290
     0
  0
SCALE
  5
54
102
{ACAD_REACTORS
330
47
102
}
330
47
100
AcDbScale
 70
     0
300
2:1
140
2.0
141
1.0
290
     0
  0
SCALE
  5
55
102
{ACAD_REACTORS
330
47
102
}
330
47
100
AcDbScale
 70
     0
300
4:1
140
4.0
141
1.0
290
     0
  0
SCALE
  5
56
102
{ACAD_REACTORS
330
47
102
}
330
47
100
AcDbScale
 70
     0
300
8:1
140
8.0
141
1.0
290
     0
  0
SCALE
  5
57
102
{ACAD_REACTORS
330
47
102
}
330
47
100
AcDbScale
 70
     0
300
10:1
140
10.0
141
1.0
290
     0
  0
SCALE
  5
58
102
{ACAD_REACTORS
330
47
102
}
330
47
100
AcDbScale
 70
     0
300
100:1
140
100.0
141
1.0
290
     0
  0
ENDSEC
  0
EOF
