  0
SECTION
  2
HEADER
  9
$ACADVER
  1
AC1015
  9
$ACADMAINTVER
 70
     6
  9
$DWGCODEPAGE
  3
DOS932
  9
$INSBASE
 10
0.0
 20
0.0
 30
0.0
  9
$EXTMIN
 10
0.0
 20
0.0
 30
0.0
  9
$EXTMAX
 10
431.8
 20
279.4
 30
0.0
  9
$LIMMIN
 10
0.0
 20
0.0
  9
$LIMMAX
 10
431.8
 20
279.4
  9
$ORTHOMODE
 70
     0
  9
$REGENMODE
 70
     1
  9
$FILLMODE
 70
     1
  9
$QTEXTMODE
 70
     0
  9
$MIRRTEXT
 70
     1
  9
$LTSCALE
 40
1.0
  9
$ATTMODE
 70
     1
  9
$TEXTSIZE
 40
3.5
  9
$TRACEWID
 40
1.0
  9
$TEXTSTYLE
  7
Standard
  9
$CLAYER
  8
0
  9
$CELTYPE
  6
ByLayer
  9
$CECOLOR
 62
   256
  9
$CELTSCALE
 40
1.0
  9
$DISPSILH
 70
     0
  9
$DIMSCALE
 40
1.0
  9
$DIMASZ
 40
3.556
  9
$DIMEXO
 40
1.0
  9
$DIMDLI
 40
3.75
  9
$DIMRND
 40
0.0
  9
$DIMDLE
 40
0.0
  9
$DIMEXE
 40
1.0
  9
$DIMTP
 40
0.0
  9
$DIMTM
 40
0.0
  9
$DIMTXT
 40
3.5
  9
$DIMCEN
 40
2.5
  9
$DIMTSZ
 40
0.0
  9
$DIMTOL
 70
     0
  9
$DIMLIM
 70
     0
  9
$DIMTIH
 70
     1
  9
$DIMTOH
 70
     1
  9
$DIMSE1
 70
     0
  9
$DIMSE2
 70
     0
  9
$DIMTAD
 70
     1
  9
$DIMZIN
 70
     0
  9
$DIMBLK
  1

  9
$DIMASO
 70
     1
  9
$DIMSHO
 70
     1
  9
$DIMPOST
  1

  9
$DIMAPOST
  1

  9
$DIMALT
 70
     0
  9
$DIMALTD
 70
     3
  9
$DIMALTF
 40
0.0393700787
  9
$DIMLFAC
 40
1.0
  9
$DIMTOFL
 70
     1
  9
$DIMTVP
 40
0.0
  9
$DIMTIX
 70
     0
  9
$DIMSOXD
 70
     0
  9
$DIMSAH
 70
     0
  9
$DIMBLK1
  1

  9
$DIMBLK2
  1

  9
$DIMSTYLE
  2
ISO-25
  9
$DIMCLRD
 70
     0
  9
$DIMCLRE
 70
     0
  9
$DIMCLRT
 70
     0
  9
$DIMTFAC
 40
1.0
  9
$DIMGAP
 40
1.524
  9
$DIMJUST
 70
     0
  9
$DIMSD1
 70
     0
  9
$DIMSD2
 70
     0
  9
$DIMTOLJ
 70
     0
  9
$DIMTZIN
 70
     0
  9
$DIMALTZ
 70
     0
  9
$DIMALTTZ
 70
     0
  9
$DIMUPT
 70
     0
  9
$DIMDEC
 70
     3
  9
$DIMTDEC
 70
     3
  9
$DIMALTU
 70
     2
  9
$DIMALTTD
 70
     3
  9
$DIMTXSTY
  7
Standard
  9
$DIMAUNIT
 70
     0
  9
$DIMADEC
 70
     2
  9
$DIMALTRND
 40
0.0
  9
$DIMAZIN
 70
     0
  9
$DIMDSEP
 70
    44
  9
$DIMATFIT
 70
     3
  9
$DIMFRAC
 70
     0
  9
$DIMLDRBLK
  1

  9
$DIMLUNIT
 70
     2
  9
$DIMLWD
 70
    -2
  9
$DIMLWE
 70
    -2
  9
$DIMTMOVE
 70
     0
  9
$LUNITS
 70
     2
  9
$LUPREC
 70
     3
  9
$SKETCHINC
 40
1.0
  9
$FILLETRAD
 40
0.0
  9
$AUNITS
 70
     0
  9
$AUPREC
 70
     2
  9
$MENU
  1
.
  9
$ELEVATION
 40
0.0
  9
$PELEVATION
 40
0.0
  9
$THICKNESS
 40
0.0
  9
$LIMCHECK
 70
     0
  9
$CHAMFERA
 40
0.0
  9
$CHAMFERB
 40
0.0
  9
$CHAMFERC
 40
0.0
  9
$CHAMFERD
 40
0.0
  9
$SKPOLY
 70
     0
  9
$TDCREATE
 40
2460297.663989213
  9
$TDUCREATE
 40
2460297.288989213
  9
$TDUPDATE
 40
2460297.663990289
  9
$TDUUPDATE
 40
2460297.288990289
  9
$TDINDWG
 40
0.0000000116
  9
$TDUSRTIMER
 40
0.0000000116
  9
$USRTIMER
 70
     1
  9
$ANGBASE
 50
0.0
  9
$ANGDIR
 70
     0
  9
$PDMODE
 70
     0
  9
$PDSIZE
 40
-1.0
  9
$PLINEWID
 40
0.0
  9
$SPLFRAME
 70
     0
  9
$SPLINETYPE
 70
     6
  9
$SPLINESEGS
 70
     8
  9
$HANDSEED
  5
2DC
  9
$SURFTAB1
 70
     6
  9
$SURFTAB2
 70
     6
  9
$SURFTYPE
 70
     6
  9
$SURFU
 70
     6
  9
$SURFV
 70
     6
  9
$UCSBASE
  2

  9
$UCSNAME
  2

  9
$UCSORG
 10
0.0
 20
0.0
 30
0.0
  9
$UCSXDIR
 10
1.0
 20
0.0
 30
0.0
  9
$UCSYDIR
 10
0.0
 20
1.0
 30
0.0
  9
$UCSORTHOREF
  2

  9
$UCSORTHOVIEW
 70
     0
  9
$UCSORGTOP
 10
0.0
 20
0.0
 30
0.0
  9
$UCSORGBOTTOM
 10
0.0
 20
0.0
 30
0.0
  9
$UCSORGLEFT
 10
0.0
 20
0.0
 30
0.0
  9
$UCSORGRIGHT
 10
0.0
 20
0.0
 30
0.0
  9
$UCSORGFRONT
 10
0.0
 20
0.0
 30
0.0
  9
$UCSORGBACK
 10
0.0
 20
0.0
 30
0.0
  9
$PUCSBASE
  2

  9
$PUCSNAME
  2

  9
$PUCSORG
 10
0.0
 20
0.0
 30
0.0
  9
$PUCSXDIR
 10
1.0
 20
0.0
 30
0.0
  9
$PUCSYDIR
 10
0.0
 20
1.0
 30
0.0
  9
$PUCSORTHOREF
  2

  9
$PUCSORTHOVIEW
 70
     0
  9
$PUCSORGTOP
 10
0.0
 20
0.0
 30
0.0
  9
$PUCSORGBOTTOM
 10
0.0
 20
0.0
 30
0.0
  9
$PUCSORGLEFT
 10
0.0
 20
0.0
 30
0.0
  9
$PUCSORGRIGHT
 10
0.0
 20
0.0
 30
0.0
  9
$PUCSORGFRONT
 10
0.0
 20
0.0
 30
0.0
  9
$PUCSORGBACK
 10
0.0
 20
0.0
 30
0.0
  9
$USERI1
 70
     0
  9
$USERI2
 70
     0
  9
$USERI3
 70
     0
  9
$USERI4
 70
     0
  9
$USERI5
 70
     0
  9
$USERR1
 40
0.0
  9
$USERR2
 40
0.0
  9
$USERR3
 40
0.0
  9
$USERR4
 40
0.0
  9
$USERR5
 40
0.0
  9
$WORLDVIEW
 70
     1
  9
$SHADEDGE
 70
     3
  9
$SHADEDIF
 70
    70
  9
$TILEMODE
 70
     1
  9
$MAXACTVP
 70
    64
  9
$PINSBASE
 10
0.0
 20
0.0
 30
0.0
  9
$PLIMCHECK
 70
     0
  9
$PEXTMIN
 10
1.0000000000E+20
 20
1.0000000000E+20
 30
1.0000000000E+20
  9
$PEXTMAX
 10
-1.0000000000E+20
 20
-1.0000000000E+20
 30
-1.0000000000E+20
  9
$PLIMMIN
 10
0.0
 20
0.0
  9
$PLIMMAX
 10
420.0
 20
297.0
  9
$UNITMODE
 70
     0
  9
$VISRETAIN
 70
     1
  9
$PLINEGEN
 70
     0
  9
$PSLTSCALE
 70
     1
  9
$TREEDEPTH
 70
  3020
  9
$CMLSTYLE
  2
Standard
  9
$CMLJUST
 70
     0
  9
$CMLSCALE
 40
20.0
  9
$PROXYGRAPHICS
 70
     1
  9
$MEASUREMENT
 70
     1
  9
$CELWEIGHT
370
    -1
  9
$ENDCAPS
280
     0
  9
$JOINSTYLE
280
     0
  9
$LWDISPLAY
290
     1
  9
$INSUNITS
 70
     4
  9
$HYPERLINKBASE
  1

  9
$STYLESHEET
  1

  9
$XEDIT
290
     1
  9
$CEPSNTYPE
380
     0
  9
$PSTYLEMODE
290
     1
  9
$FINGERPRINTGUID
  2
{30555c49-58e5-43b4-ba8d-9cec91dea1bc}
  9
$VERSIONGUID
  2
{FAEB1C32-E019-11D5-929B-00C0DF256EC4}
  9
$EXTNAMES
290
     1
  9
$PSVPSCALE
 40
0.0
  9
$OLESTARTUP
290
     0
  0
ENDSEC
  0
SECTION
  2
CLASSES
  0
CLASS
  1
ACDBDICTIONARYWDFLT
  2
AcDbDictionaryWithDefault
  3
ObjectDBX Classes
 90
        0
280
     0
281
     0
  0
CLASS
  1
VISUALSTYLE
  2
AcDbVisualStyle
  3
ObjectDBX Classes
 90
     4095
280
     0
281
     0
  0
CLASS
  1
MATERIAL
  2
AcDbMaterial
  3
ObjectDBX Classes
 90
     1153
280
     0
281
     0
  0
CLASS
  1
SCALE
  2
AcDbScale
  3
ObjectDBX Classes
 90
     1153
280
     0
281
     0
  0
CLASS
  1
TABLESTYLE
  2
AcDbTableStyle
  3
ObjectDBX Classes
 90
     4095
280
     0
281
     0
  0
CLASS
  1
MLEADERSTYLE
  2
AcDbMLeaderStyle
  3
ACDB_MLEADERSTYLE_CLASS
 90
     4095
280
     0
281
     0
  0
CLASS
  1
SUN
  2
AcDbSun
  3
SCENEOE
 90
     1153
280
     0
281
     0
  0
CLASS
  1
ACDBPLACEHOLDER
  2
AcDbPlaceHolder
  3
ObjectDBX Classes
 90
        0
280
     0
281
     0
  0
CLASS
  1
LAYOUT
  2
AcDbLayout
  3
ObjectDBX Classes
 90
        0
280
     0
281
     0
  0
ENDSEC
  0
SECTION
  2
TABLES
  0
TABLE
  2
VPORT
  5
8
330
0
100
AcDbSymbolTable
 70
     1
  0
VPORT
  5
29
330
8
100
AcDbSymbolTableRecord
100
AcDbViewportTableRecord
  2
*Active
 70
     0
 10
0.0
 20
0.0
 11
1.0
 21
1.0
 12
215.9
 22
139.7
 13
0.0
 23
0.0
 14
10.0
 24
10.0
 15
10.0
 25
10.0
 16
0.0
 26
0.0
 36
1.0
 17
0.0
 27
0.0
 37
0.0
 40
279.4
 41
1.5454545455
 42
50.0
 43
0.0
 44
0.0
 50
0.0
 51
0.0
 71
     0
 72
  2000
 73
     1
 74
     3
 75
     0
 76
     0
 77
     0
 78
     0
281
     0
 65
     1
110
0.0
120
0.0
130
0.0
111
1.0
121
0.0
131
0.0
112
0.0
122
1.0
132
0.0
 79
     0
146
0.0
  0
ENDTAB
  0
TABLE
  2
LTYPE
  5
5
330
0
100
AcDbSymbolTable
 70
     6
  0
LTYPE
  5
14
330
5
100
AcDbSymbolTableRecord
100
AcDbLinetypeTableRecord
  2
ByBlock
 70
     0
  3

 72
    65
 73
     0
 40
0.0
  0
LTYPE
  5
15
330
5
100
AcDbSymbolTableRecord
100
AcDbLinetypeTableRecord
  2
ByLayer
 70
     0
  3

 72
    65
 73
     0
 40
0.0
  0
LTYPE
  5
16
330
5
100
AcDbSymbolTableRecord
100
AcDbLinetypeTableRecord
  2
Continuous
 70
     0
  3
Solid line
 72
    65
 73
     0
 40
0.0
  0
LTYPE
  5
5E
330
5
100
AcDbSymbolTableRecord
100
AcDbLinetypeTableRecord
  2
HIDDEN
 70
     0
  3
Hidden __ __ __ __ __ __ __ __ __ __ __ __ __ __
 72
    65
 73
     2
 40
1.905
 49
1.27
 74
     0
 49
-0.635
 74
     0
  0
LTYPE
  5
5F
330
5
100
AcDbSymbolTableRecord
100
AcDbLinetypeTableRecord
  2
PHANTOM
 70
     0
  3
Phantom ______  __  __  ______  __  __  ______
 72
    65
 73
     6
 40
12.7
 49
6.35
 74
     0
 49
-1.27
 74
     0
 49
1.27
 74
     0
 49
-1.27
 74
     0
 49
1.27
 74
     0
 49
-1.27
 74
     0
  0
LTYPE
  5
60
330
5
100
AcDbSymbolTableRecord
100
AcDbLinetypeTableRecord
  2
CENTER
 70
     0
  3
Center ____ _ ____ _ ____ _ ____ _ ____ _ ____
 72
    65
 73
     4
 40
10.16
 49
6.35
 74
     0
 49
-1.27
 74
     0
 49
1.27
 74
     0
 49
-1.27
 74
     0
  0
LTYPE
  5
61
330
5
100
AcDbSymbolTableRecord
100
AcDbLinetypeTableRecord
  2
CENTERX2
 70
     0
  3
Center (2x) ________  __  ________  __  _____
 72
    65
 73
     4
 40
20.32
 49
12.7
 74
     0
 49
-2.54
 74
     0
 49
2.54
 74
     0
 49
-2.54
 74
     0
  0
LTYPE
  5
62
330
5
100
AcDbSymbolTableRecord
100
AcDbLinetypeTableRecord
  2
DOT2
 70
     0
  3
Dot (.5x) ........................................
 72
    65
 73
     2
 40
0.635
 49
0.0
 74
     0
 49
-0.635
 74
     0
  0
ENDTAB
  0
TABLE
  2
LAYER
  5
2
330
0
100
AcDbSymbolTable
 70
     1
  0
LAYER
  5
10
330
2
100
AcDbSymbolTableRecord
100
AcDbLayerTableRecord
  2
0
 70
     0
 62
     7
  6
Continuous
370
    -3
390
F
  0
ENDTAB
  0
TABLE
  2
STYLE
  5
3
330
0
100
AcDbSymbolTable
 70
     2
  0
STYLE
  5
11
330
3
100
AcDbSymbolTableRecord
100
AcDbTextStyleTableRecord
  2
Standard
 70
     0
 40
0.0
 41
1.0
 50
0.0
 71
     0
 42
3.5
  3
txt
  4
bigfont
  0
STYLE
  5
63
330
3
100
AcDbSymbolTableRecord
100
AcDbTextStyleTableRecord
  2
SLDTEXTSTYLE0
 70
     0
 40
0.0
 41
0.7
 50
0.0
 71
     0
 42
3.5
  3
TXT
  4
bigfont
  0
ENDTAB
  0
TABLE
  2
VIEW
  5
6
330
0
100
AcDbSymbolTable
 70
     0
  0
ENDTAB
  0
TABLE
  2
UCS
  5
7
330
0
100
AcDbSymbolTable
 70
     0
  0
ENDTAB
  0
TABLE
  2
APPID
  5
9
330
0
100
AcDbSymbolTable
 70
     1
  0
APPID
  5
12
330
9
100
AcDbSymbolTableRecord
100
AcDbRegAppTableRecord
  2
ACAD
 70
     0
  0
ENDTAB
  0
TABLE
  2
DIMSTYLE
  5
A
330
0
100
AcDbSymbolTable
 70
     1
100
AcDbDimStyleTable
  0
DIMSTYLE
105
27
330
A
100
AcDbSymbolTableRecord
100
AcDbDimStyleTableRecord
  2
ISO-25
 70
     0
 41
2.5
 42
0.625
 43
3.75
 44
1.25
 73
     0
 74
     0
 77
     1
 78
     8
140
2.5
141
2.5
143
0.0393700787
147
0.625
171
     3
172
     1
178
     0
271
     2
272
     2
274
     3
278
    44
283
     0
284
     8
340
11
  0
ENDTAB
  0
TABLE
  2
BLOCK_RECORD
  5
1
330
0
100
AcDbSymbolTable
 70
     3
  0
BLOCK_RECORD
  5
1F
330
1
100
AcDbSymbolTableRecord
100
AcDbBlockTableRecord
  2
*Model_Space
340
22
  0
BLOCK_RECORD
  5
1B
330
1
100
AcDbSymbolTableRecord
100
AcDbBlockTableRecord
  2
*Paper_Space
340
1E
  0
BLOCK_RECORD
  5
23
330
1
100
AcDbSymbolTableRecord
100
AcDbBlockTableRecord
  2
*Paper_Space0
340
26
  0
BLOCK_RECORD
  5
1EA
330
1
100
AcDbSymbolTableRecord
100
AcDbBlockTableRecord
  2
SW_CENTERMARKSYMBOL_0
340
0
102
{BLKREFS
331
1F5
102
}
  0
BLOCK_RECORD
  5
2CF
330
1
100
AcDbSymbolTableRecord
100
AcDbBlockTableRecord
  2
SW_CENTERMARKSYMBOL_1
340
0
102
{BLKREFS
331
2DA
102
}
  0
ENDTAB
  0
ENDSEC
  0
SECTION
  2
BLOCKS
  0
BLOCK
  5
20
330
1F
100
AcDbEntity
  8
0
100
AcDbBlockBegin
  2
*Model_Space
 70
     0
 10
0.0
 20
0.0
 30
0.0
  3
*Model_Space
  1

  0
ENDBLK
  5
21
330
1F
100
AcDbEntity
  8
0
100
AcDbBlockEnd
  0
BLOCK
  5
1C
330
1B
100
AcDbEntity
 67
     1
  8
0
100
AcDbBlockBegin
  2
*Paper_Space
 70
     0
 10
0.0
 20
0.0
 30
0.0
  3
*Paper_Space
  1

  0
ENDBLK
  5
1D
330
1B
100
AcDbEntity
 67
     1
  8
0
100
AcDbBlockEnd
  0
BLOCK
  5
24
330
23
100
AcDbEntity
  8
0
100
AcDbBlockBegin
  2
*Paper_Space0
 70
     0
 10
0.0
 20
0.0
 30
0.0
  3
*Paper_Space0
  1

  0
ENDBLK
  5
25
330
23
100
AcDbEntity
  8
0
100
AcDbBlockEnd
  0
BLOCK
  5
1EB
330
1EA
100
AcDbEntity
  8
0
100
AcDbBlockBegin
  2
SW_CENTERMARKSYMBOL_0
 70
     0
 10
0.0
 20
0.0
 30
0.0
  3
SW_CENTERMARKSYMBOL_0
  1

  0
LINE
  5
1ED
330
1EA
100
AcDbEntity
  8
0
  6
Continuous
 62
     0
370
    18
100
AcDbLine
 10
0.0
 20
0.0
 30
0.0
 11
0.0
 21
2.5
 31
0.0
  0
LINE
  5
1EE
330
1EA
100
AcDbEntity
  8
0
  6
Continuous
 62
     0
370
    18
100
AcDbLine
 10
0.0
 20
0.0
 30
0.0
 11
-2.5
 21
0.0
 31
0.0
  0
LINE
  5
1EF
330
1EA
100
AcDbEntity
  8
0
  6
Continuous
 62
     0
370
    18
100
AcDbLine
 10
0.0
 20
0.0
 30
0.0
 11
0.0
 21
-2.5
 31
0.0
  0
LINE
  5
1F0
330
1EA
100
AcDbEntity
  8
0
  6
Continuous
 62
     0
370
    18
100
AcDbLine
 10
0.0
 20
0.0
 30
0.0
 11
2.5
 21
0.0
 31
0.0
  0
LINE
  5
1F1
330
1EA
100
AcDbEntity
  8
0
  6
Continuous
 62
     0
370
    18
100
AcDbLine
 10
0.0
 20
5.0
 30
0.0
 11
0.0
 21
40.9956436166
 31
0.0
  0
LINE
  5
1F2
330
1EA
100
AcDbEntity
  8
0
  6
Continuous
 62
     0
370
    18
100
AcDbLine
 10
-5.0
 20
0.0
 30
0.0
 11
-15.0
 21
0.0
 31
0.0
  0
LINE
  5
1F3
330
1EA
100
AcDbEntity
  8
0
  6
Continuous
 62
     0
370
    18
100
AcDbLine
 10
0.0
 20
-5.0
 30
0.0
 11
0.0
 21
-15.0
 31
0.0
  0
LINE
  5
1F4
330
1EA
100
AcDbEntity
  8
0
  6
Continuous
 62
     0
370
    18
100
AcDbLine
 10
5.0
 20
0.0
 30
0.0
 11
15.0
 21
0.0
 31
0.0
  0
ENDBLK
  5
1EC
330
1EA
100
AcDbEntity
  8
0
100
AcDbBlockEnd
  0
BLOCK
  5
2D0
330
2CF
100
AcDbEntity
  8
0
100
AcDbBlockBegin
  2
SW_CENTERMARKSYMBOL_1
 70
     0
 10
0.0
 20
0.0
 30
0.0
  3
SW_CENTERMARKSYMBOL_1
  1

  0
LINE
  5
2D2
330
2CF
100
AcDbEntity
  8
0
  6
Continuous
 62
     0
370
    18
100
AcDbLine
 10
0.0
 20
0.0
 30
0.0
 11
0.0
 21
2.5
 31
0.0
  0
LINE
  5
2D3
330
2CF
100
AcDbEntity
  8
0
  6
Continuous
 62
     0
370
    18
100
AcDbLine
 10
0.0
 20
0.0
 30
0.0
 11
-2.5
 21
0.0
 31
0.0
  0
LINE
  5
2D4
330
2CF
100
AcDbEntity
  8
0
  6
Continuous
 62
     0
370
    18
100
AcDbLine
 10
0.0
 20
0.0
 30
0.0
 11
0.0
 21
-2.5
 31
0.0
  0
LINE
  5
2D5
330
2CF
100
AcDbEntity
  8
0
  6
Continuous
 62
     0
370
    18
100
AcDbLine
 10
0.0
 20
0.0
 30
0.0
 11
2.5
 21
0.0
 31
0.0
  0
LINE
  5
2D6
330
2CF
100
AcDbEntity
  8
0
  6
Continuous
 62
     0
370
    18
100
AcDbLine
 10
0.0
 20
5.0
 30
0.0
 11
0.0
 21
14.0457104538
 31
0.0
  0
LINE
  5
2D7
330
2CF
100
AcDbEntity
  8
0
  6
Continuous
 62
     0
370
    18
100
AcDbLine
 10
-5.0
 20
0.0
 30
0.0
 11
-56.9787610979
 21
0.0
 31
0.0
  0
LINE
  5
2D8
330
2CF
100
AcDbEntity
  8
0
  6
Continuous
 62
     0
370
    18
100
AcDbLine
 10
0.0
 20
-5.0
 30
0.0
 11
0.0
 21
-13.7701325716
 31
0.0
  0
LINE
  5
2D9
330
2CF
100
AcDbEntity
  8
0
  6
Continuous
 62
     0
370
    18
100
AcDbLine
 10
5.0
 20
0.0
 30
0.0
 11
28.2551065212
 21
0.0
 31
0.0
  0
ENDBLK
  5
2D1
330
2CF
100
AcDbEntity
  8
0
100
AcDbBlockEnd
  0
ENDSEC
  0
SECTION
  2
ENTITIES
  0
MTEXT
  5
64
330
1F
100
AcDbEntity
  8
0
  6
Continuous
 62
     7
370
     0
100
AcDbMText
 10
167.0049820104
 20
115.7363938955
 30
0.0
 40
4.2333333333
 41
0.0
 71
     1
 72
     1
  1
エースボールZERO　BW-0033
  7
SLDTEXTSTYLE0
 73
     1
 44
1.0
  0
LINE
  5
65
330
1F
100
AcDbEntity
  8
0
  6
Continuous
 62
     7
370
    25
100
AcDbLine
 10
139.783459971
 20
71.9501560067
 30
0.0
 11
137.033459971
 21
71.9501560067
 31
0.0
  0
LINE
  5
66
330
1F
100
AcDbEntity
  8
0
  6
Continuous
 62
     7
370
    25
100
AcDbLine
 10
137.033459971
 20
47.9501560067
 30
0.0
 11
139.783459971
 21
47.9501560067
 31
0.0
  0
LINE
  5
67
330
1F
100
AcDbEntity
  8
0
  6
Continuous
 62
     7
370
    25
100
AcDbLine
 10
137.033459971
 20
71.9501560067
 30
0.0
 11
136.783459971
 21
71.7001560067
 31
0.0
  0
LINE
  5
68
330
1F
100
AcDbEntity
  8
0
  6
Continuous
 62
     7
370
    25
100
AcDbLine
 10
136.783459971
 20
48.2001560067
 30
0.0
 11
137.033459971
 21
47.9501560067
 31
0.0
  0
LINE
  5
69
330
1F
100
AcDbEntity
  8
0
  6
Continuous
 62
     7
370
    25
100
AcDbLine
 10
125.283459971
 20
70.7001560067
 30
0.0
 11
124.783459971
 21
70.2001560067
 31
0.0
  0
LINE
  5
6A
330
1F
100
AcDbEntity
  8
0
  6
Continuous
 62
     7
370
    25
100
AcDbLine
 10
124.783459971
 20
49.7001560067
 30
0.0
 11
125.283459971
 21
49.2001560067
 31
0.0
  0
LINE
  5
6B
330
1F
100
AcDbEntity
  8
0
  6
Continuous
 62
     7
370
    25
100
AcDbLine
 10
136.783459971
 20
70.7001560067
 30
0.0
 11
125.283459971
 21
70.7001560067
 31
0.0
  0
LINE
  5
6C
330
1F
100
AcDbEntity
  8
0
  6
Continuous
 62
     7
370
    25
100
AcDbLine
 10
125.283459971
 20
49.2001560067
 30
0.0
 11
136.783459971
 21
49.2001560067
 31
0.0
  0
LINE
  5
6D
330
1F
100
AcDbEntity
  8
0
  6
Continuous
 62
     7
370
    25
100
AcDbLine
 10
168.033459971
 20
47.9501560067
 30
0.0
 11
168.283459971
 21
48.2001560067
 31
0.0
  0
LINE
  5
6E
330
1F
100
AcDbEntity
  8
0
  6
Continuous
 62
     7
370
    25
100
AcDbLine
 10
168.283459971
 20
71.7001560067
 30
0.0
 11
168.033459971
 21
71.9501560067
 31
0.0
  0
LINE
  5
6F
330
1F
100
AcDbEntity
  8
0
  6
Continuous
 62
     7
370
    25
100
AcDbLine
 10
165.783459971
 20
47.9501560067
 30
0.0
 11
168.033459971
 21
47.9501560067
 31
0.0
  0
LINE
  5
70
330
1F
100
AcDbEntity
  8
0
  6
Continuous
 62
     7
370
    25
100
AcDbLine
 10
168.033459971
 20
71.9501560067
 30
0.0
 11
165.783459971
 21
71.9501560067
 31
0.0
  0
LINE
  5
71
330
1F
100
AcDbEntity
  8
0
  6
Continuous
 62
     7
370
    25
100
AcDbLine
 10
180.033459971
 20
70.4501560067
 30
0.0
 11
168.283459971
 21
70.4501560067
 31
0.0
  0
LINE
  5
72
330
1F
100
AcDbEntity
  8
0
  6
Continuous
 62
     7
370
    25
100
AcDbLine
 10
168.283459971
 20
49.4501560067
 30
0.0
 11
180.033459971
 21
49.4501560067
 31
0.0
  0
LINE
  5
73
330
1F
100
AcDbEntity
  8
0
  6
Continuous
 62
     7
370
    25
100
AcDbLine
 10
180.033459971
 20
49.4501560067
 30
0.0
 11
180.283459971
 21
49.7001560067
 31
0.0
  0
LINE
  5
74
330
1F
100
AcDbEntity
  8
0
  6
Continuous
 62
     7
370
    25
100
AcDbLine
 10
180.283459971
 20
70.2001560067
 30
0.0
 11
180.033459971
 21
70.4501560067
 31
0.0
  0
ARC
  5
75
330
1F
100
AcDbEntity
  8
0
  6
Continuous
 62
     7
370
    25
100
AcDbCircle
 10
161.283459971
 20
72.7001560067
 30
0.0
 40
0.25
100
AcDbArc
 50
180.0
 51
270.0
  0
ARC
  5
76
330
1F
100
AcDbEntity
  8
0
  6
Continuous
 62
     7
370
    25
100
AcDbCircle
 10
144.283459971
 20
72.7001560067
 30
0.0
 40
0.25
100
AcDbArc
 50
270.0
 51
0.0
  0
LINE
  5
77
330
1F
100
AcDbEntity
  8
0
  6
Continuous
 62
     7
370
    25
100
AcDbLine
 10
161.033459971
 20
72.7001560067
 30
0.0
 11
161.033459971
 21
78.1501560067
 31
0.0
  0
LINE
  5
78
330
1F
100
AcDbEntity
  8
0
  6
Continuous
 62
     7
370
    25
100
AcDbLine
 10
144.533459971
 20
78.1501560067
 30
0.0
 11
144.533459971
 21
72.7001560067
 31
0.0
  0
LINE
  5
79
330
1F
100
AcDbEntity
  8
0
  6
Continuous
 62
     7
370
    25
100
AcDbLine
 10
161.033459971
 20
78.1501560067
 30
0.0
 11
160.533459971
 21
78.6501560067
 31
0.0
  0
LINE
  5
7A
330
1F
100
AcDbEntity
  8
0
  6
Continuous
 62
     7
370
    25
100
AcDbLine
 10
145.033459971
 20
78.6501560067
 30
0.0
 11
144.533459971
 21
78.1501560067
 31
0.0
  0
LINE
  5
7B
330
1F
100
AcDbEntity
  8
0
  6
Continuous
 62
     7
370
    25
100
AcDbLine
 10
147.783459971
 20
79.1501560067
 30
0.0
 11
147.783459971
 21
78.6501560067
 31
0.0
  0
LINE
  5
7C
330
1F
100
AcDbEntity
  8
0
  6
Continuous
 62
     7
370
    25
100
AcDbLine
 10
157.783459971
 20
78.6501560067
 30
0.0
 11
157.783459971
 21
79.1501560067
 31
0.0
  0
ARC
  5
7D
330
1F
100
AcDbEntity
  8
0
  6
Continuous
 62
     7
370
    25
100
AcDbCircle
 10
152.783459971
 20
76.6501560067
 30
0.0
 40
20.59999999999998
100
AcDbArc
 50
90.5371349597
 51
93.3558231766
  0
ARC
  5
7E
330
1F
100
AcDbEntity
  8
0
  6
Continuous
 62
     7
370
    25
100
AcDbCircle
 10
152.783459971
 20
76.6501560067
 30
0.0
 40
20.6
100
AcDbArc
 50
86.6441768145
 51
89.4546329952
  0
ARC
  5
7F
330
1F
100
AcDbEntity
  8
0
  6
Continuous
 62
     7
370
    25
100
AcDbCircle
 10
160.7772303394
 20
89.1377353115
 30
0.0
 40
1.000000000000007
100
AcDbArc
 50
354.2894068625
 51
7.1250163489
  0
LINE
  5
80
330
1F
100
AcDbEntity
  8
0
  6
Continuous
 62
     7
370
    25
100
AcDbLine
 10
144.3768321144
 20
83.2164345731
 30
0.0
 11
144.603459971
 21
80.9501560067
 31
0.0
  0
LINE
  5
81
330
1F
100
AcDbEntity
  8
0
  6
Continuous
 62
     7
370
    25
100
AcDbLine
 10
160.8284847851
 20
79.6004041472
 30
0.0
 11
161.7722675296
 21
89.0382315925
 31
0.0
  0
LINE
  5
82
330
1F
100
AcDbEntity
  8
0
  6
Continuous
 62
     7
370
    25
100
AcDbLine
 10
161.7695082161
 20
89.2617700461
 30
0.0
 11
160.8382078001
 21
96.712173374
 31
0.0
  0
LINE
  5
83
330
1F
100
AcDbEntity
  8
0
  6
Continuous
 62
     7
370
    25
100
AcDbLine
 10
144.7287121419
 20
96.712173374
 30
0.0
 11
144.533459971
 21
95.1501560067
 31
0.0
  0
ARC
  5
84
330
1F
100
AcDbEntity
  8
0
  6
Continuous
 62
     7
370
    25
100
AcDbCircle
 10
145.2248510803
 20
96.6501560067
 30
0.0
 40
0.5000000000000017
100
AcDbArc
 50
90.0
 51
172.8749836511
  0
ARC
  5
85
330
1F
100
AcDbEntity
  8
0
  6
Continuous
 62
     7
370
    25
100
AcDbCircle
 10
160.3420688618
 20
96.6501560067
 30
0.0
 40
0.5000000000000017
100
AcDbArc
 50
7.1250163489
 51
90.0
  0
ARC
  5
86
330
1F
100
AcDbEntity
  8
0
  6
Continuous
 62
     7
370
    25
100
AcDbCircle
 10
160.33096619
 20
79.6501560067
 30
0.0
 40
0.5
100
AcDbArc
 50
270.0
 51
354.2894068625
  0
LINE
  5
87
330
1F
100
AcDbEntity
  8
0
  6
Continuous
 62
     7
370
    25
100
AcDbLine
 10
147.283459971
 20
78.6501560067
 30
0.0
 11
147.283459971
 21
79.1501560067
 31
0.0
  0
LINE
  5
88
330
1F
100
AcDbEntity
  8
0
  6
Continuous
 62
     7
370
    25
100
AcDbLine
 10
145.283459971
 20
79.1533907387
 30
0.0
 11
145.283459971
 21
78.6501560067
 31
0.0
  0
LINE
  5
89
330
1F
100
AcDbEntity
  8
0
  6
Continuous
 62
     7
370
    25
100
AcDbLine
 10
137.033459971
 20
71.0408511196
 30
0.0
 11
137.033459971
 21
47.9501560067
 31
0.0
  0
LINE
  5
8A
330
1F
100
AcDbEntity
  8
0
  6
Continuous
 62
     7
370
    25
100
AcDbLine
 10
137.033459971
 20
71.9501560067
 30
0.0
 11
137.033459971
 21
71.0408511196
 31
0.0
  0
LINE
  5
8B
330
1F
100
AcDbEntity
  8
0
  6
Continuous
 62
     7
370
    25
100
AcDbLine
 10
136.783459971
 20
70.8097949714
 30
0.0
 11
136.783459971
 21
71.7001560067
 31
0.0
  0
LINE
  5
8C
330
1F
100
AcDbEntity
  8
0
  6
Continuous
 62
     7
370
    25
100
AcDbLine
 10
136.783459971
 20
48.2001560067
 30
0.0
 11
136.783459971
 21
70.8097949714
 31
0.0
  0
LINE
  5
8D
330
1F
100
AcDbEntity
  8
0
  6
Continuous
 62
     7
370
    25
100
AcDbLine
 10
124.783459971
 20
69.4234580823
 30
0.0
 11
124.783459971
 21
70.2001560067
 31
0.0
  0
LINE
  5
8E
330
1F
100
AcDbEntity
  8
0
  6
Continuous
 62
     7
370
    25
100
AcDbLine
 10
124.783459971
 20
49.7001560067
 30
0.0
 11
124.783459971
 21
69.4234580823
 31
0.0
  0
LINE
  5
8F
330
1F
100
AcDbEntity
  8
0
  6
Continuous
 62
     7
370
    25
100
AcDbLine
 10
125.283459971
 20
69.8855703787
 30
0.0
 11
125.283459971
 21
49.2001560067
 31
0.0
  0
LINE
  5
90
330
1F
100
AcDbEntity
  8
0
  6
Continuous
 62
     7
370
    25
100
AcDbLine
 10
125.283459971
 20
70.7001560067
 30
0.0
 11
125.283459971
 21
69.8855703787
 31
0.0
  0
LINE
  5
91
330
1F
100
AcDbEntity
  8
0
  6
Continuous
 62
     7
370
    25
100
AcDbLine
 10
164.1957467308
 20
47.4501560067
 30
0.0
 11
141.3711732113
 21
47.4501560067
 31
0.0
  0
LINE
  5
92
330
1F
100
AcDbEntity
  8
0
  6
Continuous
 62
     7
370
    25
100
AcDbLine
 10
141.3711732113
 20
47.4501560067
 30
0.0
 11
141.3711732113
 21
51.2144534019
 31
0.0
  0
LINE
  5
93
330
1F
100
AcDbEntity
  8
0
  6
Continuous
 62
     7
370
    25
100
AcDbLine
 10
164.1957467308
 20
51.2144534019
 30
0.0
 11
141.3711732113
 21
51.2144534019
 31
0.0
  0
LINE
  5
94
330
1F
100
AcDbEntity
  8
0
  6
Continuous
 62
     7
370
    25
100
AcDbLine
 10
164.1957467308
 20
51.2144534019
 30
0.0
 11
164.1957467308
 21
47.4501560067
 31
0.0
  0
LINE
  5
95
330
1F
100
AcDbEntity
  8
0
  6
Continuous
 62
     7
370
    25
100
AcDbLine
 10
139.783459971
 20
59.9501560067
 30
0.0
 11
139.783459971
 21
72.4501560067
 31
0.0
  0
SPLINE
  5
96
330
1F
100
AcDbEntity
  8
0
  6
Continuous
 62
     7
370
    25
100
AcDbSpline
210
0.0
220
0.0
230
1.0
 70
    24
 71
     3
 72
    12
 73
     8
 74
     0
 42
0.00000001
 43
0.00000001
 40
0.0
 40
0.0
 40
0.0
 40
0.0
 40
0.2500000000000001
 40
0.2500000000000001
 40
0.5000000000000001
 40
0.5000000000000001
 40
1.0
 40
1.0
 40
1.0
 40
1.0
 10
139.7834599710307
 20
72.45015600673746
 30
0.0
 10
139.7834599710307
 20
72.45015600673746
 30
0.0
 10
139.8228530564002
 20
72.45015600673746
 30
0.0
 10
139.9734844591656
 20
72.45015600673746
 30
0.0
 10
140.0843648883374
 20
72.45015600673746
 30
0.0
 10
140.5055522943018
 20
72.45015600673746
 30
0.0
 10
140.9032400397815
 20
72.45015600673746
 30
0.0
 10
141.3711732113021
 20
72.45015600673746
 30
0.0
  0
LINE
  5
97
330
1F
100
AcDbEntity
  8
0
  6
Continuous
 62
     7
370
    25
100
AcDbLine
 10
141.3711732113
 20
68.6858586116
 30
0.0
 11
141.3711732113
 21
72.4501560067
 31
0.0
  0
SPLINE
  5
98
330
1F
100
AcDbEntity
  8
0
  6
Continuous
 62
     7
370
    25
100
AcDbSpline
210
0.0
220
0.0
230
1.0
 70
     8
 71
     3
 72
    12
 73
     8
 74
     0
 42
0.00000001
 43
0.00000001
 40
0.0
 40
0.0
 40
0.0
 40
0.0
 40
0.2500000000000001
 40
0.2500000000000001
 40
0.5000000000000001
 40
0.5000000000000001
 40
1.0
 40
1.0
 40
1.0
 40
1.0
 10
139.7834599710307
 20
59.95015600673747
 30
0.0
 10
139.7834599710307
 20
60.69550221901178
 30
0.0
 10
139.8228530564002
 20
61.44732906888081
 30
0.0
 10
139.9734844591656
 20
62.92802953005608
 30
0.0
 10
140.0843648883374
 20
63.66100113465811
 30
0.0
 10
140.5055522943018
 20
65.84154525561411
 30
0.0
 10
140.9032400397815
 20
67.27098885462333
 30
0.0
 10
141.3711732113021
 20
68.68585861156554
 30
0.0
  0
SPLINE
  5
99
330
1F
100
AcDbEntity
  8
0
  6
Continuous
 62
     7
370
    25
100
AcDbSpline
210
0.0
220
0.0
230
1.0
 70
    24
 71
     3
 72
    12
 73
     8
 74
     0
 42
0.00000001
 43
0.00000001
 40
0.0
 40
0.0
 40
0.0
 40
0.0
 40
0.2500000000000001
 40
0.2500000000000001
 40
0.5000000000000001
 40
0.5000000000000001
 40
1.0
 40
1.0
 40
1.0
 40
1.0
 10
139.7834599710307
 20
47.45015600673746
 30
0.0
 10
139.7834599710307
 20
47.45015600673746
 30
0.0
 10
139.8228530564003
 20
47.45015600673746
 30
0.0
 10
139.9734844591657
 20
47.45015600673746
 30
0.0
 10
140.0843648883374
 20
47.45015600673745
 30
0.0
 10
140.5055522943017
 20
47.45015600673745
 30
0.0
 10
140.9032400397814
 20
47.45015600673745
 30
0.0
 10
141.3711732113021
 20
47.45015600673745
 30
0.0
  0
LINE
  5
9A
330
1F
100
AcDbEntity
  8
0
  6
Continuous
 62
     7
370
    25
100
AcDbLine
 10
139.783459971
 20
47.4501560067
 30
0.0
 11
139.783459971
 21
59.9501560067
 31
0.0
  0
SPLINE
  5
9B
330
1F
100
AcDbEntity
  8
0
  6
Continuous
 62
     7
370
    25
100
AcDbSpline
210
0.0
220
0.0
230
1.0
 70
     8
 71
     3
 72
    10
 73
     6
 74
     0
 42
0.00000001
 43
0.00000001
 40
0.0
 40
0.0
 40
0.0
 40
0.0
 40
0.5
 40
0.5
 40
1.0
 40
1.0
 40
1.0
 40
1.0
 10
141.3711732113021
 20
51.2144534019094
 30
0.0
 10
140.9041703124083
 20
52.62651033282118
 30
0.0
 10
140.5017665652817
 20
54.07329325669903
 30
0.0
 10
139.94100799469
 20
56.98662290317422
 30
0.0
 10
139.7834599710307
 20
58.45858135903019
 30
0.0
 10
139.7834599710307
 20
59.95015600673747
 30
0.0
  0
LINE
  5
9C
330
1F
100
AcDbEntity
  8
0
  6
Continuous
 62
     7
370
    25
100
AcDbLine
 10
165.783459971
 20
59.9501560067
 30
0.0
 11
165.783459971
 21
47.4501560067
 31
0.0
  0
SPLINE
  5
9D
330
1F
100
AcDbEntity
  8
0
  6
Continuous
 62
     7
370
    25
100
AcDbSpline
210
0.0
220
0.0
230
1.0
 70
    24
 71
     3
 72
    12
 73
     8
 74
     0
 42
0.00000001
 43
0.00000001
 40
0.0
 40
0.0
 40
0.0
 40
0.0
 40
0.25
 40
0.25
 40
0.5
 40
0.5
 40
1.0
 40
1.0
 40
1.0
 40
1.0
 10
165.7834599710307
 20
47.45015600673746
 30
0.0
 10
165.7834599710307
 20
47.45015600673746
 30
0.0
 10
165.7440885295132
 20
47.45015600673746
 30
0.0
 10
165.5934423958539
 20
47.45015600673746
 30
0.0
 10
165.4825476933865
 20
47.45015600673746
 30
0.0
 10
165.0613288125127
 20
47.45015600673746
 30
0.0
 10
164.6636390370765
 20
47.45015600673745
 30
0.0
 10
164.1957467307592
 20
47.45015600673745
 30
0.0
  0
SPLINE
  5
9E
330
1F
100
AcDbEntity
  8
0
  6
Continuous
 62
     7
370
    25
100
AcDbSpline
210
0.0
220
0.0
230
1.0
 70
     8
 71
     3
 72
    10
 73
     6
 74
     0
 42
0.00000001
 43
0.00000001
 40
0.0
 40
0.0
 40
0.0
 40
0.0
 40
0.5
 40
0.5
 40
1.0
 40
1.0
 40
1.0
 40
1.0
 10
164.1957467307592
 20
51.2144534019094
 30
0.0
 10
164.6626980837976
 20
52.62635447579652
 30
0.0
 10
165.0651670822042
 20
54.07330208673136
 30
0.0
 10
165.6259802075211
 20
56.98703992102504
 30
0.0
 10
165.7834599710307
 20
58.45895820172385
 30
0.0
 10
165.7834599710307
 20
59.95015600673747
 30
0.0
  0
LINE
  5
9F
330
1F
100
AcDbEntity
  8
0
  6
Continuous
 62
     7
370
    25
100
AcDbLine
 10
164.1957467308
 20
68.6858586116
 30
0.0
 11
141.3711732113
 21
68.6858586116
 31
0.0
  0
SPLINE
  5
A0
330
1F
100
AcDbEntity
  8
0
  6
Continuous
 62
     7
370
    25
100
AcDbSpline
210
0.0
220
0.0
230
1.0
 70
     8
 71
     3
 72
    12
 73
     8
 74
     0
 42
0.00000001
 43
0.00000001
 40
0.0
 40
0.0
 40
0.0
 40
0.0
 40
0.2499999999999999
 40
0.2499999999999999
 40
0.4999999999999999
 40
0.4999999999999999
 40
1.0
 40
1.0
 40
1.0
 40
1.0
 10
165.7834599710307
 20
59.95015600673747
 30
0.0
 10
165.7834599710307
 20
60.69523299793187
 30
0.0
 10
165.7440885295132
 20
61.4470712987092
 30
0.0
 10
165.5934423958539
 20
62.92800657943093
 30
0.0
 10
165.4825476933865
 20
63.66105268327134
 30
0.0
 10
165.0613288125127
 20
65.84171942206697
 30
0.0
 10
164.6636390370765
 20
67.27111241701168
 30
0.0
 10
164.1957467307592
 20
68.68585861156554
 30
0.0
  0
LINE
  5
A1
330
1F
100
AcDbEntity
  8
0
  6
Continuous
 62
     7
370
    25
100
AcDbLine
 10
164.1957467308
 20
72.4501560067
 30
0.0
 11
141.3711732113
 21
72.4501560067
 31
0.0
  0
LINE
  5
A2
330
1F
100
AcDbEntity
  8
0
  6
Continuous
 62
     7
370
    25
100
AcDbLine
 10
164.1957467308
 20
72.4501560067
 30
0.0
 11
164.1957467308
 21
68.6858586116
 31
0.0
  0
SPLINE
  5
A3
330
1F
100
AcDbEntity
  8
0
  6
Continuous
 62
     7
370
    25
100
AcDbSpline
210
0.0
220
0.0
230
1.0
 70
    24
 71
     3
 72
    12
 73
     8
 74
     0
 42
0.00000001
 43
0.00000001
 40
0.0
 40
0.0
 40
0.0
 40
0.0
 40
0.2499999999999999
 40
0.2499999999999999
 40
0.4999999999999999
 40
0.4999999999999999
 40
1.0
 40
1.0
 40
1.0
 40
1.0
 10
165.7834599710307
 20
72.45015600673746
 30
0.0
 10
165.7834599710307
 20
72.45015600673746
 30
0.0
 10
165.7440885295132
 20
72.45015600673746
 30
0.0
 10
165.5934423958539
 20
72.45015600673746
 30
0.0
 10
165.4825476933865
 20
72.45015600673746
 30
0.0
 10
165.0613288125127
 20
72.45015600673746
 30
0.0
 10
164.6636390370765
 20
72.45015600673746
 30
0.0
 10
164.1957467307592
 20
72.45015600673746
 30
0.0
  0
LINE
  5
A4
330
1F
100
AcDbEntity
  8
0
  6
Continuous
 62
     7
370
    25
100
AcDbLine
 10
165.783459971
 20
72.4501560067
 30
0.0
 11
165.783459971
 21
59.9501560067
 31
0.0
  0
LINE
  5
A5
330
1F
100
AcDbEntity
  8
0
  6
Continuous
 62
     7
370
    25
100
AcDbLine
 10
168.283459971
 20
71.7001560067
 30
0.0
 11
168.283459971
 21
48.2001560067
 31
0.0
  0
LINE
  5
A6
330
1F
100
AcDbEntity
  8
0
  6
Continuous
 62
     7
370
    25
100
AcDbLine
 10
168.033459971
 20
47.9501560067
 30
0.0
 11
168.033459971
 21
71.9501560067
 31
0.0
  0
LINE
  5
A7
330
1F
100
AcDbEntity
  8
0
  6
Continuous
 62
     7
370
    25
100
AcDbLine
 10
180.033459971
 20
49.4501560067
 30
0.0
 11
180.033459971
 21
70.4501560067
 31
0.0
  0
LINE
  5
A8
330
1F
100
AcDbEntity
  8
0
  6
Continuous
 62
     7
370
    25
100
AcDbLine
 10
180.283459971
 20
70.2001560067
 30
0.0
 11
180.283459971
 21
49.7001560067
 31
0.0
  0
LINE
  5
A9
330
1F
100
AcDbEntity
  8
0
  6
Continuous
 62
     7
370
    25
100
AcDbLine
 10
152.783459971
 20
78.1501560067
 30
0.0
 11
144.533459971
 21
78.1501560067
 31
0.0
  0
LINE
  5
AA
330
1F
100
AcDbEntity
  8
0
  6
Continuous
 62
     7
370
    25
100
AcDbLine
 10
161.033459971
 20
78.1501560067
 30
0.0
 11
152.783459971
 21
78.1501560067
 31
0.0
  0
LINE
  5
AB
330
1F
100
AcDbEntity
  8
0
  6
Continuous
 62
     7
370
    25
100
AcDbLine
 10
152.783459971
 20
78.6501560067
 30
0.0
 11
160.533459971
 21
78.6501560067
 31
0.0
  0
LINE
  5
AC
330
1F
100
AcDbEntity
  8
0
  6
Continuous
 62
     7
370
    25
100
AcDbLine
 10
145.033459971
 20
78.6501560067
 30
0.0
 11
152.783459971
 21
78.6501560067
 31
0.0
  0
ARC
  5
AD
330
1F
100
AcDbEntity
  8
0
  6
Continuous
 62
     7
370
    25
100
AcDbCircle
 10
151.7165083018
 20
94.8512320575
 30
0.0
 40
2.36767830359774
100
AcDbArc
 50
93.3632881502
 51
99.4868245016
  0
ARC
  5
AE
330
1F
100
AcDbEntity
  8
0
  6
Continuous
 62
     7
370
    25
100
AcDbCircle
 10
153.8504153268
 20
94.8512733082
 30
0.0
 40
2.367636907674961
100
AcDbArc
 50
80.5187694298
 51
86.6367422679
  0
SPLINE
  5
AF
330
1F
100
AcDbEntity
  8
0
  6
Continuous
 62
     7
370
    25
100
AcDbSpline
210
0.0
220
0.0
230
1.0
 70
     8
 71
     3
 72
    15
 73
    11
 74
     0
 42
0.00000001
 43
0.00000001
 40
0.0
 40
0.0
 40
0.0
 40
0.0
 40
0.1233867499278388
 40
0.2487396502211602
 40
0.3739317114754985
 40
0.4999973617625659
 40
0.6259591330513601
 40
0.7512551380600303
 40
0.8765613478174267
 40
1.0
 40
1.0
 40
1.0
 40
1.0
 10
152.7205771062245
 20
97.25004890404195
 30
0.0
 10
152.7234553074164
 20
97.25004956311409
 30
0.0
 10
152.7292575735281
 20
97.25005089176058
 30
0.0
 10
152.7447869782488
 20
97.25005484138774
 30
0.0
 10
152.7631415601222
 20
97.25005662373712
 30
0.0
 10
152.7834543766052
 20
97.25005817731508
 30
0.0
 10
152.8037727943203
 20
97.25005662318011
 30
0.0
 10
152.8221256634844
 20
97.25005484629959
 30
0.0
 10
152.8376637678799
 20
97.25005087878142
 30
0.0
 10
152.8434643299112
 20
97.25004955898548
 30
0.0
 10
152.8463428358367
 20
97.25004890404196
 30
0.0
  0
ARC
  5
B0
330
1F
100
AcDbEntity
  8
0
  6
Continuous
 62
     7
370
    25
100
AcDbCircle
 10
152.7214715339
 20
94.7056994912
 30
0.0
 40
2.544349570054947
100
AcDbArc
 50
90.0201414662
 51
95.4127462174
  0
SPLINE
  5
B1
330
1F
100
AcDbEntity
  8
0
  6
Continuous
 62
     7
370
    25
100
AcDbSpline
210
0.0
220
0.0
230
1.0
 70
     8
 71
     3
 72
    15
 73
    11
 74
     0
 42
0.00000001
 43
0.00000001
 40
0.0
 40
0.0
 40
0.0
 40
0.0
 40
0.1261585224210644
 40
0.2513121451548802
 40
0.3762846848783791
 40
0.4993062783340883
 40
0.6261594278645745
 40
0.7521171342021309
 40
0.8758196922692798
 40
1.0
 40
1.0
 40
1.0
 40
1.0
 10
152.5443464453529
 20
97.23680577263121
 30
0.0
 10
152.5391153488642
 20
97.23675484688074
 30
0.0
 10
152.5286948235216
 20
97.2366534010224
 30
0.0
 10
152.5139082730072
 20
97.23664921938514
 30
0.0
 10
152.5007179203816
 20
97.23674855820575
 30
0.0
 10
152.4898473455404
 20
97.23696910040883
 30
0.0
 10
152.4818397582118
 20
97.23729296781029
 30
0.0
 10
152.4776731311791
 20
97.23771283765778
 30
0.0
 10
152.4770520796675
 20
97.2381915547235
 30
0.0
 10
152.4799911920223
 20
97.23853284396908
 30
0.0
 10
152.481463580505
 20
97.23870381747868
 30
0.0
  0
ARC
  5
B2
330
1F
100
AcDbEntity
  8
0
  6
Continuous
 62
     7
370
    25
100
AcDbCircle
 10
152.783459971
 20
76.6501560067
 30
0.0
 40
20.58803836847345
100
AcDbArc
 50
89.3345405821
 51
90.66545941
  0
SPLINE
  5
B3
330
1F
100
AcDbEntity
  8
0
  6
Continuous
 62
     7
370
    25
100
AcDbSpline
210
0.0
220
0.0
230
1.0
 70
     8
 71
     3
 72
    15
 73
    11
 74
     0
 42
0.00000001
 43
0.00000001
 40
0.0
 40
0.0
 40
0.0
 40
0.0
 40
0.1241186784437694
 40
0.2478474916628981
 40
0.373657414947894
 40
0.5005082335853294
 40
0.6234527658309922
 40
0.7484986612277523
 40
0.8736976492452768
 40
1.0
 40
1.0
 40
1.0
 40
1.0
 10
153.0854563642822
 20
97.23870381744538
 30
0.0
 10
153.0869274368911
 20
97.2385329371669
 30
0.0
 10
153.0898649613694
 20
97.23819171335651
 30
0.0
 10
153.0892482268693
 20
97.23771317706903
 30
0.0
 10
153.0850862652747
 20
97.23729338719713
 30
0.0
 10
153.0770875174763
 20
97.23696959935072
 30
0.0
 10
153.0662214259395
 20
97.23674890114503
 30
0.0
 10
153.0530337081149
 20
97.23664930923483
 30
0.0
 10
153.0382392615397
 20
97.23665322363347
 30
0.0
 10
153.0278106706323
 20
97.23675477443888
 30
0.0
 10
153.0225734995179
 20
97.23680577259859
 30
0.0
  0
ARC
  5
B4
330
1F
100
AcDbEntity
  8
0
  6
Continuous
 62
     7
370
    25
100
AcDbCircle
 10
152.8454484081
 20
94.705699439
 30
0.0
 40
2.544349622301195
100
AcDbArc
 50
84.5872538302
 51
89.9798585321
  0
SPLINE
  5
B5
330
1F
100
AcDbEntity
  8
0
  6
Continuous
 62
     7
370
    25
100
AcDbSpline
210
0.0
220
0.0
230
1.0
 70
     8
 71
     3
 72
    13
 73
     9
 74
     0
 42
0.00000001
 43
0.00000001
 40
0.0
 40
0.0
 40
0.0
 40
0.0
 40
0.1374692963454099
 40
0.2749820892813127
 40
0.4163021045260215
 40
0.5576318202769774
 40
0.777008491451321
 40
1.0
 40
1.0
 40
1.0
 40
1.0
 10
133.2592592036746
 20
88.4265286087637
 30
0.0
 10
133.7445870950383
 20
88.34028819933482
 30
0.0
 10
134.7153964401182
 20
88.16778009319269
 30
0.0
 10
136.136088807928
 20
87.7687980198697
 30
0.0
 10
137.5281851329441
 20
87.26848860839745
 30
0.0
 10
139.1325443171857
 20
86.5396681367947
 30
0.0
 10
140.9234121928181
 20
85.52344918659304
 30
0.0
 10
142.1600755560331
 20
84.53586590028951
 30
0.0
 10
142.7834599710307
 20
84.03803920993357
 30
0.0
  0
ELLIPSE
  5
B6
330
1F
100
AcDbEntity
  8
0
  6
Continuous
 62
     7
370
    25
100
AcDbEllipse
 10
255.2973554435
 20
81.7719787251
 30
0.0
 11
171.0000000000011
 21
0.0
 31
0.0
210
0.0
220
0.0
230
1.0
 40
0.0555555556
 41
2.292395939553285
 42
2.365524293035126
  0
LINE
  5
B7
330
1F
100
AcDbEntity
  8
0
  6
Continuous
 62
     7
370
    25
100
AcDbLine
 10
142.3370766161
 20
88.9041037974
 30
0.0
 11
142.783459971
 21
88.8666418315
 31
0.0
  0
LINE
  5
B8
330
1F
100
AcDbEntity
  8
0
  6
Continuous
 62
     7
370
    25
100
AcDbLine
 10
142.783459971
 20
84.0380392099
 30
0.0
 11
142.783459971
 21
88.8666418315
 31
0.0
  0
SPLINE
  5
B9
330
1F
100
AcDbEntity
  8
0
  6
Continuous
 62
     7
370
    25
100
AcDbSpline
210
0.0
220
0.0
230
1.0
 70
     8
 71
     3
 72
    11
 73
     7
 74
     0
 42
0.00000001
 43
0.00000001
 40
0.0
 40
0.0
 40
0.0
 40
0.0
 40
0.2795638428677817
 40
0.5590315779132448
 40
0.7794196683689383
 40
0.9999999999999999
 40
0.9999999999999999
 40
0.9999999999999999
 40
0.9999999999999999
 10
130.3471320169531
 20
88.65015600673746
 30
0.0
 10
130.223558671177
 20
88.68867485868556
 30
0.0
 10
129.9764544613886
 20
88.76569932065838
 30
0.0
 10
129.7226985534653
 20
89.29849721844806
 30
0.0
 10
129.6060801124848
 20
89.92623378531447
 30
0.0
 10
129.63259949852
 20
90.3272166014831
 30
0.0
 10
129.6458649721306
 20
90.52779541424769
 30
0.0
  0
SPLINE
  5
BA
330
1F
100
AcDbEntity
  8
0
  6
Continuous
 62
     7
370
    25
100
AcDbSpline
210
0.0
220
0.0
230
1.0
 70
     8
 71
     3
 72
     9
 73
     5
 74
     0
 42
0.00000001
 43
0.00000001
 40
0.0
 40
0.0
 40
0.0
 40
0.0
 40
0.4986740982738613
 40
1.0
 40
1.0
 40
1.0
 40
1.0
 10
130.9374255131995
 20
90.55759643967815
 30
0.0
 10
130.7309518721297
 20
90.55906151893481
 30
0.0
 10
130.3169066233701
 20
90.5619994683124
 30
0.0
 10
129.8699405214252
 20
90.5392161893807
 30
0.0
 10
129.6458648373267
 20
90.52779434152599
 30
0.0
  0
SPLINE
  5
BB
330
1F
100
AcDbEntity
  8
0
  6
Continuous
 62
     7
370
    25
100
AcDbSpline
210
0.0
220
0.0
230
1.0
 70
     8
 71
     3
 72
    13
 73
     9
 74
     0
 42
0.00000001
 43
0.00000001
 40
0.0
 40
0.0
 40
0.0
 40
0.0
 40
0.3327087167328941
 40
0.5628656559531299
 40
0.69871241253847
 40
0.8016200683166478
 40
0.9052998751809794
 40
1.0
 40
1.0
 40
1.0
 40
1.0
 10
132.9282262534701
 20
88.47470304558833
 30
0.0
 10
132.565835423143
 20
88.56048862050649
 30
0.0
 10
131.9527545443896
 20
88.70561783254449
 30
0.0
 10
131.3032092197272
 20
89.15598452897177
 30
0.0
 10
130.9605122041291
 20
89.55572567757766
 30
0.0
 10
130.8115885929854
 20
89.91161792398921
 30
0.0
 10
130.7994158735587
 20
90.25905177102344
 30
0.0
 10
130.8928324673788
 20
90.46113064220252
 30
0.0
 10
130.9374265098299
 20
90.55759652038667
 30
0.0
  0
SPLINE
  5
BC
330
1F
100
AcDbEntity
  8
0
  6
Continuous
 62
     7
370
    25
100
AcDbSpline
210
0.0
220
0.0
230
1.0
 70
     8
 71
     3
 72
     9
 73
     5
 74
     0
 42
0.00000001
 43
0.00000001
 40
0.0
 40
0.0
 40
0.0
 40
0.0
 40
0.5551829690770672
 40
1.0
 40
1.0
 40
1.0
 40
1.0
 10
130.3471320169531
 20
88.65015600673746
 30
0.0
 10
130.8771548906743
 20
88.63715698624641
 30
0.0
 10
131.8318363258817
 20
88.61374304667137
 30
0.0
 10
132.5906797670392
 20
88.51750940731966
 30
0.0
 10
132.9282262534701
 20
88.47470304558833
 30
0.0
  0
LINE
  5
BD
330
1F
100
AcDbEntity
  8
0
  6
Continuous
 62
     7
370
    25
100
AcDbLine
 10
142.3370766161
 20
94.1501560067
 30
0.0
 11
142.3370766161
 21
88.9041037974
 31
0.0
  0
LINE
  5
BE
330
1F
100
AcDbEntity
  8
0
  6
Continuous
 62
     7
370
    25
100
AcDbLine
 10
142.783459971
 20
94.1501560067
 30
0.0
 11
142.3370766161
 21
94.1501560067
 31
0.0
  0
LINE
  5
BF
330
1F
100
AcDbEntity
  8
0
  6
Continuous
 62
     7
370
    25
100
AcDbLine
 10
142.783459971
 20
88.8666418315
 30
0.0
 11
142.783459971
 21
94.1501560067
 31
0.0
  0
ARC
  5
C0
330
1F
100
AcDbEntity
  8
0
  6
Continuous
 62
     7
370
    25
100
AcDbCircle
 10
149.1598890297
 20
94.5240021606
 30
0.0
 40
6.833046917558707
100
AcDbArc
 50
170.513808076
 51
183.1363032674
  0
ARC
  5
C1
330
1F
100
AcDbEntity
  8
0
  6
Continuous
 62
     7
370
    25
100
AcDbCircle
 10
142.4158921047
 20
94.8599060583
 30
0.0
 40
0.7902621394873667
100
AcDbArc
 50
62.2819181136
 51
89.6817467964
  0
LINE
  5
C2
330
1F
100
AcDbEntity
  8
0
  6
Continuous
 62
     7
370
    25
100
AcDbLine
 10
142.783459971
 20
94.1501560067
 30
0.0
 11
142.783459971
 21
95.5594831539
 31
0.0
  0
LINE
  5
C3
330
1F
100
AcDbEntity
  8
0
  6
Continuous
 62
     7
370
    25
100
AcDbLine
 10
130.9372524395
 20
90.5576969261
 30
0.0
 11
133.0032061744
 21
94.1502670127
 31
0.0
  0
LINE
  5
C4
330
1F
100
AcDbEntity
  8
0
  6
Continuous
 62
     7
370
    25
100
AcDbLine
 10
133.0033986046
 20
94.1501560067
 30
0.0
 11
142.3370766161
 21
94.1501560067
 31
0.0
  0
ARC
  5
C5
330
1F
100
AcDbEntity
  8
0
  6
Continuous
 62
     7
370
    25
100
AcDbCircle
 10
130.347132017
 20
69.5771487595
 30
0.0
 40
19.07300724724769
100
AcDbArc
 50
81.2175477188
 51
82.2224666688
  0
LINE
  5
C6
330
1F
100
AcDbEntity
  8
0
  6
Continuous
 62
     7
370
    25
100
AcDbLine
 10
142.4202816455
 20
95.6501560067
 30
0.0
 11
131.004552362
 21
95.6501560067
 31
0.0
  0
SPLINE
  5
C7
330
1F
100
AcDbEntity
  8
0
  6
Continuous
 62
     7
370
    25
100
AcDbSpline
210
0.0
220
0.0
230
1.0
 70
     8
 71
     3
 72
    15
 73
    11
 74
     0
 42
0.00000001
 43
0.00000001
 40
0.0
 40
0.0
 40
0.0
 40
0.0
 40
0.2070474010410781
 40
0.417596863024684
 40
0.5931232720441638
 40
0.6923428991082528
 40
0.773099683107911
 40
0.8543284120985949
 40
0.9261475166372038
 40
1.0
 40
1.0
 40
1.0
 40
1.0
 10
131.0019860753452
 20
95.65014128063146
 30
0.0
 10
131.23307531231
 20
95.64629104179015
 30
0.0
 10
131.6991624979016
 20
95.63852544002962
 30
0.0
 10
132.3237602972087
 20
95.55187547729219
 30
0.0
 10
132.7854394876394
 20
95.38192496774957
 30
0.0
 10
133.0473431866232
 20
95.15256011040101
 30
0.0
 10
133.1678098427543
 20
94.9147666451217
 30
0.0
 10
133.1866038809501
 20
94.65285366784845
 30
0.0
 10
133.12556548895
 20
94.38731126583308
 30
0.0
 10
133.0443703953352
 20
94.23001364281934
 30
0.0
 10
133.0032061615494
 20
94.15026700001833
 30
0.0
  0
SPLINE
  5
C8
330
1F
100
AcDbEntity
  8
0
  6
Continuous
 62
     7
370
    25
100
AcDbSpline
210
0.0
220
0.0
230
1.0
 70
     8
 71
     3
 72
    11
 73
     7
 74
     0
 42
0.00000001
 43
0.00000001
 40
0.0
 40
0.0
 40
0.0
 40
0.0
 40
0.249115000282908
 40
0.4989585322854288
 40
0.749332827497652
 40
1.0
 40
1.0
 40
1.0
 40
1.0
 10
129.6458649721306
 20
90.52779541424769
 30
0.0
 10
129.2201536908172
 20
90.50154230627886
 30
0.0
 10
128.3674861442613
 20
90.44895931366429
 30
0.0
 10
127.0039203830095
 20
90.36463828343777
 30
0.0
 10
125.6032477657973
 20
90.27790501462604
 30
0.0
 10
124.6524275303101
 20
90.21892744919846
 30
0.0
 10
124.1767395177495
 20
90.18942142919929
 30
0.0
  0
SPLINE
  5
C9
330
1F
100
AcDbEntity
  8
0
  6
Continuous
 62
     7
370
    25
100
AcDbSpline
210
0.0
220
0.0
230
1.0
 70
     8
 71
     3
 72
     9
 73
     5
 74
     0
 42
0.00000001
 43
0.00000001
 40
0.0
 40
0.0
 40
0.0
 40
0.0
 40
0.5599987526606142
 40
1.0
 40
1.0
 40
1.0
 40
1.0
 10
126.7406408854069
 20
95.16324448089128
 30
0.0
 10
126.2608746275197
 20
94.23540318104197
 30
0.0
 10
125.4041472587394
 20
92.57854002654197
 30
0.0
 10
124.5517815102668
 20
90.91943132663152
 30
0.0
 10
124.1767395177495
 20
90.18942142919929
 30
0.0
  0
SPLINE
  5
CA
330
1F
100
AcDbEntity
  8
0
  6
Continuous
 62
     7
370
    25
100
AcDbSpline
210
0.0
220
0.0
230
1.0
 70
     8
 71
     3
 72
     9
 73
     5
 74
     0
 42
0.00000001
 43
0.00000001
 40
0.0
 40
0.0
 40
0.0
 40
0.0
 40
0.5600000882143319
 40
1.0
 40
1.0
 40
1.0
 40
1.0
 10
127.245128022959
 20
96.13706753258342
 30
0.0
 10
127.1509156074273
 20
95.95530866175162
 30
0.0
 10
126.9826791776223
 20
95.63073930067998
 30
0.0
 10
126.8145970199538
 20
95.30609010038317
 30
0.0
 10
126.7406408854069
 20
95.16324448089128
 30
0.0
  0
SPLINE
  5
CB
330
1F
100
AcDbEntity
  8
0
  6
Continuous
 62
     7
370
    25
100
AcDbSpline
210
0.0
220
0.0
230
1.0
 70
     8
 71
     3
 72
    10
 73
     6
 74
     0
 42
0.00000001
 43
0.00000001
 40
0.0
 40
0.0
 40
0.0
 40
0.0
 40
0.4283493666310632
 40
0.7616603141144171
 40
1.0
 40
1.0
 40
1.0
 40
1.0
 10
127.2451280229592
 20
96.13706753258361
 30
0.0
 10
127.6920552242422
 20
96.03527126976047
 30
0.0
 10
128.4867493198418
 20
95.85426441050593
 30
0.0
 10
129.5233041208474
 20
95.68060202755282
 30
0.0
 10
130.1091694538478
 20
95.65911474965704
 30
0.0
 10
130.3534357089478
 20
95.65015600673738
 30
0.0
  0
LINE
  5
CC
330
1F
100
AcDbEntity
  8
0
  6
Continuous
 62
     7
370
    25
100
AcDbLine
 10
130.3513355489
 20
95.6501560067
 30
0.0
 11
131.001989015
 21
95.6501560067
 31
0.0
  0
LINE
  5
CD
330
1F
100
AcDbEntity
  8
0
  6
Continuous
 62
     7
370
    25
100
AcDbLine
 10
142.783459971
 20
95.6501560067
 30
0.0
 11
142.4202816455
 21
95.6501560067
 31
0.0
  0
LINE
  5
CE
330
1F
100
AcDbEntity
  8
0
  6
Continuous
 62
     7
370
    25
100
AcDbLine
 10
142.783459971
 20
95.5594831539
 30
0.0
 11
142.783459971
 21
95.6501560067
 31
0.0
  0
SPLINE
  5
CF
330
1F
100
AcDbEntity
  8
0
  6
Continuous
 62
     7
370
    25
100
AcDbSpline
210
0.0
220
0.0
230
1.0
 70
    24
 71
     3
 72
    11
 73
     7
 74
     0
 42
0.00000001
 43
0.00000001
 40
0.0
 40
0.0
 40
0.0
 40
0.0
 40
0.2799857774483057
 40
0.5599458358671288
 40
0.779998565900937
 40
0.9999999999999999
 40
0.9999999999999999
 40
0.9999999999999999
 40
0.9999999999999999
 10
124.2159914849317
 20
88.65015600673746
 30
0.0
 10
124.8133154720157
 20
88.65015600673748
 30
0.0
 10
126.0079085769922
 20
88.65015600673746
 30
0.0
 10
127.6352703324748
 20
88.65015600673746
 30
0.0
 10
129.0909999019729
 20
88.65015600673746
 30
0.0
 10
129.9284538518807
 20
88.65015600673746
 30
0.0
 10
130.3471320169531
 20
88.65015600673746
 30
0.0
  0
SPLINE
  5
D0
330
1F
100
AcDbEntity
  8
0
  6
Continuous
 62
     7
370
    25
100
AcDbSpline
210
0.0
220
0.0
230
1.0
 70
     8
 71
     3
 72
    11
 73
     7
 74
     0
 42
0.00000001
 43
0.00000001
 40
0.0
 40
0.0
 40
0.0
 40
0.0
 40
0.2500000000000001
 40
0.4999999999999997
 40
0.75
 40
1.0
 40
1.0
 40
1.0
 40
1.0
 10
124.2159914849317
 20
88.65015600673746
 30
0.0
 10
124.2107604511716
 20
88.67347753904576
 30
0.0
 10
124.2002983836513
 20
88.72012060366238
 30
0.0
 10
124.187183895784
 20
89.07810167202906
 30
0.0
 10
124.1781595522901
 20
89.588294610071
 30
0.0
 10
124.1772128625964
 20
89.9890458228232
 30
0.0
 10
124.1767395177495
 20
90.18942142919929
 30
0.0
  0
SPLINE
  5
D1
330
1F
100
AcDbEntity
  8
0
  6
Continuous
 62
     7
370
    25
100
AcDbSpline
210
0.0
220
0.0
230
1.0
 70
     8
 71
     3
 72
    11
 73
     7
 74
     0
 42
0.00000001
 43
0.00000001
 40
0.0
 40
0.0
 40
0.0
 40
0.0
 40
0.2499999999999989
 40
0.4999999999999996
 40
0.749999999999999
 40
1.0
 40
1.0
 40
1.0
 40
1.0
 10
139.7703894372495
 20
95.65015600673746
 30
0.0
 10
139.7720759077535
 20
95.65741831638961
 30
0.0
 10
139.7754488487613
 20
95.67194293569388
 30
0.0
 10
139.7797287456626
 20
95.78391513928638
 30
0.0
 10
139.7827708664764
 20
95.94442671731134
 30
0.0
 10
139.783239239699
 20
96.07285392749279
 30
0.0
 10
139.7834734263103
 20
96.13706753258352
 30
0.0
  0
SPLINE
  5
D2
330
1F
100
AcDbEntity
  8
0
  6
Continuous
 62
     7
370
    25
100
AcDbSpline
210
0.0
220
0.0
230
1.0
 70
     8
 71
     3
 72
    13
 73
     9
 74
     0
 42
0.00000001
 43
0.00000001
 40
0.0
 40
0.0
 40
0.0
 40
0.0
 40
0.2886949682914851
 40
0.554553683594315
 40
0.6780091910936104
 40
0.7888922083801199
 40
0.8964194071406489
 40
1.0
 40
1.0
 40
1.0
 40
1.0
 10
139.7834734263103
 20
96.13706753258352
 30
0.0
 10
140.0551986168865
 20
96.09843737870553
 30
0.0
 10
140.5771550827409
 20
96.02423278048327
 30
0.0
 10
141.1747304908442
 20
95.94117006095466
 30
0.0
 10
141.5385846710237
 20
95.89218913034605
 30
0.0
 10
141.7351321625894
 20
95.86617217057456
 30
0.0
 10
141.8614154516956
 20
95.85081336023032
 30
0.0
 10
141.8762039536666
 20
95.85037237654286
 30
0.0
 10
141.8834599710306
 20
95.85015600673748
 30
0.0
  0
SPLINE
  5
D3
330
1F
100
AcDbEntity
  8
0
  6
Continuous
 62
     7
370
    25
100
AcDbSpline
210
0.0
220
0.0
230
1.0
 70
     8
 71
     3
 72
    11
 73
     7
 74
     0
 42
0.00000001
 43
0.00000001
 40
0.0
 40
0.0
 40
0.0
 40
0.0
 40
0.2500000000000007
 40
0.5000000000000022
 40
0.7500000000000036
 40
1.0
 40
1.0
 40
1.0
 40
1.0
 10
141.8834599710306
 20
95.85015600673746
 30
0.0
 10
141.9087199092348
 20
95.82077833690569
 30
0.0
 10
141.9592397856431
 20
95.76202299724216
 30
0.0
 10
142.0580983948435
 20
95.69943285436317
 30
0.0
 10
142.1674856746669
 20
95.65790005273024
 30
0.0
 10
142.2448018722427
 20
95.65273735540173
 30
0.0
 10
142.2834599710307
 20
95.65015600673748
 30
0.0
  0
LINE
  5
D4
330
1F
100
AcDbEntity
  8
0
  6
Continuous
 62
     7
370
    25
100
AcDbLine
 10
139.7834734263
 20
96.1370675326
 30
0.0
 11
127.245128023
 21
96.1370675326
 31
0.0
  0
LINE
  5
D5
330
1F
100
AcDbEntity
  8
0
  6
Continuous
 62
     7
370
    25
100
AcDbLine
 10
141.883459971
 20
95.8501560067
 30
0.0
 11
139.483459971
 21
99.0501560067
 31
0.0
  0
LINE
  5
D6
330
1F
100
AcDbEntity
  8
0
  6
Continuous
 62
     7
370
    25
100
AcDbLine
 10
137.6599141728
 20
98.9684798706
 30
0.0
 11
139.7834734263
 21
96.1370675326
 31
0.0
  0
ELLIPSE
  5
D7
330
1F
100
AcDbEntity
  8
0
  6
Continuous
 62
     7
370
    25
100
AcDbEllipse
 10
137.683459971
 20
98.9501560067
 30
0.0
 11
1.56006363488487
 21
0.4198716740992979
 31
0.0
210
0.0
220
0.0
230
1.0
 40
0.0147408623
 41
0.9331929812040033
 42
1.581922327328506
  0
SPLINE
  5
D8
330
1F
100
AcDbEntity
  8
0
  6
Continuous
 62
     7
370
    25
100
AcDbSpline
210
0.0
220
0.0
230
1.0
 70
     8
 71
     3
 72
    11
 73
     7
 74
     0
 42
0.00000001
 43
0.00000001
 40
0.0
 40
0.0
 40
0.0
 40
0.0
 40
0.2307374805226512
 40
0.4903955403005855
 40
0.7438105520730652
 40
0.9999999999999999
 40
0.9999999999999999
 40
0.9999999999999999
 40
0.9999999999999999
 10
138.6071479746657
 20
99.21857200189078
 30
0.0
 10
138.6987799794252
 20
99.23728785229524
 30
0.0
 10
138.8935291219618
 20
99.2770653932066
 30
0.0
 10
139.1410366891998
 20
99.25974540464799
 30
0.0
 10
139.3508454185938
 20
99.18876051232185
 30
0.0
 10
139.4390949680742
 20
99.09652489451814
 30
0.0
 10
139.4834599710306
 20
99.05015600673747
 30
0.0
  0
LINE
  5
D9
330
1F
100
AcDbEntity
  8
0
  6
Continuous
 62
     7
370
    25
100
AcDbLine
 10
124.1767395177
 20
90.1894214292
 30
0.0
 11
102.549191349
 21
90.1894214292
 31
0.0
  0
LINE
  5
DA
330
1F
100
AcDbEntity
  8
0
  6
Continuous
 62
     7
370
    25
100
AcDbLine
 10
102.549191349
 20
90.1894214292
 30
0.0
 11
102.7716362602
 21
98.6842498657
 31
0.0
  0
ARC
  5
DB
330
1F
100
AcDbEntity
  8
0
  6
Continuous
 62
     7
370
    25
100
AcDbCircle
 10
103.3831763751
 20
98.1684798706
 30
0.0
 40
0.7999999999999972
100
AcDbArc
 50
90.0
 51
139.8558773282
  0
LINE
  5
DC
330
1F
100
AcDbEntity
  8
0
  6
Continuous
 62
     7
370
    25
100
AcDbLine
 10
103.3831763751
 20
98.9684798706
 30
0.0
 11
137.6599141728
 21
98.9684798706
 31
0.0
  0
SPLINE
  5
DD
330
1F
100
AcDbEntity
  8
0
  6
Continuous
 62
     7
370
    25
100
AcDbSpline
210
0.0
220
0.0
230
1.0
 70
     8
 71
     3
 72
    11
 73
     7
 74
     0
 42
0.00000001
 43
0.00000001
 40
0.0
 40
0.0
 40
0.0
 40
0.0
 40
0.249999999999998
 40
0.4999999999999973
 40
0.7500000000000001
 40
1.0
 40
1.0
 40
1.0
 40
1.0
 10
103.3831763750955
 20
98.96847987055298
 30
0.0
 10
103.3835042363513
 20
99.05837891767999
 30
0.0
 10
103.3841599588629
 20
99.23817701193401
 30
0.0
 10
103.3884189280022
 20
99.46289322116897
 30
0.0
 10
103.394410783664
 20
99.61965430619846
 30
0.0
 10
103.399132901075
 20
99.63998877322447
 30
0.0
 10
103.4014939597805
 20
99.65015600673746
 30
0.0
  0
LINE
  5
DE
330
1F
100
AcDbEntity
  8
0
  6
Continuous
 62
     7
370
    25
100
AcDbLine
 10
137.6782317575
 20
99.6501560067
 30
0.0
 11
103.4014939598
 21
99.6501560067
 31
0.0
  0
SPLINE
  5
DF
330
1F
100
AcDbEntity
  8
0
  6
Continuous
 62
     7
370
    25
100
AcDbSpline
210
0.0
220
0.0
230
1.0
 70
     8
 71
     3
 72
    11
 73
     7
 74
     0
 42
0.00000001
 43
0.00000001
 40
0.0
 40
0.0
 40
0.0
 40
0.0
 40
0.2499999999999986
 40
0.5000000000000003
 40
0.7499999999999973
 40
1.0
 40
1.0
 40
1.0
 40
1.0
 10
137.6782317575182
 20
99.65015600673746
 30
0.0
 10
137.6758706988127
 20
99.63998877322447
 30
0.0
 10
137.6711485814017
 20
99.61965430619847
 30
0.0
 10
137.6651567257399
 20
99.46289322116897
 30
0.0
 10
137.6608977566006
 20
99.23817701193401
 30
0.0
 10
137.660242034089
 20
99.05837891767999
 30
0.0
 10
137.6599141728332
 20
98.96847987055297
 30
0.0
  0
LINE
  5
E0
330
1F
100
AcDbEntity
  8
0
  6
Continuous
 62
     7
370
    25
100
AcDbLine
 10
138.283459971
 20
99.6501560067
 30
0.0
 11
137.6782317575
 21
99.6501560067
 31
0.0
  0
SPLINE
  5
E1
330
1F
100
AcDbEntity
  8
0
  6
Continuous
 62
     7
370
    25
100
AcDbSpline
210
0.0
220
0.0
230
1.0
 70
     8
 71
     3
 72
    10
 73
     6
 74
     0
 42
0.00000001
 43
0.00000001
 40
0.0
 40
0.0
 40
0.0
 40
0.0
 40
0.2808335173386708
 40
0.5616510917414125
 40
1.0
 40
1.0
 40
1.0
 40
1.0
 10
138.2834599710307
 20
99.65015600673746
 30
0.0
 10
138.3218104199931
 20
99.64258139846955
 30
0.0
 10
138.3985091407606
 20
99.62743261194468
 30
0.0
 10
138.5236634908026
 20
99.49380167888499
 30
0.0
 10
138.5755325571559
 20
99.32280096452678
 30
0.0
 10
138.6071479746657
 20
99.21857200189078
 30
0.0
  0
LINE
  5
E2
330
1F
100
AcDbEntity
  8
0
  6
Continuous
 62
     7
370
    25
100
AcDbLine
 10
102.549191349
 20
90.1894214292
 30
0.0
 11
102.5061989215
 21
90.1265343443
 31
0.0
  0
ELLIPSE
  5
E3
330
1F
100
AcDbEntity
  8
0
  6
Continuous
 62
     7
370
    25
100
AcDbEllipse
 10
98.283459971
 20
90.1501560067
 30
0.0
 11
0.5000325503425388
 21
1.499994860147283
 31
0.0
210
0.0
220
0.0
230
1.0
 40
0.0078530307
 41
2.36388800015561
 42
3.144210503884631
  0
SPLINE
  5
E4
330
1F
100
AcDbEntity
  8
0
  6
Continuous
 62
     7
370
    25
100
AcDbSpline
210
0.0
220
0.0
230
1.0
 70
     8
 71
     3
 72
    12
 73
     8
 74
     0
 42
0.00000001
 43
0.00000001
 40
0.0
 40
0.0
 40
0.0
 40
0.0
 40
0.0715202026166142
 40
0.1260836237049476
 40
0.3855387013103047
 40
0.8475626424815554
 40
1.0
 40
1.0
 40
1.0
 40
1.0
 10
98.25803135803005
 20
89.47846395638666
 30
0.0
 10
98.2435772232512
 20
89.47535530852186
 30
0.0
 10
98.21809589596512
 20
89.46987504457852
 30
0.0
 10
98.15162416831896
 20
89.4302864991581
 30
0.0
 10
98.04691978118593
 20
89.32385236617583
 30
0.0
 10
97.96009122233959
 20
89.1933453504676
 30
0.0
 10
97.92709465562973
 20
89.10583563650425
 30
0.0
 10
97.9189087707788
 20
89.0841259705217
 30
0.0
  0
ELLIPSE
  5
E5
330
1F
100
AcDbEntity
  8
0
  6
Continuous
 62
     7
370
    25
100
AcDbEllipse
 10
66.3593231304
 20
90.1501560067
 30
0.0
 11
36.17607470647087
 21
0.04043410480178978
 31
0.0
210
0.0
220
0.0
230
1.0
 40
0.0414488012
 41
5.79192856228035
 42
6.243021298617577
  0
ELLIPSE
  5
E6
330
1F
100
AcDbEntity
  8
0
  6
Continuous
 62
     7
370
    25
100
AcDbEllipse
 10
102.5884433162
 20
90.1501560067
 30
0.0
 11
0.03725061189166468
 21
1.49999863053587
 31
0.0
210
0.0
220
0.0
230
1.0
 40
0.0544129722
 41
1.585352277991062
 42
1.587896030767889
  0
LINE
  5
E7
330
1F
100
AcDbEntity
  8
0
  6
Continuous
 62
     7
370
    25
100
AcDbLine
 10
97.783459971
 20
88.6501560067
 30
0.0
 11
124.2159914849
 21
88.6501560067
 31
0.0
  0
SPLINE
  5
E8
330
1F
100
AcDbEntity
  8
0
  6
Continuous
 62
     7
370
    25
100
AcDbSpline
210
0.0
220
0.0
230
1.0
 70
     8
 71
     3
 72
    11
 73
     7
 74
     0
 42
0.00000001
 43
0.00000001
 40
0.0
 40
0.0
 40
0.0
 40
0.0
 40
0.2561894651307314
 40
0.509604493920692
 40
0.769274206655365
 40
1.0
 40
1.0
 40
1.0
 40
1.0
 10
139.4834599710306
 20
99.05015600673747
 30
0.0
 10
139.4078638387368
 20
99.1381663717259
 30
0.0
 10
139.2574902520621
 20
99.31323398228051
 30
0.0
 10
138.9582774661068
 20
99.50342155198209
 30
0.0
 10
138.6307577312201
 20
99.62742035270774
 30
0.0
 10
138.3945793504062
 20
99.64288163858693
 30
0.0
 10
138.2834599710307
 20
99.65015600673746
 30
0.0
  0
ARC
  5
E9
330
1F
100
AcDbEntity
  8
0
  6
Continuous
 62
     7
370
    25
100
AcDbCircle
 10
106.9821981931
 20
90.1551600546
 30
0.0
 40
8.750371682185278
100
AcDbArc
 50
182.878079786
 51
184.4353064954
  0
ELLIPSE
  5
EA
330
1F
100
AcDbEntity
  8
0
  6
Continuous
 62
     7
370
    25
100
AcDbEllipse
 10
66.3324527715
 20
90.1635911862
 30
0.0
 11
36.18915847374971
 21
0.02692057091445577
 31
0.0
210
0.0
220
0.0
230
1.0
 40
0.0276225703
 41
5.791964074121238
 42
6.254836299513471
  0
SPLINE
  5
EB
330
1F
100
AcDbEntity
  8
0
  6
Continuous
 62
     7
370
    25
100
AcDbSpline
210
0.0
220
0.0
230
1.0
 70
     8
 71
     3
 72
     9
 73
     5
 74
     0
 42
0.00000001
 43
0.00000001
 40
0.0
 40
0.0
 40
0.0
 40
0.0
 40
0.8673350121727758
 40
1.0
 40
1.0
 40
1.0
 40
1.0
 10
102.5070912947063
 20
90.16216600260003
 30
0.0
 10
102.5068539090764
 20
90.15296757922482
 30
0.0
 10
102.5065802136455
 20
90.14236219232576
 30
0.0
 10
102.5063243271369
 20
90.13175656772438
 30
0.0
 10
102.5062903799563
 20
90.13034957266572
 30
0.0
  0
LINE
  5
EC
330
1F
100
AcDbEntity
  8
0
  6
Continuous
 62
     7
370
    25
100
AcDbLine
 10
102.756391036
 20
98.6429662413
 30
0.0
 11
102.7295206772
 21
98.6564014208
 31
0.0
  0
LINE
  5
ED
330
1F
100
AcDbEntity
  8
0
  6
Continuous
 62
     7
370
    25
100
AcDbLine
 10
102.756391036
 20
98.6429662413
 30
0.0
 11
102.5344630299
 21
90.1678776107
 31
0.0
  0
LINE
  5
EE
330
1F
100
AcDbEntity
  8
0
  6
Continuous
 62
     7
370
    25
100
AcDbLine
 10
102.7295206772
 20
98.6564014208
 30
0.0
 11
102.5070912947
 21
90.1621660026
 31
0.0
  0
ARC
  5
EF
330
1F
100
AcDbEntity
  8
0
  6
Continuous
 62
     7
370
    25
100
AcDbCircle
 10
103.3638754574
 20
98.168965258
 30
0.0
 40
0.7999999999999912
100
AcDbArc
 50
142.4614409777
 51
153.4349488229
  0
LINE
  5
F0
330
1F
100
AcDbEntity
  8
0
  6
Continuous
 62
     7
370
    25
100
AcDbLine
 10
98.2428638803
 20
89.7157964859
 30
0.0
 11
102.6483337046
 21
98.5267361344
 31
0.0
  0
SPLINE
  5
F1
330
1F
100
AcDbEntity
  8
0
  6
Continuous
 62
     7
370
    25
100
AcDbSpline
210
0.0
220
0.0
230
1.0
 70
     8
 71
     3
 72
    12
 73
     8
 74
     0
 42
0.00000001
 43
0.00000001
 40
0.0
 40
0.0
 40
0.0
 40
0.0
 40
0.139683458618249
 40
0.3831896274038307
 40
0.55131692930133
 40
0.8194729461607051
 40
0.9999999999999999
 40
0.9999999999999999
 40
0.9999999999999999
 40
0.9999999999999999
 10
97.48090303012543
 20
89.66307611367694
 30
0.0
 10
97.49114441087171
 20
89.67638848733787
 30
0.0
 10
97.51923929706004
 20
89.71290794034584
 30
0.0
 10
97.62638965841482
 20
89.75058000093722
 30
0.0
 10
97.80672674582782
 20
89.77494732169872
 30
0.0
 10
98.01518289039679
 20
89.77383028693475
 30
0.0
 10
98.17753979110073
 20
89.7324469985572
 30
0.0
 10
98.24286388034912
 20
89.71579648594178
 30
0.0
  0
LWPOLYLINE
  5
F2
330
1F
100
AcDbEntity
  8
0
  6
Continuous
 62
     7
370
    25
100
AcDbPolyline
 90
        9
 70
   128
 43
0.0
 10
97.4809030301
 20
89.6630761137
 10
97.4580525403
 20
89.5867456361
 10
97.4609576663
 20
89.5023456368
 10
97.4894592313
 20
89.4145005363
 10
97.5419955858
 20
89.3280235179
 10
97.615688173
 20
89.2476528056
 10
97.7064992499
 20
89.1777920482
 10
97.8094531221
 20
89.1222690362
 10
97.9189087708
 20
89.0841259705
  0
SPLINE
  5
F3
330
1F
100
AcDbEntity
  8
0
  6
Continuous
 62
     7
370
    25
100
AcDbSpline
210
0.0
220
0.0
230
1.0
 70
    24
 71
     3
 72
    11
 73
     7
 74
     0
 42
0.00000001
 43
0.00000001
 40
0.0
 40
0.0
 40
0.0
 40
0.0
 40
0.2499999999999991
 40
0.4999999999999978
 40
0.7499999999999996
 40
1.0
 40
1.0
 40
1.0
 40
1.0
 10
102.6483337045537
 20
98.5267361343509
 30
0.0
 10
102.5700985962214
 20
98.56585368851702
 30
0.0
 10
102.4136283795569
 20
98.6440887968493
 30
0.0
 10
102.2203022281404
 20
98.74075187255751
 30
0.0
 10
102.0859257958614
 20
98.80794008869705
 30
0.0
 10
102.0685440474743
 20
98.81663096289061
 30
0.0
 10
102.0598531732807
 20
98.82097639998742
 30
0.0
  0
LINE
  5
F4
330
1F
100
AcDbEntity
  8
0
  6
Continuous
 62
     7
370
    25
100
AcDbLine
 10
102.0598531733
 20
98.8209764
 30
0.0
 11
97.4809030301
 21
89.6630761137
 31
0.0
  0
LINE
  5
F5
330
1F
100
AcDbEntity
  8
0
  6
Continuous
 62
     7
370
    25
100
AcDbLine
 10
102.6370688161
 20
98.7948685006
 30
0.0
 11
102.2548562443
 21
99.1172247476
 31
0.0
  0
SPLINE
  5
F6
330
1F
100
AcDbEntity
  8
0
  6
Continuous
 62
     7
370
    25
100
AcDbSpline
210
0.0
220
0.0
230
1.0
 70
     8
 71
     3
 72
    12
 73
     8
 74
     0
 42
0.00000001
 43
0.00000001
 40
0.0
 40
0.0
 40
0.0
 40
0.0
 40
0.2198609600791294
 40
0.4397396970008148
 40
0.6583291451397767
 40
0.8791239516843599
 40
1.0
 40
1.0
 40
1.0
 40
1.0
 10
102.7716362601896
 20
98.68424986566795
 30
0.0
 10
102.7117211974607
 20
98.73473808179584
 30
0.0
 10
102.5918862275747
 20
98.8357185962728
 30
0.0
 10
102.4351512393002
 20
98.96738158922282
 30
0.0
 10
102.3185829155141
 20
99.0649429119959
 30
0.0
 10
102.2623262237198
 20
99.11160230347262
 30
0.0
 10
102.2568083525035
 20
99.11575545047397
 30
0.0
 10
102.254856244332
 20
99.11722474757805
 30
0.0
  0
SPLINE
  5
F7
330
1F
100
AcDbEntity
  8
0
  6
Continuous
 62
     7
370
    25
100
AcDbSpline
210
0.0
220
0.0
230
1.0
 70
     8
 71
     3
 72
    12
 73
     8
 74
     0
 42
0.00000001
 43
0.00000001
 40
0.0
 40
0.0
 40
0.0
 40
0.0
 40
0.2225634137435275
 40
0.446206317369568
 40
0.6680851268158019
 40
0.8917990985569294
 40
1.0
 40
1.0
 40
1.0
 40
1.0
 10
102.2120787469122
 20
99.06409881205806
 30
0.0
 10
102.2176653130146
 20
99.05867173944435
 30
0.0
 10
102.2288655415042
 20
99.04779127151689
 30
0.0
 10
102.3229163191913
 20
98.97249784049659
 30
0.0
 10
102.4624073825893
 20
98.86301929574331
 30
0.0
 10
102.6076314824257
 20
98.7503046551968
 30
0.0
 10
102.6995546511557
 20
98.6794871977526
 30
0.0
 10
102.7295206771572
 20
98.65640142078857
 30
0.0
  0
LINE
  5
F8
330
1F
100
AcDbEntity
  8
0
  6
Continuous
 62
     7
370
    25
100
AcDbLine
 10
102.6085504845
 20
98.7594512103
 30
0.0
 11
102.2120787469
 21
99.0640988121
 31
0.0
  0
ARC
  5
F9
330
1F
100
AcDbEntity
  8
0
  6
Continuous
 62
     7
370
    25
100
AcDbCircle
 10
103.4014939598
 20
98.1501560067
 30
0.0
 40
1.500000000000001
100
AcDbArc
 50
90.0
 51
139.8558773282
  0
ARC
  5
FA
330
1F
100
AcDbEntity
  8
0
  6
Continuous
 62
     7
370
    25
100
AcDbCircle
 10
103.4014939598
 20
98.1501560067
 30
0.0
 40
1.500000000000014
100
AcDbArc
 50
142.4614409777
 51
153.4349488229
  0
LINE
  5
FB
330
1F
100
AcDbEntity
  8
0
  6
Continuous
 62
     7
370
    25
100
AcDbLine
 10
97.3362463755
 20
89.3737628045
 30
0.0
 11
97.4809030301
 21
89.6630761137
 31
0.0
  0
ARC
  5
FC
330
1F
100
AcDbEntity
  8
0
  6
Continuous
 62
     7
370
    25
100
AcDbCircle
 10
97.783459971
 20
89.1501560067
 30
0.0
 40
0.5000000000000023
100
AcDbArc
 50
153.4349488229
 51
270.0
  0
SPLINE
  5
FD
330
1F
100
AcDbEntity
  8
0
  6
Continuous
 62
     7
370
    25
100
AcDbSpline
210
0.0
220
0.0
230
1.0
 70
     8
 71
     3
 72
     9
 73
     5
 74
     0
 42
0.00000001
 43
0.00000001
 40
0.0
 40
0.0
 40
0.0
 40
0.0
 40
0.5600029565045499
 40
1.0
 40
1.0
 40
1.0
 40
1.0
 10
102.254856244332
 20
99.11722474757805
 30
0.0
 10
102.2467084849789
 20
99.1074382854181
 30
0.0
 10
102.2321589915191
 20
99.08996255239511
 30
0.0
 10
102.2182143485786
 20
99.0720015847293
 30
0.0
 10
102.2120787469122
 20
99.06409881205805
 30
0.0
  0
LINE
  5
FE
330
1F
100
AcDbEntity
  8
0
  6
Continuous
 62
     7
370
    25
100
AcDbLine
 10
144.377399116
 20
89.0382315925
 30
0.0
 11
144.3795392312
 21
89.2617700461
 31
0.0
  0
SPLINE
  5
FF
330
1F
100
AcDbEntity
  8
0
  6
Continuous
 62
     7
370
    25
100
AcDbSpline
210
0.0
220
0.0
230
1.0
 70
     8
 71
     3
 72
    10
 73
     6
 74
     0
 42
0.00000001
 43
0.00000001
 40
0.0
 40
0.0
 40
0.0
 40
0.0
 40
0.3536466237081646
 40
0.7182931081305524
 40
1.0
 40
1.0
 40
1.0
 40
1.0
 10
144.5286870798198
 20
87.09196294602323
 30
0.0
 10
144.4911800455106
 20
86.64842529590466
 30
0.0
 10
144.414999354265
 20
85.74755415528409
 30
0.0
 10
144.4534357568782
 20
84.36954486047286
 30
0.0
 10
144.5164178762112
 20
83.45151082916796
 30
0.0
 10
144.5438680261314
 20
83.05139454127453
 30
0.0
  0
LINE
  5
100
330
1F
100
AcDbEntity
  8
0
  6
Continuous
 62
     7
370
    25
100
AcDbLine
 10
144.377399116
 20
89.0382315925
 30
0.0
 11
144.5286870798
 21
87.091962946
 31
0.0
  0
LINE
  5
101
330
1F
100
AcDbEntity
  8
0
  6
Continuous
 62
     7
370
    25
100
AcDbLine
 10
144.603459971
 20
80.9501560067
 30
0.0
 11
144.6648147639
 21
80.9501560067
 31
0.0
  0
LWPOLYLINE
  5
102
330
1F
100
AcDbEntity
  8
0
  6
Continuous
 62
     7
370
    25
100
AcDbPolyline
 90
        3
 70
   128
 43
0.0
 10
144.8008273064
 20
79.6004041472
 10
144.7595285341
 20
80.0102052918
 10
144.6648147639
 20
80.9501560067
  0
SPLINE
  5
103
330
1F
100
AcDbEntity
  8
0
  6
Continuous
 62
     7
370
    25
100
AcDbSpline
210
0.0
220
0.0
230
1.0
 70
     8
 71
     3
 72
    11
 73
     7
 74
     0
 42
0.00000001
 43
0.00000001
 40
0.0
 40
0.0
 40
0.0
 40
0.0
 40
0.2920574028183093
 40
0.5665622171831317
 40
0.8065682389915578
 40
1.0
 40
1.0
 40
1.0
 40
1.0
 10
144.6672543639773
 20
95.15015600673749
 30
0.0
 10
144.6989149002928
 20
95.1333242106888
 30
0.0
 10
144.7603331813534
 20
95.10067220599211
 30
0.0
 10
144.840245540618
 20
94.84528031895111
 30
0.0
 10
144.8793443543454
 20
94.50955740237649
 30
0.0
 10
144.8639279914159
 20
94.26105570755541
 30
0.0
 10
144.8570480784317
 20
94.15015600672537
 30
0.0
  0
LINE
  5
104
330
1F
100
AcDbEntity
  8
0
  6
Continuous
 62
     7
370
    25
100
AcDbLine
 10
144.8570480784
 20
94.1501560067
 30
0.0
 11
144.3795392312
 21
89.2617700461
 31
0.0
  0
LINE
  5
105
330
1F
100
AcDbEntity
  8
0
  6
Continuous
 62
     7
370
    25
100
AcDbLine
 10
145.2248510803
 20
97.1501560067
 30
0.0
 11
160.3420688618
 21
97.1501560067
 31
0.0
  0
LINE
  5
106
330
1F
100
AcDbEntity
  8
0
  6
Continuous
 62
     7
370
    25
100
AcDbLine
 10
160.33096619
 20
79.1501560067
 30
0.0
 11
145.3024941159
 21
79.1501560067
 31
0.0
  0
SPLINE
  5
107
330
1F
100
AcDbEntity
  8
0
  6
Continuous
 62
     7
370
    25
100
AcDbSpline
210
0.0
220
0.0
230
1.0
 70
     8
 71
     3
 72
    12
 73
     8
 74
     0
 42
0.00000001
 43
0.00000001
 40
0.0
 40
0.0
 40
0.0
 40
0.0
 40
0.2316347876629375
 40
0.46330664808196
 40
0.6939442291381526
 40
0.9227406525226395
 40
1.0
 40
1.0
 40
1.0
 40
1.0
 10
145.3024941159423
 20
79.15015600673748
 30
0.0
 10
145.2454407982935
 20
79.15574547176773
 30
0.0
 10
145.131325031709
 20
79.1669252964127
 30
0.0
 10
144.9794717012309
 20
79.25424836236837
 30
0.0
 10
144.8653043183471
 20
79.38255853615043
 30
0.0
 10
144.8135499859798
 20
79.50723796284824
 30
0.0
 10
144.8033916349927
 20
79.58162597160154
 30
0.0
 10
144.8008273063852
 20
79.60040414722697
 30
0.0
  0
SPLINE
  5
108
330
1F
100
AcDbEntity
  8
0
  6
Continuous
 62
     7
370
    25
100
AcDbSpline
210
0.0
220
0.0
230
1.0
 70
     8
 71
     3
 72
     9
 73
     5
 74
     0
 42
0.00000001
 43
0.00000001
 40
0.0
 40
0.0
 40
0.0
 40
0.0
 40
0.7210175706402088
 40
0.9999999999999999
 40
0.9999999999999999
 40
0.9999999999999999
 40
0.9999999999999999
 10
143.1273884267281
 20
88.84795614297235
 30
0.0
 10
143.0584552077319
 20
88.91120695588164
 30
0.0
 10
142.9628497442824
 20
88.99893132694397
 30
0.0
 10
142.8225899806345
 20
89.04374051328793
 30
0.0
 10
142.7834599710307
 20
89.0562414889518
 30
0.0
  0
ARC
  5
109
330
1F
100
AcDbEntity
  8
0
  6
Continuous
 62
     7
370
    25
100
AcDbCircle
 10
136.0612336321
 20
81.7719787251
 30
0.0
 40
10.00000000000001
100
AcDbArc
 50
32.1405798582
 51
45.0397956095
  0
SPLINE
  5
10A
330
1F
100
AcDbEntity
  8
0
  6
Continuous
 62
     7
370
    25
100
AcDbSpline
210
0.0
220
0.0
230
1.0
 70
     8
 71
     3
 72
     9
 73
     5
 74
     0
 42
0.00000001
 43
0.00000001
 40
0.0
 40
0.0
 40
0.0
 40
0.0
 40
0.4474581094010271
 40
1.0
 40
1.0
 40
1.0
 40
1.0
 10
142.7834599710307
 20
84.68246782591456
 30
0.0
 10
143.057110572709
 20
84.45453488254765
 30
0.0
 10
143.6686775460836
 20
83.94513983845734
 30
0.0
 10
144.2323921133666
 20
83.36947402061716
 30
0.0
 10
144.5438680261314
 20
83.05139454127453
 30
0.0
  0
LINE
  5
10B
330
1F
100
AcDbEntity
  8
0
  6
Continuous
 62
     7
370
    25
100
AcDbLine
 10
143.1273884267
 20
94.1501560067
 30
0.0
 11
143.1273884267
 21
88.847956143
 31
0.0
  0
LINE
  5
10C
330
1F
100
AcDbEntity
  8
0
  6
Continuous
 62
     7
370
    25
100
AcDbLine
 10
144.8570480784
 20
94.1501560067
 30
0.0
 11
143.1273884267
 21
94.1501560067
 31
0.0
  0
LINE
  5
10D
330
1F
100
AcDbEntity
  8
0
  6
Continuous
 62
     7
370
    25
100
AcDbLine
 10
142.783459971
 20
95.1501560067
 30
0.0
 11
144.667254364
 21
95.1501560067
 31
0.0
  0
ARC
  5
10E
330
1F
100
AcDbEntity
  8
0
  6
Continuous
 62
     7
370
    25
100
AcDbCircle
 10
105.1709192966
 20
101.8595012279
 30
0.0
 40
4.021945305549842
100
AcDbArc
 50
230.4243196696
 51
233.1058614851
  0
LINE
  5
10F
330
1F
100
AcDbEntity
  8
0
  6
Continuous
 62
     7
370
    25
100
AcDbLine
 10
144.533459971
 20
72.7001560067
 30
0.0
 11
161.033459971
 21
72.7001560067
 31
0.0
  0
LINE
  5
110
330
1F
100
AcDbEntity
  8
0
  6
Continuous
 62
     7
370
    25
100
AcDbLine
 10
152.7205771062
 20
97.2380983422
 30
0.0
 11
152.7205771062
 21
97.250048904
 31
0.0
  0
LINE
  5
111
330
1F
100
AcDbEntity
  8
0
  6
Continuous
 62
     7
370
    25
100
AcDbLine
 10
152.8463428358
 20
97.2380983422
 30
0.0
 11
152.8463428358
 21
97.250048904
 31
0.0
  0
LINE
  5
112
330
1F
100
AcDbEntity
  8
0
  6
Continuous
 62
     7
370
    25
100
AcDbLine
 10
144.3795392312
 20
89.2617700461
 30
0.0
 11
161.7695082161
 21
89.2617700461
 31
0.0
  0
LINE
  5
113
330
1F
100
AcDbEntity
  8
0
  6
Continuous
 62
     7
370
    25
100
AcDbLine
 10
161.7722675296
 20
89.0382315925
 30
0.0
 11
144.377399116
 21
89.0382315925
 31
0.0
  0
LINE
  5
114
330
1F
100
AcDbEntity
  8
0
  6
Continuous
 62
     7
370
    25
100
AcDbLine
 10
144.8008273064
 20
79.6004041472
 30
0.0
 11
160.8284847851
 21
79.6004041472
 31
0.0
  0
LINE
  5
115
330
1F
100
AcDbEntity
  8
0
  6
Continuous
 62
     7
370
    25
100
AcDbLine
 10
160.8382078001
 20
96.712173374
 30
0.0
 11
144.7287121419
 21
96.712173374
 31
0.0
  0
LINE
  5
116
330
1F
100
AcDbEntity
  8
0
  6
Continuous
 62
     7
370
    25
100
AcDbLine
 10
142.783459971
 20
94.1501560067
 30
0.0
 11
143.1273884267
 21
94.1501560067
 31
0.0
  0
ARC
  5
117
330
1F
100
AcDbEntity
  8
0
  6
Continuous
 62
     7
370
    25
100
AcDbCircle
 10
142.0215147078
 20
94.2048205898
 30
0.0
 40
1.107223960532932
100
AcDbArc
 50
357.1701084939
 51
46.5155082001
  0
LINE
  5
118
330
1F
100
AcDbEntity
  8
0
  6
Continuous
 62
     7
370
    25
100
AcDbLine
 10
102.5344630299
 20
90.1678776107
 30
0.0
 11
102.7563904663
 21
98.6429444822
 31
0.0
  0
LINE
  5
119
330
1F
100
AcDbEntity
  8
0
  6
CENTERX2
 62
     7
370
    18
100
AcDbLine
 10
122.7699044971
 20
59.9501560067
 30
0.0
 11
182.033459971
 21
59.9501560067
 31
0.0
  0
LINE
  5
11A
330
1F
100
AcDbEntity
  8
0
  6
CENTERX2
 62
     7
370
    18
100
AcDbLine
 10
152.783459971
 20
98.90426986
 30
0.0
 11
152.783459971
 21
45.569304793
 31
0.0
  0
ARC
  5
11B
330
1F
100
AcDbEntity
  8
0
  6
Continuous
 62
     7
370
    25
100
AcDbCircle
 10
227.1581144502
 20
72.7001560067
 30
0.0
 40
0.25
100
AcDbArc
 50
180.0
 51
270.0
  0
ARC
  5
11C
330
1F
100
AcDbEntity
  8
0
  6
Continuous
 62
     7
370
    25
100
AcDbCircle
 10
210.1581144502
 20
72.7001560067
 30
0.0
 40
0.25
100
AcDbArc
 50
270.0
 51
0.0
  0
LINE
  5
11D
330
1F
100
AcDbEntity
  8
0
  6
Continuous
 62
     7
370
    25
100
AcDbLine
 10
226.9081144502
 20
78.1501560067
 30
0.0
 11
226.4081144502
 21
78.6501560067
 31
0.0
  0
LINE
  5
11E
330
1F
100
AcDbEntity
  8
0
  6
Continuous
 62
     7
370
    25
100
AcDbLine
 10
210.9081144502
 20
78.6501560067
 30
0.0
 11
210.4081144502
 21
78.1501560067
 31
0.0
  0
LINE
  5
11F
330
1F
100
AcDbEntity
  8
0
  6
Continuous
 62
     7
370
    25
100
AcDbLine
 10
226.9081144502
 20
72.7001560067
 30
0.0
 11
226.9081144502
 21
78.1501560067
 31
0.0
  0
LINE
  5
120
330
1F
100
AcDbEntity
  8
0
  6
Continuous
 62
     7
370
    25
100
AcDbLine
 10
210.4081144502
 20
78.1501560067
 30
0.0
 11
210.4081144502
 21
72.7001560067
 31
0.0
  0
LINE
  5
121
330
1F
100
AcDbEntity
  8
0
  6
Continuous
 62
     7
370
    25
100
AcDbLine
 10
213.6581144502
 20
80.9501560067
 30
0.0
 11
213.6581144502
 21
78.6501560067
 31
0.0
  0
LINE
  5
122
330
1F
100
AcDbEntity
  8
0
  6
Continuous
 62
     7
370
    25
100
AcDbLine
 10
223.6581144502
 20
78.6501560067
 30
0.0
 11
223.6581144502
 21
79.1501560067
 31
0.0
  0
SPLINE
  5
123
330
1F
100
AcDbEntity
  8
0
  6
Continuous
 62
     7
370
    25
100
AcDbSpline
210
0.0
220
0.0
230
1.0
 70
     8
 71
     3
 72
     9
 73
     5
 74
     0
 42
0.00000001
 43
0.00000001
 40
0.0
 40
0.0
 40
0.0
 40
0.0
 40
0.499316545832364
 40
0.9999999999999999
 40
0.9999999999999999
 40
0.9999999999999999
 40
0.9999999999999999
 10
219.6674072451128
 20
99.63772343548918
 30
0.0
 10
219.6442766274656
 20
99.64107447113679
 30
0.0
 10
219.5979520707484
 20
99.64778571608873
 30
0.0
 10
219.5513926776201
 20
99.64345854678308
 30
0.0
 10
219.5280811598447
 20
99.64129200470835
 30
0.0
  0
SPLINE
  5
124
330
1F
100
AcDbEntity
  8
0
  6
Continuous
 62
     7
370
    25
100
AcDbSpline
210
0.0
220
0.0
230
1.0
 70
     8
 71
     3
 72
     9
 73
     5
 74
     0
 42
0.00000001
 43
0.00000001
 40
0.0
 40
0.0
 40
0.0
 40
0.0
 40
0.5006834545219032
 40
0.9999999999999999
 40
0.9999999999999999
 40
0.9999999999999999
 40
0.9999999999999999
 10
217.7881476879646
 20
99.64129200463593
 30
0.0
 10
217.7648361733136
 20
99.64345854530121
 30
0.0
 10
217.7182767864585
 20
99.64778571178879
 30
0.0
 10
217.671952236202
 20
99.64107446543412
 30
0.0
 10
217.6488216217971
 20
99.63772342908847
 30
0.0
  0
LINE
  5
125
330
1F
100
AcDbEntity
  8
0
  6
Continuous
 62
     7
370
    25
100
AcDbLine
 10
216.1822599319
 20
98.9822063962
 30
0.0
 11
216.0514825773
 21
96.1289449061
 31
0.0
  0
LINE
  5
126
330
1F
100
AcDbEntity
  8
0
  6
Continuous
 62
     7
370
    25
100
AcDbLine
 10
221.2647463231
 20
96.1289449061
 30
0.0
 11
221.1339689685
 21
98.9822063962
 31
0.0
  0
LINE
  5
127
330
1F
100
AcDbEntity
  8
0
  6
Continuous
 62
     7
370
    25
100
AcDbLine
 10
216.70514047
 20
99.6273072872
 30
0.0
 11
216.656709527
 21
99.6061027732
 31
0.0
  0
SPLINE
  5
128
330
1F
100
AcDbEntity
  8
0
  6
Continuous
 62
     7
370
    25
100
AcDbSpline
210
0.0
220
0.0
230
1.0
 70
     8
 71
     3
 72
     9
 73
     5
 74
     0
 42
0.00000001
 43
0.00000001
 40
0.0
 40
0.0
 40
0.0
 40
0.0
 40
0.0503631419175682
 40
1.0
 40
1.0
 40
1.0
 40
1.0
 10
216.2386222559822
 20
99.22071456467826
 30
0.0
 10
216.2367261753881
 20
99.21754450731426
 30
0.0
 10
216.1990779961458
 20
99.15460051209668
 30
0.0
 10
216.1925375531305
 20
99.07945291340275
 30
0.0
 10
216.186326507375
 20
99.00808998388659
 30
0.0
  0
SPLINE
  5
129
330
1F
100
AcDbEntity
  8
0
  6
Continuous
 62
     7
370
    25
100
AcDbSpline
210
0.0
220
0.0
230
1.0
 70
     8
 71
     3
 72
    11
 73
     7
 74
     0
 42
0.00000001
 43
0.00000001
 40
0.0
 40
0.0
 40
0.0
 40
0.0
 40
0.2436788845968632
 40
0.4915884466681921
 40
0.7437897073051964
 40
1.0
 40
1.0
 40
1.0
 40
1.0
 10
221.1299023930518
 20
99.0080899838866
 30
0.0
 10
221.1185984362233
 20
99.07720933578342
 30
0.0
 10
221.0957942667619
 20
99.21664806840027
 30
0.0
 10
220.9826294678574
 20
99.40130196094022
 30
0.0
 10
220.8203458750471
 20
99.55193046674944
 30
0.0
 10
220.6812066351287
 20
99.60204994291225
 30
0.0
 10
220.6110884303963
 20
99.62730728722954
 30
0.0
  0
SPLINE
  5
12A
330
1F
100
AcDbEntity
  8
0
  6
Continuous
 62
     7
370
    25
100
AcDbSpline
210
0.0
220
0.0
230
1.0
 70
     8
 71
     3
 72
    10
 73
     6
 74
     0
 42
0.00000001
 43
0.00000001
 40
0.0
 40
0.0
 40
0.0
 40
0.0
 40
0.2663464296503018
 40
0.5214744039517479
 40
0.9999999999999999
 40
0.9999999999999999
 40
0.9999999999999999
 40
0.9999999999999999
 10
221.6128816471284
 20
95.67340178480377
 30
0.0
 10
221.5677001832118
 20
95.69238785054327
 30
0.0
 10
221.4792402890939
 20
95.72956029294433
 30
0.0
 10
221.3326559496944
 20
95.85912741106026
 30
0.0
 10
221.2786318329174
 20
95.98960680250312
 30
0.0
 10
221.2433945987152
 20
96.07471199531565
 30
0.0
  0
SPLINE
  5
12B
330
1F
100
AcDbEntity
  8
0
  6
Continuous
 62
     7
370
    25
100
AcDbSpline
210
0.0
220
0.0
230
1.0
 70
     8
 71
     3
 72
    10
 73
     6
 74
     0
 42
0.00000001
 43
0.00000001
 40
0.0
 40
0.0
 40
0.0
 40
0.0
 40
0.4785255960482606
 40
0.7336535703497067
 40
1.0
 40
1.0
 40
1.0
 40
1.0
 10
216.0728343017117
 20
96.07471199531564
 30
0.0
 10
216.0375970675094
 20
95.9896068025031
 30
0.0
 10
215.9835729507324
 20
95.85912741106023
 30
0.0
 10
215.8369886113329
 20
95.72956029294433
 30
0.0
 10
215.748528717215
 20
95.69238785054328
 30
0.0
 10
215.7033472532985
 20
95.67340178480377
 30
0.0
  0
ARC
  5
12C
330
1F
100
AcDbEntity
  8
0
  6
Continuous
 62
     7
370
    25
100
AcDbCircle
 10
214.931376026
 20
94.1501560067
 30
0.0
 40
1.5
100
AcDbArc
 50
90.0
 51
180.0
  0
LINE
  5
12D
330
1F
100
AcDbEntity
  8
0
  6
Continuous
 62
     7
370
    25
100
AcDbLine
 10
213.431376026
 20
94.1501560067
 30
0.0
 11
213.431376026
 21
88.8972013745
 31
0.0
  0
ARC
  5
12E
330
1F
100
AcDbEntity
  8
0
  6
Continuous
 62
     7
370
    25
100
AcDbCircle
 10
222.3848528744
 20
94.1501560067
 30
0.0
 40
1.5
100
AcDbArc
 50
0.0
 51
90.0
  0
LINE
  5
12F
330
1F
100
AcDbEntity
  8
0
  6
Continuous
 62
     7
370
    25
100
AcDbLine
 10
223.8848528744
 20
88.8972013745
 30
0.0
 11
223.8848528744
 21
94.1501560067
 31
0.0
  0
LINE
  5
130
330
1F
100
AcDbEntity
  8
0
  6
Continuous
 62
     7
370
    25
100
AcDbLine
 10
209.6693068916
 20
89.0382315925
 30
0.0
 11
210.4781144502
 21
80.9501560067
 31
0.0
  0
LINE
  5
131
330
1F
100
AcDbEntity
  8
0
  6
Continuous
 62
     7
370
    25
100
AcDbLine
 10
226.7031392643
 20
79.6004041472
 30
0.0
 11
227.6469220088
 21
89.0382315925
 31
0.0
  0
ARC
  5
132
330
1F
100
AcDbEntity
  8
0
  6
Continuous
 62
     7
370
    25
100
AcDbCircle
 10
226.6518848186
 20
89.1377353115
 30
0.0
 40
0.9999999999999943
100
AcDbArc
 50
354.2894068625
 51
7.1250163489
  0
ARC
  5
133
330
1F
100
AcDbEntity
  8
0
  6
Continuous
 62
     7
370
    25
100
AcDbCircle
 10
210.6643440818
 20
89.1377353115
 30
0.0
 40
1.000000000000007
100
AcDbArc
 50
172.8749836511
 51
185.7105931375
  0
LINE
  5
134
330
1F
100
AcDbEntity
  8
0
  6
Continuous
 62
     7
370
    25
100
AcDbLine
 10
227.6441626953
 20
89.2617700461
 30
0.0
 11
226.7128622793
 21
96.712173374
 31
0.0
  0
LINE
  5
135
330
1F
100
AcDbEntity
  8
0
  6
Continuous
 62
     7
370
    25
100
AcDbLine
 10
210.6033666211
 20
96.712173374
 30
0.0
 11
209.6720662051
 21
89.2617700461
 31
0.0
  0
ARC
  5
136
330
1F
100
AcDbEntity
  8
0
  6
Continuous
 62
     7
370
    25
100
AcDbCircle
 10
211.0995055595
 20
96.6501560067
 30
0.0
 40
0.5
100
AcDbArc
 50
90.0
 51
172.8749836511
  0
ARC
  5
137
330
1F
100
AcDbEntity
  8
0
  6
Continuous
 62
     7
370
    25
100
AcDbCircle
 10
226.2167233409
 20
96.6501560067
 30
0.0
 40
0.5000000000000017
100
AcDbArc
 50
7.1250163489
 51
90.0
  0
ARC
  5
138
330
1F
100
AcDbEntity
  8
0
  6
Continuous
 62
     7
370
    25
100
AcDbCircle
 10
226.2056206692
 20
79.6501560067
 30
0.0
 40
0.5
100
AcDbArc
 50
270.0
 51
354.2894068625
  0
ARC
  5
139
330
1F
100
AcDbEntity
  8
0
  6
Continuous
 62
     7
370
    25
100
AcDbCircle
 10
217.8581144502
 20
80.4501560067
 30
0.0
 40
0.1999999999999886
100
AcDbArc
 50
90.0
 51
180.0
  0
ARC
  5
13A
330
1F
100
AcDbEntity
  8
0
  6
Continuous
 62
     7
370
    25
100
AcDbCircle
 10
219.4581144502
 20
80.4501560067
 30
0.0
 40
0.2000000000000171
100
AcDbArc
 50
0.0
 51
90.0
  0
LINE
  5
13B
330
1F
100
AcDbEntity
  8
0
  6
Continuous
 62
     7
370
    25
100
AcDbLine
 10
219.6581144502
 20
78.6501560067
 30
0.0
 11
219.6581144502
 21
79.1213648531
 31
0.0
  0
LINE
  5
13C
330
1F
100
AcDbEntity
  8
0
  6
Continuous
 62
     7
370
    25
100
AcDbLine
 10
217.6581144502
 20
80.4501560067
 30
0.0
 11
217.6581144502
 21
78.6501560067
 31
0.0
  0
CIRCLE
  5
13D
330
1F
100
AcDbEntity
  8
0
  6
Continuous
 62
     7
370
    25
100
AcDbCircle
 10
218.6581144502
 20
59.9501560067
 30
0.0
 40
10.25
  0
CIRCLE
  5
13E
330
1F
100
AcDbEntity
  8
0
  6
Continuous
 62
     7
370
    25
100
AcDbCircle
 10
218.6581144502
 20
59.9501560067
 30
0.0
 40
10.74999999999999
  0
CIRCLE
  5
13F
330
1F
100
AcDbEntity
  8
0
  6
Continuous
 62
     7
370
    25
100
AcDbCircle
 10
218.6581144502
 20
59.9501560067
 30
0.0
 40
8.625000000000012
  0
CIRCLE
  5
140
330
1F
100
AcDbEntity
  8
0
  6
Continuous
 62
     7
370
    25
100
AcDbCircle
 10
218.6581144502
 20
59.9501560067
 30
0.0
 40
7.624999999999995
  0
CIRCLE
  5
141
330
1F
100
AcDbEntity
  8
0
  6
Continuous
 62
     7
370
    25
100
AcDbCircle
 10
218.6581144502
 20
59.9501560067
 30
0.0
 40
11.75000000000002
  0
CIRCLE
  5
142
330
1F
100
AcDbEntity
  8
0
  6
Continuous
 62
     7
370
    25
100
AcDbCircle
 10
218.6581144502
 20
59.9501560067
 30
0.0
 40
11.99999999999999
  0
CIRCLE
  5
143
330
1F
100
AcDbEntity
  8
0
  6
Continuous
 62
     7
370
    25
100
AcDbCircle
 10
218.6581144502
 20
59.9501560067
 30
0.0
 40
4.99999999999999
  0
ARC
  5
144
330
1F
100
AcDbEntity
  8
0
  6
Continuous
 62
     7
370
    25
100
AcDbCircle
 10
218.6581144502
 20
59.9501560067
 30
0.0
 40
15.25
100
AcDbArc
 50
124.9480137199
 51
145.0519862801
  0
SPLINE
  5
145
330
1F
100
AcDbEntity
  8
0
  6
Continuous
 62
     7
370
    25
100
AcDbSpline
210
0.0
220
0.0
230
1.0
 70
    24
 71
     3
 72
    10
 73
     6
 74
     0
 42
0.00000001
 43
0.00000001
 40
0.0
 40
0.0
 40
0.0
 40
0.0
 40
0.5
 40
0.5
 40
1.0
 40
1.0
 40
1.0
 40
1.0
 10
209.9224118453853
 20
72.45015600673746
 30
0.0
 10
211.3344687762971
 20
72.45015600673746
 30
0.0
 10
212.781251700175
 20
72.45015600673746
 30
0.0
 10
215.6945813466502
 20
72.45015600673746
 30
0.0
 10
217.1665398025062
 20
72.45015600673746
 30
0.0
 10
218.6581144502134
 20
72.45015600673746
 30
0.0
  0
ARC
  5
146
330
1F
100
AcDbEntity
  8
0
  6
Continuous
 62
     7
370
    25
100
AcDbCircle
 10
218.6581144502
 20
59.9501560067
 30
0.0
 40
12.50000000000003
100
AcDbArc
 50
90.0
 51
180.0
  0
SPLINE
  5
147
330
1F
100
AcDbEntity
  8
0
  6
Continuous
 62
     7
370
    25
100
AcDbSpline
210
0.0
220
0.0
230
1.0
 70
    24
 71
     3
 72
    12
 73
     8
 74
     0
 42
0.00000001
 43
0.00000001
 40
0.0
 40
0.0
 40
0.0
 40
0.0
 40
0.25
 40
0.25
 40
0.5
 40
0.5
 40
1.0
 40
1.0
 40
1.0
 40
1.0
 10
206.1581144502134
 20
59.95015600673747
 30
0.0
 10
206.1581144502134
 20
60.69550221901178
 30
0.0
 10
206.1581144502134
 20
61.44732906888081
 30
0.0
 10
206.1581144502134
 20
62.92802953005608
 30
0.0
 10
206.1581144502134
 20
63.66100113465811
 30
0.0
 10
206.1581144502134
 20
65.84154525561411
 30
0.0
 10
206.1581144502134
 20
67.27098885462333
 30
0.0
 10
206.1581144502134
 20
68.68585861156554
 30
0.0
  0
ARC
  5
148
330
1F
100
AcDbEntity
  8
0
  6
Continuous
 62
     7
370
    25
100
AcDbCircle
 10
218.6581144502
 20
59.9501560067
 30
0.0
 40
15.25
100
AcDbArc
 50
214.9480137199
 51
235.0519862801
  0
ARC
  5
149
330
1F
100
AcDbEntity
  8
0
  6
Continuous
 62
     7
370
    25
100
AcDbCircle
 10
218.6581144502
 20
59.9501560067
 30
0.0
 40
12.50000000000003
100
AcDbArc
 50
180.0
 51
270.0
  0
SPLINE
  5
14A
330
1F
100
AcDbEntity
  8
0
  6
Continuous
 62
     7
370
    25
100
AcDbSpline
210
0.0
220
0.0
230
1.0
 70
    24
 71
     3
 72
    10
 73
     6
 74
     0
 42
0.00000001
 43
0.00000001
 40
0.0
 40
0.0
 40
0.0
 40
0.0
 40
0.5
 40
0.5
 40
1.0
 40
1.0
 40
1.0
 40
1.0
 10
209.9224118453853
 20
47.45015600673747
 30
0.0
 10
211.3344687762967
 20
47.45015600673746
 30
0.0
 10
212.7812517001742
 20
47.45015600673746
 30
0.0
 10
215.6945813466494
 20
47.45015600673746
 30
0.0
 10
217.1665398025056
 20
47.45015600673746
 30
0.0
 10
218.6581144502134
 20
47.45015600673746
 30
0.0
  0
SPLINE
  5
14B
330
1F
100
AcDbEntity
  8
0
  6
Continuous
 62
     7
370
    25
100
AcDbSpline
210
0.0
220
0.0
230
1.0
 70
    24
 71
     3
 72
    10
 73
     6
 74
     0
 42
0.00000001
 43
0.00000001
 40
0.0
 40
0.0
 40
0.0
 40
0.0
 40
0.4999999999999999
 40
0.4999999999999999
 40
1.0
 40
1.0
 40
1.0
 40
1.0
 10
206.1581144502134
 20
51.2144534019094
 30
0.0
 10
206.1581144502134
 20
52.62651033282118
 30
0.0
 10
206.1581144502134
 20
54.07329325669903
 30
0.0
 10
206.1581144502134
 20
56.98662290317422
 30
0.0
 10
206.1581144502134
 20
58.4585813590302
 30
0.0
 10
206.1581144502134
 20
59.95015600673747
 30
0.0
  0
ARC
  5
14C
330
1F
100
AcDbEntity
  8
0
  6
Continuous
 62
     7
370
    25
100
AcDbCircle
 10
218.6581144502
 20
59.9501560067
 30
0.0
 40
12.5
100
AcDbArc
 50
0.0
 51
90.0
  0
ARC
  5
14D
330
1F
100
AcDbEntity
  8
0
  6
Continuous
 62
     7
370
    25
100
AcDbCircle
 10
218.6581144502
 20
59.9501560067
 30
0.0
 40
12.50000000000001
100
AcDbArc
 50
270.0
 51
0.0
  0
ARC
  5
14E
330
1F
100
AcDbEntity
  8
0
  6
Continuous
 62
     7
370
    25
100
AcDbCircle
 10
218.6581144502
 20
59.9501560067
 30
0.0
 40
15.25
100
AcDbArc
 50
34.9480137199
 51
55.0519862801
  0
SPLINE
  5
14F
330
1F
100
AcDbEntity
  8
0
  6
Continuous
 62
     7
370
    25
100
AcDbSpline
210
0.0
220
0.0
230
1.0
 70
    24
 71
     3
 72
    12
 73
     8
 74
     0
 42
0.00000001
 43
0.00000001
 40
0.0
 40
0.0
 40
0.0
 40
0.0
 40
0.2500000000000001
 40
0.2500000000000001
 40
0.5000000000000001
 40
0.5000000000000001
 40
1.0
 40
1.0
 40
1.0
 40
1.0
 10
231.1581144502134
 20
59.95015600673747
 30
0.0
 10
231.1581144502134
 20
60.69550221901178
 30
0.0
 10
231.1581144502134
 20
61.44732906888081
 30
0.0
 10
231.1581144502134
 20
62.92802953005608
 30
0.0
 10
231.1581144502134
 20
63.66100113465811
 30
0.0
 10
231.1581144502134
 20
65.84154525561411
 30
0.0
 10
231.1581144502134
 20
67.27098885462333
 30
0.0
 10
231.1581144502134
 20
68.68585861156554
 30
0.0
  0
SPLINE
  5
150
330
1F
100
AcDbEntity
  8
0
  6
Continuous
 62
     7
370
    25
100
AcDbSpline
210
0.0
220
0.0
230
1.0
 70
    24
 71
     3
 72
    12
 73
     8
 74
     0
 42
0.00000001
 43
0.00000001
 40
0.0
 40
0.0
 40
0.0
 40
0.0
 40
0.2500000000000001
 40
0.2500000000000001
 40
0.5000000000000001
 40
0.5000000000000001
 40
1.0
 40
1.0
 40
1.0
 40
1.0
 10
218.6581144502134
 20
72.45015600673746
 30
0.0
 10
219.4034606624877
 20
72.45015600673746
 30
0.0
 10
220.1552875123568
 20
72.45015600673746
 30
0.0
 10
221.6359879735321
 20
72.45015600673746
 30
0.0
 10
222.3689595781341
 20
72.45015600673746
 30
0.0
 10
224.5495036990901
 20
72.45015600673746
 30
0.0
 10
225.9789472980993
 20
72.45015600673746
 30
0.0
 10
227.3938170550415
 20
72.45015600673746
 30
0.0
  0
SPLINE
  5
151
330
1F
100
AcDbEntity
  8
0
  6
Continuous
 62
     7
370
    25
100
AcDbSpline
210
0.0
220
0.0
230
1.0
 70
    24
 71
     3
 72
    10
 73
     6
 74
     0
 42
0.00000001
 43
0.00000001
 40
0.0
 40
0.0
 40
0.0
 40
0.0
 40
0.5
 40
0.5
 40
1.0
 40
1.0
 40
1.0
 40
1.0
 10
231.1581144502134
 20
51.2144534019094
 30
0.0
 10
231.1581144502134
 20
52.62651033282118
 30
0.0
 10
231.1581144502134
 20
54.07329325669903
 30
0.0
 10
231.1581144502134
 20
56.98662290317422
 30
0.0
 10
231.1581144502134
 20
58.45858135903019
 30
0.0
 10
231.1581144502134
 20
59.95015600673747
 30
0.0
  0
ARC
  5
152
330
1F
100
AcDbEntity
  8
0
  6
Continuous
 62
     7
370
    25
100
AcDbCircle
 10
218.6581144502
 20
59.9501560067
 30
0.0
 40
15.25
100
AcDbArc
 50
304.9480137199
 51
325.0519862801
  0
SPLINE
  5
153
330
1F
100
AcDbEntity
  8
0
  6
Continuous
 62
     7
370
    25
100
AcDbSpline
210
0.0
220
0.0
230
1.0
 70
    24
 71
     3
 72
    12
 73
     8
 74
     0
 42
0.00000001
 43
0.00000001
 40
0.0
 40
0.0
 40
0.0
 40
0.0
 40
0.2500000000000001
 40
0.2500000000000001
 40
0.5000000000000001
 40
0.5000000000000001
 40
1.0
 40
1.0
 40
1.0
 40
1.0
 10
218.6581144502134
 20
47.45015600673746
 30
0.0
 10
219.4034606624885
 20
47.45015600673746
 30
0.0
 10
220.1552875123574
 20
47.45015600673746
 30
0.0
 10
221.6359879735321
 20
47.45015600673746
 30
0.0
 10
222.368959578134
 20
47.45015600673745
 30
0.0
 10
224.5495036990897
 20
47.45015600673745
 30
0.0
 10
225.978947298099
 20
47.45015600673745
 30
0.0
 10
227.3938170550415
 20
47.45015600673745
 30
0.0
  0
LINE
  5
154
330
1F
100
AcDbEntity
  8
0
  6
Continuous
 62
     7
370
    25
100
AcDbLine
 10
210.9081144502
 20
78.6501560067
 30
0.0
 11
226.4081144502
 21
78.6501560067
 31
0.0
  0
LINE
  5
155
330
1F
100
AcDbEntity
  8
0
  6
Continuous
 62
     7
370
    25
100
AcDbLine
 10
226.9081144502
 20
78.1501560067
 30
0.0
 11
210.4081144502
 21
78.1501560067
 31
0.0
  0
ELLIPSE
  5
156
330
1F
100
AcDbEntity
  8
0
  6
Continuous
 62
     7
370
    25
100
AcDbEllipse
 10
218.4835758951
 20
90.3737628045
 30
0.0
 11
0.7234244958980298
 21
-0.7001325129304662
 31
0.0
210
0.0
220
0.0
230
1.0
 40
0.9869902583
 41
4.70764954536256
 42
5.487972049091435
  0
LINE
  5
157
330
1F
100
AcDbEntity
  8
0
  6
Continuous
 62
     7
370
    25
100
AcDbLine
 10
218.4966688559
 20
89.3737628045
 30
0.0
 11
218.4966688559
 21
88.6501560067
 31
0.0
  0
ELLIPSE
  5
158
330
1F
100
AcDbEntity
  8
0
  6
Continuous
 62
     7
370
    25
100
AcDbEllipse
 10
218.4835758951
 20
90.1501560067
 30
0.0
 11
1.074619436156752
 21
-1.056020081253664
 31
0.0
210
0.0
220
0.0
230
1.0
 40
0.9913091236
 41
4.71309943438346
 42
5.49342193811232
  0
LWPOLYLINE
  5
159
330
1F
100
AcDbEntity
  8
0
  6
Continuous
 62
     7
370
    25
100
AcDbPolyline
 90
        9
 70
   128
 43
0.0
 10
217.7891310757
 20
89.6630761137
 10
217.7034021936
 20
89.5867456361
 10
217.6223705437
 20
89.5023456368
 10
217.5504759888
 20
89.4145005363
 10
217.4916577546
 20
89.3280235179
 10
217.4491385929
 20
89.2476528056
 10
217.4252482012
 20
89.1777920482
 10
217.4212955751
 20
89.1222690362
 10
217.4374972857
 20
89.0841259705
  0
ELLIPSE
  5
15A
330
1F
100
AcDbEntity
  8
0
  6
Continuous
 62
     7
370
    25
100
AcDbEllipse
 10
218.8326530053
 20
90.3737628045
 30
0.0
 11
0.7234244958980298
 21
0.7001325129304519
 31
0.0
210
0.0
220
0.0
230
1.0
 40
0.9869902583
 41
3.936805911678015
 42
4.717128415406856
  0
LWPOLYLINE
  5
15B
330
1F
100
AcDbEntity
  8
0
  6
Continuous
 62
     7
370
    25
100
AcDbPolyline
 90
        9
 70
   128
 43
0.0
 10
219.5270978247
 20
89.6630761137
 10
219.6128267068
 20
89.5867456361
 10
219.6938583567
 20
89.5023456368
 10
219.7657529116
 20
89.4145005363
 10
219.8245711458
 20
89.3280235179
 10
219.8670903075
 20
89.2476528056
 10
219.8909806992
 20
89.1777920482
 10
219.8949333253
 20
89.1222690362
 10
219.8787316148
 20
89.0841259705
  0
ELLIPSE
  5
15C
330
1F
100
AcDbEntity
  8
0
  6
Continuous
 62
     7
370
    25
100
AcDbEllipse
 10
218.8326530053
 20
90.1501560067
 30
0.0
 11
1.074619436156752
 21
1.056020081253678
 31
0.0
210
0.0
220
0.0
230
0.9999999999999999
 40
0.9913091236
 41
3.931356022657103
 42
4.711678526385939
  0
LINE
  5
15D
330
1F
100
AcDbEntity
  8
0
  6
Continuous
 62
     7
370
    25
100
AcDbLine
 10
218.8195600445
 20
89.3737628045
 30
0.0
 11
218.8195600445
 21
88.6501560067
 31
0.0
  0
LINE
  5
15E
330
1F
100
AcDbEntity
  8
0
  6
Continuous
 62
     7
370
    25
100
AcDbLine
 10
218.4966688559
 20
89.3737628045
 30
0.0
 11
218.8195600445
 21
89.3737628045
 31
0.0
  0
LINE
  5
15F
330
1F
100
AcDbEntity
  8
0
  6
Continuous
 62
     7
370
    25
100
AcDbLine
 10
218.8195600445
 20
88.6501560067
 30
0.0
 11
218.4966688559
 21
88.6501560067
 31
0.0
  0
LINE
  5
160
330
1F
100
AcDbEntity
  8
0
  6
Continuous
 62
     7
370
    25
100
AcDbLine
 10
217.7891310757
 20
89.6630761137
 30
0.0
 11
217.7891310757
 21
98.8209764
 31
0.0
  0
LINE
  5
161
330
1F
100
AcDbEntity
  8
0
  6
Continuous
 62
     7
370
    25
100
AcDbLine
 10
217.7891310757
 20
98.8209764
 30
0.0
 11
219.5270978247
 21
98.8209764
 31
0.0
  0
LINE
  5
162
330
1F
100
AcDbEntity
  8
0
  6
Continuous
 62
     7
370
    25
100
AcDbLine
 10
219.5270978247
 20
98.8209764
 30
0.0
 11
219.5270978247
 21
89.6630761137
 31
0.0
  0
SPLINE
  5
163
330
1F
100
AcDbEntity
  8
0
  6
Continuous
 62
     7
370
    25
100
AcDbSpline
210
0.0
220
0.0
230
1.0
 70
     8
 71
     3
 72
    12
 73
     8
 74
     0
 42
0.00000001
 43
0.00000001
 40
0.0
 40
0.0
 40
0.0
 40
0.0
 40
0.139683458618249
 40
0.3831896274038307
 40
0.55131692930133
 40
0.8194729461607051
 40
0.9999999999999999
 40
0.9999999999999999
 40
0.9999999999999999
 40
0.9999999999999999
 10
219.5270978247321
 20
89.66307611367694
 30
0.0
 10
219.5768127452106
 20
89.67638848733787
 30
0.0
 10
219.7131942612684
 20
89.71290794034584
 30
0.0
 10
219.8931103704805
 20
89.75058000093722
 30
0.0
 10
220.0714517988654
 20
89.77494732169872
 30
0.0
 10
220.1919720234169
 20
89.77383028693475
 30
0.0
 10
220.2161180367238
 20
89.7324469985572
 30
0.0
 10
220.2258331539834
 20
89.71579648594178
 30
0.0
  0
ARC
  5
164
330
1F
100
AcDbEntity
  8
0
  6
Continuous
 62
     7
370
    25
100
AcDbCircle
 10
219.7275789733
 20
89.7009435002
 30
0.0
 40
0.4984755156842043
100
AcDbArc
 50
333.4921832491
 51
1.7074848132
  0
SPLINE
  5
165
330
1F
100
AcDbEntity
  8
0
  6
Continuous
 62
     7
370
    25
100
AcDbSpline
210
0.0
220
0.0
230
1.0
 70
     8
 71
     3
 72
    12
 73
     8
 74
     0
 42
0.00000001
 43
0.00000001
 40
0.0
 40
0.0
 40
0.0
 40
0.0
 40
0.0715202026166142
 40
0.1260836237049476
 40
0.3855387013103047
 40
0.8475626424815554
 40
1.0
 40
1.0
 40
1.0
 40
1.0
 10
220.1736514924223
 20
89.47846395638666
 30
0.0
 10
220.1717154467171
 20
89.47535530852186
 30
0.0
 10
220.1683023739176
 20
89.46987504457852
 30
0.0
 10
220.1461199234124
 20
89.4302864991581
 30
0.0
 10
220.083106448646
 20
89.32385236617583
 30
0.0
 10
219.986060123174
 20
89.1933453504676
 30
0.0
 10
219.9000654299558
 20
89.10583563650425
 30
0.0
 10
219.8787316147542
 20
89.0841259705217
 30
0.0
  0
SPLINE
  5
166
330
1F
100
AcDbEntity
  8
0
  6
Continuous
 62
     7
370
    25
100
AcDbSpline
210
0.0
220
0.0
230
1.0
 70
     8
 71
     3
 72
    11
 73
     7
 74
     0
 42
0.00000001
 43
0.00000001
 40
0.0
 40
0.0
 40
0.0
 40
0.0
 40
0.2499999999999991
 40
0.4999999999999978
 40
0.7499999999999996
 40
1.0
 40
1.0
 40
1.0
 40
1.0
 10
220.2258331539834
 20
98.5267361343509
 30
0.0
 10
220.2108338488169
 20
98.56585368851702
 30
0.0
 10
220.1808352384837
 20
98.6440887968493
 30
0.0
 10
220.017315535687
 20
98.74075187255751
 30
0.0
 10
219.7917359216047
 20
98.80794008869705
 30
0.0
 10
219.6153105236896
 20
98.81663096289061
 30
0.0
 10
219.5270978247321
 20
98.82097639998742
 30
0.0
  0
LINE
  5
167
330
1F
100
AcDbEntity
  8
0
  6
Continuous
 62
     7
370
    25
100
AcDbLine
 10
220.225833154
 20
89.7157964859
 30
0.0
 11
220.225833154
 21
98.5267361344
 31
0.0
  0
SPLINE
  5
168
330
1F
100
AcDbEntity
  8
0
  6
Continuous
 62
     7
370
    25
100
AcDbSpline
210
0.0
220
0.0
230
1.0
 70
     8
 71
     3
 72
    13
 73
     9
 74
     0
 42
0.00000001
 43
0.00000001
 40
0.0
 40
0.0
 40
0.0
 40
0.0
 40
0.1143463544469914
 40
0.2890454840074685
 40
0.5294852105593209
 40
0.7014879056604271
 40
0.9335094878266192
 40
1.0
 40
1.0
 40
1.0
 40
1.0
 10
217.0903957464434
 20
89.71579648594178
 30
0.0
 10
217.0952303379485
 20
89.72718331769977
 30
0.0
 10
217.1074512508785
 20
89.75596702761963
 30
0.0
 10
217.1800993459196
 20
89.7762172050685
 30
0.0
 10
217.3106116123264
 20
89.7683598783229
 30
0.0
 10
217.497479211496
 20
89.73583246199493
 30
0.0
 10
217.6588526162526
 20
89.69871110704305
 30
0.0
 10
217.7653989671046
 20
89.66956754392407
 30
0.0
 10
217.7891310756947
 20
89.66307611367694
 30
0.0
  0
SPLINE
  5
169
330
1F
100
AcDbEntity
  8
0
  6
Continuous
 62
     7
370
    25
100
AcDbSpline
210
0.0
220
0.0
230
1.0
 70
     8
 71
     3
 72
    11
 73
     7
 74
     0
 42
0.00000001
 43
0.00000001
 40
0.0
 40
0.0
 40
0.0
 40
0.0
 40
0.3325271082490199
 40
0.7778992719027311
 40
0.9254453528959206
 40
1.0
 40
1.0
 40
1.0
 40
1.0
 10
217.4374972856726
 20
89.0841259705217
 30
0.0
 10
217.3922664625264
 20
89.13206251864987
 30
0.0
 10
217.2864554669108
 20
89.24420316812294
 30
0.0
 10
217.1986954924332
 20
89.37956338614015
 30
0.0
 10
217.1510826004954
 20
89.46456401991861
 30
0.0
 10
217.1447149105671
 20
89.47497066098475
 30
0.0
 10
217.1425774080045
 20
89.47846395638668
 30
0.0
  0
ARC
  5
16A
330
1F
100
AcDbEntity
  8
0
  6
Continuous
 62
     7
370
    25
100
AcDbCircle
 10
217.5886499271
 20
89.7009435002
 30
0.0
 40
0.4984755156841775
100
AcDbArc
 50
178.2925151868
 51
206.5078167509
  0
SPLINE
  5
16B
330
1F
100
AcDbEntity
  8
0
  6
Continuous
 62
     7
370
    25
100
AcDbSpline
210
0.0
220
0.0
230
1.0
 70
     8
 71
     3
 72
    11
 73
     7
 74
     0
 42
0.00000001
 43
0.00000001
 40
0.0
 40
0.0
 40
0.0
 40
0.0
 40
0.249999999999999
 40
0.4999999999999999
 40
0.7499999999999989
 40
1.0
 40
1.0
 40
1.0
 40
1.0
 10
217.0903957464434
 20
98.52673613435088
 30
0.0
 10
217.10539505161
 20
98.565853688517
 30
0.0
 10
217.1353936619431
 20
98.64408879684927
 30
0.0
 10
217.2989133647398
 20
98.74075187255751
 30
0.0
 10
217.5244929788221
 20
98.80794008869701
 30
0.0
 10
217.7009183767372
 20
98.81663096289061
 30
0.0
 10
217.7891310756947
 20
98.82097639998742
 30
0.0
  0
LINE
  5
16C
330
1F
100
AcDbEntity
  8
0
  6
Continuous
 62
     7
370
    25
100
AcDbLine
 10
217.0903957464
 20
98.5267361344
 30
0.0
 11
217.0903957464
 21
89.7157964859
 31
0.0
  0
LINE
  5
16D
330
1F
100
AcDbEntity
  8
0
  6
Continuous
 62
     7
370
    25
100
AcDbLine
 10
217.8045086588
 20
88.6501560067
 30
0.0
 11
218.4966688559
 21
88.6501560067
 31
0.0
  0
SPLINE
  5
16E
330
1F
100
AcDbEntity
  8
0
  6
Continuous
 62
     7
370
    25
100
AcDbSpline
210
0.0
220
0.0
230
1.0
 70
     8
 71
     3
 72
    11
 73
     7
 74
     0
 42
0.00000001
 43
0.00000001
 40
0.0
 40
0.0
 40
0.0
 40
0.0
 40
0.2500000000000002
 40
0.4999999999999996
 40
0.7499999999999999
 40
1.0
 40
1.0
 40
1.0
 40
1.0
 10
216.3055365077163
 20
90.18942142919929
 30
0.0
 10
216.3236128181343
 20
89.98904582282319
 30
0.0
 10
216.3597654389704
 20
89.58829461007103
 30
0.0
 10
216.7043912131709
 20
89.07810167202906
 30
0.0
 10
217.2052132992911
 20
88.72012060366238
 30
0.0
 10
217.6047435389519
 20
88.67347753904578
 30
0.0
 10
217.8045086587822
 20
88.65015600673746
 30
0.0
  0
LINE
  5
16F
330
1F
100
AcDbEntity
  8
0
  6
Continuous
 62
     7
370
    25
100
AcDbLine
 10
216.8718737878
 20
90.1894214292
 30
0.0
 11
216.3055365077
 21
90.1894214292
 31
0.0
  0
SPLINE
  5
170
330
1F
100
AcDbEntity
  8
0
  6
Continuous
 62
     7
370
    25
100
AcDbSpline
210
0.0
220
0.0
230
1.0
 70
     8
 71
     3
 72
     9
 73
     5
 74
     0
 42
0.00000001
 43
0.00000001
 40
0.0
 40
0.0
 40
0.0
 40
0.0
 40
0.5407747560677784
 40
1.0
 40
1.0
 40
1.0
 40
1.0
 10
216.8718737877968
 20
90.1894214291993
 30
0.0
 10
216.8718442873839
 20
90.1780874753986
 30
0.0
 10
216.8717897352575
 20
90.15712874225964
 30
0.0
 10
216.8723939803924
 20
90.1361625493917
 30
0.0
 10
216.8726714650119
 20
90.12653434435758
 30
0.0
  0
ELLIPSE
  5
171
330
1F
100
AcDbEntity
  8
0
  6
Continuous
 62
     7
370
    25
100
AcDbEllipse
 10
218.3708459389
 20
90.1501560067
 30
0.0
 11
-0.3999861399325937
 21
1.445826639360092
 31
0.0
210
0.0
220
0.0
230
1.0
 40
0.9987379186
 41
1.314426961368793
 42
1.31697071413655
  0
ELLIPSE
  5
172
330
1F
100
AcDbEntity
  8
0
  6
Continuous
 62
     7
370
    25
100
AcDbEllipse
 10
219.3195388386
 20
90.1501560067
 30
0.0
 11
2.447559743736946
 21
-0.02501587584977472
 31
0.0
210
0.0
220
0.0
230
1.0
 40
0.6127700831
 41
3.171475350442024
 42
3.622568086779165
  0
LINE
  5
173
330
1F
100
AcDbEntity
  8
0
  6
Continuous
 62
     7
370
    25
100
AcDbLine
 10
220.4443551126
 20
90.1894214292
 30
0.0
 11
220.4435574354
 21
90.1265343443
 31
0.0
  0
LINE
  5
174
330
1F
100
AcDbEntity
  8
0
  6
Continuous
 62
     7
370
    25
100
AcDbLine
 10
221.0106923927
 20
90.1894214292
 30
0.0
 11
220.4443551126
 21
90.1894214292
 31
0.0
  0
SPLINE
  5
175
330
1F
100
AcDbEntity
  8
0
  6
Continuous
 62
     7
370
    25
100
AcDbSpline
210
0.0
220
0.0
230
1.0
 70
     8
 71
     3
 72
    11
 73
     7
 74
     0
 42
0.00000001
 43
0.00000001
 40
0.0
 40
0.0
 40
0.0
 40
0.0
 40
0.2500000000000001
 40
0.4999999999999997
 40
0.75
 40
1.0
 40
1.0
 40
1.0
 40
1.0
 10
219.5117202416446
 20
88.65015600673746
 30
0.0
 10
219.711485361475
 20
88.67347753904576
 30
0.0
 10
220.1110156011358
 20
88.72012060366238
 30
0.0
 10
220.6118376872559
 20
89.07810167202906
 30
0.0
 10
220.9564634614564
 20
89.588294610071
 30
0.0
 10
220.9926160822925
 20
89.9890458228232
 30
0.0
 10
221.0106923927106
 20
90.18942142919929
 30
0.0
  0
LINE
  5
176
330
1F
100
AcDbEntity
  8
0
  6
Continuous
 62
     7
370
    25
100
AcDbLine
 10
218.8195600445
 20
88.6501560067
 30
0.0
 11
219.5117202416
 21
88.6501560067
 31
0.0
  0
ELLIPSE
  5
177
330
1F
100
AcDbEntity
  8
0
  6
Continuous
 62
     7
370
    25
100
AcDbEllipse
 10
217.9966900619
 20
90.1501560067
 30
0.0
 11
2.447559743736946
 21
0.02501587584978893
 31
0.0
210
0.0
220
0.0
230
1.0
 40
0.6127700831
 41
5.802209873990222
 42
6.253302610327371
  0
ELLIPSE
  5
178
330
1F
100
AcDbEntity
  8
0
  6
Continuous
 62
     7
370
    25
100
AcDbEllipse
 10
218.9453829616
 20
90.1501560067
 30
0.0
 11
0.399986139932679
 21
1.445826639360078
 31
0.0
210
0.0
220
0.0
230
1.0
 40
0.9987379186
 41
4.966214593034013
 42
4.968758345810842
  0
ELLIPSE
  5
179
330
1F
100
AcDbEntity
  8
0
  6
Continuous
 62
     7
370
    25
100
AcDbEllipse
 10
217.0422415884
 20
98.168965258
 30
0.0
 11
0.02159772760037981
 21
0.7999991561933228
 31
0.0
210
0.0
220
0.0
230
1.0
 40
0.0537988877
 41
5.177489007048641
 42
5.369012849440103
  0
ELLIPSE
  5
17A
330
1F
100
AcDbEntity
  8
0
  6
Continuous
 62
     7
370
    25
100
AcDbEllipse
 10
218.8204421748
 20
90.1635911862
 30
0.0
 11
1.947791790405546
 21
-0.01776981143129319
 31
0.0
210
0.0
220
0.0
230
1.0
 40
0.513320833
 41
3.160788584408909
 42
3.623660809788535
  0
LINE
  5
17B
330
1F
100
AcDbEntity
  8
0
  6
Continuous
 62
     7
370
    25
100
AcDbLine
 10
216.8728341511
 20
90.1621660026
 30
0.0
 11
217.0895152623
 21
98.6564014208
 31
0.0
  0
ELLIPSE
  5
17C
330
1F
100
AcDbEntity
  8
0
  6
Continuous
 62
     7
370
    25
100
AcDbEllipse
 10
220.273987312
 20
98.168965258
 30
0.0
 11
-0.02159772760037981
 21
0.7999991561933228
 31
0.0
210
0.0
220
0.0
230
1.0
 40
0.0537988877
 41
0.9141724577391807
 42
1.105696300130977
  0
LINE
  5
17D
330
1F
100
AcDbEntity
  8
0
  6
Continuous
 62
     7
370
    25
100
AcDbLine
 10
220.2267136381
 20
98.6564014208
 30
0.0
 11
220.4433947493
 21
90.1621660026
 31
0.0
  0
ELLIPSE
  5
17E
330
1F
100
AcDbEntity
  8
0
  6
Continuous
 62
     7
370
    25
100
AcDbEllipse
 10
218.4957867256
 20
90.1635911862
 30
0.0
 11
1.947791790405546
 21
0.0177698114313074
 31
0.0
210
0.0
220
0.0
230
1.0
 40
0.513320833
 41
5.801117150980872
 42
6.263989376373002
  0
LINE
  5
17F
330
1F
100
AcDbEntity
  8
0
  6
Continuous
 62
     7
370
    25
100
AcDbLine
 10
216.8726138159
 20
90.1303495727
 30
0.0
 11
216.8728341511
 21
90.1621660026
 31
0.0
  0
SPLINE
  5
180
330
1F
100
AcDbEntity
  8
0
  6
Continuous
 62
     7
370
    25
100
AcDbSpline
210
0.0
220
0.0
230
1.0
 70
     8
 71
     3
 72
     9
 73
     5
 74
     0
 42
0.00000001
 43
0.00000001
 40
0.0
 40
0.0
 40
0.0
 40
0.0
 40
0.8673350121727758
 40
1.0
 40
1.0
 40
1.0
 40
1.0
 10
220.4433947493388
 20
90.16216600260003
 30
0.0
 10
220.4435654815261
 20
90.15296757922482
 30
0.0
 10
220.4437623284017
 20
90.14236219232576
 30
0.0
 10
220.4436323306364
 20
90.13175656772438
 30
0.0
 10
220.4436150844845
 20
90.13034957266572
 30
0.0
  0
ELLIPSE
  5
181
330
1F
100
AcDbEntity
  8
0
  6
Continuous
 62
     7
370
    25
100
AcDbEllipse
 10
217.7585660797
 20
98.1501560067
 30
0.0
 11
0.0209600052571659
 21
1.499999971448759
 31
0.0
210
0.0
220
0.0
230
1.0
 40
0.013963099
 41
5.413231207420234
 42
6.283380418268021
  0
LINE
  5
182
330
1F
100
AcDbEntity
  8
0
  6
Continuous
 62
     7
370
    25
100
AcDbLine
 10
219.5367069024
 20
99.6501560067
 30
0.0
 11
217.7795219981
 21
99.6501560067
 31
0.0
  0
ELLIPSE
  5
183
330
1F
100
AcDbEntity
  8
0
  6
Continuous
 62
     7
370
    25
100
AcDbEllipse
 10
219.5576628207
 20
98.1501560067
 30
0.0
 11
-0.02096000525713748
 21
1.499999971448759
 31
0.0
210
0.0
220
0.0
230
1.0
 40
0.013963099
 41
6.282990196093533
 42
7.153139406941271
  0
SPLINE
  5
184
330
1F
100
AcDbEntity
  8
0
  6
Continuous
 62
     7
370
    25
100
AcDbSpline
210
0.0
220
0.0
230
1.0
 70
     8
 71
     3
 72
     9
 73
     5
 74
     0
 42
0.00000001
 43
0.00000001
 40
0.0
 40
0.0
 40
0.0
 40
0.0
 40
0.5600029565045499
 40
1.0
 40
1.0
 40
1.0
 40
1.0
 10
219.5281385368374
 20
99.11722474757805
 30
0.0
 10
219.5281441749036
 20
99.1074382854181
 30
0.0
 10
219.5281542428258
 20
99.08996255239511
 30
0.0
 10
219.5280320662224
 20
99.0720015847293
 30
0.0
 10
219.5279783088781
 20
99.06409881205805
 30
0.0
  0
ELLIPSE
  5
185
330
1F
100
AcDbEntity
  8
0
  6
Continuous
 62
     7
370
    25
100
AcDbEllipse
 10
219.5752519827
 20
98.1501560067
 30
0.0
 11
-0.0215529584228591
 21
1.499999872388912
 31
0.0
210
0.0
220
0.0
230
0.9999999999999998
 40
0.0287076702
 41
0.9152123852431892
 42
1.106736227634697
  0
ELLIPSE
  5
186
330
1F
100
AcDbEntity
  8
0
  6
Continuous
 62
     7
370
    25
100
AcDbEllipse
 10
217.7409769177
 20
98.1501560067
 30
0.0
 11
0.02155295842280225
 21
1.499999872388912
 31
0.0
210
0.0
220
0.0
230
1.0
 40
0.0287076702
 41
5.176449079545315
 42
5.367972921936896
  0
SPLINE
  5
187
330
1F
100
AcDbEntity
  8
0
  6
Continuous
 62
     7
370
    25
100
AcDbSpline
210
0.0
220
0.0
230
1.0
 70
     8
 71
     3
 72
     9
 73
     5
 74
     0
 42
0.00000001
 43
0.00000001
 40
0.0
 40
0.0
 40
0.0
 40
0.0
 40
0.5599925069633377
 40
1.0
 40
1.0
 40
1.0
 40
1.0
 10
217.7882505915487
 20
99.06409881205805
 30
0.0
 10
217.7881848463973
 20
99.07414640636092
 30
0.0
 10
217.7880674427704
 20
99.09208877912116
 30
0.0
 10
217.788083359923
 20
99.10954422194241
 30
0.0
 10
217.7880903635895
 20
99.11722474757806
 30
0.0
  0
SPLINE
  5
188
330
1F
100
AcDbEntity
  8
0
  6
Continuous
 62
     7
370
    25
100
AcDbSpline
210
0.0
220
0.0
230
1.0
 70
     8
 71
     3
 72
    12
 73
     8
 74
     0
 42
0.00000001
 43
0.00000001
 40
0.0
 40
0.0
 40
0.0
 40
0.0
 40
0.2225634137434379
 40
0.4462063173695244
 40
0.6680851268156934
 40
0.8917990985568368
 40
1.0
 40
1.0
 40
1.0
 40
1.0
 10
217.0895152622975
 20
98.65640142078857
 30
0.0
 10
217.1018683698642
 20
98.7039873640949
 30
0.0
 10
217.1266345007512
 20
98.79939005478936
 30
0.0
 10
217.2592184287491
 20
98.92360878736233
 30
0.0
 10
217.4455758322436
 20
99.01549858846678
 30
0.0
 10
217.6336666435969
 20
99.05795416747688
 30
0.0
 10
217.7502466764853
 20
99.06258817299202
 30
0.0
 10
217.7882505915487
 20
99.06409881205805
 30
0.0
  0
SPLINE
  5
189
330
1F
100
AcDbEntity
  8
0
  6
Continuous
 62
     7
370
    25
100
AcDbSpline
210
0.0
220
0.0
230
1.0
 70
     8
 71
     3
 72
    12
 73
     8
 74
     0
 42
0.00000001
 43
0.00000001
 40
0.0
 40
0.0
 40
0.0
 40
0.0
 40
0.2225634137435275
 40
0.446206317369568
 40
0.6680851268158019
 40
0.8917990985569294
 40
1.0
 40
1.0
 40
1.0
 40
1.0
 10
219.5279783088781
 20
99.06409881205806
 30
0.0
 10
219.6064819689207
 20
99.05867173944435
 30
0.0
 10
219.7638700519773
 20
99.04779127151689
 30
0.0
 10
219.9732215896047
 20
98.97249784049659
 30
0.0
 10
220.1319808840748
 20
98.86301929574331
 30
0.0
 10
220.2098297543914
 20
98.7503046551968
 30
0.0
 10
220.2225627952248
 20
98.6794871977526
 30
0.0
 10
220.2267136381294
 20
98.65640142078857
 30
0.0
  0
SPLINE
  5
18A
330
1F
100
AcDbEntity
  8
0
  6
Continuous
 62
     7
370
    25
100
AcDbSpline
210
0.0
220
0.0
230
1.0
 70
     8
 71
     3
 72
    12
 73
     8
 74
     0
 42
0.00000001
 43
0.00000001
 40
0.0
 40
0.0
 40
0.0
 40
0.0
 40
0.2198609600791294
 40
0.4397396970008148
 40
0.6583291451397767
 40
0.8791239516843599
 40
1.0
 40
1.0
 40
1.0
 40
1.0
 10
220.2276588740015
 20
98.68424986566795
 30
0.0
 10
220.2169868793574
 20
98.73473808179584
 30
0.0
 10
220.1956420271858
 20
98.8357185962728
 30
0.0
 10
220.0675236319188
 20
98.96738158922282
 30
0.0
 10
219.8845856958537
 20
99.0649429119959
 30
0.0
 10
219.6930365239666
 20
99.11160230347262
 30
0.0
 10
219.5712308522816
 20
99.11575545047397
 30
0.0
 10
219.5281385368374
 20
99.11722474757805
 30
0.0
  0
SPLINE
  5
18B
330
1F
100
AcDbEntity
  8
0
  6
Continuous
 62
     7
370
    25
100
AcDbSpline
210
0.0
220
0.0
230
1.0
 70
     8
 71
     3
 72
    12
 73
     8
 74
     0
 42
0.00000001
 43
0.00000001
 40
0.0
 40
0.0
 40
0.0
 40
0.0
 40
0.2198610998683202
 40
0.4397399767664987
 40
0.6583294271823333
 40
0.8791242261983155
 40
1.0
 40
1.0
 40
1.0
 40
1.0
 10
217.7880903635895
 20
99.11722474757806
 30
0.0
 10
217.7093994538703
 20
99.11240095422843
 30
0.0
 10
217.552011271821
 20
99.10275297749784
 30
0.0
 10
217.3427295233361
 20
99.02557883983611
 30
0.0
 10
217.1840802026717
 20
98.91171133062399
 30
0.0
 10
217.1039801399564
 20
98.79023076112033
 30
0.0
 10
217.0925971026547
 20
98.71194551787586
 30
0.0
 10
217.0885700264254
 20
98.68424986566795
 30
0.0
  0
LINE
  5
18C
330
1F
100
AcDbEntity
  8
0
  6
Continuous
 62
     7
370
    25
100
AcDbLine
 10
219.6641965599
 20
99.6252216284
 30
0.0
 11
219.5367069024
 21
99.6501560067
 31
0.0
  0
ELLIPSE
  5
18D
330
1F
100
AcDbEntity
  8
0
  6
Continuous
 62
     7
370
    25
100
AcDbEllipse
 10
220.2571831579
 20
98.1684798706
 30
0.0
 11
-0.02097028290364733
 21
0.7999998117962832
 31
0.0
210
0.0
220
0.0
230
0.9999999999999999
 40
0.0261679535
 41
6.28249937039185
 42
7.152648581238266
  0
ELLIPSE
  5
18E
330
1F
100
AcDbEntity
  8
0
  6
Continuous
 62
     7
370
    25
100
AcDbEllipse
 10
217.0590457426
 20
98.1684798706
 30
0.0
 11
0.02097028290364733
 21
0.7999998117962832
 31
0.0
210
0.0
220
0.0
230
0.9999999999999999
 40
0.0261679535
 41
5.413722033122011
 42
6.283871243969204
  0
SPLINE
  5
18F
330
1F
100
AcDbEntity
  8
0
  6
Continuous
 62
     7
370
    25
100
AcDbSpline
210
0.0
220
0.0
230
1.0
 70
     8
 71
     3
 72
    11
 73
     7
 74
     0
 42
0.00000001
 43
0.00000001
 40
0.0
 40
0.0
 40
0.0
 40
0.0
 40
0.2499999999999963
 40
0.4999999999999995
 40
0.7500000000000014
 40
1.0
 40
1.0
 40
1.0
 40
1.0
 10
217.0800016609
 20
98.96847987055297
 30
0.0
 10
217.0925221771226
 20
99.05837891767997
 30
0.0
 10
217.1175632095677
 20
99.238177011934
 30
0.0
 10
217.2802066791903
 20
99.46289322116897
 30
0.0
 10
217.5090264152447
 20
99.61965430619846
 30
0.0
 10
217.689356803791
 20
99.63998877322447
 30
0.0
 10
217.779521998064
 20
99.65015600673746
 30
0.0
  0
LINE
  5
190
330
1F
100
AcDbEntity
  8
0
  6
Continuous
 62
     7
370
    25
100
AcDbLine
 10
220.4427005909
 20
90.1893780892
 30
0.0
 11
220.4443551126
 21
90.1894214292
 31
0.0
  0
LINE
  5
191
330
1F
100
AcDbEntity
  8
0
  6
Continuous
 62
     7
370
    25
100
AcDbLine
 10
216.8735283095
 20
90.1893780892
 30
0.0
 11
216.8718737878
 21
90.1894214292
 31
0.0
  0
SPLINE
  5
192
330
1F
100
AcDbEntity
  8
0
  6
Continuous
 62
     7
370
    25
100
AcDbSpline
210
0.0
220
0.0
230
1.0
 70
     8
 71
     3
 72
     9
 73
     5
 74
     0
 42
0.00000001
 43
0.00000001
 40
0.0
 40
0.0
 40
0.0
 40
0.0
 40
0.5600012771711205
 40
0.9999999999999999
 40
0.9999999999999999
 40
0.9999999999999999
 40
0.9999999999999999
 10
216.3055365077163
 20
90.18942142919929
 30
0.0
 10
216.3173709200614
 20
91.11847106862744
 30
0.0
 10
216.3385037510521
 20
92.77748449824198
 30
0.0
 10
216.3594644804646
 20
94.43426373340857
 30
0.0
 10
216.3686871746356
 20
95.16324448089128
 30
0.0
  0
SPLINE
  5
193
330
1F
100
AcDbEntity
  8
0
  6
Continuous
 62
     7
370
    25
100
AcDbSpline
210
0.0
220
0.0
230
1.0
 70
     8
 71
     3
 72
     9
 73
     5
 74
     0
 42
0.00000001
 43
0.00000001
 40
0.0
 40
0.0
 40
0.0
 40
0.0
 40
0.5599999095971039
 40
1.0
 40
1.0
 40
1.0
 40
1.0
 10
216.3686871746356
 20
95.16324448089128
 30
0.0
 10
216.3709845845328
 20
95.34504619564011
 30
0.0
 10
216.3750871028687
 20
95.66969216724323
 30
0.0
 10
216.3791834960618
 20
95.9942583727977
 30
0.0
 10
216.380985909437
 20
96.13706753258342
 30
0.0
  0
LINE
  5
194
330
1F
100
AcDbEntity
  8
0
  6
Continuous
 62
     7
370
    25
100
AcDbLine
 10
216.3809859094
 20
96.1370675326
 30
0.0
 11
216.0526577801
 21
96.1370675326
 31
0.0
  0
LINE
  5
195
330
1F
100
AcDbEntity
  8
0
  6
Continuous
 62
     7
370
    25
100
AcDbLine
 10
216.0526577801
 20
96.1370675326
 30
0.0
 11
216.1824336933
 21
98.9684798706
 31
0.0
  0
LINE
  5
196
330
1F
100
AcDbEntity
  8
0
  6
Continuous
 62
     7
370
    25
100
AcDbLine
 10
216.1824336933
 20
98.9684798706
 30
0.0
 11
217.0800016609
 21
98.9684798706
 31
0.0
  0
LINE
  5
197
330
1F
100
AcDbEntity
  8
0
  6
Continuous
 62
     7
370
    25
100
AcDbLine
 10
217.0885700264
 20
98.6842498657
 30
0.0
 11
216.8718737878
 21
90.1894214292
 31
0.0
  0
LINE
  5
198
330
1F
100
AcDbEntity
  8
0
  6
Continuous
 62
     7
370
    25
100
AcDbLine
 10
221.2635711203
 20
96.1370675326
 30
0.0
 11
220.935242991
 21
96.1370675326
 31
0.0
  0
SPLINE
  5
199
330
1F
100
AcDbEntity
  8
0
  6
Continuous
 62
     7
370
    25
100
AcDbSpline
210
0.0
220
0.0
230
1.0
 70
     8
 71
     3
 72
     9
 73
     5
 74
     0
 42
0.00000001
 43
0.00000001
 40
0.0
 40
0.0
 40
0.0
 40
0.0
 40
0.5600000882143319
 40
1.0
 40
1.0
 40
1.0
 40
1.0
 10
220.9352429909898
 20
96.13706753258342
 30
0.0
 10
220.9375371071309
 20
95.95530866175162
 30
0.0
 10
220.9416337424518
 20
95.63073930067998
 30
0.0
 10
220.9457365089111
 20
95.30609010038317
 30
0.0
 10
220.9475417257912
 20
95.16324448089128
 30
0.0
  0
SPLINE
  5
19A
330
1F
100
AcDbEntity
  8
0
  6
Continuous
 62
     7
370
    25
100
AcDbSpline
210
0.0
220
0.0
230
1.0
 70
     8
 71
     3
 72
     9
 73
     5
 74
     0
 42
0.00000001
 43
0.00000001
 40
0.0
 40
0.0
 40
0.0
 40
0.0
 40
0.5599987526606142
 40
1.0
 40
1.0
 40
1.0
 40
1.0
 10
220.9475417257912
 20
95.16324448089128
 30
0.0
 10
220.9592833123136
 20
94.23540318104197
 30
0.0
 10
220.9802504778057
 20
92.57854002654197
 30
0.0
 10
221.0013906781778
 20
90.91943132663152
 30
0.0
 10
221.0106923927106
 20
90.18942142919929
 30
0.0
  0
LINE
  5
19B
330
1F
100
AcDbEntity
  8
0
  6
Continuous
 62
     7
370
    25
100
AcDbLine
 10
220.4443551126
 20
90.1894214292
 30
0.0
 11
220.227658874
 21
98.6842498657
 31
0.0
  0
LINE
  5
19C
330
1F
100
AcDbEntity
  8
0
  6
Continuous
 62
     7
370
    25
100
AcDbLine
 10
220.2362272395
 20
98.9684798706
 30
0.0
 11
221.1337952071
 21
98.9684798706
 31
0.0
  0
LINE
  5
19D
330
1F
100
AcDbEntity
  8
0
  6
Continuous
 62
     7
370
    25
100
AcDbLine
 10
221.1337952071
 20
98.9684798706
 30
0.0
 11
221.2635711203
 21
96.1370675326
 31
0.0
  0
LINE
  5
19E
330
1F
100
AcDbEntity
  8
0
  6
Continuous
 62
     7
370
    25
100
AcDbLine
 10
217.7795219981
 20
99.6501560067
 30
0.0
 11
216.8819540304
 21
99.6501560067
 31
0.0
  0
SPLINE
  5
19F
330
1F
100
AcDbEntity
  8
0
  6
Continuous
 62
     7
370
    25
100
AcDbSpline
210
0.0
220
0.0
230
1.0
 70
     8
 71
     3
 72
    11
 73
     7
 74
     0
 42
0.00000001
 43
0.00000001
 40
0.0
 40
0.0
 40
0.0
 40
0.0
 40
0.2499999999999982
 40
0.4999999999999978
 40
0.750000000000001
 40
1.0
 40
1.0
 40
1.0
 40
1.0
 10
216.1824336932808
 20
98.96847987055298
 30
0.0
 10
216.1949542095034
 20
99.05837891767999
 30
0.0
 10
216.2199952419485
 20
99.23817701193401
 30
0.0
 10
216.3826387115711
 20
99.46289322116897
 30
0.0
 10
216.6114584476256
 20
99.61965430619847
 30
0.0
 10
216.7917888361718
 20
99.63998877322447
 30
0.0
 10
216.8819540304449
 20
99.65015600673746
 30
0.0
  0
LINE
  5
1A0
330
1F
100
AcDbEntity
  8
0
  6
Continuous
 62
     7
370
    25
100
AcDbLine
 10
220.43427487
 20
99.6501560067
 30
0.0
 11
219.5367069024
 21
99.6501560067
 31
0.0
  0
SPLINE
  5
1A1
330
1F
100
AcDbEntity
  8
0
  6
Continuous
 62
     7
370
    25
100
AcDbSpline
210
0.0
220
0.0
230
1.0
 70
     8
 71
     3
 72
    11
 73
     7
 74
     0
 42
0.00000001
 43
0.00000001
 40
0.0
 40
0.0
 40
0.0
 40
0.0
 40
0.2499999999999986
 40
0.5000000000000003
 40
0.7499999999999973
 40
1.0
 40
1.0
 40
1.0
 40
1.0
 10
220.4342748699819
 20
99.65015600673746
 30
0.0
 10
220.5244400642551
 20
99.63998877322447
 30
0.0
 10
220.7047704528013
 20
99.61965430619847
 30
0.0
 10
220.9335901888558
 20
99.46289322116897
 30
0.0
 10
221.0962336584783
 20
99.23817701193401
 30
0.0
 10
221.1212746909235
 20
99.05837891767999
 30
0.0
 10
221.1337952071461
 20
98.96847987055297
 30
0.0
  0
LINE
  5
1A2
330
1F
100
AcDbEntity
  8
0
  6
Continuous
 62
     7
370
    25
100
AcDbLine
 10
215.7931660381
 20
95.6501560067
 30
0.0
 11
215.5590709042
 21
95.6501560067
 31
0.0
  0
SPLINE
  5
1A3
330
1F
100
AcDbEntity
  8
0
  6
Continuous
 62
     7
370
    25
100
AcDbSpline
210
0.0
220
0.0
230
1.0
 70
     8
 71
     3
 72
    10
 73
     6
 74
     0
 42
0.00000001
 43
0.00000001
 40
0.0
 40
0.0
 40
0.0
 40
0.0
 40
0.2383396858856107
 40
0.571650633368965
 40
1.0
 40
1.0
 40
1.0
 40
1.0
 10
215.7995920081587
 20
95.65015600673738
 30
0.0
 10
215.8741902105856
 20
95.65911474965702
 30
0.0
 10
216.0531117758594
 20
95.68060202755275
 30
0.0
 10
216.2894558881144
 20
95.85426441050583
 30
0.0
 10
216.3480392642999
 20
96.03527126976041
 30
0.0
 10
216.380985909437
 20
96.13706753258361
 30
0.0
  0
SPLINE
  5
1A4
330
1F
100
AcDbEntity
  8
0
  6
Continuous
 62
     7
370
    25
100
AcDbSpline
210
0.0
220
0.0
230
1.0
 70
     8
 71
     3
 72
    11
 73
     7
 74
     0
 42
0.00000001
 43
0.00000001
 40
0.0
 40
0.0
 40
0.0
 40
0.0
 40
0.2506671725023492
 40
0.5010414677145718
 40
0.7508849997170933
 40
1.0
 40
1.0
 40
1.0
 40
1.0
 10
216.3055365077163
 20
90.18942142919929
 30
0.0
 10
216.2786619410611
 20
90.21892744919846
 30
0.0
 10
216.224944207755
 20
90.27790501462606
 30
0.0
 10
215.9394787441011
 20
90.36463828343777
 30
0.0
 10
215.5179505974814
 20
90.44895931366429
 30
0.0
 10
215.1015935197844
 20
90.50154230627885
 30
0.0
 10
214.8937189434079
 20
90.52779541424769
 30
0.0
  0
SPLINE
  5
1A5
330
1F
100
AcDbEntity
  8
0
  6
Continuous
 62
     7
370
    25
100
AcDbSpline
210
0.0
220
0.0
230
1.0
 70
     8
 71
     3
 72
     9
 73
     5
 74
     0
 42
0.00000001
 43
0.00000001
 40
0.0
 40
0.0
 40
0.0
 40
0.0
 40
0.501325902198991
 40
1.0
 40
1.0
 40
1.0
 40
1.0
 10
214.8937188900437
 20
90.52779517996046
 30
0.0
 10
214.7686762325737
 20
90.53921702707306
 30
0.0
 10
214.5192523410061
 20
90.56200030450303
 30
0.0
 10
214.2174842325848
 20
90.55906235059554
 30
0.0
 10
214.0670002933728
 20
90.55759726908134
 30
0.0
  0
LINE
  5
1A6
330
1F
100
AcDbEntity
  8
0
  6
Continuous
 62
     7
370
    25
100
AcDbLine
 10
213.952233854
 20
94.1502670126
 30
0.0
 11
214.0670090615
 21
90.5576969261
 31
0.0
  0
SPLINE
  5
1A7
330
1F
100
AcDbEntity
  8
0
  6
Continuous
 62
     7
370
    25
100
AcDbSpline
210
0.0
220
0.0
230
1.0
 70
     8
 71
     3
 72
    14
 73
    10
 74
     0
 42
0.00000001
 43
0.00000001
 40
0.0
 40
0.0
 40
0.0
 40
0.0
 40
0.0829413618596714
 40
0.1664594845668882
 40
0.2437726390188662
 40
0.3161479456895724
 40
0.4353725718192331
 40
0.6486290670514194
 40
1.0
 40
1.0
 40
1.0
 40
1.0
 10
213.9522338588761
 20
94.15026699999817
 30
0.0
 10
213.9540490484585
 20
94.24013090758804
 30
0.0
 10
213.9576920501588
 20
94.42048362188137
 30
0.0
 10
214.0393531826463
 20
94.70836833266728
 30
0.0
 10
214.1726366629311
 20
94.959894360094
 30
0.0
 10
214.3609631191688
 20
95.19384368999503
 30
0.0
 10
214.6592301988311
 20
95.43465466050301
 30
0.0
 10
215.1172573576164
 20
95.6265962637424
 30
0.0
 10
215.3895928862943
 20
95.64110956736528
 30
0.0
 10
215.559068869944
 20
95.65014128063251
 30
0.0
  0
LINE
  5
1A8
330
1F
100
AcDbEntity
  8
0
  6
Continuous
 62
     7
370
    25
100
AcDbLine
 10
223.2492198389
 20
90.5576969261
 30
0.0
 11
223.3639950464
 21
94.1502670127
 31
0.0
  0
SPLINE
  5
1A9
330
1F
100
AcDbEntity
  8
0
  6
Continuous
 62
     7
370
    25
100
AcDbSpline
210
0.0
220
0.0
230
1.0
 70
     8
 71
     3
 72
     9
 73
     5
 74
     0
 42
0.00000001
 43
0.00000001
 40
0.0
 40
0.0
 40
0.0
 40
0.0
 40
0.4986740982738613
 40
1.0
 40
1.0
 40
1.0
 40
1.0
 10
223.2492287888893
 20
90.55759643967815
 30
0.0
 10
223.0987448526103
 20
90.55906151893481
 30
0.0
 10
222.7969767503569
 20
90.5619994683124
 30
0.0
 10
222.5475528587347
 20
90.5392161893807
 30
0.0
 10
222.4225102013551
 20
90.52779434152599
 30
0.0
  0
SPLINE
  5
1AA
330
1F
100
AcDbEntity
  8
0
  6
Continuous
 62
     7
370
    25
100
AcDbSpline
210
0.0
220
0.0
230
1.0
 70
     8
 71
     3
 72
    11
 73
     7
 74
     0
 42
0.00000001
 43
0.00000001
 40
0.0
 40
0.0
 40
0.0
 40
0.0
 40
0.249115000282908
 40
0.4989585322854288
 40
0.749332827497652
 40
1.0
 40
1.0
 40
1.0
 40
1.0
 10
222.4225099570189
 20
90.52779541424769
 30
0.0
 10
222.2146353806424
 20
90.50154230627886
 30
0.0
 10
221.7982783029454
 20
90.44895931366429
 30
0.0
 10
221.3767501563258
 20
90.36463828343777
 30
0.0
 10
221.0912846926719
 20
90.27790501462604
 30
0.0
 10
221.0375669593657
 20
90.21892744919846
 30
0.0
 10
221.0106923927106
 20
90.18942142919929
 30
0.0
  0
SPLINE
  5
1AB
330
1F
100
AcDbEntity
  8
0
  6
Continuous
 62
     7
370
    25
100
AcDbSpline
210
0.0
220
0.0
230
1.0
 70
     8
 71
     3
 72
    10
 73
     6
 74
     0
 42
0.00000001
 43
0.00000001
 40
0.0
 40
0.0
 40
0.0
 40
0.0
 40
0.4283493666310632
 40
0.7616603141144171
 40
1.0
 40
1.0
 40
1.0
 40
1.0
 10
220.9352429909898
 20
96.13706753258361
 30
0.0
 10
220.9681896361269
 20
96.03527126976047
 30
0.0
 10
221.0267730123124
 20
95.85426441050593
 30
0.0
 10
221.2631171245673
 20
95.68060202755282
 30
0.0
 10
221.4420386898411
 20
95.65911474965704
 30
0.0
 10
221.516636892268
 20
95.65015600673738
 30
0.0
  0
LINE
  5
1AC
330
1F
100
AcDbEntity
  8
0
  6
Continuous
 62
     7
370
    25
100
AcDbLine
 10
221.5230628627
 20
95.6501560067
 30
0.0
 11
221.7571579964
 21
95.6501560067
 31
0.0
  0
SPLINE
  5
1AD
330
1F
100
AcDbEntity
  8
0
  6
Continuous
 62
     7
370
    25
100
AcDbSpline
210
0.0
220
0.0
230
1.0
 70
     8
 71
     3
 72
    15
 73
    11
 74
     0
 42
0.00000001
 43
0.00000001
 40
0.0
 40
0.0
 40
0.0
 40
0.0
 40
0.2091652517822448
 40
0.4176299509274911
 40
0.5931463878153098
 40
0.6923603779431111
 40
0.7731125739307029
 40
0.8543366880968446
 40
0.9261517123972134
 40
1.0
 40
1.0
 40
1.0
 40
1.0
 10
221.7571600307142
 20
95.65014128063146
 30
0.0
 10
221.8548576632037
 20
95.647049790133
 30
0.0
 10
222.049925711623
 20
95.64087716339806
 30
0.0
 10
222.3992055649754
 20
95.55060370358784
 30
0.0
 10
222.7320957519189
 20
95.38199725148444
 30
0.0
 10
222.9937138379549
 20
95.15254854343146
 30
0.0
 10
223.1743078508687
 20
94.91476950017515
 30
0.0
 10
223.296402014179
 20
94.65285300333665
 30
0.0
 10
223.3604520034974
 20
94.38731142859866
 30
0.0
 10
223.3628030895354
 20
94.23001369757708
 30
0.0
 10
223.3639950415488
 20
94.15026700001833
 30
0.0
  0
SPLINE
  5
1AE
330
1F
100
AcDbEntity
  8
0
  6
Continuous
 62
     7
370
    25
100
AcDbSpline
210
0.0
220
0.0
230
1.0
 70
     8
 71
     3
 72
    11
 73
     7
 74
     0
 42
0.00000001
 43
0.00000001
 40
0.0
 40
0.0
 40
0.0
 40
0.0
 40
0.279563842830426
 40
0.5590315778757567
 40
0.7794196683313495
 40
1.0
 40
1.0
 40
1.0
 40
1.0
 10
214.8937189434079
 20
90.52779541424769
 30
0.0
 10
214.869969767281
 20
90.27052980406685
 30
0.0
 10
214.8224795794618
 20
89.75608702585752
 30
0.0
 10
215.15816666088
 20
89.11357282661838
 30
0.0
 10
215.6368815501433
 20
88.72189952542443
 30
0.0
 10
215.9887671208126
 20
88.67407746234647
 30
0.0
 10
216.1647866088153
 20
88.65015600673746
 30
0.0
  0
SPLINE
  5
1AF
330
1F
100
AcDbEntity
  8
0
  6
Continuous
 62
     7
370
    25
100
AcDbSpline
210
0.0
220
0.0
230
1.0
 70
    24
 71
     3
 72
    11
 73
     7
 74
     0
 42
0.00000001
 43
0.00000001
 40
0.0
 40
0.0
 40
0.0
 40
0.0
 40
0.2799317596299056
 40
0.5599103390525025
 40
0.7799480709991914
 40
1.0
 40
1.0
 40
1.0
 40
1.0
 10
216.1647866088153
 20
88.65015600673746
 30
0.0
 10
216.4323545662548
 20
88.65015600673746
 30
0.0
 10
216.9675352330274
 20
88.65015600673745
 30
0.0
 10
217.4414020266898
 20
88.65015600673746
 30
0.0
 10
217.7266517842386
 20
88.65015600673748
 30
0.0
 10
217.7785558091358
 20
88.65015600673746
 30
0.0
 10
217.8045086587822
 20
88.65015600673746
 30
0.0
  0
SPLINE
  5
1B0
330
1F
100
AcDbEntity
  8
0
  6
Continuous
 62
     7
370
    25
100
AcDbSpline
210
0.0
220
0.0
230
1.0
 70
     8
 71
     3
 72
    11
 73
     7
 74
     0
 42
0.00000001
 43
0.00000001
 40
0.0
 40
0.0
 40
0.0
 40
0.0
 40
0.2795638428677817
 40
0.5590315779132448
 40
0.7794196683689383
 40
0.9999999999999999
 40
0.9999999999999999
 40
0.9999999999999999
 40
0.9999999999999999
 10
221.1514422916115
 20
88.65015600673746
 30
0.0
 10
221.3754227071778
 20
88.68867485868556
 30
0.0
 10
221.8233065388322
 20
88.76569932065838
 30
0.0
 10
222.2832467739377
 20
89.29849721844806
 30
0.0
 10
222.4946212148371
 20
89.92623378531447
 30
0.0
 10
222.4465540279577
 20
90.3272166014831
 30
0.0
 10
222.4225099570189
 20
90.52779541424769
 30
0.0
  0
SPLINE
  5
1B1
330
1F
100
AcDbEntity
  8
0
  6
Continuous
 62
     7
370
    25
100
AcDbSpline
210
0.0
220
0.0
230
1.0
 70
    24
 71
     3
 72
    11
 73
     7
 74
     0
 42
0.00000001
 43
0.00000001
 40
0.0
 40
0.0
 40
0.0
 40
0.0
 40
0.2799857774483057
 40
0.5599458358671288
 40
0.779998565900937
 40
0.9999999999999999
 40
0.9999999999999999
 40
0.9999999999999999
 40
0.9999999999999999
 10
219.5117202416446
 20
88.65015600673746
 30
0.0
 10
219.5494739612525
 20
88.65015600673748
 30
0.0
 10
219.6249779324741
 20
88.65015600673746
 30
0.0
 10
220.0065310827829
 20
88.65015600673746
 30
0.0
 10
220.509961764596
 20
88.65015600673746
 30
0.0
 10
220.9376320667334
 20
88.65015600673746
 30
0.0
 10
221.1514422916115
 20
88.65015600673746
 30
0.0
  0
SPLINE
  5
1B2
330
1F
100
AcDbEntity
  8
0
  6
Continuous
 62
     7
370
    25
100
AcDbSpline
210
0.0
220
0.0
230
1.0
 70
     8
 71
     3
 72
    11
 73
     7
 74
     0
 42
0.00000001
 43
0.00000001
 40
0.0
 40
0.0
 40
0.0
 40
0.0
 40
0.2499999999999989
 40
0.4999999999999996
 40
0.749999999999999
 40
1.0
 40
1.0
 40
1.0
 40
1.0
 10
221.763228504018
 20
95.65015600673746
 30
0.0
 10
221.6988247938229
 20
95.65741831638961
 30
0.0
 10
221.5700173734327
 20
95.67194293569388
 30
0.0
 10
221.4065747048224
 20
95.78391513928638
 30
0.0
 10
221.2904007979491
 20
95.94442671731134
 30
0.0
 10
221.2725143462026
 20
96.07285392749279
 30
0.0
 10
221.2635711203293
 20
96.13706753258352
 30
0.0
  0
SPLINE
  5
1B3
330
1F
100
AcDbEntity
  8
0
  6
Continuous
 62
     7
370
    25
100
AcDbSpline
210
0.0
220
0.0
230
1.0
 70
     8
 71
     3
 72
    11
 73
     7
 74
     0
 42
0.00000001
 43
0.00000001
 40
0.0
 40
0.0
 40
0.0
 40
0.0
 40
0.2500000000000009
 40
0.5000000000000002
 40
0.7500000000000007
 40
0.9999999999999999
 40
0.9999999999999999
 40
0.9999999999999999
 40
0.9999999999999999
 10
216.0526577800975
 20
96.13706753258352
 30
0.0
 10
216.0437145542242
 20
96.07285392749279
 30
0.0
 10
216.0258281024777
 20
95.94442671731134
 30
0.0
 10
215.9096541956044
 20
95.78391513928638
 30
0.0
 10
215.7462115269941
 20
95.67194293569388
 30
0.0
 10
215.6174041066039
 20
95.6574183163896
 30
0.0
 10
215.5530003964089
 20
95.65015600673746
 30
0.0
  0
SPLINE
  5
1B4
330
1F
100
AcDbEntity
  8
0
  6
Continuous
 62
     7
370
    25
100
AcDbSpline
210
0.0
220
0.0
230
1.0
 70
     8
 71
     3
 72
     9
 73
     5
 74
     0
 42
0.00000001
 43
0.00000001
 40
0.0
 40
0.0
 40
0.0
 40
0.0
 40
0.5642319118445199
 40
1.0
 40
1.0
 40
1.0
 40
1.0
 10
213.956399405214
 20
88.47470304558833
 30
0.0
 10
214.4318310164875
 20
88.52828501431566
 30
0.0
 10
215.2744483894029
 20
88.62324945642273
 30
0.0
 10
215.894561224308
 20
88.6419896349632
 30
0.0
 10
216.1647866088153
 20
88.65015600673746
 30
0.0
  0
SPLINE
  5
1B5
330
1F
100
AcDbEntity
  8
0
  6
Continuous
 62
     7
370
    25
100
AcDbSpline
210
0.0
220
0.0
230
1.0
 70
     8
 71
     3
 72
    13
 73
     9
 74
     0
 42
0.00000001
 43
0.00000001
 40
0.0
 40
0.0
 40
0.0
 40
0.0
 40
0.0926677825201017
 40
0.1856533156297215
 40
0.2733112842947874
 40
0.413548892575832
 40
0.6528449691515644
 40
1.0
 40
1.0
 40
1.0
 40
1.0
 10
214.0669993909718
 20
90.55759652038667
 30
0.0
 10
214.0694340584229
 20
90.46336180326789
 30
0.0
 10
214.0743117416096
 20
90.27456924554441
 30
0.0
 10
214.0742372544636
 20
89.96135884132354
 30
0.0
 10
214.0678501974073
 20
89.61962470653047
 30
0.0
 10
214.0499355513105
 20
89.20277054962708
 30
0.0
 10
214.012873810544
 20
88.71954190396423
 30
0.0
 10
213.9773990249902
 20
88.56574469361095
 30
0.0
 10
213.956399405214
 20
88.47470304558834
 30
0.0
  0
SPLINE
  5
1B6
330
1F
100
AcDbEntity
  8
0
  6
Continuous
 62
     7
370
    25
100
AcDbSpline
210
0.0
220
0.0
230
1.0
 70
     8
 71
     3
 72
     9
 73
     5
 74
     0
 42
0.00000001
 43
0.00000001
 40
0.0
 40
0.0
 40
0.0
 40
0.0
 40
0.5551829690770672
 40
1.0
 40
1.0
 40
1.0
 40
1.0
 10
221.1514422916115
 20
88.65015600673746
 30
0.0
 10
221.5016967503596
 20
88.63715698624641
 30
0.0
 10
222.1325778801074
 20
88.61374304667137
 30
0.0
 10
222.9819945113063
 20
88.51750940731966
 30
0.0
 10
223.3598294952128
 20
88.47470304558833
 30
0.0
  0
SPLINE
  5
1B7
330
1F
100
AcDbEntity
  8
0
  6
Continuous
 62
     7
370
    25
100
AcDbSpline
210
0.0
220
0.0
230
1.0
 70
     8
 71
     3
 72
    13
 73
     9
 74
     0
 42
0.00000001
 43
0.00000001
 40
0.0
 40
0.0
 40
0.0
 40
0.0
 40
0.3327087167328941
 40
0.5628656559531299
 40
0.69871241253847
 40
0.8016200683166478
 40
0.9052998751809794
 40
1.0
 40
1.0
 40
1.0
 40
1.0
 10
223.3598294952128
 20
88.47470304558833
 30
0.0
 10
223.3396966713057
 20
88.56048862050649
 30
0.0
 10
223.3056366224861
 20
88.70561783254449
 30
0.0
 10
223.2695507711159
 20
89.15598452897177
 30
0.0
 10
223.2505120480272
 20
89.55572567757766
 30
0.0
 10
223.2422385140748
 20
89.91161792398921
 30
0.0
 10
223.2415622518844
 20
90.25905177102344
 30
0.0
 10
223.2467520626522
 20
90.46113064220252
 30
0.0
 10
223.249229509455
 20
90.55759652038667
 30
0.0
  0
SPLINE
  5
1B8
330
1F
100
AcDbEntity
  8
0
  6
Continuous
 62
     7
370
    25
100
AcDbSpline
210
0.0
220
0.0
230
1.0
 70
     8
 71
     3
 72
    13
 73
     9
 74
     0
 42
0.00000001
 43
0.00000001
 40
0.0
 40
0.0
 40
0.0
 40
0.0
 40
0.1400312919410834
 40
0.2800978778503041
 40
0.4240602241121907
 40
0.5680316995452359
 40
0.7822812815056388
 40
0.9999999999999999
 40
0.9999999999999999
 40
0.9999999999999999
 40
0.9999999999999999
 10
216.3838919187086
 20
84.03803920566602
 30
0.0
 10
216.2950462983993
 20
84.35616482580663
 30
0.0
 10
216.1173326648252
 20
84.99249624756263
 30
0.0
 10
215.7631166458268
 20
85.82560433898608
 30
0.0
 10
215.3719407200138
 20
86.56790111368895
 30
0.0
 10
214.8971679567461
 20
87.3063594854851
 30
0.0
 10
214.356817773225
 20
87.98951411016736
 30
0.0
 10
214.0783571538014
 20
88.28007926650697
 30
0.0
 10
213.9380086857582
 20
88.4265286087637
 30
0.0
  0
ELLIPSE
  5
1B9
330
1F
100
AcDbEntity
  8
0
  6
Continuous
 62
     7
370
    25
100
AcDbEllipse
 10
214.0997935295
 20
69.5771487595
 30
0.0
 11
0.0
 21
19.07300724724768
 31
0.0
210
0.0
220
0.0
230
1.0
 40
0.0555555556
 41
0.135743564313581
 42
0.1532827087060874
  0
ELLIPSE
  5
1BA
330
1F
100
AcDbEntity
  8
0
  6
Continuous
 62
     7
370
    25
100
AcDbEllipse
 10
223.216435371
 20
69.5771487595
 30
0.0
 11
0.0
 21
19.07300724724768
 31
0.0
210
0.0
220
0.0
230
1.0
 40
0.0555555556
 41
6.129902598473738
 42
6.147441742866246
  0
SPLINE
  5
1BB
330
1F
100
AcDbEntity
  8
0
  6
Continuous
 62
     7
370
    25
100
AcDbSpline
210
0.0
220
0.0
230
1.0
 70
     8
 71
     3
 72
    13
 73
     9
 74
     0
 42
0.00000001
 43
0.00000001
 40
0.0
 40
0.0
 40
0.0
 40
0.0
 40
0.1374692963454099
 40
0.2749820892813127
 40
0.4163021045260215
 40
0.5576318202769774
 40
0.777008491451321
 40
1.0
 40
1.0
 40
1.0
 40
1.0
 10
223.3782202146686
 20
88.4265286087637
 30
0.0
 10
223.2949417350527
 20
88.34028819933482
 30
0.0
 10
223.1283584257193
 20
88.16778009319269
 30
0.0
 10
222.7826582524906
 20
87.7687980198697
 30
0.0
 10
222.3990939377992
 20
87.26848860839745
 30
0.0
 10
221.9238362222007
 20
86.5396681367947
 30
0.0
 10
221.377733454282
 20
85.52344918659304
 30
0.0
 10
221.0816090724891
 20
84.53586590028951
 30
0.0
 10
220.9323369827665
 20
84.03803920993357
 30
0.0
  0
LINE
  5
1BC
330
1F
100
AcDbEntity
  8
0
  6
Continuous
 62
     7
370
    25
100
AcDbLine
 10
216.3838919187
 20
84.0380392057
 30
0.0
 11
220.9323369828
 21
84.0380392099
 31
0.0
  0
LINE
  5
1BD
330
1F
100
AcDbEntity
  8
0
  6
Continuous
 62
     7
370
    25
100
AcDbLine
 10
213.4336854962
 20
94.1501560067
 30
0.0
 11
213.9522231635
 21
94.1501560067
 31
0.0
  0
ARC
  5
1BE
330
1F
100
AcDbEntity
  8
0
  6
Continuous
 62
     7
370
    25
100
AcDbCircle
 10
207.1581144502
 20
81.7719787251
 30
0.0
 40
9.499999999999993
100
AcDbArc
 50
44.4654416734
 51
48.6553876907
  0
LINE
  5
1BF
330
1F
100
AcDbEntity
  8
0
  6
Continuous
 62
     7
370
    25
100
AcDbLine
 10
213.4336854962
 20
88.9041037974
 30
0.0
 11
213.4336854962
 21
94.1501560067
 31
0.0
  0
LINE
  5
1C0
330
1F
100
AcDbEntity
  8
0
  6
Continuous
 62
     7
370
    25
100
AcDbLine
 10
223.8825434042
 20
94.1501560067
 30
0.0
 11
223.8825434042
 21
88.9041037974
 31
0.0
  0
ARC
  5
1C1
330
1F
100
AcDbEntity
  8
0
  6
Continuous
 62
     7
370
    25
100
AcDbCircle
 10
230.1581144502
 20
81.7719787251
 30
0.0
 40
9.499999999999993
100
AcDbArc
 50
131.3446123093
 51
135.5345583266
  0
LINE
  5
1C2
330
1F
100
AcDbEntity
  8
0
  6
Continuous
 62
     7
370
    25
100
AcDbLine
 10
223.3640057369
 20
94.1501560067
 30
0.0
 11
223.8825434042
 21
94.1501560067
 31
0.0
  0
ARC
  5
1C3
330
1F
100
AcDbEntity
  8
0
  6
Continuous
 62
     7
370
    25
100
AcDbCircle
 10
222.383697249
 20
94.1513098529
 30
0.0
 40
1.498846599345437
100
AcDbArc
 50
359.9558924033
 51
89.9558243884
  0
LINE
  5
1C4
330
1F
100
AcDbEntity
  8
0
  6
Continuous
 62
     7
370
    25
100
AcDbLine
 10
222.3848528744
 20
95.6501560067
 30
0.0
 11
221.750645692
 21
95.6501560067
 31
0.0
  0
ARC
  5
1C5
330
1F
100
AcDbEntity
  8
0
  6
Continuous
 62
     7
370
    25
100
AcDbCircle
 10
214.9325316514
 20
94.1513098529
 30
0.0
 40
1.49884659934552
100
AcDbArc
 50
90.0441756116
 51
180.0441075967
  0
LINE
  5
1C6
330
1F
100
AcDbEntity
  8
0
  6
Continuous
 62
     7
370
    25
100
AcDbLine
 10
215.5655832084
 20
95.6501560067
 30
0.0
 11
214.931376026
 21
95.6501560067
 31
0.0
  0
LINE
  5
1C7
330
1F
100
AcDbEntity
  8
0
  6
Continuous
 62
     7
370
    25
100
AcDbLine
 10
216.0979757195
 20
96.0801430682
 30
0.0
 11
216.0601285655
 21
96.1276833801
 31
0.0
  0
LINE
  5
1C8
330
1F
100
AcDbEntity
  8
0
  6
Continuous
 62
     7
370
    25
100
AcDbLine
 10
221.256100335
 20
96.1276833801
 30
0.0
 11
221.2182531809
 21
96.0801430682
 31
0.0
  0
ELLIPSE
  5
1C9
330
1F
100
AcDbEntity
  8
0
  6
Continuous
 62
     7
370
    25
100
AcDbEllipse
 10
219.6338632136
 20
98.9501560067
 30
0.0
 11
1.500207016110437
 21
0.02894030982645291
 31
0.0
210
0.0
220
0.0
230
1.0
 40
0.2796306798
 41
6.257897524076055
 42
6.352587236212992
  0
LINE
  5
1CA
330
1F
100
AcDbEntity
  8
0
  6
Continuous
 62
     7
370
    25
100
AcDbLine
 10
213.4414831377
 20
88.8972013745
 30
0.0
 11
213.4336854962
 21
88.9041037974
 31
0.0
  0
LINE
  5
1CB
330
1F
100
AcDbEntity
  8
0
  6
Continuous
 62
     7
370
    25
100
AcDbLine
 10
223.8825434042
 20
88.9041037974
 30
0.0
 11
223.8747457628
 21
88.8972013745
 31
0.0
  0
SPLINE
  5
1CC
330
1F
100
AcDbEntity
  8
0
  6
Continuous
 62
     7
370
    25
100
AcDbSpline
210
0.0
220
0.0
230
1.0
 70
     8
 71
     3
 72
     9
 73
     5
 74
     0
 42
0.00000001
 43
0.00000001
 40
0.0
 40
0.0
 40
0.0
 40
0.0
 40
0.0576289627817999
 40
1.0
 40
1.0
 40
1.0
 40
1.0
 10
220.4206280007413
 20
84.03803920945347
 30
0.0
 10
220.4157719286455
 20
84.02053593643511
 30
0.0
 10
220.3315074917834
 20
83.71681238887379
 30
0.0
 10
220.2845493686121
 20
83.37423219443667
 30
0.0
 10
220.2402973933735
 20
83.05139454127453
 30
0.0
  0
SPLINE
  5
1CD
330
1F
100
AcDbEntity
  8
0
  6
Continuous
 62
     7
370
    25
100
AcDbSpline
210
0.0
220
0.0
230
1.0
 70
     8
 71
     3
 72
    10
 73
     6
 74
     0
 42
0.00000001
 43
0.00000001
 40
0.0
 40
0.0
 40
0.0
 40
0.0
 40
0.2746918501531821
 40
0.5573359346812419
 40
1.0
 40
1.0
 40
1.0
 40
1.0
 10
220.2402973933735
 20
83.05139454127453
 30
0.0
 10
219.9556766350191
 20
83.10461858443766
 30
0.0
 10
219.3781954454656
 20
83.21260748846696
 30
0.0
 10
218.2991775022989
 20
83.25439356170551
 30
0.0
 10
217.5395444578662
 20
83.12833162117498
 30
0.0
 10
217.0759315070534
 20
83.05139454127453
 30
0.0
  0
LINE
  5
1CE
330
1F
100
AcDbEntity
  8
0
  6
Continuous
 62
     7
370
    25
100
AcDbLine
 10
217.0759315071
 20
83.0513945413
 30
0.0
 11
216.8606967213
 21
84.0380392061
 31
0.0
  0
LINE
  5
1CF
330
1F
100
AcDbEntity
  8
0
  6
Continuous
 62
     7
370
    25
100
AcDbLine
 10
210.4781144502
 20
80.9501560067
 30
0.0
 11
219.6581144502
 21
80.9501560067
 31
0.0
  0
LWPOLYLINE
  5
1D0
330
1F
100
AcDbEntity
  8
0
  6
Continuous
 62
     7
370
    25
100
AcDbPolyline
 90
        3
 70
   128
 43
0.0
 10
210.539469243
 20
80.9501560067
 10
210.6329529192
 20
80.0224118173
 10
210.6754817856
 20
79.6004041472
  0
LINE
  5
1D1
330
1F
100
AcDbEntity
  8
0
  6
Continuous
 62
     7
370
    25
100
AcDbLine
 10
219.6581144502
 20
79.6004041472
 30
0.0
 11
219.6581144502
 21
80.9501560067
 31
0.0
  0
LINE
  5
1D2
330
1F
100
AcDbEntity
  8
0
  6
Continuous
 62
     7
370
    25
100
AcDbLine
 10
211.0995055595
 20
97.1501560067
 30
0.0
 11
216.0982891131
 21
97.1501560067
 31
0.0
  0
LINE
  5
1D3
330
1F
100
AcDbEntity
  8
0
  6
Continuous
 62
     7
370
    25
100
AcDbLine
 10
221.2179397873
 20
97.1501560067
 30
0.0
 11
226.2167233409
 21
97.1501560067
 31
0.0
  0
SPLINE
  5
1D4
330
1F
100
AcDbEntity
  8
0
  6
Continuous
 62
     7
370
    25
100
AcDbSpline
210
0.0
220
0.0
230
1.0
 70
     8
 71
     3
 72
    12
 73
     8
 74
     0
 42
0.00000001
 43
0.00000001
 40
0.0
 40
0.0
 40
0.0
 40
0.0
 40
0.2271543139929597
 40
0.4542742953683958
 40
0.6823371405829708
 40
0.9121899191033218
 40
1.0
 40
1.0
 40
1.0
 40
1.0
 10
210.675481785568
 20
79.60040414722697
 30
0.0
 10
210.6865857307664
 20
79.54528434033259
 30
0.0
 10
210.7087919428877
 20
79.43505305747632
 30
0.0
 10
210.8092881544262
 20
79.29519899788791
 30
0.0
 10
210.9467504292566
 20
79.19495060880234
 30
0.0
 10
211.0777240126128
 20
79.1540219182276
 30
0.0
 10
211.1556169964276
 20
79.15099321673827
 30
0.0
 10
211.1771485951251
 20
79.15015600673748
 30
0.0
  0
LINE
  5
1D5
330
1F
100
AcDbEntity
  8
0
  6
Continuous
 62
     7
370
    25
100
AcDbLine
 10
226.2056206692
 20
79.1501560067
 30
0.0
 11
219.6581144502
 21
79.1501560067
 31
0.0
  0
SPLINE
  5
1D6
330
1F
100
AcDbEntity
  8
0
  6
Continuous
 62
     7
370
    25
100
AcDbSpline
210
0.0
220
0.0
230
1.0
 70
    24
 71
     3
 72
    12
 73
     8
 74
     0
 42
0.00000001
 43
0.00000001
 40
0.0
 40
0.0
 40
0.0
 40
0.0
 40
0.2316347876629375
 40
0.46330664808196
 40
0.6939442291381526
 40
0.9227406525226395
 40
1.0
 40
1.0
 40
1.0
 40
1.0
 10
219.6581144502134
 20
79.15015600673748
 30
0.0
 10
219.6581144502134
 20
79.15574547176773
 30
0.0
 10
219.6581144502134
 20
79.1669252964127
 30
0.0
 10
219.6581144502134
 20
79.25424836236837
 30
0.0
 10
219.6581144502134
 20
79.38255853615043
 30
0.0
 10
219.6581144502134
 20
79.50723796284824
 30
0.0
 10
219.6581144502134
 20
79.58162597160154
 30
0.0
 10
219.6581144502134
 20
79.60040414722697
 30
0.0
  0
SPLINE
  5
1D7
330
1F
100
AcDbEntity
  8
0
  6
Continuous
 62
     7
370
    25
100
AcDbSpline
210
0.0
220
0.0
230
1.0
 70
     8
 71
     3
 72
    11
 73
     7
 74
     0
 42
0.00000001
 43
0.00000001
 40
0.0
 40
0.0
 40
0.0
 40
0.0
 40
0.2981995125517625
 40
0.5964325929955623
 40
0.8933636912282922
 40
1.0
 40
1.0
 40
1.0
 40
1.0
 10
212.7420346671138
 20
79.15015600673748
 30
0.0
 10
212.8580571587222
 20
79.16135277234308
 30
0.0
 10
213.0901152024246
 20
79.18374756395819
 30
0.0
 10
213.3920190525929
 20
79.36309649010231
 30
0.0
 10
213.5919661810127
 20
79.5612431836716
 30
0.0
 10
213.6442889780714
 20
79.70885960552313
 30
0.0
 10
213.6581144502134
 20
79.7478649118663
 30
0.0
  0
LINE
  5
1D8
330
1F
100
AcDbEntity
  8
0
  6
Continuous
 62
     7
370
    25
100
AcDbLine
 10
213.6581144502
 20
79.1501560067
 30
0.0
 11
212.7420346671
 21
79.1501560067
 31
0.0
  0
LINE
  5
1D9
330
1F
100
AcDbEntity
  8
0
  6
Continuous
 62
     7
370
    25
100
AcDbLine
 10
211.1771485951
 20
79.1501560067
 30
0.0
 11
212.7420346671
 21
79.1501560067
 31
0.0
  0
LINE
  5
1DA
330
1F
100
AcDbEntity
  8
0
  6
Continuous
 62
     7
370
    25
100
AcDbLine
 10
217.8581144502
 20
80.6501560067
 30
0.0
 11
219.4581144502
 21
80.6501560067
 31
0.0
  0
LINE
  5
1DB
330
1F
100
AcDbEntity
  8
0
  6
Continuous
 62
     7
370
    25
100
AcDbLine
 10
210.4081144502
 20
72.7001560067
 30
0.0
 11
226.9081144502
 21
72.7001560067
 31
0.0
  0
SPLINE
  5
1DC
330
1F
100
AcDbEntity
  8
0
  6
Continuous
 62
     7
370
    25
100
AcDbSpline
210
0.0
220
0.0
230
1.0
 70
     8
 71
     3
 72
    11
 73
     7
 74
     0
 42
0.00000001
 43
0.00000001
 40
0.0
 40
0.0
 40
0.0
 40
0.0
 40
0.2843931288920268
 40
0.5687862577840551
 40
0.8531793866760874
 40
1.0
 40
1.0
 40
1.0
 40
1.0
 10
220.2362272395269
 20
98.96847987055298
 30
0.0
 10
220.2237607159115
 20
99.05854249140143
 30
0.0
 10
220.1988276686807
 20
99.23866773309828
 30
0.0
 10
220.0353743099505
 20
99.46093033651191
 30
0.0
 10
219.8460323714443
 20
99.60023446964902
 30
0.0
 10
219.7103828204655
 20
99.6188748949885
 30
0.0
 10
219.6641965598666
 20
99.62522162843648
 30
0.0
  0
LINE
  5
1DD
330
1F
100
AcDbEntity
  8
0
  6
Continuous
 62
     7
370
    25
100
AcDbLine
 10
216.0601285655
 20
96.1276833801
 30
0.0
 11
216.0526577801
 21
96.1370675326
 31
0.0
  0
ELLIPSE
  5
1DE
330
1F
100
AcDbEntity
  8
0
  6
Continuous
 62
     7
370
    25
100
AcDbEllipse
 10
217.6823656868
 20
98.9501560067
 30
0.0
 11
1.500207016110408
 21
-0.02894030982646712
 31
0.0
210
0.0
220
0.0
230
1.0
 40
0.2796306798
 41
3.072232391795088
 42
3.166880436693456
  0
LINE
  5
1DF
330
1F
100
AcDbEntity
  8
0
  6
Continuous
 62
     7
370
    25
100
AcDbLine
 10
213.4336854962
 20
94.1501560067
 30
0.0
 11
213.431376026
 21
94.1501560067
 31
0.0
  0
LINE
  5
1E0
330
1F
100
AcDbEntity
  8
0
  6
Continuous
 62
     7
370
    25
100
AcDbLine
 10
223.8848528744
 20
94.1501560067
 30
0.0
 11
223.8825434042
 21
94.1501560067
 31
0.0
  0
LINE
  5
1E1
330
1F
100
AcDbEntity
  8
0
  6
Continuous
 62
     7
370
    25
100
AcDbLine
 10
213.431376026
 20
89.0382315925
 30
0.0
 11
209.6693068916
 21
89.0382315925
 31
0.0
  0
LINE
  5
1E2
330
1F
100
AcDbEntity
  8
0
  6
Continuous
 62
     7
370
    25
100
AcDbLine
 10
227.6469220088
 20
89.0382315925
 30
0.0
 11
223.8848528744
 21
89.0382315925
 31
0.0
  0
LINE
  5
1E3
330
1F
100
AcDbEntity
  8
0
  6
Continuous
 62
     7
370
    25
100
AcDbLine
 10
219.6581144502
 20
79.6004041472
 30
0.0
 11
226.7031392643
 21
79.6004041472
 31
0.0
  0
LINE
  5
1E4
330
1F
100
AcDbEntity
  8
0
  6
Continuous
 62
     7
370
    25
100
AcDbLine
 10
223.8848528744
 20
89.2617700461
 30
0.0
 11
227.6441626953
 21
89.2617700461
 31
0.0
  0
LINE
  5
1E5
330
1F
100
AcDbEntity
  8
0
  6
Continuous
 62
     7
370
    25
100
AcDbLine
 10
209.6720662051
 20
89.2617700461
 30
0.0
 11
213.431376026
 21
89.2617700461
 31
0.0
  0
LINE
  5
1E6
330
1F
100
AcDbEntity
  8
0
  6
Continuous
 62
     7
370
    25
100
AcDbLine
 10
226.7128622793
 20
96.712173374
 30
0.0
 11
221.2380144318
 21
96.712173374
 31
0.0
  0
LINE
  5
1E7
330
1F
100
AcDbEntity
  8
0
  6
Continuous
 62
     7
370
    25
100
AcDbLine
 10
216.0782144686
 20
96.712173374
 30
0.0
 11
210.6033666211
 21
96.712173374
 31
0.0
  0
LINE
  5
1E8
330
1F
100
AcDbEntity
  8
0
  6
Continuous
 62
     7
370
    25
100
AcDbLine
 10
217.6780891521
 20
80.4501560067
 30
0.0
 11
217.6581144502
 21
80.4501560067
 31
0.0
  0
LINE
  5
1E9
330
1F
100
AcDbEntity
  8
0
  6
Continuous
 62
     7
370
    25
100
AcDbLine
 10
219.6581144502
 20
80.4501560067
 30
0.0
 11
217.6780891521
 21
80.4501560067
 31
0.0
  0
INSERT
  5
1F5
330
1F
100
AcDbEntity
  8
0
  6
Continuous
 62
     7
370
    18
100
AcDbBlockReference
  2
SW_CENTERMARKSYMBOL_0
 10
218.6581144502
 20
59.9501560067
 30
0.0
  0
LINE
  5
1F6
330
1F
100
AcDbEntity
  8
0
  6
Continuous
 62
     7
370
    25
100
AcDbLine
 10
139.783459971
 20
152.8305004176
 30
0.0
 11
137.033459971
 21
152.8305004176
 31
0.0
  0
LINE
  5
1F7
330
1F
100
AcDbEntity
  8
0
  6
Continuous
 62
     7
370
    25
100
AcDbLine
 10
137.033459971
 20
128.8305004176
 30
0.0
 11
139.783459971
 21
128.8305004176
 31
0.0
  0
LINE
  5
1F8
330
1F
100
AcDbEntity
  8
0
  6
Continuous
 62
     7
370
    25
100
AcDbLine
 10
137.033459971
 20
152.8305004176
 30
0.0
 11
136.783459971
 21
152.5805004176
 31
0.0
  0
LINE
  5
1F9
330
1F
100
AcDbEntity
  8
0
  6
Continuous
 62
     7
370
    25
100
AcDbLine
 10
136.783459971
 20
129.0805004176
 30
0.0
 11
137.033459971
 21
128.8305004176
 31
0.0
  0
LINE
  5
1FA
330
1F
100
AcDbEntity
  8
0
  6
Continuous
 62
     7
370
    25
100
AcDbLine
 10
136.783459971
 20
151.5805004176
 30
0.0
 11
125.283459971
 21
151.5805004176
 31
0.0
  0
LINE
  5
1FB
330
1F
100
AcDbEntity
  8
0
  6
Continuous
 62
     7
370
    25
100
AcDbLine
 10
125.283459971
 20
130.0805004176
 30
0.0
 11
136.783459971
 21
130.0805004176
 31
0.0
  0
LINE
  5
1FC
330
1F
100
AcDbEntity
  8
0
  6
Continuous
 62
     7
370
    25
100
AcDbLine
 10
125.283459971
 20
151.5805004176
 30
0.0
 11
124.783459971
 21
151.0805004176
 31
0.0
  0
LINE
  5
1FD
330
1F
100
AcDbEntity
  8
0
  6
Continuous
 62
     7
370
    25
100
AcDbLine
 10
124.783459971
 20
130.5805004176
 30
0.0
 11
125.283459971
 21
130.0805004176
 31
0.0
  0
LINE
  5
1FE
330
1F
100
AcDbEntity
  8
0
  6
Continuous
 62
     7
370
    25
100
AcDbLine
 10
165.783459971
 20
128.8305004176
 30
0.0
 11
168.033459971
 21
128.8305004176
 31
0.0
  0
LINE
  5
1FF
330
1F
100
AcDbEntity
  8
0
  6
Continuous
 62
     7
370
    25
100
AcDbLine
 10
168.033459971
 20
152.8305004176
 30
0.0
 11
165.783459971
 21
152.8305004176
 31
0.0
  0
LINE
  5
200
330
1F
100
AcDbEntity
  8
0
  6
Continuous
 62
     7
370
    25
100
AcDbLine
 10
168.033459971
 20
128.8305004176
 30
0.0
 11
168.283459971
 21
129.0805004176
 31
0.0
  0
LINE
  5
201
330
1F
100
AcDbEntity
  8
0
  6
Continuous
 62
     7
370
    25
100
AcDbLine
 10
168.283459971
 20
152.5805004176
 30
0.0
 11
168.033459971
 21
152.8305004176
 31
0.0
  0
LINE
  5
202
330
1F
100
AcDbEntity
  8
0
  6
Continuous
 62
     7
370
    25
100
AcDbLine
 10
180.033459971
 20
130.3305004176
 30
0.0
 11
180.283459971
 21
130.5805004176
 31
0.0
  0
LINE
  5
203
330
1F
100
AcDbEntity
  8
0
  6
Continuous
 62
     7
370
    25
100
AcDbLine
 10
180.283459971
 20
151.0805004176
 30
0.0
 11
180.033459971
 21
151.3305004176
 31
0.0
  0
LINE
  5
204
330
1F
100
AcDbEntity
  8
0
  6
Continuous
 62
     7
370
    25
100
AcDbLine
 10
180.033459971
 20
151.3305004176
 30
0.0
 11
168.283459971
 21
151.3305004176
 31
0.0
  0
LINE
  5
205
330
1F
100
AcDbEntity
  8
0
  6
Continuous
 62
     7
370
    25
100
AcDbLine
 10
168.283459971
 20
130.3305004176
 30
0.0
 11
180.033459971
 21
130.3305004176
 31
0.0
  0
LINE
  5
206
330
1F
100
AcDbEntity
  8
0
  6
Continuous
 62
     7
370
    25
100
AcDbLine
 10
102.2396345789
 20
139.9604713352
 30
0.0
 11
102.2570535693
 21
139.9604713352
 31
0.0
  0
LINE
  5
207
330
1F
100
AcDbEntity
  8
0
  6
Continuous
 62
     7
370
    25
100
AcDbLine
 10
130.8178076484
 20
145.425658777
 30
0.0
 11
129.6255675916
 21
144.6316855387
 31
0.0
  0
LINE
  5
208
330
1F
100
AcDbEntity
  8
0
  6
Continuous
 62
     7
370
    25
100
AcDbLine
 10
129.6255675323
 20
137.0293151891
 30
0.0
 11
130.8221868044
 21
136.2324256665
 31
0.0
  0
SPLINE
  5
209
330
1F
100
AcDbEntity
  8
0
  6
Continuous
 62
     7
370
    25
100
AcDbSpline
210
0.0
220
0.0
230
1.0
 70
     8
 71
     3
 72
    11
 73
     7
 74
     0
 42
0.00000001
 43
0.00000001
 40
0.0
 40
0.0
 40
0.0
 40
0.0
 40
0.2485427336868735
 40
0.4982459407376401
 40
0.7488347621401439
 40
1.0
 40
1.0
 40
1.0
 40
1.0
 10
129.6254877495789
 20
144.6318302547668
 30
0.0
 10
129.2042076065228
 20
144.4180650213117
 30
0.0
 10
128.3596803170808
 20
143.9895364610116
 30
0.0
 10
127.0030747498467
 20
143.5508424993982
 30
0.0
 10
125.6049776437203
 20
143.2499135549042
 30
0.0
 10
124.6536217447396
 20
143.1886328707915
 30
0.0
 10
124.1773973350992
 20
143.1579573290251
 30
0.0
  0
SPLINE
  5
20A
330
1F
100
AcDbEntity
  8
0
  6
Continuous
 62
     7
370
    25
100
AcDbSpline
210
0.0
220
0.0
230
1.0
 70
     8
 71
     3
 72
    10
 73
     6
 74
     0
 42
0.00000001
 43
0.00000001
 40
0.0
 40
0.0
 40
0.0
 40
0.0
 40
0.0711023749285983
 40
0.5366329433438182
 40
0.9999999999999999
 40
0.9999999999999999
 40
0.9999999999999999
 40
0.9999999999999999
 10
126.7859726622356
 20
138.1305944604155
 30
0.0
 10
126.856947054589
 20
138.1163681068128
 30
0.0
 10
127.3926140714627
 20
138.0089971502941
 30
0.0
 10
128.3578892867465
 20
137.6625074506132
 30
0.0
 10
129.2036115241361
 20
137.2399548122547
 30
0.0
 10
129.6254877495789
 20
137.029170580458
 30
0.0
  0
LINE
  5
20B
330
1F
100
AcDbEntity
  8
0
  6
Continuous
 62
     7
370
    25
100
AcDbLine
 10
124.1767260625
 20
143.1835921965
 30
0.0
 11
102.5223350327
 21
142.6165520114
 31
0.0
  0
LINE
  5
20C
330
1F
100
AcDbEntity
  8
0
  6
Continuous
 62
     7
370
    25
100
AcDbLine
 10
102.5223385512
 20
139.0444487317
 30
0.0
 11
124.1767260625
 21
138.4774086387
 31
0.0
  0
SPLINE
  5
20D
330
1F
100
AcDbEntity
  8
0
  6
Continuous
 62
     7
370
    25
100
AcDbSpline
210
0.0
220
0.0
230
1.0
 70
     8
 71
     3
 72
    12
 73
     8
 74
     0
 42
0.00000001
 43
0.00000001
 40
0.0
 40
0.0
 40
0.0
 40
0.0
 40
0.1102943500306923
 40
0.3297848769050472
 40
0.5882563995726445
 40
0.8444136906914226
 40
1.0
 40
1.0
 40
1.0
 40
1.0
 10
97.48398608318561
 20
139.7456262616395
 30
0.0
 10
97.49863116939461
 20
139.7136975154268
 30
0.0
 10
97.54242061057052
 20
139.6182291833086
 30
0.0
 10
97.67274251339151
 20
139.4846326778687
 30
0.0
 10
97.86020475169919
 20
139.3609218708622
 30
0.0
 10
98.05812077676951
 20
139.2814987288401
 30
0.0
 10
98.1930503437626
 20
139.2708764043249
 30
0.0
 10
98.2440364266629
 20
139.2668625270821
 30
0.0
  0
SPLINE
  5
20E
330
1F
100
AcDbEntity
  8
0
  6
Continuous
 62
     7
370
    25
100
AcDbSpline
210
0.0
220
0.0
230
1.0
 70
     8
 71
     3
 72
    12
 73
     8
 74
     0
 42
0.00000001
 43
0.00000001
 40
0.0
 40
0.0
 40
0.0
 40
0.0
 40
0.0693333892160262
 40
0.2378139675293048
 40
0.463729148083556
 40
0.7607716474609804
 40
1.0
 40
1.0
 40
1.0
 40
1.0
 10
98.24392931500282
 20
142.3940506216036
 30
0.0
 10
98.2212452002993
 20
142.3939549175132
 30
0.0
 10
98.14343854208546
 20
142.3936266518725
 30
0.0
 10
97.99758069791633
 20
142.3534779442988
 30
0.0
 10
97.80175356691305
 20
142.2697365783258
 30
0.0
 10
97.60831486145649
 20
142.129466196056
 30
0.0
 10
97.52001254436504
 20
141.9843066407868
 30
0.0
 10
97.48062122229773
 20
141.9195515247139
 30
0.0
  0
SPLINE
  5
20F
330
1F
100
AcDbEntity
  8
0
  6
Continuous
 62
     7
370
    25
100
AcDbSpline
210
0.0
220
0.0
230
1.0
 70
     8
 71
     3
 72
    10
 73
     6
 74
     0
 42
0.00000001
 43
0.00000001
 40
0.0
 40
0.0
 40
0.0
 40
0.0
 40
0.2223818862120875
 40
0.6188639269601223
 40
1.0
 40
1.0
 40
1.0
 40
1.0
 10
97.47884699007781
 20
141.9189303564126
 30
0.0
 10
97.45252437566518
 20
141.8593075090158
 30
0.0
 10
97.37927148263175
 20
141.6933837905646
 30
0.0
 10
97.30143593927934
 20
141.3819778904243
 30
0.0
 10
97.28937260550073
 20
141.1202348416331
 30
0.0
 10
97.28345997103065
 20
140.9919460119455
 30
0.0
  0
SPLINE
  5
210
330
1F
100
AcDbEntity
  8
0
  6
Continuous
 62
     7
370
    25
100
AcDbSpline
210
0.0
220
0.0
230
1.0
 70
     8
 71
     3
 72
    10
 73
     6
 74
     0
 42
0.00000001
 43
0.00000001
 40
0.0
 40
0.0
 40
0.0
 40
0.0
 40
0.1982188569949219
 40
0.5769406939580605
 40
1.0
 40
1.0
 40
1.0
 40
1.0
 10
97.28345997103065
 20
140.6690548232793
 30
0.0
 10
97.28514210327374
 20
140.6024941720672
 30
0.0
 10
97.29003815886789
 20
140.4087610990246
 30
0.0
 10
97.3413563186902
 20
140.0797253014221
 30
0.0
 10
97.43135777785453
 20
139.858696293257
 30
0.0
 10
97.47884699007781
 20
139.7420704788122
 30
0.0
  0
LINE
  5
211
330
1F
100
AcDbEntity
  8
0
  6
Continuous
 62
     7
370
    25
100
AcDbLine
 10
97.283459971
 20
140.9919460119
 30
0.0
 11
97.283459971
 21
140.6690548233
 31
0.0
  0
ARC
  5
212
330
1F
100
AcDbEntity
  8
0
  6
Continuous
 62
     7
370
    25
100
AcDbCircle
 10
152.783459971
 20
140.8305004176
 30
0.0
 40
8.993770368365613
100
AcDbArc
 50
200.7396540885
 51
90.0
  0
ARC
  5
213
330
1F
100
AcDbEntity
  8
0
  6
Continuous
 62
     7
370
    25
100
AcDbCircle
 10
152.783459971
 20
140.8305004176
 30
0.0
 40
8.993770368365565
100
AcDbArc
 50
90.0
 51
159.2560164807
  0
LINE
  5
214
330
1F
100
AcDbEntity
  8
0
  6
Continuous
 62
     7
370
    25
100
AcDbLine
 10
137.033459971
 20
135.9007168327
 30
0.0
 11
137.033459971
 21
128.8305004176
 31
0.0
  0
LINE
  5
215
330
1F
100
AcDbEntity
  8
0
  6
Continuous
 62
     7
370
    25
100
AcDbLine
 10
137.033459971
 20
152.8305004176
 30
0.0
 11
137.033459971
 21
145.7602840025
 31
0.0
  0
LINE
  5
216
330
1F
100
AcDbEntity
  8
0
  6
Continuous
 62
     7
370
    25
100
AcDbLine
 10
136.783459971
 20
145.7463951136
 30
0.0
 11
136.783459971
 21
152.5805004176
 31
0.0
  0
LINE
  5
217
330
1F
100
AcDbEntity
  8
0
  6
Continuous
 62
     7
370
    25
100
AcDbLine
 10
136.783459971
 20
129.0805004176
 30
0.0
 11
136.783459971
 21
135.9146057216
 31
0.0
  0
LINE
  5
218
330
1F
100
AcDbEntity
  8
0
  6
Continuous
 62
     7
370
    25
100
AcDbLine
 10
125.283459971
 20
136.7256202417
 30
0.0
 11
125.283459971
 21
130.0805004176
 31
0.0
  0
LINE
  5
219
330
1F
100
AcDbEntity
  8
0
  6
Continuous
 62
     7
370
    25
100
AcDbLine
 10
125.283459971
 20
151.5805004176
 30
0.0
 11
125.283459971
 21
143.2577747454
 31
0.0
  0
LINE
  5
21A
330
1F
100
AcDbEntity
  8
0
  6
Continuous
 62
     7
370
    25
100
AcDbLine
 10
125.283459971
 20
138.3941768062
 30
0.0
 11
125.283459971
 21
136.7256202417
 31
0.0
  0
LINE
  5
21B
330
1F
100
AcDbEntity
  8
0
  6
Continuous
 62
     7
370
    25
100
AcDbLine
 10
124.783459971
 20
136.9165449011
 30
0.0
 11
124.783459971
 21
138.4366013378
 31
0.0
  0
LINE
  5
21C
330
1F
100
AcDbEntity
  8
0
  6
Continuous
 62
     7
370
    25
100
AcDbLine
 10
124.783459971
 20
143.2150194455
 30
0.0
 11
124.783459971
 21
151.0805004176
 31
0.0
  0
LINE
  5
21D
330
1F
100
AcDbEntity
  8
0
  6
Continuous
 62
     7
370
    25
100
AcDbLine
 10
124.783459971
 20
130.5805004176
 30
0.0
 11
124.783459971
 21
136.9165449011
 31
0.0
  0
LINE
  5
21E
330
1F
100
AcDbEntity
  8
0
  6
Continuous
 62
     7
370
    25
100
AcDbLine
 10
141.3711732113
 20
149.5662030224
 30
0.0
 11
141.3711732113
 21
153.3305004176
 31
0.0
  0
SPLINE
  5
21F
330
1F
100
AcDbEntity
  8
0
  6
Continuous
 62
     7
370
    25
100
AcDbSpline
210
0.0
220
0.0
230
1.0
 70
     8
 71
     3
 72
     9
 73
     5
 74
     0
 42
0.00000001
 43
0.00000001
 40
0.0
 40
0.0
 40
0.0
 40
0.0
 40
0.4308597066807026
 40
1.0
 40
1.0
 40
1.0
 40
1.0
 10
140.3668004413827
 20
145.9454695841624
 30
0.0
 10
140.4889929765487
 20
146.4715084192038
 30
0.0
 10
140.7725946530837
 20
147.6924135697318
 30
0.0
 10
141.1540637675835
 20
148.8865639339066
 30
0.0
 10
141.3711732113021
 20
149.5662030224405
 30
0.0
  0
SPLINE
  5
220
330
1F
100
AcDbEntity
  8
0
  6
Continuous
 62
     7
370
    25
100
AcDbSpline
210
0.0
220
0.0
230
1.0
 70
    24
 71
     3
 72
    12
 73
     8
 74
     0
 42
0.00000001
 43
0.00000001
 40
0.0
 40
0.0
 40
0.0
 40
0.0
 40
0.25
 40
0.25
 40
0.5
 40
0.5
 40
1.0
 40
1.0
 40
1.0
 40
1.0
 10
139.7834599710307
 20
153.3305004176124
 30
0.0
 10
139.7834599710307
 20
153.3305004176124
 30
0.0
 10
139.8228530564002
 20
153.3305004176124
 30
0.0
 10
139.9734844591656
 20
153.3305004176124
 30
0.0
 10
140.0843648883374
 20
153.3305004176124
 30
0.0
 10
140.5055522943018
 20
153.3305004176124
 30
0.0
 10
140.9032400397815
 20
153.3305004176124
 30
0.0
 10
141.3711732113021
 20
153.3305004176124
 30
0.0
  0
LINE
  5
221
330
1F
100
AcDbEntity
  8
0
  6
Continuous
 62
     7
370
    25
100
AcDbLine
 10
139.783459971
 20
145.9130617803
 30
0.0
 11
139.783459971
 21
153.3305004176
 31
0.0
  0
SPLINE
  5
222
330
1F
100
AcDbEntity
  8
0
  6
Continuous
 62
     7
370
    25
100
AcDbSpline
210
0.0
220
0.0
230
1.0
 70
     8
 71
     3
 72
    10
 73
     6
 74
     0
 42
0.00000001
 43
0.00000001
 40
0.0
 40
0.0
 40
0.0
 40
0.0
 40
0.5
 40
0.5
 40
1.0
 40
1.0
 40
1.0
 40
1.0
 10
164.1957467307592
 20
149.5662030224405
 30
0.0
 10
164.6626980837976
 20
148.1543019485533
 30
0.0
 10
165.0651670822042
 20
146.7073543376185
 30
0.0
 10
165.6259802075211
 20
143.7936165033248
 30
0.0
 10
165.7834599710307
 20
142.321698222626
 30
0.0
 10
165.7834599710307
 20
140.8305004176124
 30
0.0
  0
LINE
  5
223
330
1F
100
AcDbEntity
  8
0
  6
Continuous
 62
     7
370
    25
100
AcDbLine
 10
164.1957467308
 20
153.3305004176
 30
0.0
 11
164.1957467308
 21
149.5662030224
 31
0.0
  0
SPLINE
  5
224
330
1F
100
AcDbEntity
  8
0
  6
Continuous
 62
     7
370
    25
100
AcDbSpline
210
0.0
220
0.0
230
1.0
 70
    24
 71
     3
 72
    12
 73
     8
 74
     0
 42
0.00000001
 43
0.00000001
 40
0.0
 40
0.0
 40
0.0
 40
0.0
 40
0.2500000000000001
 40
0.2500000000000001
 40
0.5000000000000001
 40
0.5000000000000001
 40
1.0
 40
1.0
 40
1.0
 40
1.0
 10
165.7834599710307
 20
153.3305004176124
 30
0.0
 10
165.7834599710307
 20
153.3305004176124
 30
0.0
 10
165.7440885295132
 20
153.3305004176124
 30
0.0
 10
165.5934423958539
 20
153.3305004176124
 30
0.0
 10
165.4825476933865
 20
153.3305004176124
 30
0.0
 10
165.0613288125127
 20
153.3305004176124
 30
0.0
 10
164.6636390370765
 20
153.3305004176124
 30
0.0
 10
164.1957467307592
 20
153.3305004176124
 30
0.0
  0
LINE
  5
225
330
1F
100
AcDbEntity
  8
0
  6
Continuous
 62
     7
370
    25
100
AcDbLine
 10
165.783459971
 20
153.3305004176
 30
0.0
 11
165.783459971
 21
140.8305004176
 31
0.0
  0
LINE
  5
226
330
1F
100
AcDbEntity
  8
0
  6
Continuous
 62
     7
370
    25
100
AcDbLine
 10
164.1957467308
 20
149.5662030224
 30
0.0
 11
154.9224797089
 21
149.5662030224
 31
0.0
  0
LINE
  5
227
330
1F
100
AcDbEntity
  8
0
  6
Continuous
 62
     7
370
    25
100
AcDbLine
 10
150.6444402332
 20
149.5662030224
 30
0.0
 11
141.3711732113
 21
149.5662030224
 31
0.0
  0
LINE
  5
228
330
1F
100
AcDbEntity
  8
0
  6
Continuous
 62
     7
370
    25
100
AcDbLine
 10
164.1957467308
 20
153.3305004176
 30
0.0
 11
141.3711732113
 21
153.3305004176
 31
0.0
  0
SPLINE
  5
229
330
1F
100
AcDbEntity
  8
0
  6
Continuous
 62
     7
370
    25
100
AcDbSpline
210
0.0
220
0.0
230
1.0
 70
     8
 71
     3
 72
    12
 73
     8
 74
     0
 42
0.00000001
 43
0.00000001
 40
0.0
 40
0.0
 40
0.0
 40
0.0
 40
0.2499999999999999
 40
0.2499999999999999
 40
0.4999999999999999
 40
0.4999999999999999
 40
1.0
 40
1.0
 40
1.0
 40
1.0
 10
165.7834599710307
 20
140.8305004176124
 30
0.0
 10
165.7834599710307
 20
140.085423426418
 30
0.0
 10
165.7440885295132
 20
139.3335851256406
 30
0.0
 10
165.5934423958539
 20
137.8526498449189
 30
0.0
 10
165.4825476933865
 20
137.1196037410785
 30
0.0
 10
165.0613288125127
 20
134.9389370022829
 30
0.0
 10
164.6636390370765
 20
133.5095440073382
 30
0.0
 10
164.1957467307592
 20
132.0947978127843
 30
0.0
  0
LINE
  5
22A
330
1F
100
AcDbEntity
  8
0
  6
Continuous
 62
     7
370
    25
100
AcDbLine
 10
164.1957467308
 20
132.0947978128
 30
0.0
 11
154.9224797089
 21
132.0947978128
 31
0.0
  0
LINE
  5
22B
330
1F
100
AcDbEntity
  8
0
  6
Continuous
 62
     7
370
    25
100
AcDbLine
 10
150.6444402332
 20
132.0947978128
 30
0.0
 11
141.3711732113
 21
132.0947978128
 31
0.0
  0
SPLINE
  5
22C
330
1F
100
AcDbEntity
  8
0
  6
Continuous
 62
     7
370
    25
100
AcDbSpline
210
0.0
220
0.0
230
1.0
 70
     8
 71
     3
 72
     9
 73
     5
 74
     0
 42
0.00000001
 43
0.00000001
 40
0.0
 40
0.0
 40
0.0
 40
0.0
 40
0.5268904349897648
 40
1.0
 40
1.0
 40
1.0
 40
1.0
 10
141.3711732113021
 20
132.0947978127843
 30
0.0
 10
141.1693799204411
 20
132.7235279392902
 30
0.0
 10
140.7863908254409
 20
133.9168123201653
 30
0.0
 10
140.5038960335893
 20
135.1377178160774
 30
0.0
 10
140.3702450454987
 20
135.7153398841669
 30
0.0
  0
SPLINE
  5
22D
330
1F
100
AcDbEntity
  8
0
  6
Continuous
 62
     7
370
    25
100
AcDbSpline
210
0.0
220
0.0
230
1.0
 70
    24
 71
     3
 72
    12
 73
     8
 74
     0
 42
0.00000001
 43
0.00000001
 40
0.0
 40
0.0
 40
0.0
 40
0.0
 40
0.2499999999999999
 40
0.2499999999999999
 40
0.4999999999999999
 40
0.4999999999999999
 40
1.0
 40
1.0
 40
1.0
 40
1.0
 10
165.7834599710307
 20
128.3305004176124
 30
0.0
 10
165.7834599710307
 20
128.3305004176124
 30
0.0
 10
165.7440885295132
 20
128.3305004176124
 30
0.0
 10
165.5934423958539
 20
128.3305004176124
 30
0.0
 10
165.4825476933865
 20
128.3305004176124
 30
0.0
 10
165.0613288125127
 20
128.3305004176124
 30
0.0
 10
164.6636390370765
 20
128.3305004176124
 30
0.0
 10
164.1957467307592
 20
128.3305004176124
 30
0.0
  0
LINE
  5
22E
330
1F
100
AcDbEntity
  8
0
  6
Continuous
 62
     7
370
    25
100
AcDbLine
 10
164.1957467308
 20
132.0947978128
 30
0.0
 11
164.1957467308
 21
128.3305004176
 31
0.0
  0
LINE
  5
22F
330
1F
100
AcDbEntity
  8
0
  6
Continuous
 62
     7
370
    25
100
AcDbLine
 10
165.783459971
 20
140.8305004176
 30
0.0
 11
165.783459971
 21
128.3305004176
 31
0.0
  0
LINE
  5
230
330
1F
100
AcDbEntity
  8
0
  6
Continuous
 62
     7
370
    25
100
AcDbLine
 10
141.3711732113
 20
128.3305004176
 30
0.0
 11
141.3711732113
 21
132.0947978128
 31
0.0
  0
SPLINE
  5
231
330
1F
100
AcDbEntity
  8
0
  6
Continuous
 62
     7
370
    25
100
AcDbSpline
210
0.0
220
0.0
230
1.0
 70
    24
 71
     3
 72
    12
 73
     8
 74
     0
 42
0.00000001
 43
0.00000001
 40
0.0
 40
0.0
 40
0.0
 40
0.0
 40
0.2500000000000001
 40
0.2500000000000001
 40
0.5000000000000001
 40
0.5000000000000001
 40
1.0
 40
1.0
 40
1.0
 40
1.0
 10
139.7834599710307
 20
128.3305004176124
 30
0.0
 10
139.7834599710307
 20
128.3305004176124
 30
0.0
 10
139.8228530564002
 20
128.3305004176124
 30
0.0
 10
139.9734844591656
 20
128.3305004176124
 30
0.0
 10
140.0843648883374
 20
128.3305004176124
 30
0.0
 10
140.5055522943018
 20
128.3305004176124
 30
0.0
 10
140.9032400397815
 20
128.3305004176124
 30
0.0
 10
141.3711732113021
 20
128.3305004176124
 30
0.0
  0
LINE
  5
232
330
1F
100
AcDbEntity
  8
0
  6
Continuous
 62
     7
370
    25
100
AcDbLine
 10
139.783459971
 20
128.3305004176
 30
0.0
 11
139.783459971
 21
135.747939055
 31
0.0
  0
LINE
  5
233
330
1F
100
AcDbEntity
  8
0
  6
Continuous
 62
     7
370
    25
100
AcDbLine
 10
164.1957467308
 20
128.3305004176
 30
0.0
 11
141.3711732113
 21
128.3305004176
 31
0.0
  0
LINE
  5
234
330
1F
100
AcDbEntity
  8
0
  6
Continuous
 62
     7
370
    25
100
AcDbLine
 10
168.033459971
 20
128.8305004176
 30
0.0
 11
168.033459971
 21
152.8305004176
 31
0.0
  0
LINE
  5
235
330
1F
100
AcDbEntity
  8
0
  6
Continuous
 62
     7
370
    25
100
AcDbLine
 10
168.283459971
 20
152.5805004176
 30
0.0
 11
168.283459971
 21
129.0805004176
 31
0.0
  0
LINE
  5
236
330
1F
100
AcDbEntity
  8
0
  6
Continuous
 62
     7
370
    25
100
AcDbLine
 10
180.283459971
 20
151.0805004176
 30
0.0
 11
180.283459971
 21
130.5805004176
 31
0.0
  0
LINE
  5
237
330
1F
100
AcDbEntity
  8
0
  6
Continuous
 62
     7
370
    25
100
AcDbLine
 10
180.033459971
 20
130.3305004176
 30
0.0
 11
180.033459971
 21
151.3305004176
 31
0.0
  0
LINE
  5
238
330
1F
100
AcDbEntity
  8
0
  6
Continuous
 62
     7
370
    25
100
AcDbLine
 10
150.5459759495
 20
139.8552278726
 30
0.0
 11
150.5131804225
 21
139.8739719119
 31
0.0
  0
SPLINE
  5
239
330
1F
100
AcDbEntity
  8
0
  6
Continuous
 62
     7
370
    25
100
AcDbSpline
210
0.0
220
0.0
230
1.0
 70
     8
 71
     3
 72
    15
 73
    11
 74
     0
 42
0.00000001
 43
0.00000001
 40
0.0
 40
0.0
 40
0.0
 40
0.0
 40
0.1241930067305288
 40
0.2496556654892296
 40
0.3743703853151211
 40
0.4998404796364202
 40
0.6240146704162363
 40
0.7475381382242062
 40
0.8745858500551816
 40
1.0
 40
1.0
 40
1.0
 40
1.0
 10
151.3262656711612
 20
140.1276675231982
 30
0.0
 10
151.3107052760515
 20
140.0918203204543
 30
0.0
 10
151.2794254085399
 20
140.0197594412425
 30
0.0
 10
151.2019890490516
 20
139.9298839278996
 30
0.0
 10
151.1086350453127
 20
139.8575601501053
 30
0.0
 10
151.0014094392917
 20
139.8086327316007
 30
0.0
 10
150.8870235285708
 20
139.7823046781459
 30
0.0
 10
150.7693527656854
 20
139.7814455841433
 30
0.0
 10
150.6524690404602
 20
139.8028283447729
 30
0.0
 10
150.5813201895655
 20
139.8378368712337
 30
0.0
 10
150.5459759494821
 20
139.8552278726151
 30
0.0
  0
LINE
  5
23A
330
1F
100
AcDbEntity
  8
0
  6
Continuous
 62
     7
370
    25
100
AcDbLine
 10
152.3181197159
 20
142.9012467391
 30
0.0
 11
151.3262656712
 21
140.1276675232
 31
0.0
  0
SPLINE
  5
23B
330
1F
100
AcDbEntity
  8
0
  6
Continuous
 62
     7
370
    25
100
AcDbSpline
210
0.0
220
0.0
230
1.0
 70
     8
 71
     3
 72
    15
 73
    11
 74
     0
 42
0.00000001
 43
0.00000001
 40
0.0
 40
0.0
 40
0.0
 40
0.0
 40
0.1233025178081761
 40
0.2485158700387114
 40
0.3756924668130948
 40
0.4999990880429331
 40
0.6243057092728396
 40
0.7514823060473044
 40
0.8766757256079959
 40
1.0
 40
1.0
 40
1.0
 40
1.0
 10
153.2488002293823
 20
142.9012467391116
 30
0.0
 10
153.22464925742
 20
142.9418918750473
 30
0.0
 10
153.1759730428852
 20
143.0238120296352
 30
0.0
 10
153.0606223846801
 20
143.1136309854476
 30
0.0
 10
152.9274627624182
 20
143.1712051336088
 30
0.0
 10
152.7834601190494
 20
143.1903638292789
 30
0.0
 10
152.6394565903509
 20
143.1712057263938
 30
0.0
 10
152.5063067173854
 20
143.1136316126553
 30
0.0
 10
152.390944359851
 20
143.0238260505086
 30
0.0
 10
152.3422725741798
 20
142.9419011189838
 30
0.0
 10
152.318119715863
 20
142.9012467391117
 30
0.0
  0
LINE
  5
23C
330
1F
100
AcDbEntity
  8
0
  6
Continuous
 62
     7
370
    25
100
AcDbLine
 10
154.2404231358
 20
140.1283138688
 30
0.0
 11
153.2488002294
 21
142.9012467391
 31
0.0
  0
SPLINE
  5
23D
330
1F
100
AcDbEntity
  8
0
  6
Continuous
 62
     7
370
    25
100
AcDbSpline
210
0.0
220
0.0
230
1.0
 70
     8
 71
     3
 72
    15
 73
    11
 74
     0
 42
0.00000001
 43
0.00000001
 40
0.0
 40
0.0
 40
0.0
 40
0.0
 40
0.1253320172137755
 40
0.2522975129251765
 40
0.3758847553984062
 40
0.5001929511416483
 40
0.6255758307380151
 40
0.7502289462456482
 40
0.8757444935777828
 40
1.0
 40
1.0
 40
1.0
 40
1.0
 10
155.0131249002961
 20
139.8516180181572
 30
0.0
 10
154.9778739836682
 20
139.8349437096744
 30
0.0
 10
154.9069127178138
 20
139.8013777729452
 30
0.0
 10
154.7909258270254
 20
139.781596156691
 30
0.0
 10
154.674329460785
 20
139.7836689370376
 30
0.0
 10
154.5612088542035
 20
139.8107469633882
 30
0.0
 10
154.4553331398641
 20
139.8599597790954
 30
0.0
 10
154.3632240552449
 20
139.9320455429693
 30
0.0
 10
154.2867923913765
 20
140.0213330644687
 30
0.0
 10
154.2558274838772
 20
140.0927737349058
 30
0.0
 10
154.240423135756
 20
140.1283138687638
 30
0.0
  0
LINE
  5
23E
330
1F
100
AcDbEntity
  8
0
  6
Continuous
 62
     7
370
    25
100
AcDbLine
 10
155.0537395228
 20
139.8739719119
 30
0.0
 11
155.0131249003
 21
139.8516180182
 31
0.0
  0
LINE
  5
23F
330
1F
100
AcDbEntity
  8
0
  6
Continuous
 62
     7
370
    25
100
AcDbLine
 10
154.4267563263
 20
138.6785608084
 30
0.0
 11
155.0537395228
 21
139.8739719119
 31
0.0
  0
SPLINE
  5
240
330
1F
100
AcDbEntity
  8
0
  6
Continuous
 62
     7
370
    25
100
AcDbSpline
210
0.0
220
0.0
230
1.0
 70
     8
 71
     3
 72
    15
 73
    11
 74
     0
 42
0.00000001
 43
0.00000001
 40
0.0
 40
0.0
 40
0.0
 40
0.0
 40
0.1246332186438571
 40
0.2519059530189798
 40
0.3765391000744966
 40
0.4994035903146521
 40
0.6264494152300174
 40
0.7526064410610431
 40
0.8746804377363274
 40
1.0
 40
1.0
 40
1.0
 40
1.0
 10
154.3215278374871
 20
138.6604436416598
 30
0.0
 10
154.3255423131553
 20
138.6573384068071
 30
0.0
 10
154.3336562841339
 20
138.6510621736053
 30
0.0
 10
154.3480948759705
 20
138.6454491601254
 30
0.0
 10
154.3632283259035
 20
138.6429128074986
 30
0.0
 10
154.3785908681853
 20
138.6437982110665
 30
0.0
 10
154.393521447022
 20
138.6479292815821
 30
0.0
 10
154.4070233470513
 20
138.655419981528
 30
0.0
 10
154.4187090019377
 20
138.6655585634423
 30
0.0
 10
154.4240505262785
 20
138.6741889857851
 30
0.0
 10
154.4267563262802
 20
138.6785608083774
 30
0.0
  0
SPLINE
  5
241
330
1F
100
AcDbEntity
  8
0
  6
Continuous
 62
     7
370
    25
100
AcDbSpline
210
0.0
220
0.0
230
1.0
 70
     8
 71
     3
 72
    11
 73
     7
 74
     0
 42
0.00000001
 43
0.00000001
 40
0.0
 40
0.0
 40
0.0
 40
0.0
 40
0.2506252605986011
 40
0.4999999999996215
 40
0.7493747394010042
 40
1.0
 40
1.0
 40
1.0
 40
1.0
 10
151.2453921077582
 20
138.6604436416597
 30
0.0
 10
151.4751198019315
 20
138.8232979336207
 30
0.0
 10
151.9334289396945
 20
139.1481939388595
 30
0.0
 10
152.7834599726306
 20
139.2819258857967
 30
0.0
 10
153.6334910055609
 20
139.1481939388544
 30
0.0
 10
154.0918001433171
 20
138.823297933619
 30
0.0
 10
154.3215278374871
 20
138.6604436416598
 30
0.0
  0
SPLINE
  5
242
330
1F
100
AcDbEntity
  8
0
  6
Continuous
 62
     7
370
    25
100
AcDbSpline
210
0.0
220
0.0
230
1.0
 70
     8
 71
     3
 72
    15
 73
    11
 74
     0
 42
0.00000001
 43
0.00000001
 40
0.0
 40
0.0
 40
0.0
 40
0.0
 40
0.125319195797913
 40
0.2473928354984057
 40
0.3734492416489697
 40
0.5005950046079961
 40
0.6235484391777629
 40
0.7480947836179478
 40
0.875367145815393
 40
1.0
 40
1.0
 40
1.0
 40
1.0
 10
151.140163618965
 20
138.6785608083774
 30
0.0
 10
151.1428694152974
 20
138.6741889800934
 30
0.0
 10
151.1482109323946
 20
138.6655585465147
 30
0.0
 10
151.1598935049837
 20
138.6554227690149
 30
0.0
 10
151.173394484971
 20
138.6479306531413
 30
0.0
 10
151.188328513821
 20
138.6437982078491
 30
0.0
 10
151.2036955250101
 20
138.6429102660756
 30
0.0
 10
151.2188282614483
 20
138.6454512083331
 30
0.0
 10
151.23326369123
 20
138.6510619866003
 30
0.0
 10
151.2413776420592
 20
138.6573383449091
 30
0.0
 10
151.2453921077582
 20
138.6604436416597
 30
0.0
  0
LINE
  5
243
330
1F
100
AcDbEntity
  8
0
  6
Continuous
 62
     7
370
    25
100
AcDbLine
 10
150.5131804225
 20
139.8739719119
 30
0.0
 11
151.140163619
 21
138.6785608084
 31
0.0
  0
SPLINE
  5
244
330
1F
100
AcDbEntity
  8
0
  6
Continuous
 62
     7
370
    25
100
AcDbSpline
210
0.0
220
0.0
230
1.0
 70
     8
 71
     3
 72
    15
 73
    11
 74
     0
 42
0.00000001
 43
0.00000001
 40
0.0
 40
0.0
 40
0.0
 40
0.0
 40
0.1233867499278388
 40
0.2487396502211602
 40
0.3739317114754985
 40
0.4999973617625659
 40
0.6259591330513601
 40
0.7512551380600303
 40
0.8765613478174267
 40
1.0
 40
1.0
 40
1.0
 40
1.0
 10
152.7205771062245
 20
140.8519098757552
 30
0.0
 10
152.7234553074164
 20
140.8579246718382
 30
0.0
 10
152.7292575735281
 20
140.8700501089268
 30
0.0
 10
152.7447869782488
 20
140.8834413692769
 30
0.0
 10
152.7631415601222
 20
140.8923190808569
 30
0.0
 10
152.7834543766052
 20
140.8950757441533
 30
0.0
 10
152.8037727943203
 20
140.8923210629527
 30
0.0
 10
152.8221256634844
 20
140.8834453646632
 30
0.0
 10
152.8376637678799
 20
140.8700549974095
 30
0.0
 10
152.8434643299112
 20
140.8579278998635
 30
0.0
 10
152.8463428358367
 20
140.8519098757552
 30
0.0
  0
LINE
  5
245
330
1F
100
AcDbEntity
  8
0
  6
Continuous
 62
     7
370
    25
100
AcDbLine
 10
152.4814635805
 20
140.2136558465
 30
0.0
 11
152.7205771062
 21
140.8519098758
 31
0.0
  0
SPLINE
  5
246
330
1F
100
AcDbEntity
  8
0
  6
Continuous
 62
     7
370
    25
100
AcDbSpline
210
0.0
220
0.0
230
1.0
 70
     8
 71
     3
 72
    15
 73
    11
 74
     0
 42
0.00000001
 43
0.00000001
 40
0.0
 40
0.0
 40
0.0
 40
0.0
 40
0.1261585224210644
 40
0.2513121451548802
 40
0.3762846848783791
 40
0.4993062783340883
 40
0.6261594278645745
 40
0.7521171342021309
 40
0.8758196922692798
 40
1.0
 40
1.0
 40
1.0
 40
1.0
 10
152.5443464453529
 20
140.1285914931326
 30
0.0
 10
152.5391153488642
 20
140.128913799725
 30
0.0
 10
152.5286948235216
 20
140.1295558456175
 30
0.0
 10
152.5139082730072
 20
140.1350040859927
 30
0.0
 10
152.5007179203816
 20
140.1432266885783
 30
0.0
 10
152.4898473455404
 20
140.1544832948909
 30
0.0
 10
152.4818397582118
 20
140.168004040232
 30
0.0
 10
152.4776731311791
 20
140.1831409278088
 30
0.0
 10
152.4770520796675
 20
140.1988300593799
 30
0.0
 10
152.4799911920223
 20
140.2087075717386
 30
0.0
 10
152.481463580505
 20
140.2136558464826
 30
0.0
  0
LINE
  5
247
330
1F
100
AcDbEntity
  8
0
  6
Continuous
 62
     7
370
    25
100
AcDbLine
 10
153.0225734995
 20
140.1285914931
 30
0.0
 11
152.5443464454
 21
140.1285914931
 31
0.0
  0
SPLINE
  5
248
330
1F
100
AcDbEntity
  8
0
  6
Continuous
 62
     7
370
    25
100
AcDbSpline
210
0.0
220
0.0
230
1.0
 70
     8
 71
     3
 72
    15
 73
    11
 74
     0
 42
0.00000001
 43
0.00000001
 40
0.0
 40
0.0
 40
0.0
 40
0.0
 40
0.1241186784437694
 40
0.2478474916628981
 40
0.373657414947894
 40
0.5005082335853294
 40
0.6234527658309922
 40
0.7484986612277523
 40
0.8736976492452768
 40
1.0
 40
1.0
 40
1.0
 40
1.0
 10
153.0854563642822
 20
140.2136558467057
 30
0.0
 10
153.0869274368911
 20
140.2087100010476
 30
0.0
 10
153.0898649613694
 20
140.1988338449694
 30
0.0
 10
153.0892482268693
 20
140.1831524493437
 30
0.0
 10
153.0850862652747
 20
140.1680199172635
 30
0.0
 10
153.0770875174763
 20
140.154505009649
 30
0.0
 10
153.0662214259395
 20
140.143244948453
 30
0.0
 10
153.0530337081149
 20
140.1350152360195
 30
0.0
 10
153.0382392615397
 20
140.1295556656345
 30
0.0
 10
153.0278106706323
 20
140.1289138225775
 30
0.0
 10
153.0225734995179
 20
140.1285914931326
 30
0.0
  0
LINE
  5
249
330
1F
100
AcDbEntity
  8
0
  6
Continuous
 62
     7
370
    25
100
AcDbLine
 10
152.8463428358
 20
140.8519098758
 30
0.0
 11
153.0854563643
 21
140.2136558467
 31
0.0
  0
CIRCLE
  5
24A
330
1F
100
AcDbEntity
  8
0
  6
Continuous
 62
     7
370
    25
100
AcDbCircle
 10
152.783459971
 20
140.8305004176
 30
0.0
 40
4.499999999999972
  0
LINE
  5
24B
330
1F
100
AcDbEntity
  8
0
  6
Continuous
 62
     7
370
    25
100
AcDbLine
 10
103.4014939598
 20
141.7090928698
 30
0.0
 11
137.6782317575
 21
142.6066608374
 31
0.0
  0
SPLINE
  5
24C
330
1F
100
AcDbEntity
  8
0
  6
Continuous
 62
     7
370
    25
100
AcDbSpline
210
0.0
220
0.0
230
1.0
 70
    24
 71
     3
 72
    11
 73
     7
 74
     0
 42
0.00000001
 43
0.00000001
 40
0.0
 40
0.0
 40
0.0
 40
0.0
 40
0.2499999999999963
 40
0.4999999999999995
 40
0.7500000000000014
 40
1.0
 40
1.0
 40
1.0
 40
1.0
 10
103.3831763750955
 20
142.4086132069258
 30
0.0
 10
103.3835042363513
 20
142.3960926907033
 30
0.0
 10
103.384159958863
 20
142.3710516582582
 30
0.0
 10
103.3884189280022
 20
142.2084081886356
 30
0.0
 10
103.394410783664
 20
141.9795884525811
 30
0.0
 10
103.399132901075
 20
141.7992580640349
 30
0.0
 10
103.4014939597805
 20
141.7090928697617
 30
0.0
  0
LINE
  5
24D
330
1F
100
AcDbEntity
  8
0
  6
Continuous
 62
     7
370
    25
100
AcDbLine
 10
137.6599141728
 20
143.3061811745
 30
0.0
 11
103.3831763751
 21
142.4086132069
 31
0.0
  0
SPLINE
  5
24E
330
1F
100
AcDbEntity
  8
0
  6
Continuous
 62
     7
370
    25
100
AcDbSpline
210
0.0
220
0.0
230
1.0
 70
    24
 71
     3
 72
    11
 73
     7
 74
     0
 42
0.00000001
 43
0.00000001
 40
0.0
 40
0.0
 40
0.0
 40
0.0
 40
0.2499999999999982
 40
0.4999999999999978
 40
0.750000000000001
 40
1.0
 40
1.0
 40
1.0
 40
1.0
 10
137.6599141728332
 20
143.306181174545
 30
0.0
 10
137.660242034089
 20
143.2936606583224
 30
0.0
 10
137.6608977566006
 20
143.2686196258773
 30
0.0
 10
137.6651567257399
 20
143.1059761562547
 30
0.0
 10
137.6711485814017
 20
142.8771564202003
 30
0.0
 10
137.6758706988127
 20
142.696826031654
 30
0.0
 10
137.6782317575182
 20
142.6066608373809
 30
0.0
  0
LINE
  5
24F
330
1F
100
AcDbEntity
  8
0
  6
Continuous
 62
     7
370
    25
100
AcDbLine
 10
137.6782317575
 20
139.0543399978
 30
0.0
 11
103.4014939598
 21
139.9519079655
 31
0.0
  0
LINE
  5
250
330
1F
100
AcDbEntity
  8
0
  6
Continuous
 62
     7
370
    25
100
AcDbLine
 10
103.4014939598
 20
139.9519079655
 30
0.0
 11
103.4014939598
 21
141.7090928698
 31
0.0
  0
ELLIPSE
  5
251
330
1F
100
AcDbEntity
  8
0
  6
Continuous
 62
     7
370
    25
100
AcDbEllipse
 10
137.683459971
 20
141.806249181
 30
0.0
 11
0.9988086229566022
 21
0.06103964413861718
 31
0.0
210
0.0
220
0.0
230
1.0
 40
0.7994627403
 41
0.8784769082856104
 42
1.527206254409841
  0
LINE
  5
252
330
1F
100
AcDbEntity
  8
0
  6
Continuous
 62
     7
370
    25
100
AcDbLine
 10
138.283459971
 20
142.4598795672
 30
0.0
 11
138.283459971
 21
139.201121268
 31
0.0
  0
ELLIPSE
  5
253
330
1F
100
AcDbEntity
  8
0
  6
Continuous
 62
     7
370
    25
100
AcDbEllipse
 10
137.683459971
 20
139.8547516542
 30
0.0
 11
0.9988086229566022
 21
-0.06103964413861718
 31
0.0
210
0.0
220
0.0
230
1.0
 40
0.7994627403
 41
4.755979052769757
 42
5.404708398893991
  0
LINE
  5
254
330
1F
100
AcDbEntity
  8
0
  6
Continuous
 62
     7
370
    25
100
AcDbLine
 10
139.483459971
 20
139.818084183
 30
0.0
 11
139.483459971
 21
141.8429166522
 31
0.0
  0
SPLINE
  5
255
330
1F
100
AcDbEntity
  8
0
  6
Continuous
 62
     7
370
    25
100
AcDbSpline
210
0.0
220
0.0
230
1.0
 70
     8
 71
     3
 72
    11
 73
     7
 74
     0
 42
0.00000001
 43
0.00000001
 40
0.0
 40
0.0
 40
0.0
 40
0.0
 40
0.2561894651307314
 40
0.509604493920692
 40
0.769274206655365
 40
1.0
 40
1.0
 40
1.0
 40
1.0
 10
139.4834599710306
 20
139.8180841829789
 30
0.0
 10
139.4078638387368
 20
139.7585721423306
 30
0.0
 10
139.2574902520621
 20
139.6401925542342
 30
0.0
 10
138.9582774661068
 20
139.4695550120988
 30
0.0
 10
138.6307577312201
 20
139.3179311011981
 30
0.0
 10
138.3945793504062
 20
139.2384950655269
 30
0.0
 10
138.2834599710307
 20
139.201121268004
 30
0.0
  0
SPLINE
  5
256
330
1F
100
AcDbEntity
  8
0
  6
Continuous
 62
     7
370
    25
100
AcDbSpline
210
0.0
220
0.0
230
1.0
 70
     8
 71
     3
 72
    11
 73
     7
 74
     0
 42
0.00000001
 43
0.00000001
 40
0.0
 40
0.0
 40
0.0
 40
0.0
 40
0.2307374805224083
 40
0.4903955403005851
 40
0.7438105520730633
 40
1.0
 40
1.0
 40
1.0
 40
1.0
 10
138.2834599710307
 20
142.4598795672208
 30
0.0
 10
138.3945852047871
 20
142.4225043763078
 30
0.0
 10
138.6307640818625
 20
142.3430693972133
 30
0.0
 10
138.9582817228137
 20
142.1914427174496
 30
0.0
 10
139.2574903194761
 20
142.0208084125012
 30
0.0
 10
139.4078638612895
 20
141.9024287368899
 30
0.0
 10
139.4834599710306
 20
141.8429166522459
 30
0.0
  0
LINE
  5
257
330
1F
100
AcDbEntity
  8
0
  6
Continuous
 62
     7
370
    25
100
AcDbLine
 10
103.3831763751
 20
139.2523876283
 30
0.0
 11
137.6599141728
 21
138.3548196607
 31
0.0
  0
SPLINE
  5
258
330
1F
100
AcDbEntity
  8
0
  6
Continuous
 62
     7
370
    25
100
AcDbSpline
210
0.0
220
0.0
230
1.0
 70
    24
 71
     3
 72
    11
 73
     7
 74
     0
 42
0.00000001
 43
0.00000001
 40
0.0
 40
0.0
 40
0.0
 40
0.0
 40
0.249999999999998
 40
0.4999999999999973
 40
0.7500000000000001
 40
1.0
 40
1.0
 40
1.0
 40
1.0
 10
103.3831763750955
 20
139.2523876282989
 30
0.0
 10
103.3835042363513
 20
139.2649081445215
 30
0.0
 10
103.3841599588629
 20
139.2899491769666
 30
0.0
 10
103.3884189280022
 20
139.4525926465892
 30
0.0
 10
103.394410783664
 20
139.6814123826437
 30
0.0
 10
103.399132901075
 20
139.8617427711899
 30
0.0
 10
103.4014939597805
 20
139.951907965463
 30
0.0
  0
SPLINE
  5
259
330
1F
100
AcDbEntity
  8
0
  6
Continuous
 62
     7
370
    25
100
AcDbSpline
210
0.0
220
0.0
230
1.0
 70
    24
 71
     3
 72
    11
 73
     7
 74
     0
 42
0.00000001
 43
0.00000001
 40
0.0
 40
0.0
 40
0.0
 40
0.0
 40
0.2499999999999986
 40
0.5000000000000003
 40
0.7499999999999973
 40
1.0
 40
1.0
 40
1.0
 40
1.0
 10
137.6782317575182
 20
139.0543399978439
 30
0.0
 10
137.6758706988127
 20
138.9641748035708
 30
0.0
 10
137.6711485814017
 20
138.7838444150245
 30
0.0
 10
137.6651567257399
 20
138.5550246789701
 30
0.0
 10
137.6608977566006
 20
138.3923812093475
 30
0.0
 10
137.660242034089
 20
138.3673401769024
 30
0.0
 10
137.6599141728332
 20
138.3548196606798
 30
0.0
  0
ELLIPSE
  5
25A
330
1F
100
AcDbEntity
  8
0
  6
Continuous
 62
     7
370
    25
100
AcDbEllipse
 10
103.4014939598
 20
141.7300487881
 30
0.0
 11
1.49999997144873
 21
0.02095282558968847
 31
0.0
210
0.0
220
0.0
230
0.9999999999999998
 40
0.0139678873
 41
3.842044658396999
 42
4.712193869245414
  0
ELLIPSE
  5
25B
330
1F
100
AcDbEntity
  8
0
  6
Continuous
 62
     7
370
    25
100
AcDbEllipse
 10
103.4014939598
 20
139.9309520471
 30
0.0
 11
1.49999997144873
 21
-0.02095282558968847
 31
0.0
210
0.0
220
0.0
230
0.9999999999999998
 40
0.0139678873
 41
1.570991437934172
 42
2.441140648781504
  0
SPLINE
  5
25C
330
1F
100
AcDbEntity
  8
0
  6
Continuous
 62
     7
370
    25
100
AcDbSpline
210
0.0
220
0.0
230
1.0
 70
     8
 71
     3
 72
     9
 73
     5
 74
     0
 42
0.00000001
 43
0.00000001
 40
0.0
 40
0.0
 40
0.0
 40
0.0
 40
0.5600029565045499
 40
1.0
 40
1.0
 40
1.0
 40
1.0
 10
102.254856244332
 20
139.9604763309885
 30
0.0
 10
102.2467084849789
 20
139.9604706929222
 30
0.0
 10
102.2321589915191
 20
139.960460625
 30
0.0
 10
102.2182143485786
 20
139.9605828016034
 30
0.0
 10
102.2120787469122
 20
139.9606365589477
 30
0.0
  0
ELLIPSE
  5
25D
330
1F
100
AcDbEntity
  8
0
  6
Continuous
 62
     7
370
    25
100
AcDbEllipse
 10
103.4014939598
 20
139.9133628851
 30
0.0
 11
1.499999872704151
 21
-0.0430792567095466
 31
0.0
210
0.0
220
0.0
230
1.0
 40
0.0143449667
 41
2.486833182542028
 42
2.678357024934474
  0
LINE
  5
25E
330
1F
100
AcDbEntity
  8
0
  6
Continuous
 62
     7
370
    25
100
AcDbLine
 10
102.0598531733
 20
141.6994837921
 30
0.0
 11
102.0598531733
 21
139.9615170431
 31
0.0
  0
ELLIPSE
  5
25F
330
1F
100
AcDbEntity
  8
0
  6
Continuous
 62
     7
370
    25
100
AcDbEllipse
 10
103.4014939598
 20
141.7476379501
 30
0.0
 11
1.499999872704151
 21
0.0430792567095466
 31
0.0
210
0.0
220
0.0
230
1.0
 40
0.0143449667
 41
3.604828282247089
 42
3.79635212463818
  0
SPLINE
  5
260
330
1F
100
AcDbEntity
  8
0
  6
Continuous
 62
     7
370
    25
100
AcDbSpline
210
0.0
220
0.0
230
1.0
 70
     8
 71
     3
 72
     9
 73
     5
 74
     0
 42
0.00000001
 43
0.00000001
 40
0.0
 40
0.0
 40
0.0
 40
0.0
 40
0.5599925069633377
 40
1.0
 40
1.0
 40
1.0
 40
1.0
 10
102.2120787469122
 20
141.7003642762771
 30
0.0
 10
102.2199015567691
 20
141.7004300214284
 30
0.0
 10
102.2338710470027
 20
141.7005474250554
 30
0.0
 10
102.2484440248732
 20
141.7005315079028
 30
0.0
 10
102.254856244332
 20
141.7005245042363
 30
0.0
  0
ELLIPSE
  5
261
330
1F
100
AcDbEntity
  8
0
  6
Continuous
 62
     7
370
    25
100
AcDbEllipse
 10
103.3831763751
 20
139.23143171
 30
0.0
 11
0.7999998117959422
 21
-0.02096310677481484
 31
0.0
210
0.0
220
0.0
230
0.9999999999999999
 40
0.026176936
 41
1.571482264229189
 42
2.441631475078921
  0
SPLINE
  5
262
330
1F
100
AcDbEntity
  8
0
  6
Continuous
 62
     7
370
    25
100
AcDbSpline
210
0.0
220
0.0
230
1.0
 70
     8
 71
     3
 72
    12
 73
     8
 74
     0
 42
0.00000001
 43
0.00000001
 40
0.0
 40
0.0
 40
0.0
 40
0.0
 40
0.2198609600791294
 40
0.4397396970008148
 40
0.6583291451397767
 40
0.8791239516843599
 40
1.0
 40
1.0
 40
1.0
 40
1.0
 10
102.7716362601896
 20
139.2609559938244
 30
0.0
 10
102.7117211974607
 20
139.2716279884685
 30
0.0
 10
102.5918862275747
 20
139.29297284064
 30
0.0
 10
102.4351512393002
 20
139.421091235907
 30
0.0
 10
102.3185829155141
 20
139.6040291719721
 30
0.0
 10
102.2623262237198
 20
139.7955783438593
 30
0.0
 10
102.2568083525035
 20
139.9173840155443
 30
0.0
 10
102.254856244332
 20
139.9604763309885
 30
0.0
  0
ELLIPSE
  5
263
330
1F
100
AcDbEntity
  8
0
  6
Continuous
 62
     7
370
    25
100
AcDbEllipse
 10
103.3831763751
 20
142.4295691253
 30
0.0
 11
0.7999998117959422
 21
0.02096310677475799
 31
0.0
210
0.0
220
0.0
230
1.0
 40
0.026176936
 41
3.841553832104682
 42
4.7117030429504
  0
SPLINE
  5
264
330
1F
100
AcDbEntity
  8
0
  6
Continuous
 62
     7
370
    25
100
AcDbSpline
210
0.0
220
0.0
230
1.0
 70
     8
 71
     3
 72
    12
 73
     8
 74
     0
 42
0.00000001
 43
0.00000001
 40
0.0
 40
0.0
 40
0.0
 40
0.0
 40
0.2198610998683202
 40
0.4397399767664987
 40
0.6583294271823333
 40
0.8791242261983155
 40
1.0
 40
1.0
 40
1.0
 40
1.0
 10
102.254856244332
 20
141.7005245042363
 30
0.0
 10
102.2609591942274
 20
141.7792154139555
 30
0.0
 10
102.2731655874765
 20
141.9366035960048
 30
0.0
 10
102.3656895285748
 20
142.1458853444898
 30
0.0
 10
102.5014734759966
 20
142.3045346651541
 30
0.0
 10
102.64590133936
 20
142.3846347278694
 30
0.0
 10
102.7387783510087
 20
142.3960177651711
 30
0.0
 10
102.7716362601896
 20
142.4000448414004
 30
0.0
  0
SPLINE
  5
265
330
1F
100
AcDbEntity
  8
0
  6
Continuous
 62
     7
370
    25
100
AcDbSpline
210
0.0
220
0.0
230
1.0
 70
     8
 71
     3
 72
    11
 73
     7
 74
     0
 42
0.00000001
 43
0.00000001
 40
0.0
 40
0.0
 40
0.0
 40
0.0
 40
0.2561894651307129
 40
0.5096044939206584
 40
0.7692742066444705
 40
1.0
 40
1.0
 40
1.0
 40
1.0
 10
139.4834599710306
 20
141.8429166522459
 30
0.0
 10
139.4390949804138
 20
141.9564241875671
 30
0.0
 10
139.3508454554791
 20
142.1822100139439
 30
0.0
 10
139.1410333685547
 20
142.5074123497034
 30
0.0
 10
138.8935254990631
 20
142.7973687076326
 30
0.0
 10
138.6987756683249
 20
142.948430528811
 30
0.0
 10
138.6071479746657
 20
143.0195034854451
 30
0.0
  0
SPLINE
  5
266
330
1F
100
AcDbEntity
  8
0
  6
Continuous
 62
     7
370
    25
100
AcDbSpline
210
0.0
220
0.0
230
1.0
 70
    24
 71
     3
 72
    10
 73
     6
 74
     0
 42
0.00000001
 43
0.00000001
 40
0.0
 40
0.0
 40
0.0
 40
0.0
 40
0.2808335173386709
 40
0.5616510917414143
 40
0.9999999999999999
 40
0.9999999999999999
 40
0.9999999999999999
 40
0.9999999999999999
 10
138.6071479746657
 20
143.0195034854451
 30
0.0
 10
138.5889398550208
 20
142.98802348265
 30
0.0
 10
138.5525246494072
 20
142.9250652641817
 30
0.0
 10
138.4427415646068
 20
142.7352613808719
 30
0.0
 10
138.343779611873
 20
142.5641661437236
 30
0.0
 10
138.2834599710307
 20
142.4598795672208
 30
0.0
  0
ELLIPSE
  5
267
330
1F
100
AcDbEntity
  8
0
  6
Continuous
 62
     7
370
    25
100
AcDbEllipse
 10
137.683459971
 20
141.806249181
 30
0.0
 11
1.557390436637235
 21
0.09517594847733335
 31
0.0
210
0.0
220
0.0
230
1.0
 40
0.9613560848
 41
0.8784769082856017
 42
1.527206254409841
  0
SPLINE
  5
268
330
1F
100
AcDbEntity
  8
0
  6
Continuous
 62
     7
370
    25
100
AcDbSpline
210
0.0
220
0.0
230
1.0
 70
    24
 71
     3
 72
    10
 73
     6
 74
     0
 42
0.00000001
 43
0.00000001
 40
0.0
 40
0.0
 40
0.0
 40
0.0
 40
0.2808335173386708
 40
0.5616510917414125
 40
1.0
 40
1.0
 40
1.0
 40
1.0
 10
138.2834599710307
 20
139.2011212680039
 30
0.0
 10
138.3218104199931
 20
139.1348172089316
 30
0.0
 10
138.3985091407606
 20
139.0022128548725
 30
0.0
 10
138.5236634908026
 20
138.785833603968
 30
0.0
 10
138.5755325571559
 20
138.6961572186177
 30
0.0
 10
138.6071479746657
 20
138.6414973497797
 30
0.0
  0
ELLIPSE
  5
269
330
1F
100
AcDbEntity
  8
0
  6
Continuous
 62
     7
370
    25
100
AcDbEllipse
 10
137.683459971
 20
139.8547516542
 30
0.0
 11
1.557390436637235
 21
-0.09517594847733335
 31
0.0
210
0.0
220
0.0
230
1.0
 40
0.9613560848
 41
4.755979052769759
 42
5.404708398893998
  0
SPLINE
  5
26A
330
1F
100
AcDbEntity
  8
0
  6
Continuous
 62
     7
370
    25
100
AcDbSpline
210
0.0
220
0.0
230
1.0
 70
     8
 71
     3
 72
    11
 73
     7
 74
     0
 42
0.00000001
 43
0.00000001
 40
0.0
 40
0.0
 40
0.0
 40
0.0
 40
0.2307374805226512
 40
0.4903955403005855
 40
0.7438105520730652
 40
0.9999999999999999
 40
0.9999999999999999
 40
0.9999999999999999
 40
0.9999999999999999
 10
138.6071479746657
 20
138.6414973497797
 30
0.0
 10
138.6987799794252
 20
138.7125743679699
 30
0.0
 10
138.8935291219618
 20
138.8636371803892
 30
0.0
 10
139.1410366891998
 20
139.1535932095447
 30
0.0
 10
139.3508454185938
 20
139.4787908700933
 30
0.0
 10
139.4390949680742
 20
139.7045766639874
 30
0.0
 10
139.4834599710306
 20
139.8180841829789
 30
0.0
  0
LINE
  5
26B
330
1F
100
AcDbEntity
  8
0
  6
Continuous
 62
     7
370
    25
100
AcDbLine
 10
139.7834734263
 20
143.4359570877
 30
0.0
 11
137.6599141728
 21
143.3061811745
 31
0.0
  0
SPLINE
  5
26C
330
1F
100
AcDbEntity
  8
0
  6
Continuous
 62
     7
370
    25
100
AcDbSpline
210
0.0
220
0.0
230
1.0
 70
     8
 71
     3
 72
    13
 73
     9
 74
     0
 42
0.00000001
 43
0.00000001
 40
0.0
 40
0.0
 40
0.0
 40
0.0
 40
0.1035746466401555
 40
0.2111076158583394
 40
0.3219769626223817
 40
0.4454462032504119
 40
0.711304972801038
 40
1.0
 40
1.0
 40
1.0
 40
1.0
 10
141.8834599710306
 20
141.9895865373126
 30
0.0
 10
141.8762038062702
 20
142.0879293157614
 30
0.0
 10
141.8614141671787
 20
142.2883732484097
 30
0.0
 10
141.7351415576167
 20
142.5713152986397
 30
0.0
 10
141.5385941694859
 20
142.8295735236587
 30
0.0
 10
141.1747424963987
 20
143.1326688734137
 30
0.0
 10
140.5771551096634
 20
143.3981985396972
 30
0.0
 10
140.0551986261036
 20
143.423030055112
 30
0.0
 10
139.7834734263103
 20
143.4359570877283
 30
0.0
  0
LINE
  5
26D
330
1F
100
AcDbEntity
  8
0
  6
Continuous
 62
     7
370
    25
100
AcDbLine
 10
139.483459971
 20
141.8429166522
 30
0.0
 11
141.883459971
 21
141.9895865373
 31
0.0
  0
LINE
  5
26E
330
1F
100
AcDbEntity
  8
0
  6
Continuous
 62
     7
370
    25
100
AcDbLine
 10
141.883459971
 20
139.6714142979
 30
0.0
 11
139.483459971
 21
139.818084183
 31
0.0
  0
SPLINE
  5
26F
330
1F
100
AcDbEntity
  8
0
  6
Continuous
 62
     7
370
    25
100
AcDbSpline
210
0.0
220
0.0
230
1.0
 70
     8
 71
     3
 72
    13
 73
     9
 74
     0
 42
0.00000001
 43
0.00000001
 40
0.0
 40
0.0
 40
0.0
 40
0.0
 40
0.2886949682914851
 40
0.554553683594315
 40
0.6780091910936104
 40
0.7888922083801199
 40
0.8964194071406489
 40
1.0
 40
1.0
 40
1.0
 40
1.0
 10
139.7834734263103
 20
138.2250437474965
 30
0.0
 10
140.0551986168865
 20
138.2379707529792
 30
0.0
 10
140.5771550827409
 20
138.2628022162733
 30
0.0
 10
141.1747304908442
 20
138.5283268177058
 30
0.0
 10
141.5385846710237
 20
138.83141781431
 30
0.0
 10
141.7351321625894
 20
139.0896695684307
 30
0.0
 10
141.8614154516956
 20
139.3726209345989
 30
0.0
 10
141.8762039536666
 20
139.57306559729
 30
0.0
 10
141.8834599710306
 20
139.6714142979122
 30
0.0
  0
LINE
  5
270
330
1F
100
AcDbEntity
  8
0
  6
Continuous
 62
     7
370
    25
100
AcDbLine
 10
137.6599141728
 20
138.3548196607
 30
0.0
 11
139.7834734263
 21
138.2250437475
 31
0.0
  0
SPLINE
  5
271
330
1F
100
AcDbEntity
  8
0
  6
Continuous
 62
     7
370
    25
100
AcDbSpline
210
0.0
220
0.0
230
1.0
 70
     8
 71
     3
 72
    12
 73
     8
 74
     0
 42
0.00000001
 43
0.00000001
 40
0.0
 40
0.0
 40
0.0
 40
0.0
 40
0.2225634137434379
 40
0.4462063173695244
 40
0.6680851268156934
 40
0.8917990985568368
 40
1.0
 40
1.0
 40
1.0
 40
1.0
 10
102.7295206771572
 20
142.3990996055284
 30
0.0
 10
102.6678241115223
 20
142.3867464979616
 30
0.0
 10
102.5441317360179
 20
142.3619803670746
 30
0.0
 10
102.3849653942244
 20
142.2293964390768
 30
0.0
 10
102.2688835062074
 20
142.0430390355822
 30
0.0
 10
102.2171684554796
 20
141.8549482242289
 30
0.0
 10
102.2133300337026
 20
141.7383681913405
 30
0.0
 10
102.2120787469122
 20
141.7003642762771
 30
0.0
  0
SPLINE
  5
272
330
1F
100
AcDbEntity
  8
0
  6
Continuous
 62
     7
370
    25
100
AcDbSpline
210
0.0
220
0.0
230
1.0
 70
     8
 71
     3
 72
    12
 73
     8
 74
     0
 42
0.00000001
 43
0.00000001
 40
0.0
 40
0.0
 40
0.0
 40
0.0
 40
0.2225634137435275
 40
0.446206317369568
 40
0.6680851268158019
 40
0.8917990985569294
 40
1.0
 40
1.0
 40
1.0
 40
1.0
 10
102.2120787469122
 20
139.9606365589477
 30
0.0
 10
102.2176653130146
 20
139.8821328989051
 30
0.0
 10
102.2288655415042
 20
139.7247448158485
 30
0.0
 10
102.3229163191913
 20
139.5153932782211
 30
0.0
 10
102.4624073825893
 20
139.356633983751
 30
0.0
 10
102.6076314824257
 20
139.2787851134344
 30
0.0
 10
102.6995546511557
 20
139.266052072601
 30
0.0
 10
102.7295206771572
 20
139.2619012296964
 30
0.0
  0
ELLIPSE
  5
273
330
1F
100
AcDbEntity
  8
0
  6
Continuous
 62
     7
370
    25
100
AcDbEllipse
 10
103.3638754574
 20
139.2146275558
 30
0.0
 11
0.7999991634988818
 21
-0.04310148564323413
 31
0.0
210
0.0
220
0.0
230
1.0
 40
0.0268411366
 41
2.487867318782573
 42
2.679391161175069
  0
SPLINE
  5
274
330
1F
100
AcDbEntity
  8
0
  6
Continuous
 62
     7
370
    25
100
AcDbSpline
210
0.0
220
0.0
230
1.0
 70
     8
 71
     3
 72
    11
 73
     7
 74
     0
 42
0.00000001
 43
0.00000001
 40
0.0
 40
0.0
 40
0.0
 40
0.0
 40
0.2499999999999991
 40
0.4999999999999978
 40
0.7499999999999996
 40
1.0
 40
1.0
 40
1.0
 40
1.0
 10
102.6483337045537
 20
139.2627817138424
 30
0.0
 10
102.5700985962214
 20
139.277781019009
 30
0.0
 10
102.4136283795569
 20
139.3077796293421
 30
0.0
 10
102.2203022281404
 20
139.4712993321388
 30
0.0
 10
102.0859257958614
 20
139.6968789462211
 30
0.0
 10
102.0685440474743
 20
139.8733043441362
 30
0.0
 10
102.0598531732807
 20
139.9615170430937
 30
0.0
  0
SPLINE
  5
275
330
1F
100
AcDbEntity
  8
0
  6
Continuous
 62
     7
370
    25
100
AcDbSpline
210
0.0
220
0.0
230
1.0
 70
     8
 71
     3
 72
    11
 73
     7
 74
     0
 42
0.00000001
 43
0.00000001
 40
0.0
 40
0.0
 40
0.0
 40
0.0
 40
0.249999999999999
 40
0.4999999999999999
 40
0.7499999999999989
 40
1.0
 40
1.0
 40
1.0
 40
1.0
 10
102.6483337045537
 20
142.3982191213824
 30
0.0
 10
102.5700985962215
 20
142.3832198162158
 30
0.0
 10
102.4136283795569
 20
142.3532212058827
 30
0.0
 10
102.2203022281404
 20
142.189701503086
 30
0.0
 10
102.0859257958615
 20
141.9641218890036
 30
0.0
 10
102.0685440474743
 20
141.7876964910886
 30
0.0
 10
102.0598531732807
 20
141.6994837921311
 30
0.0
  0
ELLIPSE
  5
276
330
1F
100
AcDbEntity
  8
0
  6
Continuous
 62
     7
370
    25
100
AcDbEllipse
 10
103.3638754574
 20
142.4463732794
 30
0.0
 11
0.7999991634988818
 21
0.04310148564320571
 31
0.0
210
0.0
220
0.0
230
0.9999999999999999
 40
0.0268411366
 41
3.603794146007254
 42
3.795317988398174
  0
LINE
  5
277
330
1F
100
AcDbEntity
  8
0
  6
Continuous
 62
     7
370
    25
100
AcDbLine
 10
141.883459971
 20
141.9895865373
 30
0.0
 11
141.883459971
 21
139.6714142979
 31
0.0
  0
LINE
  5
278
330
1F
100
AcDbEntity
  8
0
  6
Continuous
 62
     7
370
    25
100
AcDbLine
 10
102.549191349
 20
142.61674108
 30
0.0
 11
124.1767395177
 21
143.1830783601
 31
0.0
  0
SPLINE
  5
279
330
1F
100
AcDbEntity
  8
0
  6
Continuous
 62
     7
370
    25
100
AcDbSpline
210
0.0
220
0.0
230
1.0
 70
     8
 71
     3
 72
     9
 73
     5
 74
     0
 42
0.00000001
 43
0.00000001
 40
0.0
 40
0.0
 40
0.0
 40
0.0
 40
0.5600012771711205
 40
0.9999999999999999
 40
0.9999999999999999
 40
0.9999999999999999
 40
0.9999999999999999
 10
124.1767395177495
 20
143.1830783601095
 30
0.0
 10
124.6541696542745
 20
143.1712439477645
 30
0.0
 10
125.5067215251145
 20
143.1501111167737
 30
0.0
 10
126.3636107297579
 20
143.1291503873613
 30
0.0
 10
126.7406408854068
 20
143.1199276931902
 30
0.0
  0
SPLINE
  5
27A
330
1F
100
AcDbEntity
  8
0
  6
Continuous
 62
     7
370
    25
100
AcDbSpline
210
0.0
220
0.0
230
1.0
 70
     8
 71
     3
 72
     9
 73
     5
 74
     0
 42
0.00000001
 43
0.00000001
 40
0.0
 40
0.0
 40
0.0
 40
0.0
 40
0.5599999095971039
 40
1.0
 40
1.0
 40
1.0
 40
1.0
 10
126.7406408854069
 20
143.1199276931902
 30
0.0
 10
126.8347703760694
 20
143.117630283293
 30
0.0
 10
127.0028587793876
 20
143.1135277649571
 30
0.0
 10
127.1711012990833
 20
143.109431371764
 30
0.0
 10
127.245128022959
 20
143.1076289583888
 30
0.0
  0
LINE
  5
27B
330
1F
100
AcDbEntity
  8
0
  6
Continuous
 62
     7
370
    25
100
AcDbLine
 10
127.245128023
 20
143.1076289584
 30
0.0
 11
139.7834734263
 21
143.4359570877
 31
0.0
  0
LINE
  5
27C
330
1F
100
AcDbEntity
  8
0
  6
Continuous
 62
     7
370
    25
100
AcDbLine
 10
102.7716362602
 20
142.4000448414
 30
0.0
 11
102.549191349
 21
142.61674108
 31
0.0
  0
LINE
  5
27D
330
1F
100
AcDbEntity
  8
0
  6
Continuous
 62
     7
370
    25
100
AcDbLine
 10
139.7834734263
 20
138.2250437475
 30
0.0
 11
127.245128023
 21
138.5533718768
 31
0.0
  0
SPLINE
  5
27E
330
1F
100
AcDbEntity
  8
0
  6
Continuous
 62
     7
370
    25
100
AcDbSpline
210
0.0
220
0.0
230
1.0
 70
     8
 71
     3
 72
     9
 73
     5
 74
     0
 42
0.00000001
 43
0.00000001
 40
0.0
 40
0.0
 40
0.0
 40
0.0
 40
0.5600000882143319
 40
1.0
 40
1.0
 40
1.0
 40
1.0
 10
127.245128022959
 20
138.553371876836
 30
0.0
 10
127.1509156074273
 20
138.5510777606949
 30
0.0
 10
126.9826791776223
 20
138.5469811253741
 30
0.0
 10
126.8145970199538
 20
138.5428783589147
 30
0.0
 10
126.7406408854069
 20
138.5410731420346
 30
0.0
  0
SPLINE
  5
27F
330
1F
100
AcDbEntity
  8
0
  6
Continuous
 62
     7
370
    25
100
AcDbSpline
210
0.0
220
0.0
230
1.0
 70
     8
 71
     3
 72
     9
 73
     5
 74
     0
 42
0.00000001
 43
0.00000001
 40
0.0
 40
0.0
 40
0.0
 40
0.0
 40
0.5599987526606142
 40
1.0
 40
1.0
 40
1.0
 40
1.0
 10
126.7406408854069
 20
138.5410731420346
 30
0.0
 10
126.2608746275197
 20
138.5293315555122
 30
0.0
 10
125.4041472587394
 20
138.5083643900201
 30
0.0
 10
124.5517815102668
 20
138.487224189648
 30
0.0
 10
124.1767395177495
 20
138.4779224751153
 30
0.0
  0
LINE
  5
280
330
1F
100
AcDbEntity
  8
0
  6
Continuous
 62
     7
370
    25
100
AcDbLine
 10
124.1767395177
 20
138.4779224751
 30
0.0
 11
102.549191349
 21
139.0442597552
 31
0.0
  0
LINE
  5
281
330
1F
100
AcDbEntity
  8
0
  6
Continuous
 62
     7
370
    25
100
AcDbLine
 10
102.549191349
 20
139.0442597552
 30
0.0
 11
102.7716362602
 21
139.2609559938
 31
0.0
  0
LINE
  5
282
330
1F
100
AcDbEntity
  8
0
  6
Continuous
 62
     7
370
    25
100
AcDbLine
 10
97.4809030301
 20
141.6994837921
 30
0.0
 11
102.0598531733
 21
141.6994837921
 31
0.0
  0
SPLINE
  5
283
330
1F
100
AcDbEntity
  8
0
  6
Continuous
 62
     7
370
    25
100
AcDbSpline
210
0.0
220
0.0
230
1.0
 70
     8
 71
     3
 72
    13
 73
     9
 74
     0
 42
0.00000001
 43
0.00000001
 40
0.0
 40
0.0
 40
0.0
 40
0.0
 40
0.1143463544469914
 40
0.2890454840074685
 40
0.5294852105593209
 40
0.7014879056604271
 40
0.9335094878266192
 40
1.0
 40
1.0
 40
1.0
 40
1.0
 10
98.24286388034912
 20
142.3982191213824
 30
0.0
 10
98.20166267964018
 20
142.3933845298773
 30
0.0
 10
98.09751400731733
 20
142.3811636169472
 30
0.0
 10
97.91015451293747
 20
142.3085155219062
 30
0.0
 10
97.7281267829287
 20
142.1780032554994
 30
0.0
 10
97.57584320171433
 20
141.9911356563298
 30
0.0
 10
97.50333992483434
 20
141.8297622515732
 30
0.0
 10
97.48499023551562
 20
141.7232159007213
 30
0.0
 10
97.48090303012543
 20
141.6994837921311
 30
0.0
  0
LINE
  5
284
330
1F
100
AcDbEntity
  8
0
  6
Continuous
 62
     7
370
    25
100
AcDbLine
 10
102.6483337046
 20
142.3982191214
 30
0.0
 11
98.2428638803
 21
142.3982191214
 31
0.0
  0
ELLIPSE
  5
285
330
1F
100
AcDbEntity
  8
0
  6
Continuous
 62
     7
370
    25
100
AcDbEllipse
 10
97.8362463755
 20
141.0050389727
 30
0.0
 11
0.008721666502694349
 21
1.000418978703721
 31
0.0
210
0.0
220
0.0
230
0.9999999999999999
 40
0.499714557
 41
0.8079180407726755
 42
1.588240544501515
  0
LINE
  5
286
330
1F
100
AcDbEntity
  8
0
  6
Continuous
 62
     7
370
    25
100
AcDbLine
 10
102.0598531733
 20
139.9615170431
 30
0.0
 11
97.4809030301
 21
139.9615170431
 31
0.0
  0
ELLIPSE
  5
287
330
1F
100
AcDbEntity
  8
0
  6
Continuous
 62
     7
370
    25
100
AcDbEllipse
 10
97.8362463755
 20
140.6559618625
 30
0.0
 11
-0.008721666502694349
 21
1.000418978703749
 31
0.0
210
0.0
220
0.0
230
0.9999999999999999
 40
0.499714557
 41
1.553352109088308
 42
2.333674612817124
  0
LINE
  5
288
330
1F
100
AcDbEntity
  8
0
  6
Continuous
 62
     7
370
    25
100
AcDbLine
 10
97.3362463755
 20
140.9919460119
 30
0.0
 11
97.3362463755
 21
140.6690548233
 31
0.0
  0
LINE
  5
289
330
1F
100
AcDbEntity
  8
0
  6
Continuous
 62
     7
370
    25
100
AcDbLine
 10
98.2428638803
 20
139.2627817138
 30
0.0
 11
102.6483337046
 21
139.2627817138
 31
0.0
  0
SPLINE
  5
28A
330
1F
100
AcDbEntity
  8
0
  6
Continuous
 62
     7
370
    25
100
AcDbSpline
210
0.0
220
0.0
230
1.0
 70
     8
 71
     3
 72
    12
 73
     8
 74
     0
 42
0.00000001
 43
0.00000001
 40
0.0
 40
0.0
 40
0.0
 40
0.0
 40
0.139683458618249
 40
0.3831896274038307
 40
0.55131692930133
 40
0.8194729461607051
 40
0.9999999999999999
 40
0.9999999999999999
 40
0.9999999999999999
 40
0.9999999999999999
 10
97.48090303012543
 20
139.9615170430937
 30
0.0
 10
97.49114441087171
 20
139.9118021226152
 30
0.0
 10
97.51923929706004
 20
139.7754206065574
 30
0.0
 10
97.62638965841482
 20
139.5955044973453
 30
0.0
 10
97.80672674582782
 20
139.4171630689604
 30
0.0
 10
98.01518289039679
 20
139.2966428444089
 30
0.0
 10
98.17753979110073
 20
139.272496831102
 30
0.0
 10
98.24286388034912
 20
139.2627817138424
 30
0.0
  0
LINE
  5
28B
330
1F
100
AcDbEntity
  8
0
  6
Continuous
 62
     7
370
    25
100
AcDbLine
 10
102.5503192062
 20
142.5736699497
 30
0.0
 11
102.549191349
 21
142.61674108
 31
0.0
  0
LINE
  5
28C
330
1F
100
AcDbEntity
  8
0
  6
Continuous
 62
     7
370
    25
100
AcDbLine
 10
102.5503192062
 20
139.0873308855
 30
0.0
 11
102.549191349
 21
139.0442597552
 31
0.0
  0
ELLIPSE
  5
28D
330
1F
100
AcDbEntity
  8
0
  6
Continuous
 62
     7
370
    25
100
AcDbEllipse
 10
66.3324527715
 20
140.668172693
 30
0.0
 11
36.18915845259205
 21
1.947628334984217
 31
0.0
210
0.0
220
0.0
230
1.0
 40
0.0007414247
 41
0.0282885576630374
 42
0.4911607830434243
  0
LINE
  5
28E
330
1F
100
AcDbEntity
  8
0
  6
Continuous
 62
     7
370
    25
100
AcDbLine
 10
102.5070912947
 20
142.6157807167
 30
0.0
 11
102.7295206772
 21
142.3990996055
 31
0.0
  0
LINE
  5
28F
330
1F
100
AcDbEntity
  8
0
  6
Continuous
 62
     7
370
    25
100
AcDbLine
 10
102.7295206772
 20
139.2619012297
 30
0.0
 11
102.5070912947
 21
139.0452201185
 31
0.0
  0
ELLIPSE
  5
290
330
1F
100
AcDbEntity
  8
0
  6
Continuous
 62
     7
370
    25
100
AcDbEllipse
 10
66.3324527715
 20
140.9928281422
 30
0.0
 11
36.18915845257634
 21
-1.947628334983335
 31
0.0
210
0.0
220
0.0
230
1.0
 40
0.0007414247
 41
5.792024524150699
 42
6.254896749548039
  0
LINE
  5
291
330
1F
100
AcDbEntity
  8
0
  6
Continuous
 62
     7
370
    25
100
AcDbLine
 10
130.351335549
 20
143.6954488298
 30
0.0
 11
131.0019890151
 21
143.9295439636
 31
0.0
  0
SPLINE
  5
292
330
1F
100
AcDbEntity
  8
0
  6
Continuous
 62
     7
370
    25
100
AcDbSpline
210
0.0
220
0.0
230
1.0
 70
     8
 71
     3
 72
    10
 73
     6
 74
     0
 42
0.00000001
 43
0.00000001
 40
0.0
 40
0.0
 40
0.0
 40
0.0
 40
0.2383396858856107
 40
0.571650633368965
 40
1.0
 40
1.0
 40
1.0
 40
1.0
 10
130.3534357089478
 20
143.6890228596671
 30
0.0
 10
130.1091694538477
 20
143.6144246572402
 30
0.0
 10
129.5233041208473
 20
143.4355030919664
 30
0.0
 10
128.4867493198417
 20
143.1991589797114
 30
0.0
 10
127.6920552242422
 20
143.1405756035259
 30
0.0
 10
127.2451280229592
 20
143.1076289583888
 30
0.0
  0
SPLINE
  5
293
330
1F
100
AcDbEntity
  8
0
  6
Continuous
 62
     7
370
    25
100
AcDbSpline
210
0.0
220
0.0
230
1.0
 70
     8
 71
     3
 72
    11
 73
     7
 74
     0
 42
0.00000001
 43
0.00000001
 40
0.0
 40
0.0
 40
0.0
 40
0.0
 40
0.2506671725023492
 40
0.5010414677145718
 40
0.7508849997170933
 40
1.0
 40
1.0
 40
1.0
 40
1.0
 10
124.1767395177495
 20
143.1830783601095
 30
0.0
 10
124.6524275303101
 20
143.2099529267647
 30
0.0
 10
125.6032477657973
 20
143.2636706600709
 30
0.0
 10
127.0039203830095
 20
143.5491361237248
 30
0.0
 10
128.3674861442613
 20
143.9706642703444
 30
0.0
 10
129.2201536908172
 20
144.3870213480414
 30
0.0
 10
129.6458649721306
 20
144.5948959244179
 30
0.0
  0
SPLINE
  5
294
330
1F
100
AcDbEntity
  8
0
  6
Continuous
 62
     7
370
    25
100
AcDbSpline
210
0.0
220
0.0
230
1.0
 70
     8
 71
     3
 72
     9
 73
     5
 74
     0
 42
0.00000001
 43
0.00000001
 40
0.0
 40
0.0
 40
0.0
 40
0.0
 40
0.501325902198991
 40
1.0
 40
1.0
 40
1.0
 40
1.0
 10
129.6458649426888
 20
144.5948959777821
 30
0.0
 10
129.8699406435228
 20
144.7199386352522
 30
0.0
 10
130.3169067784287
 20
144.9693625268197
 30
0.0
 10
130.7309520581242
 20
145.271130635241
 30
0.0
 10
130.9374257144251
 20
145.4216145744531
 30
0.0
  0
LINE
  5
295
330
1F
100
AcDbEntity
  8
0
  6
Continuous
 62
     7
370
    25
100
AcDbLine
 10
133.0032061744
 20
145.5363810138
 30
0.0
 11
130.9372524395
 21
145.4216058063
 31
0.0
  0
SPLINE
  5
296
330
1F
100
AcDbEntity
  8
0
  6
Continuous
 62
     7
370
    25
100
AcDbSpline
210
0.0
220
0.0
230
1.0
 70
     8
 71
     3
 72
    14
 73
    10
 74
     0
 42
0.00000001
 43
0.00000001
 40
0.0
 40
0.0
 40
0.0
 40
0.0
 40
0.0829413618596714
 40
0.1664594845668882
 40
0.2437726390188662
 40
0.3161479456895724
 40
0.4353725718192331
 40
0.6486290670514194
 40
1.0
 40
1.0
 40
1.0
 40
1.0
 10
133.0032061615843
 20
145.5363810089497
 30
0.0
 10
133.0490054628593
 20
145.5345658193673
 30
0.0
 10
133.1409225463603
 20
145.5309228176671
 30
0.0
 10
133.1914675788967
 20
145.4492616851795
 30
0.0
 10
133.1505626824564
 20
145.3159782048947
 30
0.0
 10
133.0149616363519
 20
145.1276517486571
 30
0.0
 10
132.6980533656071
 20
144.8293846689947
 30
0.0
 10
132.0210647553739
 20
144.3713575102094
 30
0.0
 10
131.3928979391605
 20
144.0990219815315
 30
0.0
 10
131.0019860754358
 20
143.9295459978818
 30
0.0
  0
LINE
  5
297
330
1F
100
AcDbEntity
  8
0
  6
Continuous
 62
     7
370
    25
100
AcDbLine
 10
130.9372524395
 20
136.2393950289
 30
0.0
 11
133.0032061744
 21
136.1246198215
 31
0.0
  0
SPLINE
  5
298
330
1F
100
AcDbEntity
  8
0
  6
Continuous
 62
     7
370
    25
100
AcDbSpline
210
0.0
220
0.0
230
1.0
 70
     8
 71
     3
 72
     9
 73
     5
 74
     0
 42
0.00000001
 43
0.00000001
 40
0.0
 40
0.0
 40
0.0
 40
0.0
 40
0.4986740982738613
 40
1.0
 40
1.0
 40
1.0
 40
1.0
 10
130.9374255131995
 20
136.2393860789365
 30
0.0
 10
130.7309518721297
 20
136.3898700152155
 30
0.0
 10
130.3169066233701
 20
136.6916381174689
 30
0.0
 10
129.8699405214252
 20
136.9410620090912
 30
0.0
 10
129.6458648373267
 20
137.0661046664707
 30
0.0
  0
SPLINE
  5
299
330
1F
100
AcDbEntity
  8
0
  6
Continuous
 62
     7
370
    25
100
AcDbSpline
210
0.0
220
0.0
230
1.0
 70
     8
 71
     3
 72
    11
 73
     7
 74
     0
 42
0.00000001
 43
0.00000001
 40
0.0
 40
0.0
 40
0.0
 40
0.0
 40
0.249115000282908
 40
0.4989585322854288
 40
0.749332827497652
 40
1.0
 40
1.0
 40
1.0
 40
1.0
 10
129.6458649721306
 20
137.0661049108069
 30
0.0
 10
129.2201536908172
 20
137.2739794871834
 30
0.0
 10
128.3674861442613
 20
137.6903365648804
 30
0.0
 10
127.0039203830095
 20
138.1118647115
 30
0.0
 10
125.6032477657973
 20
138.3973301751539
 30
0.0
 10
124.6524275303101
 20
138.4510479084601
 30
0.0
 10
124.1767395177495
 20
138.4779224751153
 30
0.0
  0
SPLINE
  5
29A
330
1F
100
AcDbEntity
  8
0
  6
Continuous
 62
     7
370
    25
100
AcDbSpline
210
0.0
220
0.0
230
1.0
 70
     8
 71
     3
 72
    10
 73
     6
 74
     0
 42
0.00000001
 43
0.00000001
 40
0.0
 40
0.0
 40
0.0
 40
0.0
 40
0.4283493666310632
 40
0.7616603141144171
 40
1.0
 40
1.0
 40
1.0
 40
1.0
 10
127.2451280229592
 20
138.553371876836
 30
0.0
 10
127.6920552242422
 20
138.5204252316989
 30
0.0
 10
128.4867493198418
 20
138.4618418555134
 30
0.0
 10
129.5233041208474
 20
138.2254977432585
 30
0.0
 10
130.1091694538478
 20
138.0465761779847
 30
0.0
 10
130.3534357089478
 20
137.9719779755578
 30
0.0
  0
LINE
  5
29B
330
1F
100
AcDbEntity
  8
0
  6
Continuous
 62
     7
370
    25
100
AcDbLine
 10
130.3513355489
 20
137.9655520052
 30
0.0
 11
131.001989015
 21
137.7314568714
 31
0.0
  0
SPLINE
  5
29C
330
1F
100
AcDbEntity
  8
0
  6
Continuous
 62
     7
370
    25
100
AcDbSpline
210
0.0
220
0.0
230
1.0
 70
     8
 71
     3
 72
    15
 73
    11
 74
     0
 42
0.00000001
 43
0.00000001
 40
0.0
 40
0.0
 40
0.0
 40
0.0
 40
0.2091652517822448
 40
0.4176299509274911
 40
0.5931463878153098
 40
0.6923603779431111
 40
0.7731125739307029
 40
0.8543366880968446
 40
0.9261517123972134
 40
1.0
 40
1.0
 40
1.0
 40
1.0
 10
131.0019860753452
 20
137.7314548371116
 30
0.0
 10
131.2355702874405
 20
137.6337572046222
 30
0.0
 10
131.7019563731007
 20
137.4386891562029
 30
0.0
 10
132.3256065202798
 20
137.0894093028504
 30
0.0
 10
132.7854561495805
 20
136.7565191159069
 30
0.0
 10
133.0473405203502
 20
136.494901029871
 30
0.0
 10
133.1678105008655
 20
136.3143070169571
 30
0.0
 10
133.1866037277751
 20
136.1922128536469
 30
0.0
 10
133.1255655264687
 20
136.1281628643284
 30
0.0
 10
133.0443704079573
 20
136.1258117782905
 30
0.0
 10
133.0032061615494
 20
136.124619826277
 30
0.0
  0
SPLINE
  5
29D
330
1F
100
AcDbEntity
  8
0
  6
Continuous
 62
     7
370
    25
100
AcDbSpline
210
0.0
220
0.0
230
1.0
 70
    24
 71
     3
 72
    11
 73
     7
 74
     0
 42
0.00000001
 43
0.00000001
 40
0.0
 40
0.0
 40
0.0
 40
0.0
 40
0.2499999999999989
 40
0.4999999999999996
 40
0.749999999999999
 40
1.0
 40
1.0
 40
1.0
 40
1.0
 10
139.7703894372495
 20
137.7253863638078
 30
0.0
 10
139.7720759077535
 20
137.789790074003
 30
0.0
 10
139.7754488487613
 20
137.9185974943931
 30
0.0
 10
139.7797287456626
 20
138.0820401630034
 30
0.0
 10
139.7827708664764
 20
138.1982140698767
 30
0.0
 10
139.783239239699
 20
138.2161005216232
 30
0.0
 10
139.7834734263103
 20
138.2250437474965
 30
0.0
  0
LINE
  5
29E
330
1F
100
AcDbEntity
  8
0
  6
Continuous
 62
     7
370
    25
100
AcDbLine
 10
130.3534357089
 20
137.9719779756
 30
0.0
 11
139.7703894372
 21
137.7253863638
 31
0.0
  0
LINE
  5
29F
330
1F
100
AcDbEntity
  8
0
  6
Continuous
 62
     7
370
    25
100
AcDbLine
 10
139.7703894372
 20
143.9356144714
 30
0.0
 11
130.3534357089
 21
143.6890228597
 31
0.0
  0
SPLINE
  5
2A0
330
1F
100
AcDbEntity
  8
0
  6
Continuous
 62
     7
370
    25
100
AcDbSpline
210
0.0
220
0.0
230
1.0
 70
    24
 71
     3
 72
    11
 73
     7
 74
     0
 42
0.00000001
 43
0.00000001
 40
0.0
 40
0.0
 40
0.0
 40
0.0
 40
0.2500000000000009
 40
0.5000000000000002
 40
0.7500000000000007
 40
0.9999999999999999
 40
0.9999999999999999
 40
0.9999999999999999
 40
0.9999999999999999
 10
139.7834734263103
 20
143.4359570877283
 30
0.0
 10
139.783239239699
 20
143.4449003136016
 30
0.0
 10
139.7827708664764
 20
143.4627867653481
 30
0.0
 10
139.7797287456626
 20
143.5789606722214
 30
0.0
 10
139.7754488487613
 20
143.7424033408317
 30
0.0
 10
139.7720759077534
 20
143.8712107612219
 30
0.0
 10
139.7703894372495
 20
143.935614471417
 30
0.0
  0
ELLIPSE
  5
2A1
330
1F
100
AcDbEntity
  8
0
  6
Continuous
 62
     7
370
    25
100
AcDbEllipse
 10
139.783459971
 20
139.7264155048
 30
0.0
 11
2.497021557391548
 21
-0.152599110346614
 31
1.776356839400250E-14
210
-7.087433036401255E-15
220
4.331304120280030E-16
230
1.0
 40
0.7994627403
 41
4.755979052769789
 42
6.332003616895594
  0
SPLINE
  5
2A2
330
1F
100
AcDbEntity
  8
0
  6
Continuous
 62
     7
370
    25
100
AcDbSpline
210
0.0
220
0.0
230
1.0
 70
    24
 71
     3
 72
    11
 73
     7
 74
     0
 42
0.00000001
 43
0.00000001
 40
0.0
 40
0.0
 40
0.0
 40
0.0
 40
0.2500000000000007
 40
0.5000000000000022
 40
0.7500000000000036
 40
1.0
 40
1.0
 40
1.0
 40
1.0
 10
141.8834599710306
 20
139.6714142979122
 30
0.0
 10
141.9087199092348
 20
139.6714142979122
 30
0.0
 10
141.9592397856431
 20
139.6714142979122
 30
0.0
 10
142.0580983948435
 20
139.6714142979122
 30
0.0
 10
142.1674856746669
 20
139.6714142979122
 30
0.0
 10
142.2448018722427
 20
139.6714142979122
 30
0.0
 10
142.2834599710307
 20
139.6714142979122
 30
0.0
  0
ELLIPSE
  5
2A3
330
1F
100
AcDbEntity
  8
0
  6
Continuous
 62
     7
370
    25
100
AcDbEllipse
 10
139.783459971
 20
141.9345853304
 30
0.0
 11
2.497021557391548
 21
0.1525991103465856
 31
1.776356839400250E-14
210
-7.087433036401258E-15
220
-4.331304120280031E-16
230
0.9999999999999998
 40
0.7994627403
 41
6.234366997463597
 42
7.810391561589416
  0
SPLINE
  5
2A4
330
1F
100
AcDbEntity
  8
0
  6
Continuous
 62
     7
370
    25
100
AcDbSpline
210
0.0
220
0.0
230
1.0
 70
    24
 71
     3
 72
    11
 73
     7
 74
     0
 42
0.00000001
 43
0.00000001
 40
0.0
 40
0.0
 40
0.0
 40
0.0
 40
0.2500000000000002
 40
0.500000000000003
 40
0.7499999999999994
 40
1.0
 40
1.0
 40
1.0
 40
1.0
 10
142.2834599710307
 20
141.9895865373126
 30
0.0
 10
142.2448018722427
 20
141.9895865373126
 30
0.0
 10
142.1674856746669
 20
141.9895865373126
 30
0.0
 10
142.0580983948435
 20
141.9895865373126
 30
0.0
 10
141.9592397856431
 20
141.9895865373126
 30
0.0
 10
141.9087199092348
 20
141.9895865373126
 30
0.0
 10
141.8834599710306
 20
141.9895865373126
 30
0.0
  0
LINE
  5
2A5
330
1F
100
AcDbEntity
  8
0
  6
Continuous
 62
     7
370
    25
100
AcDbLine
 10
142.4202816455
 20
137.1037619934
 30
0.0
 11
131.004552362
 21
137.7379691758
 31
0.0
  0
LINE
  5
2A6
330
1F
100
AcDbEntity
  8
0
  6
Continuous
 62
     7
370
    25
100
AcDbLine
 10
142.3370766161
 20
135.6060714636
 30
0.0
 11
142.4202816455
 21
137.1037619934
 31
0.0
  0
LINE
  5
2A7
330
1F
100
AcDbEntity
  8
0
  6
Continuous
 62
     7
370
    25
100
AcDbLine
 10
133.0033986046
 20
136.1246091309
 30
0.0
 11
142.3370766161
 21
135.6060714636
 31
0.0
  0
LINE
  5
2A8
330
1F
100
AcDbEntity
  8
0
  6
Continuous
 62
     7
370
    25
100
AcDbLine
 10
142.283459971
 20
139.6714142979
 30
0.0
 11
142.283459971
 21
141.9895865373
 31
0.0
  0
LINE
  5
2A9
330
1F
100
AcDbEntity
  8
0
  6
Continuous
 62
     7
370
    25
100
AcDbLine
 10
142.3370766161
 20
146.0549293716
 30
0.0
 11
133.0033986046
 21
145.5363917043
 31
0.0
  0
LINE
  5
2AA
330
1F
100
AcDbEntity
  8
0
  6
Continuous
 62
     7
370
    25
100
AcDbLine
 10
142.4202816455
 20
144.5572388418
 30
0.0
 11
142.3370766161
 21
146.0549293716
 31
0.0
  0
LINE
  5
2AB
330
1F
100
AcDbEntity
  8
0
  6
Continuous
 62
     7
370
    25
100
AcDbLine
 10
131.004552362
 20
143.9230316594
 30
0.0
 11
142.4202816455
 21
144.5572388418
 31
0.0
  0
LINE
  5
2AC
330
1F
100
AcDbEntity
  8
0
  6
Continuous
 62
     7
370
    25
100
AcDbLine
 10
142.783459971
 20
137.4669403189
 30
0.0
 11
142.4202816455
 21
137.1037619934
 31
0.0
  0
LINE
  5
2AD
330
1F
100
AcDbEntity
  8
0
  6
Continuous
 62
     7
370
    25
100
AcDbLine
 10
142.4202816455
 20
144.5572388418
 30
0.0
 11
142.783459971
 21
144.1940605163
 31
0.0
  0
LINE
  5
2AE
330
1F
100
AcDbEntity
  8
0
  6
Continuous
 62
     7
370
    25
100
AcDbLine
 10
142.783459971
 20
137.4669403189
 30
0.0
 11
142.783459971
 21
144.1940605163
 31
0.0
  0
LINE
  5
2AF
330
1F
100
AcDbEntity
  8
0
  6
Continuous
 62
     7
370
    25
100
AcDbLine
 10
142.783459971
 20
144.9204171673
 30
0.0
 11
142.4202816455
 21
144.5572388418
 31
0.0
  0
ARC
  5
2B0
330
1F
100
AcDbEntity
  8
0
  6
Continuous
 62
     7
370
    25
100
AcDbCircle
 10
142.4202816455
 20
144.5572388418
 30
0.0
 40
1.500000000000011
100
AcDbArc
 50
75.9883675978
 51
93.1798301199
  0
LINE
  5
2B1
330
1F
100
AcDbEntity
  8
0
  6
Continuous
 62
     7
370
    25
100
AcDbLine
 10
142.783459971
 20
144.9204171673
 30
0.0
 11
142.783459971
 21
146.0126087274
 31
0.0
  0
LINE
  5
2B2
330
1F
100
AcDbEntity
  8
0
  6
Continuous
 62
     7
370
    25
100
AcDbLine
 10
142.783459971
 20
144.1940605163
 30
0.0
 11
142.783459971
 21
144.9204171673
 31
0.0
  0
LINE
  5
2B3
330
1F
100
AcDbEntity
  8
0
  6
Continuous
 62
     7
370
    25
100
AcDbLine
 10
142.4202816455
 20
137.1037619934
 30
0.0
 11
142.783459971
 21
136.7405836679
 31
0.0
  0
LINE
  5
2B4
330
1F
100
AcDbEntity
  8
0
  6
Continuous
 62
     7
370
    25
100
AcDbLine
 10
142.783459971
 20
136.7405836679
 30
0.0
 11
142.783459971
 21
137.4669403189
 31
0.0
  0
ARC
  5
2B5
330
1F
100
AcDbEntity
  8
0
  6
Continuous
 62
     7
370
    25
100
AcDbCircle
 10
142.4202816455
 20
137.1037619934
 30
0.0
 40
1.500000000000011
100
AcDbArc
 50
266.8201698801
 51
284.0116324022
  0
LINE
  5
2B6
330
1F
100
AcDbEntity
  8
0
  6
Continuous
 62
     7
370
    25
100
AcDbLine
 10
142.783459971
 20
135.6483921078
 30
0.0
 11
142.783459971
 21
136.7405836679
 31
0.0
  0
SPLINE
  5
2B7
330
1F
100
AcDbEntity
  8
0
  6
Continuous
 62
     7
370
    25
100
AcDbSpline
210
0.0
220
0.0
230
1.0
 70
    24
 71
     3
 72
     9
 73
     5
 74
     0
 42
0.00000001
 43
0.00000001
 40
0.0
 40
0.0
 40
0.0
 40
0.0
 40
0.5389665913333133
 40
0.9999999999999999
 40
0.9999999999999999
 40
0.9999999999999999
 40
0.9999999999999999
 10
130.9374265098299
 20
145.421615476854
 30
0.0
 10
130.8915005680525
 20
145.4190640356441
 30
0.0
 10
130.8062894575384
 20
145.41433008506
 30
0.0
 10
130.8188706497015
 20
145.4150290401802
 30
0.0
 10
130.8246709996095
 20
145.4153512818417
 30
0.0
  0
SPLINE
  5
2B8
330
1F
100
AcDbEntity
  8
0
  6
Continuous
 62
     7
370
    25
100
AcDbSpline
210
0.0
220
0.0
230
1.0
 70
    24
 71
     3
 72
     9
 73
     5
 74
     0
 42
0.00000001
 43
0.00000001
 40
0.0
 40
0.0
 40
0.0
 40
0.0
 40
0.449000901028251
 40
1.0
 40
1.0
 40
1.0
 40
1.0
 10
130.8307690707749
 20
136.2453107716516
 30
0.0
 10
130.8223835181832
 20
136.2457766356845
 30
0.0
 10
130.8037074919825
 20
136.2468141926957
 30
0.0
 10
130.889922253768
 20
136.2420244837076
 30
0.0
 10
130.9374265098299
 20
136.2393853583708
 30
0.0
  0
SPLINE
  5
2B9
330
1F
100
AcDbEntity
  8
0
  6
Continuous
 62
     7
370
    25
100
AcDbSpline
210
0.0
220
0.0
230
1.0
 70
     8
 71
     3
 72
     9
 73
     5
 74
     0
 42
0.00000001
 43
0.00000001
 40
0.0
 40
0.0
 40
0.0
 40
0.0
 40
0.5407747560677784
 40
1.0
 40
1.0
 40
1.0
 40
1.0
 10
102.5491913490086
 20
142.616741080029
 30
0.0
 10
102.5414353069611
 20
142.6167705804419
 30
0.0
 10
102.5270928437444
 20
142.6168251325683
 30
0.0
 10
102.5127743399364
 20
142.6162208874334
 30
0.0
 10
102.5061989215324
 20
142.6159434028139
 30
0.0
  0
LINE
  5
2BA
330
1F
100
AcDbEntity
  8
0
  6
Continuous
 62
     7
370
    25
100
AcDbLine
 10
102.549191349
 20
139.0442597552
 30
0.0
 11
102.5061989215
 21
139.0450574324
 31
0.0
  0
CIRCLE
  5
2BB
330
1F
100
AcDbEntity
  8
0
  6
Continuous
 62
     7
370
    25
100
AcDbCircle
 10
152.783459971
 20
140.8305004176
 30
0.0
 40
7.558608890731335
  0
CIRCLE
  5
2BC
330
1F
100
AcDbEntity
  8
0
  6
Continuous
 62
     7
370
    25
100
AcDbCircle
 10
152.783459971
 20
140.8305004176
 30
0.0
 40
8.054747829088143
  0
CIRCLE
  5
2BD
330
1F
100
AcDbEntity
  8
0
  6
Continuous
 62
     7
370
    25
100
AcDbCircle
 10
152.783459971
 20
140.8305004176
 30
0.0
 40
5.499999999999972
  0
SPLINE
  5
2BE
330
1F
100
AcDbEntity
  8
0
  6
Continuous
 62
     7
370
    25
100
AcDbSpline
210
0.0
220
0.0
230
1.0
 70
     8
 71
     3
 72
    11
 73
     7
 74
     0
 42
0.00000001
 43
0.00000001
 40
0.0
 40
0.0
 40
0.0
 40
0.0
 40
0.2920574028183093
 40
0.5665622171831317
 40
0.8065682389915578
 40
1.0
 40
1.0
 40
1.0
 40
1.0
 10
144.6672543639773
 20
139.3507347118214
 30
0.0
 10
144.6989149002928
 20
139.1831341763978
 30
0.0
 10
144.7603331813534
 20
138.8580058624622
 30
0.0
 10
144.840245540618
 20
138.457402196596
 30
0.0
 10
144.8793443543454
 20
138.1995620005908
 30
0.0
 10
144.8639279914159
 20
138.1489165723092
 30
0.0
 10
144.8570480784317
 20
138.1263148639028
 30
0.0
  0
ARC
  5
2BF
330
1F
100
AcDbEntity
  8
0
  6
Continuous
 62
     7
370
    25
100
AcDbCircle
 10
152.783459971
 20
140.8305004176
 30
0.0
 40
8.249999999999973
100
AcDbArc
 50
169.6671934996
 51
190.3328065004
  0
SPLINE
  5
2C0
330
1F
100
AcDbEntity
  8
0
  6
Continuous
 62
     7
370
    25
100
AcDbSpline
210
0.0
220
0.0
230
1.0
 70
     8
 71
     3
 72
    12
 73
     8
 74
     0
 42
0.00000001
 43
0.00000001
 40
0.0
 40
0.0
 40
0.0
 40
0.0
 40
0.1882084234719069
 40
0.3759134198095928
 40
0.5768476463044282
 40
0.8018243756979399
 40
1.0
 40
1.0
 40
1.0
 40
1.0
 10
144.8570480784351
 20
143.5346859713186
 30
0.0
 10
144.8639196698046
 20
143.513082776806
 30
0.0
 10
144.8776444721465
 20
143.4699341728368
 30
0.0
 10
144.8518197721884
 20
143.2763943150542
 30
0.0
 10
144.8007399775468
 20
143.0015652570152
 30
0.0
 10
144.7334999758786
 20
142.6658251196458
 30
0.0
 10
144.6883837287584
 20
142.423673419633
 30
0.0
 10
144.6672543639773
 20
142.3102661234034
 30
0.0
  0
ARC
  5
2C1
330
1F
100
AcDbEntity
  8
0
  6
Continuous
 62
     7
370
    25
100
AcDbCircle
 10
152.783459971
 20
140.8305004176
 30
0.0
 40
8.986048245082035
100
AcDbArc
 50
200.7364869057
 51
159.2635130943
  0
LINE
  5
2C2
330
1F
100
AcDbEntity
  8
0
  6
Continuous
 62
     7
370
    25
100
AcDbLine
 10
144.8570480784
 20
138.1263148639
 30
0.0
 11
143.1273884267
 21
136.3966552122
 31
0.0
  0
LINE
  5
2C3
330
1F
100
AcDbEntity
  8
0
  6
Continuous
 62
     7
370
    25
100
AcDbLine
 10
143.1273884267
 20
145.264345623
 30
0.0
 11
144.8570480784
 21
143.5346859713
 31
0.0
  0
ARC
  5
2C4
330
1F
100
AcDbEntity
  8
0
  6
Continuous
 62
     7
370
    25
100
AcDbCircle
 10
142.4202816455
 20
144.5572388418
 30
0.0
 40
1.000000000000016
100
AcDbArc
 50
45.0
 51
68.7044833353
  0
ARC
  5
2C5
330
1F
100
AcDbEntity
  8
0
  6
Continuous
 62
     7
370
    25
100
AcDbCircle
 10
142.4202816455
 20
137.1037619934
 30
0.0
 40
1.000000000000016
100
AcDbArc
 50
291.2955166647
 51
315.0
  0
LINE
  5
2C6
330
1F
100
AcDbEntity
  8
0
  6
Continuous
 62
     7
370
    25
100
AcDbLine
 10
129.6327889688
 20
137.0424042605
 30
0.0
 11
129.6458649721
 21
137.0661049108
 31
0.0
  0
ARC
  5
2C7
330
1F
100
AcDbEntity
  8
0
  6
Continuous
 62
     7
370
    25
100
AcDbCircle
 10
97.7193389343
 20
139.8495053756
 30
0.0
 40
0.2634355595583564
100
AcDbArc
 50
154.8369487113
 51
203.8316088214
  0
ARC
  5
2C8
330
1F
100
AcDbEntity
  8
0
  6
Continuous
 62
     7
370
    25
100
AcDbCircle
 10
97.7190486484
 20
141.8114366825
 30
0.0
 40
0.2631478390115065
100
AcDbArc
 50
155.8301525075
 51
205.1783424302
  0
LINE
  5
2C9
330
1F
100
AcDbEntity
  8
0
  6
Continuous
 62
     7
370
    25
100
AcDbLine
 10
97.3362463755
 20
140.9919460119
 30
0.0
 11
97.2834600604
 21
140.9919460119
 31
0.0
  0
LINE
  5
2CA
330
1F
100
AcDbEntity
  8
0
  6
Continuous
 62
     7
370
    25
100
AcDbLine
 10
97.3362463755
 20
140.6690548233
 30
0.0
 11
97.2834600382
 21
140.6690548233
 31
0.0
  0
LINE
  5
2CB
330
1F
100
AcDbEntity
  8
0
  6
Continuous
 62
     7
370
    25
100
AcDbLine
 10
143.1273884267
 20
136.3966552122
 30
0.0
 11
142.783459971
 21
136.7405836679
 31
0.0
  0
LINE
  5
2CC
330
1F
100
AcDbEntity
  8
0
  6
Continuous
 62
     7
370
    25
100
AcDbLine
 10
142.783459971
 20
137.4669403189
 30
0.0
 11
144.667254364
 21
139.3507347118
 31
0.0
  0
LINE
  5
2CD
330
1F
100
AcDbEntity
  8
0
  6
Continuous
 62
     7
370
    25
100
AcDbLine
 10
144.667254364
 20
142.3102661234
 30
0.0
 11
142.783459971
 21
144.1940605163
 31
0.0
  0
LINE
  5
2CE
330
1F
100
AcDbEntity
  8
0
  6
Continuous
 62
     7
370
    25
100
AcDbLine
 10
143.1273884267
 20
145.264345623
 30
0.0
 11
142.783459971
 21
144.9204171673
 31
0.0
  0
INSERT
  5
2DA
330
1F
100
AcDbEntity
  8
0
  6
Continuous
 62
     7
370
    18
100
AcDbBlockReference
  2
SW_CENTERMARKSYMBOL_1
 10
152.783459971
 20
140.8305004176
 30
0.0
  0
ENDSEC
  0
SECTION
  2
OBJECTS
  0
DICTIONARY
  5
C
330
0
100
AcDbDictionary
281
     1
  3
ACAD_GROUP
350
D
  3
ACAD_LAYOUT
350
1A
  3
ACAD_MLINESTYLE
350
17
  3
ACAD_PLOTSETTINGS
350
19
  3
ACAD_PLOTSTYLENAME
350
E
  3
ACAD_SCALELIST
350
47
  3
DWGPROPS
350
2DB
  0
DICTIONARY
  5
D
102
{ACAD_REACTORS
330
C
102
}
330
C
100
AcDbDictionary
281
     1
  0
DICTIONARY
  5
1A
102
{ACAD_REACTORS
330
C
102
}
330
C
100
AcDbDictionary
281
     1
  3
Layout1
350
1E
  3
Layout2
350
26
  3
Model
350
22
  0
DICTIONARY
  5
17
102
{ACAD_REACTORS
330
C
102
}
330
C
100
AcDbDictionary
281
     1
  3
Standard
350
18
  0
DICTIONARY
  5
19
102
{ACAD_REACTORS
330
C
102
}
330
C
100
AcDbDictionary
281
     1
  0
ACDBDICTIONARYWDFLT
  5
E
102
{ACAD_REACTORS
330
C
102
}
330
C
100
AcDbDictionary
281
     1
  3
Normal
350
F
100
AcDbDictionaryWithDefault
340
F
  0
DICTIONARY
  5
47
102
{ACAD_REACTORS
330
C
102
}
330
C
100
AcDbDictionary
281
     1
  3
A0
350
48
  3
A1
350
49
  3
A2
350
4A
  3
A3
350
4B
  3
A4
350
4C
  3
A5
350
4D
  3
A6
350
4E
  3
A7
350
4F
  3
A8
350
50
  3
A9
350
51
  3
B0
350
52
  3
B1
350
53
  3
B2
350
54
  3
B3
350
55
  3
B4
350
56
  3
B5
350
57
  3
B6
350
58
  0
XRECORD
  5
2DB
102
{ACAD_REACTORS
330
C
102
}
330
C
100
AcDbXrecord
280
     1
  1
DWGPROPS COOKIE
  2

  3

  4

  6

  7

  8
user28
  9

300
=
301
=
302
=
303
=
304
=
305
=
306
=
307
=
308
=
309
=
 40
0.0
 41
2460297.288989213
 42
2460297.288990289
  1

 90
        0
  0
LAYOUT
  5
1E
102
{ACAD_REACTORS
330
1A
102
}
330
1A
100
AcDbPlotSettings
  1

  2
none_device
  4

  6

 40
0.0
 41
0.0
 42
0.0
 43
0.0
 44
0.0
 45
0.0
 46
0.0
 47
0.0
 48
0.0
 49
0.0
140
0.0
141
0.0
142
1.0
143
1.0
 70
   688
 72
     1
 73
     0
 74
     5
  7

 75
    16
147
1.0
148
0.0
149
0.0
100
AcDbLayout
  1
Layout1
 70
     1
 71
     1
 10
0.0
 20
0.0
 11
420.0
 21
297.0
 12
0.0
 22
0.0
 32
0.0
 14
1.0000000000E+20
 24
1.0000000000E+20
 34
1.0000000000E+20
 15
-1.0000000000E+20
 25
-1.0000000000E+20
 35
-1.0000000000E+20
146
0.0
 13
0.0
 23
0.0
 33
0.0
 16
1.0
 26
0.0
 36
0.0
 17
0.0
 27
1.0
 37
0.0
 76
     0
330
1B
  0
LAYOUT
  5
26
102
{ACAD_REACTORS
330
1A
102
}
330
1A
100
AcDbPlotSettings
  1

  2
none_device
  4

  6

 40
0.0
 41
0.0
 42
0.0
 43
0.0
 44
0.0
 45
0.0
 46
0.0
 47
0.0
 48
0.0
 49
0.0
140
0.0
141
0.0
142
1.0
143
1.0
 70
   688
 72
     1
 73
     0
 74
     5
  7

 75
    16
147
1.0
148
0.0
149
0.0
100
AcDbLayout
  1
Layout2
 70
     1
 71
     2
 10
0.0
 20
0.0
 11
0.0
 21
0.0
 12
0.0
 22
0.0
 32
0.0
 14
0.0
 24
0.0
 34
0.0
 15
0.0
 25
0.0
 35
0.0
146
0.0
 13
0.0
 23
0.0
 33
0.0
 16
1.0
 26
0.0
 36
0.0
 17
0.0
 27
1.0
 37
0.0
 76
     0
330
23
  0
LAYOUT
  5
22
102
{ACAD_REACTORS
330
1A
102
}
330
1A
100
AcDbPlotSettings
  1

  2
none_device
  4
Letter_(8.50_x_11.00_Inches)
  6

 40
6.35
 41
6.35
 42
6.35000508
 43
6.35000508
 44
215.9
 45
279.4
 46
0.0
 47
0.0
 48
0.0
 49
0.0
140
0.0
141
0.0
142
1.0
143
1.0
 70
  1712
 72
     1
 73
     0
 74
     0
  7

 75
     0
147
1.0
148
0.0
149
0.0
100
AcDbLayout
  1
Model
 70
     1
 71
     0
 10
0.0
 20
0.0
 11
431.8
 21
279.4
 12
0.0
 22
0.0
 32
0.0
 14
0.0
 24
0.0
 34
0.0
 15
431.8
 25
279.4
 35
0.0
146
0.0
 13
0.0
 23
0.0
 33
0.0
 16
1.0
 26
0.0
 36
0.0
 17
0.0
 27
1.0
 37
0.0
 76
     0
330
1F
331
29
  0
MLINESTYLE
  5
18
102
{ACAD_REACTORS
330
17
102
}
330
17
100
AcDbMlineStyle
  2
Standard
 70
     0
  3

 62
   256
 51
90.0
 52
90.0
 71
     2
 49
0.5
 62
   256
  6
BYLAYER
 49
-0.5
 62
   256
  6
BYLAYER
  0
ACDBPLACEHOLDER
  5
F
102
{ACAD_REACTORS
330
E
102
}
330
E
  0
SCALE
  5
48
102
{ACAD_REACTORS
330
47
102
}
330
47
100
AcDbScale
 70
     0
300
1:1
140
1.0
141
1.0
290
     1
  0
SCALE
  5
49
102
{ACAD_REACTORS
330
47
102
}
330
47
100
AcDbScale
 70
     0
300
1:2
140
1.0
141
2.0
290
     0
  0
SCALE
  5
4A
102
{ACAD_REACTORS
330
47
102
}
330
47
100
AcDbScale
 70
     0
300
1:4
140
1.0
141
4.0
290
     0
  0
SCALE
  5
4B
102
{ACAD_REACTORS
330
47
102
}
330
47
100
AcDbScale
 70
     0
300
1:5
140
1.0
141
5.0
290
     0
  0
SCALE
  5
4C
102
{ACAD_REACTORS
330
47
102
}
330
47
100
AcDbScale
 70
     0
300
1:8
140
1.0
141
8.0
290
     0
  0
SCALE
  5
4D
102
{ACAD_REACTORS
330
47
102
}
330
47
100
AcDbScale
 70
     0
300
1:10
140
1.0
141
10.0
290
     0
  0
SCALE
  5
4E
102
{ACAD_REACTORS
330
47
102
}
330
47
100
AcDbScale
 70
     0
300
1:16
140
1.0
141
16.0
290
     0
  0
SCALE
  5
4F
102
{ACAD_REACTORS
330
47
102
}
330
47
100
AcDbScale
 70
     0
300
1:20
140
1.0
141
20.0
290
     0
  0
SCALE
  5
50
102
{ACAD_REACTORS
330
47
102
}
330
47
100
AcDbScale
 70
     0
300
1:30
140
1.0
141
30.0
290
     0
  0
SCALE
  5
51
102
{ACAD_REACTORS
330
47
102
}
330
47
100
AcDbScale
 70
     0
300
1:40
140
1.0
141
40.0
290
     0
  0
SCALE
  5
52
102
{ACAD_REACTORS
330
47
102
}
330
47
100
AcDbScale
 70
     0
300
1:50
140
1.0
141
50.0
290
     0
  0
SCALE
  5
53
102
{ACAD_REACTORS
330
47
102
}
330
47
100
AcDbScale
 70
     0
300
1:100
140
1.0
141
100.0
290
     0
  0
SCALE
  5
54
102
{ACAD_REACTORS
330
47
102
}
330
47
100
AcDbScale
 70
     0
300
2:1
140
2.0
141
1.0
290
     0
  0
SCALE
  5
55
102
{ACAD_REACTORS
330
47
102
}
330
47
100
AcDbScale
 70
     0
300
4:1
140
4.0
141
1.0
290
     0
  0
SCALE
  5
56
102
{ACAD_REACTORS
330
47
102
}
330
47
100
AcDbScale
 70
     0
300
8:1
140
8.0
141
1.0
290
     0
  0
SCALE
  5
57
102
{ACAD_REACTORS
330
47
102
}
330
47
100
AcDbScale
 70
     0
300
10:1
140
10.0
141
1.0
290
     0
  0
SCALE
  5
58
102
{ACAD_REACTORS
330
47
102
}
330
47
100
AcDbScale
 70
     0
300
100:1
140
100.0
141
1.0
290
     0
  0
ENDSEC
  0
EOF
