  0
SECTION
  2
HEADER
  9
$ACADVER
  1
AC1015
  9
$ACADMAINTVER
 70
     6
  9
$DWGCODEPAGE
  3
DOS932
  9
$INSBASE
 10
0.0
 20
0.0
 30
0.0
  9
$EXTMIN
 10
0.0
 20
0.0
 30
0.0
  9
$EXTMAX
 10
431.8
 20
279.4
 30
0.0
  9
$LIMMIN
 10
0.0
 20
0.0
  9
$LIMMAX
 10
431.8
 20
279.4
  9
$ORTHOMODE
 70
     0
  9
$REGENMODE
 70
     1
  9
$FILLMODE
 70
     1
  9
$QTEXTMODE
 70
     0
  9
$MIRRTEXT
 70
     1
  9
$LTSCALE
 40
1.0
  9
$ATTMODE
 70
     1
  9
$TEXTSIZE
 40
3.5
  9
$TRACEWID
 40
1.0
  9
$TEXTSTYLE
  7
Standard
  9
$CLAYER
  8
0
  9
$CELTYPE
  6
ByLayer
  9
$CECOLOR
 62
   256
  9
$CELTSCALE
 40
1.0
  9
$DISPSILH
 70
     0
  9
$DIMSCALE
 40
1.0
  9
$DIMASZ
 40
3.556
  9
$DIMEXO
 40
1.0
  9
$DIMDLI
 40
3.75
  9
$DIMRND
 40
0.0
  9
$DIMDLE
 40
0.0
  9
$DIMEXE
 40
1.0
  9
$DIMTP
 40
0.0
  9
$DIMTM
 40
0.0
  9
$DIMTXT
 40
3.5
  9
$DIMCEN
 40
2.5
  9
$DIMTSZ
 40
0.0
  9
$DIMTOL
 70
     0
  9
$DIMLIM
 70
     0
  9
$DIMTIH
 70
     1
  9
$DIMTOH
 70
     1
  9
$DIMSE1
 70
     0
  9
$DIMSE2
 70
     0
  9
$DIMTAD
 70
     1
  9
$DIMZIN
 70
     0
  9
$DIMBLK
  1

  9
$DIMASO
 70
     1
  9
$DIMSHO
 70
     1
  9
$DIMPOST
  1

  9
$DIMAPOST
  1

  9
$DIMALT
 70
     0
  9
$DIMALTD
 70
     3
  9
$DIMALTF
 40
0.0393700787
  9
$DIMLFAC
 40
1.0
  9
$DIMTOFL
 70
     1
  9
$DIMTVP
 40
0.0
  9
$DIMTIX
 70
     0
  9
$DIMSOXD
 70
     0
  9
$DIMSAH
 70
     0
  9
$DIMBLK1
  1

  9
$DIMBLK2
  1

  9
$DIMSTYLE
  2
ISO-25
  9
$DIMCLRD
 70
     0
  9
$DIMCLRE
 70
     0
  9
$DIMCLRT
 70
     0
  9
$DIMTFAC
 40
1.0
  9
$DIMGAP
 40
1.524
  9
$DIMJUST
 70
     0
  9
$DIMSD1
 70
     0
  9
$DIMSD2
 70
     0
  9
$DIMTOLJ
 70
     0
  9
$DIMTZIN
 70
     0
  9
$DIMALTZ
 70
     0
  9
$DIMALTTZ
 70
     0
  9
$DIMUPT
 70
     0
  9
$DIMDEC
 70
     3
  9
$DIMTDEC
 70
     3
  9
$DIMALTU
 70
     2
  9
$DIMALTTD
 70
     3
  9
$DIMTXSTY
  7
Standard
  9
$DIMAUNIT
 70
     0
  9
$DIMADEC
 70
     2
  9
$DIMALTRND
 40
0.0
  9
$DIMAZIN
 70
     0
  9
$DIMDSEP
 70
    44
  9
$DIMATFIT
 70
     3
  9
$DIMFRAC
 70
     0
  9
$DIMLDRBLK
  1

  9
$DIMLUNIT
 70
     2
  9
$DIMLWD
 70
    -2
  9
$DIMLWE
 70
    -2
  9
$DIMTMOVE
 70
     0
  9
$LUNITS
 70
     2
  9
$LUPREC
 70
     3
  9
$SKETCHINC
 40
1.0
  9
$FILLETRAD
 40
0.0
  9
$AUNITS
 70
     0
  9
$AUPREC
 70
     2
  9
$MENU
  1
.
  9
$ELEVATION
 40
0.0
  9
$PELEVATION
 40
0.0
  9
$THICKNESS
 40
0.0
  9
$LIMCHECK
 70
     0
  9
$CHAMFERA
 40
0.0
  9
$CHAMFERB
 40
0.0
  9
$CHAMFERC
 40
0.0
  9
$CHAMFERD
 40
0.0
  9
$SKPOLY
 70
     0
  9
$TDCREATE
 40
2460305.416163438
  9
$TDUCREATE
 40
2460305.041163438
  9
$TDUPDATE
 40
2460305.416164282
  9
$TDUUPDATE
 40
2460305.041164282
  9
$TDINDWG
 40
0.0000000116
  9
$TDUSRTIMER
 40
0.0000000116
  9
$USRTIMER
 70
     1
  9
$ANGBASE
 50
0.0
  9
$ANGDIR
 70
     0
  9
$PDMODE
 70
     0
  9
$PDSIZE
 40
-1.0
  9
$PLINEWID
 40
0.0
  9
$SPLFRAME
 70
     0
  9
$SPLINETYPE
 70
     6
  9
$SPLINESEGS
 70
     8
  9
$HANDSEED
  5
263
  9
$SURFTAB1
 70
     6
  9
$SURFTAB2
 70
     6
  9
$SURFTYPE
 70
     6
  9
$SURFU
 70
     6
  9
$SURFV
 70
     6
  9
$UCSBASE
  2

  9
$UCSNAME
  2

  9
$UCSORG
 10
0.0
 20
0.0
 30
0.0
  9
$UCSXDIR
 10
1.0
 20
0.0
 30
0.0
  9
$UCSYDIR
 10
0.0
 20
1.0
 30
0.0
  9
$UCSORTHOREF
  2

  9
$UCSORTHOVIEW
 70
     0
  9
$UCSORGTOP
 10
0.0
 20
0.0
 30
0.0
  9
$UCSORGBOTTOM
 10
0.0
 20
0.0
 30
0.0
  9
$UCSORGLEFT
 10
0.0
 20
0.0
 30
0.0
  9
$UCSORGRIGHT
 10
0.0
 20
0.0
 30
0.0
  9
$UCSORGFRONT
 10
0.0
 20
0.0
 30
0.0
  9
$UCSORGBACK
 10
0.0
 20
0.0
 30
0.0
  9
$PUCSBASE
  2

  9
$PUCSNAME
  2

  9
$PUCSORG
 10
0.0
 20
0.0
 30
0.0
  9
$PUCSXDIR
 10
1.0
 20
0.0
 30
0.0
  9
$PUCSYDIR
 10
0.0
 20
1.0
 30
0.0
  9
$PUCSORTHOREF
  2

  9
$PUCSORTHOVIEW
 70
     0
  9
$PUCSORGTOP
 10
0.0
 20
0.0
 30
0.0
  9
$PUCSORGBOTTOM
 10
0.0
 20
0.0
 30
0.0
  9
$PUCSORGLEFT
 10
0.0
 20
0.0
 30
0.0
  9
$PUCSORGRIGHT
 10
0.0
 20
0.0
 30
0.0
  9
$PUCSORGFRONT
 10
0.0
 20
0.0
 30
0.0
  9
$PUCSORGBACK
 10
0.0
 20
0.0
 30
0.0
  9
$USERI1
 70
     0
  9
$USERI2
 70
     0
  9
$USERI3
 70
     0
  9
$USERI4
 70
     0
  9
$USERI5
 70
     0
  9
$USERR1
 40
0.0
  9
$USERR2
 40
0.0
  9
$USERR3
 40
0.0
  9
$USERR4
 40
0.0
  9
$USERR5
 40
0.0
  9
$WORLDVIEW
 70
     1
  9
$SHADEDGE
 70
     3
  9
$SHADEDIF
 70
    70
  9
$TILEMODE
 70
     1
  9
$MAXACTVP
 70
    64
  9
$PINSBASE
 10
0.0
 20
0.0
 30
0.0
  9
$PLIMCHECK
 70
     0
  9
$PEXTMIN
 10
1.0000000000E+20
 20
1.0000000000E+20
 30
1.0000000000E+20
  9
$PEXTMAX
 10
-1.0000000000E+20
 20
-1.0000000000E+20
 30
-1.0000000000E+20
  9
$PLIMMIN
 10
0.0
 20
0.0
  9
$PLIMMAX
 10
420.0
 20
297.0
  9
$UNITMODE
 70
     0
  9
$VISRETAIN
 70
     1
  9
$PLINEGEN
 70
     0
  9
$PSLTSCALE
 70
     1
  9
$TREEDEPTH
 70
  3020
  9
$CMLSTYLE
  2
Standard
  9
$CMLJUST
 70
     0
  9
$CMLSCALE
 40
20.0
  9
$PROXYGRAPHICS
 70
     1
  9
$MEASUREMENT
 70
     1
  9
$CELWEIGHT
370
    -1
  9
$ENDCAPS
280
     0
  9
$JOINSTYLE
280
     0
  9
$LWDISPLAY
290
     1
  9
$INSUNITS
 70
     4
  9
$HYPERLINKBASE
  1

  9
$STYLESHEET
  1

  9
$XEDIT
290
     1
  9
$CEPSNTYPE
380
     0
  9
$PSTYLEMODE
290
     1
  9
$FINGERPRINTGUID
  2
{0cddc905-5d2c-4528-8cb0-a632006396c7}
  9
$VERSIONGUID
  2
{FAEB1C32-E019-11D5-929B-00C0DF256EC4}
  9
$EXTNAMES
290
     1
  9
$PSVPSCALE
 40
0.0
  9
$OLESTARTUP
290
     0
  0
ENDSEC
  0
SECTION
  2
CLASSES
  0
CLASS
  1
ACDBDICTIONARYWDFLT
  2
AcDbDictionaryWithDefault
  3
ObjectDBX Classes
 90
        0
280
     0
281
     0
  0
CLASS
  1
VISUALSTYLE
  2
AcDbVisualStyle
  3
ObjectDBX Classes
 90
     4095
280
     0
281
     0
  0
CLASS
  1
MATERIAL
  2
AcDbMaterial
  3
ObjectDBX Classes
 90
     1153
280
     0
281
     0
  0
CLASS
  1
SCALE
  2
AcDbScale
  3
ObjectDBX Classes
 90
     1153
280
     0
281
     0
  0
CLASS
  1
TABLESTYLE
  2
AcDbTableStyle
  3
ObjectDBX Classes
 90
     4095
280
     0
281
     0
  0
CLASS
  1
MLEADERSTYLE
  2
AcDbMLeaderStyle
  3
ACDB_MLEADERSTYLE_CLASS
 90
     4095
280
     0
281
     0
  0
CLASS
  1
SUN
  2
AcDbSun
  3
SCENEOE
 90
     1153
280
     0
281
     0
  0
CLASS
  1
ACDBPLACEHOLDER
  2
AcDbPlaceHolder
  3
ObjectDBX Classes
 90
        0
280
     0
281
     0
  0
CLASS
  1
LAYOUT
  2
AcDbLayout
  3
ObjectDBX Classes
 90
        0
280
     0
281
     0
  0
ENDSEC
  0
SECTION
  2
TABLES
  0
TABLE
  2
VPORT
  5
8
330
0
100
AcDbSymbolTable
 70
     1
  0
VPORT
  5
29
330
8
100
AcDbSymbolTableRecord
100
AcDbViewportTableRecord
  2
*Active
 70
     0
 10
0.0
 20
0.0
 11
1.0
 21
1.0
 12
215.9
 22
139.7
 13
0.0
 23
0.0
 14
10.0
 24
10.0
 15
10.0
 25
10.0
 16
0.0
 26
0.0
 36
1.0
 17
0.0
 27
0.0
 37
0.0
 40
279.4
 41
1.5454545455
 42
50.0
 43
0.0
 44
0.0
 50
0.0
 51
0.0
 71
     0
 72
  2000
 73
     1
 74
     3
 75
     0
 76
     0
 77
     0
 78
     0
281
     0
 65
     1
110
0.0
120
0.0
130
0.0
111
1.0
121
0.0
131
0.0
112
0.0
122
1.0
132
0.0
 79
     0
146
0.0
  0
ENDTAB
  0
TABLE
  2
LTYPE
  5
5
330
0
100
AcDbSymbolTable
 70
     6
  0
LTYPE
  5
14
330
5
100
AcDbSymbolTableRecord
100
AcDbLinetypeTableRecord
  2
ByBlock
 70
     0
  3

 72
    65
 73
     0
 40
0.0
  0
LTYPE
  5
15
330
5
100
AcDbSymbolTableRecord
100
AcDbLinetypeTableRecord
  2
ByLayer
 70
     0
  3

 72
    65
 73
     0
 40
0.0
  0
LTYPE
  5
16
330
5
100
AcDbSymbolTableRecord
100
AcDbLinetypeTableRecord
  2
Continuous
 70
     0
  3
Solid line
 72
    65
 73
     0
 40
0.0
  0
LTYPE
  5
5E
330
5
100
AcDbSymbolTableRecord
100
AcDbLinetypeTableRecord
  2
HIDDEN
 70
     0
  3
Hidden __ __ __ __ __ __ __ __ __ __ __ __ __ __
 72
    65
 73
     2
 40
1.905
 49
1.27
 74
     0
 49
-0.635
 74
     0
  0
LTYPE
  5
5F
330
5
100
AcDbSymbolTableRecord
100
AcDbLinetypeTableRecord
  2
PHANTOM
 70
     0
  3
Phantom ______  __  __  ______  __  __  ______
 72
    65
 73
     6
 40
12.7
 49
6.35
 74
     0
 49
-1.27
 74
     0
 49
1.27
 74
     0
 49
-1.27
 74
     0
 49
1.27
 74
     0
 49
-1.27
 74
     0
  0
LTYPE
  5
60
330
5
100
AcDbSymbolTableRecord
100
AcDbLinetypeTableRecord
  2
CENTER
 70
     0
  3
Center ____ _ ____ _ ____ _ ____ _ ____ _ ____
 72
    65
 73
     4
 40
10.16
 49
6.35
 74
     0
 49
-1.27
 74
     0
 49
1.27
 74
     0
 49
-1.27
 74
     0
  0
LTYPE
  5
61
330
5
100
AcDbSymbolTableRecord
100
AcDbLinetypeTableRecord
  2
CENTERX2
 70
     0
  3
Center (2x) ________  __  ________  __  _____
 72
    65
 73
     4
 40
20.32
 49
12.7
 74
     0
 49
-2.54
 74
     0
 49
2.54
 74
     0
 49
-2.54
 74
     0
  0
LTYPE
  5
62
330
5
100
AcDbSymbolTableRecord
100
AcDbLinetypeTableRecord
  2
DOT2
 70
     0
  3
Dot (.5x) ........................................
 72
    65
 73
     2
 40
0.635
 49
0.0
 74
     0
 49
-0.635
 74
     0
  0
ENDTAB
  0
TABLE
  2
LAYER
  5
2
330
0
100
AcDbSymbolTable
 70
     1
  0
LAYER
  5
10
330
2
100
AcDbSymbolTableRecord
100
AcDbLayerTableRecord
  2
0
 70
     0
 62
     7
  6
Continuous
370
    -3
390
F
  0
ENDTAB
  0
TABLE
  2
STYLE
  5
3
330
0
100
AcDbSymbolTable
 70
     2
  0
STYLE
  5
11
330
3
100
AcDbSymbolTableRecord
100
AcDbTextStyleTableRecord
  2
Standard
 70
     0
 40
0.0
 41
1.0
 50
0.0
 71
     0
 42
3.5
  3
txt
  4
bigfont
  0
STYLE
  5
63
330
3
100
AcDbSymbolTableRecord
100
AcDbTextStyleTableRecord
  2
SLDTEXTSTYLE0
 70
     0
 40
0.0
 41
0.7
 50
0.0
 71
     0
 42
3.5
  3
TXT
  4
bigfont
  0
ENDTAB
  0
TABLE
  2
VIEW
  5
6
330
0
100
AcDbSymbolTable
 70
     0
  0
ENDTAB
  0
TABLE
  2
UCS
  5
7
330
0
100
AcDbSymbolTable
 70
     0
  0
ENDTAB
  0
TABLE
  2
APPID
  5
9
330
0
100
AcDbSymbolTable
 70
     1
  0
APPID
  5
12
330
9
100
AcDbSymbolTableRecord
100
AcDbRegAppTableRecord
  2
ACAD
 70
     0
  0
ENDTAB
  0
TABLE
  2
DIMSTYLE
  5
A
330
0
100
AcDbSymbolTable
 70
     1
100
AcDbDimStyleTable
  0
DIMSTYLE
105
27
330
A
100
AcDbSymbolTableRecord
100
AcDbDimStyleTableRecord
  2
ISO-25
 70
     0
 41
2.5
 42
0.625
 43
3.75
 44
1.25
 73
     0
 74
     0
 77
     1
 78
     8
140
2.5
141
2.5
143
0.0393700787
147
0.625
171
     3
172
     1
178
     0
271
     2
272
     2
274
     3
278
    44
283
     0
284
     8
340
11
  0
ENDTAB
  0
TABLE
  2
BLOCK_RECORD
  5
1
330
0
100
AcDbSymbolTable
 70
     3
  0
BLOCK_RECORD
  5
1F
330
1
100
AcDbSymbolTableRecord
100
AcDbBlockTableRecord
  2
*Model_Space
340
22
  0
BLOCK_RECORD
  5
1B
330
1
100
AcDbSymbolTableRecord
100
AcDbBlockTableRecord
  2
*Paper_Space
340
1E
  0
BLOCK_RECORD
  5
23
330
1
100
AcDbSymbolTableRecord
100
AcDbBlockTableRecord
  2
*Paper_Space0
340
26
  0
BLOCK_RECORD
  5
1C4
330
1
100
AcDbSymbolTableRecord
100
AcDbBlockTableRecord
  2
SW_CENTERMARKSYMBOL_0
340
0
102
{BLKREFS
331
1CF
102
}
  0
BLOCK_RECORD
  5
252
330
1
100
AcDbSymbolTableRecord
100
AcDbBlockTableRecord
  2
SW_CENTERMARKSYMBOL_1
340
0
102
{BLKREFS
331
25D
102
}
  0
ENDTAB
  0
ENDSEC
  0
SECTION
  2
BLOCKS
  0
BLOCK
  5
20
330
1F
100
AcDbEntity
  8
0
100
AcDbBlockBegin
  2
*Model_Space
 70
     0
 10
0.0
 20
0.0
 30
0.0
  3
*Model_Space
  1

  0
ENDBLK
  5
21
330
1F
100
AcDbEntity
  8
0
100
AcDbBlockEnd
  0
BLOCK
  5
1C
330
1B
100
AcDbEntity
 67
     1
  8
0
100
AcDbBlockBegin
  2
*Paper_Space
 70
     0
 10
0.0
 20
0.0
 30
0.0
  3
*Paper_Space
  1

  0
ENDBLK
  5
1D
330
1B
100
AcDbEntity
 67
     1
  8
0
100
AcDbBlockEnd
  0
BLOCK
  5
24
330
23
100
AcDbEntity
  8
0
100
AcDbBlockBegin
  2
*Paper_Space0
 70
     0
 10
0.0
 20
0.0
 30
0.0
  3
*Paper_Space0
  1

  0
ENDBLK
  5
25
330
23
100
AcDbEntity
  8
0
100
AcDbBlockEnd
  0
BLOCK
  5
1C5
330
1C4
100
AcDbEntity
  8
0
100
AcDbBlockBegin
  2
SW_CENTERMARKSYMBOL_0
 70
     0
 10
0.0
 20
0.0
 30
0.0
  3
SW_CENTERMARKSYMBOL_0
  1

  0
LINE
  5
1C7
330
1C4
100
AcDbEntity
  8
0
  6
Continuous
 62
     0
370
    18
100
AcDbLine
 10
0.0
 20
0.0
 30
0.0
 11
0.0
 21
2.5
 31
0.0
  0
LINE
  5
1C8
330
1C4
100
AcDbEntity
  8
0
  6
Continuous
 62
     0
370
    18
100
AcDbLine
 10
0.0
 20
0.0
 30
0.0
 11
-2.5
 21
0.0
 31
0.0
  0
LINE
  5
1C9
330
1C4
100
AcDbEntity
  8
0
  6
Continuous
 62
     0
370
    18
100
AcDbLine
 10
0.0
 20
0.0
 30
0.0
 11
0.0
 21
-2.5
 31
0.0
  0
LINE
  5
1CA
330
1C4
100
AcDbEntity
  8
0
  6
Continuous
 62
     0
370
    18
100
AcDbLine
 10
0.0
 20
0.0
 30
0.0
 11
2.5
 21
0.0
 31
0.0
  0
LINE
  5
1CB
330
1C4
100
AcDbEntity
  8
0
  6
Continuous
 62
     0
370
    18
100
AcDbLine
 10
0.0
 20
5.0
 30
0.0
 11
0.0
 21
29.9315380579
 31
0.0
  0
LINE
  5
1CC
330
1C4
100
AcDbEntity
  8
0
  6
Continuous
 62
     0
370
    18
100
AcDbLine
 10
-5.0
 20
0.0
 30
0.0
 11
-10.75
 21
0.0
 31
0.0
  0
LINE
  5
1CD
330
1C4
100
AcDbEntity
  8
0
  6
Continuous
 62
     0
370
    18
100
AcDbLine
 10
0.0
 20
-5.0
 30
0.0
 11
0.0
 21
-25.0437392789
 31
0.0
  0
LINE
  5
1CE
330
1C4
100
AcDbEntity
  8
0
  6
Continuous
 62
     0
370
    18
100
AcDbLine
 10
5.0
 20
0.0
 30
0.0
 11
10.75
 21
0.0
 31
0.0
  0
ENDBLK
  5
1C6
330
1C4
100
AcDbEntity
  8
0
100
AcDbBlockEnd
  0
BLOCK
  5
253
330
252
100
AcDbEntity
  8
0
100
AcDbBlockBegin
  2
SW_CENTERMARKSYMBOL_1
 70
     0
 10
0.0
 20
0.0
 30
0.0
  3
SW_CENTERMARKSYMBOL_1
  1

  0
LINE
  5
255
330
252
100
AcDbEntity
  8
0
  6
Continuous
 62
     0
370
    18
100
AcDbLine
 10
0.0
 20
0.0
 30
0.0
 11
0.0
 21
2.5
 31
0.0
  0
LINE
  5
256
330
252
100
AcDbEntity
  8
0
  6
Continuous
 62
     0
370
    18
100
AcDbLine
 10
0.0
 20
0.0
 30
0.0
 11
-2.5
 21
0.0
 31
0.0
  0
LINE
  5
257
330
252
100
AcDbEntity
  8
0
  6
Continuous
 62
     0
370
    18
100
AcDbLine
 10
0.0
 20
0.0
 30
0.0
 11
0.0
 21
-2.5
 31
0.0
  0
LINE
  5
258
330
252
100
AcDbEntity
  8
0
  6
Continuous
 62
     0
370
    18
100
AcDbLine
 10
0.0
 20
0.0
 30
0.0
 11
2.5
 21
0.0
 31
0.0
  0
LINE
  5
259
330
252
100
AcDbEntity
  8
0
  6
Continuous
 62
     0
370
    18
100
AcDbLine
 10
0.0
 20
5.0
 30
0.0
 11
0.0
 21
9.95
 31
0.0
  0
LINE
  5
25A
330
252
100
AcDbEntity
  8
0
  6
Continuous
 62
     0
370
    18
100
AcDbLine
 10
-5.0
 20
0.0
 30
0.0
 11
-26.3573144407
 21
0.0
 31
0.0
  0
LINE
  5
25B
330
252
100
AcDbEntity
  8
0
  6
Continuous
 62
     0
370
    18
100
AcDbLine
 10
0.0
 20
-5.0
 30
0.0
 11
0.0
 21
-9.95
 31
0.0
  0
LINE
  5
25C
330
252
100
AcDbEntity
  8
0
  6
Continuous
 62
     0
370
    18
100
AcDbLine
 10
5.0
 20
0.0
 30
0.0
 11
42.2200933711
 21
0.0
 31
0.0
  0
ENDBLK
  5
254
330
252
100
AcDbEntity
  8
0
100
AcDbBlockEnd
  0
ENDSEC
  0
SECTION
  2
ENTITIES
  0
MTEXT
  5
64
330
1F
100
AcDbEntity
  8
0
  6
Continuous
 62
     7
370
     0
100
AcDbMText
 10
214.631917666
 20
117.2508880146
 30
0.0
 40
3.7041666667
 41
0.0
 71
     1
 72
     1
  1
エースボール　アングル型
  7
SLDTEXTSTYLE0
 73
     1
 44
1.0
  0
MTEXT
  5
65
330
1F
100
AcDbEntity
  8
0
  6
Continuous
 62
     7
370
     0
100
AcDbMText
 10
214.631917666
 20
111.3119990215
 30
0.0
 40
3.7041666667
 41
0.0
 71
     1
 72
     1
  1
BS-3033
  7
SLDTEXTSTYLE0
 73
     1
 44
1.0
  0
LINE
  5
66
330
1F
100
AcDbEntity
  8
0
  6
Continuous
 62
     7
370
    25
100
AcDbLine
 10
159.264606601
 20
76.2382683301
 30
0.0
 11
156.264606601
 21
76.2382683301
 31
0.0
  0
LINE
  5
67
330
1F
100
AcDbEntity
  8
0
  6
Continuous
 62
     7
370
    25
100
AcDbLine
 10
156.264606601
 20
59.2382683301
 30
0.0
 11
159.264606601
 21
59.2382683301
 31
0.0
  0
LINE
  5
68
330
1F
100
AcDbEntity
  8
0
  6
Continuous
 62
     7
370
    25
100
AcDbLine
 10
156.264606601
 20
76.0692683301
 30
0.0
 11
147.264606601
 21
76.0692683301
 31
0.0
  0
LINE
  5
69
330
1F
100
AcDbEntity
  8
0
  6
Continuous
 62
     7
370
    25
100
AcDbLine
 10
147.264606601
 20
59.4072683301
 30
0.0
 11
156.264606601
 21
59.4072683301
 31
0.0
  0
LINE
  5
6A
330
1F
100
AcDbEntity
  8
0
  6
Continuous
 62
     7
370
    25
100
AcDbLine
 10
147.264606601
 20
76.0692683301
 30
0.0
 11
146.264606601
 21
75.0692683301
 31
0.0
  0
LINE
  5
6B
330
1F
100
AcDbEntity
  8
0
  6
Continuous
 62
     7
370
    25
100
AcDbLine
 10
146.264606601
 20
60.4072683301
 30
0.0
 11
147.264606601
 21
59.4072683301
 31
0.0
  0
LINE
  5
6C
330
1F
100
AcDbEntity
  8
0
  6
Continuous
 62
     7
370
    25
100
AcDbLine
 10
181.9057378539
 20
58.0006640231
 30
0.0
 11
182.764606601
 21
59.4882683301
 31
0.0
  0
LINE
  5
6D
330
1F
100
AcDbEntity
  8
0
  6
Continuous
 62
     7
370
    25
100
AcDbLine
 10
182.764606601
 20
75.9882683301
 30
0.0
 11
181.9057378539
 21
77.4758726371
 31
0.0
  0
LINE
  5
6E
330
1F
100
AcDbEntity
  8
0
  6
Continuous
 62
     7
370
    25
100
AcDbLine
 10
161.027002294
 20
56.4574543965
 30
0.0
 11
162.272669101
 21
55.7382683301
 31
0.0
  0
LINE
  5
6F
330
1F
100
AcDbEntity
  8
0
  6
Continuous
 62
     7
370
    25
100
AcDbLine
 10
179.256544101
 20
55.7382683301
 30
0.0
 11
180.5022109081
 21
56.4574543965
 31
0.0
  0
LINE
  5
70
330
1F
100
AcDbEntity
  8
0
  6
Continuous
 62
     7
370
    25
100
AcDbLine
 10
162.272669101
 20
55.7382683301
 30
0.0
 11
162.5672344312
 21
46.3121777638
 31
0.0
  0
LINE
  5
71
330
1F
100
AcDbEntity
  8
0
  6
Continuous
 62
     7
370
    25
100
AcDbLine
 10
178.9619787709
 20
46.3121777638
 30
0.0
 11
179.256544101
 21
55.7382683301
 31
0.0
  0
LINE
  5
72
330
1F
100
AcDbEntity
  8
0
  6
Continuous
 62
     7
370
    25
100
AcDbLine
 10
162.5672344312
 20
46.3121777638
 30
0.0
 11
163.764606601
 21
44.2382683301
 31
0.0
  0
LINE
  5
73
330
1F
100
AcDbEntity
  8
0
  6
Continuous
 62
     7
370
    25
100
AcDbLine
 10
177.764606601
 20
44.2382683301
 30
0.0
 11
178.9619787709
 21
46.3121777638
 31
0.0
  0
SPLINE
  5
74
330
1F
100
AcDbEntity
  8
0
  6
Continuous
 62
     7
370
    25
100
AcDbSpline
210
0.0
220
0.0
230
1.0
 70
     8
 71
     3
 72
    11
 73
     7
 74
     0
 42
0.00000001
 43
0.00000001
 40
0.0
 40
0.0
 40
0.0
 40
0.0
 40
0.1353685509395647
 40
0.5203580131485769
 40
0.8472893982043624
 40
0.9999999999999999
 40
0.9999999999999999
 40
0.9999999999999999
 40
0.9999999999999999
 10
176.9352625363929
 20
76.52747105831023
 30
0.0
 10
176.9087861133733
 20
76.5513409005966
 30
0.0
 10
176.807010488369
 20
76.64309680416576
 30
0.0
 10
176.7075493547364
 20
76.84871987360282
 30
0.0
 10
176.645068411996
 20
77.0697342410027
 30
0.0
 10
176.6507245127424
 20
77.19590589861826
 30
0.0
 10
176.6525253278764
 20
77.23607700601131
 30
0.0
  0
SPLINE
  5
75
330
1F
100
AcDbEntity
  8
0
  6
Continuous
 62
     7
370
    25
100
AcDbSpline
210
0.0
220
0.0
230
1.0
 70
     8
 71
     3
 72
    11
 73
     7
 74
     0
 42
0.00000001
 43
0.00000001
 40
0.0
 40
0.0
 40
0.0
 40
0.0
 40
0.1514554466599372
 40
0.4956254890968887
 40
0.8522756149256836
 40
1.0
 40
1.0
 40
1.0
 40
1.0
 10
164.8711471024105
 20
77.23782594960299
 30
0.0
 10
164.8732640341399
 20
77.1981286229813
 30
0.0
 10
164.8801915190666
 20
77.06822238747371
 30
0.0
 10
164.8159661626436
 20
76.8511647707366
 30
0.0
 10
164.7165341881207
 20
76.64712526833891
 30
0.0
 10
164.6183139339102
 20
76.55823516084588
 30
0.0
 10
164.5895465669211
 20
76.53220046602141
 30
0.0
  0
LINE
  5
76
330
1F
100
AcDbEntity
  8
0
  6
Continuous
 62
     7
370
    25
100
AcDbLine
 10
176.664606601
 20
77.23373751
 30
0.0
 11
176.664606601
 21
78.2382683301
 31
0.0
  0
LINE
  5
77
330
1F
100
AcDbEntity
  8
0
  6
Continuous
 62
     7
370
    25
100
AcDbLine
 10
164.864606601
 20
78.2382683301
 30
0.0
 11
164.864606601
 21
77.2382683301
 31
0.0
  0
LINE
  5
78
330
1F
100
AcDbEntity
  8
0
  6
Continuous
 62
     7
370
    25
100
AcDbLine
 10
177.4791377809
 20
77.4758726371
 30
0.0
 11
176.9347735084
 21
76.5330060594
 31
0.0
  0
LINE
  5
79
330
1F
100
AcDbEntity
  8
0
  6
Continuous
 62
     7
370
    25
100
AcDbLine
 10
164.5944396937
 20
76.5330060594
 30
0.0
 11
164.0500754212
 21
77.4758726371
 31
0.0
  0
LINE
  5
7A
330
1F
100
AcDbEntity
  8
0
  6
Continuous
 62
     7
370
    25
100
AcDbLine
 10
159.9791377809
 20
77.4758726371
 30
0.0
 11
159.264606601
 21
76.2382683301
 31
0.0
  0
LINE
  5
7B
330
1F
100
AcDbEntity
  8
0
  6
Continuous
 62
     7
370
    25
100
AcDbLine
 10
159.264606601
 20
59.2382683301
 30
0.0
 11
159.9791377809
 21
58.0006640231
 31
0.0
  0
LINE
  5
7C
330
1F
100
AcDbEntity
  8
0
  6
Continuous
 62
     7
370
    25
100
AcDbLine
 10
180.5022109081
 20
58.0006640231
 30
0.0
 11
181.9083059094
 21
58.0006640231
 31
0.0
  0
LINE
  5
7D
330
1F
100
AcDbEntity
  8
0
  6
Continuous
 62
     7
370
    25
100
AcDbLine
 10
181.9083059094
 20
77.4758726371
 30
0.0
 11
177.4765697254
 21
77.4758726371
 31
0.0
  0
LINE
  5
7E
330
1F
100
AcDbEntity
  8
0
  6
Continuous
 62
     7
370
    25
100
AcDbLine
 10
180.5022109081
 20
56.4548940151
 30
0.0
 11
180.5022109081
 21
58.0006640231
 31
0.0
  0
LINE
  5
7F
330
1F
100
AcDbEntity
  8
0
  6
Continuous
 62
     7
370
    25
100
AcDbLine
 10
164.0526434767
 20
77.4758726371
 30
0.0
 11
159.9765773995
 21
77.4758726371
 31
0.0
  0
LINE
  5
80
330
1F
100
AcDbEntity
  8
0
  6
Continuous
 62
     7
370
    25
100
AcDbLine
 10
161.027002294
 20
58.0006640231
 30
0.0
 11
161.027002294
 21
56.4548940151
 31
0.0
  0
LINE
  5
81
330
1F
100
AcDbEntity
  8
0
  6
Continuous
 62
     7
370
    25
100
AcDbLine
 10
159.9765773995
 20
58.0006640231
 30
0.0
 11
161.027002294
 21
58.0006640231
 31
0.0
  0
LINE
  5
82
330
1F
100
AcDbEntity
  8
0
  6
Continuous
 62
     7
370
    25
100
AcDbLine
 10
165.2646066011
 20
94.2382683301
 30
0.0
 11
163.314606601
 21
86.2382683301
 31
0.0
  0
LINE
  5
83
330
1F
100
AcDbEntity
  8
0
  6
Continuous
 62
     7
370
    25
100
AcDbLine
 10
163.314606601
 20
86.2382683301
 30
0.0
 11
163.764606601
 21
78.2382683301
 31
0.0
  0
LINE
  5
84
330
1F
100
AcDbEntity
  8
0
  6
Continuous
 62
     7
370
    25
100
AcDbLine
 10
177.764606601
 20
78.2382683301
 30
0.0
 11
177.8333520186
 21
79.4604090873
 31
0.0
  0
LINE
  5
85
330
1F
100
AcDbEntity
  8
0
  6
Continuous
 62
     7
370
    25
100
AcDbLine
 10
176.5178381356
 20
93.1993697269
 30
0.0
 11
176.264606601
 21
94.2382683301
 31
0.0
  0
LINE
  5
86
330
1F
100
AcDbEntity
  8
0
  6
Continuous
 62
     7
370
    25
100
AcDbLine
 10
159.264606601
 20
64.4823517616
 30
0.0
 11
159.264606601
 21
76.2382683301
 31
0.0
  0
LINE
  5
87
330
1F
100
AcDbEntity
  8
0
  6
Continuous
 62
     7
370
    25
100
AcDbLine
 10
159.264606601
 20
59.2382683301
 30
0.0
 11
159.264606601
 21
64.4823517616
 31
0.0
  0
LINE
  5
88
330
1F
100
AcDbEntity
  8
0
  6
Continuous
 62
     7
370
    25
100
AcDbLine
 10
156.264606601
 20
64.4823517616
 30
0.0
 11
156.264606601
 21
76.2382683301
 31
0.0
  0
LINE
  5
89
330
1F
100
AcDbEntity
  8
0
  6
Continuous
 62
     7
370
    25
100
AcDbLine
 10
156.264606601
 20
59.2382683301
 30
0.0
 11
156.264606601
 21
64.4823517616
 31
0.0
  0
LINE
  5
8A
330
1F
100
AcDbEntity
  8
0
  6
Continuous
 62
     7
370
    25
100
AcDbLine
 10
147.264606601
 20
64.5470870439
 30
0.0
 11
147.264606601
 21
59.4072683301
 31
0.0
  0
LINE
  5
8B
330
1F
100
AcDbEntity
  8
0
  6
Continuous
 62
     7
370
    25
100
AcDbLine
 10
147.264606601
 20
76.0692683301
 30
0.0
 11
147.264606601
 21
64.5470870439
 31
0.0
  0
LINE
  5
8C
330
1F
100
AcDbEntity
  8
0
  6
Continuous
 62
     7
370
    25
100
AcDbLine
 10
146.264606601
 20
64.930136052
 30
0.0
 11
146.264606601
 21
75.0692683301
 31
0.0
  0
LINE
  5
8D
330
1F
100
AcDbEntity
  8
0
  6
Continuous
 62
     7
370
    25
100
AcDbLine
 10
146.264606601
 20
60.4072683301
 30
0.0
 11
146.264606601
 21
64.930136052
 31
0.0
  0
SPLINE
  5
8E
330
1F
100
AcDbEntity
  8
0
  6
Continuous
 62
     7
370
    25
100
AcDbSpline
210
0.0
220
0.0
230
1.0
 70
     8
 71
     3
 72
     8
 73
     4
 74
     0
 42
0.00000001
 43
0.00000001
 40
0.0
 40
0.0
 40
0.0
 40
0.0
 40
1.0
 40
1.0
 40
1.0
 40
1.0
 10
166.1458044475324
 20
59.77187179023873
 30
0.0
 10
166.3509902700756
 20
59.82843275736295
 30
0.0
 10
166.557213470783
 20
59.88237282877678
 30
0.0
 10
166.7646066010494
 20
59.93335711851974
 30
0.0
  0
LINE
  5
8F
330
1F
100
AcDbEntity
  8
0
  6
Continuous
 62
     7
370
    25
100
AcDbLine
 10
166.764606601
 20
59.9333571185
 30
0.0
 11
166.764606601
 21
63.7382683301
 31
0.0
  0
LINE
  5
90
330
1F
100
AcDbEntity
  8
0
  6
Continuous
 62
     7
370
    25
100
AcDbLine
 10
166.764606601
 20
63.7382683301
 30
0.0
 11
164.2483705241
 21
63.7382683301
 31
0.0
  0
SPLINE
  5
91
330
1F
100
AcDbEntity
  8
0
  6
Continuous
 62
     7
370
    25
100
AcDbSpline
210
0.0
220
0.0
230
1.0
 70
     8
 71
     3
 72
     8
 73
     4
 74
     0
 42
0.00000001
 43
0.00000001
 40
0.0
 40
0.0
 40
0.0
 40
0.0
 40
1.0
 40
1.0
 40
1.0
 40
1.0
 10
164.0868851957892
 20
63.11946617657668
 30
0.0
 10
164.1434485652574
 20
63.32466071408645
 30
0.0
 10
164.1973884880787
 20
63.53088436760361
 30
0.0
 10
164.2483705240702
 20
63.73826833009372
 30
0.0
  0
LINE
  5
92
330
1F
100
AcDbEntity
  8
0
  6
Continuous
 62
     7
370
    25
100
AcDbLine
 10
159.9423280063
 20
63.1194661766
 30
0.0
 11
164.0868851958
 21
63.1194661766
 31
0.0
  0
SPLINE
  5
93
330
1F
100
AcDbEntity
  8
0
  6
Continuous
 62
     7
370
    25
100
AcDbSpline
210
0.0
220
0.0
230
1.0
 70
     8
 71
     3
 72
    10
 73
     6
 74
     0
 42
0.00000001
 43
0.00000001
 40
0.0
 40
0.0
 40
0.0
 40
0.0
 40
0.5
 40
0.5
 40
1.0
 40
1.0
 40
1.0
 40
1.0
 10
159.9423280063096
 20
63.11946617657671
 30
0.0
 10
159.7342593300783
 20
63.874275449626
 30
0.0
 10
159.5638603240538
 20
64.6350218368579
 30
0.0
 10
159.328700344355
 20
66.17316421448116
 30
0.0
 10
159.2646066010494
 20
66.95066536700597
 30
0.0
 10
159.2646066010494
 20
67.73826833009372
 30
0.0
  0
SPLINE
  5
94
330
1F
100
AcDbEntity
  8
0
  6
Continuous
 62
     7
370
    25
100
AcDbSpline
210
0.0
220
0.0
230
1.0
 70
     8
 71
     3
 72
    12
 73
     8
 74
     0
 42
0.00000001
 43
0.00000001
 40
0.0
 40
0.0
 40
0.0
 40
0.0
 40
0.2500000000000001
 40
0.2500000000000001
 40
0.5000000000000001
 40
0.5000000000000001
 40
1.0
 40
1.0
 40
1.0
 40
1.0
 10
159.2646066010494
 20
67.73826833009372
 30
0.0
 10
159.2646066010494
 20
68.13258641076555
 30
0.0
 10
159.2806054060304
 20
68.526245454716
 30
0.0
 10
159.3423755443448
 20
69.30578145426134
 30
0.0
 10
159.3881176686464
 20
69.69273464238677
 30
0.0
 10
159.5647878159933
 20
70.84612120524076
 30
0.0
 10
159.7350428814736
 20
71.6051036944458
 30
0.0
 10
159.9423280063096
 20
72.35707048361073
 30
0.0
  0
LINE
  5
95
330
1F
100
AcDbEntity
  8
0
  6
Continuous
 62
     7
370
    25
100
AcDbLine
 10
164.0868851958
 20
72.3570704836
 30
0.0
 11
159.9423280063
 21
72.3570704836
 31
0.0
  0
SPLINE
  5
96
330
1F
100
AcDbEntity
  8
0
  6
Continuous
 62
     7
370
    25
100
AcDbSpline
210
0.0
220
0.0
230
1.0
 70
     8
 71
     3
 72
     8
 73
     4
 74
     0
 42
0.00000001
 43
0.00000001
 40
0.0
 40
0.0
 40
0.0
 40
0.0
 40
1.0
 40
1.0
 40
1.0
 40
1.0
 10
164.2483705240702
 20
71.73826833009372
 30
0.0
 10
164.1974718071477
 20
71.9453133685227
 30
0.0
 10
164.1435376708969
 20
72.15155269819935
 30
0.0
 10
164.0868851957892
 20
72.35707048361073
 30
0.0
  0
LINE
  5
97
330
1F
100
AcDbEntity
  8
0
  6
Continuous
 62
     7
370
    25
100
AcDbLine
 10
177.280842678
 20
71.7382683301
 30
0.0
 11
164.2483705241
 21
71.7382683301
 31
0.0
  0
SPLINE
  5
98
330
1F
100
AcDbEntity
  8
0
  6
Continuous
 62
     7
370
    25
100
AcDbSpline
210
0.0
220
0.0
230
1.0
 70
     8
 71
     3
 72
     8
 73
     4
 74
     0
 42
0.00000001
 43
0.00000001
 40
0.0
 40
0.0
 40
0.0
 40
0.0
 40
1.0
 40
1.0
 40
1.0
 40
1.0
 10
177.2808426780286
 20
71.73826833009379
 30
0.0
 10
177.3317389112836
 20
71.94530326549754
 30
0.0
 10
177.3856728662473
 20
72.15154303056254
 30
0.0
 10
177.4423280063096
 20
72.35707048361073
 30
0.0
  0
LINE
  5
99
330
1F
100
AcDbEntity
  8
0
  6
Continuous
 62
     7
370
    25
100
AcDbLine
 10
181.9425476285
 20
72.3570704836
 30
0.0
 11
177.4423280063
 21
72.3570704836
 31
0.0
  0
SPLINE
  5
9A
330
1F
100
AcDbEntity
  8
0
  6
Continuous
 62
     7
370
    25
100
AcDbSpline
210
0.0
220
0.0
230
1.0
 70
     8
 71
     3
 72
    14
 73
    10
 74
     0
 42
0.00000001
 43
0.00000001
 40
0.0
 40
0.0
 40
0.0
 40
0.0
 40
0.25
 40
0.25
 40
0.5
 40
0.5
 40
0.75
 40
0.75
 40
1.0
 40
1.0
 40
1.0
 40
1.0
 10
181.9425476284918
 20
63.11946617657667
 30
0.0
 10
182.1504979891976
 20
63.87384623722665
 30
0.0
 10
182.3227197978864
 20
64.64328740469215
 30
0.0
 10
182.5573549206373
 20
66.18379876563331
 30
0.0
 10
182.620298979265
 20
66.95865314564033
 30
0.0
 10
182.6202390665335
 20
68.51901410052588
 30
0.0
 10
182.5556244002414
 20
69.30947029331091
 30
0.0
 10
182.3190650608402
 20
70.85174995611938
 30
0.0
 10
182.1487199207608
 20
71.60914070932057
 30
0.0
 10
181.9425476284918
 20
72.35707048361073
 30
0.0
  0
LINE
  5
9B
330
1F
100
AcDbEntity
  8
0
  6
Continuous
 62
     7
370
    25
100
AcDbLine
 10
177.4423280063
 20
63.1194661766
 30
0.0
 11
181.9425476285
 21
63.1194661766
 31
0.0
  0
SPLINE
  5
9C
330
1F
100
AcDbEntity
  8
0
  6
Continuous
 62
     7
370
    25
100
AcDbSpline
210
0.0
220
0.0
230
1.0
 70
     8
 71
     3
 72
     8
 73
     4
 74
     0
 42
0.00000001
 43
0.00000001
 40
0.0
 40
0.0
 40
0.0
 40
0.0
 40
1.0
 40
1.0
 40
1.0
 40
1.0
 10
177.4423280063095
 20
63.11946617657668
 30
0.0
 10
177.3857661628726
 20
63.3246551781135
 30
0.0
 10
177.3318261456162
 20
63.5308785441782
 30
0.0
 10
177.2808426780285
 20
63.73826833009366
 30
0.0
  0
LINE
  5
9D
330
1F
100
AcDbEntity
  8
0
  6
Continuous
 62
     7
370
    25
100
AcDbLine
 10
177.280842678
 20
63.7382683301
 30
0.0
 11
174.764606601
 21
63.7382683301
 31
0.0
  0
LINE
  5
9E
330
1F
100
AcDbEntity
  8
0
  6
Continuous
 62
     7
370
    25
100
AcDbLine
 10
174.764606601
 20
59.9333571185
 30
0.0
 11
174.764606601
 21
63.7382683301
 31
0.0
  0
SPLINE
  5
9F
330
1F
100
AcDbEntity
  8
0
  6
Continuous
 62
     7
370
    25
100
AcDbSpline
210
0.0
220
0.0
230
1.0
 70
     8
 71
     3
 72
     8
 73
     4
 74
     0
 42
0.00000001
 43
0.00000001
 40
0.0
 40
0.0
 40
0.0
 40
0.0
 40
1.0
 40
1.0
 40
1.0
 40
1.0
 10
174.7646066010494
 20
59.93335711851974
 30
0.0
 10
174.9716356643848
 20
59.88246232881892
 30
0.0
 10
175.1778756816541
 20
59.82852847945747
 30
0.0
 10
175.3834087545664
 20
59.77187179023872
 30
0.0
  0
LINE
  5
A0
330
1F
100
AcDbEntity
  8
0
  6
Continuous
 62
     7
370
    25
100
AcDbLine
 10
175.3834087546
 20
56.4206446219
 30
0.0
 11
175.3834087546
 21
59.7718717902
 31
0.0
  0
SPLINE
  5
A1
330
1F
100
AcDbEntity
  8
0
  6
Continuous
 62
     7
370
    25
100
AcDbSpline
210
0.0
220
0.0
230
1.0
 70
     8
 71
     3
 72
    14
 73
    10
 74
     0
 42
0.00000001
 43
0.00000001
 40
0.0
 40
0.0
 40
0.0
 40
0.0
 40
0.4999999999999999
 40
0.4999999999999999
 40
0.6249999999999999
 40
0.6249999999999999
 40
0.7499999999999998
 40
0.7499999999999998
 40
1.0
 40
1.0
 40
1.0
 40
1.0
 10
166.1458044475324
 20
56.42064462189926
 30
0.0
 10
167.6441273721329
 20
56.00762098981126
 30
0.0
 10
169.1720274254801
 20
55.74431704280969
 30
0.0
 10
171.1465793372115
 20
55.74258186585997
 30
0.0
 10
171.5434462332385
 20
55.75838918613617
 30
0.0
 10
172.3266023127731
 20
55.82006729106777
 30
0.0
 10
172.7149727291304
 20
55.8658772900644
 30
0.0
 10
173.8716151575728
 20
56.0428338288629
 30
0.0
 10
174.6314494889657
 20
56.21336157098857
 30
0.0
 10
175.3834087545664
 20
56.42064462189926
 30
0.0
  0
LINE
  5
A2
330
1F
100
AcDbEntity
  8
0
  6
Continuous
 62
     7
370
    25
100
AcDbLine
 10
166.1458044475
 20
59.7718717902
 30
0.0
 11
166.1458044475
 21
56.4206446219
 31
0.0
  0
LINE
  5
A3
330
1F
100
AcDbEntity
  8
0
  6
Continuous
 62
     7
370
    25
100
AcDbLine
 10
169.8628476871
 20
66.3158953125
 30
0.0
 11
169.8211973678
 21
66.2920903827
 31
0.0
  0
ELLIPSE
  5
A4
330
1F
100
AcDbEntity
  8
0
  6
Continuous
 62
     7
370
    25
100
AcDbEllipse
 10
169.4723541883
 20
66.8467728539
 30
0.0
 11
0.6784129479252385
 21
6.110667527536862E-13
 31
0.0
210
0.0
220
0.0
230
1.0
 40
0.9533039403
 41
3.470145824140259
 42
5.252469180536318
  0
LINE
  5
A5
330
1F
100
AcDbEntity
  8
0
  6
Continuous
 62
     7
370
    25
100
AcDbLine
 10
168.8302294213
 20
66.6380887389
 30
0.0
 11
167.5705752163
 21
70.1605331356
 31
0.0
  0
ELLIPSE
  5
A6
330
1F
100
AcDbEntity
  8
0
  6
Continuous
 62
     7
370
    25
100
AcDbEllipse
 10
166.9795926584
 20
69.8981938995
 30
0.0
 11
0.6519124952381503
 21
5.968558980384842E-13
 31
0.0
210
0.0
220
0.0
230
1.0
 40
0.9533023292
 41
0.4357905044354998
 42
2.705800116361537
  0
LINE
  5
A7
330
1F
100
AcDbEntity
  8
0
  6
Continuous
 62
     7
370
    25
100
AcDbLine
 10
166.3886106599
 20
70.1605342808
 30
0.0
 11
165.1292458582
 21
66.6389108791
 31
0.0
  0
ELLIPSE
  5
A8
330
1F
100
AcDbEntity
  8
0
  6
Continuous
 62
     7
370
    25
100
AcDbEllipse
 10
164.4871246742
 20
66.8475937127
 30
0.0
 11
-0.6784085062757583
 21
3.126388037344441E-13
 31
0.0
210
0.0
220
0.0
230
1.0
 40
0.9533122623
 41
1.047193771187912
 42
2.813042320199909
  0
LINE
  5
A9
330
1F
100
AcDbEntity
  8
0
  6
Continuous
 62
     7
370
    25
100
AcDbLine
 10
164.1479182002
 20
66.2875058675
 30
0.0
 11
164.0963376297
 21
66.3158953125
 31
0.0
  0
LINE
  5
AA
330
1F
100
AcDbEntity
  8
0
  6
Continuous
 62
     7
370
    25
100
AcDbLine
 10
164.0963376297
 20
66.3158953125
 30
0.0
 11
164.8926062892
 21
64.7977232111
 31
0.0
  0
ELLIPSE
  5
AB
330
1F
100
AcDbEntity
  8
0
  6
Continuous
 62
     7
370
    25
100
AcDbEllipse
 10
164.9684551627
 20
64.833876726
 30
0.0
 11
0.08480161849064416
 21
-2.842170943040401E-14
 31
0.0
210
0.0
220
0.0
230
1.0
 40
0.9533039403
 41
3.605240262590918
 42
5.462183310215271
  0
ELLIPSE
  5
AC
330
1F
100
AcDbEntity
  8
0
  6
Continuous
 62
     7
370
    25
100
AcDbEllipse
 10
166.9795926584
 20
62.7750281055
 30
0.0
 11
2.866293551216216
 21
-1.499245172453812E-12
 31
0.0
210
0.0
220
0.0
230
1.0
 40
0.9533046568
 41
0.8210016221243847
 42
2.320591031466435
  0
ELLIPSE
  5
AD
330
1F
100
AcDbEntity
  8
0
  6
Continuous
 62
     7
370
    25
100
AcDbEllipse
 10
168.9907301541
 20
64.833876726
 30
0.0
 11
0.08480161849061574
 21
0.0
 31
0.0
210
0.0
220
0.0
230
1.0
 40
0.9533039403
 41
3.962594650556404
 42
5.819537698177248
  0
LINE
  5
AE
330
1F
100
AcDbEntity
  8
0
  6
Continuous
 62
     7
370
    25
100
AcDbLine
 10
169.0665790275
 20
64.7977232111
 30
0.0
 11
169.8628476871
 21
66.3158953125
 31
0.0
  0
ARC
  5
AF
330
1F
100
AcDbEntity
  8
0
  6
Continuous
 62
     7
370
    25
100
AcDbCircle
 10
175.6574825531
 20
67.1613493368
 30
0.0
 40
0.8889999999999768
100
AcDbArc
 50
45.0
 51
159.0751675724
  0
LINE
  5
B0
330
1F
100
AcDbEntity
  8
0
  6
Continuous
 62
     7
370
    25
100
AcDbLine
 10
176.2861004816
 20
67.7899672653
 30
0.0
 11
176.7527108672
 21
68.2565776509
 31
0.0
  0
ARC
  5
B1
330
1F
100
AcDbEntity
  8
0
  6
Continuous
 62
     7
370
    25
100
AcDbCircle
 10
175.6574825531
 20
67.1613493368
 30
0.0
 40
1.548886735692394
100
AcDbArc
 50
45.0
 51
315.0
  0
LINE
  5
B2
330
1F
100
AcDbEntity
  8
0
  6
Continuous
 62
     7
370
    25
100
AcDbLine
 10
176.7527108672
 20
66.0661210227
 30
0.0
 11
176.2861004816
 21
66.5327314083
 31
0.0
  0
ARC
  5
B3
330
1F
100
AcDbEntity
  8
0
  6
Continuous
 62
     7
370
    25
100
AcDbCircle
 10
175.6574825531
 20
67.1613493368
 30
0.0
 40
0.889000000000014
100
AcDbArc
 50
200.9248324276
 51
315.0
  0
LINE
  5
B4
330
1F
100
AcDbEntity
  8
0
  6
Continuous
 62
     7
370
    25
100
AcDbLine
 10
174.8271123044
 20
66.8438493368
 30
0.0
 11
176.7527108672
 21
66.8438493368
 31
0.0
  0
LINE
  5
B5
330
1F
100
AcDbEntity
  8
0
  6
Continuous
 62
     7
370
    25
100
AcDbLine
 10
176.7527108672
 20
66.8438493368
 30
0.0
 11
176.7527108672
 21
67.4788493368
 31
0.0
  0
LINE
  5
B6
330
1F
100
AcDbEntity
  8
0
  6
Continuous
 62
     7
370
    25
100
AcDbLine
 10
176.7527108672
 20
67.4788493368
 30
0.0
 11
174.8271123044
 21
67.4788493368
 31
0.0
  0
ARC
  5
B7
330
1F
100
AcDbEntity
  8
0
  6
Continuous
 62
     7
370
    25
100
AcDbCircle
 10
172.3153379568
 20
67.1613493368
 30
0.0
 40
0.889000000000007
100
AcDbArc
 50
45.0
 51
315.0
  0
LINE
  5
B8
330
1F
100
AcDbEntity
  8
0
  6
Continuous
 62
     7
370
    25
100
AcDbLine
 10
172.9439558852
 20
67.7899672653
 30
0.0
 11
173.4105662709
 21
68.2565776509
 31
0.0
  0
ARC
  5
B9
330
1F
100
AcDbEntity
  8
0
  6
Continuous
 62
     7
370
    25
100
AcDbCircle
 10
172.3153379568
 20
67.1613493368
 30
0.0
 40
1.548886735692404
100
AcDbArc
 50
45.0
 51
315.0
  0
LINE
  5
BA
330
1F
100
AcDbEntity
  8
0
  6
Continuous
 62
     7
370
    25
100
AcDbLine
 10
173.4105662709
 20
66.0661210227
 30
0.0
 11
172.9439558852
 21
66.5327314083
 31
0.0
  0
SPLINE
  5
BB
330
1F
100
AcDbEntity
  8
0
  6
Continuous
 62
     7
370
    25
100
AcDbSpline
210
0.0
220
0.0
230
1.0
 70
     8
 71
     3
 72
    10
 73
     6
 74
     0
 42
0.00000001
 43
0.00000001
 40
0.0
 40
0.0
 40
0.0
 40
0.0
 40
0.5
 40
0.5
 40
1.0
 40
1.0
 40
1.0
 40
1.0
 10
181.9425476284917
 20
63.11946617657671
 30
0.0
 10
181.9188722340673
 20
63.03357911477426
 30
0.0
 10
181.9057811241827
 20
62.94617190579412
 30
0.0
 10
181.9056948028945
 20
62.79353546320039
 30
0.0
 10
181.9188637368383
 20
62.7294124182548
 30
0.0
 10
181.9425476284918
 20
62.68645347468449
 30
0.0
  0
SPLINE
  5
BC
330
1F
100
AcDbEntity
  8
0
  6
Continuous
 62
     7
370
    25
100
AcDbSpline
210
0.0
220
0.0
230
1.0
 70
     8
 71
     3
 72
    10
 73
     6
 74
     0
 42
0.00000001
 43
0.00000001
 40
0.0
 40
0.0
 40
0.0
 40
0.0
 40
0.5
 40
0.5
 40
1.0
 40
1.0
 40
1.0
 40
1.0
 10
181.9425476284918
 20
72.79008318550295
 30
0.0
 10
181.9188722340674
 20
72.74713965460172
 30
0.0
 10
181.9057811241827
 20
72.6836972099776
 30
0.0
 10
181.9056948028945
 20
72.53121837285863
 30
0.0
 10
181.9188637368383
 20
72.44298837075137
 30
0.0
 10
181.9425476284918
 20
72.35707048361073
 30
0.0
  0
SPLINE
  5
BD
330
1F
100
AcDbEntity
  8
0
  6
Continuous
 62
     7
370
    25
100
AcDbSpline
210
0.0
220
0.0
230
1.0
 70
     8
 71
     3
 72
    16
 73
    12
 74
     0
 42
0.00000001
 43
0.00000001
 40
0.0
 40
0.0
 40
0.0
 40
0.0
 40
0.2500000000000001
 40
0.2500000000000001
 40
0.5000000000000001
 40
0.5000000000000001
 40
0.6250000000000001
 40
0.6250000000000001
 40
0.7500000000000002
 40
0.7500000000000002
 40
1.0
 40
1.0
 40
1.0
 40
1.0
 10
181.9425476284918
 20
77.40888533901996
 30
0.0
 10
182.1505630765975
 20
77.03157725014347
 30
0.0
 10
182.3207693815705
 20
76.65155351976925
 30
0.0
 10
182.5557054131381
 20
75.88393020435856
 30
0.0
 10
182.6197775448017
 20
75.49628338756976
 30
0.0
 10
182.6205104937228
 20
74.90796283568191
 30
0.0
 10
182.6048510136397
 20
74.71088964312628
 30
0.0
 10
182.5435758870028
 20
74.32083266557217
 30
0.0
 10
182.4980196145037
 20
74.12703976498413
 30
0.0
 10
182.3215335817474
 20
73.5489587802207
 30
0.0
 10
182.1508771282617
 20
73.16796091588589
 30
0.0
 10
181.9425476284918
 20
72.79008318550295
 30
0.0
  0
SPLINE
  5
BE
330
1F
100
AcDbEntity
  8
0
  6
Continuous
 62
     7
370
    25
100
AcDbSpline
210
0.0
220
0.0
230
1.0
 70
     8
 71
     3
 72
    10
 73
     6
 74
     0
 42
0.00000001
 43
0.00000001
 40
0.0
 40
0.0
 40
0.0
 40
0.0
 40
0.16017905529231
 40
0.7197651707804202
 40
1.0
 40
1.0
 40
1.0
 40
1.0
 10
181.9083181953749
 20
77.47116361776969
 30
0.0
 10
181.9075554052816
 20
77.47255584579607
 30
0.0
 10
181.9041278052079
 20
77.4788118275244
 30
0.0
 10
181.9186352700062
 20
77.45230456279648
 30
0.0
 10
181.936564823124
 20
77.41974870765132
 30
0.0
 10
181.9425476284918
 20
77.40888533901996
 30
0.0
  0
SPLINE
  5
BF
330
1F
100
AcDbEntity
  8
0
  6
Continuous
 62
     7
370
    25
100
AcDbSpline
210
0.0
220
0.0
230
1.0
 70
     8
 71
     3
 72
     9
 73
     5
 74
     0
 42
0.00000001
 43
0.00000001
 40
0.0
 40
0.0
 40
0.0
 40
0.0
 40
0.5797912171255051
 40
1.0
 40
1.0
 40
1.0
 40
1.0
 10
181.9425476284918
 20
58.06765132116749
 30
0.0
 10
181.9301890251453
 20
58.04517767292636
 30
0.0
 10
181.9088734153509
 20
58.00641605050552
 30
0.0
 10
181.9084824728481
 20
58.00568164574732
 30
0.0
 10
181.9083181953749
 20
58.00537304241774
 30
0.0
  0
SPLINE
  5
C0
330
1F
100
AcDbEntity
  8
0
  6
Continuous
 62
     7
370
    25
100
AcDbSpline
210
0.0
220
0.0
230
1.0
 70
     8
 71
     3
 72
    16
 73
    12
 74
     0
 42
0.00000001
 43
0.00000001
 40
0.0
 40
0.0
 40
0.0
 40
0.0
 40
0.2500000000000001
 40
0.2500000000000001
 40
0.5000000000000002
 40
0.5000000000000002
 40
0.6250000000000001
 40
0.6250000000000001
 40
0.7500000000000001
 40
0.7500000000000001
 40
1.0
 40
1.0
 40
1.0
 40
1.0
 10
181.9425476284918
 20
62.68645347468449
 30
0.0
 10
182.1505630765975
 20
62.309145385808
 30
0.0
 10
182.3207693815705
 20
61.9291216554338
 30
0.0
 10
182.5557054131381
 20
61.1614983400231
 30
0.0
 10
182.6197775448017
 20
60.77385152323431
 30
0.0
 10
182.6205104937228
 20
60.18553097134645
 30
0.0
 10
182.6048510136397
 20
59.9884577787908
 30
0.0
 10
182.5435758870028
 20
59.59840080123671
 30
0.0
 10
182.4980196145037
 20
59.40460790064867
 30
0.0
 10
182.3215335817474
 20
58.82652691588525
 30
0.0
 10
182.1508771282617
 20
58.44552905155042
 30
0.0
 10
181.9425476284918
 20
58.06765132116749
 30
0.0
  0
LINE
  5
C1
330
1F
100
AcDbEntity
  8
0
  6
Continuous
 62
     7
370
    25
100
AcDbLine
 10
182.764606601
 20
75.9882683301
 30
0.0
 11
182.764606601
 21
59.4882683301
 31
0.0
  0
LINE
  5
C2
330
1F
100
AcDbEntity
  8
0
  6
Continuous
 62
     7
370
    25
100
AcDbLine
 10
181.9425476285
 20
62.6864534747
 30
0.0
 11
177.4423280063
 21
62.6864534747
 31
0.0
  0
SPLINE
  5
C3
330
1F
100
AcDbEntity
  8
0
  6
Continuous
 62
     7
370
    25
100
AcDbSpline
210
0.0
220
0.0
230
1.0
 70
     8
 71
     3
 72
    10
 73
     6
 74
     0
 42
0.00000001
 43
0.00000001
 40
0.0
 40
0.0
 40
0.0
 40
0.0
 40
0.5
 40
0.5
 40
1.0
 40
1.0
 40
1.0
 40
1.0
 10
177.4423280063063
 20
62.68645347468449
 30
0.0
 10
177.4660034007306
 20
62.72939700558565
 30
0.0
 10
177.4790945106186
 20
62.79283945020944
 30
0.0
 10
177.4791808319069
 20
62.94531828732852
 30
0.0
 10
177.4660118979631
 20
63.03354828943596
 30
0.0
 10
177.4423280063096
 20
63.11946617657669
 30
0.0
  0
SPLINE
  5
C4
330
1F
100
AcDbEntity
  8
0
  6
Continuous
 62
     7
370
    25
100
AcDbSpline
210
0.0
220
0.0
230
1.0
 70
     8
 71
     3
 72
    10
 73
     6
 74
     0
 42
0.00000001
 43
0.00000001
 40
0.0
 40
0.0
 40
0.0
 40
0.0
 40
0.5
 40
0.5
 40
1.0
 40
1.0
 40
1.0
 40
1.0
 10
177.4423280063096
 20
72.35707048361073
 30
0.0
 10
177.466003400734
 20
72.44295754541318
 30
0.0
 10
177.4790945106186
 20
72.53036475439329
 30
0.0
 10
177.4791808319069
 20
72.68300119698702
 30
0.0
 10
177.4660118979631
 20
72.7471242419326
 30
0.0
 10
177.4423280063096
 20
72.79008318550292
 30
0.0
  0
LINE
  5
C5
330
1F
100
AcDbEntity
  8
0
  6
Continuous
 62
     7
370
    25
100
AcDbLine
 10
177.4423280063
 20
72.7900831855
 30
0.0
 11
181.9425476285
 21
72.7900831855
 31
0.0
  0
LINE
  5
C6
330
1F
100
AcDbEntity
  8
0
  6
Continuous
 62
     7
370
    25
100
AcDbLine
 10
162.272669101
 20
55.7382683301
 30
0.0
 11
179.256544101
 21
55.7382683301
 31
0.0
  0
SPLINE
  5
C7
330
1F
100
AcDbEntity
  8
0
  6
Continuous
 62
     7
370
    25
100
AcDbSpline
210
0.0
220
0.0
230
1.0
 70
     8
 71
     3
 72
    10
 73
     6
 74
     0
 42
0.00000001
 43
0.00000001
 40
0.0
 40
0.0
 40
0.0
 40
0.0
 40
0.5
 40
0.5
 40
1.0
 40
1.0
 40
1.0
 40
1.0
 10
175.8164214564586
 20
56.42064462189926
 30
0.0
 10
175.7734836473594
 20
56.44431686181081
 30
0.0
 10
175.7100430574672
 20
56.45741085174607
 30
0.0
 10
175.5575539119583
 20
56.45749771920752
 30
0.0
 10
175.469324522755
 20
56.44432792944816
 30
0.0
 10
175.3834087545664
 20
56.42064462189926
 30
0.0
  0
SPLINE
  5
C8
330
1F
100
AcDbEntity
  8
0
  6
Continuous
 62
     7
370
    25
100
AcDbSpline
210
0.0
220
0.0
230
1.0
 70
     8
 71
     3
 72
    16
 73
    12
 74
     0
 42
0.00000001
 43
0.00000001
 40
0.0
 40
0.0
 40
0.0
 40
0.0
 40
0.2499999999999999
 40
0.2499999999999999
 40
0.4999999999999998
 40
0.4999999999999998
 40
0.6249999999999998
 40
0.6249999999999998
 40
0.7499999999999997
 40
0.7499999999999997
 40
1.0
 40
1.0
 40
1.0
 40
1.0
 10
175.8164214564586
 20
56.42064462189879
 30
0.0
 10
176.1941365041816
 20
56.21240481145013
 30
0.0
 10
176.5742942528075
 20
56.0422315250407
 30
0.0
 10
177.3413875846989
 20
55.80750926542486
 30
0.0
 10
177.7283649420366
 20
55.74361129035038
 30
0.0
 10
178.3149157170613
 20
55.74258758826388
 30
0.0
 10
178.5119948769843
 20
55.75807413540858
 30
0.0
 10
178.9025240164926
 20
55.81919785686657
 30
0.0
 10
179.0965557201656
 20
55.86471958416158
 30
0.0
 10
179.6753597925867
 20
56.04121894790676
 30
0.0
 10
180.0568485267532
 20
56.21204092426058
 30
0.0
 10
180.4352236099756
 20
56.42064462189911
 30
0.0
  0
SPLINE
  5
C9
330
1F
100
AcDbEntity
  8
0
  6
Continuous
 62
     7
370
    25
100
AcDbSpline
210
0.0
220
0.0
230
1.0
 70
     8
 71
     3
 72
    10
 73
     6
 74
     0
 42
0.00000001
 43
0.00000001
 40
0.0
 40
0.0
 40
0.0
 40
0.0
 40
0.1593935213062963
 40
0.7189934545756893
 40
1.0
 40
1.0
 40
1.0
 40
1.0
 10
180.4975156894419
 20
56.45488161147663
 30
0.0
 10
180.4989056082686
 20
56.4556431384741
 30
0.0
 10
180.5051752642154
 20
56.45907823998996
 30
0.0
 10
180.4786913223914
 20
56.44458361752335
 30
0.0
 10
180.4461139183447
 20
56.42664224703074
 30
0.0
 10
180.4352236099756
 20
56.42064462189926
 30
0.0
  0
SPLINE
  5
CA
330
1F
100
AcDbEntity
  8
0
  6
Continuous
 62
     7
370
    25
100
AcDbSpline
210
0.0
220
0.0
230
1.0
 70
     8
 71
     3
 72
     9
 73
     5
 74
     0
 42
0.00000001
 43
0.00000001
 40
0.0
 40
0.0
 40
0.0
 40
0.0
 40
0.5789479223912481
 40
1.0
 40
1.0
 40
1.0
 40
1.0
 10
161.0939895921231
 20
56.42064462189926
 30
0.0
 10
161.0715482249305
 20
56.43298551221366
 30
0.0
 10
161.032785900506
 20
56.45430157508758
 30
0.0
 10
161.0320199976468
 20
56.45470974900196
 30
0.0
 10
161.0316975126568
 20
56.45488161147664
 30
0.0
  0
SPLINE
  5
CB
330
1F
100
AcDbEntity
  8
0
  6
Continuous
 62
     7
370
    25
100
AcDbSpline
210
0.0
220
0.0
230
1.0
 70
     8
 71
     3
 72
    16
 73
    12
 74
     0
 42
0.00000001
 43
0.00000001
 40
0.0
 40
0.0
 40
0.0
 40
0.0
 40
0.2500000000000001
 40
0.2500000000000001
 40
0.5000000000000001
 40
0.5000000000000001
 40
0.6250000000000001
 40
0.6250000000000001
 40
0.7500000000000002
 40
0.7500000000000002
 40
1.0
 40
1.0
 40
1.0
 40
1.0
 10
161.0939895921231
 20
56.42064462189879
 30
0.0
 10
161.4717046398461
 20
56.21240481145013
 30
0.0
 10
161.8518623884721
 20
56.0422315250407
 30
0.0
 10
162.6189557203634
 20
55.80750926542485
 30
0.0
 10
163.0059330777011
 20
55.74361129035038
 30
0.0
 10
163.5924838527258
 20
55.74258758826388
 30
0.0
 10
163.7895630126488
 20
55.75807413540858
 30
0.0
 10
164.1800921521571
 20
55.81919785686657
 30
0.0
 10
164.3741238558302
 20
55.86471958416158
 30
0.0
 10
164.9529279282512
 20
56.04121894790676
 30
0.0
 10
165.3344166624177
 20
56.21204092426058
 30
0.0
 10
165.7127917456401
 20
56.42064462189911
 30
0.0
  0
SPLINE
  5
CC
330
1F
100
AcDbEntity
  8
0
  6
Continuous
 62
     7
370
    25
100
AcDbSpline
210
0.0
220
0.0
230
1.0
 70
     8
 71
     3
 72
    10
 73
     6
 74
     0
 42
0.00000001
 43
0.00000001
 40
0.0
 40
0.0
 40
0.0
 40
0.0
 40
0.5
 40
0.5
 40
1.0
 40
1.0
 40
1.0
 40
1.0
 10
166.1458044475324
 20
56.42064462189926
 30
0.0
 10
166.0599228050259
 20
56.44431852245521
 30
0.0
 10
165.9725135990605
 20
56.45741107963435
 30
0.0
 10
165.8198711139856
 20
56.45749749361662
 30
0.0
 10
165.7557481289032
 20
56.444327102018
 30
0.0
 10
165.7127917456401
 20
56.42064462189926
 30
0.0
  0
SPLINE
  5
CD
330
1F
100
AcDbEntity
  8
0
  6
Continuous
 62
     7
370
    25
100
AcDbSpline
210
0.0
220
0.0
230
1.0
 70
     8
 71
     3
 72
     8
 73
     4
 74
     0
 42
0.00000001
 43
0.00000001
 40
0.0
 40
0.0
 40
0.0
 40
0.0
 40
1.0
 40
1.0
 40
1.0
 40
1.0
 10
177.1071685598633
 20
60.73826833009372
 30
0.0
 10
177.4296478867125
 20
60.64655404235926
 30
0.0
 10
177.7449656430365
 20
60.54989725329136
 30
0.0
 10
178.053982785684
 20
60.44889214545911
 30
0.0
  0
SPLINE
  5
CE
330
1F
100
AcDbEntity
  8
0
  6
Continuous
 62
     7
370
    25
100
AcDbSpline
210
0.0
220
0.0
230
1.0
 70
     8
 71
     3
 72
    10
 73
     6
 74
     0
 42
0.00000001
 43
0.00000001
 40
0.0
 40
0.0
 40
0.0
 40
0.0
 40
0.5
 40
0.5
 40
1.0
 40
1.0
 40
1.0
 40
1.0
 10
175.8164214564589
 20
59.77187179023887
 30
0.0
 10
176.1829394032994
 20
59.97393847578979
 30
0.0
 10
176.5520196287652
 20
60.14033124806044
 30
0.0
 10
177.2972719769926
 20
60.37437822193049
 30
0.0
 10
177.6734847489404
 20
60.44146647588932
 30
0.0
 10
178.053982785684
 20
60.44889214545911
 30
0.0
  0
SPLINE
  5
CF
330
1F
100
AcDbEntity
  8
0
  6
Continuous
 62
     7
370
    25
100
AcDbSpline
210
0.0
220
0.0
230
1.0
 70
     8
 71
     3
 72
    10
 73
     6
 74
     0
 42
0.00000001
 43
0.00000001
 40
0.0
 40
0.0
 40
0.0
 40
0.0
 40
0.5
 40
0.5
 40
1.0
 40
1.0
 40
1.0
 40
1.0
 10
175.3834087545664
 20
59.7718717902387
 30
0.0
 10
175.4692958163689
 20
59.74819639581429
 30
0.0
 10
175.5567030253491
 20
59.73510528592966
 30
0.0
 10
175.709339467943
 20
59.73501896464143
 30
0.0
 10
175.7734625128888
 20
59.74818789858538
 30
0.0
 10
175.816421456459
 20
59.77187179023893
 30
0.0
  0
LINE
  5
D0
330
1F
100
AcDbEntity
  8
0
  6
Continuous
 62
     7
370
    25
100
AcDbLine
 10
176.764606601
 20
75.0994842623
 30
0.0
 11
176.764606601
 21
71.7382683301
 31
0.0
  0
SPLINE
  5
D1
330
1F
100
AcDbEntity
  8
0
  6
Continuous
 62
     7
370
    25
100
AcDbSpline
210
0.0
220
0.0
230
1.0
 70
     8
 71
     3
 72
    10
 73
     6
 74
     0
 42
0.00000001
 43
0.00000001
 40
0.0
 40
0.0
 40
0.0
 40
0.0
 40
0.5
 40
0.5
 40
1.0
 40
1.0
 40
1.0
 40
1.0
 10
177.4423280063096
 20
72.79008318550292
 30
0.0
 10
177.2339072534921
 20
73.16812643490509
 30
0.0
 10
177.0634434182147
 20
73.54889593970093
 30
0.0
 10
176.8284609832763
 20
74.31804446525848
 30
0.0
 10
176.7646066010494
 20
74.70647119343373
 30
0.0
 10
176.7646066010494
 20
75.09948426226146
 30
0.0
  0
SPLINE
  5
D2
330
1F
100
AcDbEntity
  8
0
  6
Continuous
 62
     7
370
    25
100
AcDbSpline
210
0.0
220
0.0
230
1.0
 70
     8
 71
     3
 72
     8
 73
     4
 74
     0
 42
0.00000001
 43
0.00000001
 40
0.0
 40
0.0
 40
0.0
 40
0.0
 40
1.0
 40
1.0
 40
1.0
 40
1.0
 10
176.8859900925455
 20
61.32814679676848
 30
0.0
 10
176.8448748169043
 20
61.46417719125802
 30
0.0
 10
176.8043858340364
 20
61.60088125589546
 30
0.0
 10
176.7646066010494
 20
61.73826833009372
 30
0.0
  0
LINE
  5
D3
330
1F
100
AcDbEntity
  8
0
  6
Continuous
 62
     7
370
    25
100
AcDbLine
 10
176.764606601
 20
63.7382683301
 30
0.0
 11
176.764606601
 21
61.7382683301
 31
0.0
  0
SPLINE
  5
D4
330
1F
100
AcDbEntity
  8
0
  6
Continuous
 62
     7
370
    25
100
AcDbSpline
210
0.0
220
0.0
230
1.0
 70
     8
 71
     3
 72
     8
 73
     4
 74
     0
 42
0.00000001
 43
0.00000001
 40
0.0
 40
0.0
 40
0.0
 40
0.0
 40
1.0
 40
1.0
 40
1.0
 40
1.0
 10
176.8859900925455
 20
61.32814679676848
 30
0.0
 10
177.0016227025746
 20
61.78669772882624
 30
0.0
 10
177.195512107395
 20
62.23876732458449
 30
0.0
 10
177.4423280063094
 20
62.68645347468424
 30
0.0
  0
LINE
  5
D5
330
1F
100
AcDbEntity
  8
0
  6
Continuous
 62
     7
370
    25
100
AcDbLine
 10
175.8164214565
 20
59.7718717902
 30
0.0
 11
175.8164214565
 21
56.4206446219
 31
0.0
  0
LINE
  5
D6
330
1F
100
AcDbEntity
  8
0
  6
Continuous
 62
     7
370
    25
100
AcDbLine
 10
166.7108455945
 20
67.1638364736
 30
0.0
 11
167.3181939533
 21
67.1638364736
 31
0.0
  0
ELLIPSE
  5
D7
330
1F
100
AcDbEntity
  8
0
  6
Continuous
 62
     7
370
    25
100
AcDbEllipse
 10
166.7108455945
 20
67.2446781907
 30
0.0
 11
0.08480161849067258
 21
-1.421085471520200E-14
 31
0.0
210
0.0
220
0.0
230
1.0
 40
0.9533039403
 41
2.798568711308443
 42
4.712388980384862
  0
LINE
  5
D8
330
1F
100
AcDbEntity
  8
0
  6
Continuous
 62
     7
370
    25
100
AcDbLine
 10
166.9346585374
 20
68.0824508195
 30
0.0
 11
166.6309843563
 21
67.2718682027
 31
0.0
  0
LINE
  5
D9
330
1F
100
AcDbEntity
  8
0
  6
Continuous
 62
     7
370
    25
100
AcDbLine
 10
167.3980551917
 20
67.2718682024
 30
0.0
 11
167.094381014
 21
68.0824508195
 31
0.0
  0
ELLIPSE
  5
DA
330
1F
100
AcDbEntity
  8
0
  6
Continuous
 62
     7
370
    25
100
AcDbEllipse
 10
167.3181939533
 20
67.2446781907
 30
0.0
 11
-0.08480161849067258
 21
-2.842170943040401E-14
 31
0.0
210
0.0
220
0.0
230
1.0
 40
0.9533039403
 41
1.570796326794577
 42
3.484616592149595
  0
ELLIPSE
  5
DB
330
1F
100
AcDbEntity
  8
0
  6
Continuous
 62
     7
370
    25
100
AcDbEllipse
 10
167.0145197757
 20
68.0552608077
 30
0.0
 11
0.08480161849067258
 21
1.421085471520200E-14
 31
0.0
210
0.0
220
0.0
230
1.0
 40
0.9533039403
 41
0.3430239404207371
 42
2.798568713168708
  0
SPLINE
  5
DC
330
1F
100
AcDbEntity
  8
0
  6
Continuous
 62
     7
370
    25
100
AcDbSpline
210
0.0
220
0.0
230
1.0
 70
     8
 71
     3
 72
     8
 73
     4
 74
     0
 42
0.00000001
 43
0.00000001
 40
0.0
 40
0.0
 40
0.0
 40
0.0
 40
1.0
 40
1.0
 40
1.0
 40
1.0
 10
163.4752304164327
 20
60.44889214546498
 30
0.0
 10
163.7842475590745
 20
60.54989725329511
 30
0.0
 10
164.0995653153925
 20
60.64655404236105
 30
0.0
 10
164.4220446422355
 20
60.73826833009372
 30
0.0
  0
SPLINE
  5
DD
330
1F
100
AcDbEntity
  8
0
  6
Continuous
 62
     7
370
    25
100
AcDbSpline
210
0.0
220
0.0
230
1.0
 70
     8
 71
     3
 72
    10
 73
     6
 74
     0
 42
0.00000001
 43
0.00000001
 40
0.0
 40
0.0
 40
0.0
 40
0.0
 40
0.5
 40
0.5
 40
1.0
 40
1.0
 40
1.0
 40
1.0
 10
165.7127917456401
 20
59.77187179023872
 30
0.0
 10
165.7557352765414
 20
59.74819639581433
 30
0.0
 10
165.8191777211655
 20
59.73510528592969
 30
0.0
 10
165.9716565582845
 20
59.73501896464141
 30
0.0
 10
166.0598865603917
 20
59.74818789858525
 30
0.0
 10
166.1458044475324
 20
59.77187179023871
 30
0.0
  0
SPLINE
  5
DE
330
1F
100
AcDbEntity
  8
0
  6
Continuous
 62
     7
370
    25
100
AcDbSpline
210
0.0
220
0.0
230
1.0
 70
     8
 71
     3
 72
    12
 73
     8
 74
     0
 42
0.00000001
 43
0.00000001
 40
0.0
 40
0.0
 40
0.0
 40
0.0
 40
0.2500000000000002
 40
0.2500000000000002
 40
0.5000000000000004
 40
0.5000000000000004
 40
1.0
 40
1.0
 40
1.0
 40
1.0
 10
163.4752304164275
 20
60.44889214545886
 30
0.0
 10
163.6652565917307
 20
60.44518365960243
 30
0.0
 10
163.8554716544166
 20
60.42660115676475
 30
0.0
 10
164.2324084135489
 20
60.36173411979861
 30
0.0
 10
164.4197312048084
 20
60.31546856654833
 30
0.0
 10
164.9786411611225
 20
60.13974403624137
 30
0.0
 10
165.3471768192329
 20
59.97344062746463
 30
0.0
 10
165.7127917456401
 20
59.77187179023872
 30
0.0
  0
LINE
  5
DF
330
1F
100
AcDbEntity
  8
0
  6
Continuous
 62
     7
370
    25
100
AcDbLine
 10
165.7127917456
 20
56.4206446219
 30
0.0
 11
165.7127917456
 21
59.7718717902
 31
0.0
  0
LINE
  5
E0
330
1F
100
AcDbEntity
  8
0
  6
Continuous
 62
     7
370
    25
100
AcDbLine
 10
164.764606601
 20
75.0994842623
 30
0.0
 11
164.764606601
 21
71.7382683301
 31
0.0
  0
SPLINE
  5
E1
330
1F
100
AcDbEntity
  8
0
  6
Continuous
 62
     7
370
    25
100
AcDbSpline
210
0.0
220
0.0
230
1.0
 70
     8
 71
     3
 72
    10
 73
     6
 74
     0
 42
0.00000001
 43
0.00000001
 40
0.0
 40
0.0
 40
0.0
 40
0.0
 40
0.5
 40
0.5
 40
1.0
 40
1.0
 40
1.0
 40
1.0
 10
164.0868851957892
 20
72.79008318550295
 30
0.0
 10
164.0632098013648
 20
72.74713965460172
 30
0.0
 10
164.0501186914802
 20
72.6836972099776
 30
0.0
 10
164.0500323701919
 20
72.53121837285863
 30
0.0
 10
164.0632013041357
 20
72.44298837075137
 30
0.0
 10
164.0868851957892
 20
72.35707048361073
 30
0.0
  0
SPLINE
  5
E2
330
1F
100
AcDbEntity
  8
0
  6
Continuous
 62
     7
370
    25
100
AcDbSpline
210
0.0
220
0.0
230
1.0
 70
     8
 71
     3
 72
    12
 73
     8
 74
     0
 42
0.00000001
 43
0.00000001
 40
0.0
 40
0.0
 40
0.0
 40
0.0
 40
0.2500000000000001
 40
0.2500000000000001
 40
0.5000000000000002
 40
0.5000000000000002
 40
1.0
 40
1.0
 40
1.0
 40
1.0
 10
164.7646066010494
 20
75.09948426226146
 30
0.0
 10
164.7646066010494
 20
74.90374199938194
 30
0.0
 10
164.7487636649604
 20
74.70707539019138
 30
0.0
 10
164.6872608047227
 20
74.3178071628631
 30
0.0
 10
164.6416571636791
 20
74.12440312991018
 30
0.0
 10
164.4652061461898
 20
73.54747407865342
 30
0.0
 10
164.294808778938
 20
73.1672246454504
 30
0.0
 10
164.0868851957892
 20
72.79008318550295
 30
0.0
  0
LINE
  5
E3
330
1F
100
AcDbEntity
  8
0
  6
Continuous
 62
     7
370
    25
100
AcDbLine
 10
164.764606601
 20
63.7382683301
 30
0.0
 11
164.764606601
 21
61.7382683301
 31
0.0
  0
SPLINE
  5
E4
330
1F
100
AcDbEntity
  8
0
  6
Continuous
 62
     7
370
    25
100
AcDbSpline
210
0.0
220
0.0
230
1.0
 70
     8
 71
     3
 72
     8
 73
     4
 74
     0
 42
0.00000001
 43
0.00000001
 40
0.0
 40
0.0
 40
0.0
 40
0.0
 40
1.0
 40
1.0
 40
1.0
 40
1.0
 10
164.7646066010494
 20
61.73826833009372
 30
0.0
 10
164.7248279428592
 20
61.60088324109361
 30
0.0
 10
164.684338980031
 20
61.46417915928185
 30
0.0
 10
164.6432231095532
 20
61.32814679676847
 30
0.0
  0
SPLINE
  5
E5
330
1F
100
AcDbEntity
  8
0
  6
Continuous
 62
     7
370
    25
100
AcDbSpline
210
0.0
220
0.0
230
1.0
 70
     8
 71
     3
 72
     8
 73
     4
 74
     0
 42
0.00000001
 43
0.00000001
 40
0.0
 40
0.0
 40
0.0
 40
0.0
 40
1.0
 40
1.0
 40
1.0
 40
1.0
 10
164.0868851957892
 20
62.68645347468449
 30
0.0
 10
164.3340589766731
 20
62.23811818163317
 30
0.0
 10
164.5277806449771
 20
61.78594369088957
 30
0.0
 10
164.6432231095532
 20
61.32814679676847
 30
0.0
  0
SPLINE
  5
E6
330
1F
100
AcDbEntity
  8
0
  6
Continuous
 62
     7
370
    25
100
AcDbSpline
210
0.0
220
0.0
230
1.0
 70
     8
 71
     3
 72
    10
 73
     6
 74
     0
 42
0.00000001
 43
0.00000001
 40
0.0
 40
0.0
 40
0.0
 40
0.0
 40
0.5
 40
0.5
 40
1.0
 40
1.0
 40
1.0
 40
1.0
 10
164.0868851957891
 20
63.11946617657671
 30
0.0
 10
164.0632098013647
 20
63.03357911477426
 30
0.0
 10
164.0501186914802
 20
62.94617190579413
 30
0.0
 10
164.0500323701919
 20
62.79353546320039
 30
0.0
 10
164.0632013041357
 20
62.7294124182548
 30
0.0
 10
164.0868851957892
 20
62.68645347468449
 30
0.0
  0
SPLINE
  5
E7
330
1F
100
AcDbEntity
  8
0
  6
Continuous
 62
     7
370
    25
100
AcDbSpline
210
0.0
220
0.0
230
1.0
 70
     8
 71
     3
 72
    10
 73
     6
 74
     0
 42
0.00000001
 43
0.00000001
 40
0.0
 40
0.0
 40
0.0
 40
0.0
 40
0.5
 40
0.5
 40
1.0
 40
1.0
 40
1.0
 40
1.0
 10
159.9423280063096
 20
72.79008318550295
 30
0.0
 10
159.9660002462211
 20
72.74714537640371
 30
0.0
 10
159.9790942361564
 20
72.68370478651151
 30
0.0
 10
159.9791811036178
 20
72.53121564100267
 30
0.0
 10
159.9660113138584
 20
72.44298625179935
 30
0.0
 10
159.9423280063096
 20
72.35707048361073
 30
0.0
  0
LINE
  5
E8
330
1F
100
AcDbEntity
  8
0
  6
Continuous
 62
     7
370
    25
100
AcDbLine
 10
159.9423280063
 20
72.7900831855
 30
0.0
 11
164.0868851958
 21
72.7900831855
 31
0.0
  0
LINE
  5
E9
330
1F
100
AcDbEntity
  8
0
  6
Continuous
 62
     7
370
    25
100
AcDbLine
 10
164.0868851958
 20
62.6864534747
 30
0.0
 11
159.9423280063
 21
62.6864534747
 31
0.0
  0
SPLINE
  5
EA
330
1F
100
AcDbEntity
  8
0
  6
Continuous
 62
     7
370
    25
100
AcDbSpline
210
0.0
220
0.0
230
1.0
 70
     8
 71
     3
 72
    10
 73
     6
 74
     0
 42
0.00000001
 43
0.00000001
 40
0.0
 40
0.0
 40
0.0
 40
0.0
 40
0.5
 40
0.5
 40
1.0
 40
1.0
 40
1.0
 40
1.0
 10
159.9423280063096
 20
63.11946617657671
 30
0.0
 10
159.9660019068655
 20
63.03358453407025
 30
0.0
 10
159.9790944640447
 20
62.94617532810481
 30
0.0
 10
159.9791808780269
 20
62.79353284302989
 30
0.0
 10
159.9660104864283
 20
62.72940985794752
 30
0.0
 10
159.9423280063096
 20
62.68645347468449
 30
0.0
  0
LINE
  5
EB
330
1F
100
AcDbEntity
  8
0
  6
Continuous
 62
     7
370
    25
100
AcDbLine
 10
159.264606601
 20
67.7382683301
 30
0.0
 11
159.264606601
 21
75.0994842623
 31
0.0
  0
SPLINE
  5
EC
330
1F
100
AcDbEntity
  8
0
  6
Continuous
 62
     7
370
    25
100
AcDbSpline
210
0.0
220
0.0
230
1.0
 70
     8
 71
     3
 72
    10
 73
     6
 74
     0
 42
0.00000001
 43
0.00000001
 40
0.0
 40
0.0
 40
0.0
 40
0.0
 40
0.5
 40
0.5
 40
1.0
 40
1.0
 40
1.0
 40
1.0
 10
159.9423280063091
 20
72.79008318550292
 30
0.0
 10
159.7335180816428
 20
73.1688323328942
 30
0.0
 10
159.5629839418956
 20
73.5500376093055
 30
0.0
 10
159.3281981368767
 20
74.31926823049328
 30
0.0
 10
159.2646066010494
 20
74.70733593529161
 30
0.0
 10
159.2646066010494
 20
75.09948426226146
 30
0.0
  0
LINE
  5
ED
330
1F
100
AcDbEntity
  8
0
  6
Continuous
 62
     7
370
    25
100
AcDbLine
 10
159.264606601
 20
67.7382683301
 30
0.0
 11
159.264606601
 21
60.3770523979
 31
0.0
  0
SPLINE
  5
EE
330
1F
100
AcDbEntity
  8
0
  6
Continuous
 62
     7
370
    25
100
AcDbSpline
210
0.0
220
0.0
230
1.0
 70
     8
 71
     3
 72
    12
 73
     8
 74
     0
 42
0.00000001
 43
0.00000001
 40
0.0
 40
0.0
 40
0.0
 40
0.0
 40
0.2499999999999999
 40
0.2499999999999999
 40
0.4999999999999998
 40
0.4999999999999998
 40
1.0
 40
1.0
 40
1.0
 40
1.0
 10
159.2646066010494
 20
60.37705239792599
 30
0.0
 10
159.2646066010494
 20
60.57205587793178
 30
0.0
 10
159.2803529310713
 20
60.76859053695619
 30
0.0
 10
159.3417979556567
 20
61.15801022456174
 30
0.0
 10
159.3873867149105
 20
61.35149491762201
 30
0.0
 10
159.5638377171671
 20
61.92867851637761
 30
0.0
 10
159.7342954191306
 20
62.30911429816057
 30
0.0
 10
159.9423280063094
 20
62.68645347468451
 30
0.0
  0
LINE
  5
EF
330
1F
100
AcDbEntity
  8
0
  6
Continuous
 62
     7
370
    25
100
AcDbLine
 10
178.9619787709
 20
46.3121777638
 30
0.0
 11
162.5672344312
 21
46.3121777638
 31
0.0
  0
SPLINE
  5
F0
330
1F
100
AcDbEntity
  8
0
  6
Continuous
 62
     7
370
    25
100
AcDbSpline
210
0.0
220
0.0
230
1.0
 70
     8
 71
     3
 72
    12
 73
     8
 74
     0
 42
0.00000001
 43
0.00000001
 40
0.0
 40
0.0
 40
0.0
 40
0.0
 40
0.2499999999999999
 40
0.2499999999999999
 40
0.4999999999999998
 40
0.4999999999999998
 40
1.0
 40
1.0
 40
1.0
 40
1.0
 10
176.7646066010494
 20
75.09948426226146
 30
0.0
 10
176.7646066010494
 20
75.29522652514096
 30
0.0
 10
176.7804495371383
 20
75.49189313433152
 30
0.0
 10
176.841952397376
 20
75.8811613616598
 30
0.0
 10
176.8875560384197
 20
76.07456539461273
 30
0.0
 10
177.0640070559089
 20
76.65149444586949
 30
0.0
 10
177.2344044231608
 20
77.0317438790725
 30
0.0
 10
177.4423280063096
 20
77.40888533901996
 30
0.0
  0
LINE
  5
F1
330
1F
100
AcDbEntity
  8
0
  6
Continuous
 62
     7
370
    25
100
AcDbLine
 10
181.9425476285
 20
77.408885339
 30
0.0
 11
177.4423280063
 21
77.408885339
 31
0.0
  0
ELLIPSE
  5
F2
330
1F
100
AcDbEntity
  8
0
  6
Continuous
 62
     7
370
    25
100
AcDbEllipse
 10
170.764606601
 20
57.9233137539
 30
0.0
 11
8.5
 21
0.0
 31
0.0
210
0.0
220
0.0
230
1.0
 40
0.5773502692
 41
0.6109003736767328
 42
0.7667594407167088
  0
LINE
  5
F3
330
1F
100
AcDbEntity
  8
0
  6
Continuous
 62
     7
370
    25
100
AcDbLine
 10
180.43522361
 20
58.0676513212
 30
0.0
 11
181.9425476285
 21
58.0676513212
 31
0.0
  0
LINE
  5
F4
330
1F
100
AcDbEntity
  8
0
  6
Continuous
 62
     7
370
    25
100
AcDbLine
 10
180.43522361
 20
58.0676513212
 30
0.0
 11
178.0539827857
 21
60.4488921455
 31
0.0
  0
LINE
  5
F5
330
1F
100
AcDbEntity
  8
0
  6
Continuous
 62
     7
370
    25
100
AcDbLine
 10
180.43522361
 20
56.4206446219
 30
0.0
 11
180.43522361
 21
58.0676513212
 31
0.0
  0
ELLIPSE
  5
F6
330
1F
100
AcDbEntity
  8
0
  6
Continuous
 62
     7
370
    25
100
AcDbEllipse
 10
170.764606601
 20
57.9233137539
 30
0.0
 11
8.5
 21
0.0
 31
0.0
210
0.0
220
0.0
230
1.0
 40
0.5773502692
 41
2.374833212873085
 42
2.530692279913058
  0
LINE
  5
F7
330
1F
100
AcDbEntity
  8
0
  6
Continuous
 62
     7
370
    25
100
AcDbLine
 10
163.4752304164
 20
60.4488921455
 30
0.0
 11
161.0939895921
 21
58.0676513212
 31
0.0
  0
LINE
  5
F8
330
1F
100
AcDbEntity
  8
0
  6
Continuous
 62
     7
370
    25
100
AcDbLine
 10
159.9423280063
 20
58.0676513212
 30
0.0
 11
161.0939895921
 21
58.0676513212
 31
0.0
  0
SPLINE
  5
F9
330
1F
100
AcDbEntity
  8
0
  6
Continuous
 62
     7
370
    25
100
AcDbSpline
210
0.0
220
0.0
230
1.0
 70
     8
 71
     3
 72
    10
 73
     6
 74
     0
 42
0.00000001
 43
0.00000001
 40
0.0
 40
0.0
 40
0.0
 40
0.0
 40
0.5
 40
0.5
 40
1.0
 40
1.0
 40
1.0
 40
1.0
 10
159.9423280063091
 20
58.06765132116745
 30
0.0
 10
159.7335180816428
 20
58.44640046855874
 30
0.0
 10
159.5629839418956
 20
58.82760574497005
 30
0.0
 10
159.3281981368767
 20
59.59683636615782
 30
0.0
 10
159.2646066010494
 20
59.98490407095615
 30
0.0
 10
159.2646066010494
 20
60.37705239792599
 30
0.0
  0
LINE
  5
FA
330
1F
100
AcDbEntity
  8
0
  6
Continuous
 62
     7
370
    25
100
AcDbLine
 10
161.0939895921
 20
58.0676513212
 30
0.0
 11
161.0939895921
 21
56.4206446219
 31
0.0
  0
SPLINE
  5
FB
330
1F
100
AcDbEntity
  8
0
  6
Continuous
 62
     7
370
    25
100
AcDbSpline
210
0.0
220
0.0
230
1.0
 70
     8
 71
     3
 72
    12
 73
     8
 74
     0
 42
0.00000001
 43
0.00000001
 40
0.0
 40
0.0
 40
0.0
 40
0.0
 40
0.2499999999999999
 40
0.2499999999999999
 40
0.5
 40
0.5
 40
1.0
 40
1.0
 40
1.0
 40
1.0
 10
159.2646066010494
 20
75.09948426226146
 30
0.0
 10
159.2646066010494
 20
75.29448774226724
 30
0.0
 10
159.2803529310713
 20
75.49102240129166
 30
0.0
 10
159.3417979556567
 20
75.8804420888972
 30
0.0
 10
159.3873867149105
 20
76.07392678195745
 30
0.0
 10
159.5638377171671
 20
76.65111038071306
 30
0.0
 10
159.7342954191306
 20
77.03154616249603
 30
0.0
 10
159.9423280063094
 20
77.40888533901996
 30
0.0
  0
LINE
  5
FC
330
1F
100
AcDbEntity
  8
0
  6
Continuous
 62
     7
370
    25
100
AcDbLine
 10
164.0868851958
 20
77.408885339
 30
0.0
 11
159.9423280063
 21
77.408885339
 31
0.0
  0
SPLINE
  5
FD
330
1F
100
AcDbEntity
  8
0
  6
Continuous
 62
     7
370
    25
100
AcDbSpline
210
0.0
220
0.0
230
1.0
 70
     8
 71
     3
 72
    10
 73
     6
 74
     0
 42
0.00000001
 43
0.00000001
 40
0.0
 40
0.0
 40
0.0
 40
0.0
 40
0.5
 40
0.5
 40
1.0
 40
1.0
 40
1.0
 40
1.0
 10
164.0868851957892
 20
77.40888533901997
 30
0.0
 10
164.2953059486066
 20
77.03084208961782
 30
0.0
 10
164.465769783884
 20
76.65007258482197
 30
0.0
 10
164.7007522188224
 20
75.88092405926443
 30
0.0
 10
164.7646066010494
 20
75.49249733108918
 30
0.0
 10
164.7646066010494
 20
75.09948426226146
 30
0.0
  0
LINE
  5
FE
330
1F
100
AcDbEntity
  8
0
  6
Continuous
 62
     7
370
    25
100
AcDbLine
 10
177.764606601
 20
44.2382683301
 30
0.0
 11
163.764606601
 21
44.2382683301
 31
0.0
  0
LINE
  5
FF
330
1F
100
AcDbEntity
  8
0
  6
Continuous
 62
     7
370
    25
100
AcDbLine
 10
176.764606601
 20
61.7382683301
 30
0.0
 11
174.764606601
 21
63.7382683301
 31
0.0
  0
LINE
  5
100
330
1F
100
AcDbEntity
  8
0
  6
Continuous
 62
     7
370
    25
100
AcDbLine
 10
174.764606601
 20
60.7382683301
 30
0.0
 11
177.7272276737
 21
60.7382683301
 31
0.0
  0
LINE
  5
101
330
1F
100
AcDbEntity
  8
0
  6
Continuous
 62
     7
370
    25
100
AcDbLine
 10
164.764606601
 20
75.6727228083
 30
0.0
 11
164.764606601
 21
75.0994842623
 31
0.0
  0
SPLINE
  5
102
330
1F
100
AcDbEntity
  8
0
  6
Continuous
 62
     7
370
    25
100
AcDbSpline
210
0.0
220
0.0
230
1.0
 70
     8
 71
     3
 72
    32
 73
    28
 74
     0
 42
0.00000001
 43
0.00000001
 40
0.0
 40
0.0
 40
0.0
 40
0.0
 40
0.0625000000000001
 40
0.0625000000000001
 40
0.1250000000000001
 40
0.1250000000000001
 40
0.1875000000000002
 40
0.1875000000000002
 40
0.2500000000000003
 40
0.2500000000000003
 40
0.3750000000000003
 40
0.3750000000000003
 40
0.4375000000000003
 40
0.4375000000000003
 40
0.5000000000000002
 40
0.5000000000000002
 40
0.5625000000000002
 40
0.5625000000000002
 40
0.6250000000000001
 40
0.6250000000000001
 40
0.7500000000000001
 40
0.7500000000000001
 40
0.8750000000000002
 40
0.8750000000000002
 40
0.9375000000000001
 40
0.9375000000000001
 40
1.0
 40
1.0
 40
1.0
 40
1.0
 10
176.7646066010409
 20
75.67272280831438
 30
0.0
 10
176.607750265124
 20
75.57776583041867
 30
0.0
 10
176.4347518309684
 20
75.47501265579349
 30
0.0
 10
176.0580472443426
 20
75.25830145414523
 30
0.0
 10
175.8551944638859
 20
75.14488274365522
 30
0.0
 10
175.4292132010833
 20
74.91679260695705
 30
0.0
 10
175.2050352407952
 20
74.8014857245052
 30
0.0
 10
174.7336841472189
 20
74.57316262213041
 30
0.0
 10
174.4849986318538
 20
74.45951260599666
 30
0.0
 10
173.7144261471622
 20
74.13644857476262
 30
0.0
 10
173.16878873708
 20
73.94355005059911
 30
0.0
 10
172.2860089885836
 20
73.73195612532542
 30
0.0
 10
171.9873698887108
 20
73.67631373920767
 30
0.0
 10
171.380868287995
 20
73.60064566984384
 30
0.0
 10
171.0707210493291
 20
73.58067242406752
 30
0.0
 10
170.4506355606453
 20
73.58100619032076
 30
0.0
 10
170.1440645231773
 20
73.60100515564355
 30
0.0
 10
169.5374097758691
 20
73.67704394184003
 30
0.0
 10
169.2350367112438
 20
73.73369704197157
 30
0.0
 10
168.3584004084908
 20
73.94447559201741
 30
0.0
 10
167.8103462765139
 20
74.13802142258918
 30
0.0
 10
166.7798490092706
 20
74.57064071586495
 30
0.0
 10
166.3122889739912
 20
74.80311736055539
 30
0.0
 10
165.6740753703633
 20
75.14485536147443
 30
0.0
 10
165.4708656321734
 20
75.25847287690281
 30
0.0
 10
165.094528705779
 20
75.47497526925906
 30
0.0
 10
164.9215500972875
 20
75.57771306570345
 30
0.0
 10
164.7646066010494
 20
75.67272280831952
 30
0.0
  0
LINE
  5
103
330
1F
100
AcDbEntity
  8
0
  6
Continuous
 62
     7
370
    25
100
AcDbLine
 10
176.764606601
 20
75.6727228083
 30
0.0
 11
176.764606601
 21
75.0994842623
 31
0.0
  0
LINE
  5
104
330
1F
100
AcDbEntity
  8
0
  6
Continuous
 62
     7
370
    25
100
AcDbLine
 10
166.764606601
 20
63.7382683301
 30
0.0
 11
164.764606601
 21
61.7382683301
 31
0.0
  0
LINE
  5
105
330
1F
100
AcDbEntity
  8
0
  6
Continuous
 62
     7
370
    25
100
AcDbLine
 10
163.8019855284
 20
60.7382683301
 30
0.0
 11
166.764606601
 21
60.7382683301
 31
0.0
  0
SPLINE
  5
106
330
1F
100
AcDbEntity
  8
0
  6
Continuous
 62
     7
370
    25
100
AcDbSpline
210
0.0
220
0.0
230
1.0
 70
     8
 71
     3
 72
    11
 73
     7
 74
     0
 42
0.00000001
 43
0.00000001
 40
0.0
 40
0.0
 40
0.0
 40
0.0
 40
0.0860363962994346
 40
0.3126240132839357
 40
0.5444816819626206
 40
1.0
 40
1.0
 40
1.0
 40
1.0
 10
176.9379537885164
 20
76.53116992379485
 30
0.0
 10
176.9391426055365
 20
76.5351835493332
 30
0.0
 10
176.9434623209578
 20
76.5497675600262
 30
0.0
 10
176.912282812638
 20
76.44321133592392
 30
0.0
 10
176.8298552037302
 20
76.16266340406497
 30
0.0
 10
176.7906124474551
 20
75.8679962602731
 30
0.0
 10
176.7646066010494
 20
75.67272280831239
 30
0.0
  0
SPLINE
  5
107
330
1F
100
AcDbEntity
  8
0
  6
Continuous
 62
     7
370
    25
100
AcDbSpline
210
0.0
220
0.0
230
1.0
 70
     8
 71
     3
 72
    11
 73
     7
 74
     0
 42
0.00000001
 43
0.00000001
 40
0.0
 40
0.0
 40
0.0
 40
0.0
 40
0.3176286663397568
 40
0.6359444496222161
 40
0.8656684147572979
 40
1.0
 40
1.0
 40
1.0
 40
1.0
 10
164.7646066010494
 20
75.67272280831943
 30
0.0
 10
164.7509678692861
 20
75.80398735211078
 30
0.0
 10
164.7236609014839
 20
76.06680040049919
 30
0.0
 10
164.6356559057893
 20
76.37844611104046
 30
0.0
 10
164.5910948239485
 20
76.53219503997566
 30
0.0
 10
164.5914438981654
 20
76.53068041831585
 30
0.0
 10
164.5915727018407
 20
76.53012154336288
 30
0.0
  0
SPLINE
  5
108
330
1F
100
AcDbEntity
  8
0
  6
Continuous
 62
     7
370
    25
100
AcDbSpline
210
0.0
220
0.0
230
1.0
 70
     8
 71
     3
 72
     9
 73
     5
 74
     0
 42
0.00000001
 43
0.00000001
 40
0.0
 40
0.0
 40
0.0
 40
0.0
 40
0.5797912171257733
 40
1.0
 40
1.0
 40
1.0
 40
1.0
 10
177.4423280063096
 20
77.40888533901996
 30
0.0
 10
177.454686609656
 20
77.43135898726108
 30
0.0
 10
177.4760022194504
 20
77.4701206096819
 30
0.0
 10
177.4763931619532
 20
77.4708550144401
 30
0.0
 10
177.4765574394265
 20
77.47116361776969
 30
0.0
  0
SPLINE
  5
109
330
1F
100
AcDbEntity
  8
0
  6
Continuous
 62
     7
370
    25
100
AcDbSpline
210
0.0
220
0.0
230
1.0
 70
     8
 71
     3
 72
    10
 73
     6
 74
     0
 42
0.00000001
 43
0.00000001
 40
0.0
 40
0.0
 40
0.0
 40
0.0
 40
0.16017905529234
 40
0.719765170780548
 40
1.0
 40
1.0
 40
1.0
 40
1.0
 10
164.0526557626723
 20
77.47116361776969
 30
0.0
 10
164.051892972579
 20
77.47255584579607
 30
0.0
 10
164.0484653725053
 20
77.4788118275244
 30
0.0
 10
164.0629728373036
 20
77.45230456279648
 30
0.0
 10
164.0809023904214
 20
77.41974870765134
 30
0.0
 10
164.0868851957892
 20
77.40888533901997
 30
0.0
  0
SPLINE
  5
10A
330
1F
100
AcDbEntity
  8
0
  6
Continuous
 62
     7
370
    25
100
AcDbSpline
210
0.0
220
0.0
230
1.0
 70
     8
 71
     3
 72
    10
 73
     6
 74
     0
 42
0.00000001
 43
0.00000001
 40
0.0
 40
0.0
 40
0.0
 40
0.0
 40
0.1593935212992649
 40
0.7189934545689683
 40
1.0
 40
1.0
 40
1.0
 40
1.0
 10
159.976564995887
 20
77.47117741848642
 30
0.0
 10
159.9773265228845
 20
77.47256733731304
 30
0.0
 10
159.9807616244004
 20
77.47883699325997
 30
0.0
 10
159.9662670019339
 20
77.45235305143618
 30
0.0
 10
159.9483256314412
 20
77.4197756473893
 30
0.0
 10
159.9423280063096
 20
77.40888533901996
 30
0.0
  0
LINE
  5
10B
330
1F
100
AcDbEntity
  8
0
  6
Continuous
 62
     7
370
    25
100
AcDbLine
 10
159.264606601
 20
76.2382683301
 30
0.0
 11
159.264606601
 21
75.0994842623
 31
0.0
  0
SPLINE
  5
10C
330
1F
100
AcDbEntity
  8
0
  6
Continuous
 62
     7
370
    25
100
AcDbSpline
210
0.0
220
0.0
230
1.0
 70
     8
 71
     3
 72
     9
 73
     5
 74
     0
 42
0.00000001
 43
0.00000001
 40
0.0
 40
0.0
 40
0.0
 40
0.0
 40
0.5789479223840771
 40
1.0
 40
1.0
 40
1.0
 40
1.0
 10
159.9423280063096
 20
58.06765132116749
 30
0.0
 10
159.9546688966238
 20
58.04520995397512
 30
0.0
 10
159.9759849594977
 20
58.00644762955056
 30
0.0
 10
159.9763931334123
 20
58.00568172669121
 30
0.0
 10
159.976564995887
 20
58.00535924170103
 30
0.0
  0
LINE
  5
10D
330
1F
100
AcDbEntity
  8
0
  6
Continuous
 62
     7
370
    25
100
AcDbLine
 10
159.264606601
 20
60.3770523979
 30
0.0
 11
159.264606601
 21
59.2382683301
 31
0.0
  0
LINE
  5
10E
330
1F
100
AcDbEntity
  8
0
  6
Continuous
 62
     7
370
    25
100
AcDbLine
 10
180.5022109081
 20
58.0006640231
 30
0.0
 11
180.43522361
 21
58.0676513212
 31
0.0
  0
LINE
  5
10F
330
1F
100
AcDbEntity
  8
0
  6
Continuous
 62
     7
370
    25
100
AcDbLine
 10
161.0939895921
 20
58.0676513212
 30
0.0
 11
161.027002294
 21
58.0006640231
 31
0.0
  0
LINE
  5
110
330
1F
100
AcDbEntity
  8
0
  6
Continuous
 62
     7
370
    25
100
AcDbLine
 10
165.5255212684
 20
94.8382683301
 30
0.0
 11
165.5255212684
 21
94.2382683301
 31
0.0
  0
LINE
  5
111
330
1F
100
AcDbEntity
  8
0
  6
Continuous
 62
     7
370
    25
100
AcDbLine
 10
176.0036919337
 20
94.8382683301
 30
0.0
 11
165.5255212684
 21
94.8382683301
 31
0.0
  0
LINE
  5
112
330
1F
100
AcDbEntity
  8
0
  6
Continuous
 62
     7
370
    25
100
AcDbLine
 10
176.0036919337
 20
94.2382683301
 30
0.0
 11
176.0036919337
 21
94.8382683301
 31
0.0
  0
LINE
  5
113
330
1F
100
AcDbEntity
  8
0
  6
Continuous
 62
     7
370
    25
100
AcDbLine
 10
165.5255212684
 20
94.2382683301
 30
0.0
 11
176.0036919337
 21
94.2382683301
 31
0.0
  0
SPLINE
  5
114
330
1F
100
AcDbEntity
  8
0
  6
Continuous
 62
     7
370
    25
100
AcDbSpline
210
0.0
220
0.0
230
1.0
 70
     8
 71
     3
 72
    15
 73
    11
 74
     0
 42
0.00000001
 43
0.00000001
 40
0.0
 40
0.0
 40
0.0
 40
0.0
 40
0.0081667445812695
 40
0.3321939991490083
 40
0.4756279600585602
 40
0.6866830973284899
 40
0.8457435502264811
 40
0.8967566214763185
 40
0.9909540928118029
 40
1.0
 40
1.0
 40
1.0
 40
1.0
 10
165.6655870874566
 20
95.08826833009373
 30
0.0
 10
165.6650995533137
 20
95.08826565374795
 30
0.0
 10
165.6452684057816
 20
95.0881567895611
 30
0.0
 10
165.6169876257724
 20
95.07861077729171
 30
0.0
 10
165.5791583272836
 20
95.04124839403715
 30
0.0
 10
165.552574430716
 20
94.99638287930249
 30
0.0
 10
165.5354046069611
 20
94.93850657972558
 30
0.0
 10
165.5275876107446
 20
94.88783053975364
 30
0.0
 10
165.5255919243087
 20
94.85913626023364
 30
0.0
 10
165.525526960358
 20
94.83994942867814
 30
0.0
 10
165.5255212683913
 20
94.83826833009373
 30
0.0
  0
LINE
  5
115
330
1F
100
AcDbEntity
  8
0
  6
Continuous
 62
     7
370
    25
100
AcDbLine
 10
165.6655870875
 20
95.0882683301
 30
0.0
 11
175.8636261146
 21
95.0882683301
 31
0.0
  0
SPLINE
  5
116
330
1F
100
AcDbEntity
  8
0
  6
Continuous
 62
     7
370
    25
100
AcDbSpline
210
0.0
220
0.0
230
1.0
 70
     8
 71
     3
 72
    15
 73
    11
 74
     0
 42
0.00000001
 43
0.00000001
 40
0.0
 40
0.0
 40
0.0
 40
0.0
 40
0.0090459071881971
 40
0.1032433785236874
 40
0.1542564497735246
 40
0.313316902671511
 40
0.5243720399414428
 40
0.6678060008509903
 40
0.9918332554187292
 40
1.0
 40
1.0
 40
1.0
 40
1.0
 10
176.0036919337075
 20
94.83826833009373
 30
0.0
 10
176.0036862417408
 20
94.83994942867812
 30
0.0
 10
176.00362127779
 20
94.85913626023365
 30
0.0
 10
176.0016255913541
 20
94.88783053975365
 30
0.0
 10
175.9938085951377
 20
94.9385065797256
 30
0.0
 10
175.9766387713827
 20
94.99638287930247
 30
0.0
 10
175.9500548748152
 20
95.04124839403715
 30
0.0
 10
175.9122255763264
 20
95.0786107772917
 30
0.0
 10
175.8839447963171
 20
95.08815678956115
 30
0.0
 10
175.864113648785
 20
95.08826565374795
 30
0.0
 10
175.8636261146422
 20
95.08826833009373
 30
0.0
  0
LINE
  5
117
330
1F
100
AcDbEntity
  8
0
  6
Continuous
 62
     7
370
    25
100
AcDbLine
 10
176.0036919337
 20
94.8382683301
 30
0.0
 11
176.2418321761
 21
94.8382683301
 31
0.0
  0
SPLINE
  5
118
330
1F
100
AcDbEntity
  8
0
  6
Continuous
 62
     7
370
    25
100
AcDbSpline
210
0.0
220
0.0
230
1.0
 70
     8
 71
     3
 72
    15
 73
    11
 74
     0
 42
0.00000001
 43
0.00000001
 40
0.0
 40
0.0
 40
0.0
 40
0.0
 40
0.0080847466189818
 40
0.3310106400647567
 40
0.4750333064304972
 40
0.6874363079215137
 40
0.8468367539418253
 40
0.9000996640391794
 40
0.9910442771984082
 40
1.0
 40
1.0
 40
1.0
 40
1.0
 10
175.8636261146422
 20
95.08826833009373
 30
0.0
 10
175.8649059461863
 20
95.08826565368405
 30
0.0
 10
175.9173055919101
 20
95.08815607448224
 30
0.0
 10
175.9926606833645
 20
95.07847691964469
 30
0.0
 10
176.0945797953823
 20
95.04119509618295
 30
0.0
 10
176.1669707403742
 20
94.99648722299952
 30
0.0
 10
176.214676168639
 20
94.93835157286686
 30
0.0
 10
176.2362116523464
 20
94.88746449939856
 30
0.0
 10
176.2416406683659
 20
94.8587022702911
 30
0.0
 10
176.2418164205224
 20
94.83994945566663
 30
0.0
 10
176.241832176101
 20
94.83826833009373
 30
0.0
  0
LINE
  5
119
330
1F
100
AcDbEntity
  8
0
  6
Continuous
 62
     7
370
    25
100
AcDbLine
 10
165.287381026
 20
94.8382683301
 30
0.0
 11
165.5255212684
 21
94.8382683301
 31
0.0
  0
SPLINE
  5
11A
330
1F
100
AcDbEntity
  8
0
  6
Continuous
 62
     7
370
    25
100
AcDbSpline
210
0.0
220
0.0
230
1.0
 70
     8
 71
     3
 72
    15
 73
    11
 74
     0
 42
0.00000001
 43
0.00000001
 40
0.0
 40
0.0
 40
0.0
 40
0.0
 40
0.0089557228015919
 40
0.0999003359608148
 40
0.153163246058169
 40
0.3125636920784848
 40
0.5249666935694999
 40
0.6689893599352451
 40
0.9919152533810159
 40
1.0
 40
1.0
 40
1.0
 40
1.0
 10
165.2873810259977
 20
94.83826833009373
 30
0.0
 10
165.2873967815763
 20
94.83994945566663
 30
0.0
 10
165.2875725337329
 20
94.85870227029109
 30
0.0
 10
165.2930015497524
 20
94.88746449939855
 30
0.0
 10
165.3145370334597
 20
94.93835157286689
 30
0.0
 10
165.3622424617245
 20
94.99648722299952
 30
0.0
 10
165.4346334067164
 20
95.04119509618295
 30
0.0
 10
165.5365525187342
 20
95.0784769196447
 30
0.0
 10
165.6119076101887
 20
95.08815607448226
 30
0.0
 10
165.6643072559124
 20
95.08826565368403
 30
0.0
 10
165.6655870874566
 20
95.08826833009373
 30
0.0
  0
LINE
  5
11B
330
1F
100
AcDbEntity
  8
0
  6
Continuous
 62
     7
370
    25
100
AcDbLine
 10
176.2418321761
 20
94.8382683301
 30
0.0
 11
176.2418321761
 21
94.2382683301
 31
0.0
  0
LINE
  5
11C
330
1F
100
AcDbEntity
  8
0
  6
Continuous
 62
     7
370
    25
100
AcDbLine
 10
176.2418321761
 20
94.2382683301
 30
0.0
 11
176.0036919337
 21
94.2382683301
 31
0.0
  0
LINE
  5
11D
330
1F
100
AcDbEntity
  8
0
  6
Continuous
 62
     7
370
    25
100
AcDbLine
 10
165.287381026
 20
94.2382683301
 30
0.0
 11
165.287381026
 21
94.8382683301
 31
0.0
  0
LINE
  5
11E
330
1F
100
AcDbEntity
  8
0
  6
Continuous
 62
     7
370
    25
100
AcDbLine
 10
165.5255212684
 20
94.2382683301
 30
0.0
 11
165.287381026
 21
94.2382683301
 31
0.0
  0
LINE
  5
11F
330
1F
100
AcDbEntity
  8
0
  6
Continuous
 62
     7
370
    25
100
AcDbLine
 10
176.514606601
 20
94.2382683301
 30
0.0
 11
176.514606601
 21
94.8382683301
 31
0.0
  0
LINE
  5
120
330
1F
100
AcDbEntity
  8
0
  6
Continuous
 62
     7
370
    25
100
AcDbLine
 10
176.514606601
 20
94.8382683301
 30
0.0
 11
176.764606601
 21
94.8382683301
 31
0.0
  0
LINE
  5
121
330
1F
100
AcDbEntity
  8
0
  6
Continuous
 62
     7
370
    25
100
AcDbLine
 10
176.764606601
 20
94.8382683301
 30
0.0
 11
176.764606601
 21
94.2382683301
 31
0.0
  0
LINE
  5
122
330
1F
100
AcDbEntity
  8
0
  6
Continuous
 62
     7
370
    25
100
AcDbLine
 10
176.764606601
 20
94.2382683301
 30
0.0
 11
176.514606601
 21
94.2382683301
 31
0.0
  0
LINE
  5
123
330
1F
100
AcDbEntity
  8
0
  6
Continuous
 62
     7
370
    25
100
AcDbLine
 10
176.514606601
 20
94.8382683301
 30
0.0
 11
176.514606601
 21
95.0882683301
 31
0.0
  0
ARC
  5
124
330
1F
100
AcDbEntity
  8
0
  6
Continuous
 62
     7
370
    25
100
AcDbCircle
 10
176.514606601
 20
94.8382683301
 30
0.0
 40
0.25
100
AcDbArc
 50
0.0
 51
90.0
  0
LINE
  5
125
330
1F
100
AcDbEntity
  8
0
  6
Continuous
 62
     7
370
    25
100
AcDbLine
 10
176.514606601
 20
94.8382683301
 30
0.0
 11
176.2418321761
 21
94.8382683301
 31
0.0
  0
LINE
  5
126
330
1F
100
AcDbEntity
  8
0
  6
Continuous
 62
     7
370
    25
100
AcDbLine
 10
175.8636261146
 20
95.0882683301
 30
0.0
 11
176.514606601
 21
95.0882683301
 31
0.0
  0
LINE
  5
127
330
1F
100
AcDbEntity
  8
0
  6
Continuous
 62
     7
370
    25
100
AcDbLine
 10
176.514606601
 20
94.2382683301
 30
0.0
 11
176.2418321761
 21
94.2382683301
 31
0.0
  0
LINE
  5
128
330
1F
100
AcDbEntity
  8
0
  6
Continuous
 62
     7
370
    25
100
AcDbLine
 10
165.014606601
 20
95.0882683301
 30
0.0
 11
165.014606601
 21
94.8382683301
 31
0.0
  0
LINE
  5
129
330
1F
100
AcDbEntity
  8
0
  6
Continuous
 62
     7
370
    25
100
AcDbLine
 10
165.287381026
 20
94.8382683301
 30
0.0
 11
165.014606601
 21
94.8382683301
 31
0.0
  0
LINE
  5
12A
330
1F
100
AcDbEntity
  8
0
  6
Continuous
 62
     7
370
    25
100
AcDbLine
 10
165.014606601
 20
95.0882683301
 30
0.0
 11
165.6655870875
 21
95.0882683301
 31
0.0
  0
LINE
  5
12B
330
1F
100
AcDbEntity
  8
0
  6
Continuous
 62
     7
370
    25
100
AcDbLine
 10
165.014606601
 20
94.8382683301
 30
0.0
 11
165.014606601
 21
94.2382683301
 31
0.0
  0
LINE
  5
12C
330
1F
100
AcDbEntity
  8
0
  6
Continuous
 62
     7
370
    25
100
AcDbLine
 10
165.287381026
 20
94.2382683301
 30
0.0
 11
165.014606601
 21
94.2382683301
 31
0.0
  0
LINE
  5
12D
330
1F
100
AcDbEntity
  8
0
  6
Continuous
 62
     7
370
    25
100
AcDbLine
 10
164.764606601
 20
94.8382683301
 30
0.0
 11
165.014606601
 21
94.8382683301
 31
0.0
  0
ARC
  5
12E
330
1F
100
AcDbEntity
  8
0
  6
Continuous
 62
     7
370
    25
100
AcDbCircle
 10
165.014606601
 20
94.8382683301
 30
0.0
 40
0.25
100
AcDbArc
 50
90.0
 51
180.0
  0
LINE
  5
12F
330
1F
100
AcDbEntity
  8
0
  6
Continuous
 62
     7
370
    25
100
AcDbLine
 10
164.764606601
 20
94.2382683301
 30
0.0
 11
164.764606601
 21
94.8382683301
 31
0.0
  0
LINE
  5
130
330
1F
100
AcDbEntity
  8
0
  6
Continuous
 62
     7
370
    25
100
AcDbLine
 10
165.014606601
 20
94.2382683301
 30
0.0
 11
164.764606601
 21
94.2382683301
 31
0.0
  0
LINE
  5
131
330
1F
100
AcDbEntity
  8
0
  6
Continuous
 62
     7
370
    25
100
AcDbLine
 10
165.764606601
 20
95.0982683301
 30
0.0
 11
175.764606601
 21
95.0982683301
 31
0.0
  0
LINE
  5
132
330
1F
100
AcDbEntity
  8
0
  6
Continuous
 62
     7
370
    25
100
AcDbLine
 10
175.764606601
 20
95.0882683301
 30
0.0
 11
175.764606601
 21
95.0982683301
 31
0.0
  0
LINE
  5
133
330
1F
100
AcDbEntity
  8
0
  6
Continuous
 62
     7
370
    25
100
AcDbLine
 10
165.764606601
 20
95.0882683301
 30
0.0
 11
165.764606601
 21
95.0982683301
 31
0.0
  0
LINE
  5
134
330
1F
100
AcDbEntity
  8
0
  6
Continuous
 62
     7
370
    25
100
AcDbLine
 10
163.314606601
 20
86.2382683301
 30
0.0
 11
175.2391534851
 21
86.2382683301
 31
0.0
  0
LINE
  5
135
330
1F
100
AcDbEntity
  8
0
  6
Continuous
 62
     7
370
    25
100
AcDbLine
 10
175.9884087754
 20
94.2382683301
 30
0.0
 11
165.5255212684
 21
94.2382683301
 31
0.0
  0
LINE
  5
136
330
1F
100
AcDbEntity
  8
0
  6
Continuous
 62
     7
370
    25
100
AcDbLine
 10
177.7165474394
 20
87.2330119081
 30
0.0
 11
175.9884087754
 21
94.2382683301
 31
0.0
  0
LINE
  5
137
330
1F
100
AcDbEntity
  8
0
  6
Continuous
 62
     7
370
    25
100
AcDbLine
 10
175.2391534851
 20
86.2382683301
 30
0.0
 11
174.4789427294
 21
87.2330119081
 31
0.0
  0
LINE
  5
138
330
1F
100
AcDbEntity
  8
0
  6
Continuous
 62
     7
370
    25
100
AcDbLine
 10
172.764606601
 20
78.2382683301
 30
0.0
 11
172.7646066956
 21
78.276085208
 31
0.0
  0
LINE
  5
139
330
1F
100
AcDbEntity
  8
0
  6
Continuous
 62
     7
370
    25
100
AcDbLine
 10
163.764606601
 20
78.2382683301
 30
0.0
 11
172.764606601
 21
78.2382683301
 31
0.0
  0
SPLINE
  5
13A
330
1F
100
AcDbEntity
  8
0
  6
Continuous
 62
     7
370
    25
100
AcDbSpline
210
0.0
220
0.0
230
1.0
 70
     8
 71
     3
 72
    16
 73
    12
 74
     0
 42
0.00000001
 43
0.00000001
 40
0.0
 40
0.0
 40
0.0
 40
0.0
 40
0.0155634360124117
 40
0.0359329243097674
 40
0.0739120889290614
 40
0.1570057548437684
 40
0.2406581385754913
 40
0.4592958294318596
 40
0.6783839187935417
 40
0.8974954344294845
 40
1.0
 40
1.0
 40
1.0
 40
1.0
 10
172.9205518514765
 20
78.23826833009382
 30
0.0
 10
172.9629438407451
 20
78.24346170187297
 30
0.0
 10
173.0608186378347
 20
78.25545217974076
 30
0.0
 10
173.2342973088475
 20
78.37377810373772
 30
0.0
 10
173.4826309878502
 20
78.68502941118668
 30
0.0
 10
173.7370955298961
 20
79.21067691255172
 30
0.0
 10
174.0807749415872
 20
80.24922307682188
 30
0.0
 10
174.4619949608539
 20
81.684297119168
 30
0.0
 10
174.8120966168536
 20
83.52254922060743
 30
0.0
 10
175.0558884659418
 20
85.04373206942688
 30
0.0
 10
175.1948606610988
 20
85.94956411022339
 30
0.0
 10
175.2391534851315
 20
86.23826833009134
 30
0.0
  0
SPLINE
  5
13B
330
1F
100
AcDbEntity
  8
0
  6
Continuous
 62
     7
370
    25
100
AcDbSpline
210
0.0
220
0.0
230
1.0
 70
     8
 71
     3
 72
     9
 73
     5
 74
     0
 42
0.00000001
 43
0.00000001
 40
0.0
 40
0.0
 40
0.0
 40
0.0
 40
0.5124861829376838
 40
0.9999999999999999
 40
0.9999999999999999
 40
0.9999999999999999
 40
0.9999999999999999
 10
172.7646066955807
 20
78.27608520803393
 30
0.0
 10
172.7902491997526
 20
78.26505729508277
 30
0.0
 10
172.8402847031975
 20
78.24353883601336
 30
0.0
 10
172.8942453100559
 20
78.2399956716682
 30
0.0
 10
172.9205518514765
 20
78.23826833009382
 30
0.0
  0
LINE
  5
13C
330
1F
100
AcDbEntity
  8
0
  6
Continuous
 62
     7
370
    25
100
AcDbLine
 10
174.4789427294
 20
87.2330119081
 30
0.0
 11
192.9400434626
 21
87.2330119081
 31
0.0
  0
LINE
  5
13D
330
1F
100
AcDbEntity
  8
0
  6
Continuous
 62
     7
370
    25
100
AcDbLine
 10
192.9400434626
 20
87.2330119081
 30
0.0
 11
192.9400434626
 21
83.9904440231
 31
0.0
  0
SPLINE
  5
13E
330
1F
100
AcDbEntity
  8
0
  6
Continuous
 62
     7
370
    25
100
AcDbSpline
210
0.0
220
0.0
230
1.0
 70
     8
 71
     3
 72
     9
 73
     5
 74
     0
 42
0.00000001
 43
0.00000001
 40
0.0
 40
0.0
 40
0.0
 40
0.0
 40
0.4977232396629077
 40
1.0
 40
1.0
 40
1.0
 40
1.0
 10
185.8696498403423
 20
82.66724352208375
 30
0.0
 10
187.0269710722763
 20
82.9568359227079
 30
0.0
 10
189.3522015210651
 20
83.53867011799338
 30
0.0
 10
191.7404711370551
 20
83.83939626713152
 30
0.0
 10
192.940043462586
 20
83.99044402306927
 30
0.0
  0
LINE
  5
13F
330
1F
100
AcDbEntity
  8
0
  6
Continuous
 62
     7
370
    25
100
AcDbLine
 10
185.8696498403
 20
82.6672435221
 30
0.0
 11
180.0898929905
 21
81.0986220816
 31
0.0
  0
SPLINE
  5
140
330
1F
100
AcDbEntity
  8
0
  6
Continuous
 62
     7
370
    25
100
AcDbSpline
210
0.0
220
0.0
230
1.0
 70
     8
 71
     3
 72
    13
 73
     9
 74
     0
 42
0.00000001
 43
0.00000001
 40
0.0
 40
0.0
 40
0.0
 40
0.0
 40
0.1610294006389558
 40
0.3266880383557516
 40
0.4877296220820637
 40
0.6535536198224136
 40
0.8237602734841889
 40
1.0
 40
1.0
 40
1.0
 40
1.0
 10
180.089892990487
 20
81.09862208160088
 30
0.0
 10
179.8760229364559
 20
81.02922518702363
 30
0.0
 10
179.4421345400685
 20
80.88843639151507
 30
0.0
 10
178.8508137914029
 20
80.54231157380744
 30
0.0
 10
178.3168824425522
 20
80.10310493075539
 30
0.0
 10
177.8631984707491
 20
79.5695030938158
 30
0.0
 10
177.4887447577636
 20
78.94567678711611
 30
0.0
 10
177.3401816870048
 20
78.47679288891413
 30
0.0
 10
177.2646066010494
 20
78.23826833009372
 30
0.0
  0
LINE
  5
141
330
1F
100
AcDbEntity
  8
0
  6
Continuous
 62
     7
370
    25
100
AcDbLine
 10
177.264606601
 20
78.2382683301
 30
0.0
 11
172.9205518515
 21
78.2382683301
 31
0.0
  0
LINE
  5
142
330
1F
100
AcDbEntity
  8
0
  6
Continuous
 62
     7
370
    25
100
AcDbLine
 10
172.771405959
 20
78.2382683301
 30
0.0
 11
172.7646066956
 21
78.276085208
 31
0.0
  0
LINE
  5
143
330
1F
100
AcDbEntity
  8
0
  6
Continuous
 62
     7
370
    25
100
AcDbLine
 10
172.764606601
 20
78.2382683301
 30
0.0
 11
172.771405959
 21
78.2382683301
 31
0.0
  0
LINE
  5
144
330
1F
100
AcDbEntity
  8
0
  6
Continuous
 62
     7
370
    25
100
AcDbLine
 10
172.9205518515
 20
78.2382683301
 30
0.0
 11
172.771405959
 21
78.2382683301
 31
0.0
  0
LINE
  5
145
330
1F
100
AcDbEntity
  8
0
  6
Continuous
 62
     7
370
    25
100
AcDbLine
 10
192.9400434626
 20
87.2330119081
 30
0.0
 11
192.9400434626
 21
96.2382683301
 31
0.0
  0
LINE
  5
146
330
1F
100
AcDbEntity
  8
0
  6
Continuous
 62
     7
370
    25
100
AcDbLine
 10
192.9400434626
 20
96.2382683301
 30
0.0
 11
210.764606601
 21
96.2382683301
 31
0.0
  0
LINE
  5
147
330
1F
100
AcDbEntity
  8
0
  6
Continuous
 62
     7
370
    25
100
AcDbLine
 10
210.764606601
 20
96.2382683301
 30
0.0
 11
210.764606601
 21
89.2382683301
 31
0.0
  0
ARC
  5
148
330
1F
100
AcDbEntity
  8
0
  6
Continuous
 62
     7
370
    25
100
AcDbCircle
 10
205.764606601
 20
89.2382683301
 30
0.0
 40
5.0
100
AcDbArc
 50
270.0
 51
0.0
  0
LINE
  5
149
330
1F
100
AcDbEntity
  8
0
  6
Continuous
 62
     7
370
    25
100
AcDbLine
 10
205.764606601
 20
84.2382683301
 30
0.0
 11
197.6562744588
 21
84.2382683301
 31
0.0
  0
ARC
  5
14A
330
1F
100
AcDbEntity
  8
0
  6
Continuous
 62
     7
370
    25
100
AcDbCircle
 10
197.6562744588
 20
39.2381390759
 30
0.0
 40
45.00012925418374
100
AcDbArc
 50
90.0
 51
96.0159222295
  0
ARC
  5
14B
330
1F
100
AcDbEntity
  8
0
  6
Continuous
 62
     7
370
    25
100
AcDbCircle
 10
185.1535601653
 20
98.2382683301
 30
0.0
 40
10.00000000000848
100
AcDbArc
 50
203.5781784783
 51
264.4198332155
  0
ARC
  5
14C
330
1F
100
AcDbEntity
  8
0
  6
Continuous
 62
     7
370
    25
100
AcDbCircle
 10
184.764606601
 20
94.2572238535
 30
0.0
 40
6.000000000000003
100
AcDbArc
 50
264.4198332155
 51
0.0
  0
LINE
  5
14D
330
1F
100
AcDbEntity
  8
0
  6
Continuous
 62
     7
370
    25
100
AcDbLine
 10
190.764606601
 20
96.2382683301
 30
0.0
 11
190.764606601
 21
94.2572238535
 31
0.0
  0
LINE
  5
14E
330
1F
100
AcDbEntity
  8
0
  6
Continuous
 62
     7
370
    25
100
AcDbLine
 10
190.764606601
 20
96.2382683301
 30
0.0
 11
192.9400434626
 21
96.2382683301
 31
0.0
  0
LINE
  5
14F
330
1F
100
AcDbEntity
  8
0
  6
Continuous
 62
     7
370
    25
100
AcDbLine
 10
177.764606601
 20
78.2382683301
 30
0.0
 11
177.264606601
 21
78.2382683301
 31
0.0
  0
LINE
  5
150
330
1F
100
AcDbEntity
  8
0
  6
Continuous
 62
     7
370
    25
100
AcDbLine
 10
175.9884087754
 20
94.2382683301
 30
0.0
 11
176.0036919337
 21
94.2382683301
 31
0.0
  0
SPLINE
  5
151
330
1F
100
AcDbEntity
  8
0
  6
Continuous
 62
     7
370
    25
100
AcDbSpline
210
0.0
220
0.0
230
1.0
 70
     8
 71
     3
 72
    30
 73
    26
 74
     0
 42
0.00000001
 43
0.00000001
 40
0.0
 40
0.0
 40
0.0
 40
0.0
 40
0.0110312605092291
 40
0.0532775699682471
 40
0.0955510180133119
 40
0.1522052138334564
 40
0.2089590803224979
 40
0.2161885731219333
 40
0.2769245614838428
 40
0.3376597760883073
 40
0.3847631954329242
 40
0.4317718587320483
 40
0.4687705641895082
 40
0.5057305300598964
 40
0.5426484174208718
 40
0.5796153820213269
 40
0.6291504038906836
 40
0.6787771773095185
 40
0.7318127198938905
 40
0.7848395790907828
 40
0.8294784276861025
 40
0.8740824762286619
 40
0.9165627641843819
 40
0.9590080437234796
 40
1.0
 40
1.0
 40
1.0
 40
1.0
 10
164.8646066010494
 20
77.23826833009373
 30
0.0
 10
164.8654306483956
 20
77.23757049819602
 30
0.0
 10
164.8694105417278
 20
77.23420018636942
 30
0.0
 10
164.940192250657
 20
77.17385054276409
 30
0.0
 10
165.1614809807563
 20
76.98832044710616
 30
0.0
 10
165.5520439961528
 20
76.66777450216452
 30
0.0
 10
165.955286082239
 20
76.35409759862418
 30
0.0
 10
166.4221003213279
 20
76.00770831073427
 30
0.0
 10
166.9577281554059
 20
75.62728336373084
 30
0.0
 10
167.7734785334084
 20
75.12925981347017
 30
0.0
 10
168.6150383391729
 20
74.71714194039637
 30
0.0
 10
169.3984452577996
 20
74.44014282418128
 30
0.0
 10
170.1714301349044
 20
74.28872567171945
 30
0.0
 10
170.9020204391796
 20
74.25057620118362
 30
0.0
 10
171.6267429016377
 20
74.32990809762413
 30
0.0
 10
172.4001124913451
 20
74.52241128087498
 30
0.0
 10
173.1905074600976
 20
74.83957087379642
 30
0.0
 10
173.9873114167646
 20
75.26484891241451
 30
0.0
 10
174.7146808677191
 20
75.72731160619732
 30
0.0
 10
175.3288783058309
 20
76.1677178765735
 30
0.0
 10
175.8223631400642
 20
76.54619956957893
 30
0.0
 10
176.1973375507599
 20
76.84789102415424
 30
0.0
 10
176.4678612954174
 20
77.07176381635348
 30
0.0
 10
176.6390373782389
 20
77.21655289928401
 30
0.0
 10
176.6544490755024
 20
77.22956863298694
 30
0.0
 10
176.662020702417
 20
77.23596314476146
 30
0.0
  0
LINE
  5
152
330
1F
100
AcDbEntity
  8
0
  6
Continuous
 62
     7
370
    18
100
AcDbLine
 10
163.0106662709
 20
55.2382683301
 30
0.0
 11
163.3309435708
 21
44.9893947319
 31
0.0
  0
LINE
  5
153
330
1F
100
AcDbEntity
  8
0
  6
Continuous
 62
     7
370
    18
100
AcDbLine
 10
178.1982696313
 20
44.9893947319
 30
0.0
 11
178.5185469312
 21
55.2382683301
 31
0.0
  0
LINE
  5
154
330
1F
100
AcDbEntity
  8
0
  6
Continuous
 62
     7
370
    18
100
AcDbLine
 10
156.264606601
 20
75.2132683301
 30
0.0
 11
146.408606601
 21
75.2132683301
 31
0.0
  0
LINE
  5
155
330
1F
100
AcDbEntity
  8
0
  6
Continuous
 62
     7
370
    18
100
AcDbLine
 10
146.408606601
 20
60.2632683301
 30
0.0
 11
156.264606601
 21
60.2632683301
 31
0.0
  0
LINE
  5
156
330
1F
100
AcDbEntity
  8
0
  6
Continuous
 62
     7
370
    25
100
AcDbLine
 10
156.264606601
 20
76.0692683301
 30
0.0
 11
156.264606601
 21
76.0585755513
 31
0.0
  0
SPLINE
  5
157
330
1F
100
AcDbEntity
  8
0
  6
Continuous
 62
     7
370
     0
100
AcDbSpline
210
0.0
220
0.0
230
1.0
 70
     8
 71
     3
 72
    38
 73
    34
 74
     0
 42
0.00000001
 43
0.00000001
 40
0.0
 40
0.0
 40
0.0
 40
0.0
 40
0.0327867127861941
 40
0.0655734254808329
 40
0.0983601381754717
 40
0.1311468508701105
 40
0.1639335635647492
 40
0.1967202762593882
 40
0.2295069889540272
 40
0.2622937016486659
 40
0.2950804143433045
 40
0.3278671270379432
 40
0.3606538397325825
 40
0.3934405524272214
 40
0.4262272651218599
 40
0.4590139778164989
 40
0.4918006905111376
 40
0.5245874032057762
 40
0.5573741159004152
 40
0.5901608285950539
 40
0.6229475412896929
 40
0.6557342539843318
 40
0.6885209666789703
 40
0.7213076793736093
 40
0.7540943920682481
 40
0.7868811047628869
 40
0.8196678174575257
 40
0.8524545301521645
 40
0.8852412428468033
 40
0.9180279555414421
 40
0.9508146682360811
 40
0.9836013809307199
 40
1.0
 40
1.0
 40
1.0
 40
1.0
 10
156.2645435333252
 20
76.05857555133578
 30
0.0
 10
156.2646066010493
 20
75.97319794007122
 30
0.0
 10
156.2646066010493
 20
75.80331880736807
 30
0.0
 10
156.2646066010493
 20
75.55068134301105
 30
0.0
 10
156.2646066010493
 20
75.21787794925757
 30
0.0
 10
156.2646066010493
 20
74.80832363928248
 30
0.0
 10
156.2646066010493
 20
74.32622099452168
 30
0.0
 10
156.2646066010493
 20
73.7765170404995
 30
0.0
 10
156.2646066010493
 20
73.16485248365252
 30
0.0
 10
156.2646066010493
 20
72.49750383004842
 30
0.0
 10
156.2646066010493
 20
71.78131897994012
 30
0.0
 10
156.2646066010493
 20
71.02364695904274
 30
0.0
 10
156.2646066010493
 20
70.23226250758471
 30
0.0
 10
156.2646066010493
 20
69.4152863009523
 30
0.0
 10
156.2646066010493
 20
68.58110162057096
 30
0.0
 10
156.2646066010493
 20
67.73826833009366
 30
0.0
 10
156.2646066010493
 20
66.89543503961637
 30
0.0
 10
156.2646066010493
 20
66.06125035923503
 30
0.0
 10
156.2646066010493
 20
65.24427415260261
 30
0.0
 10
156.2646066010493
 20
64.4528897011446
 30
0.0
 10
156.2646066010493
 20
63.69521768024722
 30
0.0
 10
156.2646066010493
 20
62.97903283013895
 30
0.0
 10
156.2646066010493
 20
62.31168417653483
 30
0.0
 10
156.2646066010493
 20
61.70001961968786
 30
0.0
 10
156.2646066010493
 20
61.1503156656657
 30
0.0
 10
156.2646066010493
 20
60.6682130209049
 30
0.0
 10
156.2646066010493
 20
60.25865871092983
 30
0.0
 10
156.2646066010493
 20
59.92585531717636
 30
0.0
 10
156.2646066010493
 20
59.67321785281934
 30
0.0
 10
156.2646066010493
 20
59.5033387201162
 30
0.0
 10
156.2646066010493
 20
59.41796110885166
 30
0.0
 10
156.2646066010493
 20
59.40726833009371
 30
0.0
 10
156.2646066010493
 20
59.40942656320128
 30
0.0
 10
156.2646066010493
 20
59.40726833009371
 30
0.0
  0
LINE
  5
158
330
1F
100
AcDbEntity
  8
0
  6
CENTERX2
 62
     7
370
    18
100
AcDbLine
 10
145.264606601
 20
67.7382683301
 30
0.0
 11
184.7714525399
 21
67.7382683301
 31
0.0
  0
LINE
  5
159
330
1F
100
AcDbEntity
  8
0
  6
CENTERX2
 62
     7
370
    18
100
AcDbLine
 10
170.764606601
 20
96.6964607764
 30
0.0
 11
170.764606601
 21
42.2375387494
 31
0.0
  0
LINE
  5
15A
330
1F
100
AcDbEntity
  8
0
  6
Continuous
 62
     7
370
    25
100
AcDbLine
 10
236.0693061997
 20
55.7429232166
 30
0.0
 11
236.0773686997
 21
55.7382683301
 31
0.0
  0
LINE
  5
15B
330
1F
100
AcDbEntity
  8
0
  6
Continuous
 62
     7
370
    25
100
AcDbLine
 10
236.0773686997
 20
55.7382683301
 30
0.0
 11
236.3719340299
 21
46.3121777638
 31
0.0
  0
LINE
  5
15C
330
1F
100
AcDbEntity
  8
0
  6
Continuous
 62
     7
370
    25
100
AcDbLine
 10
252.7666783695
 20
46.3121777638
 30
0.0
 11
253.0612436997
 21
55.7382683301
 31
0.0
  0
LINE
  5
15D
330
1F
100
AcDbEntity
  8
0
  6
Continuous
 62
     7
370
    25
100
AcDbLine
 10
236.3719340299
 20
46.3121777638
 30
0.0
 11
237.5693061997
 21
44.2382683301
 31
0.0
  0
LINE
  5
15E
330
1F
100
AcDbEntity
  8
0
  6
Continuous
 62
     7
370
    25
100
AcDbLine
 10
251.5693061997
 20
44.2382683301
 30
0.0
 11
252.7666783695
 21
46.3121777638
 31
0.0
  0
LINE
  5
15F
330
1F
100
AcDbEntity
  8
0
  6
Continuous
 62
     7
370
    25
100
AcDbLine
 10
250.4693061997
 20
74.2714945833
 30
0.0
 11
250.4693061997
 21
78.2382683301
 31
0.0
  0
LINE
  5
160
330
1F
100
AcDbEntity
  8
0
  6
Continuous
 62
     7
370
    25
100
AcDbLine
 10
238.6693061997
 20
78.2382683301
 30
0.0
 11
238.6693061997
 21
74.276796994
 31
0.0
  0
ARC
  5
161
330
1F
100
AcDbEntity
  8
0
  6
Continuous
 62
     7
370
    25
100
AcDbCircle
 10
249.8193061997
 20
94.8382683301
 30
0.0
 40
0.25
100
AcDbArc
 50
0.0
 51
90.0
  0
ARC
  5
162
330
1F
100
AcDbEntity
  8
0
  6
Continuous
 62
     7
370
    25
100
AcDbCircle
 10
239.3193061997
 20
94.8382683301
 30
0.0
 40
0.25
100
AcDbArc
 50
90.0
 51
180.0
  0
LINE
  5
163
330
1F
100
AcDbEntity
  8
0
  6
Continuous
 62
     7
370
    25
100
AcDbLine
 10
239.0693061997
 20
94.8382683301
 30
0.0
 11
239.0693061997
 21
94.2382683301
 31
0.0
  0
LINE
  5
164
330
1F
100
AcDbEntity
  8
0
  6
Continuous
 62
     7
370
    25
100
AcDbLine
 10
250.0693061997
 20
94.2382683301
 30
0.0
 11
250.0693061997
 21
94.8382683301
 31
0.0
  0
LINE
  5
165
330
1F
100
AcDbEntity
  8
0
  6
Continuous
 62
     7
370
    25
100
AcDbLine
 10
252.0193061997
 20
86.2382683301
 30
0.0
 11
250.0693061997
 21
94.2382683301
 31
0.0
  0
LINE
  5
166
330
1F
100
AcDbEntity
  8
0
  6
Continuous
 62
     7
370
    25
100
AcDbLine
 10
239.0693061997
 20
94.2382683301
 30
0.0
 11
237.1193061997
 21
86.2382683301
 31
0.0
  0
LINE
  5
167
330
1F
100
AcDbEntity
  8
0
  6
Continuous
 62
     7
370
    25
100
AcDbLine
 10
237.1193061997
 20
86.2382683301
 30
0.0
 11
237.5693061997
 21
78.2382683301
 31
0.0
  0
LINE
  5
168
330
1F
100
AcDbEntity
  8
0
  6
Continuous
 62
     7
370
    25
100
AcDbLine
 10
251.5693061997
 20
78.2382683301
 30
0.0
 11
252.0193061997
 21
86.2382683301
 31
0.0
  0
CIRCLE
  5
169
330
1F
100
AcDbEntity
  8
0
  6
Continuous
 62
     7
370
    25
100
AcDbCircle
 10
244.5693061997
 20
67.7382683301
 30
0.0
 40
8.25
  0
SPLINE
  5
16A
330
1F
100
AcDbEntity
  8
0
  6
Continuous
 62
     7
370
    25
100
AcDbSpline
210
0.0
220
0.0
230
1.0
 70
     8
 71
     3
 72
    10
 73
     6
 74
     0
 42
0.00000001
 43
0.00000001
 40
0.0
 40
0.0
 40
0.0
 40
0.0
 40
0.5
 40
0.5
 40
1.0
 40
1.0
 40
1.0
 40
1.0
 10
236.0693061996695
 20
63.11946617657671
 30
0.0
 10
236.0693061996695
 20
63.03357911477426
 30
0.0
 10
236.0920986489993
 20
62.94617190579412
 30
0.0
 10
236.1800413530924
 20
62.79353546320039
 30
0.0
 10
236.2448991267663
 20
62.7294124182548
 30
0.0
 10
236.3193061996695
 20
62.68645347468449
 30
0.0
  0
SPLINE
  5
16B
330
1F
100
AcDbEntity
  8
0
  6
Continuous
 62
     7
370
    25
100
AcDbSpline
210
0.0
220
0.0
230
1.0
 70
    24
 71
     3
 72
    14
 73
    10
 74
     0
 42
0.00000001
 43
0.00000001
 40
0.0
 40
0.0
 40
0.0
 40
0.0
 40
0.25
 40
0.25
 40
0.5
 40
0.5
 40
0.75
 40
0.75
 40
1.0
 40
1.0
 40
1.0
 40
1.0
 10
236.0693061996695
 20
63.11946617657667
 30
0.0
 10
236.0693061996695
 20
63.87384623722665
 30
0.0
 10
236.0693061996695
 20
64.64328740469215
 30
0.0
 10
236.0693061996695
 20
66.18379876563331
 30
0.0
 10
236.0693061996695
 20
66.95865314564033
 30
0.0
 10
236.0693061996695
 20
68.51901410052588
 30
0.0
 10
236.0693061996695
 20
69.30947029331091
 30
0.0
 10
236.0693061996695
 20
70.85174995611938
 30
0.0
 10
236.0693061996695
 20
71.60914070932057
 30
0.0
 10
236.0693061996695
 20
72.35707048361073
 30
0.0
  0
SPLINE
  5
16C
330
1F
100
AcDbEntity
  8
0
  6
Continuous
 62
     7
370
    25
100
AcDbSpline
210
0.0
220
0.0
230
1.0
 70
     8
 71
     3
 72
    10
 73
     6
 74
     0
 42
0.00000001
 43
0.00000001
 40
0.0
 40
0.0
 40
0.0
 40
0.0
 40
0.5
 40
0.5
 40
1.0
 40
1.0
 40
1.0
 40
1.0
 10
236.3193061996695
 20
72.79008318550295
 30
0.0
 10
236.2449258222922
 20
72.74713965460172
 30
0.0
 10
236.1806251835064
 20
72.6836972099776
 30
0.0
 10
236.0924094987235
 20
72.53121837285863
 30
0.0
 10
236.0693061996695
 20
72.44298837075137
 30
0.0
 10
236.0693061996695
 20
72.35707048361073
 30
0.0
  0
SPLINE
  5
16D
330
1F
100
AcDbEntity
  8
0
  6
Continuous
 62
     7
370
    25
100
AcDbSpline
210
0.0
220
0.0
230
1.0
 70
    24
 71
     3
 72
    16
 73
    12
 74
     0
 42
0.00000001
 43
0.00000001
 40
0.0
 40
0.0
 40
0.0
 40
0.0
 40
0.2500000000000001
 40
0.2500000000000001
 40
0.5000000000000001
 40
0.5000000000000001
 40
0.6250000000000001
 40
0.6250000000000001
 40
0.7500000000000002
 40
0.7500000000000002
 40
1.0
 40
1.0
 40
1.0
 40
1.0
 10
244.3193061996695
 20
77.40888533901996
 30
0.0
 10
243.6657894196287
 20
77.03157725014347
 30
0.0
 10
243.0075690105387
 20
76.65155351976925
 30
0.0
 10
241.6780064271729
 20
75.88393020435856
 30
0.0
 10
241.0065824451024
 20
75.49628338756976
 30
0.0
 10
239.9875813580957
 20
74.90796283568191
 30
0.0
 10
239.6462405757795
 20
74.71088964312628
 30
0.0
 10
238.9706420728091
 20
74.32083266557217
 30
0.0
 10
238.6349829228444
 20
74.12703976498413
 30
0.0
 10
237.6337172863447
 20
73.5489587802207
 30
0.0
 10
236.9738096277416
 20
73.16796091588589
 30
0.0
 10
236.3193061996695
 20
72.79008318550295
 30
0.0
  0
SPLINE
  5
16E
330
1F
100
AcDbEntity
  8
0
  6
Continuous
 62
     7
370
    25
100
AcDbSpline
210
0.0
220
0.0
230
1.0
 70
     8
 71
     3
 72
    10
 73
     6
 74
     0
 42
0.00000001
 43
0.00000001
 40
0.0
 40
0.0
 40
0.0
 40
0.0
 40
0.5
 40
0.5
 40
1.0
 40
1.0
 40
1.0
 40
1.0
 10
244.8193061996695
 20
77.40888533901996
 30
0.0
 10
244.7449258222922
 20
77.45182886992119
 30
0.0
 10
244.6578327341766
 20
77.47579363427717
 30
0.0
 10
244.4816743453006
 20
77.47595123975195
 30
0.0
 10
244.3937132725728
 20
77.45184428259027
 30
0.0
 10
244.3193061996695
 20
77.40888533901996
 30
0.0
  0
SPLINE
  5
16F
330
1F
100
AcDbEntity
  8
0
  6
Continuous
 62
     7
370
    25
100
AcDbSpline
210
0.0
220
0.0
230
1.0
 70
    24
 71
     3
 72
    16
 73
    12
 74
     0
 42
0.00000001
 43
0.00000001
 40
0.0
 40
0.0
 40
0.0
 40
0.0
 40
0.2499999999999997
 40
0.2499999999999997
 40
0.4999999999999993
 40
0.4999999999999993
 40
0.6249999999999993
 40
0.6249999999999993
 40
0.7499999999999996
 40
0.7499999999999996
 40
1.0
 40
1.0
 40
1.0
 40
1.0
 10
252.8193061996695
 20
72.79008318550295
 30
0.0
 10
252.1657894196287
 20
73.16739127437945
 30
0.0
 10
251.5075690105387
 20
73.54741500475365
 30
0.0
 10
250.1780064271729
 20
74.31503832016433
 30
0.0
 10
249.5065824451024
 20
74.70268513695315
 30
0.0
 10
248.4875813580957
 20
75.291005688841
 30
0.0
 10
248.1462405757795
 20
75.48807888139663
 30
0.0
 10
247.4706420728091
 20
75.87813585895074
 30
0.0
 10
247.1349829228444
 20
76.07192875953878
 30
0.0
 10
246.1337172863447
 20
76.65000974430221
 30
0.0
 10
245.4738096277416
 20
77.03100760863703
 30
0.0
 10
244.8193061996695
 20
77.40888533901996
 30
0.0
  0
SPLINE
  5
170
330
1F
100
AcDbEntity
  8
0
  6
Continuous
 62
     7
370
    25
100
AcDbSpline
210
0.0
220
0.0
230
1.0
 70
     8
 71
     3
 72
    10
 73
     6
 74
     0
 42
0.00000001
 43
0.00000001
 40
0.0
 40
0.0
 40
0.0
 40
0.0
 40
0.5
 40
0.5
 40
1.0
 40
1.0
 40
1.0
 40
1.0
 10
253.0693061996695
 20
72.35707048361073
 30
0.0
 10
253.0693061996695
 20
72.4429575454132
 30
0.0
 10
253.0465137503397
 20
72.5303647543933
 30
0.0
 10
252.9585710462466
 20
72.68300119698705
 30
0.0
 10
252.8937132725728
 20
72.74712424193264
 30
0.0
 10
252.8193061996695
 20
72.79008318550295
 30
0.0
  0
SPLINE
  5
171
330
1F
100
AcDbEntity
  8
0
  6
Continuous
 62
     7
370
    25
100
AcDbSpline
210
0.0
220
0.0
230
1.0
 70
    24
 71
     3
 72
    14
 73
    10
 74
     0
 42
0.00000001
 43
0.00000001
 40
0.0
 40
0.0
 40
0.0
 40
0.0
 40
0.25
 40
0.25
 40
0.5
 40
0.5
 40
0.75
 40
0.75
 40
1.0
 40
1.0
 40
1.0
 40
1.0
 10
253.0693061996695
 20
63.11946617657666
 30
0.0
 10
253.0693061996695
 20
63.87384623722664
 30
0.0
 10
253.0693061996695
 20
64.64328740469213
 30
0.0
 10
253.0693061996695
 20
66.18379876563331
 30
0.0
 10
253.0693061996695
 20
66.95865314564033
 30
0.0
 10
253.0693061996695
 20
68.51901410052588
 30
0.0
 10
253.0693061996695
 20
69.30947029331091
 30
0.0
 10
253.0693061996695
 20
70.85174995611938
 30
0.0
 10
253.0693061996695
 20
71.60914070932056
 30
0.0
 10
253.0693061996695
 20
72.35707048361073
 30
0.0
  0
SPLINE
  5
172
330
1F
100
AcDbEntity
  8
0
  6
Continuous
 62
     7
370
    25
100
AcDbSpline
210
0.0
220
0.0
230
1.0
 70
     8
 71
     3
 72
    10
 73
     6
 74
     0
 42
0.00000001
 43
0.00000001
 40
0.0
 40
0.0
 40
0.0
 40
0.0
 40
0.5
 40
0.5
 40
1.0
 40
1.0
 40
1.0
 40
1.0
 10
252.8193061996695
 20
62.68645347468449
 30
0.0
 10
252.8936865770467
 20
62.72939700558562
 30
0.0
 10
252.9579872158322
 20
62.7928394502093
 30
0.0
 10
253.0462029006155
 20
62.94531828732843
 30
0.0
 10
253.0693061996695
 20
63.0335482894359
 30
0.0
 10
253.0693061996695
 20
63.11946617657668
 30
0.0
  0
SPLINE
  5
173
330
1F
100
AcDbEntity
  8
0
  6
Continuous
 62
     7
370
    25
100
AcDbSpline
210
0.0
220
0.0
230
1.0
 70
    24
 71
     3
 72
    16
 73
    12
 74
     0
 42
0.00000001
 43
0.00000001
 40
0.0
 40
0.0
 40
0.0
 40
0.0
 40
0.2500000000000002
 40
0.2500000000000002
 40
0.5000000000000004
 40
0.5000000000000004
 40
0.6250000000000003
 40
0.6250000000000003
 40
0.7500000000000002
 40
0.7500000000000002
 40
1.0
 40
1.0
 40
1.0
 40
1.0
 10
244.8193061996695
 20
58.06765132116749
 30
0.0
 10
245.4728229797103
 20
58.44495941004396
 30
0.0
 10
246.1310433888002
 20
58.82498314041813
 30
0.0
 10
247.4606059721659
 20
59.59260645582877
 30
0.0
 10
248.1320299542364
 20
59.98025327261754
 30
0.0
 10
249.151031041243
 20
60.56857382450533
 30
0.0
 10
249.4923718235592
 20
60.76564701706096
 30
0.0
 10
250.1679703265296
 20
61.15570399461504
 30
0.0
 10
250.5036294764942
 20
61.34949689520306
 30
0.0
 10
251.5048951129938
 20
61.92757787996644
 30
0.0
 10
252.1648027715969
 20
62.30857574430124
 30
0.0
 10
252.8193061996689
 20
62.68645347468414
 30
0.0
  0
SPLINE
  5
174
330
1F
100
AcDbEntity
  8
0
  6
Continuous
 62
     7
370
    25
100
AcDbSpline
210
0.0
220
0.0
230
1.0
 70
     8
 71
     3
 72
    10
 73
     6
 74
     0
 42
0.00000001
 43
0.00000001
 40
0.0
 40
0.0
 40
0.0
 40
0.0
 40
0.5
 40
0.5
 40
1.0
 40
1.0
 40
1.0
 40
1.0
 10
244.3193061996695
 20
58.06765132116749
 30
0.0
 10
244.3936865770469
 20
58.02470779026626
 30
0.0
 10
244.4807796651624
 20
58.00074302591027
 30
0.0
 10
244.6569380540384
 20
58.00058542043549
 30
0.0
 10
244.7448991267663
 20
58.02469237759718
 30
0.0
 10
244.8193061996695
 20
58.06765132116749
 30
0.0
  0
SPLINE
  5
175
330
1F
100
AcDbEntity
  8
0
  6
Continuous
 62
     7
370
    25
100
AcDbSpline
210
0.0
220
0.0
230
1.0
 70
    24
 71
     3
 72
    16
 73
    12
 74
     0
 42
0.00000001
 43
0.00000001
 40
0.0
 40
0.0
 40
0.0
 40
0.0
 40
0.2500000000000001
 40
0.2500000000000001
 40
0.5000000000000002
 40
0.5000000000000002
 40
0.6250000000000001
 40
0.6250000000000001
 40
0.7500000000000001
 40
0.7500000000000001
 40
1.0
 40
1.0
 40
1.0
 40
1.0
 10
236.3193061996695
 20
62.68645347468449
 30
0.0
 10
236.9728229797103
 20
62.309145385808
 30
0.0
 10
237.6310433888003
 20
61.9291216554338
 30
0.0
 10
238.9606059721661
 20
61.1614983400231
 30
0.0
 10
239.6320299542366
 20
60.77385152323431
 30
0.0
 10
240.6510310412434
 20
60.18553097134645
 30
0.0
 10
240.9923718235595
 20
59.9884577787908
 30
0.0
 10
241.66797032653
 20
59.59840080123671
 30
0.0
 10
242.0036294764946
 20
59.40460790064867
 30
0.0
 10
243.0048951129943
 20
58.82652691588525
 30
0.0
 10
243.6648027715975
 20
58.44552905155042
 30
0.0
 10
244.3193061996695
 20
58.06765132116749
 30
0.0
  0
LINE
  5
176
330
1F
100
AcDbEntity
  8
0
  6
Continuous
 62
     7
370
    25
100
AcDbLine
 10
244.3193061997
 20
56.4206446219
 30
0.0
 11
244.3193061997
 21
58.0676513212
 31
0.0
  0
LINE
  5
177
330
1F
100
AcDbEntity
  8
0
  6
Continuous
 62
     7
370
    25
100
AcDbLine
 10
244.8193061997
 20
58.0676513212
 30
0.0
 11
244.8193061997
 21
56.4206446219
 31
0.0
  0
SPLINE
  5
178
330
1F
100
AcDbEntity
  8
0
  6
Continuous
 62
     7
370
    25
100
AcDbSpline
210
0.0
220
0.0
230
1.0
 70
     8
 71
     3
 72
    10
 73
     6
 74
     0
 42
0.00000001
 43
0.00000001
 40
0.0
 40
0.0
 40
0.0
 40
0.0
 40
0.5
 40
0.5
 40
1.0
 40
1.0
 40
1.0
 40
1.0
 10
244.8193061996695
 20
56.42064462189926
 30
0.0
 10
244.7449314456795
 20
56.44431822639037
 30
0.0
 10
244.6578377141136
 20
56.4574110021836
 30
0.0
 10
244.4816718855691
 20
56.45749757028455
 30
0.0
 10
244.3937108616788
 20
56.44432774616126
 30
0.0
 10
244.3193061996695
 20
56.42064462189926
 30
0.0
  0
LINE
  5
179
330
1F
100
AcDbEntity
  8
0
  6
Continuous
 62
     7
370
    25
100
AcDbLine
 10
236.0773686997
 20
55.7382683301
 30
0.0
 11
253.0612436997
 21
55.7382683301
 31
0.0
  0
SPLINE
  5
17A
330
1F
100
AcDbEntity
  8
0
  6
Continuous
 62
     7
370
    25
100
AcDbSpline
210
0.0
220
0.0
230
1.0
 70
     8
 71
     3
 72
    10
 73
     6
 74
     0
 42
0.00000001
 43
0.00000001
 40
0.0
 40
0.0
 40
0.0
 40
0.0
 40
0.5
 40
0.5
 40
1.0
 40
1.0
 40
1.0
 40
1.0
 10
236.3193061996695
 20
56.42064462189926
 30
0.0
 10
236.244935732744
 20
56.44431686181081
 30
0.0
 10
236.1806301364561
 20
56.45741085174607
 30
0.0
 10
236.0924073486503
 20
56.45749771920752
 30
0.0
 10
236.0693061996695
 20
56.44432792944816
 30
0.0
 10
236.0693061996695
 20
56.42064462189926
 30
0.0
  0
SPLINE
  5
17B
330
1F
100
AcDbEntity
  8
0
  6
Continuous
 62
     7
370
    25
100
AcDbSpline
210
0.0
220
0.0
230
1.0
 70
     8
 71
     3
 72
    16
 73
    12
 74
     0
 42
0.00000001
 43
0.00000001
 40
0.0
 40
0.0
 40
0.0
 40
0.0
 40
0.2499999999999999
 40
0.2499999999999999
 40
0.4999999999999998
 40
0.4999999999999998
 40
0.6249999999999998
 40
0.6249999999999998
 40
0.7499999999999997
 40
0.7499999999999997
 40
1.0
 40
1.0
 40
1.0
 40
1.0
 10
236.3193061996695
 20
56.42064462189879
 30
0.0
 10
236.973527853109
 20
56.21240481145013
 30
0.0
 10
237.6319803886201
 20
56.0422315250407
 30
0.0
 10
238.9606250136034
 20
55.80750926542486
 30
0.0
 10
239.6308894578909
 20
55.74361129035038
 30
0.0
 10
240.6468252014526
 20
55.74258758826388
 30
0.0
 10
240.9881763195523
 20
55.75807413540858
 30
0.0
 10
241.6645926310168
 20
55.81919785686657
 30
0.0
 10
242.0006654000576
 20
55.86471958416158
 30
0.0
 10
243.0031834611187
 20
56.04121894790676
 30
0.0
 10
243.6639413312102
 20
56.21204092426058
 30
0.0
 10
244.3193061996695
 20
56.42064462189911
 30
0.0
  0
SPLINE
  5
17C
330
1F
100
AcDbEntity
  8
0
  6
Continuous
 62
     7
370
    25
100
AcDbSpline
210
0.0
220
0.0
230
1.0
 70
     8
 71
     3
 72
    16
 73
    12
 74
     0
 42
0.00000001
 43
0.00000001
 40
0.0
 40
0.0
 40
0.0
 40
0.0
 40
0.2500000000000001
 40
0.2500000000000001
 40
0.5000000000000001
 40
0.5000000000000001
 40
0.6250000000000001
 40
0.6250000000000001
 40
0.7500000000000002
 40
0.7500000000000002
 40
1.0
 40
1.0
 40
1.0
 40
1.0
 10
244.8193061996695
 20
56.42064462189879
 30
0.0
 10
245.473527853109
 20
56.21240481145013
 30
0.0
 10
246.1319803886201
 20
56.0422315250407
 30
0.0
 10
247.4606250136034
 20
55.80750926542485
 30
0.0
 10
248.1308894578909
 20
55.74361129035038
 30
0.0
 10
249.1468252014526
 20
55.74258758826389
 30
0.0
 10
249.4881763195523
 20
55.75807413540858
 30
0.0
 10
250.1645926310167
 20
55.81919785686657
 30
0.0
 10
250.5006654000577
 20
55.86471958416158
 30
0.0
 10
251.5031834611187
 20
56.04121894790676
 30
0.0
 10
252.1639413312102
 20
56.21204092426059
 30
0.0
 10
252.8193061996695
 20
56.42064462189911
 30
0.0
  0
SPLINE
  5
17D
330
1F
100
AcDbEntity
  8
0
  6
Continuous
 62
     7
370
    25
100
AcDbSpline
210
0.0
220
0.0
230
1.0
 70
     8
 71
     3
 72
    10
 73
     6
 74
     0
 42
0.00000001
 43
0.00000001
 40
0.0
 40
0.0
 40
0.0
 40
0.0
 40
0.5
 40
0.5
 40
1.0
 40
1.0
 40
1.0
 40
1.0
 10
253.0693061996695
 20
56.42064462189926
 30
0.0
 10
253.0693061996695
 20
56.44431852245521
 30
0.0
 10
253.0465156280221
 20
56.45741107963435
 30
0.0
 10
252.9585696307233
 20
56.45749749361663
 30
0.0
 10
252.8937088379905
 20
56.44432710201801
 30
0.0
 10
252.8193061996695
 20
56.42064462189926
 30
0.0
  0
SPLINE
  5
17E
330
1F
100
AcDbEntity
  8
0
  6
Continuous
 62
     7
370
    25
100
AcDbSpline
210
0.0
220
0.0
230
1.0
 70
    24
 71
     3
 72
    10
 73
     6
 74
     0
 42
0.00000001
 43
0.00000001
 40
0.0
 40
0.0
 40
0.0
 40
0.0
 40
0.0617855865716868
 40
0.526890530078949
 40
1.0
 40
1.0
 40
1.0
 40
1.0
 10
236.0693061996695
 20
55.75247385444293
 30
0.0
 10
236.0693061996695
 20
55.74970845777774
 30
0.0
 10
236.0693061996695
 20
55.72612591376306
 30
0.0
 10
236.0693061996695
 20
55.90036949330652
 30
0.0
 10
236.0693061996695
 20
56.24623597395838
 30
0.0
 10
236.0693061996695
 20
56.42064462189926
 30
0.0
  0
SPLINE
  5
17F
330
1F
100
AcDbEntity
  8
0
  6
Continuous
 62
     7
370
    25
100
AcDbSpline
210
0.0
220
0.0
230
1.0
 70
    24
 71
     3
 72
    10
 73
     6
 74
     0
 42
0.00000001
 43
0.00000001
 40
0.0
 40
0.0
 40
0.0
 40
0.0
 40
0.4657369966897373
 40
0.9382332049648839
 40
1.0
 40
1.0
 40
1.0
 40
1.0
 10
253.0693061996695
 20
56.42064462189926
 30
0.0
 10
253.0693061996695
 20
56.24859173073285
 30
0.0
 10
253.0693061996695
 20
55.90198895566908
 30
0.0
 10
253.0693061996695
 20
55.72645311660382
 30
0.0
 10
253.0693061996695
 20
55.74954067079516
 30
0.0
 10
253.0693061996695
 20
55.75220985099061
 30
0.0
  0
SPLINE
  5
180
330
1F
100
AcDbEntity
  8
0
  6
Continuous
 62
     7
370
    25
100
AcDbSpline
210
0.0
220
0.0
230
1.0
 70
     8
 71
     3
 72
    10
 73
     6
 74
     0
 42
0.00000001
 43
0.00000001
 40
0.0
 40
0.0
 40
0.0
 40
0.0
 40
0.5
 40
0.5
 40
1.0
 40
1.0
 40
1.0
 40
1.0
 10
236.31930619967
 20
59.77187179023887
 30
0.0
 10
236.9541339054836
 20
59.97393847578979
 30
0.0
 10
237.5933996080594
 20
60.14033124806044
 30
0.0
 10
238.8842145396493
 20
60.37437822193049
 30
0.0
 10
239.5358341751191
 20
60.44146647588932
 30
0.0
 10
240.1948761069392
 20
60.44889214545911
 30
0.0
  0
LINE
  5
181
330
1F
100
AcDbEntity
  8
0
  6
Continuous
 62
     7
370
    25
100
AcDbLine
 10
236.3193061997
 20
59.7718717902
 30
0.0
 11
236.3193061997
 21
56.4206446219
 31
0.0
  0
SPLINE
  5
182
330
1F
100
AcDbEntity
  8
0
  6
Continuous
 62
     7
370
    25
100
AcDbSpline
210
0.0
220
0.0
230
1.0
 70
     8
 71
     3
 72
    12
 73
     8
 74
     0
 42
0.00000001
 43
0.00000001
 40
0.0
 40
0.0
 40
0.0
 40
0.0
 40
0.2499999999999999
 40
0.2499999999999999
 40
0.4999999999999998
 40
0.4999999999999998
 40
1.0
 40
1.0
 40
1.0
 40
1.0
 10
248.9437362924219
 20
60.44889214545886
 30
0.0
 10
249.2728712828151
 20
60.44518365960243
 30
0.0
 10
249.6023334357518
 20
60.42660115676475
 30
0.0
 10
250.2552070538094
 20
60.36173411979861
 30
0.0
 10
250.5796596456865
 20
60.31546856654833
 30
0.0
 10
251.5477200868787
 20
60.13974403624137
 30
0.0
 10
252.1860425711265
 20
59.97344062746462
 30
0.0
 10
252.8193061996695
 20
59.77187179023872
 30
0.0
  0
LINE
  5
183
330
1F
100
AcDbEntity
  8
0
  6
Continuous
 62
     7
370
    25
100
AcDbLine
 10
252.8193061997
 20
56.4206446219
 30
0.0
 11
252.8193061997
 21
59.7718717902
 31
0.0
  0
LINE
  5
184
330
1F
100
AcDbEntity
  8
0
  6
Continuous
 62
     7
370
    25
100
AcDbLine
 10
244.5693061997
 20
46.3121777638
 30
0.0
 11
236.3719340299
 21
46.3121777638
 31
0.0
  0
LINE
  5
185
330
1F
100
AcDbEntity
  8
0
  6
Continuous
 62
     7
370
    25
100
AcDbLine
 10
252.7666783695
 20
46.3121777638
 30
0.0
 11
244.5693061997
 21
46.3121777638
 31
0.0
  0
LINE
  5
186
330
1F
100
AcDbEntity
  8
0
  6
Continuous
 62
     7
370
    25
100
AcDbLine
 10
251.5693061997
 20
44.2382683301
 30
0.0
 11
237.5693061997
 21
44.2382683301
 31
0.0
  0
SPLINE
  5
187
330
1F
100
AcDbEntity
  8
0
  6
Continuous
 62
     7
370
    25
100
AcDbSpline
210
0.0
220
0.0
230
1.0
 70
     8
 71
     3
 72
     8
 73
     4
 74
     0
 42
0.00000001
 43
0.00000001
 40
0.0
 40
0.0
 40
0.0
 40
0.0
 40
1.0
 40
1.0
 40
1.0
 40
1.0
 10
236.0693061996695
 20
59.93335711851974
 30
0.0
 10
236.5911123509713
 20
60.20594725418909
 30
0.0
 10
237.1147658198275
 20
60.47509975531049
 30
0.0
 10
237.641102969394
 20
60.73826833009372
 30
0.0
  0
SPLINE
  5
188
330
1F
100
AcDbEntity
  8
0
  6
Continuous
 62
     7
370
    25
100
AcDbSpline
210
0.0
220
0.0
230
1.0
 70
     8
 71
     3
 72
    10
 73
     6
 74
     0
 42
0.00000001
 43
0.00000001
 40
0.0
 40
0.0
 40
0.0
 40
0.0
 40
0.5
 40
0.5
 40
1.0
 40
1.0
 40
1.0
 40
1.0
 10
236.0693061996695
 20
59.7718717902387
 30
0.0
 10
236.0693061996695
 20
59.74819639581429
 30
0.0
 10
236.0920986489994
 20
59.73510528592966
 30
0.0
 10
236.1800413530926
 20
59.73501896464143
 30
0.0
 10
236.2448991267668
 20
59.74818789858538
 30
0.0
 10
236.3193061996702
 20
59.77187179023893
 30
0.0
  0
SPLINE
  5
189
330
1F
100
AcDbEntity
  8
0
  6
Continuous
 62
     7
370
    25
100
AcDbSpline
210
0.0
220
0.0
230
1.0
 70
    24
 71
     3
 72
     8
 73
     4
 74
     0
 42
0.00000001
 43
0.00000001
 40
0.0
 40
0.0
 40
0.0
 40
0.0
 40
1.0
 40
1.0
 40
1.0
 40
1.0
 10
236.0693061996695
 20
59.93335711851974
 30
0.0
 10
236.0693061996695
 20
59.88246232881892
 30
0.0
 10
236.0693061996695
 20
59.82852847945747
 30
0.0
 10
236.0693061996695
 20
59.77187179023872
 30
0.0
  0
SPLINE
  5
18A
330
1F
100
AcDbEntity
  8
0
  6
Continuous
 62
     7
370
    25
100
AcDbSpline
210
0.0
220
0.0
230
1.0
 70
     8
 71
     3
 72
     8
 73
     4
 74
     0
 42
0.00000001
 43
0.00000001
 40
0.0
 40
0.0
 40
0.0
 40
0.0
 40
1.0
 40
1.0
 40
1.0
 40
1.0
 10
251.497509429945
 20
60.73826833009372
 30
0.0
 10
252.0239302911542
 20
60.47505789948912
 30
0.0
 10
252.5474747478679
 20
60.20596047110241
 30
0.0
 10
253.0693061996695
 20
59.93335711851976
 30
0.0
  0
SPLINE
  5
18B
330
1F
100
AcDbEntity
  8
0
  6
Continuous
 62
     7
370
    25
100
AcDbSpline
210
0.0
220
0.0
230
1.0
 70
     8
 71
     3
 72
    10
 73
     6
 74
     0
 42
0.00000001
 43
0.00000001
 40
0.0
 40
0.0
 40
0.0
 40
0.0
 40
0.5
 40
0.5
 40
1.0
 40
1.0
 40
1.0
 40
1.0
 10
252.8193061996695
 20
59.77187179023872
 30
0.0
 10
252.8936865770469
 20
59.74819639581433
 30
0.0
 10
252.9579872158326
 20
59.73510528592969
 30
0.0
 10
253.0462029006156
 20
59.73501896464141
 30
0.0
 10
253.0693061996695
 20
59.74818789858525
 30
0.0
 10
253.0693061996695
 20
59.77187179023871
 30
0.0
  0
SPLINE
  5
18C
330
1F
100
AcDbEntity
  8
0
  6
Continuous
 62
     7
370
    25
100
AcDbSpline
210
0.0
220
0.0
230
1.0
 70
    24
 71
     3
 72
     8
 73
     4
 74
     0
 42
0.00000001
 43
0.00000001
 40
0.0
 40
0.0
 40
0.0
 40
0.0
 40
1.0
 40
1.0
 40
1.0
 40
1.0
 10
253.0693061996695
 20
59.93335711851974
 30
0.0
 10
253.0693061996695
 20
59.88246232881892
 30
0.0
 10
253.0693061996695
 20
59.82852847945747
 30
0.0
 10
253.0693061996695
 20
59.77187179023872
 30
0.0
  0
LINE
  5
18D
330
1F
100
AcDbEntity
  8
0
  6
Continuous
 62
     7
370
    25
100
AcDbLine
 10
252.0693061997
 20
62.2534407728
 30
0.0
 11
252.0693061997
 21
60.7382683301
 31
0.0
  0
LINE
  5
18E
330
1F
100
AcDbEntity
  8
0
  6
Continuous
 62
     7
370
    25
100
AcDbLine
 10
249.4449505467
 20
60.7382683301
 30
0.0
 11
252.0693061997
 21
60.7382683301
 31
0.0
  0
LINE
  5
18F
330
1F
100
AcDbEntity
  8
0
  6
Continuous
 62
     7
370
    25
100
AcDbLine
 10
237.0693061997
 20
60.7382683301
 30
0.0
 11
239.6936618527
 21
60.7382683301
 31
0.0
  0
LINE
  5
190
330
1F
100
AcDbEntity
  8
0
  6
Continuous
 62
     7
370
    25
100
AcDbLine
 10
237.0693061997
 20
60.7382683301
 30
0.0
 11
237.0693061997
 21
62.2534407728
 31
0.0
  0
LINE
  5
191
330
1F
100
AcDbEntity
  8
0
  6
Continuous
 62
     7
370
    25
100
AcDbLine
 10
236.0693061997
 20
56.4206446219
 30
0.0
 11
236.0693061997
 21
59.7718717902
 31
0.0
  0
LINE
  5
192
330
1F
100
AcDbEntity
  8
0
  6
Continuous
 62
     7
370
    25
100
AcDbLine
 10
253.0693061997
 20
59.7718717902
 30
0.0
 11
253.0693061997
 21
56.4206446219
 31
0.0
  0
LINE
  5
193
330
1F
100
AcDbEntity
  8
0
  6
Continuous
 62
     7
370
    25
100
AcDbLine
 10
236.0693061997
 20
59.9333571185
 30
0.0
 11
236.0693061997
 21
63.0711206012
 31
0.0
  0
LINE
  5
194
330
1F
100
AcDbEntity
  8
0
  6
Continuous
 62
     7
370
    25
100
AcDbLine
 10
253.0693061997
 20
59.9333571185
 30
0.0
 11
253.0693061997
 21
63.0711206012
 31
0.0
  0
LINE
  5
195
330
1F
100
AcDbEntity
  8
0
  6
Continuous
 62
     7
370
    25
100
AcDbLine
 10
248.0693061997
 20
95.0882683301
 30
0.0
 11
249.8193061997
 21
95.0882683301
 31
0.0
  0
LINE
  5
196
330
1F
100
AcDbEntity
  8
0
  6
Continuous
 62
     7
370
    25
100
AcDbLine
 10
239.3193061997
 20
95.0882683301
 30
0.0
 11
241.0693061997
 21
95.0882683301
 31
0.0
  0
LINE
  5
197
330
1F
100
AcDbEntity
  8
0
  6
Continuous
 62
     7
370
    25
100
AcDbLine
 10
239.0693061997
 20
94.2382683301
 30
0.0
 11
241.0693061997
 21
94.2382683301
 31
0.0
  0
LINE
  5
198
330
1F
100
AcDbEntity
  8
0
  6
Continuous
 62
     7
370
    25
100
AcDbLine
 10
248.0693061997
 20
94.2382683301
 30
0.0
 11
250.0693061997
 21
94.2382683301
 31
0.0
  0
LINE
  5
199
330
1F
100
AcDbEntity
  8
0
  6
Continuous
 62
     7
370
    25
100
AcDbLine
 10
241.0693061997
 20
89.2382683301
 30
0.0
 11
248.0693061997
 21
89.2382683301
 31
0.0
  0
LINE
  5
19A
330
1F
100
AcDbEntity
  8
0
  6
Continuous
 62
     7
370
    25
100
AcDbLine
 10
241.0693061997
 20
96.2382683301
 30
0.0
 11
241.0693061997
 21
89.2382683301
 31
0.0
  0
LINE
  5
19B
330
1F
100
AcDbEntity
  8
0
  6
Continuous
 62
     7
370
    25
100
AcDbLine
 10
241.0693061997
 20
96.2382683301
 30
0.0
 11
248.0693061997
 21
96.2382683301
 31
0.0
  0
LINE
  5
19C
330
1F
100
AcDbEntity
  8
0
  6
Continuous
 62
     7
370
    25
100
AcDbLine
 10
248.0693061997
 20
89.2382683301
 30
0.0
 11
248.0693061997
 21
96.2382683301
 31
0.0
  0
LINE
  5
19D
330
1F
100
AcDbEntity
  8
0
  6
Continuous
 62
     7
370
    25
100
AcDbLine
 10
248.0693061997
 20
84.2382683301
 30
0.0
 11
241.0693061997
 21
84.2382683301
 31
0.0
  0
LINE
  5
19E
330
1F
100
AcDbEntity
  8
0
  6
Continuous
 62
     7
370
    25
100
AcDbLine
 10
241.0693061997
 20
84.2382683301
 30
0.0
 11
241.0693061997
 21
89.2382683301
 31
0.0
  0
LINE
  5
19F
330
1F
100
AcDbEntity
  8
0
  6
Continuous
 62
     7
370
    25
100
AcDbLine
 10
248.0693061997
 20
89.2382683301
 30
0.0
 11
248.0693061997
 21
84.2382683301
 31
0.0
  0
SPLINE
  5
1A0
330
1F
100
AcDbEntity
  8
0
  6
Continuous
 62
     7
370
    25
100
AcDbSpline
210
0.0
220
0.0
230
1.0
 70
     8
 71
     3
 72
     9
 73
     5
 74
     0
 42
0.00000001
 43
0.00000001
 40
0.0
 40
0.0
 40
0.0
 40
0.0
 40
0.4976931370791441
 40
0.9999999999999999
 40
0.9999999999999999
 40
0.9999999999999999
 40
0.9999999999999999
 10
248.0693061996695
 20
83.99044402306927
 30
0.0
 10
248.0859757128867
 20
83.84099714206883
 30
0.0
 10
248.1194692694083
 20
83.54071797431192
 30
0.0
 10
248.34280795305
 20
82.9592958469245
 30
0.0
 10
248.4549925065989
 20
82.66724352208375
 30
0.0
  0
LINE
  5
1A1
330
1F
100
AcDbEntity
  8
0
  6
Continuous
 62
     7
370
    25
100
AcDbLine
 10
248.4549925066
 20
82.6672435221
 30
0.0
 11
240.6836198927
 21
82.6672435221
 31
0.0
  0
SPLINE
  5
1A2
330
1F
100
AcDbEntity
  8
0
  6
Continuous
 62
     7
370
    25
100
AcDbSpline
210
0.0
220
0.0
230
1.0
 70
     8
 71
     3
 72
     9
 73
     5
 74
     0
 42
0.00000001
 43
0.00000001
 40
0.0
 40
0.0
 40
0.0
 40
0.0
 40
0.4977232396629077
 40
1.0
 40
1.0
 40
1.0
 40
1.0
 10
240.6836198927401
 20
82.66724352208375
 30
0.0
 10
240.7949165688541
 20
82.9568359227079
 30
0.0
 10
241.0185281409987
 20
83.53867011799338
 30
0.0
 10
241.0523288759973
 20
83.83939626713152
 30
0.0
 10
241.0693061996695
 20
83.99044402306927
 30
0.0
  0
LINE
  5
1A3
330
1F
100
AcDbEntity
  8
0
  6
Continuous
 62
     7
370
    25
100
AcDbLine
 10
241.0693061997
 20
83.9904440231
 30
0.0
 11
241.0693061997
 21
84.2382683301
 31
0.0
  0
LINE
  5
1A4
330
1F
100
AcDbEntity
  8
0
  6
Continuous
 62
     7
370
    25
100
AcDbLine
 10
248.0693061997
 20
84.2382683301
 30
0.0
 11
248.0693061997
 21
83.9904440231
 31
0.0
  0
SPLINE
  5
1A5
330
1F
100
AcDbEntity
  8
0
  6
Continuous
 62
     7
370
    25
100
AcDbSpline
210
0.0
220
0.0
230
1.0
 70
     8
 71
     3
 72
    16
 73
    12
 74
     0
 42
0.00000001
 43
0.00000001
 40
0.0
 40
0.0
 40
0.0
 40
0.0
 40
0.0155634360124117
 40
0.0359329243097674
 40
0.0739120889290614
 40
0.1570057548437684
 40
0.2406581385754913
 40
0.4592958294318596
 40
0.6783839187935417
 40
0.8974954344294845
 40
1.0
 40
1.0
 40
1.0
 40
1.0
 10
237.9095839774473
 20
78.23826833009382
 30
0.0
 10
237.9232776444606
 20
78.24346170187297
 30
0.0
 10
237.9548936385073
 20
78.25545217974076
 30
0.0
 10
238.0103733288173
 20
78.37377810373772
 30
0.0
 10
238.0889741393079
 20
78.68502941118668
 30
0.0
 10
238.1683143259369
 20
79.21067691255172
 30
0.0
 10
238.2735420340401
 20
80.24922307682188
 30
0.0
 10
238.3885354352593
 20
81.684297119168
 30
0.0
 10
238.4909354356742
 20
83.52254922060743
 30
0.0
 10
238.5606843155546
 20
85.04373206942688
 30
0.0
 10
238.6001429349834
 20
85.94956411022339
 30
0.0
 10
238.6127190742964
 20
86.23826833009134
 30
0.0
  0
LINE
  5
1A6
330
1F
100
AcDbEntity
  8
0
  6
Continuous
 62
     7
370
    25
100
AcDbLine
 10
238.6127190743
 20
86.2382683301
 30
0.0
 11
238.392558359
 21
87.2330119081
 31
0.0
  0
ELLIPSE
  5
1A7
330
1F
100
AcDbEntity
  8
0
  6
Continuous
 62
     7
370
    25
100
AcDbEllipse
 10
176.0693061997
 20
84.5861427624
 30
0.0
 11
65.0
 21
0.0
 31
0.0
210
0.0
220
0.0
230
1.0
 40
0.2713992096
 41
6.084179739699224
 42
6.174194364446292
  0
SPLINE
  5
1A8
330
1F
100
AcDbEntity
  8
0
  6
Continuous
 62
     7
370
    25
100
AcDbSpline
210
0.0
220
0.0
230
1.0
 70
     8
 71
     3
 72
    13
 73
     9
 74
     0
 42
0.00000001
 43
0.00000001
 40
0.0
 40
0.0
 40
0.0
 40
0.0
 40
0.1610294006389558
 40
0.3266880383557516
 40
0.4877296220820637
 40
0.6535536198224136
 40
0.8237602734841889
 40
1.0
 40
1.0
 40
1.0
 40
1.0
 10
239.786443869565
 20
81.09862208160088
 30
0.0
 10
239.7426401021326
 20
81.02922518702363
 30
0.0
 10
239.6537733063903
 20
80.88843639151507
 30
0.0
 10
239.5247532877183
 20
80.54231157380744
 30
0.0
 10
239.403743191951
 20
80.10310493075539
 30
0.0
 10
239.2970622088263
 20
79.5695030938158
 30
0.0
 10
239.2063949214705
 20
78.94567678711611
 30
0.0
 10
239.1695761125738
 20
78.47679288891413
 30
0.0
 10
239.1508461238024
 20
78.23826833009372
 30
0.0
  0
LINE
  5
1A9
330
1F
100
AcDbEntity
  8
0
  6
Continuous
 62
     7
370
    25
100
AcDbLine
 10
239.1508461238
 20
78.2382683301
 30
0.0
 11
237.9095839774
 21
78.2382683301
 31
0.0
  0
LINE
  5
1AA
330
1F
100
AcDbEntity
  8
0
  6
Continuous
 62
     7
370
    25
100
AcDbLine
 10
238.392558359
 20
87.2330119081
 30
0.0
 11
241.0693061997
 21
87.2330119081
 31
0.0
  0
SPLINE
  5
1AB
330
1F
100
AcDbEntity
  8
0
  6
Continuous
 62
     7
370
    25
100
AcDbSpline
210
0.0
220
0.0
230
1.0
 70
     8
 71
     3
 72
    17
 73
    13
 74
     0
 42
0.00000001
 43
0.00000001
 40
0.0
 40
0.0
 40
0.0
 40
0.0
 40
0.3241697628029873
 40
0.5422758463620719
 40
0.689509052693928
 40
0.7894036290694505
 40
0.8577090008137825
 40
0.9049823971474137
 40
0.9551712229700868
 40
0.9753097783197817
 40
0.9919572060138848
 40
1.0
 40
1.0
 40
1.0
 40
1.0
 10
250.5258933250426
 20
86.23826833009134
 30
0.0
 10
250.5665437637693
 20
85.32565482748568
 30
0.0
 10
250.634544402925
 20
83.79902182122434
 30
0.0
 10
250.7459773022414
 20
81.87224891894336
 30
0.0
 10
250.8384819622999
 20
80.5846134480106
 30
0.0
 10
250.9163834186173
 20
79.72546148128886
 30
0.0
 10
250.9824359180396
 20
79.15199359291145
 30
0.0
 10
251.0457925254021
 20
78.73046143888149
 30
0.0
 10
251.103918993096
 20
78.44996889608606
 30
0.0
 10
251.1632608214187
 20
78.2944202275054
 30
0.0
 10
251.2002668900415
 20
78.24380962830789
 30
0.0
 10
251.2219614569119
 20
78.23962987650324
 30
0.0
 10
251.2290284218918
 20
78.23826833009379
 30
0.0
  0
LINE
  5
1AC
330
1F
100
AcDbEntity
  8
0
  6
Continuous
 62
     7
370
    25
100
AcDbLine
 10
251.2290284219
 20
78.2382683301
 30
0.0
 11
249.9877662755
 21
78.2382683301
 31
0.0
  0
SPLINE
  5
1AD
330
1F
100
AcDbEntity
  8
0
  6
Continuous
 62
     7
370
    25
100
AcDbSpline
210
0.0
220
0.0
230
1.0
 70
     8
 71
     3
 72
    14
 73
    10
 74
     0
 42
0.00000001
 43
0.00000001
 40
0.0
 40
0.0
 40
0.0
 40
0.0
 40
0.1576095309202822
 40
0.3152382602707094
 40
0.4726926441579498
 40
0.6301650083177254
 40
0.7907313191165901
 40
0.9513050385928076
 40
1.0
 40
1.0
 40
1.0
 40
1.0
 10
249.9877662755366
 20
78.23826833009372
 30
0.0
 10
249.9712609386941
 20
78.45177011857112
 30
0.0
 10
249.9382482544928
 20
78.87879970219663
 30
0.0
 10
249.8584445645809
 20
79.46404678105294
 30
0.0
 10
249.7606571570946
 20
79.98620132187537
 30
0.0
 10
249.6470673174126
 20
80.43517944929523
 30
0.0
 10
249.5225252183809
 20
80.79446118110162
 30
0.0
 10
249.4221678776045
 20
80.9990273602028
 30
0.0
 10
249.3653820799893
 20
81.07982190855411
 30
0.0
 10
249.352168529774
 20
81.09862208160088
 30
0.0
  0
ELLIPSE
  5
1AE
330
1F
100
AcDbEntity
  8
0
  6
Continuous
 62
     7
370
    25
100
AcDbEllipse
 10
313.0693061997
 20
84.5861427624
 30
0.0
 11
65.0
 21
0.0
 31
0.0
210
0.0
220
0.0
230
1.0
 40
0.2713992096
 41
3.25058359632319
 42
3.340598221070255
  0
LINE
  5
1AF
330
1F
100
AcDbEntity
  8
0
  6
Continuous
 62
     7
370
    25
100
AcDbLine
 10
248.0693061997
 20
87.2330119081
 30
0.0
 11
250.7460540403
 21
87.2330119081
 31
0.0
  0
LINE
  5
1B0
330
1F
100
AcDbEntity
  8
0
  6
Continuous
 62
     7
370
    25
100
AcDbLine
 10
250.7460540403
 20
87.2330119081
 30
0.0
 11
250.525893325
 21
86.2382683301
 31
0.0
  0
LINE
  5
1B1
330
1F
100
AcDbEntity
  8
0
  6
Continuous
 62
     7
370
    25
100
AcDbLine
 10
239.7864438696
 20
81.0986220816
 30
0.0
 11
249.3521685298
 21
81.0986220816
 31
0.0
  0
SPLINE
  5
1B2
330
1F
100
AcDbEntity
  8
0
  6
Continuous
 62
     7
370
    25
100
AcDbSpline
210
0.0
220
0.0
230
1.0
 70
     8
 71
     3
 72
    16
 73
    12
 74
     0
 42
0.00000001
 43
0.00000001
 40
0.0
 40
0.0
 40
0.0
 40
0.0
 40
0.1082397394540288
 40
0.2409347985297594
 40
0.3278143823752722
 40
0.4147786007912546
 40
0.5911316736061375
 40
0.6905102391473411
 40
0.7897210831517909
 40
0.9112972329116562
 40
1.0
 40
1.0
 40
1.0
 40
1.0
 10
247.1673824110229
 20
78.23826833009372
 30
0.0
 10
247.0493285277955
 20
78.42132552478456
 30
0.0
 10
246.786548067361
 20
78.8287992358701
 30
0.0
 10
246.2098703062836
 20
79.17302890434404
 30
0.0
 10
245.6243127138896
 20
79.3770114484618
 30
0.0
 10
244.9172907008575
 20
79.50842547882388
 30
0.0
 10
244.1574677662422
 20
79.50540523476835
 30
0.0
 10
243.4034992599915
 20
79.35064550006003
 30
0.0
 10
242.803123057425
 20
79.1100991687168
 30
0.0
 10
242.2864689462873
 20
78.74965733028715
 30
0.0
 10
242.0647560113752
 20
78.38998872573283
 30
0.0
 10
241.9712299883162
 20
78.23826833009372
 30
0.0
  0
LINE
  5
1B3
330
1F
100
AcDbEntity
  8
0
  6
Continuous
 62
     7
370
    25
100
AcDbLine
 10
241.9712299883
 20
78.2382683301
 30
0.0
 11
239.1508461238
 21
78.2382683301
 31
0.0
  0
LINE
  5
1B4
330
1F
100
AcDbEntity
  8
0
  6
Continuous
 62
     7
370
    25
100
AcDbLine
 10
249.9877662755
 20
78.2382683301
 30
0.0
 11
247.167382411
 21
78.2382683301
 31
0.0
  0
LINE
  5
1B5
330
1F
100
AcDbEntity
  8
0
  6
Continuous
 62
     7
370
    25
100
AcDbLine
 10
247.167382411
 20
78.2382683301
 30
0.0
 11
241.9712299883
 21
78.2382683301
 31
0.0
  0
LINE
  5
1B6
330
1F
100
AcDbEntity
  8
0
  6
Continuous
 62
     7
370
    25
100
AcDbLine
 10
250.525893325
 20
86.2382683301
 30
0.0
 11
252.0193061997
 21
86.2382683301
 31
0.0
  0
LINE
  5
1B7
330
1F
100
AcDbEntity
  8
0
  6
Continuous
 62
     7
370
    25
100
AcDbLine
 10
237.1193061997
 20
86.2382683301
 30
0.0
 11
238.6127190743
 21
86.2382683301
 31
0.0
  0
SPLINE
  5
1B8
330
1F
100
AcDbEntity
  8
0
  6
Continuous
 62
     7
370
    25
100
AcDbSpline
210
0.0
220
0.0
230
1.0
 70
     8
 71
     3
 72
     9
 73
     5
 74
     0
 42
0.00000001
 43
0.00000001
 40
0.0
 40
0.0
 40
0.0
 40
0.0
 40
0.4875141023677128
 40
0.9999999999999999
 40
0.9999999999999999
 40
0.9999999999999999
 40
0.9999999999999999
 10
251.2290284218918
 20
78.23826833009379
 30
0.0
 10
251.2375545334275
 20
78.23999567606549
 30
0.0
 10
251.2550434870688
 20
78.24353884735696
 30
0.0
 10
251.2713651909552
 20
78.26505733330627
 30
0.0
 10
251.2797298340223
 20
78.27608525389371
 30
0.0
  0
SPLINE
  5
1B9
330
1F
100
AcDbEntity
  8
0
  6
Continuous
 62
     7
370
    25
100
AcDbSpline
210
0.0
220
0.0
230
1.0
 70
     8
 71
     3
 72
     9
 73
     5
 74
     0
 42
0.00000001
 43
0.00000001
 40
0.0
 40
0.0
 40
0.0
 40
0.0
 40
0.5124861829376838
 40
0.9999999999999999
 40
0.9999999999999999
 40
0.9999999999999999
 40
0.9999999999999999
 10
237.8588825961829
 20
78.27608520803393
 30
0.0
 10
237.8672472393066
 20
78.26505729508277
 30
0.0
 10
237.8835689342168
 20
78.24353883601336
 30
0.0
 10
237.9010578764586
 20
78.2399956716682
 30
0.0
 10
237.9095839774473
 20
78.23826833009382
 30
0.0
  0
LINE
  5
1BA
330
1F
100
AcDbEntity
  8
0
  6
Continuous
 62
     7
370
    25
100
AcDbLine
 10
251.2775101322
 20
78.2382683301
 30
0.0
 11
251.5693061997
 21
78.2382683301
 31
0.0
  0
LINE
  5
1BB
330
1F
100
AcDbEntity
  8
0
  6
Continuous
 62
     7
370
    25
100
AcDbLine
 10
237.5693061997
 20
78.2382683301
 30
0.0
 11
237.8611022672
 21
78.2382683301
 31
0.0
  0
LINE
  5
1BC
330
1F
100
AcDbEntity
  8
0
  6
Continuous
 62
     7
370
    25
100
AcDbLine
 10
251.279729834
 20
78.2760852539
 30
0.0
 11
251.2775101322
 21
78.2382683301
 31
0.0
  0
LINE
  5
1BD
330
1F
100
AcDbEntity
  8
0
  6
Continuous
 62
     7
370
    25
100
AcDbLine
 10
251.2775101322
 20
78.2382683301
 30
0.0
 11
251.2290284219
 21
78.2382683301
 31
0.0
  0
LINE
  5
1BE
330
1F
100
AcDbEntity
  8
0
  6
Continuous
 62
     7
370
    25
100
AcDbLine
 10
237.8611022672
 20
78.2382683301
 30
0.0
 11
237.8588825962
 21
78.276085208
 31
0.0
  0
LINE
  5
1BF
330
1F
100
AcDbEntity
  8
0
  6
Continuous
 62
     7
370
    25
100
AcDbLine
 10
237.9095839774
 20
78.2382683301
 30
0.0
 11
237.8611022672
 21
78.2382683301
 31
0.0
  0
SPLINE
  5
1C0
330
1F
100
AcDbEntity
  8
0
  6
Continuous
 62
     7
370
    25
100
AcDbSpline
210
0.0
220
0.0
230
1.0
 70
     8
 71
     3
 72
    19
 73
    15
 74
     0
 42
0.00000001
 43
0.00000001
 40
0.0
 40
0.0
 40
0.0
 40
0.0
 40
0.0167780526657808
 40
0.0954945212012692
 40
0.1743156324249904
 40
0.2799344061174872
 40
0.3857488128343489
 40
0.4988314109333476
 40
0.6118954942784914
 40
0.7070746275413617
 40
0.8021795599911857
 40
0.8927562015402806
 40
0.9832581980020612
 40
0.9999999999999999
 40
0.9999999999999999
 40
0.9999999999999999
 40
0.9999999999999999
 10
238.6769538078924
 20
74.27767707634145
 30
0.0
 10
238.6744273126085
 20
74.27454121440316
 30
0.0
 10
238.6600474282284
 20
74.25669303855612
 30
0.0
 10
238.7234927572763
 20
74.33575602779378
 30
0.0
 10
238.8785990044109
 20
74.52024132752479
 30
0.0
 10
239.1668964255045
 20
74.84022013078986
 30
0.0
 10
239.5993303783143
 20
75.26466844049524
 30
0.0
 10
240.1537631238882
 20
75.72733300742559
 30
0.0
 10
240.7966586809731
 20
76.16781300558051
 30
0.0
 10
241.49609560542
 20
76.54587393849317
 30
0.0
 10
242.2180959255918
 20
76.8490974686248
 30
0.0
 10
242.9958153148141
 20
77.06749658674177
 30
0.0
 10
243.5838637875845
 20
77.18889634653519
 30
0.0
 10
243.9134539660981
 20
77.20219617388355
 30
0.0
 10
243.9649062047206
 20
77.20427240653542
 30
0.0
  0
SPLINE
  5
1C1
330
1F
100
AcDbEntity
  8
0
  6
Continuous
 62
     7
370
    25
100
AcDbSpline
210
0.0
220
0.0
230
1.0
 70
     8
 71
     3
 72
    19
 73
    15
 74
     0
 42
0.00000001
 43
0.00000001
 40
0.0
 40
0.0
 40
0.0
 40
0.0
 40
0.0313540707068291
 40
0.097396502070557
 40
0.197409746088547
 40
0.297535255134338
 40
0.4181224967036185
 40
0.5388061807178455
 40
0.6564368919164245
 40
0.773901209253311
 40
0.8504355563922917
 40
0.9268691943442149
 40
0.9967358880872218
 40
1.0
 40
1.0
 40
1.0
 40
1.0
 10
245.1815034096106
 20
77.19977068236075
 30
0.0
 10
245.2773753312328
 20
77.19455064282877
 30
0.0
 10
245.5751864161186
 20
77.17833540890148
 30
0.0
 10
246.1580718180889
 20
77.06396294400362
 30
0.0
 10
246.9073161564675
 20
76.85469043860428
 30
0.0
 10
247.727780882494
 20
76.51036854578891
 30
0.0
 10
248.4949275674131
 20
76.0747695061606
 30
0.0
 10
249.1762181670126
 20
75.5793706054938
 30
0.0
 10
249.7269282445529
 20
75.08897459369555
 30
0.0
 10
250.09566585875
 20
74.70601849795473
 30
0.0
 10
250.3236910425521
 20
74.44526677695941
 30
0.0
 10
250.4347974805404
 20
74.3108092983592
 30
0.0
 10
250.4787733118704
 20
74.25691190515536
 30
0.0
 10
250.4678472608172
 20
74.27024662626195
 30
0.0
 10
250.4673595887194
 20
74.27084180665996
 30
0.0
  0
LINE
  5
1C2
330
1F
100
AcDbEntity
  8
0
  6
Continuous
 62
     7
370
    25
100
AcDbLine
 10
250.0693061997
 20
94.8382683301
 30
0.0
 11
248.0693061997
 21
94.8382683301
 31
0.0
  0
LINE
  5
1C3
330
1F
100
AcDbEntity
  8
0
  6
Continuous
 62
     7
370
    25
100
AcDbLine
 10
241.0693061997
 20
94.8382683301
 30
0.0
 11
239.0693061997
 21
94.8382683301
 31
0.0
  0
INSERT
  5
1CF
330
1F
100
AcDbEntity
  8
0
  6
Continuous
 62
     7
370
    18
100
AcDbBlockReference
  2
SW_CENTERMARKSYMBOL_0
 10
244.5693061997
 20
67.7382683301
 30
0.0
  0
LINE
  5
1D0
330
1F
100
AcDbEntity
  8
0
  6
Continuous
 62
     7
370
    18
100
AcDbLine
 10
236.8153658695
 20
55.2382683301
 30
0.0
 11
237.1356431694
 21
44.9893947319
 31
0.0
  0
LINE
  5
1D1
330
1F
100
AcDbEntity
  8
0
  6
Continuous
 62
     7
370
    18
100
AcDbLine
 10
252.0029692299
 20
44.9893947319
 30
0.0
 11
252.3232465299
 21
55.2382683301
 31
0.0
  0
LINE
  5
1D2
330
1F
100
AcDbEntity
  8
0
  6
Continuous
 62
     7
370
    25
100
AcDbLine
 10
159.264606601
 20
131.9103309242
 30
0.0
 11
156.264606601
 21
131.9103309242
 31
0.0
  0
LINE
  5
1D3
330
1F
100
AcDbEntity
  8
0
  6
Continuous
 62
     7
370
    25
100
AcDbLine
 10
156.264606601
 20
114.9103309242
 30
0.0
 11
159.264606601
 21
114.9103309242
 31
0.0
  0
LINE
  5
1D4
330
1F
100
AcDbEntity
  8
0
  6
Continuous
 62
     7
370
    25
100
AcDbLine
 10
156.264606601
 20
131.7413309242
 30
0.0
 11
147.264606601
 21
131.7413309242
 31
0.0
  0
LINE
  5
1D5
330
1F
100
AcDbEntity
  8
0
  6
Continuous
 62
     7
370
    25
100
AcDbLine
 10
147.264606601
 20
115.0793309242
 30
0.0
 11
156.264606601
 21
115.0793309242
 31
0.0
  0
LINE
  5
1D6
330
1F
100
AcDbEntity
  8
0
  6
Continuous
 62
     7
370
    25
100
AcDbLine
 10
147.264606601
 20
131.7413309242
 30
0.0
 11
146.264606601
 21
130.7413309242
 31
0.0
  0
LINE
  5
1D7
330
1F
100
AcDbEntity
  8
0
  6
Continuous
 62
     7
370
    25
100
AcDbLine
 10
146.264606601
 20
116.0793309242
 30
0.0
 11
147.264606601
 21
115.0793309242
 31
0.0
  0
LINE
  5
1D8
330
1F
100
AcDbEntity
  8
0
  6
Continuous
 62
     7
370
    25
100
AcDbLine
 10
182.6202690338
 20
114.9103309242
 30
0.0
 11
182.764606601
 21
115.1603309242
 31
0.0
  0
LINE
  5
1D9
330
1F
100
AcDbEntity
  8
0
  6
Continuous
 62
     7
370
    25
100
AcDbLine
 10
182.764606601
 20
131.6603309242
 30
0.0
 11
182.6202690338
 21
131.9103309242
 31
0.0
  0
LINE
  5
1DA
330
1F
100
AcDbEntity
  8
0
  6
Continuous
 62
     7
370
    25
100
AcDbLine
 10
159.264606601
 20
114.9103309242
 30
0.0
 11
159.264606601
 21
131.9103309242
 31
0.0
  0
LINE
  5
1DB
330
1F
100
AcDbEntity
  8
0
  6
Continuous
 62
     7
370
    25
100
AcDbLine
 10
156.264606601
 20
114.9103309242
 30
0.0
 11
156.264606601
 21
131.9103309242
 31
0.0
  0
LINE
  5
1DC
330
1F
100
AcDbEntity
  8
0
  6
Continuous
 62
     7
370
    25
100
AcDbLine
 10
147.264606601
 20
131.7413309242
 30
0.0
 11
147.264606601
 21
115.0793309242
 31
0.0
  0
LINE
  5
1DD
330
1F
100
AcDbEntity
  8
0
  6
Continuous
 62
     7
370
    25
100
AcDbLine
 10
146.264606601
 20
116.0793309242
 30
0.0
 11
146.264606601
 21
130.7413309242
 31
0.0
  0
SPLINE
  5
1DE
330
1F
100
AcDbEntity
  8
0
  6
Continuous
 62
     7
370
    25
100
AcDbSpline
210
0.0
220
0.0
230
1.0
 70
    24
 71
     3
 72
    10
 73
     6
 74
     0
 42
0.00000001
 43
0.00000001
 40
0.0
 40
0.0
 40
0.0
 40
0.0
 40
0.3696168128628231
 40
0.7422791676558734
 40
1.0
 40
1.0
 40
1.0
 40
1.0
 10
181.9425476284918
 20
114.9103309241766
 30
0.0
 10
182.0837504456098
 20
114.9103309241766
 30
0.0
 10
182.3673195526242
 20
114.9103309241766
 30
0.0
 10
182.5864595095634
 20
114.9103309241766
 30
0.0
 10
182.6088504909658
 20
114.9103309241766
 30
0.0
 10
182.6180046411426
 20
114.9103309241766
 30
0.0
  0
SPLINE
  5
1DF
330
1F
100
AcDbEntity
  8
0
  6
Continuous
 62
     7
370
    25
100
AcDbSpline
210
0.0
220
0.0
230
1.0
 70
     8
 71
     3
 72
    10
 73
     6
 74
     0
 42
0.00000001
 43
0.00000001
 40
0.0
 40
0.0
 40
0.0
 40
0.0
 40
0.5
 40
0.5
 40
1.0
 40
1.0
 40
1.0
 40
1.0
 10
181.9425476284918
 20
115.1603309241766
 30
0.0
 10
181.9188722340674
 20
115.0859505467992
 30
0.0
 10
181.9057811241827
 20
115.0216499080135
 30
0.0
 10
181.9056948028945
 20
114.9334342232305
 30
0.0
 10
181.9188637368383
 20
114.9103309241766
 30
0.0
 10
181.9425476284918
 20
114.9103309241766
 30
0.0
  0
SPLINE
  5
1E0
330
1F
100
AcDbEntity
  8
0
  6
Continuous
 62
     7
370
    25
100
AcDbSpline
210
0.0
220
0.0
230
1.0
 70
     8
 71
     3
 72
    10
 73
     6
 74
     0
 42
0.00000001
 43
0.00000001
 40
0.0
 40
0.0
 40
0.0
 40
0.0
 40
0.0464589662064099
 40
0.519295846727844
 40
1.0
 40
1.0
 40
1.0
 40
1.0
 10
182.6119755074473
 20
119.0408215970449
 30
0.0
 10
182.6136573337724
 20
118.9799204902399
 30
0.0
 10
182.632455974742
 20
118.2991973832195
 30
0.0
 10
182.4554702370079
 20
116.9871327056314
 30
0.0
 10
182.1144596770344
 20
115.7726050398366
 30
0.0
 10
181.9425476284918
 20
115.1603309241766
 30
0.0
  0
SPLINE
  5
1E1
330
1F
100
AcDbEntity
  8
0
  6
Continuous
 62
     7
370
    25
100
AcDbSpline
210
0.0
220
0.0
230
1.0
 70
     8
 71
     3
 72
    10
 73
     6
 74
     0
 42
0.00000001
 43
0.00000001
 40
0.0
 40
0.0
 40
0.0
 40
0.0
 40
0.5436718043862582
 40
0.821252223278211
 40
1.0
 40
1.0
 40
1.0
 40
1.0
 10
181.9425476284918
 20
131.6603309241765
 30
0.0
 10
182.1385525263027
 20
130.9615133460159
 30
0.0
 10
182.4346308897602
 20
129.9059031688831
 30
0.0
 10
182.6011347064872
 20
128.5889925816514
 30
0.0
 10
182.6055084637654
 20
127.9858840878373
 30
0.0
 10
182.6072217030457
 20
127.7496411744528
 30
0.0
  0
SPLINE
  5
1E2
330
1F
100
AcDbEntity
  8
0
  6
Continuous
 62
     7
370
    25
100
AcDbSpline
210
0.0
220
0.0
230
1.0
 70
     8
 71
     3
 72
    10
 73
     6
 74
     0
 42
0.00000001
 43
0.00000001
 40
0.0
 40
0.0
 40
0.0
 40
0.0
 40
0.5
 40
0.5
 40
1.0
 40
1.0
 40
1.0
 40
1.0
 10
181.9425476284918
 20
131.9103309241765
 30
0.0
 10
181.9188722340674
 20
131.9103309241765
 30
0.0
 10
181.9057811241827
 20
131.8875384748468
 30
0.0
 10
181.9056948028945
 20
131.7995957707537
 30
0.0
 10
181.9188637368383
 20
131.7347379970798
 30
0.0
 10
181.9425476284918
 20
131.6603309241765
 30
0.0
  0
SPLINE
  5
1E3
330
1F
100
AcDbEntity
  8
0
  6
Continuous
 62
     7
370
    25
100
AcDbSpline
210
0.0
220
0.0
230
1.0
 70
    24
 71
     3
 72
    10
 73
     6
 74
     0
 42
0.00000001
 43
0.00000001
 40
0.0
 40
0.0
 40
0.0
 40
0.0
 40
0.2577168437170634
 40
0.6270806942502074
 40
1.0
 40
1.0
 40
1.0
 40
1.0
 10
182.6166627931093
 20
131.9103309241765
 30
0.0
 10
182.6080590974741
 20
131.9103309241765
 30
0.0
 10
182.5871244493763
 20
131.9103309241765
 30
0.0
 10
182.3681538697344
 20
131.9103309241765
 30
0.0
 10
182.0848686772793
 20
131.9103309241765
 30
0.0
 10
181.9425476284918
 20
131.9103309241765
 30
0.0
  0
LINE
  5
1E4
330
1F
100
AcDbEntity
  8
0
  6
Continuous
 62
     7
370
    25
100
AcDbLine
 10
182.764606601
 20
131.6603309242
 30
0.0
 11
182.764606601
 21
127.7117290338
 31
0.0
  0
LINE
  5
1E5
330
1F
100
AcDbEntity
  8
0
  6
Continuous
 62
     7
370
    25
100
AcDbLine
 10
182.764606601
 20
119.1089328145
 30
0.0
 11
182.764606601
 21
115.1603309242
 31
0.0
  0
SPLINE
  5
1E6
330
1F
100
AcDbEntity
  8
0
  6
Continuous
 62
     7
370
    25
100
AcDbSpline
210
0.0
220
0.0
230
1.0
 70
     8
 71
     3
 72
    10
 73
     6
 74
     0
 42
0.00000001
 43
0.00000001
 40
0.0
 40
0.0
 40
0.0
 40
0.0
 40
0.5
 40
0.5
 40
1.0
 40
1.0
 40
1.0
 40
1.0
 10
159.9423280063096
 20
123.6603309241765
 30
0.0
 10
159.9660016108006
 20
123.5859561701866
 30
0.0
 10
159.9790943865939
 20
123.4988624386206
 30
0.0
 10
159.9791809546949
 20
123.3226966100761
 30
0.0
 10
159.9660111305716
 20
123.2347355861858
 30
0.0
 10
159.9423280063096
 20
123.1603309241766
 30
0.0
  0
SPLINE
  5
1E7
330
1F
100
AcDbEntity
  8
0
  6
Continuous
 62
     7
370
    25
100
AcDbSpline
210
0.0
220
0.0
230
1.0
 70
     8
 71
     3
 72
    12
 73
     8
 74
     0
 42
0.00000001
 43
0.00000001
 40
0.0
 40
0.0
 40
0.0
 40
0.0
 40
0.2499999999999999
 40
0.2499999999999999
 40
0.5
 40
0.5
 40
1.0
 40
1.0
 40
1.0
 40
1.0
 10
159.2646066010494
 20
119.1603309241766
 30
0.0
 10
159.2646066010494
 20
119.4980868591993
 30
0.0
 10
159.2803529310713
 20
119.8384948740778
 30
0.0
 10
159.3417979556567
 20
120.5129895584783
 30
0.0
 10
159.3873867149105
 20
120.8481148773455
 30
0.0
 10
159.5638377171671
 20
121.8478261956856
 30
0.0
 10
159.7342954191306
 20
122.5067602987509
 30
0.0
 10
159.9423280063094
 20
123.1603309241766
 30
0.0
  0
LINE
  5
1E8
330
1F
100
AcDbEntity
  8
0
  6
Continuous
 62
     7
370
    25
100
AcDbLine
 10
159.264606601
 20
127.6603309242
 30
0.0
 11
159.264606601
 21
119.1603309242
 31
0.0
  0
SPLINE
  5
1E9
330
1F
100
AcDbEntity
  8
0
  6
Continuous
 62
     7
370
    25
100
AcDbSpline
210
0.0
220
0.0
230
1.0
 70
     8
 71
     3
 72
    10
 73
     6
 74
     0
 42
0.00000001
 43
0.00000001
 40
0.0
 40
0.0
 40
0.0
 40
0.0
 40
0.5
 40
0.5
 40
1.0
 40
1.0
 40
1.0
 40
1.0
 10
159.9423280063091
 20
123.6603309241765
 30
0.0
 10
159.7335180816428
 20
124.3163436907816
 30
0.0
 10
159.5629839418956
 20
124.9766105976393
 30
0.0
 10
159.3281981368767
 20
126.3089571162743
 30
0.0
 10
159.2646066010494
 20
126.9811100977617
 30
0.0
 10
159.2646066010494
 20
127.6603309241766
 30
0.0
  0
SPLINE
  5
1EA
330
1F
100
AcDbEntity
  8
0
  6
Continuous
 62
     7
370
    25
100
AcDbSpline
210
0.0
220
0.0
230
1.0
 70
     8
 71
     3
 72
     9
 73
     5
 74
     0
 42
0.00000001
 43
0.00000001
 40
0.0
 40
0.0
 40
0.0
 40
0.0
 40
0.3146068432223568
 40
1.0
 40
1.0
 40
1.0
 40
1.0
 10
176.8762774296591
 20
128.9501260314165
 30
0.0
 10
176.901214947387
 20
129.239029684335
 30
0.0
 10
176.9804806031257
 20
130.1573302844091
 30
0.0
 10
177.2545100788754
 20
131.0491107177895
 30
0.0
 10
177.4423280063096
 20
131.6603309241765
 30
0.0
  0
LINE
  5
1EB
330
1F
100
AcDbEntity
  8
0
  6
Continuous
 62
     7
370
    25
100
AcDbLine
 10
181.9425476285
 20
131.6603309242
 30
0.0
 11
177.4423280063
 21
131.6603309242
 31
0.0
  0
SPLINE
  5
1EC
330
1F
100
AcDbEntity
  8
0
  6
Continuous
 62
     7
370
    25
100
AcDbSpline
210
0.0
220
0.0
230
1.0
 70
     8
 71
     3
 72
    12
 73
     8
 74
     0
 42
0.00000001
 43
0.00000001
 40
0.0
 40
0.0
 40
0.0
 40
0.0
 40
0.2500000000000001
 40
0.2500000000000001
 40
0.5000000000000002
 40
0.5000000000000002
 40
1.0
 40
1.0
 40
1.0
 40
1.0
 10
159.2646066010494
 20
127.6603309241766
 30
0.0
 10
159.2646066010494
 20
127.9980868591993
 30
0.0
 10
159.2803529310713
 20
128.3384948740778
 30
0.0
 10
159.3417979556567
 20
129.0129895584783
 30
0.0
 10
159.3873867149105
 20
129.3481148773455
 30
0.0
 10
159.5638377171671
 20
130.3478261956856
 30
0.0
 10
159.7342954191306
 20
131.0067602987509
 30
0.0
 10
159.9423280063094
 20
131.6603309241766
 30
0.0
  0
LINE
  5
1ED
330
1F
100
AcDbEntity
  8
0
  6
Continuous
 62
     7
370
    25
100
AcDbLine
 10
164.0868851958
 20
131.6603309242
 30
0.0
 11
159.9423280063
 21
131.6603309242
 31
0.0
  0
SPLINE
  5
1EE
330
1F
100
AcDbEntity
  8
0
  6
Continuous
 62
     7
370
    25
100
AcDbSpline
210
0.0
220
0.0
230
1.0
 70
     8
 71
     3
 72
    10
 73
     6
 74
     0
 42
0.00000001
 43
0.00000001
 40
0.0
 40
0.0
 40
0.0
 40
0.0
 40
0.5135039501330529
 40
0.7748154560530206
 40
1.0
 40
1.0
 40
1.0
 40
1.0
 10
164.0868851957892
 20
131.6603309241766
 30
0.0
 10
164.2717533902066
 20
131.0093269386594
 30
0.0
 10
164.5506971730735
 20
130.0270405320988
 30
0.0
 10
164.7306208624385
 20
128.7295490905887
 30
0.0
 10
164.7493843753601
 20
128.0950906755793
 30
0.0
 10
164.7580694471119
 20
127.8014187559896
 30
0.0
  0
SPLINE
  5
1EF
330
1F
100
AcDbEntity
  8
0
  6
Continuous
 62
     7
370
    25
100
AcDbSpline
210
0.0
220
0.0
230
1.0
 70
     8
 71
     3
 72
    12
 73
     8
 74
     0
 42
0.00000001
 43
0.00000001
 40
0.0
 40
0.0
 40
0.0
 40
0.0
 40
0.2500000000000001
 40
0.2500000000000001
 40
0.5000000000000002
 40
0.5000000000000002
 40
1.0
 40
1.0
 40
1.0
 40
1.0
 10
164.7646066010494
 20
119.1603309241766
 30
0.0
 10
164.7646066010494
 20
118.8212953796807
 30
0.0
 10
164.7487636649604
 20
118.4806588204104
 30
0.0
 10
164.6872608047227
 20
117.8064264729055
 30
0.0
 10
164.6416571636791
 20
117.4714408614424
 30
0.0
 10
164.4652061461898
 20
116.4721704323031
 30
0.0
 10
164.294808778938
 20
115.8135590944463
 30
0.0
 10
164.0868851957892
 20
115.1603309241766
 30
0.0
  0
LINE
  5
1F0
330
1F
100
AcDbEntity
  8
0
  6
Continuous
 62
     7
370
    25
100
AcDbLine
 10
159.9423280063
 20
115.1603309242
 30
0.0
 11
164.0868851958
 21
115.1603309242
 31
0.0
  0
SPLINE
  5
1F1
330
1F
100
AcDbEntity
  8
0
  6
Continuous
 62
     7
370
    25
100
AcDbSpline
210
0.0
220
0.0
230
1.0
 70
     8
 71
     3
 72
    10
 73
     6
 74
     0
 42
0.00000001
 43
0.00000001
 40
0.0
 40
0.0
 40
0.0
 40
0.0
 40
0.5
 40
0.5
 40
1.0
 40
1.0
 40
1.0
 40
1.0
 10
159.9423280063091
 20
115.1603309241765
 30
0.0
 10
159.7335180816428
 20
115.8163436907816
 30
0.0
 10
159.5629839418956
 20
116.4766105976393
 30
0.0
 10
159.3281981368767
 20
117.8089571162743
 30
0.0
 10
159.2646066010494
 20
118.4811100977617
 30
0.0
 10
159.2646066010494
 20
119.1603309241766
 30
0.0
  0
LINE
  5
1F2
330
1F
100
AcDbEntity
  8
0
  6
Continuous
 62
     7
370
    25
100
AcDbLine
 10
177.4423280063
 20
115.1603309242
 30
0.0
 11
181.9425476285
 21
115.1603309242
 31
0.0
  0
SPLINE
  5
1F3
330
1F
100
AcDbEntity
  8
0
  6
Continuous
 62
     7
370
    25
100
AcDbSpline
210
0.0
220
0.0
230
1.0
 70
     8
 71
     3
 72
     9
 73
     5
 74
     0
 42
0.00000001
 43
0.00000001
 40
0.0
 40
0.0
 40
0.0
 40
0.0
 40
0.7362860508993386
 40
1.0
 40
1.0
 40
1.0
 40
1.0
 10
177.4423280063096
 20
115.1603309241765
 30
0.0
 10
177.2504084011635
 20
115.8107357551271
 30
0.0
 10
176.9897493748086
 20
116.6940946482585
 30
0.0
 10
176.8811655021702
 20
117.5994283401486
 30
0.0
 10
176.8525304203081
 20
117.8381774632909
 30
0.0
  0
LINE
  5
1F4
330
1F
100
AcDbEntity
  8
0
  6
Continuous
 62
     7
370
    25
100
AcDbLine
 10
176.764606601
 20
117.8655153202
 30
0.0
 11
176.764606601
 21
115.9103309242
 31
0.0
  0
LINE
  5
1F5
330
1F
100
AcDbEntity
  8
0
  6
Continuous
 62
     7
370
    25
100
AcDbLine
 10
176.764606601
 20
115.9103309242
 30
0.0
 11
164.764606601
 21
115.9103309242
 31
0.0
  0
LINE
  5
1F6
330
1F
100
AcDbEntity
  8
0
  6
Continuous
 62
     7
370
    25
100
AcDbLine
 10
164.764606601
 20
118.9941674308
 30
0.0
 11
164.764606601
 21
115.9103309242
 31
0.0
  0
LINE
  5
1F7
330
1F
100
AcDbEntity
  8
0
  6
Continuous
 62
     7
370
    25
100
AcDbLine
 10
164.764606601
 20
130.9103309242
 30
0.0
 11
164.764606601
 21
127.8264944175
 31
0.0
  0
LINE
  5
1F8
330
1F
100
AcDbEntity
  8
0
  6
Continuous
 62
     7
370
    25
100
AcDbLine
 10
164.764606601
 20
130.9103309242
 30
0.0
 11
176.764606601
 21
130.9103309242
 31
0.0
  0
LINE
  5
1F9
330
1F
100
AcDbEntity
  8
0
  6
Continuous
 62
     7
370
    25
100
AcDbLine
 10
176.764606601
 20
130.9103309242
 30
0.0
 11
176.764606601
 21
128.9551465281
 31
0.0
  0
SPLINE
  5
1FA
330
1F
100
AcDbEntity
  8
0
  6
Continuous
 62
     7
370
    25
100
AcDbSpline
210
0.0
220
0.0
230
1.0
 70
     8
 71
     3
 72
     8
 73
     4
 74
     0
 42
0.00000001
 43
0.00000001
 40
0.0
 40
0.0
 40
0.0
 40
0.0
 40
1.0
 40
1.0
 40
1.0
 40
1.0
 10
164.2483705240702
 20
131.9103309241765
 30
0.0
 10
164.42207360029
 20
131.5778195020411
 30
0.0
 10
164.5943758193526
 20
131.2444924021422
 30
0.0
 10
164.7646066010494
 20
130.9103309241765
 30
0.0
  0
SPLINE
  5
1FB
330
1F
100
AcDbEntity
  8
0
  6
Continuous
 62
     7
370
    25
100
AcDbSpline
210
0.0
220
0.0
230
1.0
 70
     8
 71
     3
 72
    10
 73
     6
 74
     0
 42
0.00000001
 43
0.00000001
 40
0.0
 40
0.0
 40
0.0
 40
0.0
 40
0.5
 40
0.5
 40
1.0
 40
1.0
 40
1.0
 40
1.0
 10
164.0868851957948
 20
131.9103309241765
 30
0.0
 10
164.0632098013705
 20
131.9103309241765
 30
0.0
 10
164.0501186914802
 20
131.8875384748471
 30
0.0
 10
164.0500323701918
 20
131.799595770754
 30
0.0
 10
164.0632013041356
 20
131.7347379970801
 30
0.0
 10
164.0868851957891
 20
131.6603309241766
 30
0.0
  0
SPLINE
  5
1FC
330
1F
100
AcDbEntity
  8
0
  6
Continuous
 62
     7
370
    25
100
AcDbSpline
210
0.0
220
0.0
230
1.0
 70
    24
 71
     3
 72
     8
 73
     4
 74
     0
 42
0.00000001
 43
0.00000001
 40
0.0
 40
0.0
 40
0.0
 40
0.0
 40
1.0
 40
1.0
 40
1.0
 40
1.0
 10
164.2483705240702
 20
131.9103309241765
 30
0.0
 10
164.1974718071478
 20
131.9103309241765
 30
0.0
 10
164.1435376708972
 20
131.9103309241765
 30
0.0
 10
164.0868851957896
 20
131.9103309241765
 30
0.0
  0
SPLINE
  5
1FD
330
1F
100
AcDbEntity
  8
0
  6
Continuous
 62
     7
370
    25
100
AcDbSpline
210
0.0
220
0.0
230
1.0
 70
     8
 71
     3
 72
     8
 73
     4
 74
     0
 42
0.00000001
 43
0.00000001
 40
0.0
 40
0.0
 40
0.0
 40
0.0
 40
1.0
 40
1.0
 40
1.0
 40
1.0
 10
176.7646066010494
 20
130.9103309241765
 30
0.0
 10
176.9348842083931
 20
131.2445843204619
 30
0.0
 10
177.1071559570188
 20
131.5778508100308
 30
0.0
 10
177.2808426780284
 20
131.9103309241763
 30
0.0
  0
SPLINE
  5
1FE
330
1F
100
AcDbEntity
  8
0
  6
Continuous
 62
     7
370
    25
100
AcDbSpline
210
0.0
220
0.0
230
1.0
 70
    24
 71
     3
 72
     8
 73
     4
 74
     0
 42
0.00000001
 43
0.00000001
 40
0.0
 40
0.0
 40
0.0
 40
0.0
 40
1.0
 40
1.0
 40
1.0
 40
1.0
 10
177.280842678028
 20
131.9103309241765
 30
0.0
 10
177.3317389112833
 20
131.9103309241765
 30
0.0
 10
177.3856728662471
 20
131.9103309241765
 30
0.0
 10
177.4423280063096
 20
131.9103309241765
 30
0.0
  0
SPLINE
  5
1FF
330
1F
100
AcDbEntity
  8
0
  6
Continuous
 62
     7
370
    25
100
AcDbSpline
210
0.0
220
0.0
230
1.0
 70
     8
 71
     3
 72
    10
 73
     6
 74
     0
 42
0.00000001
 43
0.00000001
 40
0.0
 40
0.0
 40
0.0
 40
0.0
 40
0.5
 40
0.5
 40
1.0
 40
1.0
 40
1.0
 40
1.0
 10
177.4423280063096
 20
131.6603309241765
 30
0.0
 10
177.466003400734
 20
131.7347113015539
 30
0.0
 10
177.4790945106186
 20
131.7990119403397
 30
0.0
 10
177.4791808319069
 20
131.8872276251226
 30
0.0
 10
177.4660118979631
 20
131.9103309241765
 30
0.0
 10
177.4423280063096
 20
131.9103309241765
 30
0.0
  0
SPLINE
  5
200
330
1F
100
AcDbEntity
  8
0
  6
Continuous
 62
     7
370
    25
100
AcDbSpline
210
0.0
220
0.0
230
1.0
 70
     8
 71
     3
 72
    10
 73
     6
 74
     0
 42
0.00000001
 43
0.00000001
 40
0.0
 40
0.0
 40
0.0
 40
0.0
 40
0.5
 40
0.5
 40
1.0
 40
1.0
 40
1.0
 40
1.0
 10
159.9423280063096
 20
131.9103309241765
 30
0.0
 10
159.9660019068655
 20
131.9103309241765
 30
0.0
 10
159.9790944640447
 20
131.8875403525291
 30
0.0
 10
159.9791808780269
 20
131.7995943552303
 30
0.0
 10
159.9660104864283
 20
131.7347335624976
 30
0.0
 10
159.9423280063096
 20
131.6603309241765
 30
0.0
  0
SPLINE
  5
201
330
1F
100
AcDbEntity
  8
0
  6
Continuous
 62
     7
370
    25
100
AcDbSpline
210
0.0
220
0.0
230
1.0
 70
    24
 71
     3
 72
    12
 73
     8
 74
     0
 42
0.00000001
 43
0.00000001
 40
0.0
 40
0.0
 40
0.0
 40
0.0
 40
0.2499999999999999
 40
0.2499999999999999
 40
0.4999999999999998
 40
0.4999999999999998
 40
1.0
 40
1.0
 40
1.0
 40
1.0
 10
159.2646066010494
 20
131.9103309241765
 30
0.0
 10
159.2646066010494
 20
131.9103309241765
 30
0.0
 10
159.2806054060304
 20
131.9103309241765
 30
0.0
 10
159.3423755443448
 20
131.9103309241765
 30
0.0
 10
159.3881176686464
 20
131.9103309241765
 30
0.0
 10
159.5647878159933
 20
131.9103309241765
 30
0.0
 10
159.7350428814736
 20
131.9103309241765
 30
0.0
 10
159.9423280063096
 20
131.9103309241765
 30
0.0
  0
LINE
  5
202
330
1F
100
AcDbEntity
  8
0
  6
Continuous
 62
     7
370
    25
100
AcDbLine
 10
159.264606601
 20
131.9103309242
 30
0.0
 11
159.264606601
 21
127.6603309242
 31
0.0
  0
SPLINE
  5
203
330
1F
100
AcDbEntity
  8
0
  6
Continuous
 62
     7
370
    25
100
AcDbSpline
210
0.0
220
0.0
230
1.0
 70
     8
 71
     3
 72
     8
 73
     4
 74
     0
 42
0.00000001
 43
0.00000001
 40
0.0
 40
0.0
 40
0.0
 40
0.0
 40
1.0
 40
1.0
 40
1.0
 40
1.0
 10
177.2808426780285
 20
114.9103309241765
 30
0.0
 10
177.1071396018088
 20
115.2428423463121
 30
0.0
 10
176.9348373827461
 20
115.5761694462109
 30
0.0
 10
176.7646066010494
 20
115.9103309241766
 30
0.0
  0
SPLINE
  5
204
330
1F
100
AcDbEntity
  8
0
  6
Continuous
 62
     7
370
    25
100
AcDbSpline
210
0.0
220
0.0
230
1.0
 70
     8
 71
     3
 72
    10
 73
     6
 74
     0
 42
0.00000001
 43
0.00000001
 40
0.0
 40
0.0
 40
0.0
 40
0.0
 40
0.5
 40
0.5
 40
1.0
 40
1.0
 40
1.0
 40
1.0
 10
177.4423280063096
 20
114.9103309241766
 30
0.0
 10
177.466003400734
 20
114.9103309241766
 30
0.0
 10
177.4790945106186
 20
114.9331233735063
 30
0.0
 10
177.4791808319069
 20
115.0210660775994
 30
0.0
 10
177.4660118979631
 20
115.0859238512733
 30
0.0
 10
177.4423280063096
 20
115.1603309241765
 30
0.0
  0
SPLINE
  5
205
330
1F
100
AcDbEntity
  8
0
  6
Continuous
 62
     7
370
    25
100
AcDbSpline
210
0.0
220
0.0
230
1.0
 70
    24
 71
     3
 72
     8
 73
     4
 74
     0
 42
0.00000001
 43
0.00000001
 40
0.0
 40
0.0
 40
0.0
 40
0.0
 40
1.0
 40
1.0
 40
1.0
 40
1.0
 10
177.2808426780286
 20
114.9103309241766
 30
0.0
 10
177.3317389112836
 20
114.9103309241766
 30
0.0
 10
177.3856728662473
 20
114.9103309241766
 30
0.0
 10
177.4423280063096
 20
114.9103309241766
 30
0.0
  0
SPLINE
  5
206
330
1F
100
AcDbEntity
  8
0
  6
Continuous
 62
     7
370
    25
100
AcDbSpline
210
0.0
220
0.0
230
1.0
 70
     8
 71
     3
 72
     8
 73
     4
 74
     0
 42
0.00000001
 43
0.00000001
 40
0.0
 40
0.0
 40
0.0
 40
0.0
 40
1.0
 40
1.0
 40
1.0
 40
1.0
 10
164.7646066010494
 20
115.9103309241766
 30
0.0
 10
164.5943289937056
 20
115.5760775278912
 30
0.0
 10
164.4220572450799
 20
115.2428110383221
 30
0.0
 10
164.2483705240702
 20
114.9103309241766
 30
0.0
  0
SPLINE
  5
207
330
1F
100
AcDbEntity
  8
0
  6
Continuous
 62
     7
370
    25
100
AcDbSpline
210
0.0
220
0.0
230
1.0
 70
    24
 71
     3
 72
     8
 73
     4
 74
     0
 42
0.00000001
 43
0.00000001
 40
0.0
 40
0.0
 40
0.0
 40
0.0
 40
1.0
 40
1.0
 40
1.0
 40
1.0
 10
164.2483705240702
 20
114.9103309241766
 30
0.0
 10
164.1974718071477
 20
114.9103309241766
 30
0.0
 10
164.1435376708969
 20
114.9103309241766
 30
0.0
 10
164.0868851957892
 20
114.9103309241766
 30
0.0
  0
SPLINE
  5
208
330
1F
100
AcDbEntity
  8
0
  6
Continuous
 62
     7
370
    25
100
AcDbSpline
210
0.0
220
0.0
230
1.0
 70
     8
 71
     3
 72
    10
 73
     6
 74
     0
 42
0.00000001
 43
0.00000001
 40
0.0
 40
0.0
 40
0.0
 40
0.0
 40
0.5
 40
0.5
 40
1.0
 40
1.0
 40
1.0
 40
1.0
 10
164.0868851957892
 20
115.1603309241766
 30
0.0
 10
164.0632098013648
 20
115.0859505467992
 30
0.0
 10
164.0501186914802
 20
115.0216499080135
 30
0.0
 10
164.0500323701919
 20
114.9334342232305
 30
0.0
 10
164.0632013041357
 20
114.9103309241766
 30
0.0
 10
164.0868851957892
 20
114.9103309241766
 30
0.0
  0
SPLINE
  5
209
330
1F
100
AcDbEntity
  8
0
  6
Continuous
 62
     7
370
    25
100
AcDbSpline
210
0.0
220
0.0
230
1.0
 70
     8
 71
     3
 72
    10
 73
     6
 74
     0
 42
0.00000001
 43
0.00000001
 40
0.0
 40
0.0
 40
0.0
 40
0.0
 40
0.5
 40
0.5
 40
1.0
 40
1.0
 40
1.0
 40
1.0
 10
159.9423280063096
 20
115.1603309241766
 30
0.0
 10
159.9660002462211
 20
115.085960457251
 30
0.0
 10
159.9790942361564
 20
115.0216548609631
 30
0.0
 10
159.9791811036178
 20
114.9334320731573
 30
0.0
 10
159.9660113138584
 20
114.9103309241766
 30
0.0
 10
159.9423280063096
 20
114.9103309241766
 30
0.0
  0
SPLINE
  5
20A
330
1F
100
AcDbEntity
  8
0
  6
Continuous
 62
     7
370
    25
100
AcDbSpline
210
0.0
220
0.0
230
1.0
 70
    24
 71
     3
 72
    12
 73
     8
 74
     0
 42
0.00000001
 43
0.00000001
 40
0.0
 40
0.0
 40
0.0
 40
0.0
 40
0.2500000000000001
 40
0.2500000000000001
 40
0.5000000000000001
 40
0.5000000000000001
 40
1.0
 40
1.0
 40
1.0
 40
1.0
 10
159.2646066010494
 20
114.9103309241766
 30
0.0
 10
159.2646066010494
 20
114.9103309241766
 30
0.0
 10
159.2806054060304
 20
114.9103309241766
 30
0.0
 10
159.3423755443448
 20
114.9103309241766
 30
0.0
 10
159.3881176686464
 20
114.9103309241766
 30
0.0
 10
159.5647878159933
 20
114.9103309241766
 30
0.0
 10
159.7350428814736
 20
114.9103309241766
 30
0.0
 10
159.9423280063096
 20
114.9103309241766
 30
0.0
  0
LINE
  5
20B
330
1F
100
AcDbEntity
  8
0
  6
Continuous
 62
     7
370
    25
100
AcDbLine
 10
159.264606601
 20
114.9103309242
 30
0.0
 11
159.264606601
 21
119.1603309242
 31
0.0
  0
LINE
  5
20C
330
1F
100
AcDbEntity
  8
0
  6
Continuous
 62
     7
370
    25
100
AcDbLine
 10
177.4423280063
 20
131.9103309242
 30
0.0
 11
181.9425476285
 21
131.9103309242
 31
0.0
  0
LINE
  5
20D
330
1F
100
AcDbEntity
  8
0
  6
Continuous
 62
     7
370
    25
100
AcDbLine
 10
159.9423280063
 20
131.9103309242
 30
0.0
 11
164.0868851958
 21
131.9103309242
 31
0.0
  0
LINE
  5
20E
330
1F
100
AcDbEntity
  8
0
  6
Continuous
 62
     7
370
    25
100
AcDbLine
 10
181.9425476285
 20
114.9103309242
 30
0.0
 11
177.4423280063
 21
114.9103309242
 31
0.0
  0
LINE
  5
20F
330
1F
100
AcDbEntity
  8
0
  6
Continuous
 62
     7
370
    25
100
AcDbLine
 10
164.0868851958
 20
114.9103309242
 30
0.0
 11
159.9423280063
 21
114.9103309242
 31
0.0
  0
LINE
  5
210
330
1F
100
AcDbEntity
  8
0
  6
Continuous
 62
     7
370
    25
100
AcDbLine
 10
177.280842678
 20
131.9103309242
 30
0.0
 11
164.2483705241
 21
131.9103309242
 31
0.0
  0
LINE
  5
211
330
1F
100
AcDbEntity
  8
0
  6
Continuous
 62
     7
370
    25
100
AcDbLine
 10
177.280842678
 20
114.9103309242
 30
0.0
 11
164.2483705241
 21
114.9103309242
 31
0.0
  0
SPLINE
  5
212
330
1F
100
AcDbEntity
  8
0
  6
Continuous
 62
     7
370
    25
100
AcDbSpline
210
0.0
220
0.0
230
1.0
 70
     8
 71
     3
 72
    15
 73
    11
 74
     0
 42
0.00000001
 43
0.00000001
 40
0.0
 40
0.0
 40
0.0
 40
0.0
 40
0.0090459071881971
 40
0.1032433785236816
 40
0.1542564497735189
 40
0.31331690267151
 40
0.5243720399414428
 40
0.6678060008509183
 40
0.9918332554187028
 40
1.0
 40
1.0
 40
1.0
 40
1.0
 10
165.5255212683913
 20
125.0842439676548
 30
0.0
 10
165.525526960358
 20
125.0842263219304
 30
0.0
 10
165.5255919243087
 20
125.0840249265178
 30
0.0
 10
165.5275876107446
 20
125.0778353058516
 30
0.0
 10
165.5354046069611
 20
125.0536333740075
 30
0.0
 10
165.552574430716
 20
125.0006143820058
 30
0.0
 10
165.5791583272836
 20
124.9192434948093
 30
0.0
 10
165.6169876257722
 20
124.8046644227867
 30
0.0
 10
165.6452684057824
 20
124.7202392450676
 30
0.0
 10
165.6650995533137
 20
124.6617683871156
 30
0.0
 10
165.6655870874566
 20
124.6603309241765
 30
0.0
  0
ARC
  5
213
330
1F
100
AcDbEntity
  8
0
  6
Continuous
 62
     7
370
    25
100
AcDbCircle
 10
170.764606601
 20
123.4103309242
 30
0.0
 40
5.500000000000025
100
AcDbArc
 50
17.7189318734
 51
162.2810681266
  0
SPLINE
  5
214
330
1F
100
AcDbEntity
  8
0
  6
Continuous
 62
     7
370
    25
100
AcDbSpline
210
0.0
220
0.0
230
1.0
 70
     8
 71
     3
 72
    15
 73
    11
 74
     0
 42
0.00000001
 43
0.00000001
 40
0.0
 40
0.0
 40
0.0
 40
0.0
 40
0.0081667445812973
 40
0.3321939991490804
 40
0.475627960058556
 40
0.6866830973284891
 40
0.8457435502264751
 40
0.8967566214763124
 40
0.9909540928118028
 40
1.0
 40
1.0
 40
1.0
 40
1.0
 10
175.8636261146422
 20
124.6603309241765
 30
0.0
 10
175.864113648785
 20
124.6617683871156
 30
0.0
 10
175.8839447963163
 20
124.7202392450676
 30
0.0
 10
175.9122255763265
 20
124.8046644227867
 30
0.0
 10
175.9500548748152
 20
124.9192434948092
 30
0.0
 10
175.9766387713827
 20
125.0006143820058
 30
0.0
 10
175.9938085951377
 20
125.0536333740075
 30
0.0
 10
176.0016255913541
 20
125.0778353058516
 30
0.0
 10
176.00362127779
 20
125.0840249265178
 30
0.0
 10
176.0036862417408
 20
125.0842263219304
 30
0.0
 10
176.0036919337075
 20
125.0842439676548
 30
0.0
  0
ARC
  5
215
330
1F
100
AcDbEntity
  8
0
  6
Continuous
 62
     7
370
    25
100
AcDbCircle
 10
170.764606601
 20
123.4103309242
 30
0.0
 40
5.250000000000005
100
AcDbArc
 50
13.774146998
 51
166.225853002
  0
SPLINE
  5
216
330
1F
100
AcDbEntity
  8
0
  6
Continuous
 62
     7
370
    25
100
AcDbSpline
210
0.0
220
0.0
230
1.0
 70
     8
 71
     3
 72
    15
 73
    11
 74
     0
 42
0.00000001
 43
0.00000001
 40
0.0
 40
0.0
 40
0.0
 40
0.0
 40
0.0080847466189582
 40
0.3310106400648243
 40
0.4750333064304948
 40
0.6874363079215142
 40
0.8468367539418303
 40
0.9000996640391847
 40
0.9910442771984082
 40
1.0
 40
1.0
 40
1.0
 40
1.0
 10
165.6655870874566
 20
124.6603309241765
 30
0.0
 10
165.6643072559125
 20
124.6611468601649
 30
0.0
 10
165.6119076101892
 20
124.6945534103594
 30
0.0
 10
165.5365525187341
 20
124.7433669750932
 30
0.0
 10
165.4346334067165
 20
124.8107374473615
 30
0.0
 10
165.3622424617245
 20
124.859321487705
 30
0.0
 10
165.3145370334597
 20
124.8917703491635
 30
0.0
 10
165.2930015497524
 20
124.9064813902298
 30
0.0
 10
165.2875725337329
 20
124.9101998411479
 30
0.0
 10
165.2873967815763
 20
124.9103201398134
 30
0.0
 10
165.2873810259977
 20
124.9103309241765
 30
0.0
  0
ARC
  5
217
330
1F
100
AcDbEntity
  8
0
  6
Continuous
 62
     7
370
    25
100
AcDbCircle
 10
165.287381026
 20
125.1603309242
 30
0.0
 40
0.25
100
AcDbArc
 50
270.0
 51
342.2810681266
  0
SPLINE
  5
218
330
1F
100
AcDbEntity
  8
0
  6
Continuous
 62
     7
370
    25
100
AcDbSpline
210
0.0
220
0.0
230
1.0
 70
     8
 71
     3
 72
    15
 73
    11
 74
     0
 42
0.00000001
 43
0.00000001
 40
0.0
 40
0.0
 40
0.0
 40
0.0
 40
0.0089557228015919
 40
0.0999003359608209
 40
0.1531632460581751
 40
0.3125636920784904
 40
0.5249666935695061
 40
0.6689893599351777
 40
0.991915253381045
 40
1.0
 40
1.0
 40
1.0
 40
1.0
 10
176.241832176101
 20
124.9103309241765
 30
0.0
 10
176.2418164205224
 20
124.9103201398134
 30
0.0
 10
176.2416406683659
 20
124.9101998411479
 30
0.0
 10
176.2362116523464
 20
124.9064813902298
 30
0.0
 10
176.214676168639
 20
124.8917703491635
 30
0.0
 10
176.1669707403742
 20
124.859321487705
 30
0.0
 10
176.0945797953823
 20
124.8107374473615
 30
0.0
 10
175.9926606833646
 20
124.7433669750932
 30
0.0
 10
175.9173055919096
 20
124.6945534103593
 30
0.0
 10
175.8649059461863
 20
124.6611468601649
 30
0.0
 10
175.8636261146422
 20
124.6603309241765
 30
0.0
  0
ARC
  5
219
330
1F
100
AcDbEntity
  8
0
  6
Continuous
 62
     7
370
    25
100
AcDbCircle
 10
176.2418321761
 20
125.1603309242
 30
0.0
 40
0.25
100
AcDbArc
 50
197.7189318734
 51
270.0
  0
ARC
  5
21A
330
1F
100
AcDbEntity
  8
0
  6
Continuous
 62
     7
370
    25
100
AcDbCircle
 10
176.2418321761
 20
121.6603309242
 30
0.0
 40
0.25
100
AcDbArc
 50
90.0
 51
162.2810681266
  0
SPLINE
  5
21B
330
1F
100
AcDbEntity
  8
0
  6
Continuous
 62
     7
370
    25
100
AcDbSpline
210
0.0
220
0.0
230
1.0
 70
     8
 71
     3
 72
    15
 73
    11
 74
     0
 42
0.00000001
 43
0.00000001
 40
0.0
 40
0.0
 40
0.0
 40
0.0
 40
0.0090459071881971
 40
0.1032433785236874
 40
0.1542564497735246
 40
0.313316902671511
 40
0.5243720399414428
 40
0.6678060008509903
 40
0.9918332554187292
 40
1.0
 40
1.0
 40
1.0
 40
1.0
 10
176.0036919337075
 20
121.7364178806983
 30
0.0
 10
176.0036862417408
 20
121.7364355264228
 30
0.0
 10
176.00362127779
 20
121.7366369218353
 30
0.0
 10
176.0016255913541
 20
121.7428265425015
 30
0.0
 10
175.9938085951377
 20
121.7670284743457
 30
0.0
 10
175.9766387713827
 20
121.8200474663473
 30
0.0
 10
175.9500548748152
 20
121.9014183535439
 30
0.0
 10
175.9122255763264
 20
122.0159974255664
 30
0.0
 10
175.8839447963171
 20
122.1004226032858
 30
0.0
 10
175.864113648785
 20
122.1588934612376
 30
0.0
 10
175.8636261146422
 20
122.1603309241766
 30
0.0
  0
SPLINE
  5
21C
330
1F
100
AcDbEntity
  8
0
  6
Continuous
 62
     7
370
    25
100
AcDbSpline
210
0.0
220
0.0
230
1.0
 70
     8
 71
     3
 72
    15
 73
    11
 74
     0
 42
0.00000001
 43
0.00000001
 40
0.0
 40
0.0
 40
0.0
 40
0.0
 40
0.0080847466189818
 40
0.3310106400647567
 40
0.4750333064304972
 40
0.6874363079215137
 40
0.8468367539418253
 40
0.9000996640391794
 40
0.9910442771984082
 40
1.0
 40
1.0
 40
1.0
 40
1.0
 10
175.8636261146422
 20
122.1603309241766
 30
0.0
 10
175.8649059461863
 20
122.1595149881883
 30
0.0
 10
175.9173055919101
 20
122.1261084379946
 30
0.0
 10
175.9926606833645
 20
122.0772948732598
 30
0.0
 10
176.0945797953823
 20
122.0099244009916
 30
0.0
 10
176.1669707403742
 20
121.9613403606482
 30
0.0
 10
176.214676168639
 20
121.9288914991896
 30
0.0
 10
176.2362116523464
 20
121.9141804581233
 30
0.0
 10
176.2416406683659
 20
121.9104620072052
 30
0.0
 10
176.2418164205224
 20
121.9103417085397
 30
0.0
 10
176.241832176101
 20
121.9103309241766
 30
0.0
  0
SPLINE
  5
21D
330
1F
100
AcDbEntity
  8
0
  6
Continuous
 62
     7
370
    25
100
AcDbSpline
210
0.0
220
0.0
230
1.0
 70
     8
 71
     3
 72
    15
 73
    11
 74
     0
 42
0.00000001
 43
0.00000001
 40
0.0
 40
0.0
 40
0.0
 40
0.0
 40
0.0081667445812695
 40
0.3321939991490083
 40
0.4756279600585602
 40
0.6866830973284899
 40
0.8457435502264811
 40
0.8967566214763185
 40
0.9909540928118029
 40
1.0
 40
1.0
 40
1.0
 40
1.0
 10
165.6655870874566
 20
122.1603309241766
 30
0.0
 10
165.6650995533137
 20
122.1588934612376
 30
0.0
 10
165.6452684057816
 20
122.1004226032858
 30
0.0
 10
165.6169876257724
 20
122.0159974255664
 30
0.0
 10
165.5791583272836
 20
121.9014183535439
 30
0.0
 10
165.552574430716
 20
121.8200474663473
 30
0.0
 10
165.5354046069611
 20
121.7670284743457
 30
0.0
 10
165.5275876107446
 20
121.7428265425015
 30
0.0
 10
165.5255919243087
 20
121.7366369218353
 30
0.0
 10
165.525526960358
 20
121.7364355264228
 30
0.0
 10
165.5255212683913
 20
121.7364178806983
 30
0.0
  0
ARC
  5
21E
330
1F
100
AcDbEntity
  8
0
  6
Continuous
 62
     7
370
    25
100
AcDbCircle
 10
170.764606601
 20
123.4103309242
 30
0.0
 40
5.250000000000009
100
AcDbArc
 50
193.774146998
 51
346.225853002
  0
ARC
  5
21F
330
1F
100
AcDbEntity
  8
0
  6
Continuous
 62
     7
370
    25
100
AcDbCircle
 10
170.764606601
 20
123.4103309242
 30
0.0
 40
5.50000000000002
100
AcDbArc
 50
197.7189318734
 51
342.2810681266
  0
ARC
  5
220
330
1F
100
AcDbEntity
  8
0
  6
Continuous
 62
     7
370
    25
100
AcDbCircle
 10
165.287381026
 20
121.6603309242
 30
0.0
 40
0.25
100
AcDbArc
 50
17.7189318734
 51
90.0
  0
SPLINE
  5
221
330
1F
100
AcDbEntity
  8
0
  6
Continuous
 62
     7
370
    25
100
AcDbSpline
210
0.0
220
0.0
230
1.0
 70
     8
 71
     3
 72
    15
 73
    11
 74
     0
 42
0.00000001
 43
0.00000001
 40
0.0
 40
0.0
 40
0.0
 40
0.0
 40
0.0089557228015919
 40
0.0999003359608148
 40
0.153163246058169
 40
0.3125636920784848
 40
0.5249666935694999
 40
0.6689893599352451
 40
0.9919152533810159
 40
1.0
 40
1.0
 40
1.0
 40
1.0
 10
165.2873810259977
 20
121.9103309241766
 30
0.0
 10
165.2873967815763
 20
121.9103417085397
 30
0.0
 10
165.2875725337329
 20
121.9104620072052
 30
0.0
 10
165.2930015497524
 20
121.9141804581233
 30
0.0
 10
165.3145370334597
 20
121.9288914991896
 30
0.0
 10
165.3622424617245
 20
121.9613403606482
 30
0.0
 10
165.4346334067164
 20
122.0099244009916
 30
0.0
 10
165.5365525187342
 20
122.0772948732598
 30
0.0
 10
165.6119076101887
 20
122.1261084379946
 30
0.0
 10
165.6643072559124
 20
122.1595149881883
 30
0.0
 10
165.6655870874566
 20
122.1603309241766
 30
0.0
  0
LINE
  5
222
330
1F
100
AcDbEntity
  8
0
  6
Continuous
 62
     7
370
    25
100
AcDbLine
 10
165.764606601
 20
122.8103309242
 30
0.0
 11
175.764606601
 21
122.8103309242
 31
0.0
  0
LINE
  5
223
330
1F
100
AcDbEntity
  8
0
  6
Continuous
 62
     7
370
    25
100
AcDbLine
 10
165.764606601
 20
124.0103309242
 30
0.0
 11
165.764606601
 21
122.8103309242
 31
0.0
  0
LINE
  5
224
330
1F
100
AcDbEntity
  8
0
  6
Continuous
 62
     7
370
    25
100
AcDbLine
 10
175.764606601
 20
124.0103309242
 30
0.0
 11
165.764606601
 21
124.0103309242
 31
0.0
  0
LINE
  5
225
330
1F
100
AcDbEntity
  8
0
  6
Continuous
 62
     7
370
    25
100
AcDbLine
 10
175.764606601
 20
122.8103309242
 30
0.0
 11
175.764606601
 21
124.0103309242
 31
0.0
  0
LINE
  5
226
330
1F
100
AcDbEntity
  8
0
  6
Continuous
 62
     7
370
    25
100
AcDbLine
 10
165.014606601
 20
122.1603309242
 30
0.0
 11
165.6655870875
 21
122.1603309242
 31
0.0
  0
LINE
  5
227
330
1F
100
AcDbEntity
  8
0
  6
Continuous
 62
     7
370
    25
100
AcDbLine
 10
165.014606601
 20
124.6603309242
 30
0.0
 11
165.014606601
 21
122.1603309242
 31
0.0
  0
LINE
  5
228
330
1F
100
AcDbEntity
  8
0
  6
Continuous
 62
     7
370
    25
100
AcDbLine
 10
165.6655870875
 20
124.6603309242
 30
0.0
 11
165.014606601
 21
124.6603309242
 31
0.0
  0
LINE
  5
229
330
1F
100
AcDbEntity
  8
0
  6
Continuous
 62
     7
370
    25
100
AcDbLine
 10
176.514606601
 20
124.6603309242
 30
0.0
 11
175.8636261146
 21
124.6603309242
 31
0.0
  0
LINE
  5
22A
330
1F
100
AcDbEntity
  8
0
  6
Continuous
 62
     7
370
    25
100
AcDbLine
 10
176.514606601
 20
122.1603309242
 30
0.0
 11
176.514606601
 21
124.6603309242
 31
0.0
  0
LINE
  5
22B
330
1F
100
AcDbEntity
  8
0
  6
Continuous
 62
     7
370
    25
100
AcDbLine
 10
175.8636261146
 20
122.1603309242
 30
0.0
 11
176.514606601
 21
122.1603309242
 31
0.0
  0
LINE
  5
22C
330
1F
100
AcDbEntity
  8
0
  6
Continuous
 62
     7
370
    25
100
AcDbLine
 10
176.764606601
 20
124.6603309242
 30
0.0
 11
176.514606601
 21
124.6603309242
 31
0.0
  0
LINE
  5
22D
330
1F
100
AcDbEntity
  8
0
  6
Continuous
 62
     7
370
    25
100
AcDbLine
 10
176.514606601
 20
124.6603309242
 30
0.0
 11
176.514606601
 21
124.9103309242
 31
0.0
  0
ARC
  5
22E
330
1F
100
AcDbEntity
  8
0
  6
Continuous
 62
     7
370
    25
100
AcDbCircle
 10
176.514606601
 20
124.6603309242
 30
0.0
 40
0.25
100
AcDbArc
 50
0.0
 51
90.0
  0
LINE
  5
22F
330
1F
100
AcDbEntity
  8
0
  6
Continuous
 62
     7
370
    25
100
AcDbLine
 10
176.2418321761
 20
124.9103309242
 30
0.0
 11
176.514606601
 21
124.9103309242
 31
0.0
  0
ARC
  5
230
330
1F
100
AcDbEntity
  8
0
  6
Continuous
 62
     7
370
    25
100
AcDbCircle
 10
165.014606601
 20
124.6603309242
 30
0.0
 40
0.25
100
AcDbArc
 50
90.0
 51
180.0
  0
LINE
  5
231
330
1F
100
AcDbEntity
  8
0
  6
Continuous
 62
     7
370
    25
100
AcDbLine
 10
165.014606601
 20
124.9103309242
 30
0.0
 11
165.014606601
 21
124.6603309242
 31
0.0
  0
LINE
  5
232
330
1F
100
AcDbEntity
  8
0
  6
Continuous
 62
     7
370
    25
100
AcDbLine
 10
165.014606601
 20
124.6603309242
 30
0.0
 11
164.764606601
 21
124.6603309242
 31
0.0
  0
LINE
  5
233
330
1F
100
AcDbEntity
  8
0
  6
Continuous
 62
     7
370
    25
100
AcDbLine
 10
165.014606601
 20
124.9103309242
 30
0.0
 11
165.287381026
 21
124.9103309242
 31
0.0
  0
LINE
  5
234
330
1F
100
AcDbEntity
  8
0
  6
Continuous
 62
     7
370
    25
100
AcDbLine
 10
176.764606601
 20
124.6603309242
 30
0.0
 11
176.764606601
 21
122.1603309242
 31
0.0
  0
LINE
  5
235
330
1F
100
AcDbEntity
  8
0
  6
Continuous
 62
     7
370
    25
100
AcDbLine
 10
176.514606601
 20
122.1603309242
 30
0.0
 11
176.764606601
 21
122.1603309242
 31
0.0
  0
LINE
  5
236
330
1F
100
AcDbEntity
  8
0
  6
Continuous
 62
     7
370
    25
100
AcDbLine
 10
164.764606601
 20
122.1603309242
 30
0.0
 11
165.014606601
 21
122.1603309242
 31
0.0
  0
LINE
  5
237
330
1F
100
AcDbEntity
  8
0
  6
Continuous
 62
     7
370
    25
100
AcDbLine
 10
164.764606601
 20
122.1603309242
 30
0.0
 11
164.764606601
 21
124.6603309242
 31
0.0
  0
LINE
  5
238
330
1F
100
AcDbEntity
  8
0
  6
Continuous
 62
     7
370
    25
100
AcDbLine
 10
176.514606601
 20
121.9103309242
 30
0.0
 11
176.514606601
 21
122.1603309242
 31
0.0
  0
ARC
  5
239
330
1F
100
AcDbEntity
  8
0
  6
Continuous
 62
     7
370
    25
100
AcDbCircle
 10
176.514606601
 20
122.1603309242
 30
0.0
 40
0.25
100
AcDbArc
 50
270.0
 51
0.0
  0
LINE
  5
23A
330
1F
100
AcDbEntity
  8
0
  6
Continuous
 62
     7
370
    25
100
AcDbLine
 10
165.014606601
 20
122.1603309242
 30
0.0
 11
165.014606601
 21
121.9103309242
 31
0.0
  0
LINE
  5
23B
330
1F
100
AcDbEntity
  8
0
  6
Continuous
 62
     7
370
    25
100
AcDbLine
 10
165.287381026
 20
121.9103309242
 30
0.0
 11
165.014606601
 21
121.9103309242
 31
0.0
  0
LINE
  5
23C
330
1F
100
AcDbEntity
  8
0
  6
Continuous
 62
     7
370
    25
100
AcDbLine
 10
176.514606601
 20
121.9103309242
 30
0.0
 11
176.2418321761
 21
121.9103309242
 31
0.0
  0
ARC
  5
23D
330
1F
100
AcDbEntity
  8
0
  6
Continuous
 62
     7
370
    25
100
AcDbCircle
 10
165.014606601
 20
122.1603309242
 30
0.0
 40
0.25
100
AcDbArc
 50
180.0
 51
270.0
  0
LINE
  5
23E
330
1F
100
AcDbEntity
  8
0
  6
Continuous
 62
     7
370
    25
100
AcDbLine
 10
190.764606601
 20
120.1386316601
 30
0.0
 11
192.9400434626
 21
119.9103309242
 31
0.0
  0
LINE
  5
23F
330
1F
100
AcDbEntity
  8
0
  6
Continuous
 62
     7
370
    25
100
AcDbLine
 10
190.764606601
 20
126.6820301882
 30
0.0
 11
190.764606601
 21
120.1386316601
 31
0.0
  0
LINE
  5
240
330
1F
100
AcDbEntity
  8
0
  6
Continuous
 62
     7
370
    25
100
AcDbLine
 10
192.9400434626
 20
126.9103309242
 30
0.0
 11
190.764606601
 21
126.6820301882
 31
0.0
  0
LINE
  5
241
330
1F
100
AcDbEntity
  8
0
  6
Continuous
 62
     7
370
    25
100
AcDbLine
 10
210.764606601
 20
119.9103309242
 30
0.0
 11
210.764606601
 21
126.9103309242
 31
0.0
  0
LINE
  5
242
330
1F
100
AcDbEntity
  8
0
  6
Continuous
 62
     7
370
    25
100
AcDbLine
 10
192.9400434626
 20
119.9103309242
 30
0.0
 11
210.764606601
 21
119.9103309242
 31
0.0
  0
LINE
  5
243
330
1F
100
AcDbEntity
  8
0
  6
Continuous
 62
     7
370
    25
100
AcDbLine
 10
210.764606601
 20
126.9103309242
 30
0.0
 11
192.9400434626
 21
126.9103309242
 31
0.0
  0
LINE
  5
244
330
1F
100
AcDbEntity
  8
0
  6
Continuous
 62
     7
370
    25
100
AcDbLine
 10
175.9884087754
 20
121.6893164434
 30
0.0
 11
176.0849730927
 21
121.8487157636
 31
0.0
  0
LINE
  5
245
330
1F
100
AcDbEntity
  8
0
  6
Continuous
 62
     7
370
    25
100
AcDbLine
 10
176.1072504733
 20
124.9555485915
 30
0.0
 11
175.9884087754
 21
125.131345405
 31
0.0
  0
LINE
  5
246
330
1F
100
AcDbEntity
  8
0
  6
Continuous
 62
     7
370
    25
100
AcDbLine
 10
184.1811762547
 20
120.8295282886
 30
0.0
 11
184.1811762547
 21
125.9911335597
 31
0.0
  0
LINE
  5
247
330
1F
100
AcDbEntity
  8
0
  6
Continuous
 62
     7
370
    25
100
AcDbLine
 10
184.1811762547
 20
120.8295282886
 30
0.0
 11
175.9884087754
 21
121.6893164433
 31
0.0
  0
LINE
  5
248
330
1F
100
AcDbEntity
  8
0
  6
Continuous
 62
     7
370
    25
100
AcDbLine
 10
175.9884087754
 20
125.131345405
 30
0.0
 11
184.1811762547
 21
125.9911335597
 31
0.0
  0
LINE
  5
249
330
1F
100
AcDbEntity
  8
0
  6
Continuous
 62
     7
370
    25
100
AcDbLine
 10
190.764606601
 20
120.1386316601
 30
0.0
 11
184.1811762547
 21
120.8295282886
 31
0.0
  0
LINE
  5
24A
330
1F
100
AcDbEntity
  8
0
  6
Continuous
 62
     7
370
    25
100
AcDbLine
 10
184.1811762547
 20
125.9911335597
 30
0.0
 11
190.764606601
 21
126.6820301882
 31
0.0
  0
ARC
  5
24B
330
1F
100
AcDbEntity
  8
0
  6
Continuous
 62
     7
370
    25
100
AcDbCircle
 10
170.764606601
 20
123.4103309242
 30
0.0
 40
7.450000000000656
100
AcDbArc
 50
53.0863788866
 51
306.9136211134
  0
ARC
  5
24C
330
1F
100
AcDbEntity
  8
0
  6
Continuous
 62
     7
370
    25
100
AcDbCircle
 10
170.764606601
 20
123.4103309242
 30
0.0
 40
7.207531252870779
100
AcDbArc
 50
15.3041237151
 51
58.9797515565
  0
ARC
  5
24D
330
1F
100
AcDbEntity
  8
0
  6
Continuous
 62
     7
370
    25
100
AcDbCircle
 10
170.764606601
 20
123.4103309242
 30
0.0
 40
7.207531252872458
100
AcDbArc
 50
301.0202484435
 51
344.6958762849
  0
ARC
  5
24E
330
1F
100
AcDbEntity
  8
0
  6
Continuous
 62
     7
370
    25
100
AcDbCircle
 10
192.9400434626
 20
191.9103309242
 30
0.0
 40
65.0
100
AcDbArc
 50
253.4999050078
 51
270.0
  0
ARC
  5
24F
330
1F
100
AcDbEntity
  8
0
  6
Continuous
 62
     7
370
    25
100
AcDbCircle
 10
192.9400434626
 20
54.9103309242
 30
0.0
 40
64.99999999999999
100
AcDbArc
 50
90.0
 51
106.5000949923
  0
LINE
  5
250
330
1F
100
AcDbEntity
  8
0
  6
Continuous
 62
     7
370
    25
100
AcDbLine
 10
163.3188024134
 20
123.1603309242
 30
0.0
 11
159.9423280063
 21
123.1603309242
 31
0.0
  0
LINE
  5
251
330
1F
100
AcDbEntity
  8
0
  6
Continuous
 62
     7
370
    25
100
AcDbLine
 10
159.9423280063
 20
123.6603309242
 30
0.0
 11
163.3188024134
 21
123.6603309242
 31
0.0
  0
INSERT
  5
25D
330
1F
100
AcDbEntity
  8
0
  6
Continuous
 62
     7
370
    18
100
AcDbBlockReference
  2
SW_CENTERMARKSYMBOL_1
 10
170.764606601
 20
123.4103309242
 30
0.0
  0
LINE
  5
25E
330
1F
100
AcDbEntity
  8
0
  6
Continuous
 62
     7
370
    18
100
AcDbLine
 10
156.264606601
 20
130.8853309242
 30
0.0
 11
146.408606601
 21
130.8853309242
 31
0.0
  0
LINE
  5
25F
330
1F
100
AcDbEntity
  8
0
  6
Continuous
 62
     7
370
    18
100
AcDbLine
 10
146.408606601
 20
115.9353309242
 30
0.0
 11
156.264606601
 21
115.9353309242
 31
0.0
  0
LINE
  5
260
330
1F
100
AcDbEntity
  8
0
  6
Continuous
 62
     7
370
    25
100
AcDbLine
 10
156.264606601
 20
131.7413309242
 30
0.0
 11
156.264606601
 21
131.6985872574
 31
0.0
  0
SPLINE
  5
261
330
1F
100
AcDbEntity
  8
0
  6
Continuous
 62
     7
370
     0
100
AcDbSpline
210
0.0
220
0.0
230
1.0
 70
     8
 71
     3
 72
    37
 73
    33
 74
     0
 42
0.00000001
 43
0.00000001
 40
0.0
 40
0.0
 40
0.0
 40
0.0
 40
0.0333333334233123
 40
0.0666666667535429
 40
0.1000000000837737
 40
0.1333333334140043
 40
0.1666666667442349
 40
0.2000000000744649
 40
0.2333333334046959
 40
0.266666666734926
 40
0.3000000000651573
 40
0.3333333333953872
 40
0.366666666725618
 40
0.4000000000558494
 40
0.4333333333860795
 40
0.4666666667163103
 40
0.5000000000465407
 40
0.5333333333767715
 40
0.5666666667070022
 40
0.6000000000372326
 40
0.6333333333674632
 40
0.6666666666976938
 40
0.7000000000279243
 40
0.733333333358155
 40
0.7666666666883855
 40
0.800000000018616
 40
0.8333333333488468
 40
0.8666666666790774
 40
0.9000000000093081
 40
0.9333333333395388
 40
0.9666666666697694
 40
1.0
 40
1.0
 40
1.0
 40
1.0
 10
156.2645435333252
 20
131.6985872573545
 30
0.0
 10
156.2646066010494
 20
131.5707948647512
 30
0.0
 10
156.2646066010494
 20
131.3592650692454
 30
0.0
 10
156.2646066010494
 20
131.0661684527847
 30
0.0
 10
156.2646066010494
 20
130.6945125832771
 30
0.0
 10
156.2646066010494
 20
130.2481111528744
 30
0.0
 10
156.2646066010494
 20
129.7315448443302
 30
0.0
 10
156.2646066010494
 20
129.1501143269961
 30
0.0
 10
156.2646066010494
 20
128.5097858647812
 30
0.0
 10
156.2646066010494
 20
127.8171300942105
 30
0.0
 10
156.2646066010494
 20
127.0792546008032
 30
0.0
 10
156.2646066010493
 20
126.3037309856268
 30
0.0
 10
156.2646066010493
 20
125.498517170424
 30
0.0
 10
156.2646066010493
 20
124.6718757385672
 30
0.0
 10
156.2646066010493
 20
123.8322891497719
 30
0.0
 10
156.2646066010493
 20
122.9883726985812
 30
0.0
 10
156.2646066010493
 20
122.1487861097859
 30
0.0
 10
156.2646066010493
 20
121.3221446779291
 30
0.0
 10
156.2646066010493
 20
120.5169308627264
 30
0.0
 10
156.2646066010493
 20
119.7414072475499
 30
0.0
 10
156.2646066010493
 20
119.0035317541426
 30
0.0
 10
156.2646066010493
 20
118.310875983572
 30
0.0
 10
156.2646066010493
 20
117.670547521357
 30
0.0
 10
156.2646066010493
 20
117.0891170040229
 30
0.0
 10
156.2646066010493
 20
116.5725506954788
 30
0.0
 10
156.2646066010493
 20
116.1261492650761
 30
0.0
 10
156.2646066010493
 20
115.7544933955684
 30
0.0
 10
156.2646066010493
 20
115.4613967791078
 30
0.0
 10
156.2646066010493
 20
115.249866983602
 30
0.0
 10
156.2646066010493
 20
115.1220745909987
 30
0.0
 10
156.2646066010493
 20
115.0793309241766
 30
0.0
 10
156.2646066010493
 20
115.087571039147
 30
0.0
 10
156.2646066010493
 20
115.0793309241766
 30
0.0
  0
ENDSEC
  0
SECTION
  2
OBJECTS
  0
DICTIONARY
  5
C
330
0
100
AcDbDictionary
281
     1
  3
ACAD_GROUP
350
D
  3
ACAD_LAYOUT
350
1A
  3
ACAD_MLINESTYLE
350
17
  3
ACAD_PLOTSETTINGS
350
19
  3
ACAD_PLOTSTYLENAME
350
E
  3
ACAD_SCALELIST
350
47
  3
DWGPROPS
350
262
  0
DICTIONARY
  5
D
102
{ACAD_REACTORS
330
C
102
}
330
C
100
AcDbDictionary
281
     1
  0
DICTIONARY
  5
1A
102
{ACAD_REACTORS
330
C
102
}
330
C
100
AcDbDictionary
281
     1
  3
Layout1
350
1E
  3
Layout2
350
26
  3
Model
350
22
  0
DICTIONARY
  5
17
102
{ACAD_REACTORS
330
C
102
}
330
C
100
AcDbDictionary
281
     1
  3
Standard
350
18
  0
DICTIONARY
  5
19
102
{ACAD_REACTORS
330
C
102
}
330
C
100
AcDbDictionary
281
     1
  0
ACDBDICTIONARYWDFLT
  5
E
102
{ACAD_REACTORS
330
C
102
}
330
C
100
AcDbDictionary
281
     1
  3
Normal
350
F
100
AcDbDictionaryWithDefault
340
F
  0
DICTIONARY
  5
47
102
{ACAD_REACTORS
330
C
102
}
330
C
100
AcDbDictionary
281
     1
  3
A0
350
48
  3
A1
350
49
  3
A2
350
4A
  3
A3
350
4B
  3
A4
350
4C
  3
A5
350
4D
  3
A6
350
4E
  3
A7
350
4F
  3
A8
350
50
  3
A9
350
51
  3
B0
350
52
  3
B1
350
53
  3
B2
350
54
  3
B3
350
55
  3
B4
350
56
  3
B5
350
57
  3
B6
350
58
  0
XRECORD
  5
262
102
{ACAD_REACTORS
330
C
102
}
330
C
100
AcDbXrecord
280
     1
  1
DWGPROPS COOKIE
  2

  3

  4

  6

  7

  8
user28
  9

300
=
301
=
302
=
303
=
304
=
305
=
306
=
307
=
308
=
309
=
 40
0.0
 41
2460305.041163438
 42
2460305.041164282
  1

 90
        0
  0
LAYOUT
  5
1E
102
{ACAD_REACTORS
330
1A
102
}
330
1A
100
AcDbPlotSettings
  1

  2
none_device
  4

  6

 40
0.0
 41
0.0
 42
0.0
 43
0.0
 44
0.0
 45
0.0
 46
0.0
 47
0.0
 48
0.0
 49
0.0
140
0.0
141
0.0
142
1.0
143
1.0
 70
   688
 72
     1
 73
     0
 74
     5
  7

 75
    16
147
1.0
148
0.0
149
0.0
100
AcDbLayout
  1
Layout1
 70
     1
 71
     1
 10
0.0
 20
0.0
 11
420.0
 21
297.0
 12
0.0
 22
0.0
 32
0.0
 14
1.0000000000E+20
 24
1.0000000000E+20
 34
1.0000000000E+20
 15
-1.0000000000E+20
 25
-1.0000000000E+20
 35
-1.0000000000E+20
146
0.0
 13
0.0
 23
0.0
 33
0.0
 16
1.0
 26
0.0
 36
0.0
 17
0.0
 27
1.0
 37
0.0
 76
     0
330
1B
  0
LAYOUT
  5
26
102
{ACAD_REACTORS
330
1A
102
}
330
1A
100
AcDbPlotSettings
  1

  2
none_device
  4

  6

 40
0.0
 41
0.0
 42
0.0
 43
0.0
 44
0.0
 45
0.0
 46
0.0
 47
0.0
 48
0.0
 49
0.0
140
0.0
141
0.0
142
1.0
143
1.0
 70
   688
 72
     1
 73
     0
 74
     5
  7

 75
    16
147
1.0
148
0.0
149
0.0
100
AcDbLayout
  1
Layout2
 70
     1
 71
     2
 10
0.0
 20
0.0
 11
0.0
 21
0.0
 12
0.0
 22
0.0
 32
0.0
 14
0.0
 24
0.0
 34
0.0
 15
0.0
 25
0.0
 35
0.0
146
0.0
 13
0.0
 23
0.0
 33
0.0
 16
1.0
 26
0.0
 36
0.0
 17
0.0
 27
1.0
 37
0.0
 76
     0
330
23
  0
LAYOUT
  5
22
102
{ACAD_REACTORS
330
1A
102
}
330
1A
100
AcDbPlotSettings
  1

  2
none_device
  4
Letter_(8.50_x_11.00_Inches)
  6

 40
6.35
 41
6.35
 42
6.35000508
 43
6.35000508
 44
215.9
 45
279.4
 46
0.0
 47
0.0
 48
0.0
 49
0.0
140
0.0
141
0.0
142
1.0
143
1.0
 70
  1712
 72
     1
 73
     0
 74
     0
  7

 75
     0
147
1.0
148
0.0
149
0.0
100
AcDbLayout
  1
Model
 70
     1
 71
     0
 10
0.0
 20
0.0
 11
431.8
 21
279.4
 12
0.0
 22
0.0
 32
0.0
 14
0.0
 24
0.0
 34
0.0
 15
431.8
 25
279.4
 35
0.0
146
0.0
 13
0.0
 23
0.0
 33
0.0
 16
1.0
 26
0.0
 36
0.0
 17
0.0
 27
1.0
 37
0.0
 76
     0
330
1F
331
29
  0
MLINESTYLE
  5
18
102
{ACAD_REACTORS
330
17
102
}
330
17
100
AcDbMlineStyle
  2
Standard
 70
     0
  3

 62
   256
 51
90.0
 52
90.0
 71
     2
 49
0.5
 62
   256
  6
BYLAYER
 49
-0.5
 62
   256
  6
BYLAYER
  0
ACDBPLACEHOLDER
  5
F
102
{ACAD_REACTORS
330
E
102
}
330
E
  0
SCALE
  5
48
102
{ACAD_REACTORS
330
47
102
}
330
47
100
AcDbScale
 70
     0
300
1:1
140
1.0
141
1.0
290
     1
  0
SCALE
  5
49
102
{ACAD_REACTORS
330
47
102
}
330
47
100
AcDbScale
 70
     0
300
1:2
140
1.0
141
2.0
290
     0
  0
SCALE
  5
4A
102
{ACAD_REACTORS
330
47
102
}
330
47
100
AcDbScale
 70
     0
300
1:4
140
1.0
141
4.0
290
     0
  0
SCALE
  5
4B
102
{ACAD_REACTORS
330
47
102
}
330
47
100
AcDbScale
 70
     0
300
1:5
140
1.0
141
5.0
290
     0
  0
SCALE
  5
4C
102
{ACAD_REACTORS
330
47
102
}
330
47
100
AcDbScale
 70
     0
300
1:8
140
1.0
141
8.0
290
     0
  0
SCALE
  5
4D
102
{ACAD_REACTORS
330
47
102
}
330
47
100
AcDbScale
 70
     0
300
1:10
140
1.0
141
10.0
290
     0
  0
SCALE
  5
4E
102
{ACAD_REACTORS
330
47
102
}
330
47
100
AcDbScale
 70
     0
300
1:16
140
1.0
141
16.0
290
     0
  0
SCALE
  5
4F
102
{ACAD_REACTORS
330
47
102
}
330
47
100
AcDbScale
 70
     0
300
1:20
140
1.0
141
20.0
290
     0
  0
SCALE
  5
50
102
{ACAD_REACTORS
330
47
102
}
330
47
100
AcDbScale
 70
     0
300
1:30
140
1.0
141
30.0
290
     0
  0
SCALE
  5
51
102
{ACAD_REACTORS
330
47
102
}
330
47
100
AcDbScale
 70
     0
300
1:40
140
1.0
141
40.0
290
     0
  0
SCALE
  5
52
102
{ACAD_REACTORS
330
47
102
}
330
47
100
AcDbScale
 70
     0
300
1:50
140
1.0
141
50.0
290
     0
  0
SCALE
  5
53
102
{ACAD_REACTORS
330
47
102
}
330
47
100
AcDbScale
 70
     0
300
1:100
140
1.0
141
100.0
290
     0
  0
SCALE
  5
54
102
{ACAD_REACTORS
330
47
102
}
330
47
100
AcDbScale
 70
     0
300
2:1
140
2.0
141
1.0
290
     0
  0
SCALE
  5
55
102
{ACAD_REACTORS
330
47
102
}
330
47
100
AcDbScale
 70
     0
300
4:1
140
4.0
141
1.0
290
     0
  0
SCALE
  5
56
102
{ACAD_REACTORS
330
47
102
}
330
47
100
AcDbScale
 70
     0
300
8:1
140
8.0
141
1.0
290
     0
  0
SCALE
  5
57
102
{ACAD_REACTORS
330
47
102
}
330
47
100
AcDbScale
 70
     0
300
10:1
140
10.0
141
1.0
290
     0
  0
SCALE
  5
58
102
{ACAD_REACTORS
330
47
102
}
330
47
100
AcDbScale
 70
     0
300
100:1
140
100.0
141
1.0
290
     0
  0
ENDSEC
  0
EOF
