  0
SECTION
  2
HEADER
  9
$ACADVER
  1
AC1015
  9
$ACADMAINTVER
 70
     6
  9
$DWGCODEPAGE
  3
DOS932
  9
$INSBASE
 10
0.0
 20
0.0
 30
0.0
  9
$EXTMIN
 10
0.0
 20
0.0
 30
0.0
  9
$EXTMAX
 10
431.8
 20
279.4
 30
0.0
  9
$LIMMIN
 10
0.0
 20
0.0
  9
$LIMMAX
 10
431.8
 20
279.4
  9
$ORTHOMODE
 70
     0
  9
$REGENMODE
 70
     1
  9
$FILLMODE
 70
     1
  9
$QTEXTMODE
 70
     0
  9
$MIRRTEXT
 70
     1
  9
$LTSCALE
 40
1.0
  9
$ATTMODE
 70
     1
  9
$TEXTSIZE
 40
3.5
  9
$TRACEWID
 40
1.0
  9
$TEXTSTYLE
  7
Standard
  9
$CLAYER
  8
0
  9
$CELTYPE
  6
ByLayer
  9
$CECOLOR
 62
   256
  9
$CELTSCALE
 40
1.0
  9
$DISPSILH
 70
     0
  9
$DIMSCALE
 40
1.0
  9
$DIMASZ
 40
3.556
  9
$DIMEXO
 40
1.0
  9
$DIMDLI
 40
3.75
  9
$DIMRND
 40
0.0
  9
$DIMDLE
 40
0.0
  9
$DIMEXE
 40
1.0
  9
$DIMTP
 40
0.0
  9
$DIMTM
 40
0.0
  9
$DIMTXT
 40
3.5
  9
$DIMCEN
 40
2.5
  9
$DIMTSZ
 40
0.0
  9
$DIMTOL
 70
     0
  9
$DIMLIM
 70
     0
  9
$DIMTIH
 70
     1
  9
$DIMTOH
 70
     1
  9
$DIMSE1
 70
     0
  9
$DIMSE2
 70
     0
  9
$DIMTAD
 70
     1
  9
$DIMZIN
 70
     0
  9
$DIMBLK
  1

  9
$DIMASO
 70
     1
  9
$DIMSHO
 70
     1
  9
$DIMPOST
  1

  9
$DIMAPOST
  1

  9
$DIMALT
 70
     0
  9
$DIMALTD
 70
     3
  9
$DIMALTF
 40
0.0393700787
  9
$DIMLFAC
 40
1.0
  9
$DIMTOFL
 70
     1
  9
$DIMTVP
 40
0.0
  9
$DIMTIX
 70
     0
  9
$DIMSOXD
 70
     0
  9
$DIMSAH
 70
     0
  9
$DIMBLK1
  1

  9
$DIMBLK2
  1

  9
$DIMSTYLE
  2
ISO-25
  9
$DIMCLRD
 70
     0
  9
$DIMCLRE
 70
     0
  9
$DIMCLRT
 70
     0
  9
$DIMTFAC
 40
1.0
  9
$DIMGAP
 40
1.524
  9
$DIMJUST
 70
     0
  9
$DIMSD1
 70
     0
  9
$DIMSD2
 70
     0
  9
$DIMTOLJ
 70
     0
  9
$DIMTZIN
 70
     0
  9
$DIMALTZ
 70
     0
  9
$DIMALTTZ
 70
     0
  9
$DIMUPT
 70
     0
  9
$DIMDEC
 70
     3
  9
$DIMTDEC
 70
     3
  9
$DIMALTU
 70
     2
  9
$DIMALTTD
 70
     3
  9
$DIMTXSTY
  7
Standard
  9
$DIMAUNIT
 70
     0
  9
$DIMADEC
 70
     2
  9
$DIMALTRND
 40
0.0
  9
$DIMAZIN
 70
     0
  9
$DIMDSEP
 70
    44
  9
$DIMATFIT
 70
     3
  9
$DIMFRAC
 70
     0
  9
$DIMLDRBLK
  1

  9
$DIMLUNIT
 70
     2
  9
$DIMLWD
 70
    -2
  9
$DIMLWE
 70
    -2
  9
$DIMTMOVE
 70
     0
  9
$LUNITS
 70
     2
  9
$LUPREC
 70
     3
  9
$SKETCHINC
 40
1.0
  9
$FILLETRAD
 40
0.0
  9
$AUNITS
 70
     0
  9
$AUPREC
 70
     2
  9
$MENU
  1
.
  9
$ELEVATION
 40
0.0
  9
$PELEVATION
 40
0.0
  9
$THICKNESS
 40
0.0
  9
$LIMCHECK
 70
     0
  9
$CHAMFERA
 40
0.0
  9
$CHAMFERB
 40
0.0
  9
$CHAMFERC
 40
0.0
  9
$CHAMFERD
 40
0.0
  9
$SKPOLY
 70
     0
  9
$TDCREATE
 40
2460305.414664306
  9
$TDUCREATE
 40
2460305.039664306
  9
$TDUPDATE
 40
2460305.414665104
  9
$TDUUPDATE
 40
2460305.039665104
  9
$TDINDWG
 40
0.0000000116
  9
$TDUSRTIMER
 40
0.0000000116
  9
$USRTIMER
 70
     1
  9
$ANGBASE
 50
0.0
  9
$ANGDIR
 70
     0
  9
$PDMODE
 70
     0
  9
$PDSIZE
 40
-1.0
  9
$PLINEWID
 40
0.0
  9
$SPLFRAME
 70
     0
  9
$SPLINETYPE
 70
     6
  9
$SPLINESEGS
 70
     8
  9
$HANDSEED
  5
273
  9
$SURFTAB1
 70
     6
  9
$SURFTAB2
 70
     6
  9
$SURFTYPE
 70
     6
  9
$SURFU
 70
     6
  9
$SURFV
 70
     6
  9
$UCSBASE
  2

  9
$UCSNAME
  2

  9
$UCSORG
 10
0.0
 20
0.0
 30
0.0
  9
$UCSXDIR
 10
1.0
 20
0.0
 30
0.0
  9
$UCSYDIR
 10
0.0
 20
1.0
 30
0.0
  9
$UCSORTHOREF
  2

  9
$UCSORTHOVIEW
 70
     0
  9
$UCSORGTOP
 10
0.0
 20
0.0
 30
0.0
  9
$UCSORGBOTTOM
 10
0.0
 20
0.0
 30
0.0
  9
$UCSORGLEFT
 10
0.0
 20
0.0
 30
0.0
  9
$UCSORGRIGHT
 10
0.0
 20
0.0
 30
0.0
  9
$UCSORGFRONT
 10
0.0
 20
0.0
 30
0.0
  9
$UCSORGBACK
 10
0.0
 20
0.0
 30
0.0
  9
$PUCSBASE
  2

  9
$PUCSNAME
  2

  9
$PUCSORG
 10
0.0
 20
0.0
 30
0.0
  9
$PUCSXDIR
 10
1.0
 20
0.0
 30
0.0
  9
$PUCSYDIR
 10
0.0
 20
1.0
 30
0.0
  9
$PUCSORTHOREF
  2

  9
$PUCSORTHOVIEW
 70
     0
  9
$PUCSORGTOP
 10
0.0
 20
0.0
 30
0.0
  9
$PUCSORGBOTTOM
 10
0.0
 20
0.0
 30
0.0
  9
$PUCSORGLEFT
 10
0.0
 20
0.0
 30
0.0
  9
$PUCSORGRIGHT
 10
0.0
 20
0.0
 30
0.0
  9
$PUCSORGFRONT
 10
0.0
 20
0.0
 30
0.0
  9
$PUCSORGBACK
 10
0.0
 20
0.0
 30
0.0
  9
$USERI1
 70
     0
  9
$USERI2
 70
     0
  9
$USERI3
 70
     0
  9
$USERI4
 70
     0
  9
$USERI5
 70
     0
  9
$USERR1
 40
0.0
  9
$USERR2
 40
0.0
  9
$USERR3
 40
0.0
  9
$USERR4
 40
0.0
  9
$USERR5
 40
0.0
  9
$WORLDVIEW
 70
     1
  9
$SHADEDGE
 70
     3
  9
$SHADEDIF
 70
    70
  9
$TILEMODE
 70
     1
  9
$MAXACTVP
 70
    64
  9
$PINSBASE
 10
0.0
 20
0.0
 30
0.0
  9
$PLIMCHECK
 70
     0
  9
$PEXTMIN
 10
1.0000000000E+20
 20
1.0000000000E+20
 30
1.0000000000E+20
  9
$PEXTMAX
 10
-1.0000000000E+20
 20
-1.0000000000E+20
 30
-1.0000000000E+20
  9
$PLIMMIN
 10
0.0
 20
0.0
  9
$PLIMMAX
 10
420.0
 20
297.0
  9
$UNITMODE
 70
     0
  9
$VISRETAIN
 70
     1
  9
$PLINEGEN
 70
     0
  9
$PSLTSCALE
 70
     1
  9
$TREEDEPTH
 70
  3020
  9
$CMLSTYLE
  2
Standard
  9
$CMLJUST
 70
     0
  9
$CMLSCALE
 40
20.0
  9
$PROXYGRAPHICS
 70
     1
  9
$MEASUREMENT
 70
     1
  9
$CELWEIGHT
370
    -1
  9
$ENDCAPS
280
     0
  9
$JOINSTYLE
280
     0
  9
$LWDISPLAY
290
     1
  9
$INSUNITS
 70
     4
  9
$HYPERLINKBASE
  1

  9
$STYLESHEET
  1

  9
$XEDIT
290
     1
  9
$CEPSNTYPE
380
     0
  9
$PSTYLEMODE
290
     1
  9
$FINGERPRINTGUID
  2
{50b7fdde-ec29-495f-bbc3-462b10d3e4a0}
  9
$VERSIONGUID
  2
{FAEB1C32-E019-11D5-929B-00C0DF256EC4}
  9
$EXTNAMES
290
     1
  9
$PSVPSCALE
 40
0.0
  9
$OLESTARTUP
290
     0
  0
ENDSEC
  0
SECTION
  2
CLASSES
  0
CLASS
  1
ACDBDICTIONARYWDFLT
  2
AcDbDictionaryWithDefault
  3
ObjectDBX Classes
 90
        0
280
     0
281
     0
  0
CLASS
  1
VISUALSTYLE
  2
AcDbVisualStyle
  3
ObjectDBX Classes
 90
     4095
280
     0
281
     0
  0
CLASS
  1
MATERIAL
  2
AcDbMaterial
  3
ObjectDBX Classes
 90
     1153
280
     0
281
     0
  0
CLASS
  1
SCALE
  2
AcDbScale
  3
ObjectDBX Classes
 90
     1153
280
     0
281
     0
  0
CLASS
  1
TABLESTYLE
  2
AcDbTableStyle
  3
ObjectDBX Classes
 90
     4095
280
     0
281
     0
  0
CLASS
  1
MLEADERSTYLE
  2
AcDbMLeaderStyle
  3
ACDB_MLEADERSTYLE_CLASS
 90
     4095
280
     0
281
     0
  0
CLASS
  1
SUN
  2
AcDbSun
  3
SCENEOE
 90
     1153
280
     0
281
     0
  0
CLASS
  1
ACDBPLACEHOLDER
  2
AcDbPlaceHolder
  3
ObjectDBX Classes
 90
        0
280
     0
281
     0
  0
CLASS
  1
LAYOUT
  2
AcDbLayout
  3
ObjectDBX Classes
 90
        0
280
     0
281
     0
  0
ENDSEC
  0
SECTION
  2
TABLES
  0
TABLE
  2
VPORT
  5
8
330
0
100
AcDbSymbolTable
 70
     1
  0
VPORT
  5
29
330
8
100
AcDbSymbolTableRecord
100
AcDbViewportTableRecord
  2
*Active
 70
     0
 10
0.0
 20
0.0
 11
1.0
 21
1.0
 12
215.9
 22
139.7
 13
0.0
 23
0.0
 14
10.0
 24
10.0
 15
10.0
 25
10.0
 16
0.0
 26
0.0
 36
1.0
 17
0.0
 27
0.0
 37
0.0
 40
279.4
 41
1.5454545455
 42
50.0
 43
0.0
 44
0.0
 50
0.0
 51
0.0
 71
     0
 72
  2000
 73
     1
 74
     3
 75
     0
 76
     0
 77
     0
 78
     0
281
     0
 65
     1
110
0.0
120
0.0
130
0.0
111
1.0
121
0.0
131
0.0
112
0.0
122
1.0
132
0.0
 79
     0
146
0.0
  0
ENDTAB
  0
TABLE
  2
LTYPE
  5
5
330
0
100
AcDbSymbolTable
 70
     6
  0
LTYPE
  5
14
330
5
100
AcDbSymbolTableRecord
100
AcDbLinetypeTableRecord
  2
ByBlock
 70
     0
  3

 72
    65
 73
     0
 40
0.0
  0
LTYPE
  5
15
330
5
100
AcDbSymbolTableRecord
100
AcDbLinetypeTableRecord
  2
ByLayer
 70
     0
  3

 72
    65
 73
     0
 40
0.0
  0
LTYPE
  5
16
330
5
100
AcDbSymbolTableRecord
100
AcDbLinetypeTableRecord
  2
Continuous
 70
     0
  3
Solid line
 72
    65
 73
     0
 40
0.0
  0
LTYPE
  5
5E
330
5
100
AcDbSymbolTableRecord
100
AcDbLinetypeTableRecord
  2
HIDDEN
 70
     0
  3
Hidden __ __ __ __ __ __ __ __ __ __ __ __ __ __
 72
    65
 73
     2
 40
1.905
 49
1.27
 74
     0
 49
-0.635
 74
     0
  0
LTYPE
  5
5F
330
5
100
AcDbSymbolTableRecord
100
AcDbLinetypeTableRecord
  2
PHANTOM
 70
     0
  3
Phantom ______  __  __  ______  __  __  ______
 72
    65
 73
     6
 40
12.7
 49
6.35
 74
     0
 49
-1.27
 74
     0
 49
1.27
 74
     0
 49
-1.27
 74
     0
 49
1.27
 74
     0
 49
-1.27
 74
     0
  0
LTYPE
  5
60
330
5
100
AcDbSymbolTableRecord
100
AcDbLinetypeTableRecord
  2
CENTER
 70
     0
  3
Center ____ _ ____ _ ____ _ ____ _ ____ _ ____
 72
    65
 73
     4
 40
10.16
 49
6.35
 74
     0
 49
-1.27
 74
     0
 49
1.27
 74
     0
 49
-1.27
 74
     0
  0
LTYPE
  5
61
330
5
100
AcDbSymbolTableRecord
100
AcDbLinetypeTableRecord
  2
CENTERX2
 70
     0
  3
Center (2x) ________  __  ________  __  _____
 72
    65
 73
     4
 40
20.32
 49
12.7
 74
     0
 49
-2.54
 74
     0
 49
2.54
 74
     0
 49
-2.54
 74
     0
  0
LTYPE
  5
62
330
5
100
AcDbSymbolTableRecord
100
AcDbLinetypeTableRecord
  2
DOT2
 70
     0
  3
Dot (.5x) ........................................
 72
    65
 73
     2
 40
0.635
 49
0.0
 74
     0
 49
-0.635
 74
     0
  0
ENDTAB
  0
TABLE
  2
LAYER
  5
2
330
0
100
AcDbSymbolTable
 70
     1
  0
LAYER
  5
10
330
2
100
AcDbSymbolTableRecord
100
AcDbLayerTableRecord
  2
0
 70
     0
 62
     7
  6
Continuous
370
    -3
390
F
  0
ENDTAB
  0
TABLE
  2
STYLE
  5
3
330
0
100
AcDbSymbolTable
 70
     2
  0
STYLE
  5
11
330
3
100
AcDbSymbolTableRecord
100
AcDbTextStyleTableRecord
  2
Standard
 70
     0
 40
0.0
 41
1.0
 50
0.0
 71
     0
 42
3.5
  3
txt
  4
bigfont
  0
STYLE
  5
63
330
3
100
AcDbSymbolTableRecord
100
AcDbTextStyleTableRecord
  2
SLDTEXTSTYLE0
 70
     0
 40
0.0
 41
0.7
 50
0.0
 71
     0
 42
3.5
  3
TXT
  4
bigfont
  0
ENDTAB
  0
TABLE
  2
VIEW
  5
6
330
0
100
AcDbSymbolTable
 70
     0
  0
ENDTAB
  0
TABLE
  2
UCS
  5
7
330
0
100
AcDbSymbolTable
 70
     0
  0
ENDTAB
  0
TABLE
  2
APPID
  5
9
330
0
100
AcDbSymbolTable
 70
     1
  0
APPID
  5
12
330
9
100
AcDbSymbolTableRecord
100
AcDbRegAppTableRecord
  2
ACAD
 70
     0
  0
ENDTAB
  0
TABLE
  2
DIMSTYLE
  5
A
330
0
100
AcDbSymbolTable
 70
     1
100
AcDbDimStyleTable
  0
DIMSTYLE
105
27
330
A
100
AcDbSymbolTableRecord
100
AcDbDimStyleTableRecord
  2
ISO-25
 70
     0
 41
2.5
 42
0.625
 43
3.75
 44
1.25
 73
     0
 74
     0
 77
     1
 78
     8
140
2.5
141
2.5
143
0.0393700787
147
0.625
171
     3
172
     1
178
     0
271
     2
272
     2
274
     3
278
    44
283
     0
284
     8
340
11
  0
ENDTAB
  0
TABLE
  2
BLOCK_RECORD
  5
1
330
0
100
AcDbSymbolTable
 70
     3
  0
BLOCK_RECORD
  5
1F
330
1
100
AcDbSymbolTableRecord
100
AcDbBlockTableRecord
  2
*Model_Space
340
22
  0
BLOCK_RECORD
  5
1B
330
1
100
AcDbSymbolTableRecord
100
AcDbBlockTableRecord
  2
*Paper_Space
340
1E
  0
BLOCK_RECORD
  5
23
330
1
100
AcDbSymbolTableRecord
100
AcDbBlockTableRecord
  2
*Paper_Space0
340
26
  0
BLOCK_RECORD
  5
1CC
330
1
100
AcDbSymbolTableRecord
100
AcDbBlockTableRecord
  2
SW_CENTERMARKSYMBOL_0
340
0
102
{BLKREFS
331
1D7
102
}
  0
BLOCK_RECORD
  5
262
330
1
100
AcDbSymbolTableRecord
100
AcDbBlockTableRecord
  2
SW_CENTERMARKSYMBOL_1
340
0
102
{BLKREFS
331
26D
102
}
  0
ENDTAB
  0
ENDSEC
  0
SECTION
  2
BLOCKS
  0
BLOCK
  5
20
330
1F
100
AcDbEntity
  8
0
100
AcDbBlockBegin
  2
*Model_Space
 70
     0
 10
0.0
 20
0.0
 30
0.0
  3
*Model_Space
  1

  0
ENDBLK
  5
21
330
1F
100
AcDbEntity
  8
0
100
AcDbBlockEnd
  0
BLOCK
  5
1C
330
1B
100
AcDbEntity
 67
     1
  8
0
100
AcDbBlockBegin
  2
*Paper_Space
 70
     0
 10
0.0
 20
0.0
 30
0.0
  3
*Paper_Space
  1

  0
ENDBLK
  5
1D
330
1B
100
AcDbEntity
 67
     1
  8
0
100
AcDbBlockEnd
  0
BLOCK
  5
24
330
23
100
AcDbEntity
  8
0
100
AcDbBlockBegin
  2
*Paper_Space0
 70
     0
 10
0.0
 20
0.0
 30
0.0
  3
*Paper_Space0
  1

  0
ENDBLK
  5
25
330
23
100
AcDbEntity
  8
0
100
AcDbBlockEnd
  0
BLOCK
  5
1CD
330
1CC
100
AcDbEntity
  8
0
100
AcDbBlockBegin
  2
SW_CENTERMARKSYMBOL_0
 70
     0
 10
0.0
 20
0.0
 30
0.0
  3
SW_CENTERMARKSYMBOL_0
  1

  0
LINE
  5
1CF
330
1CC
100
AcDbEntity
  8
0
  6
Continuous
 62
     0
370
    18
100
AcDbLine
 10
0.0
 20
0.0
 30
0.0
 11
0.0
 21
2.5
 31
0.0
  0
LINE
  5
1D0
330
1CC
100
AcDbEntity
  8
0
  6
Continuous
 62
     0
370
    18
100
AcDbLine
 10
0.0
 20
0.0
 30
0.0
 11
-2.5
 21
0.0
 31
0.0
  0
LINE
  5
1D1
330
1CC
100
AcDbEntity
  8
0
  6
Continuous
 62
     0
370
    18
100
AcDbLine
 10
0.0
 20
0.0
 30
0.0
 11
0.0
 21
-2.5
 31
0.0
  0
LINE
  5
1D2
330
1CC
100
AcDbEntity
  8
0
  6
Continuous
 62
     0
370
    18
100
AcDbLine
 10
0.0
 20
0.0
 30
0.0
 11
2.5
 21
0.0
 31
0.0
  0
LINE
  5
1D3
330
1CC
100
AcDbEntity
  8
0
  6
Continuous
 62
     0
370
    18
100
AcDbLine
 10
0.0
 20
5.0
 30
0.0
 11
0.0
 21
30.3022001625
 31
0.0
  0
LINE
  5
1D4
330
1CC
100
AcDbEntity
  8
0
  6
Continuous
 62
     0
370
    18
100
AcDbLine
 10
-5.0
 20
0.0
 30
0.0
 11
-10.75
 21
0.0
 31
0.0
  0
LINE
  5
1D5
330
1CC
100
AcDbEntity
  8
0
  6
Continuous
 62
     0
370
    18
100
AcDbLine
 10
0.0
 20
-5.0
 30
0.0
 11
0.0
 21
-25.7010443052
 31
0.0
  0
LINE
  5
1D6
330
1CC
100
AcDbEntity
  8
0
  6
Continuous
 62
     0
370
    18
100
AcDbLine
 10
5.0
 20
0.0
 30
0.0
 11
10.75
 21
0.0
 31
0.0
  0
ENDBLK
  5
1CE
330
1CC
100
AcDbEntity
  8
0
100
AcDbBlockEnd
  0
BLOCK
  5
263
330
262
100
AcDbEntity
  8
0
100
AcDbBlockBegin
  2
SW_CENTERMARKSYMBOL_1
 70
     0
 10
0.0
 20
0.0
 30
0.0
  3
SW_CENTERMARKSYMBOL_1
  1

  0
LINE
  5
265
330
262
100
AcDbEntity
  8
0
  6
Continuous
 62
     0
370
    18
100
AcDbLine
 10
0.0
 20
0.0
 30
0.0
 11
0.0
 21
2.5
 31
0.0
  0
LINE
  5
266
330
262
100
AcDbEntity
  8
0
  6
Continuous
 62
     0
370
    18
100
AcDbLine
 10
0.0
 20
0.0
 30
0.0
 11
-2.5
 21
0.0
 31
0.0
  0
LINE
  5
267
330
262
100
AcDbEntity
  8
0
  6
Continuous
 62
     0
370
    18
100
AcDbLine
 10
0.0
 20
0.0
 30
0.0
 11
0.0
 21
-2.5
 31
0.0
  0
LINE
  5
268
330
262
100
AcDbEntity
  8
0
  6
Continuous
 62
     0
370
    18
100
AcDbLine
 10
0.0
 20
0.0
 30
0.0
 11
2.5
 21
0.0
 31
0.0
  0
LINE
  5
269
330
262
100
AcDbEntity
  8
0
  6
Continuous
 62
     0
370
    18
100
AcDbLine
 10
0.0
 20
5.0
 30
0.0
 11
0.0
 21
9.95
 31
0.0
  0
LINE
  5
26A
330
262
100
AcDbEntity
  8
0
  6
Continuous
 62
     0
370
    18
100
AcDbLine
 10
-5.0
 20
0.0
 30
0.0
 11
-25.9370158649
 21
0.0
 31
0.0
  0
LINE
  5
26B
330
262
100
AcDbEntity
  8
0
  6
Continuous
 62
     0
370
    18
100
AcDbLine
 10
0.0
 20
-5.0
 30
0.0
 11
0.0
 21
-9.95
 31
0.0
  0
LINE
  5
26C
330
262
100
AcDbEntity
  8
0
  6
Continuous
 62
     0
370
    18
100
AcDbLine
 10
5.0
 20
0.0
 30
0.0
 11
41.3844696108
 21
0.0
 31
0.0
  0
ENDBLK
  5
264
330
262
100
AcDbEntity
  8
0
100
AcDbBlockEnd
  0
ENDSEC
  0
SECTION
  2
ENTITIES
  0
MTEXT
  5
64
330
1F
100
AcDbEntity
  8
0
  6
Continuous
 62
     7
370
     0
100
AcDbMText
 10
206.1999847439
 20
116.7824472968
 30
0.0
 40
3.7041666667
 41
0.0
 71
     1
 72
     1
  1
エースボール　アングル型
  7
SLDTEXTSTYLE0
 73
     1
 44
1.0
  0
MTEXT
  5
65
330
1F
100
AcDbEntity
  8
0
  6
Continuous
 62
     7
370
     0
100
AcDbMText
 10
206.1999847439
 20
110.8435583036
 30
0.0
 40
3.7041666667
 41
0.0
 71
     1
 72
     1
  1
BS-3022
  7
SLDTEXTSTYLE0
 73
     1
 44
1.0
  0
LINE
  5
66
330
1F
100
AcDbEntity
  8
0
  6
Continuous
 62
     7
370
    25
100
AcDbLine
 10
148.515722184
 20
79.8475193352
 30
0.0
 11
148.315722184
 21
79.6475193352
 31
0.0
  0
LINE
  5
67
330
1F
100
AcDbEntity
  8
0
  6
Continuous
 62
     7
370
    25
100
AcDbLine
 10
148.315722184
 20
63.0475193352
 30
0.0
 11
148.515722184
 21
62.8475193352
 31
0.0
  0
LINE
  5
68
330
1F
100
AcDbEntity
  8
0
  6
Continuous
 62
     7
370
    25
100
AcDbLine
 10
151.315722184
 20
79.8475193352
 30
0.0
 11
148.515722184
 21
79.8475193352
 31
0.0
  0
LINE
  5
69
330
1F
100
AcDbEntity
  8
0
  6
Continuous
 62
     7
370
    25
100
AcDbLine
 10
148.515722184
 20
62.8475193352
 30
0.0
 11
151.315722184
 21
62.8475193352
 31
0.0
  0
LINE
  5
6A
330
1F
100
AcDbEntity
  8
0
  6
Continuous
 62
     7
370
    25
100
AcDbLine
 10
148.315722184
 20
77.9260193352
 30
0.0
 11
139.315722184
 21
77.9260193352
 31
0.0
  0
LINE
  5
6B
330
1F
100
AcDbEntity
  8
0
  6
Continuous
 62
     7
370
    25
100
AcDbLine
 10
139.315722184
 20
64.7690193352
 30
0.0
 11
148.315722184
 21
64.7690193352
 31
0.0
  0
LINE
  5
6C
330
1F
100
AcDbEntity
  8
0
  6
Continuous
 62
     7
370
    25
100
AcDbLine
 10
139.315722184
 20
77.9260193352
 30
0.0
 11
138.315722184
 21
76.9260193352
 31
0.0
  0
LINE
  5
6D
330
1F
100
AcDbEntity
  8
0
  6
Continuous
 62
     7
370
    25
100
AcDbLine
 10
138.315722184
 20
65.7690193352
 30
0.0
 11
139.315722184
 21
64.7690193352
 31
0.0
  0
LINE
  5
6E
330
1F
100
AcDbEntity
  8
0
  6
Continuous
 62
     7
370
    25
100
AcDbLine
 10
173.9568534369
 20
61.6099150281
 30
0.0
 11
174.815722184
 21
63.0975193352
 31
0.0
  0
LINE
  5
6F
330
1F
100
AcDbEntity
  8
0
  6
Continuous
 62
     7
370
    25
100
AcDbLine
 10
174.815722184
 20
79.5975193352
 30
0.0
 11
173.9568534369
 21
81.0851236422
 31
0.0
  0
LINE
  5
70
330
1F
100
AcDbEntity
  8
0
  6
Continuous
 62
     7
370
    25
100
AcDbLine
 10
156.057534684
 20
59.3475193352
 30
0.0
 11
156.3511701254
 21
49.951185209
 31
0.0
  0
LINE
  5
71
330
1F
100
AcDbEntity
  8
0
  6
Continuous
 62
     7
370
    25
100
AcDbLine
 10
169.2802742425
 20
49.951185209
 30
0.0
 11
169.573909684
 21
59.3475193352
 31
0.0
  0
SPLINE
  5
72
330
1F
100
AcDbEntity
  8
0
  6
Continuous
 62
     7
370
    25
100
AcDbSpline
210
0.0
220
0.0
230
1.0
 70
     8
 71
     3
 72
    11
 73
     7
 74
     0
 42
0.00000001
 43
0.00000001
 40
0.0
 40
0.0
 40
0.0
 40
0.0
 40
0.2960979523560858
 40
0.6528744712605238
 40
0.9606982888478427
 40
1.0
 40
1.0
 40
1.0
 40
1.0
 10
168.9830663150983
 20
80.13460741129128
 30
0.0
 10
168.9307422114982
 20
80.19286171841378
 30
0.0
 10
168.8153713647893
 20
80.32130823301682
 30
0.0
 10
168.7259938111812
 20
80.56086952146231
 30
0.0
 10
168.6892572147507
 20
80.74560646149416
 30
0.0
 10
168.6990424814665
 20
80.8362159328995
 30
0.0
 10
168.7001503738402
 20
80.8464747787002
 30
0.0
  0
SPLINE
  5
73
330
1F
100
AcDbEntity
  8
0
  6
Continuous
 62
     7
370
    25
100
AcDbSpline
210
0.0
220
0.0
230
1.0
 70
     8
 71
     3
 72
    11
 73
     7
 74
     0
 42
0.00000001
 43
0.00000001
 40
0.0
 40
0.0
 40
0.0
 40
0.0
 40
0.2106319924969473
 40
0.5551891127723645
 40
0.9095737098899953
 40
1.0
 40
1.0
 40
1.0
 40
1.0
 10
156.922907877948
 20
80.84891573554472
 30
0.0
 10
156.9239498574801
 20
80.79341574136707
 30
0.0
 10
156.9266963333839
 20
80.6471274583713
 30
0.0
 10
156.8492939876348
 20
80.41853119246935
 30
0.0
 10
156.7494735012919
 20
80.23091544856055
 30
0.0
 10
156.6605513546384
 20
80.15503582557481
 30
0.0
 10
156.6424742345377
 20
80.13961014019128
 30
0.0
  0
LINE
  5
74
330
1F
100
AcDbEntity
  8
0
  6
Continuous
 62
     7
370
    25
100
AcDbLine
 10
156.3511701254
 20
49.951185209
 30
0.0
 11
157.565722184
 21
47.8475193352
 31
0.0
  0
LINE
  5
75
330
1F
100
AcDbEntity
  8
0
  6
Continuous
 62
     7
370
    25
100
AcDbLine
 10
168.065722184
 20
47.8475193352
 30
0.0
 11
169.2802742425
 21
49.951185209
 31
0.0
  0
LINE
  5
76
330
1F
100
AcDbEntity
  8
0
  6
Continuous
 62
     7
370
    25
100
AcDbLine
 10
168.715722184
 20
80.8429885151
 30
0.0
 11
168.715722184
 21
81.8475193352
 31
0.0
  0
LINE
  5
77
330
1F
100
AcDbEntity
  8
0
  6
Continuous
 62
     7
370
    25
100
AcDbLine
 10
156.915722184
 20
81.8475193352
 30
0.0
 11
156.915722184
 21
80.8475193352
 31
0.0
  0
LINE
  5
78
330
1F
100
AcDbEntity
  8
0
  6
Continuous
 62
     7
370
    25
100
AcDbLine
 10
156.6455552766
 20
80.1422570645
 30
0.0
 11
156.1011910042
 21
81.0851236422
 31
0.0
  0
LINE
  5
79
330
1F
100
AcDbEntity
  8
0
  6
Continuous
 62
     7
370
    25
100
AcDbLine
 10
152.0302533638
 20
81.0851236422
 30
0.0
 11
151.315722184
 21
79.8475193352
 31
0.0
  0
LINE
  5
7A
330
1F
100
AcDbEntity
  8
0
  6
Continuous
 62
     7
370
    25
100
AcDbLine
 10
169.5302533638
 20
81.0851236422
 30
0.0
 11
168.9858890913
 21
80.1422570645
 31
0.0
  0
LINE
  5
7B
330
1F
100
AcDbEntity
  8
0
  6
Continuous
 62
     7
370
    25
100
AcDbLine
 10
171.315722184
 20
59.3475193352
 30
0.0
 11
172.553326491
 21
60.062050515
 31
0.0
  0
LINE
  5
7C
330
1F
100
AcDbEntity
  8
0
  6
Continuous
 62
     7
370
    25
100
AcDbLine
 10
151.315722184
 20
62.8475193352
 30
0.0
 11
152.0302533638
 21
61.6099150281
 31
0.0
  0
LINE
  5
7D
330
1F
100
AcDbEntity
  8
0
  6
Continuous
 62
     7
370
    25
100
AcDbLine
 10
153.0781178769
 20
60.062050515
 30
0.0
 11
154.315722184
 21
59.3475193352
 31
0.0
  0
LINE
  5
7E
330
1F
100
AcDbEntity
  8
0
  6
Continuous
 62
     7
370
    25
100
AcDbLine
 10
172.553326491
 20
60.0594901337
 30
0.0
 11
172.553326491
 21
61.6099150281
 31
0.0
  0
LINE
  5
7F
330
1F
100
AcDbEntity
  8
0
  6
Continuous
 62
     7
370
    25
100
AcDbLine
 10
172.553326491
 20
61.6099150281
 30
0.0
 11
173.9594214923
 21
61.6099150281
 31
0.0
  0
LINE
  5
80
330
1F
100
AcDbEntity
  8
0
  6
Continuous
 62
     7
370
    25
100
AcDbLine
 10
156.1037590596
 20
81.0851236422
 30
0.0
 11
152.0276929825
 21
81.0851236422
 31
0.0
  0
LINE
  5
81
330
1F
100
AcDbEntity
  8
0
  6
Continuous
 62
     7
370
    25
100
AcDbLine
 10
173.9594214923
 20
81.0851236422
 30
0.0
 11
169.5276853083
 21
81.0851236422
 31
0.0
  0
LINE
  5
82
330
1F
100
AcDbEntity
  8
0
  6
Continuous
 62
     7
370
    25
100
AcDbLine
 10
153.0781178769
 20
61.6099150281
 30
0.0
 11
153.0781178769
 21
60.0594901337
 31
0.0
  0
LINE
  5
83
330
1F
100
AcDbEntity
  8
0
  6
Continuous
 62
     7
370
    25
100
AcDbLine
 10
152.0276929825
 20
61.6099150281
 30
0.0
 11
153.0781178769
 21
61.6099150281
 31
0.0
  0
LINE
  5
84
330
1F
100
AcDbEntity
  8
0
  6
Continuous
 62
     7
370
    25
100
AcDbLine
 10
157.315722184
 20
97.8475193352
 30
0.0
 11
155.365722184
 21
89.8475193352
 31
0.0
  0
LINE
  5
85
330
1F
100
AcDbEntity
  8
0
  6
Continuous
 62
     7
370
    25
100
AcDbLine
 10
155.365722184
 20
89.8475193352
 30
0.0
 11
155.815722184
 21
81.8475193352
 31
0.0
  0
LINE
  5
86
330
1F
100
AcDbEntity
  8
0
  6
Continuous
 62
     7
370
    25
100
AcDbLine
 10
169.815722184
 20
81.8475193352
 30
0.0
 11
169.8844676016
 21
83.0696600924
 31
0.0
  0
LINE
  5
87
330
1F
100
AcDbEntity
  8
0
  6
Continuous
 62
     7
370
    25
100
AcDbLine
 10
168.5689537185
 20
96.808620732
 30
0.0
 11
168.315722184
 21
97.8475193352
 31
0.0
  0
LINE
  5
88
330
1F
100
AcDbEntity
  8
0
  6
Continuous
 62
     7
370
    25
100
AcDbLine
 10
148.315722184
 20
63.0475193352
 30
0.0
 11
148.315722184
 21
79.6475193352
 31
0.0
  0
LINE
  5
89
330
1F
100
AcDbEntity
  8
0
  6
Continuous
 62
     7
370
    25
100
AcDbLine
 10
148.515722184
 20
79.8475193352
 30
0.0
 11
148.515722184
 21
62.8475193352
 31
0.0
  0
LINE
  5
8A
330
1F
100
AcDbEntity
  8
0
  6
Continuous
 62
     7
370
    25
100
AcDbLine
 10
151.315722184
 20
62.8475193352
 30
0.0
 11
151.315722184
 21
79.8475193352
 31
0.0
  0
LINE
  5
8B
330
1F
100
AcDbEntity
  8
0
  6
Continuous
 62
     7
370
    25
100
AcDbLine
 10
139.315722184
 20
77.9260193352
 30
0.0
 11
139.315722184
 21
64.7690193352
 31
0.0
  0
LINE
  5
8C
330
1F
100
AcDbEntity
  8
0
  6
Continuous
 62
     7
370
    25
100
AcDbLine
 10
138.315722184
 20
65.7690193352
 30
0.0
 11
138.315722184
 21
76.9260193352
 31
0.0
  0
LINE
  5
8D
330
1F
100
AcDbEntity
  8
0
  6
Continuous
 62
     7
370
    25
100
AcDbLine
 10
156.815722184
 20
78.7087352673
 30
0.0
 11
156.815722184
 21
75.3475193352
 31
0.0
  0
SPLINE
  5
8E
330
1F
100
AcDbEntity
  8
0
  6
Continuous
 62
     7
370
    25
100
AcDbSpline
210
0.0
220
0.0
230
1.0
 70
     8
 71
     3
 72
     8
 73
     4
 74
     0
 42
0.00000001
 43
0.00000001
 40
0.0
 40
0.0
 40
0.0
 40
0.0
 40
1.0
 40
1.0
 40
1.0
 40
1.0
 10
156.2994861069963
 20
75.34751933516972
 30
0.0
 10
156.2485873900737
 20
75.55456437359871
 30
0.0
 10
156.194653253823
 20
75.76080370327536
 30
0.0
 10
156.1380007787153
 20
75.96632148868673
 30
0.0
  0
SPLINE
  5
8F
330
1F
100
AcDbEntity
  8
0
  6
Continuous
 62
     7
370
    25
100
AcDbSpline
210
0.0
220
0.0
230
1.0
 70
     8
 71
     3
 72
    10
 73
     6
 74
     0
 42
0.00000001
 43
0.00000001
 40
0.0
 40
0.0
 40
0.0
 40
0.0
 40
0.5
 40
0.5
 40
1.0
 40
1.0
 40
1.0
 40
1.0
 10
156.1380007787153
 20
76.39933419057895
 30
0.0
 10
156.1143253842909
 20
76.35639065967773
 30
0.0
 10
156.1012342744062
 20
76.2929482150536
 30
0.0
 10
156.1011479531179
 20
76.14046937793464
 30
0.0
 10
156.1143168870618
 20
76.05223937582737
 30
0.0
 10
156.1380007787153
 20
75.96632148868673
 30
0.0
  0
SPLINE
  5
90
330
1F
100
AcDbEntity
  8
0
  6
Continuous
 62
     7
370
    25
100
AcDbSpline
210
0.0
220
0.0
230
1.0
 70
     8
 71
     3
 72
    12
 73
     8
 74
     0
 42
0.00000001
 43
0.00000001
 40
0.0
 40
0.0
 40
0.0
 40
0.0
 40
0.2500000000000001
 40
0.2500000000000001
 40
0.5000000000000002
 40
0.5000000000000002
 40
1.0
 40
1.0
 40
1.0
 40
1.0
 10
156.8157221839755
 20
78.70873526733746
 30
0.0
 10
156.8157221839755
 20
78.51299300445794
 30
0.0
 10
156.7998792478865
 20
78.31632639526738
 30
0.0
 10
156.7383763876488
 20
77.9270581679391
 30
0.0
 10
156.6927727466052
 20
77.73365413498617
 30
0.0
 10
156.5163217291159
 20
77.15672508372943
 30
0.0
 10
156.3459243618641
 20
76.77647565052641
 30
0.0
 10
156.1380007787153
 20
76.39933419057895
 30
0.0
  0
SPLINE
  5
91
330
1F
100
AcDbEntity
  8
0
  6
Continuous
 62
     7
370
    25
100
AcDbSpline
210
0.0
220
0.0
230
1.0
 70
     8
 71
     3
 72
    10
 73
     6
 74
     0
 42
0.00000001
 43
0.00000001
 40
0.0
 40
0.0
 40
0.0
 40
0.0
 40
0.5000000000000001
 40
0.5000000000000001
 40
1.0
 40
1.0
 40
1.0
 40
1.0
 10
158.1969200304584
 20
60.02524074042989
 30
0.0
 10
158.9475987299543
 20
59.81831068689719
 30
0.0
 10
159.7118796741769
 20
59.64650507652348
 30
0.0
 10
161.2664544082645
 20
59.40955456999211
 30
0.0
 10
162.0420293757806
 20
59.34751933516972
 30
0.0
 10
162.8157221839755
 20
59.34751933516973
 30
0.0
  0
LINE
  5
92
330
1F
100
AcDbEntity
  8
0
  6
Continuous
 62
     7
370
    25
100
AcDbLine
 10
158.1969200305
 20
63.3811227953
 30
0.0
 11
158.1969200305
 21
60.0252407404
 31
0.0
  0
SPLINE
  5
93
330
1F
100
AcDbEntity
  8
0
  6
Continuous
 62
     7
370
    25
100
AcDbSpline
210
0.0
220
0.0
230
1.0
 70
     8
 71
     3
 72
     8
 73
     4
 74
     0
 42
0.00000001
 43
0.00000001
 40
0.0
 40
0.0
 40
0.0
 40
0.0
 40
1.0
 40
1.0
 40
1.0
 40
1.0
 10
158.1969200304584
 20
63.38112279531473
 30
0.0
 10
158.4021058530017
 20
63.43768376243894
 30
0.0
 10
158.608329053709
 20
63.49162383385278
 30
0.0
 10
158.8157221839755
 20
63.54260812359575
 30
0.0
  0
SPLINE
  5
94
330
1F
100
AcDbEntity
  8
0
  6
Continuous
 62
     7
370
    25
100
AcDbSpline
210
0.0
220
0.0
230
1.0
 70
     8
 71
     3
 72
     8
 73
     4
 74
     0
 42
0.00000001
 43
0.00000001
 40
0.0
 40
0.0
 40
0.0
 40
0.0
 40
1.0
 40
1.0
 40
1.0
 40
1.0
 10
156.1380007787153
 20
66.72871718165268
 30
0.0
 10
156.1945641481835
 20
66.93391171916245
 30
0.0
 10
156.2485040710047
 20
67.14013537267961
 30
0.0
 10
156.2994861069963
 20
67.34751933516972
 30
0.0
  0
LINE
  5
95
330
1F
100
AcDbEntity
  8
0
  6
Continuous
 62
     7
370
    25
100
AcDbLine
 10
151.9934435892
 20
66.7287171817
 30
0.0
 11
156.1380007787
 21
66.7287171817
 31
0.0
  0
SPLINE
  5
96
330
1F
100
AcDbEntity
  8
0
  6
Continuous
 62
     7
370
    25
100
AcDbSpline
210
0.0
220
0.0
230
1.0
 70
     8
 71
     3
 72
    10
 73
     6
 74
     0
 42
0.00000001
 43
0.00000001
 40
0.0
 40
0.0
 40
0.0
 40
0.0
 40
0.5
 40
0.5
 40
1.0
 40
1.0
 40
1.0
 40
1.0
 10
151.9934435892356
 20
66.72871718165271
 30
0.0
 10
151.7853749130044
 20
67.483526454702
 30
0.0
 10
151.6149759069799
 20
68.2442728419339
 30
0.0
 10
151.3798159272811
 20
69.78241521955717
 30
0.0
 10
151.3157221839754
 20
70.55991637208197
 30
0.0
 10
151.3157221839755
 20
71.34751933516972
 30
0.0
  0
SPLINE
  5
97
330
1F
100
AcDbEntity
  8
0
  6
Continuous
 62
     7
370
    25
100
AcDbSpline
210
0.0
220
0.0
230
1.0
 70
     8
 71
     3
 72
    12
 73
     8
 74
     0
 42
0.00000001
 43
0.00000001
 40
0.0
 40
0.0
 40
0.0
 40
0.0
 40
0.2500000000000001
 40
0.2500000000000001
 40
0.5000000000000001
 40
0.5000000000000001
 40
1.0
 40
1.0
 40
1.0
 40
1.0
 10
151.3157221839755
 20
71.34751933516972
 30
0.0
 10
151.3157221839755
 20
71.74183741584156
 30
0.0
 10
151.3317209889565
 20
72.13549645979201
 30
0.0
 10
151.3934911272709
 20
72.91503245933734
 30
0.0
 10
151.4392332515725
 20
73.30198564746276
 30
0.0
 10
151.6159033989193
 20
74.45537221031677
 30
0.0
 10
151.7861584643996
 20
75.21435469952179
 30
0.0
 10
151.9934435892356
 20
75.96632148868673
 30
0.0
  0
LINE
  5
98
330
1F
100
AcDbEntity
  8
0
  6
Continuous
 62
     7
370
    25
100
AcDbLine
 10
156.1380007787
 20
75.9663214887
 30
0.0
 11
151.9934435892
 21
75.9663214887
 31
0.0
  0
SPLINE
  5
99
330
1F
100
AcDbEntity
  8
0
  6
Continuous
 62
     7
370
    25
100
AcDbSpline
210
0.0
220
0.0
230
1.0
 70
     8
 71
     3
 72
     8
 73
     4
 74
     0
 42
0.00000001
 43
0.00000001
 40
0.0
 40
0.0
 40
0.0
 40
0.0
 40
1.0
 40
1.0
 40
1.0
 40
1.0
 10
169.3319582609547
 20
75.34751933516979
 30
0.0
 10
169.3828544942097
 20
75.55455427057355
 30
0.0
 10
169.4367884491734
 20
75.76079403563854
 30
0.0
 10
169.4934435892357
 20
75.96632148868673
 30
0.0
  0
LINE
  5
9A
330
1F
100
AcDbEntity
  8
0
  6
Continuous
 62
     7
370
    25
100
AcDbLine
 10
173.9936632114
 20
75.9663214887
 30
0.0
 11
169.4934435892
 21
75.9663214887
 31
0.0
  0
SPLINE
  5
9B
330
1F
100
AcDbEntity
  8
0
  6
Continuous
 62
     7
370
    25
100
AcDbSpline
210
0.0
220
0.0
230
1.0
 70
     8
 71
     3
 72
    14
 73
    10
 74
     0
 42
0.00000001
 43
0.00000001
 40
0.0
 40
0.0
 40
0.0
 40
0.0
 40
0.25
 40
0.25
 40
0.5
 40
0.5
 40
0.75
 40
0.75
 40
1.0
 40
1.0
 40
1.0
 40
1.0
 10
173.9936632114178
 20
66.72871718165267
 30
0.0
 10
174.2016135721236
 20
67.48309724230266
 30
0.0
 10
174.3738353808125
 20
68.25253840976815
 30
0.0
 10
174.6084705035634
 20
69.79304977070932
 30
0.0
 10
174.6714145621911
 20
70.56790415071633
 30
0.0
 10
174.6713546494596
 20
72.12826510560188
 30
0.0
 10
174.6067399831675
 20
72.91872129838691
 30
0.0
 10
174.3701806437663
 20
74.46100096119538
 30
0.0
 10
174.1998355036868
 20
75.21839171439657
 30
0.0
 10
173.9936632114178
 20
75.96632148868673
 30
0.0
  0
LINE
  5
9C
330
1F
100
AcDbEntity
  8
0
  6
Continuous
 62
     7
370
    25
100
AcDbLine
 10
169.4934435892
 20
66.7287171817
 30
0.0
 11
173.9936632114
 21
66.7287171817
 31
0.0
  0
SPLINE
  5
9D
330
1F
100
AcDbEntity
  8
0
  6
Continuous
 62
     7
370
    25
100
AcDbSpline
210
0.0
220
0.0
230
1.0
 70
     8
 71
     3
 72
     8
 73
     4
 74
     0
 42
0.00000001
 43
0.00000001
 40
0.0
 40
0.0
 40
0.0
 40
0.0
 40
1.0
 40
1.0
 40
1.0
 40
1.0
 10
169.4934435892356
 20
66.72871718165268
 30
0.0
 10
169.4368817457987
 20
66.9339061831895
 30
0.0
 10
169.3829417285423
 20
67.1401295492542
 30
0.0
 10
169.3319582609546
 20
67.34751933516966
 30
0.0
  0
SPLINE
  5
9E
330
1F
100
AcDbEntity
  8
0
  6
Continuous
 62
     7
370
    25
100
AcDbSpline
210
0.0
220
0.0
230
1.0
 70
     8
 71
     3
 72
     8
 73
     4
 74
     0
 42
0.00000001
 43
0.00000001
 40
0.0
 40
0.0
 40
0.0
 40
0.0
 40
1.0
 40
1.0
 40
1.0
 40
1.0
 10
166.8157221839755
 20
63.54260812359575
 30
0.0
 10
167.0227512473108
 20
63.49171333389491
 30
0.0
 10
167.2289912645802
 20
63.43777948453348
 30
0.0
 10
167.4345243374925
 20
63.38112279531472
 30
0.0
  0
LINE
  5
9F
330
1F
100
AcDbEntity
  8
0
  6
Continuous
 62
     7
370
    25
100
AcDbLine
 10
167.4345243375
 20
60.0252407404
 30
0.0
 11
167.4345243375
 21
63.3811227953
 31
0.0
  0
SPLINE
  5
A0
330
1F
100
AcDbEntity
  8
0
  6
Continuous
 62
     7
370
    25
100
AcDbSpline
210
0.0
220
0.0
230
1.0
 70
     8
 71
     3
 72
    10
 73
     6
 74
     0
 42
0.00000001
 43
0.00000001
 40
0.0
 40
0.0
 40
0.0
 40
0.0
 40
0.5
 40
0.5
 40
1.0
 40
1.0
 40
1.0
 40
1.0
 10
162.8157221839755
 20
59.34751933516973
 30
0.0
 10
163.5913021205824
 20
59.34751933516973
 30
0.0
 10
164.3649923393088
 20
59.40980369714825
 30
0.0
 10
165.9090268816417
 20
59.64465181515527
 30
0.0
 10
166.6823355577965
 20
59.81789442228646
 30
0.0
 10
167.4345243374925
 20
60.02524074042991
 30
0.0
  0
ARC
  5
A1
330
1F
100
AcDbEntity
  8
0
  6
Continuous
 62
     7
370
    25
100
AcDbCircle
 10
164.3664535397
 20
70.7706003419
 30
0.0
 40
0.889000000000007
100
AcDbArc
 50
45.0
 51
315.0
  0
LINE
  5
A2
330
1F
100
AcDbEntity
  8
0
  6
Continuous
 62
     7
370
    25
100
AcDbLine
 10
164.9950714682
 20
71.3992182703
 30
0.0
 11
165.4616818538
 21
71.865828656
 31
0.0
  0
ARC
  5
A3
330
1F
100
AcDbEntity
  8
0
  6
Continuous
 62
     7
370
    25
100
AcDbCircle
 10
164.3664535397
 20
70.7706003419
 30
0.0
 40
1.548886735692424
100
AcDbArc
 50
45.0
 51
315.0
  0
LINE
  5
A4
330
1F
100
AcDbEntity
  8
0
  6
Continuous
 62
     7
370
    25
100
AcDbLine
 10
165.4616818538
 20
69.6753720278
 30
0.0
 11
164.9950714682
 21
70.1419824134
 31
0.0
  0
ARC
  5
A5
330
1F
100
AcDbEntity
  8
0
  6
Continuous
 62
     7
370
    25
100
AcDbCircle
 10
167.7085981361
 20
70.7706003419
 30
0.0
 40
0.8889999999999768
100
AcDbArc
 50
45.0
 51
159.0751675724
  0
LINE
  5
A6
330
1F
100
AcDbEntity
  8
0
  6
Continuous
 62
     7
370
    25
100
AcDbLine
 10
168.3372160645
 20
71.3992182703
 30
0.0
 11
168.8038264502
 21
71.865828656
 31
0.0
  0
ARC
  5
A7
330
1F
100
AcDbEntity
  8
0
  6
Continuous
 62
     7
370
    25
100
AcDbCircle
 10
167.7085981361
 20
70.7706003419
 30
0.0
 40
1.548886735692373
100
AcDbArc
 50
45.0
 51
315.0
  0
LINE
  5
A8
330
1F
100
AcDbEntity
  8
0
  6
Continuous
 62
     7
370
    25
100
AcDbLine
 10
168.8038264502
 20
69.6753720278
 30
0.0
 11
168.3372160645
 21
70.1419824134
 31
0.0
  0
ARC
  5
A9
330
1F
100
AcDbEntity
  8
0
  6
Continuous
 62
     7
370
    25
100
AcDbCircle
 10
167.7085981361
 20
70.7706003419
 30
0.0
 40
0.889000000000014
100
AcDbArc
 50
200.9248324276
 51
315.0
  0
LINE
  5
AA
330
1F
100
AcDbEntity
  8
0
  6
Continuous
 62
     7
370
    25
100
AcDbLine
 10
166.8782278873
 20
70.4531003419
 30
0.0
 11
168.8038264502
 21
70.4531003419
 31
0.0
  0
LINE
  5
AB
330
1F
100
AcDbEntity
  8
0
  6
Continuous
 62
     7
370
    25
100
AcDbLine
 10
168.8038264502
 20
70.4531003419
 30
0.0
 11
168.8038264502
 21
71.0881003419
 31
0.0
  0
LINE
  5
AC
330
1F
100
AcDbEntity
  8
0
  6
Continuous
 62
     7
370
    25
100
AcDbLine
 10
168.8038264502
 20
71.0881003419
 30
0.0
 11
166.8782278873
 21
71.0881003419
 31
0.0
  0
LINE
  5
AD
330
1F
100
AcDbEntity
  8
0
  6
Continuous
 62
     7
370
    25
100
AcDbLine
 10
161.91396327
 20
69.9251463176
 30
0.0
 11
161.8723129507
 21
69.9013413877
 31
0.0
  0
ELLIPSE
  5
AE
330
1F
100
AcDbEntity
  8
0
  6
Continuous
 62
     7
370
    25
100
AcDbEllipse
 10
161.5234697712
 20
70.4560238589
 30
0.0
 11
0.678412947925267
 21
6.110667527536863E-13
 31
0.0
210
0.0
220
0.0
230
1.0
 40
0.9533039403
 41
3.470145824140271
 42
5.252469180536336
  0
LINE
  5
AF
330
1F
100
AcDbEntity
  8
0
  6
Continuous
 62
     7
370
    25
100
AcDbLine
 10
160.8813450042
 20
70.247339744
 30
0.0
 11
159.6216907992
 21
73.7697841406
 31
0.0
  0
ELLIPSE
  5
B0
330
1F
100
AcDbEntity
  8
0
  6
Continuous
 62
     7
370
    25
100
AcDbEllipse
 10
159.0307082413
 20
73.5074449046
 30
0.0
 11
0.6519124952381503
 21
5.968558980384842E-13
 31
0.0
210
0.0
220
0.0
230
1.0
 40
0.9533023292
 41
0.4357905044354998
 42
2.705800116361558
  0
LINE
  5
B1
330
1F
100
AcDbEntity
  8
0
  6
Continuous
 62
     7
370
    25
100
AcDbLine
 10
158.4397262428
 20
73.7697852859
 30
0.0
 11
157.1803614411
 21
70.2481618842
 31
0.0
  0
ELLIPSE
  5
B2
330
1F
100
AcDbEntity
  8
0
  6
Continuous
 62
     7
370
    25
100
AcDbEllipse
 10
156.5382402571
 20
70.4568447178
 30
0.0
 11
-0.6784085062757867
 21
3.126388037344441E-13
 31
0.0
210
0.0
220
0.0
230
1.0
 40
0.9533122623
 41
1.04719377118793
 42
2.813042320199896
  0
LINE
  5
B3
330
1F
100
AcDbEntity
  8
0
  6
Continuous
 62
     7
370
    25
100
AcDbLine
 10
156.1990337832
 20
69.8967568726
 30
0.0
 11
156.1474532126
 21
69.9251463176
 31
0.0
  0
LINE
  5
B4
330
1F
100
AcDbEntity
  8
0
  6
Continuous
 62
     7
370
    25
100
AcDbLine
 10
156.1474532126
 20
69.9251463176
 30
0.0
 11
156.9437218722
 21
68.4069742162
 31
0.0
  0
ELLIPSE
  5
B5
330
1F
100
AcDbEntity
  8
0
  6
Continuous
 62
     7
370
    25
100
AcDbEllipse
 10
157.0195707456
 20
68.4431277311
 30
0.0
 11
0.08480161849064416
 21
-2.842170943040401E-14
 31
0.0
210
0.0
220
0.0
230
1.0
 40
0.9533039403
 41
3.605240262591068
 42
5.462183310215271
  0
ELLIPSE
  5
B6
330
1F
100
AcDbEntity
  8
0
  6
Continuous
 62
     7
370
    25
100
AcDbEllipse
 10
159.0307082413
 20
66.3842791106
 30
0.0
 11
2.866293551216188
 21
-1.506350599811412E-12
 31
0.0
210
0.0
220
0.0
230
1.0
 40
0.9533046568
 41
0.8210016221243851
 42
2.320591031466454
  0
ELLIPSE
  5
B7
330
1F
100
AcDbEntity
  8
0
  6
Continuous
 62
     7
370
    25
100
AcDbEllipse
 10
161.041845737
 20
68.4431277311
 30
0.0
 11
0.08480161849061574
 21
0.0
 31
0.0
210
0.0
220
0.0
230
1.0
 40
0.9533039403
 41
3.962594650556159
 42
5.819537698177098
  0
LINE
  5
B8
330
1F
100
AcDbEntity
  8
0
  6
Continuous
 62
     7
370
    25
100
AcDbLine
 10
161.1176946105
 20
68.4069742162
 30
0.0
 11
161.91396327
 21
69.9251463176
 31
0.0
  0
LINE
  5
B9
330
1F
100
AcDbEntity
  8
0
  6
Continuous
 62
     7
370
    25
100
AcDbLine
 10
158.815722184
 20
63.5426081236
 30
0.0
 11
158.815722184
 21
67.3475193352
 31
0.0
  0
LINE
  5
BA
330
1F
100
AcDbEntity
  8
0
  6
Continuous
 62
     7
370
    25
100
AcDbLine
 10
169.331958261
 20
67.3475193352
 30
0.0
 11
166.815722184
 21
67.3475193352
 31
0.0
  0
LINE
  5
BB
330
1F
100
AcDbEntity
  8
0
  6
Continuous
 62
     7
370
    25
100
AcDbLine
 10
169.331958261
 20
75.3475193352
 30
0.0
 11
156.299486107
 21
75.3475193352
 31
0.0
  0
LINE
  5
BC
330
1F
100
AcDbEntity
  8
0
  6
Continuous
 62
     7
370
    25
100
AcDbLine
 10
166.815722184
 20
63.5426081236
 30
0.0
 11
166.815722184
 21
67.3475193352
 31
0.0
  0
LINE
  5
BD
330
1F
100
AcDbEntity
  8
0
  6
Continuous
 62
     7
370
    25
100
AcDbLine
 10
158.815722184
 20
67.3475193352
 30
0.0
 11
156.299486107
 21
67.3475193352
 31
0.0
  0
SPLINE
  5
BE
330
1F
100
AcDbEntity
  8
0
  6
Continuous
 62
     7
370
    25
100
AcDbSpline
210
0.0
220
0.0
230
1.0
 70
     8
 71
     3
 72
    10
 73
     6
 74
     0
 42
0.00000001
 43
0.00000001
 40
0.0
 40
0.0
 40
0.0
 40
0.0
 40
0.5
 40
0.5
 40
1.0
 40
1.0
 40
1.0
 40
1.0
 10
151.9934435892356
 20
76.39933419057895
 30
0.0
 10
152.0171158291472
 20
76.35639638147971
 30
0.0
 10
152.0302098190825
 20
76.29295579158752
 30
0.0
 10
152.0302966865439
 20
76.14046664607868
 30
0.0
 10
152.0171268967845
 20
76.05223725687536
 30
0.0
 10
151.9934435892356
 20
75.96632148868673
 30
0.0
  0
LINE
  5
BF
330
1F
100
AcDbEntity
  8
0
  6
Continuous
 62
     7
370
    25
100
AcDbLine
 10
151.9934435892
 20
76.3993341906
 30
0.0
 11
156.1380007787
 21
76.3993341906
 31
0.0
  0
SPLINE
  5
C0
330
1F
100
AcDbEntity
  8
0
  6
Continuous
 62
     7
370
    25
100
AcDbSpline
210
0.0
220
0.0
230
1.0
 70
     8
 71
     3
 72
    10
 73
     6
 74
     0
 42
0.00000001
 43
0.00000001
 40
0.0
 40
0.0
 40
0.0
 40
0.0
 40
0.5
 40
0.5
 40
1.0
 40
1.0
 40
1.0
 40
1.0
 10
173.9936632114177
 20
66.72871718165271
 30
0.0
 10
173.9699878169934
 20
66.64283011985026
 30
0.0
 10
173.9568967071088
 20
66.55542291087012
 30
0.0
 10
173.9568103858205
 20
66.40278646827639
 30
0.0
 10
173.9699793197644
 20
66.3386634233308
 30
0.0
 10
173.9936632114178
 20
66.29570447976049
 30
0.0
  0
SPLINE
  5
C1
330
1F
100
AcDbEntity
  8
0
  6
Continuous
 62
     7
370
    25
100
AcDbSpline
210
0.0
220
0.0
230
1.0
 70
     8
 71
     3
 72
    10
 73
     6
 74
     0
 42
0.00000001
 43
0.00000001
 40
0.0
 40
0.0
 40
0.0
 40
0.0
 40
0.5
 40
0.5
 40
1.0
 40
1.0
 40
1.0
 40
1.0
 10
173.9936632114178
 20
76.39933419057895
 30
0.0
 10
173.9699878169935
 20
76.35639065967773
 30
0.0
 10
173.9568967071088
 20
76.2929482150536
 30
0.0
 10
173.9568103858205
 20
76.14046937793464
 30
0.0
 10
173.9699793197644
 20
76.05223937582737
 30
0.0
 10
173.9936632114178
 20
75.96632148868673
 30
0.0
  0
SPLINE
  5
C2
330
1F
100
AcDbEntity
  8
0
  6
Continuous
 62
     7
370
    25
100
AcDbSpline
210
0.0
220
0.0
230
1.0
 70
     8
 71
     3
 72
    16
 73
    12
 74
     0
 42
0.00000001
 43
0.00000001
 40
0.0
 40
0.0
 40
0.0
 40
0.0
 40
0.2500000000000001
 40
0.2500000000000001
 40
0.5000000000000001
 40
0.5000000000000001
 40
0.6250000000000001
 40
0.6250000000000001
 40
0.7500000000000002
 40
0.7500000000000002
 40
1.0
 40
1.0
 40
1.0
 40
1.0
 10
173.9936632114178
 20
81.01813634409596
 30
0.0
 10
174.2016786595236
 20
80.64082825521947
 30
0.0
 10
174.3718849644966
 20
80.26080452484526
 30
0.0
 10
174.6068209960642
 20
79.49318120943457
 30
0.0
 10
174.6708931277278
 20
79.10553439264577
 30
0.0
 10
174.6716260766489
 20
78.51721384075792
 30
0.0
 10
174.6559665965658
 20
78.32014064820228
 30
0.0
 10
174.5946914699289
 20
77.93008367064817
 30
0.0
 10
174.5491351974298
 20
77.73629077006014
 30
0.0
 10
174.3726491646735
 20
77.1582097852967
 30
0.0
 10
174.2019927111878
 20
76.77721192096189
 30
0.0
 10
173.9936632114178
 20
76.39933419057895
 30
0.0
  0
SPLINE
  5
C3
330
1F
100
AcDbEntity
  8
0
  6
Continuous
 62
     7
370
    25
100
AcDbSpline
210
0.0
220
0.0
230
1.0
 70
     8
 71
     3
 72
    10
 73
     6
 74
     0
 42
0.00000001
 43
0.00000001
 40
0.0
 40
0.0
 40
0.0
 40
0.0
 40
0.1601790552921226
 40
0.7197651707803578
 40
1.0
 40
1.0
 40
1.0
 40
1.0
 10
173.959433778301
 20
81.08041462284571
 30
0.0
 10
173.9586709882077
 20
81.08180685087207
 30
0.0
 10
173.955243388134
 20
81.0880628326004
 30
0.0
 10
173.9697508529323
 20
81.06155556787249
 30
0.0
 10
173.9876804060501
 20
81.02899971272733
 30
0.0
 10
173.9936632114178
 20
81.01813634409596
 30
0.0
  0
SPLINE
  5
C4
330
1F
100
AcDbEntity
  8
0
  6
Continuous
 62
     7
370
    25
100
AcDbSpline
210
0.0
220
0.0
230
1.0
 70
     8
 71
     3
 72
     9
 73
     5
 74
     0
 42
0.00000001
 43
0.00000001
 40
0.0
 40
0.0
 40
0.0
 40
0.0
 40
0.5797912171256352
 40
1.0
 40
1.0
 40
1.0
 40
1.0
 10
173.9936632114178
 20
61.67690232624349
 30
0.0
 10
173.9813046080714
 20
61.65442867800236
 30
0.0
 10
173.959988998277
 20
61.61566705558154
 30
0.0
 10
173.9595980557742
 20
61.61493265082333
 30
0.0
 10
173.959433778301
 20
61.61462404749374
 30
0.0
  0
SPLINE
  5
C5
330
1F
100
AcDbEntity
  8
0
  6
Continuous
 62
     7
370
    25
100
AcDbSpline
210
0.0
220
0.0
230
1.0
 70
     8
 71
     3
 72
    16
 73
    12
 74
     0
 42
0.00000001
 43
0.00000001
 40
0.0
 40
0.0
 40
0.0
 40
0.0
 40
0.2500000000000001
 40
0.2500000000000001
 40
0.5000000000000002
 40
0.5000000000000002
 40
0.6250000000000001
 40
0.6250000000000001
 40
0.7500000000000001
 40
0.7500000000000001
 40
1.0
 40
1.0
 40
1.0
 40
1.0
 10
173.9936632114178
 20
66.29570447976049
 30
0.0
 10
174.2016786595236
 20
65.918396390884
 30
0.0
 10
174.3718849644966
 20
65.5383726605098
 30
0.0
 10
174.6068209960642
 20
64.7707493450991
 30
0.0
 10
174.6708931277278
 20
64.3831025283103
 30
0.0
 10
174.6716260766489
 20
63.79478197642246
 30
0.0
 10
174.6559665965658
 20
63.59770878386681
 30
0.0
 10
174.5946914699289
 20
63.20765180631271
 30
0.0
 10
174.5491351974298
 20
63.01385890572467
 30
0.0
 10
174.3726491646735
 20
62.43577792096125
 30
0.0
 10
174.2019927111878
 20
62.05478005662642
 30
0.0
 10
173.9936632114178
 20
61.67690232624349
 30
0.0
  0
LINE
  5
C6
330
1F
100
AcDbEntity
  8
0
  6
Continuous
 62
     7
370
    25
100
AcDbLine
 10
174.815722184
 20
79.5975193352
 30
0.0
 11
174.815722184
 21
63.0975193352
 31
0.0
  0
LINE
  5
C7
330
1F
100
AcDbEntity
  8
0
  6
Continuous
 62
     7
370
    25
100
AcDbLine
 10
168.815722184
 20
78.7087352673
 30
0.0
 11
168.815722184
 21
75.3475193352
 31
0.0
  0
SPLINE
  5
C8
330
1F
100
AcDbEntity
  8
0
  6
Continuous
 62
     7
370
    25
100
AcDbSpline
210
0.0
220
0.0
230
1.0
 70
     8
 71
     3
 72
    10
 73
     6
 74
     0
 42
0.00000001
 43
0.00000001
 40
0.0
 40
0.0
 40
0.0
 40
0.0
 40
0.5
 40
0.5
 40
1.0
 40
1.0
 40
1.0
 40
1.0
 10
169.4934435892357
 20
76.39933419057893
 30
0.0
 10
169.2850228364182
 20
76.77737743998108
 30
0.0
 10
169.1145590011408
 20
77.15814694477693
 30
0.0
 10
168.8795765662024
 20
77.92729547033449
 30
0.0
 10
168.8157221839755
 20
78.31572219850973
 30
0.0
 10
168.8157221839755
 20
78.70873526733746
 30
0.0
  0
SPLINE
  5
C9
330
1F
100
AcDbEntity
  8
0
  6
Continuous
 62
     7
370
    25
100
AcDbSpline
210
0.0
220
0.0
230
1.0
 70
     8
 71
     3
 72
    10
 73
     6
 74
     0
 42
0.00000001
 43
0.00000001
 40
0.0
 40
0.0
 40
0.0
 40
0.0
 40
0.5
 40
0.5
 40
1.0
 40
1.0
 40
1.0
 40
1.0
 10
169.4934435892357
 20
75.96632148868673
 30
0.0
 10
169.51711898366
 20
76.05220855048918
 30
0.0
 10
169.5302100935447
 20
76.1396157594693
 30
0.0
 10
169.5302964148329
 20
76.29225220206303
 30
0.0
 10
169.5171274808891
 20
76.3563752470086
 30
0.0
 10
169.4934435892357
 20
76.39933419057893
 30
0.0
  0
LINE
  5
CA
330
1F
100
AcDbEntity
  8
0
  6
Continuous
 62
     7
370
    25
100
AcDbLine
 10
155.4545062518
 20
59.3475193352
 30
0.0
 11
162.815722184
 21
59.3475193352
 31
0.0
  0
SPLINE
  5
CB
330
1F
100
AcDbEntity
  8
0
  6
Continuous
 62
     7
370
    25
100
AcDbSpline
210
0.0
220
0.0
230
1.0
 70
     8
 71
     3
 72
    10
 73
     6
 74
     0
 42
0.00000001
 43
0.00000001
 40
0.0
 40
0.0
 40
0.0
 40
0.0
 40
0.5
 40
0.5
 40
1.0
 40
1.0
 40
1.0
 40
1.0
 10
157.7639073285663
 20
60.02524074042945
 30
0.0
 10
157.385158181175
 20
59.81643081576319
 30
0.0
 10
157.0039529047637
 20
59.64589667601594
 30
0.0
 10
156.2347222835759
 20
59.41111087099701
 30
0.0
 10
155.8466545787776
 20
59.34751933516972
 30
0.0
 10
155.4545062518077
 20
59.34751933516973
 30
0.0
  0
SPLINE
  5
CC
330
1F
100
AcDbEntity
  8
0
  6
Continuous
 62
     7
370
    25
100
AcDbSpline
210
0.0
220
0.0
230
1.0
 70
     8
 71
     3
 72
    10
 73
     6
 74
     0
 42
0.00000001
 43
0.00000001
 40
0.0
 40
0.0
 40
0.0
 40
0.0
 40
0.5
 40
0.5
 40
1.0
 40
1.0
 40
1.0
 40
1.0
 10
157.7639073285662
 20
60.02524074042991
 30
0.0
 10
157.8068451376655
 20
60.04891298034148
 30
0.0
 10
157.8702857275576
 20
60.06200697027673
 30
0.0
 10
158.0227748730665
 20
60.06209383773818
 30
0.0
 10
158.1110042622698
 20
60.04892404797882
 30
0.0
 10
158.1969200304584
 20
60.02524074042991
 30
0.0
  0
LINE
  5
CD
330
1F
100
AcDbEntity
  8
0
  6
Continuous
 62
     7
370
    25
100
AcDbLine
 10
173.9936632114
 20
66.2957044798
 30
0.0
 11
169.4934435892
 21
66.2957044798
 31
0.0
  0
SPLINE
  5
CE
330
1F
100
AcDbEntity
  8
0
  6
Continuous
 62
     7
370
    25
100
AcDbSpline
210
0.0
220
0.0
230
1.0
 70
     8
 71
     3
 72
    10
 73
     6
 74
     0
 42
0.00000001
 43
0.00000001
 40
0.0
 40
0.0
 40
0.0
 40
0.0
 40
0.5
 40
0.5
 40
1.0
 40
1.0
 40
1.0
 40
1.0
 10
169.4934435892324
 20
66.29570447976049
 30
0.0
 10
169.5171189836567
 20
66.33864801066166
 30
0.0
 10
169.5302100935446
 20
66.40209045528545
 30
0.0
 10
169.530296414833
 20
66.55456929240452
 30
0.0
 10
169.5171274808891
 20
66.64279929451196
 30
0.0
 10
169.4934435892357
 20
66.7287171816527
 30
0.0
  0
SPLINE
  5
CF
330
1F
100
AcDbEntity
  8
0
  6
Continuous
 62
     7
370
    25
100
AcDbSpline
210
0.0
220
0.0
230
1.0
 70
     8
 71
     3
 72
    10
 73
     6
 74
     0
 42
0.00000001
 43
0.00000001
 40
0.0
 40
0.0
 40
0.0
 40
0.0
 40
0.5
 40
0.5
 40
1.0
 40
1.0
 40
1.0
 40
1.0
 10
157.7639073285662
 20
63.38112279531472
 30
0.0
 10
157.8068508594674
 20
63.35744740089033
 30
0.0
 10
157.8702933040916
 20
63.3443562910057
 30
0.0
 10
158.0227721412105
 20
63.34426996971741
 30
0.0
 10
158.1110021433178
 20
63.35743890366125
 30
0.0
 10
158.1969200304584
 20
63.38112279531472
 30
0.0
  0
LINE
  5
D0
330
1F
100
AcDbEntity
  8
0
  6
Continuous
 62
     7
370
    25
100
AcDbLine
 10
157.7639073286
 20
60.0252407404
 30
0.0
 11
157.7639073286
 21
63.3811227953
 31
0.0
  0
SPLINE
  5
D1
330
1F
100
AcDbEntity
  8
0
  6
Continuous
 62
     7
370
    25
100
AcDbSpline
210
0.0
220
0.0
230
1.0
 70
     8
 71
     3
 72
    10
 73
     6
 74
     0
 42
0.00000001
 43
0.00000001
 40
0.0
 40
0.0
 40
0.0
 40
0.0
 40
0.5
 40
0.5
 40
1.0
 40
1.0
 40
1.0
 40
1.0
 10
167.4345243374925
 20
63.3811227953147
 30
0.0
 10
167.520411399295
 20
63.35744740089029
 30
0.0
 10
167.6078186082752
 20
63.34435629100567
 30
0.0
 10
167.7604550508691
 20
63.34426996971744
 30
0.0
 10
167.8245780958148
 20
63.35743890366138
 30
0.0
 10
167.8675370393851
 20
63.38112279531494
 30
0.0
  0
LINE
  5
D2
330
1F
100
AcDbEntity
  8
0
  6
Continuous
 62
     7
370
    25
100
AcDbLine
 10
167.8675370394
 20
63.3811227953
 30
0.0
 11
167.8675370394
 21
60.0252407404
 31
0.0
  0
SPLINE
  5
D3
330
1F
100
AcDbEntity
  8
0
  6
Continuous
 62
     7
370
    25
100
AcDbSpline
210
0.0
220
0.0
230
1.0
 70
     8
 71
     3
 72
    10
 73
     6
 74
     0
 42
0.00000001
 43
0.00000001
 40
0.0
 40
0.0
 40
0.0
 40
0.0
 40
0.5
 40
0.5
 40
1.0
 40
1.0
 40
1.0
 40
1.0
 10
167.4345243374925
 20
60.02524074042991
 30
0.0
 10
167.5204059799989
 20
60.04891464098586
 30
0.0
 10
167.6078151859643
 20
60.06200719816501
 30
0.0
 10
167.7604576710393
 20
60.06209361214729
 30
0.0
 10
167.8245806561217
 20
60.04892322054867
 30
0.0
 10
167.8675370393847
 20
60.02524074042991
 30
0.0
  0
SPLINE
  5
D4
330
1F
100
AcDbEntity
  8
0
  6
Continuous
 62
     7
370
    25
100
AcDbSpline
210
0.0
220
0.0
230
1.0
 70
     8
 71
     3
 72
    12
 73
     8
 74
     0
 42
0.00000001
 43
0.00000001
 40
0.0
 40
0.0
 40
0.0
 40
0.0
 40
0.2499999999999998
 40
0.2499999999999998
 40
0.4999999999999996
 40
0.4999999999999996
 40
1.0
 40
1.0
 40
1.0
 40
1.0
 10
170.1769381161432
 20
59.34751933516973
 30
0.0
 10
169.9819346361374
 20
59.34751933516972
 30
0.0
 10
169.785399977113
 20
59.36326566519168
 30
0.0
 10
169.3959802895074
 20
59.42471068977711
 30
0.0
 10
169.2024955964471
 20
59.47029944903084
 30
0.0
 10
168.6253119976916
 20
59.64675045128744
 30
0.0
 10
168.2448762159086
 20
59.81720815325093
 30
0.0
 10
167.8675370393847
 20
60.02524074042977
 30
0.0
  0
LINE
  5
D5
330
1F
100
AcDbEntity
  8
0
  6
Continuous
 62
     7
370
    25
100
AcDbLine
 10
162.815722184
 20
59.3475193352
 30
0.0
 11
170.1769381161
 21
59.3475193352
 31
0.0
  0
SPLINE
  5
D6
330
1F
100
AcDbEntity
  8
0
  6
Continuous
 62
     7
370
    25
100
AcDbSpline
210
0.0
220
0.0
230
1.0
 70
     8
 71
     3
 72
     8
 73
     4
 74
     0
 42
0.00000001
 43
0.00000001
 40
0.0
 40
0.0
 40
0.0
 40
0.0
 40
1.0
 40
1.0
 40
1.0
 40
1.0
 10
155.5263459993588
 20
64.05814315054099
 30
0.0
 10
155.8353631420006
 20
64.15914825837112
 30
0.0
 10
156.1506808983186
 20
64.25580504743705
 30
0.0
 10
156.4731602251616
 20
64.34751933516972
 30
0.0
  0
SPLINE
  5
D7
330
1F
100
AcDbEntity
  8
0
  6
Continuous
 62
     7
370
    25
100
AcDbSpline
210
0.0
220
0.0
230
1.0
 70
     8
 71
     3
 72
    12
 73
     8
 74
     0
 42
0.00000001
 43
0.00000001
 40
0.0
 40
0.0
 40
0.0
 40
0.0
 40
0.2500000000000002
 40
0.2500000000000002
 40
0.5000000000000004
 40
0.5000000000000004
 40
1.0
 40
1.0
 40
1.0
 40
1.0
 10
155.5263459993536
 20
64.05814315053486
 30
0.0
 10
155.7163721746568
 20
64.05443466467842
 30
0.0
 10
155.9065872373426
 20
64.03585216184075
 30
0.0
 10
156.283523996475
 20
63.9709851248746
 30
0.0
 10
156.4708467877345
 20
63.92471957162434
 30
0.0
 10
157.0297567440486
 20
63.74899504131737
 30
0.0
 10
157.3982924021589
 20
63.58269163254063
 30
0.0
 10
157.7639073285662
 20
63.38112279531472
 30
0.0
  0
SPLINE
  5
D8
330
1F
100
AcDbEntity
  8
0
  6
Continuous
 62
     7
370
    25
100
AcDbSpline
210
0.0
220
0.0
230
1.0
 70
     8
 71
     3
 72
    10
 73
     6
 74
     0
 42
0.00000001
 43
0.00000001
 40
0.0
 40
0.0
 40
0.0
 40
0.0
 40
0.5
 40
0.5
 40
1.0
 40
1.0
 40
1.0
 40
1.0
 10
156.1380007787152
 20
66.72871718165271
 30
0.0
 10
156.1143253842908
 20
66.64283011985026
 30
0.0
 10
156.1012342744062
 20
66.55542291087013
 30
0.0
 10
156.1011479531179
 20
66.40278646827639
 30
0.0
 10
156.1143168870618
 20
66.3386634233308
 30
0.0
 10
156.1380007787153
 20
66.29570447976049
 30
0.0
  0
LINE
  5
D9
330
1F
100
AcDbEntity
  8
0
  6
Continuous
 62
     7
370
    25
100
AcDbLine
 10
156.1380007787
 20
66.2957044798
 30
0.0
 11
151.9934435892
 21
66.2957044798
 31
0.0
  0
SPLINE
  5
DA
330
1F
100
AcDbEntity
  8
0
  6
Continuous
 62
     7
370
    25
100
AcDbSpline
210
0.0
220
0.0
230
1.0
 70
     8
 71
     3
 72
    10
 73
     6
 74
     0
 42
0.00000001
 43
0.00000001
 40
0.0
 40
0.0
 40
0.0
 40
0.0
 40
0.5
 40
0.5
 40
1.0
 40
1.0
 40
1.0
 40
1.0
 10
151.9934435892356
 20
66.72871718165271
 30
0.0
 10
152.0171174897916
 20
66.64283553914625
 30
0.0
 10
152.0302100469707
 20
66.55542633318082
 30
0.0
 10
152.030296460953
 20
66.4027838481059
 30
0.0
 10
152.0171260693544
 20
66.33866086302352
 30
0.0
 10
151.9934435892356
 20
66.29570447976049
 30
0.0
  0
SPLINE
  5
DB
330
1F
100
AcDbEntity
  8
0
  6
Continuous
 62
     7
370
    25
100
AcDbSpline
210
0.0
220
0.0
230
1.0
 70
     8
 71
     3
 72
    12
 73
     8
 74
     0
 42
0.00000001
 43
0.00000001
 40
0.0
 40
0.0
 40
0.0
 40
0.0
 40
0.2499999999999999
 40
0.2499999999999999
 40
0.4999999999999998
 40
0.4999999999999998
 40
1.0
 40
1.0
 40
1.0
 40
1.0
 10
151.3157221839755
 20
63.98630340300199
 30
0.0
 10
151.3157221839755
 20
64.18130688300779
 30
0.0
 10
151.3314685139974
 20
64.3778415420322
 30
0.0
 10
151.3929135385828
 20
64.76726122963774
 30
0.0
 10
151.4385022978365
 20
64.96074592269801
 30
0.0
 10
151.6149533000932
 20
65.5379295214536
 30
0.0
 10
151.7854110020566
 20
65.91836530323657
 30
0.0
 10
151.9934435892355
 20
66.2957044797605
 30
0.0
  0
LINE
  5
DC
330
1F
100
AcDbEntity
  8
0
  6
Continuous
 62
     7
370
    25
100
AcDbLine
 10
151.315722184
 20
71.3475193352
 30
0.0
 11
151.315722184
 21
63.986303403
 31
0.0
  0
LINE
  5
DD
330
1F
100
AcDbEntity
  8
0
  6
Continuous
 62
     7
370
    25
100
AcDbLine
 10
156.815722184
 20
67.3475193352
 30
0.0
 11
156.815722184
 21
65.3475193352
 31
0.0
  0
SPLINE
  5
DE
330
1F
100
AcDbEntity
  8
0
  6
Continuous
 62
     7
370
    25
100
AcDbSpline
210
0.0
220
0.0
230
1.0
 70
     8
 71
     3
 72
     8
 73
     4
 74
     0
 42
0.00000001
 43
0.00000001
 40
0.0
 40
0.0
 40
0.0
 40
0.0
 40
1.0
 40
1.0
 40
1.0
 40
1.0
 10
156.8157221839754
 20
65.34751933516972
 30
0.0
 10
156.7759435257853
 20
65.21013424616962
 30
0.0
 10
156.735454562957
 20
65.07343016435784
 30
0.0
 10
156.6943386924793
 20
64.93739780184447
 30
0.0
  0
SPLINE
  5
DF
330
1F
100
AcDbEntity
  8
0
  6
Continuous
 62
     7
370
    25
100
AcDbSpline
210
0.0
220
0.0
230
1.0
 70
     8
 71
     3
 72
     8
 73
     4
 74
     0
 42
0.00000001
 43
0.00000001
 40
0.0
 40
0.0
 40
0.0
 40
0.0
 40
1.0
 40
1.0
 40
1.0
 40
1.0
 10
156.1380007787153
 20
66.29570447976049
 30
0.0
 10
156.3851745595992
 20
65.84736918670916
 30
0.0
 10
156.5788962279032
 20
65.39519469596559
 30
0.0
 10
156.6943386924793
 20
64.93739780184447
 30
0.0
  0
SPLINE
  5
E0
330
1F
100
AcDbEntity
  8
0
  6
Continuous
 62
     7
370
    25
100
AcDbSpline
210
0.0
220
0.0
230
1.0
 70
     8
 71
     3
 72
     8
 73
     4
 74
     0
 42
0.00000001
 43
0.00000001
 40
0.0
 40
0.0
 40
0.0
 40
0.0
 40
1.0
 40
1.0
 40
1.0
 40
1.0
 10
168.9371056754716
 20
64.93739780184448
 30
0.0
 10
168.8959903998303
 20
65.07342819633402
 30
0.0
 10
168.8555014169625
 20
65.21013226097148
 30
0.0
 10
168.8157221839755
 20
65.34751933516972
 30
0.0
  0
LINE
  5
E1
330
1F
100
AcDbEntity
  8
0
  6
Continuous
 62
     7
370
    25
100
AcDbLine
 10
168.815722184
 20
67.3475193352
 30
0.0
 11
168.815722184
 21
65.3475193352
 31
0.0
  0
SPLINE
  5
E2
330
1F
100
AcDbEntity
  8
0
  6
Continuous
 62
     7
370
    25
100
AcDbSpline
210
0.0
220
0.0
230
1.0
 70
     8
 71
     3
 72
     8
 73
     4
 74
     0
 42
0.00000001
 43
0.00000001
 40
0.0
 40
0.0
 40
0.0
 40
0.0
 40
1.0
 40
1.0
 40
1.0
 40
1.0
 10
168.9371056754716
 20
64.93739780184448
 30
0.0
 10
169.0527382855007
 20
65.39594873390224
 30
0.0
 10
169.2466276903211
 20
65.84801832966049
 30
0.0
 10
169.4934435892355
 20
66.29570447976025
 30
0.0
  0
ELLIPSE
  5
E3
330
1F
100
AcDbEntity
  8
0
  6
Continuous
 62
     7
370
    25
100
AcDbEllipse
 10
159.0656353586
 20
71.6645118128
 30
0.0
 11
0.08480161849067258
 21
1.421085471520200E-14
 31
0.0
210
0.0
220
0.0
230
1.0
 40
0.9533039403
 41
0.3430239404204589
 42
2.798568713168874
  0
LINE
  5
E4
330
1F
100
AcDbEntity
  8
0
  6
Continuous
 62
     7
370
    25
100
AcDbLine
 10
158.7619611775
 20
70.7730874787
 30
0.0
 11
159.3693095363
 21
70.7730874787
 31
0.0
  0
LINE
  5
E5
330
1F
100
AcDbEntity
  8
0
  6
Continuous
 62
     7
370
    25
100
AcDbLine
 10
159.4491707746
 20
70.8811192074
 30
0.0
 11
159.1454965969
 21
71.6917018246
 31
0.0
  0
ELLIPSE
  5
E6
330
1F
100
AcDbEntity
  8
0
  6
Continuous
 62
     7
370
    25
100
AcDbEllipse
 10
159.3693095363
 20
70.8539291957
 30
0.0
 11
-0.08480161849067258
 21
-4.263256414560601E-14
 31
0.0
210
0.0
220
0.0
230
1.0
 40
0.9533039403
 41
1.570796326794417
 42
3.484616592149421
  0
LINE
  5
E7
330
1F
100
AcDbEntity
  8
0
  6
Continuous
 62
     7
370
    25
100
AcDbLine
 10
158.9857741203
 20
71.6917018246
 30
0.0
 11
158.6820999392
 21
70.8811192077
 31
0.0
  0
ELLIPSE
  5
E8
330
1F
100
AcDbEntity
  8
0
  6
Continuous
 62
     7
370
    25
100
AcDbEllipse
 10
158.7619611775
 20
70.8539291957
 30
0.0
 11
0.08480161849067258
 21
-1.421085471520200E-14
 31
0.0
210
0.0
220
0.0
230
1.0
 40
0.9533039403
 41
2.798568711308443
 42
4.712388980384862
  0
SPLINE
  5
E9
330
1F
100
AcDbEntity
  8
0
  6
Continuous
 62
     7
370
    25
100
AcDbSpline
210
0.0
220
0.0
230
1.0
 70
     8
 71
     3
 72
     8
 73
     4
 74
     0
 42
0.00000001
 43
0.00000001
 40
0.0
 40
0.0
 40
0.0
 40
0.0
 40
1.0
 40
1.0
 40
1.0
 40
1.0
 10
169.1582841427893
 20
64.34751933516972
 30
0.0
 10
169.4807634696386
 20
64.25580504743526
 30
0.0
 10
169.7960812259626
 20
64.15914825836735
 30
0.0
 10
170.1050983686101
 20
64.05814315053512
 30
0.0
  0
SPLINE
  5
EA
330
1F
100
AcDbEntity
  8
0
  6
Continuous
 62
     7
370
    25
100
AcDbSpline
210
0.0
220
0.0
230
1.0
 70
     8
 71
     3
 72
    10
 73
     6
 74
     0
 42
0.00000001
 43
0.00000001
 40
0.0
 40
0.0
 40
0.0
 40
0.0
 40
0.5
 40
0.5
 40
1.0
 40
1.0
 40
1.0
 40
1.0
 10
167.867537039385
 20
63.38112279531487
 30
0.0
 10
168.2340549862255
 20
63.5831894808658
 30
0.0
 10
168.6031352116913
 20
63.74958225313644
 30
0.0
 10
169.3483875599187
 20
63.9836292270065
 30
0.0
 10
169.7246003318665
 20
64.05071748096533
 30
0.0
 10
170.1050983686101
 20
64.05814315053512
 30
0.0
  0
LINE
  5
EB
330
1F
100
AcDbEntity
  8
0
  6
Continuous
 62
     7
370
    25
100
AcDbLine
 10
169.4934435892
 20
76.3993341906
 30
0.0
 11
173.9936632114
 21
76.3993341906
 31
0.0
  0
SPLINE
  5
EC
330
1F
100
AcDbEntity
  8
0
  6
Continuous
 62
     7
370
    25
100
AcDbSpline
210
0.0
220
0.0
230
1.0
 70
     8
 71
     3
 72
    10
 73
     6
 74
     0
 42
0.00000001
 43
0.00000001
 40
0.0
 40
0.0
 40
0.0
 40
0.0
 40
0.5
 40
0.5
 40
1.0
 40
1.0
 40
1.0
 40
1.0
 10
151.9934435892352
 20
76.39933419057893
 30
0.0
 10
151.7846336645689
 20
76.7780833379702
 30
0.0
 10
151.6140995248217
 20
77.15928861438151
 30
0.0
 10
151.3793137198027
 20
77.92851923556928
 30
0.0
 10
151.3157221839754
 20
78.31658694036761
 30
0.0
 10
151.3157221839755
 20
78.70873526733746
 30
0.0
  0
LINE
  5
ED
330
1F
100
AcDbEntity
  8
0
  6
Continuous
 62
     7
370
    25
100
AcDbLine
 10
151.315722184
 20
71.3475193352
 30
0.0
 11
151.315722184
 21
78.7087352673
 31
0.0
  0
SPLINE
  5
EE
330
1F
100
AcDbEntity
  8
0
  6
Continuous
 62
     7
370
    25
100
AcDbSpline
210
0.0
220
0.0
230
1.0
 70
     8
 71
     3
 72
    12
 73
     8
 74
     0
 42
0.00000001
 43
0.00000001
 40
0.0
 40
0.0
 40
0.0
 40
0.0
 40
0.2499999999999999
 40
0.2499999999999999
 40
0.4999999999999998
 40
0.4999999999999998
 40
1.0
 40
1.0
 40
1.0
 40
1.0
 10
168.8157221839755
 20
78.70873526733746
 30
0.0
 10
168.8157221839755
 20
78.90447753021697
 30
0.0
 10
168.8315651200644
 20
79.10114413940752
 30
0.0
 10
168.8930679803021
 20
79.49041236673581
 30
0.0
 10
168.9386716213458
 20
79.68381639968874
 30
0.0
 10
169.115122638835
 20
80.26074545094549
 30
0.0
 10
169.2855200060868
 20
80.6409948841485
 30
0.0
 10
169.4934435892357
 20
81.01813634409596
 30
0.0
  0
LINE
  5
EF
330
1F
100
AcDbEntity
  8
0
  6
Continuous
 62
     7
370
    25
100
AcDbLine
 10
173.9936632114
 20
81.0181363441
 30
0.0
 11
169.4934435892
 21
81.0181363441
 31
0.0
  0
ELLIPSE
  5
F0
330
1F
100
AcDbEntity
  8
0
  6
Continuous
 62
     7
370
    25
100
AcDbEllipse
 10
162.815722184
 20
61.5325647589
 30
0.0
 11
8.5
 21
0.0
 31
0.0
210
0.0
220
0.0
230
1.0
 40
0.5773502692
 41
2.374833212873088
 42
2.530692279913061
  0
LINE
  5
F1
330
1F
100
AcDbEntity
  8
0
  6
Continuous
 62
     7
370
    25
100
AcDbLine
 10
155.5263459994
 20
64.0581431505
 30
0.0
 11
153.145105175
 21
61.6769023262
 31
0.0
  0
LINE
  5
F2
330
1F
100
AcDbEntity
  8
0
  6
Continuous
 62
     7
370
    25
100
AcDbLine
 10
151.9934435892
 20
61.6769023262
 30
0.0
 11
153.145105175
 21
61.6769023262
 31
0.0
  0
SPLINE
  5
F3
330
1F
100
AcDbEntity
  8
0
  6
Continuous
 62
     7
370
    25
100
AcDbSpline
210
0.0
220
0.0
230
1.0
 70
     8
 71
     3
 72
    10
 73
     6
 74
     0
 42
0.00000001
 43
0.00000001
 40
0.0
 40
0.0
 40
0.0
 40
0.0
 40
0.5
 40
0.5
 40
1.0
 40
1.0
 40
1.0
 40
1.0
 10
151.9934435892352
 20
61.67690232624346
 30
0.0
 10
151.7846336645689
 20
62.05565147363475
 30
0.0
 10
151.6140995248217
 20
62.43685675004605
 30
0.0
 10
151.3793137198027
 20
63.20608737123383
 30
0.0
 10
151.3157221839755
 20
63.59415507603215
 30
0.0
 10
151.3157221839755
 20
63.98630340300199
 30
0.0
  0
ELLIPSE
  5
F4
330
1F
100
AcDbEntity
  8
0
  6
Continuous
 62
     7
370
    25
100
AcDbEllipse
 10
162.815722184
 20
61.5325647589
 30
0.0
 11
8.5
 21
0.0
 31
0.0
210
0.0
220
0.0
230
1.0
 40
0.5773502692
 41
0.6109003736767318
 42
0.7667594407167088
  0
LINE
  5
F5
330
1F
100
AcDbEntity
  8
0
  6
Continuous
 62
     7
370
    25
100
AcDbLine
 10
172.4863391929
 20
61.6769023262
 30
0.0
 11
173.9936632114
 21
61.6769023262
 31
0.0
  0
LINE
  5
F6
330
1F
100
AcDbEntity
  8
0
  6
Continuous
 62
     7
370
    25
100
AcDbLine
 10
172.4863391929
 20
61.6769023262
 30
0.0
 11
170.1050983686
 21
64.0581431505
 31
0.0
  0
LINE
  5
F7
330
1F
100
AcDbEntity
  8
0
  6
Continuous
 62
     7
370
    25
100
AcDbLine
 10
172.4863391929
 20
60.0252407404
 30
0.0
 11
172.4863391929
 21
61.6769023262
 31
0.0
  0
SPLINE
  5
F8
330
1F
100
AcDbEntity
  8
0
  6
Continuous
 62
     7
370
    25
100
AcDbSpline
210
0.0
220
0.0
230
1.0
 70
     8
 71
     3
 72
    10
 73
     6
 74
     0
 42
0.00000001
 43
0.00000001
 40
0.0
 40
0.0
 40
0.0
 40
0.0
 40
0.5
 40
0.5
 40
1.0
 40
1.0
 40
1.0
 40
1.0
 10
172.4863391929017
 20
60.02524074042945
 30
0.0
 10
172.1075900455104
 20
59.81643081576319
 30
0.0
 10
171.7263847690991
 20
59.64589667601594
 30
0.0
 10
170.9571541479114
 20
59.41111087099701
 30
0.0
 10
170.569086443113
 20
59.34751933516973
 30
0.0
 10
170.1769381161432
 20
59.34751933516973
 30
0.0
  0
SPLINE
  5
F9
330
1F
100
AcDbEntity
  8
0
  6
Continuous
 62
     7
370
    25
100
AcDbSpline
210
0.0
220
0.0
230
1.0
 70
     8
 71
     3
 72
    12
 73
     8
 74
     0
 42
0.00000001
 43
0.00000001
 40
0.0
 40
0.0
 40
0.0
 40
0.0
 40
0.2499999999999999
 40
0.2499999999999999
 40
0.5
 40
0.5
 40
1.0
 40
1.0
 40
1.0
 40
1.0
 10
151.3157221839755
 20
78.70873526733746
 30
0.0
 10
151.3157221839755
 20
78.90373874734324
 30
0.0
 10
151.3314685139974
 20
79.10027340636766
 30
0.0
 10
151.3929135385828
 20
79.4896930939732
 30
0.0
 10
151.4385022978365
 20
79.68317778703346
 30
0.0
 10
151.6149533000932
 20
80.26036138578907
 30
0.0
 10
151.7854110020567
 20
80.64079716757203
 30
0.0
 10
151.9934435892355
 20
81.01813634409596
 30
0.0
  0
LINE
  5
FA
330
1F
100
AcDbEntity
  8
0
  6
Continuous
 62
     7
370
    25
100
AcDbLine
 10
156.1380007787
 20
81.0181363441
 30
0.0
 11
151.9934435892
 21
81.0181363441
 31
0.0
  0
SPLINE
  5
FB
330
1F
100
AcDbEntity
  8
0
  6
Continuous
 62
     7
370
    25
100
AcDbSpline
210
0.0
220
0.0
230
1.0
 70
     8
 71
     3
 72
    10
 73
     6
 74
     0
 42
0.00000001
 43
0.00000001
 40
0.0
 40
0.0
 40
0.0
 40
0.0
 40
0.5
 40
0.5
 40
1.0
 40
1.0
 40
1.0
 40
1.0
 10
156.1380007787153
 20
81.01813634409598
 30
0.0
 10
156.3464215315327
 20
80.64009309469382
 30
0.0
 10
156.5168853668101
 20
80.25932358989797
 30
0.0
 10
156.7518678017485
 20
79.49017506434043
 30
0.0
 10
156.8157221839755
 20
79.10174833616519
 30
0.0
 10
156.8157221839755
 20
78.70873526733746
 30
0.0
  0
SPLINE
  5
FC
330
1F
100
AcDbEntity
  8
0
  6
Continuous
 62
     7
370
    25
100
AcDbSpline
210
0.0
220
0.0
230
1.0
 70
     8
 71
     3
 72
    12
 73
     8
 74
     0
 42
0.00000001
 43
0.00000001
 40
0.0
 40
0.0
 40
0.0
 40
0.0
 40
0.2500000000000002
 40
0.2500000000000002
 40
0.5000000000000001
 40
0.5000000000000001
 40
1.0
 40
1.0
 40
1.0
 40
1.0
 10
155.4545062518077
 20
59.34751933516973
 30
0.0
 10
155.2595027718019
 20
59.34751933516973
 30
0.0
 10
155.0629681127775
 20
59.36326566519168
 30
0.0
 10
154.673548425172
 20
59.42471068977711
 30
0.0
 10
154.4800637321117
 20
59.47029944903084
 30
0.0
 10
153.9028801333561
 20
59.64675045128743
 30
0.0
 10
153.5224443515731
 20
59.81720815325093
 30
0.0
 10
153.1451051750492
 20
60.02524074042977
 30
0.0
  0
LINE
  5
FD
330
1F
100
AcDbEntity
  8
0
  6
Continuous
 62
     7
370
    25
100
AcDbLine
 10
153.145105175
 20
61.6769023262
 30
0.0
 11
153.145105175
 21
60.0252407404
 31
0.0
  0
LINE
  5
FE
330
1F
100
AcDbEntity
  8
0
  6
Continuous
 62
     7
370
    25
100
AcDbLine
 10
168.815722184
 20
65.3475193352
 30
0.0
 11
166.815722184
 21
67.3475193352
 31
0.0
  0
LINE
  5
FF
330
1F
100
AcDbEntity
  8
0
  6
Continuous
 62
     7
370
    25
100
AcDbLine
 10
166.815722184
 20
64.3475193352
 30
0.0
 11
169.7783432566
 21
64.3475193352
 31
0.0
  0
LINE
  5
100
330
1F
100
AcDbEntity
  8
0
  6
Continuous
 62
     7
370
    25
100
AcDbLine
 10
158.815722184
 20
67.3475193352
 30
0.0
 11
156.815722184
 21
65.3475193352
 31
0.0
  0
LINE
  5
101
330
1F
100
AcDbEntity
  8
0
  6
Continuous
 62
     7
370
    25
100
AcDbLine
 10
155.8531011113
 20
64.3475193352
 30
0.0
 11
158.815722184
 21
64.3475193352
 31
0.0
  0
LINE
  5
102
330
1F
100
AcDbEntity
  8
0
  6
Continuous
 62
     7
370
    25
100
AcDbLine
 10
156.815722184
 20
79.2819738134
 30
0.0
 11
156.815722184
 21
78.7087352673
 31
0.0
  0
SPLINE
  5
103
330
1F
100
AcDbEntity
  8
0
  6
Continuous
 62
     7
370
    25
100
AcDbSpline
210
0.0
220
0.0
230
1.0
 70
     8
 71
     3
 72
    32
 73
    28
 74
     0
 42
0.00000001
 43
0.00000001
 40
0.0
 40
0.0
 40
0.0
 40
0.0
 40
0.0625000000000001
 40
0.0625000000000001
 40
0.1250000000000001
 40
0.1250000000000001
 40
0.1875000000000002
 40
0.1875000000000002
 40
0.2500000000000003
 40
0.2500000000000003
 40
0.3750000000000003
 40
0.3750000000000003
 40
0.4375000000000003
 40
0.4375000000000003
 40
0.5000000000000002
 40
0.5000000000000002
 40
0.5625000000000002
 40
0.5625000000000002
 40
0.6250000000000001
 40
0.6250000000000001
 40
0.7500000000000001
 40
0.7500000000000001
 40
0.8750000000000002
 40
0.8750000000000002
 40
0.9375000000000001
 40
0.9375000000000001
 40
1.0
 40
1.0
 40
1.0
 40
1.0
 10
168.815722183967
 20
79.28197381339038
 30
0.0
 10
168.6588658480501
 20
79.18701683549467
 30
0.0
 10
168.4858674138945
 20
79.0842636608695
 30
0.0
 10
168.1091628272686
 20
78.86755245922123
 30
0.0
 10
167.9063100468119
 20
78.75413374873122
 30
0.0
 10
167.4803287840094
 20
78.52604361203305
 30
0.0
 10
167.2561508237213
 20
78.4107367295812
 30
0.0
 10
166.784799730145
 20
78.18241362720642
 30
0.0
 10
166.5361142147798
 20
78.06876361107267
 30
0.0
 10
165.7655417300882
 20
77.74569957983863
 30
0.0
 10
165.219904320006
 20
77.55280105567512
 30
0.0
 10
164.3371245715097
 20
77.34120713040141
 30
0.0
 10
164.0384854716368
 20
77.28556474428368
 30
0.0
 10
163.4319838709211
 20
77.20989667491985
 30
0.0
 10
163.1218366322552
 20
77.18992342914352
 30
0.0
 10
162.5017511435714
 20
77.19025719539677
 30
0.0
 10
162.1951801061034
 20
77.21025616071955
 30
0.0
 10
161.5885253587952
 20
77.28629494691603
 30
0.0
 10
161.2861522941699
 20
77.34294804704757
 30
0.0
 10
160.4095159914169
 20
77.55372659709342
 30
0.0
 10
159.86146185944
 20
77.74727242766518
 30
0.0
 10
158.8309645921967
 20
78.17989172094096
 30
0.0
 10
158.3634045569173
 20
78.4123683656314
 30
0.0
 10
157.7251909532893
 20
78.75410636655043
 30
0.0
 10
157.5219812150995
 20
78.86772388197882
 30
0.0
 10
157.1456442887051
 20
79.08422627433507
 30
0.0
 10
156.9726656802136
 20
79.18696407077945
 30
0.0
 10
156.8157221839755
 20
79.28197381339552
 30
0.0
  0
LINE
  5
104
330
1F
100
AcDbEntity
  8
0
  6
Continuous
 62
     7
370
    25
100
AcDbLine
 10
168.815722184
 20
79.2819738134
 30
0.0
 11
168.815722184
 21
78.7087352673
 31
0.0
  0
LINE
  5
105
330
1F
100
AcDbEntity
  8
0
  6
Continuous
 62
     7
370
    25
100
AcDbLine
 10
156.3511701254
 20
49.951185209
 30
0.0
 11
169.2802742425
 21
49.951185209
 31
0.0
  0
SPLINE
  5
106
330
1F
100
AcDbEntity
  8
0
  6
Continuous
 62
     7
370
    25
100
AcDbSpline
210
0.0
220
0.0
230
1.0
 70
     8
 71
     3
 72
    11
 73
     7
 74
     0
 42
0.00000001
 43
0.00000001
 40
0.0
 40
0.0
 40
0.0
 40
0.0
 40
0.0860363962994498
 40
0.3126240132839471
 40
0.544481681962628
 40
1.0
 40
1.0
 40
1.0
 40
1.0
 10
168.9890693714425
 20
80.14042092887084
 30
0.0
 10
168.9902581884626
 20
80.1444345544092
 30
0.0
 10
168.9945779038839
 20
80.1590185651022
 30
0.0
 10
168.9633983955641
 20
80.05246234099992
 30
0.0
 10
168.8809707866563
 20
79.77191440914098
 30
0.0
 10
168.8417280303812
 20
79.4772472653491
 30
0.0
 10
168.8157221839755
 20
79.2819738133884
 30
0.0
  0
SPLINE
  5
107
330
1F
100
AcDbEntity
  8
0
  6
Continuous
 62
     7
370
    25
100
AcDbSpline
210
0.0
220
0.0
230
1.0
 70
     8
 71
     3
 72
    11
 73
     7
 74
     0
 42
0.00000001
 43
0.00000001
 40
0.0
 40
0.0
 40
0.0
 40
0.0
 40
0.3176338464588113
 40
0.6359548210663274
 40
0.8656825327067318
 40
1.0
 40
1.0
 40
1.0
 40
1.0
 10
156.8157221839754
 20
79.28197381339544
 30
0.0
 10
156.8020834355106
 20
79.41323841502664
 30
0.0
 10
156.7747764342694
 20
79.6760515792199
 30
0.0
 10
156.6867716664622
 20
79.98769650055137
 30
0.0
 10
156.6422110871677
 20
80.14144370278582
 30
0.0
 10
156.6425599286542
 20
80.13992990080337
 30
0.0
 10
156.6426886365939
 20
80.13937137109322
 30
0.0
  0
LINE
  5
108
330
1F
100
AcDbEntity
  8
0
  6
Continuous
 62
     7
370
    25
100
AcDbLine
 10
168.065722184
 20
47.8475193352
 30
0.0
 11
157.565722184
 21
47.8475193352
 31
0.0
  0
SPLINE
  5
109
330
1F
100
AcDbEntity
  8
0
  6
Continuous
 62
     7
370
    25
100
AcDbSpline
210
0.0
220
0.0
230
1.0
 70
     8
 71
     3
 72
    10
 73
     6
 74
     0
 42
0.00000001
 43
0.00000001
 40
0.0
 40
0.0
 40
0.0
 40
0.0
 40
0.1601790552921523
 40
0.7197651707804853
 40
1.0
 40
1.0
 40
1.0
 40
1.0
 10
156.1037713455983
 20
81.08041462284571
 30
0.0
 10
156.1030085555051
 20
81.08180685087207
 30
0.0
 10
156.0995809554313
 20
81.0880628326004
 30
0.0
 10
156.1140884202296
 20
81.06155556787249
 30
0.0
 10
156.1320179733475
 20
81.02899971272734
 30
0.0
 10
156.1380007787153
 20
81.01813634409598
 30
0.0
  0
SPLINE
  5
10A
330
1F
100
AcDbEntity
  8
0
  6
Continuous
 62
     7
370
    25
100
AcDbSpline
210
0.0
220
0.0
230
1.0
 70
     8
 71
     3
 72
    10
 73
     6
 74
     0
 42
0.00000001
 43
0.00000001
 40
0.0
 40
0.0
 40
0.0
 40
0.0
 40
0.1593935212994522
 40
0.7189934545690309
 40
1.0
 40
1.0
 40
1.0
 40
1.0
 10
152.0276805788131
 20
81.08042842356242
 30
0.0
 10
152.0284421058105
 20
81.08181834238903
 30
0.0
 10
152.0318772073265
 20
81.08808799833598
 30
0.0
 10
152.01738258486
 20
81.06160405651218
 30
0.0
 10
151.9994412143673
 20
81.0290266524653
 30
0.0
 10
151.9934435892356
 20
81.01813634409596
 30
0.0
  0
LINE
  5
10B
330
1F
100
AcDbEntity
  8
0
  6
Continuous
 62
     7
370
    25
100
AcDbLine
 10
151.315722184
 20
79.8475193352
 30
0.0
 11
151.315722184
 21
78.7087352673
 31
0.0
  0
SPLINE
  5
10C
330
1F
100
AcDbEntity
  8
0
  6
Continuous
 62
     7
370
    25
100
AcDbSpline
210
0.0
220
0.0
230
1.0
 70
     8
 71
     3
 72
     9
 73
     5
 74
     0
 42
0.00000001
 43
0.00000001
 40
0.0
 40
0.0
 40
0.0
 40
0.0
 40
0.5797912171256431
 40
1.0
 40
1.0
 40
1.0
 40
1.0
 10
169.4934435892357
 20
81.01813634409596
 30
0.0
 10
169.5058021925821
 20
81.04060999233708
 30
0.0
 10
169.5271178023765
 20
81.0793716147579
 30
0.0
 10
169.5275087448793
 20
81.08010601951612
 30
0.0
 10
169.5276730223526
 20
81.08041462284571
 30
0.0
  0
SPLINE
  5
10D
330
1F
100
AcDbEntity
  8
0
  6
Continuous
 62
     7
370
    25
100
AcDbSpline
210
0.0
220
0.0
230
1.0
 70
     8
 71
     3
 72
     9
 73
     5
 74
     0
 42
0.00000001
 43
0.00000001
 40
0.0
 40
0.0
 40
0.0
 40
0.0
 40
0.5789479223911498
 40
1.0
 40
1.0
 40
1.0
 40
1.0
 10
172.4863391929017
 20
60.02524074042992
 30
0.0
 10
172.5087805600943
 20
60.03758163074433
 30
0.0
 10
172.5475428845189
 20
60.05889769361824
 30
0.0
 10
172.5483087873779
 20
60.05930586753262
 30
0.0
 10
172.548631272368
 20
60.05947773000729
 30
0.0
  0
LINE
  5
10E
330
1F
100
AcDbEntity
  8
0
  6
Continuous
 62
     7
370
    25
100
AcDbLine
 10
170.1769381161
 20
59.3475193352
 30
0.0
 11
171.315722184
 21
59.3475193352
 31
0.0
  0
SPLINE
  5
10F
330
1F
100
AcDbEntity
  8
0
  6
Continuous
 62
     7
370
    25
100
AcDbSpline
210
0.0
220
0.0
230
1.0
 70
     8
 71
     3
 72
     9
 73
     5
 74
     0
 42
0.00000001
 43
0.00000001
 40
0.0
 40
0.0
 40
0.0
 40
0.0
 40
0.5789479223839474
 40
0.9999999999999999
 40
0.9999999999999999
 40
0.9999999999999999
 40
0.9999999999999999
 10
151.9934435892356
 20
61.67690232624349
 30
0.0
 10
152.0057844795499
 20
61.65446095905111
 30
0.0
 10
152.0271005424238
 20
61.61569863462656
 30
0.0
 10
152.0275087163384
 20
61.6149327317672
 30
0.0
 10
152.0276805788131
 20
61.61461024677702
 30
0.0
  0
LINE
  5
110
330
1F
100
AcDbEntity
  8
0
  6
Continuous
 62
     7
370
    25
100
AcDbLine
 10
151.315722184
 20
63.986303403
 30
0.0
 11
151.315722184
 21
62.8475193352
 31
0.0
  0
SPLINE
  5
111
330
1F
100
AcDbEntity
  8
0
  6
Continuous
 62
     7
370
    25
100
AcDbSpline
210
0.0
220
0.0
230
1.0
 70
     8
 71
     3
 72
    10
 73
     6
 74
     0
 42
0.00000001
 43
0.00000001
 40
0.0
 40
0.0
 40
0.0
 40
0.0
 40
0.1593935213061655
 40
0.7189934545756295
 40
1.0
 40
1.0
 40
1.0
 40
1.0
 10
153.0828130955828
 20
60.05947773000729
 30
0.0
 10
153.0814231767562
 20
60.06023925700476
 30
0.0
 10
153.0751535208094
 20
60.06367435852062
 30
0.0
 10
153.1016374626334
 20
60.04917973605401
 30
0.0
 10
153.1342148666801
 20
60.0312383655614
 30
0.0
 10
153.1451051750492
 20
60.02524074042991
 30
0.0
  0
LINE
  5
112
330
1F
100
AcDbEntity
  8
0
  6
Continuous
 62
     7
370
    25
100
AcDbLine
 10
154.315722184
 20
59.3475193352
 30
0.0
 11
155.4545062518
 21
59.3475193352
 31
0.0
  0
LINE
  5
113
330
1F
100
AcDbEntity
  8
0
  6
Continuous
 62
     7
370
    25
100
AcDbLine
 10
172.553326491
 20
61.6099150281
 30
0.0
 11
172.4863391929
 21
61.6769023262
 31
0.0
  0
LINE
  5
114
330
1F
100
AcDbEntity
  8
0
  6
Continuous
 62
     7
370
    25
100
AcDbLine
 10
153.145105175
 20
61.6769023262
 30
0.0
 11
153.0781178769
 21
61.6099150281
 31
0.0
  0
LINE
  5
115
330
1F
100
AcDbEntity
  8
0
  6
Continuous
 62
     7
370
    25
100
AcDbLine
 10
168.0548075166
 20
97.8475193352
 30
0.0
 11
168.0548075166
 21
98.4475193352
 31
0.0
  0
LINE
  5
116
330
1F
100
AcDbEntity
  8
0
  6
Continuous
 62
     7
370
    25
100
AcDbLine
 10
157.5766368513
 20
97.8475193352
 30
0.0
 11
168.0548075166
 21
97.8475193352
 31
0.0
  0
LINE
  5
117
330
1F
100
AcDbEntity
  8
0
  6
Continuous
 62
     7
370
    25
100
AcDbLine
 10
157.5766368513
 20
98.4475193352
 30
0.0
 11
157.5766368513
 21
97.8475193352
 31
0.0
  0
LINE
  5
118
330
1F
100
AcDbEntity
  8
0
  6
Continuous
 62
     7
370
    25
100
AcDbLine
 10
168.0548075166
 20
98.4475193352
 30
0.0
 11
157.5766368513
 21
98.4475193352
 31
0.0
  0
SPLINE
  5
119
330
1F
100
AcDbEntity
  8
0
  6
Continuous
 62
     7
370
    25
100
AcDbSpline
210
0.0
220
0.0
230
1.0
 70
     8
 71
     3
 72
    15
 73
    11
 74
     0
 42
0.00000001
 43
0.00000001
 40
0.0
 40
0.0
 40
0.0
 40
0.0
 40
0.0090459071881971
 40
0.1032433785236816
 40
0.1542564497735189
 40
0.31331690267151
 40
0.5243720399414428
 40
0.6678060008509183
 40
0.9918332554187028
 40
1.0
 40
1.0
 40
1.0
 40
1.0
 10
168.0548075166336
 20
98.44751933516972
 30
0.0
 10
168.0548018246669
 20
98.44920043375414
 30
0.0
 10
168.0547368607161
 20
98.46838726530966
 30
0.0
 10
168.0527411742802
 20
98.49708154482964
 30
0.0
 10
168.0449241780638
 20
98.54775758480159
 30
0.0
 10
168.0277543543088
 20
98.60563388437848
 30
0.0
 10
168.0011704577413
 20
98.65049939911316
 30
0.0
 10
167.9633411592526
 20
98.6878617823677
 30
0.0
 10
167.9350603792424
 20
98.69740779463716
 30
0.0
 10
167.9152292317111
 20
98.69751665882396
 30
0.0
 10
167.9147416975682
 20
98.69751933516972
 30
0.0
  0
SPLINE
  5
11A
330
1F
100
AcDbEntity
  8
0
  6
Continuous
 62
     7
370
    25
100
AcDbSpline
210
0.0
220
0.0
230
1.0
 70
     8
 71
     3
 72
    15
 73
    11
 74
     0
 42
0.00000001
 43
0.00000001
 40
0.0
 40
0.0
 40
0.0
 40
0.0
 40
0.0081667445812973
 40
0.3321939991490804
 40
0.475627960058556
 40
0.6866830973284891
 40
0.8457435502264751
 40
0.8967566214763124
 40
0.9909540928118028
 40
1.0
 40
1.0
 40
1.0
 40
1.0
 10
157.7167026703827
 20
98.69751933516972
 30
0.0
 10
157.7162151362398
 20
98.69751665882394
 30
0.0
 10
157.6963839887085
 20
98.6974077946371
 30
0.0
 10
157.6681032086983
 20
98.68786178236772
 30
0.0
 10
157.6302739102096
 20
98.65049939911316
 30
0.0
 10
157.6036900136421
 20
98.60563388437848
 30
0.0
 10
157.5865201898872
 20
98.54775758480159
 30
0.0
 10
157.5787031936707
 20
98.49708154482965
 30
0.0
 10
157.5767075072348
 20
98.46838726530963
 30
0.0
 10
157.576642543284
 20
98.44920043375414
 30
0.0
 10
157.5766368513173
 20
98.44751933516972
 30
0.0
  0
LINE
  5
11B
330
1F
100
AcDbEntity
  8
0
  6
Continuous
 62
     7
370
    25
100
AcDbLine
 10
157.7167026704
 20
98.6975193352
 30
0.0
 11
167.9147416976
 21
98.6975193352
 31
0.0
  0
SPLINE
  5
11C
330
1F
100
AcDbEntity
  8
0
  6
Continuous
 62
     7
370
    25
100
AcDbSpline
210
0.0
220
0.0
230
1.0
 70
     8
 71
     3
 72
    15
 73
    11
 74
     0
 42
0.00000001
 43
0.00000001
 40
0.0
 40
0.0
 40
0.0
 40
0.0
 40
0.0089557228015919
 40
0.0999003359608209
 40
0.1531632460581751
 40
0.3125636920784904
 40
0.5249666935695061
 40
0.6689893599351777
 40
0.991915253381045
 40
1.0
 40
1.0
 40
1.0
 40
1.0
 10
157.3384966089238
 20
98.44751933516972
 30
0.0
 10
157.3385123645024
 20
98.44920046074263
 30
0.0
 10
157.338688116659
 20
98.46795327536707
 30
0.0
 10
157.3441171326785
 20
98.49671550447457
 30
0.0
 10
157.3656526163858
 20
98.54760257794288
 30
0.0
 10
157.4133580446506
 20
98.60573822807552
 30
0.0
 10
157.4857489896425
 20
98.65044610125894
 30
0.0
 10
157.5876681016602
 20
98.68772792472069
 30
0.0
 10
157.6630231931152
 20
98.69740707955832
 30
0.0
 10
157.7154228388385
 20
98.69751665876005
 30
0.0
 10
157.7167026703827
 20
98.69751933516972
 30
0.0
  0
LINE
  5
11D
330
1F
100
AcDbEntity
  8
0
  6
Continuous
 62
     7
370
    25
100
AcDbLine
 10
157.3384966089
 20
98.4475193352
 30
0.0
 11
157.5766368513
 21
98.4475193352
 31
0.0
  0
SPLINE
  5
11E
330
1F
100
AcDbEntity
  8
0
  6
Continuous
 62
     7
370
    25
100
AcDbSpline
210
0.0
220
0.0
230
1.0
 70
     8
 71
     3
 72
    15
 73
    11
 74
     0
 42
0.00000001
 43
0.00000001
 40
0.0
 40
0.0
 40
0.0
 40
0.0
 40
0.0080847466189582
 40
0.3310106400648243
 40
0.4750333064304948
 40
0.6874363079215142
 40
0.8468367539418303
 40
0.9000996640391847
 40
0.9910442771984082
 40
1.0
 40
1.0
 40
1.0
 40
1.0
 10
167.9147416975682
 20
98.69751933516972
 30
0.0
 10
167.9160215291124
 20
98.69751665876005
 30
0.0
 10
167.9684211748356
 20
98.69740707955832
 30
0.0
 10
168.0437762662907
 20
98.68772792472068
 30
0.0
 10
168.1456953783084
 20
98.65044610125895
 30
0.0
 10
168.2180863233003
 20
98.60573822807552
 30
0.0
 10
168.2657917515651
 20
98.54760257794288
 30
0.0
 10
168.2873272352724
 20
98.49671550447455
 30
0.0
 10
168.2927562512919
 20
98.46795327536707
 30
0.0
 10
168.2929320034485
 20
98.44920046074263
 30
0.0
 10
168.2929477590271
 20
98.44751933516972
 30
0.0
  0
LINE
  5
11F
330
1F
100
AcDbEntity
  8
0
  6
Continuous
 62
     7
370
    25
100
AcDbLine
 10
168.0548075166
 20
98.4475193352
 30
0.0
 11
168.292947759
 21
98.4475193352
 31
0.0
  0
LINE
  5
120
330
1F
100
AcDbEntity
  8
0
  6
Continuous
 62
     7
370
    25
100
AcDbLine
 10
157.3384966089
 20
97.8475193352
 30
0.0
 11
157.3384966089
 21
98.4475193352
 31
0.0
  0
LINE
  5
121
330
1F
100
AcDbEntity
  8
0
  6
Continuous
 62
     7
370
    25
100
AcDbLine
 10
157.5766368513
 20
97.8475193352
 30
0.0
 11
157.3384966089
 21
97.8475193352
 31
0.0
  0
LINE
  5
122
330
1F
100
AcDbEntity
  8
0
  6
Continuous
 62
     7
370
    25
100
AcDbLine
 10
168.292947759
 20
98.4475193352
 30
0.0
 11
168.292947759
 21
97.8475193352
 31
0.0
  0
LINE
  5
123
330
1F
100
AcDbEntity
  8
0
  6
Continuous
 62
     7
370
    25
100
AcDbLine
 10
168.292947759
 20
97.8475193352
 30
0.0
 11
168.0548075166
 21
97.8475193352
 31
0.0
  0
LINE
  5
124
330
1F
100
AcDbEntity
  8
0
  6
Continuous
 62
     7
370
    25
100
AcDbLine
 10
157.3384966089
 20
98.4475193352
 30
0.0
 11
157.065722184
 21
98.4475193352
 31
0.0
  0
LINE
  5
125
330
1F
100
AcDbEntity
  8
0
  6
Continuous
 62
     7
370
    25
100
AcDbLine
 10
157.065722184
 20
98.6975193352
 30
0.0
 11
157.065722184
 21
98.4475193352
 31
0.0
  0
LINE
  5
126
330
1F
100
AcDbEntity
  8
0
  6
Continuous
 62
     7
370
    25
100
AcDbLine
 10
157.065722184
 20
98.6975193352
 30
0.0
 11
157.7167026704
 21
98.6975193352
 31
0.0
  0
LINE
  5
127
330
1F
100
AcDbEntity
  8
0
  6
Continuous
 62
     7
370
    25
100
AcDbLine
 10
157.065722184
 20
98.4475193352
 30
0.0
 11
157.065722184
 21
97.8475193352
 31
0.0
  0
LINE
  5
128
330
1F
100
AcDbEntity
  8
0
  6
Continuous
 62
     7
370
    25
100
AcDbLine
 10
157.065722184
 20
97.8475193352
 30
0.0
 11
157.3384966089
 21
97.8475193352
 31
0.0
  0
LINE
  5
129
330
1F
100
AcDbEntity
  8
0
  6
Continuous
 62
     7
370
    25
100
AcDbLine
 10
156.815722184
 20
97.8475193352
 30
0.0
 11
156.815722184
 21
98.4475193352
 31
0.0
  0
LINE
  5
12A
330
1F
100
AcDbEntity
  8
0
  6
Continuous
 62
     7
370
    25
100
AcDbLine
 10
156.815722184
 20
98.4475193352
 30
0.0
 11
157.065722184
 21
98.4475193352
 31
0.0
  0
LINE
  5
12B
330
1F
100
AcDbEntity
  8
0
  6
Continuous
 62
     7
370
    25
100
AcDbLine
 10
157.065722184
 20
97.8475193352
 30
0.0
 11
156.815722184
 21
97.8475193352
 31
0.0
  0
ARC
  5
12C
330
1F
100
AcDbEntity
  8
0
  6
Continuous
 62
     7
370
    25
100
AcDbCircle
 10
157.065722184
 20
98.4475193352
 30
0.0
 40
0.25
100
AcDbArc
 50
90.0
 51
180.0
  0
LINE
  5
12D
330
1F
100
AcDbEntity
  8
0
  6
Continuous
 62
     7
370
    25
100
AcDbLine
 10
168.565722184
 20
98.4475193352
 30
0.0
 11
168.815722184
 21
98.4475193352
 31
0.0
  0
LINE
  5
12E
330
1F
100
AcDbEntity
  8
0
  6
Continuous
 62
     7
370
    25
100
AcDbLine
 10
168.565722184
 20
98.4475193352
 30
0.0
 11
168.565722184
 21
98.6975193352
 31
0.0
  0
ARC
  5
12F
330
1F
100
AcDbEntity
  8
0
  6
Continuous
 62
     7
370
    25
100
AcDbCircle
 10
168.565722184
 20
98.4475193352
 30
0.0
 40
0.25
100
AcDbArc
 50
0.0
 51
90.0
  0
LINE
  5
130
330
1F
100
AcDbEntity
  8
0
  6
Continuous
 62
     7
370
    25
100
AcDbLine
 10
168.565722184
 20
97.8475193352
 30
0.0
 11
168.565722184
 21
98.4475193352
 31
0.0
  0
LINE
  5
131
330
1F
100
AcDbEntity
  8
0
  6
Continuous
 62
     7
370
    25
100
AcDbLine
 10
168.565722184
 20
98.4475193352
 30
0.0
 11
168.292947759
 21
98.4475193352
 31
0.0
  0
LINE
  5
132
330
1F
100
AcDbEntity
  8
0
  6
Continuous
 62
     7
370
    25
100
AcDbLine
 10
168.292947759
 20
97.8475193352
 30
0.0
 11
168.565722184
 21
97.8475193352
 31
0.0
  0
LINE
  5
133
330
1F
100
AcDbEntity
  8
0
  6
Continuous
 62
     7
370
    25
100
AcDbLine
 10
167.9147416976
 20
98.6975193352
 30
0.0
 11
168.565722184
 21
98.6975193352
 31
0.0
  0
LINE
  5
134
330
1F
100
AcDbEntity
  8
0
  6
Continuous
 62
     7
370
    25
100
AcDbLine
 10
168.815722184
 20
98.4475193352
 30
0.0
 11
168.815722184
 21
97.8475193352
 31
0.0
  0
LINE
  5
135
330
1F
100
AcDbEntity
  8
0
  6
Continuous
 62
     7
370
    25
100
AcDbLine
 10
168.815722184
 20
97.8475193352
 30
0.0
 11
168.565722184
 21
97.8475193352
 31
0.0
  0
LINE
  5
136
330
1F
100
AcDbEntity
  8
0
  6
Continuous
 62
     7
370
    25
100
AcDbLine
 10
167.815722184
 20
98.6975193352
 30
0.0
 11
167.815722184
 21
98.7075193352
 31
0.0
  0
LINE
  5
137
330
1F
100
AcDbEntity
  8
0
  6
Continuous
 62
     7
370
    25
100
AcDbLine
 10
157.815722184
 20
98.7075193352
 30
0.0
 11
167.815722184
 21
98.7075193352
 31
0.0
  0
LINE
  5
138
330
1F
100
AcDbEntity
  8
0
  6
Continuous
 62
     7
370
    25
100
AcDbLine
 10
157.815722184
 20
98.6975193352
 30
0.0
 11
157.815722184
 21
98.7075193352
 31
0.0
  0
LINE
  5
139
330
1F
100
AcDbEntity
  8
0
  6
Continuous
 62
     7
370
    25
100
AcDbLine
 10
155.365722184
 20
89.8475193352
 30
0.0
 11
167.2902690681
 21
89.8475193352
 31
0.0
  0
LINE
  5
13A
330
1F
100
AcDbEntity
  8
0
  6
Continuous
 62
     7
370
    25
100
AcDbLine
 10
168.0395243583
 20
97.8475193352
 30
0.0
 11
157.5766368513
 21
97.8475193351
 31
0.0
  0
LINE
  5
13B
330
1F
100
AcDbEntity
  8
0
  6
Continuous
 62
     7
370
    25
100
AcDbLine
 10
169.7676630223
 20
90.8422629131
 30
0.0
 11
168.0395243583
 21
97.8475193352
 31
0.0
  0
LINE
  5
13C
330
1F
100
AcDbEntity
  8
0
  6
Continuous
 62
     7
370
    25
100
AcDbLine
 10
167.2902690681
 20
89.8475193352
 30
0.0
 11
166.5300583123
 21
90.8422629131
 31
0.0
  0
LINE
  5
13D
330
1F
100
AcDbEntity
  8
0
  6
Continuous
 62
     7
370
    25
100
AcDbLine
 10
164.815722184
 20
81.8475193352
 30
0.0
 11
164.8157222785
 21
81.8853362131
 31
0.0
  0
LINE
  5
13E
330
1F
100
AcDbEntity
  8
0
  6
Continuous
 62
     7
370
    25
100
AcDbLine
 10
155.815722184
 20
81.8475193352
 30
0.0
 11
164.815722184
 21
81.8475193352
 31
0.0
  0
SPLINE
  5
13F
330
1F
100
AcDbEntity
  8
0
  6
Continuous
 62
     7
370
    25
100
AcDbSpline
210
0.0
220
0.0
230
1.0
 70
     8
 71
     3
 72
    16
 73
    12
 74
     0
 42
0.00000001
 43
0.00000001
 40
0.0
 40
0.0
 40
0.0
 40
0.0
 40
0.0155634360124117
 40
0.0359329243097674
 40
0.0739120889290614
 40
0.1570057548437684
 40
0.2406581385754913
 40
0.4592958294318596
 40
0.6783839187935417
 40
0.8974954344294845
 40
1.0
 40
1.0
 40
1.0
 40
1.0
 10
164.9716674344026
 20
81.84751933516982
 30
0.0
 10
165.0140594236712
 20
81.85271270694898
 30
0.0
 10
165.1119342207608
 20
81.86470318481676
 30
0.0
 10
165.2854128917736
 20
81.98302910881372
 30
0.0
 10
165.5337465707763
 20
82.29428041626268
 30
0.0
 10
165.7882111128222
 20
82.81992791762772
 30
0.0
 10
166.1318905245133
 20
83.85847408189788
 30
0.0
 10
166.51311054378
 20
85.293548124244
 30
0.0
 10
166.8632121997796
 20
87.13180022568343
 30
0.0
 10
167.1070040488679
 20
88.65298307450288
 30
0.0
 10
167.2459762440249
 20
89.5588151152994
 30
0.0
 10
167.2902690680576
 20
89.84751933516735
 30
0.0
  0
SPLINE
  5
140
330
1F
100
AcDbEntity
  8
0
  6
Continuous
 62
     7
370
    25
100
AcDbSpline
210
0.0
220
0.0
230
1.0
 70
     8
 71
     3
 72
     9
 73
     5
 74
     0
 42
0.00000001
 43
0.00000001
 40
0.0
 40
0.0
 40
0.0
 40
0.0
 40
0.5124861829376838
 40
0.9999999999999999
 40
0.9999999999999999
 40
0.9999999999999999
 40
0.9999999999999999
 10
164.8157222785068
 20
81.88533621310994
 30
0.0
 10
164.8413647826787
 20
81.87430830015876
 30
0.0
 10
164.8914002861235
 20
81.85278984108936
 30
0.0
 10
164.945360892982
 20
81.8492466767442
 30
0.0
 10
164.9716674344026
 20
81.84751933516982
 30
0.0
  0
LINE
  5
141
330
1F
100
AcDbEntity
  8
0
  6
Continuous
 62
     7
370
    25
100
AcDbLine
 10
166.5300583123
 20
90.8422629131
 30
0.0
 11
184.9911590455
 21
90.8422629132
 31
0.0
  0
LINE
  5
142
330
1F
100
AcDbEntity
  8
0
  6
Continuous
 62
     7
370
    25
100
AcDbLine
 10
184.9911590455
 20
90.8422629132
 30
0.0
 11
184.9911590455
 21
87.5996950281
 31
0.0
  0
SPLINE
  5
143
330
1F
100
AcDbEntity
  8
0
  6
Continuous
 62
     7
370
    25
100
AcDbSpline
210
0.0
220
0.0
230
1.0
 70
     8
 71
     3
 72
     9
 73
     5
 74
     0
 42
0.00000001
 43
0.00000001
 40
0.0
 40
0.0
 40
0.0
 40
0.0
 40
0.4977232396629078
 40
1.0
 40
1.0
 40
1.0
 40
1.0
 10
177.9207654232684
 20
86.27649452715976
 30
0.0
 10
179.0780866552024
 20
86.5660869277839
 30
0.0
 10
181.4033171039912
 20
87.14792112306938
 30
0.0
 10
183.7915867199811
 20
87.44864727220751
 30
0.0
 10
184.9911590455121
 20
87.59969502814526
 30
0.0
  0
LINE
  5
144
330
1F
100
AcDbEntity
  8
0
  6
Continuous
 62
     7
370
    25
100
AcDbLine
 10
177.9207654233
 20
86.2764945272
 30
0.0
 11
172.1410085734
 21
84.7078730867
 31
0.0
  0
SPLINE
  5
145
330
1F
100
AcDbEntity
  8
0
  6
Continuous
 62
     7
370
    25
100
AcDbSpline
210
0.0
220
0.0
230
1.0
 70
     8
 71
     3
 72
    13
 73
     9
 74
     0
 42
0.00000001
 43
0.00000001
 40
0.0
 40
0.0
 40
0.0
 40
0.0
 40
0.1610294006389558
 40
0.3266880383557516
 40
0.4877296220820636
 40
0.6535536198224136
 40
0.8237602734841889
 40
1.0
 40
1.0
 40
1.0
 40
1.0
 10
172.1410085734131
 20
84.70787308667688
 30
0.0
 10
171.927138519382
 20
84.63847619209963
 30
0.0
 10
171.4932501229946
 20
84.49768739659109
 30
0.0
 10
170.9019293743289
 20
84.15156257888344
 30
0.0
 10
170.3679980254782
 20
83.7123559358314
 30
0.0
 10
169.9143140536752
 20
83.1787540988918
 30
0.0
 10
169.5398603406897
 20
82.55492779219212
 30
0.0
 10
169.3912972699309
 20
82.08604389399012
 30
0.0
 10
169.3157221839755
 20
81.84751933516972
 30
0.0
  0
LINE
  5
146
330
1F
100
AcDbEntity
  8
0
  6
Continuous
 62
     7
370
    25
100
AcDbLine
 10
169.315722184
 20
81.8475193352
 30
0.0
 11
164.9716674344
 21
81.8475193352
 31
0.0
  0
LINE
  5
147
330
1F
100
AcDbEntity
  8
0
  6
Continuous
 62
     7
370
    25
100
AcDbLine
 10
164.8225215419
 20
81.8475193352
 30
0.0
 11
164.8157222785
 21
81.8853362131
 31
0.0
  0
LINE
  5
148
330
1F
100
AcDbEntity
  8
0
  6
Continuous
 62
     7
370
    25
100
AcDbLine
 10
164.815722184
 20
81.8475193352
 30
0.0
 11
164.8225215419
 21
81.8475193352
 31
0.0
  0
LINE
  5
149
330
1F
100
AcDbEntity
  8
0
  6
Continuous
 62
     7
370
    25
100
AcDbLine
 10
164.9716674344
 20
81.8475193352
 30
0.0
 11
164.8225215419
 21
81.8475193352
 31
0.0
  0
LINE
  5
14A
330
1F
100
AcDbEntity
  8
0
  6
Continuous
 62
     7
370
    25
100
AcDbLine
 10
184.9911590455
 20
90.8422629132
 30
0.0
 11
184.9911590455
 21
99.8475193352
 31
0.0
  0
LINE
  5
14B
330
1F
100
AcDbEntity
  8
0
  6
Continuous
 62
     7
370
    25
100
AcDbLine
 10
184.9911590455
 20
99.8475193352
 30
0.0
 11
202.815722184
 21
99.8475193352
 31
0.0
  0
LINE
  5
14C
330
1F
100
AcDbEntity
  8
0
  6
Continuous
 62
     7
370
    25
100
AcDbLine
 10
202.815722184
 20
99.8475193352
 30
0.0
 11
202.815722184
 21
92.8475193352
 31
0.0
  0
ARC
  5
14D
330
1F
100
AcDbEntity
  8
0
  6
Continuous
 62
     7
370
    25
100
AcDbCircle
 10
197.815722184
 20
92.8475193352
 30
0.0
 40
5.0
100
AcDbArc
 50
270.0
 51
0.0
  0
LINE
  5
14E
330
1F
100
AcDbEntity
  8
0
  6
Continuous
 62
     7
370
    25
100
AcDbLine
 10
197.815722184
 20
87.8475193352
 30
0.0
 11
189.7073900417
 21
87.8475193352
 31
0.0
  0
ARC
  5
14F
330
1F
100
AcDbEntity
  8
0
  6
Continuous
 62
     7
370
    25
100
AcDbCircle
 10
189.7073900417
 20
42.847390081
 30
0.0
 40
45.00012925418374
100
AcDbArc
 50
90.0
 51
96.0159222295
  0
ARC
  5
150
330
1F
100
AcDbEntity
  8
0
  6
Continuous
 62
     7
370
    25
100
AcDbCircle
 10
177.2046757482
 20
101.8475193352
 30
0.0
 40
10.00000000000848
100
AcDbArc
 50
203.5781784783
 51
264.4198332155
  0
ARC
  5
151
330
1F
100
AcDbEntity
  8
0
  6
Continuous
 62
     7
370
    25
100
AcDbCircle
 10
176.815722184
 20
97.8664748585
 30
0.0
 40
6.000000000000003
100
AcDbArc
 50
264.4198332155
 51
0.0
  0
LINE
  5
152
330
1F
100
AcDbEntity
  8
0
  6
Continuous
 62
     7
370
    25
100
AcDbLine
 10
182.815722184
 20
99.8475193352
 30
0.0
 11
182.815722184
 21
97.8664748585
 31
0.0
  0
LINE
  5
153
330
1F
100
AcDbEntity
  8
0
  6
Continuous
 62
     7
370
    25
100
AcDbLine
 10
182.815722184
 20
99.8475193352
 30
0.0
 11
184.9911590455
 21
99.8475193352
 31
0.0
  0
LINE
  5
154
330
1F
100
AcDbEntity
  8
0
  6
Continuous
 62
     7
370
    25
100
AcDbLine
 10
169.815722184
 20
81.8475193352
 30
0.0
 11
169.315722184
 21
81.8475193352
 31
0.0
  0
LINE
  5
155
330
1F
100
AcDbEntity
  8
0
  6
Continuous
 62
     7
370
    25
100
AcDbLine
 10
168.0395243583
 20
97.8475193352
 30
0.0
 11
168.0548075166
 21
97.8475193351
 31
0.0
  0
SPLINE
  5
156
330
1F
100
AcDbEntity
  8
0
  6
Continuous
 62
     7
370
    25
100
AcDbSpline
210
0.0
220
0.0
230
1.0
 70
     8
 71
     3
 72
    30
 73
    26
 74
     0
 42
0.00000001
 43
0.00000001
 40
0.0
 40
0.0
 40
0.0
 40
0.0
 40
0.0110313123947388
 40
0.0532778205591813
 40
0.0955514674373169
 40
0.1522059297303479
 40
0.2089600631610768
 40
0.2161895899644158
 40
0.2769258639979141
 40
0.3376613642703282
 40
0.3847650051657753
 40
0.4317738895700448
 40
0.4687727690508352
 40
0.5057329087623423
 40
0.5426509697665204
 40
0.579618108241013
 40
0.629153363098237
 40
0.6787803699364925
 40
0.7318161619734235
 40
0.7848432705820325
 40
0.8294823291360792
 40
0.8740865874736837
 40
0.9165670752353455
 40
0.9590125544157231
 40
1.0
 40
1.0
 40
1.0
 40
1.0
 10
156.9157221839754
 20
80.84751933516974
 30
0.0
 10
156.9165462313217
 20
80.84682150327201
 30
0.0
 10
156.9205261246539
 20
80.84345119144542
 30
0.0
 10
156.9913078335831
 20
80.78310154784009
 30
0.0
 10
157.2125965636824
 20
80.59757145218217
 30
0.0
 10
157.6031595790789
 20
80.27702550724052
 30
0.0
 10
158.0064016651651
 20
79.9633486037002
 30
0.0
 10
158.473215904254
 20
79.61695931581026
 30
0.0
 10
159.008843738332
 20
79.23653436880684
 30
0.0
 10
159.8245941163345
 20
78.73851081854619
 30
0.0
 10
160.666153922099
 20
78.32639294547232
 30
0.0
 10
161.4495608407259
 20
78.04939382925747
 30
0.0
 10
162.2225457178299
 20
77.89797667679493
 30
0.0
 10
162.953136022108
 20
77.85982720626161
 30
0.0
 10
163.677858484555
 20
77.93915910269274
 30
0.0
 10
164.4512280743086
 20
78.13166228598256
 30
0.0
 10
165.2416230428306
 20
78.44882187870903
 30
0.0
 10
166.0384270004268
 20
78.8740999181133
 30
0.0
 10
166.7657964476897
 20
79.33656260877277
 30
0.0
 10
167.3799938990243
 20
79.77696889033625
 30
0.0
 10
167.8734786913672
 20
80.1554505479001
 30
0.0
 10
168.2484532498962
 20
80.45714212755053
 30
0.0
 10
168.5189764675334
 20
80.6810144738615
 30
0.0
 10
168.6901480791501
 20
80.82579977522579
 30
0.0
 10
168.705559778522
 20
80.83881551203224
 30
0.0
 10
168.7131309644914
 20
80.84520965206266
 30
0.0
  0
LINE
  5
157
330
1F
100
AcDbEntity
  8
0
  6
Continuous
 62
     7
370
    18
100
AcDbLine
 10
156.749472184
 20
58.8475193352
 30
0.0
 11
157.0661838801
 21
48.7127450577
 31
0.0
  0
LINE
  5
158
330
1F
100
AcDbEntity
  8
0
  6
Continuous
 62
     7
370
    18
100
AcDbLine
 10
168.5652604878
 20
48.7127450577
 30
0.0
 11
168.881972184
 21
58.8475193352
 31
0.0
  0
LINE
  5
159
330
1F
100
AcDbEntity
  8
0
  6
Continuous
 62
     7
370
    18
100
AcDbLine
 10
147.315722184
 20
77.4260193352
 30
0.0
 11
138.815722184
 21
77.4260193352
 31
0.0
  0
LINE
  5
15A
330
1F
100
AcDbEntity
  8
0
  6
Continuous
 62
     7
370
    18
100
AcDbLine
 10
138.815722184
 20
65.2690193352
 30
0.0
 11
147.315722184
 21
65.2690193352
 31
0.0
  0
LINE
  5
15B
330
1F
100
AcDbEntity
  8
0
  6
Continuous
 62
     7
370
    25
100
AcDbLine
 10
147.315722184
 20
77.9260193352
 30
0.0
 11
147.315722184
 21
77.9233365757
 31
0.0
  0
SPLINE
  5
15C
330
1F
100
AcDbEntity
  8
0
  6
Continuous
 62
     7
370
     0
100
AcDbSpline
210
0.0
220
0.0
230
1.0
 70
     8
 71
     3
 72
    35
 73
    31
 74
     0
 42
0.00000001
 43
0.00000001
 40
0.0
 40
0.0
 40
0.0
 40
0.0
 40
0.0366970763287617
 40
0.0733941523270206
 40
0.1100912283252795
 40
0.1467883043235385
 40
0.1834853803217974
 40
0.2201824563200563
 40
0.2568795323183152
 40
0.2935766083165738
 40
0.3302736843148331
 40
0.3669707603130916
 40
0.4036678363113505
 40
0.4403649123096096
 40
0.477061988307869
 40
0.5137590643061275
 40
0.5504561403043864
 40
0.5871532163026455
 40
0.6238502923009046
 40
0.6605473682991634
 40
0.6972444442974223
 40
0.7339415202956812
 40
0.7706385962939402
 40
0.8073356722921989
 40
0.8440327482904582
 40
0.880729824288717
 40
0.9174269002869759
 40
0.9541239762852349
 40
0.9908210522834938
 40
1.0
 40
1.0
 40
1.0
 40
1.0
 10
147.3156213760376
 20
77.92333657568996
 30
0.0
 10
147.3157221839754
 20
77.85905969058344
 30
0.0
 10
147.3157221839754
 20
77.70989491882655
 30
0.0
 10
147.3157221839754
 20
77.47778685133726
 30
0.0
 10
147.3157221839754
 20
77.16576137173884
 30
0.0
 10
147.3157221839754
 20
76.77788620933931
 30
0.0
 10
147.3157221839754
 20
76.3192179100592
 30
0.0
 10
147.3157221839754
 20
75.79573591662233
 30
0.0
 10
147.3157221839754
 20
75.21426461737573
 30
0.0
 10
147.3157221839754
 20
74.5823843799508
 30
0.0
 10
147.3157221839754
 20
73.90833272957866
 30
0.0
 10
147.3157221839754
 20
73.20089696035103
 30
0.0
 10
147.3157221839754
 20
72.4692995794034
 30
0.0
 10
147.3157221839754
 20
71.72307807743039
 30
0.0
 10
147.3157221839754
 20
70.97196059290896
 30
0.0
 10
147.3157221839754
 20
70.22573909093596
 30
0.0
 10
147.3157221839754
 20
69.49414170998833
 30
0.0
 10
147.3157221839754
 20
68.78670594076071
 30
0.0
 10
147.3157221839754
 20
68.11265429038856
 30
0.0
 10
147.3157221839754
 20
67.48077405296364
 30
0.0
 10
147.3157221839754
 20
66.89930275371704
 30
0.0
 10
147.3157221839754
 20
66.37582076028019
 30
0.0
 10
147.3157221839754
 20
65.91715246100007
 30
0.0
 10
147.3157221839754
 20
65.52927729860056
 30
0.0
 10
147.3157221839754
 20
65.21725181900214
 30
0.0
 10
147.3157221839754
 20
64.98514375151288
 30
0.0
 10
147.3157221839754
 20
64.83597897975599
 30
0.0
 10
147.3157221839754
 20
64.77170209464947
 30
0.0
 10
147.3157221839754
 20
64.76901933516972
 30
0.0
 10
147.3157221839754
 20
64.76958160642849
 30
0.0
 10
147.3157221839754
 20
64.76901933516972
 30
0.0
  0
LINE
  5
15D
330
1F
100
AcDbEntity
  8
0
  6
CENTERX2
 62
     7
370
    18
100
AcDbLine
 10
137.315722184
 20
71.3475193352
 30
0.0
 11
177.3009956331
 21
71.3475193352
 31
0.0
  0
LINE
  5
15E
330
1F
100
AcDbEntity
  8
0
  6
CENTERX2
 62
     7
370
    18
100
AcDbLine
 10
162.815722184
 20
45.9404553159
 30
0.0
 11
162.815722184
 21
100.1798180681
 31
0.0
  0
LINE
  5
15F
330
1F
100
AcDbEntity
  8
0
  6
Continuous
 62
     7
370
    25
100
AcDbLine
 10
229.268277384
 20
59.3475193352
 30
0.0
 11
229.5619128254
 21
49.951185209
 31
0.0
  0
LINE
  5
160
330
1F
100
AcDbEntity
  8
0
  6
Continuous
 62
     7
370
    25
100
AcDbLine
 10
242.4910169425
 20
49.951185209
 30
0.0
 11
242.784652384
 21
59.3475193352
 31
0.0
  0
LINE
  5
161
330
1F
100
AcDbEntity
  8
0
  6
Continuous
 62
     7
370
    25
100
AcDbLine
 10
229.5619128254
 20
49.951185209
 30
0.0
 11
230.776464884
 21
47.8475193352
 31
0.0
  0
LINE
  5
162
330
1F
100
AcDbEntity
  8
0
  6
Continuous
 62
     7
370
    25
100
AcDbLine
 10
241.276464884
 20
47.8475193352
 30
0.0
 11
242.4910169425
 21
49.951185209
 31
0.0
  0
LINE
  5
163
330
1F
100
AcDbEntity
  8
0
  6
Continuous
 62
     7
370
    25
100
AcDbLine
 10
241.926464884
 20
77.8807455884
 30
0.0
 11
241.926464884
 21
81.8475193352
 31
0.0
  0
LINE
  5
164
330
1F
100
AcDbEntity
  8
0
  6
Continuous
 62
     7
370
    25
100
AcDbLine
 10
230.126464884
 20
81.8475193352
 30
0.0
 11
230.126464884
 21
77.8860479991
 31
0.0
  0
ARC
  5
165
330
1F
100
AcDbEntity
  8
0
  6
Continuous
 62
     7
370
    25
100
AcDbCircle
 10
230.776464884
 20
98.4475193352
 30
0.0
 40
0.25
100
AcDbArc
 50
90.0
 51
180.0
  0
ARC
  5
166
330
1F
100
AcDbEntity
  8
0
  6
Continuous
 62
     7
370
    25
100
AcDbCircle
 10
241.276464884
 20
98.4475193352
 30
0.0
 40
0.25
100
AcDbArc
 50
0.0
 51
90.0
  0
LINE
  5
167
330
1F
100
AcDbEntity
  8
0
  6
Continuous
 62
     7
370
    25
100
AcDbLine
 10
230.526464884
 20
98.4475193352
 30
0.0
 11
230.526464884
 21
97.8475193352
 31
0.0
  0
LINE
  5
168
330
1F
100
AcDbEntity
  8
0
  6
Continuous
 62
     7
370
    25
100
AcDbLine
 10
241.526464884
 20
97.8475193352
 30
0.0
 11
241.526464884
 21
98.4475193352
 31
0.0
  0
LINE
  5
169
330
1F
100
AcDbEntity
  8
0
  6
Continuous
 62
     7
370
    25
100
AcDbLine
 10
243.476464884
 20
89.8475193352
 30
0.0
 11
241.526464884
 21
97.8475193352
 31
0.0
  0
LINE
  5
16A
330
1F
100
AcDbEntity
  8
0
  6
Continuous
 62
     7
370
    25
100
AcDbLine
 10
230.526464884
 20
97.8475193352
 30
0.0
 11
228.576464884
 21
89.8475193352
 31
0.0
  0
LINE
  5
16B
330
1F
100
AcDbEntity
  8
0
  6
Continuous
 62
     7
370
    25
100
AcDbLine
 10
228.576464884
 20
89.8475193352
 30
0.0
 11
229.026464884
 21
81.8475193352
 31
0.0
  0
LINE
  5
16C
330
1F
100
AcDbEntity
  8
0
  6
Continuous
 62
     7
370
    25
100
AcDbLine
 10
243.026464884
 20
81.8475193352
 30
0.0
 11
243.476464884
 21
89.8475193352
 31
0.0
  0
CIRCLE
  5
16D
330
1F
100
AcDbEntity
  8
0
  6
Continuous
 62
     7
370
    25
100
AcDbCircle
 10
236.026464884
 20
71.3475193352
 30
0.0
 40
8.25
  0
SPLINE
  5
16E
330
1F
100
AcDbEntity
  8
0
  6
Continuous
 62
     7
370
    25
100
AcDbSpline
210
0.0
220
0.0
230
1.0
 70
     8
 71
     3
 72
    10
 73
     6
 74
     0
 42
0.00000001
 43
0.00000001
 40
0.0
 40
0.0
 40
0.0
 40
0.0
 40
0.5
 40
0.5
 40
1.0
 40
1.0
 40
1.0
 40
1.0
 10
227.5264648839763
 20
66.72871718165271
 30
0.0
 10
227.5264648839763
 20
66.64283011985026
 30
0.0
 10
227.5492573333061
 20
66.55542291087012
 30
0.0
 10
227.6372000373992
 20
66.40278646827639
 30
0.0
 10
227.702057811073
 20
66.3386634233308
 30
0.0
 10
227.7764648839763
 20
66.29570447976049
 30
0.0
  0
SPLINE
  5
16F
330
1F
100
AcDbEntity
  8
0
  6
Continuous
 62
     7
370
    25
100
AcDbSpline
210
0.0
220
0.0
230
1.0
 70
    24
 71
     3
 72
    14
 73
    10
 74
     0
 42
0.00000001
 43
0.00000001
 40
0.0
 40
0.0
 40
0.0
 40
0.0
 40
0.25
 40
0.25
 40
0.5
 40
0.5
 40
0.75
 40
0.75
 40
1.0
 40
1.0
 40
1.0
 40
1.0
 10
227.5264648839763
 20
66.72871718165267
 30
0.0
 10
227.5264648839763
 20
67.48309724230266
 30
0.0
 10
227.5264648839763
 20
68.25253840976815
 30
0.0
 10
227.5264648839763
 20
69.79304977070932
 30
0.0
 10
227.5264648839763
 20
70.56790415071633
 30
0.0
 10
227.5264648839763
 20
72.12826510560188
 30
0.0
 10
227.5264648839763
 20
72.91872129838691
 30
0.0
 10
227.5264648839763
 20
74.46100096119538
 30
0.0
 10
227.5264648839763
 20
75.21839171439657
 30
0.0
 10
227.5264648839763
 20
75.96632148868673
 30
0.0
  0
SPLINE
  5
170
330
1F
100
AcDbEntity
  8
0
  6
Continuous
 62
     7
370
    25
100
AcDbSpline
210
0.0
220
0.0
230
1.0
 70
     8
 71
     3
 72
    10
 73
     6
 74
     0
 42
0.00000001
 43
0.00000001
 40
0.0
 40
0.0
 40
0.0
 40
0.0
 40
0.5
 40
0.5
 40
1.0
 40
1.0
 40
1.0
 40
1.0
 10
227.7764648839763
 20
76.39933419057895
 30
0.0
 10
227.702084506599
 20
76.35639065967773
 30
0.0
 10
227.6377838678132
 20
76.2929482150536
 30
0.0
 10
227.5495681830303
 20
76.14046937793464
 30
0.0
 10
227.5264648839763
 20
76.05223937582737
 30
0.0
 10
227.5264648839763
 20
75.96632148868673
 30
0.0
  0
SPLINE
  5
171
330
1F
100
AcDbEntity
  8
0
  6
Continuous
 62
     7
370
    25
100
AcDbSpline
210
0.0
220
0.0
230
1.0
 70
    24
 71
     3
 72
    16
 73
    12
 74
     0
 42
0.00000001
 43
0.00000001
 40
0.0
 40
0.0
 40
0.0
 40
0.0
 40
0.2500000000000001
 40
0.2500000000000001
 40
0.5000000000000001
 40
0.5000000000000001
 40
0.6250000000000001
 40
0.6250000000000001
 40
0.7500000000000002
 40
0.7500000000000002
 40
1.0
 40
1.0
 40
1.0
 40
1.0
 10
235.7764648839763
 20
81.01813634409596
 30
0.0
 10
235.1229481039355
 20
80.64082825521947
 30
0.0
 10
234.4647276948455
 20
80.26080452484526
 30
0.0
 10
233.1351651114797
 20
79.49318120943457
 30
0.0
 10
232.4637411294092
 20
79.10553439264577
 30
0.0
 10
231.4447400424025
 20
78.51721384075792
 30
0.0
 10
231.1033992600863
 20
78.32014064820228
 30
0.0
 10
230.4278007571158
 20
77.93008367064817
 30
0.0
 10
230.0921416071512
 20
77.73629077006014
 30
0.0
 10
229.0908759706515
 20
77.1582097852967
 30
0.0
 10
228.4309683120483
 20
76.77721192096189
 30
0.0
 10
227.7764648839763
 20
76.39933419057895
 30
0.0
  0
SPLINE
  5
172
330
1F
100
AcDbEntity
  8
0
  6
Continuous
 62
     7
370
    25
100
AcDbSpline
210
0.0
220
0.0
230
1.0
 70
     8
 71
     3
 72
    10
 73
     6
 74
     0
 42
0.00000001
 43
0.00000001
 40
0.0
 40
0.0
 40
0.0
 40
0.0
 40
0.5
 40
0.5
 40
1.0
 40
1.0
 40
1.0
 40
1.0
 10
236.2764648839763
 20
81.01813634409596
 30
0.0
 10
236.202084506599
 20
81.06107987499719
 30
0.0
 10
236.1149914184834
 20
81.08504463935317
 30
0.0
 10
235.9388330296074
 20
81.08520224482795
 30
0.0
 10
235.8508719568796
 20
81.06109528766628
 30
0.0
 10
235.7764648839763
 20
81.01813634409596
 30
0.0
  0
SPLINE
  5
173
330
1F
100
AcDbEntity
  8
0
  6
Continuous
 62
     7
370
    25
100
AcDbSpline
210
0.0
220
0.0
230
1.0
 70
    24
 71
     3
 72
    16
 73
    12
 74
     0
 42
0.00000001
 43
0.00000001
 40
0.0
 40
0.0
 40
0.0
 40
0.0
 40
0.2499999999999997
 40
0.2499999999999997
 40
0.4999999999999993
 40
0.4999999999999993
 40
0.6249999999999993
 40
0.6249999999999993
 40
0.7499999999999996
 40
0.7499999999999996
 40
1.0
 40
1.0
 40
1.0
 40
1.0
 10
244.2764648839763
 20
76.39933419057895
 30
0.0
 10
243.6229481039355
 20
76.77664227945544
 30
0.0
 10
242.9647276948455
 20
77.15666600982965
 30
0.0
 10
241.6351651114797
 20
77.92428932524034
 30
0.0
 10
240.9637411294092
 20
78.31193614202915
 30
0.0
 10
239.9447400424025
 20
78.900256693917
 30
0.0
 10
239.6033992600863
 20
79.09732988647264
 30
0.0
 10
238.9278007571158
 20
79.48738686402675
 30
0.0
 10
238.5921416071512
 20
79.68117976461478
 30
0.0
 10
237.5908759706515
 20
80.25926074937821
 30
0.0
 10
236.9309683120483
 20
80.64025861371303
 30
0.0
 10
236.2764648839763
 20
81.01813634409596
 30
0.0
  0
SPLINE
  5
174
330
1F
100
AcDbEntity
  8
0
  6
Continuous
 62
     7
370
    25
100
AcDbSpline
210
0.0
220
0.0
230
1.0
 70
     8
 71
     3
 72
    10
 73
     6
 74
     0
 42
0.00000001
 43
0.00000001
 40
0.0
 40
0.0
 40
0.0
 40
0.0
 40
0.5
 40
0.5
 40
1.0
 40
1.0
 40
1.0
 40
1.0
 10
244.5264648839763
 20
75.96632148868673
 30
0.0
 10
244.5264648839763
 20
76.0522085504892
 30
0.0
 10
244.5036724346465
 20
76.1396157594693
 30
0.0
 10
244.4157297305534
 20
76.29225220206305
 30
0.0
 10
244.3508719568796
 20
76.35637524700864
 30
0.0
 10
244.2764648839763
 20
76.39933419057895
 30
0.0
  0
SPLINE
  5
175
330
1F
100
AcDbEntity
  8
0
  6
Continuous
 62
     7
370
    25
100
AcDbSpline
210
0.0
220
0.0
230
1.0
 70
    24
 71
     3
 72
    14
 73
    10
 74
     0
 42
0.00000001
 43
0.00000001
 40
0.0
 40
0.0
 40
0.0
 40
0.0
 40
0.25
 40
0.25
 40
0.5
 40
0.5
 40
0.75
 40
0.75
 40
1.0
 40
1.0
 40
1.0
 40
1.0
 10
244.5264648839763
 20
66.72871718165266
 30
0.0
 10
244.5264648839763
 20
67.48309724230265
 30
0.0
 10
244.5264648839763
 20
68.25253840976814
 30
0.0
 10
244.5264648839763
 20
69.79304977070932
 30
0.0
 10
244.5264648839763
 20
70.56790415071633
 30
0.0
 10
244.5264648839763
 20
72.12826510560188
 30
0.0
 10
244.5264648839763
 20
72.91872129838691
 30
0.0
 10
244.5264648839763
 20
74.46100096119538
 30
0.0
 10
244.5264648839763
 20
75.21839171439656
 30
0.0
 10
244.5264648839763
 20
75.96632148868673
 30
0.0
  0
SPLINE
  5
176
330
1F
100
AcDbEntity
  8
0
  6
Continuous
 62
     7
370
    25
100
AcDbSpline
210
0.0
220
0.0
230
1.0
 70
     8
 71
     3
 72
    10
 73
     6
 74
     0
 42
0.00000001
 43
0.00000001
 40
0.0
 40
0.0
 40
0.0
 40
0.0
 40
0.5
 40
0.5
 40
1.0
 40
1.0
 40
1.0
 40
1.0
 10
244.2764648839763
 20
66.29570447976049
 30
0.0
 10
244.3508452613534
 20
66.33864801066163
 30
0.0
 10
244.415145900139
 20
66.4020904552853
 30
0.0
 10
244.5033615849222
 20
66.55456929240442
 30
0.0
 10
244.5264648839763
 20
66.6427992945119
 30
0.0
 10
244.5264648839763
 20
66.72871718165268
 30
0.0
  0
SPLINE
  5
177
330
1F
100
AcDbEntity
  8
0
  6
Continuous
 62
     7
370
    25
100
AcDbSpline
210
0.0
220
0.0
230
1.0
 70
    24
 71
     3
 72
    16
 73
    12
 74
     0
 42
0.00000001
 43
0.00000001
 40
0.0
 40
0.0
 40
0.0
 40
0.0
 40
0.2500000000000002
 40
0.2500000000000002
 40
0.5000000000000004
 40
0.5000000000000004
 40
0.6250000000000003
 40
0.6250000000000003
 40
0.7500000000000002
 40
0.7500000000000002
 40
1.0
 40
1.0
 40
1.0
 40
1.0
 10
236.2764648839763
 20
61.67690232624349
 30
0.0
 10
236.929981664017
 20
62.05421041511996
 30
0.0
 10
237.588202073107
 20
62.43423414549414
 30
0.0
 10
238.9177646564727
 20
63.20185746090478
 30
0.0
 10
239.5891886385431
 20
63.58950427769354
 30
0.0
 10
240.6081897255498
 20
64.17782482958133
 30
0.0
 10
240.9495305078659
 20
64.37489802213697
 30
0.0
 10
241.6251290108364
 20
64.76495499969104
 30
0.0
 10
241.960788160801
 20
64.95874790027905
 30
0.0
 10
242.9620537973006
 20
65.53682888504245
 30
0.0
 10
243.6219614559037
 20
65.91782674937724
 30
0.0
 10
244.2764648839757
 20
66.29570447976015
 30
0.0
  0
SPLINE
  5
178
330
1F
100
AcDbEntity
  8
0
  6
Continuous
 62
     7
370
    25
100
AcDbSpline
210
0.0
220
0.0
230
1.0
 70
     8
 71
     3
 72
    10
 73
     6
 74
     0
 42
0.00000001
 43
0.00000001
 40
0.0
 40
0.0
 40
0.0
 40
0.0
 40
0.5
 40
0.5
 40
1.0
 40
1.0
 40
1.0
 40
1.0
 10
235.7764648839763
 20
61.67690232624349
 30
0.0
 10
235.8508452613536
 20
61.63395879534226
 30
0.0
 10
235.9379383494692
 20
61.60999403098628
 30
0.0
 10
236.1140967383452
 20
61.6098364255115
 30
0.0
 10
236.202057811073
 20
61.63394338267318
 30
0.0
 10
236.2764648839763
 20
61.67690232624349
 30
0.0
  0
SPLINE
  5
179
330
1F
100
AcDbEntity
  8
0
  6
Continuous
 62
     7
370
    25
100
AcDbSpline
210
0.0
220
0.0
230
1.0
 70
    24
 71
     3
 72
    16
 73
    12
 74
     0
 42
0.00000001
 43
0.00000001
 40
0.0
 40
0.0
 40
0.0
 40
0.0
 40
0.2500000000000001
 40
0.2500000000000001
 40
0.5000000000000002
 40
0.5000000000000002
 40
0.6250000000000001
 40
0.6250000000000001
 40
0.7500000000000001
 40
0.7500000000000001
 40
1.0
 40
1.0
 40
1.0
 40
1.0
 10
227.7764648839763
 20
66.29570447976049
 30
0.0
 10
228.4299816640171
 20
65.918396390884
 30
0.0
 10
229.0882020731071
 20
65.5383726605098
 30
0.0
 10
230.4177646564729
 20
64.7707493450991
 30
0.0
 10
231.0891886385434
 20
64.3831025283103
 30
0.0
 10
232.1081897255501
 20
63.79478197642246
 30
0.0
 10
232.4495305078663
 20
63.59770878386681
 30
0.0
 10
233.1251290108368
 20
63.20765180631271
 30
0.0
 10
233.4607881608014
 20
63.01385890572467
 30
0.0
 10
234.4620537973011
 20
62.43577792096125
 30
0.0
 10
235.1219614559043
 20
62.05478005662642
 30
0.0
 10
235.7764648839763
 20
61.67690232624349
 30
0.0
  0
LINE
  5
17A
330
1F
100
AcDbEntity
  8
0
  6
Continuous
 62
     7
370
    25
100
AcDbLine
 10
236.276464884
 20
61.6769023262
 30
0.0
 11
236.276464884
 21
60.0252407404
 31
0.0
  0
SPLINE
  5
17B
330
1F
100
AcDbEntity
  8
0
  6
Continuous
 62
     7
370
    25
100
AcDbSpline
210
0.0
220
0.0
230
1.0
 70
     8
 71
     3
 72
    10
 73
     6
 74
     0
 42
0.00000001
 43
0.00000001
 40
0.0
 40
0.0
 40
0.0
 40
0.0
 40
0.5
 40
0.5
 40
1.0
 40
1.0
 40
1.0
 40
1.0
 10
235.7764648839763
 20
60.02524074042992
 30
0.0
 10
235.8508396379663
 20
60.04891434492104
 30
0.0
 10
235.9379333695323
 20
60.06200712071426
 30
0.0
 10
236.1140991980767
 20
60.06209368881522
 30
0.0
 10
236.202060221967
 20
60.04892386469194
 30
0.0
 10
236.2764648839763
 20
60.02524074042991
 30
0.0
  0
LINE
  5
17C
330
1F
100
AcDbEntity
  8
0
  6
Continuous
 62
     7
370
    25
100
AcDbLine
 10
235.776464884
 20
60.0252407404
 30
0.0
 11
235.776464884
 21
61.6769023262
 31
0.0
  0
SPLINE
  5
17D
330
1F
100
AcDbEntity
  8
0
  6
Continuous
 62
     7
370
    25
100
AcDbSpline
210
0.0
220
0.0
230
1.0
 70
     8
 71
     3
 72
    12
 73
     8
 74
     0
 42
0.00000001
 43
0.00000001
 40
0.0
 40
0.0
 40
0.0
 40
0.0
 40
0.2500000000000003
 40
0.2500000000000003
 40
0.5000000000000002
 40
0.5000000000000002
 40
1.0
 40
1.0
 40
1.0
 40
1.0
 10
240.2764648839763
 20
59.34751933516973
 30
0.0
 10
239.9387089489535
 20
59.34751933516973
 30
0.0
 10
239.598300934075
 20
59.36326566519168
 30
0.0
 10
238.9238062496746
 20
59.42471068977711
 30
0.0
 10
238.5886809308074
 20
59.47029944903084
 30
0.0
 10
237.5889696124672
 20
59.64675045128744
 30
0.0
 10
236.930035509402
 20
59.81720815325093
 30
0.0
 10
236.2764648839763
 20
60.02524074042977
 30
0.0
  0
LINE
  5
17E
330
1F
100
AcDbEntity
  8
0
  6
Continuous
 62
     7
370
    25
100
AcDbLine
 10
231.776464884
 20
59.3475193352
 30
0.0
 11
240.276464884
 21
59.3475193352
 31
0.0
  0
SPLINE
  5
17F
330
1F
100
AcDbEntity
  8
0
  6
Continuous
 62
     7
370
    25
100
AcDbSpline
210
0.0
220
0.0
230
1.0
 70
     8
 71
     3
 72
    10
 73
     6
 74
     0
 42
0.00000001
 43
0.00000001
 40
0.0
 40
0.0
 40
0.0
 40
0.0
 40
0.5
 40
0.5
 40
1.0
 40
1.0
 40
1.0
 40
1.0
 10
235.7764648839764
 20
60.02524074042945
 30
0.0
 10
235.1204521173713
 20
59.81643081576319
 30
0.0
 10
234.4601852105135
 20
59.64589667601594
 30
0.0
 10
233.1278386918785
 20
59.41111087099701
 30
0.0
 10
232.4556857103912
 20
59.34751933516973
 30
0.0
 10
231.7764648839763
 20
59.34751933516973
 30
0.0
  0
SPLINE
  5
180
330
1F
100
AcDbEntity
  8
0
  6
Continuous
 62
     7
370
    25
100
AcDbSpline
210
0.0
220
0.0
230
1.0
 70
     8
 71
     3
 72
    12
 73
     8
 74
     0
 42
0.00000001
 43
0.00000001
 40
0.0
 40
0.0
 40
0.0
 40
0.0
 40
0.2499999999999999
 40
0.2499999999999999
 40
0.4999999999999998
 40
0.4999999999999998
 40
1.0
 40
1.0
 40
1.0
 40
1.0
 10
240.4008949767287
 20
64.05814315053486
 30
0.0
 10
240.7300299671219
 20
64.05443466467842
 30
0.0
 10
241.0594921200586
 20
64.03585216184075
 30
0.0
 10
241.7123657381162
 20
63.9709851248746
 30
0.0
 10
242.0368183299933
 20
63.92471957162434
 30
0.0
 10
243.0048787711854
 20
63.74899504131737
 30
0.0
 10
243.6432012554333
 20
63.58269163254063
 30
0.0
 10
244.2764648839763
 20
63.38112279531472
 30
0.0
  0
LINE
  5
181
330
1F
100
AcDbEntity
  8
0
  6
Continuous
 62
     7
370
    25
100
AcDbLine
 10
244.276464884
 20
60.0252407404
 30
0.0
 11
244.276464884
 21
63.3811227953
 31
0.0
  0
SPLINE
  5
182
330
1F
100
AcDbEntity
  8
0
  6
Continuous
 62
     7
370
    25
100
AcDbSpline
210
0.0
220
0.0
230
1.0
 70
     8
 71
     3
 72
    10
 73
     6
 74
     0
 42
0.00000001
 43
0.00000001
 40
0.0
 40
0.0
 40
0.0
 40
0.0
 40
0.5
 40
0.5
 40
1.0
 40
1.0
 40
1.0
 40
1.0
 10
244.2764648839764
 20
60.02524074042945
 30
0.0
 10
243.6204521173712
 20
59.81643081576319
 30
0.0
 10
242.9601852105135
 20
59.64589667601594
 30
0.0
 10
241.6278386918785
 20
59.41111087099701
 30
0.0
 10
240.9556857103912
 20
59.34751933516973
 30
0.0
 10
240.2764648839763
 20
59.34751933516973
 30
0.0
  0
SPLINE
  5
183
330
1F
100
AcDbEntity
  8
0
  6
Continuous
 62
     7
370
    25
100
AcDbSpline
210
0.0
220
0.0
230
1.0
 70
     8
 71
     3
 72
    12
 73
     8
 74
     0
 42
0.00000001
 43
0.00000001
 40
0.0
 40
0.0
 40
0.0
 40
0.0
 40
0.2499999999999998
 40
0.2499999999999998
 40
0.4999999999999996
 40
0.4999999999999996
 40
1.0
 40
1.0
 40
1.0
 40
1.0
 10
231.7764648839763
 20
59.34751933516973
 30
0.0
 10
231.4387089489535
 20
59.34751933516972
 30
0.0
 10
231.098300934075
 20
59.36326566519168
 30
0.0
 10
230.4238062496746
 20
59.42471068977711
 30
0.0
 10
230.0886809308074
 20
59.47029944903084
 30
0.0
 10
229.0889696124672
 20
59.64675045128744
 30
0.0
 10
228.4300355094019
 20
59.81720815325093
 30
0.0
 10
227.7764648839763
 20
60.02524074042977
 30
0.0
  0
LINE
  5
184
330
1F
100
AcDbEntity
  8
0
  6
Continuous
 62
     7
370
    25
100
AcDbLine
 10
227.776464884
 20
63.3811227953
 30
0.0
 11
227.776464884
 21
60.0252407404
 31
0.0
  0
SPLINE
  5
185
330
1F
100
AcDbEntity
  8
0
  6
Continuous
 62
     7
370
    25
100
AcDbSpline
210
0.0
220
0.0
230
1.0
 70
     8
 71
     3
 72
    10
 73
     6
 74
     0
 42
0.00000001
 43
0.00000001
 40
0.0
 40
0.0
 40
0.0
 40
0.0
 40
0.5
 40
0.5
 40
1.0
 40
1.0
 40
1.0
 40
1.0
 10
227.7764648839768
 20
63.38112279531487
 30
0.0
 10
228.4112925897904
 20
63.5831894808658
 30
0.0
 10
229.0505582923662
 20
63.74958225313644
 30
0.0
 10
230.3413732239561
 20
63.9836292270065
 30
0.0
 10
230.9929928594259
 20
64.05071748096533
 30
0.0
 10
231.652034791246
 20
64.05814315053512
 30
0.0
  0
SPLINE
  5
186
330
1F
100
AcDbEntity
  8
0
  6
Continuous
 62
     7
370
    25
100
AcDbSpline
210
0.0
220
0.0
230
1.0
 70
     8
 71
     3
 72
    10
 73
     6
 74
     0
 42
0.00000001
 43
0.00000001
 40
0.0
 40
0.0
 40
0.0
 40
0.0
 40
0.5
 40
0.5
 40
1.0
 40
1.0
 40
1.0
 40
1.0
 10
227.5264648839763
 20
60.02524074042991
 30
0.0
 10
227.5264648839763
 20
60.04891464098586
 30
0.0
 10
227.5492554556238
 20
60.06200719816501
 30
0.0
 10
227.6372014529225
 20
60.06209361214729
 30
0.0
 10
227.7020622456553
 20
60.04892322054867
 30
0.0
 10
227.7764648839763
 20
60.02524074042991
 30
0.0
  0
LINE
  5
187
330
1F
100
AcDbEntity
  8
0
  6
Continuous
 62
     7
370
    25
100
AcDbLine
 10
227.526464884
 20
59.3475193352
 30
0.0
 11
231.776464884
 21
59.3475193352
 31
0.0
  0
SPLINE
  5
188
330
1F
100
AcDbEntity
  8
0
  6
Continuous
 62
     7
370
    25
100
AcDbSpline
210
0.0
220
0.0
230
1.0
 70
    24
 71
     3
 72
    10
 73
     6
 74
     0
 42
0.00000001
 43
0.00000001
 40
0.0
 40
0.0
 40
0.0
 40
0.0
 40
0.5
 40
0.5
 40
1.0
 40
1.0
 40
1.0
 40
1.0
 10
227.5264648839763
 20
59.34751933516973
 30
0.0
 10
227.5264648839763
 20
59.34751933516973
 30
0.0
 10
227.5264648839763
 20
59.40980369714825
 30
0.0
 10
227.5264648839763
 20
59.64465181515527
 30
0.0
 10
227.5264648839763
 20
59.81789442228646
 30
0.0
 10
227.5264648839763
 20
60.02524074042991
 30
0.0
  0
SPLINE
  5
189
330
1F
100
AcDbEntity
  8
0
  6
Continuous
 62
     7
370
    25
100
AcDbSpline
210
0.0
220
0.0
230
1.0
 70
     8
 71
     3
 72
    10
 73
     6
 74
     0
 42
0.00000001
 43
0.00000001
 40
0.0
 40
0.0
 40
0.0
 40
0.0
 40
0.5
 40
0.5
 40
1.0
 40
1.0
 40
1.0
 40
1.0
 10
244.2764648839763
 20
60.02524074042992
 30
0.0
 10
244.3508353509019
 20
60.04891298034148
 30
0.0
 10
244.4151409471897
 20
60.06200697027673
 30
0.0
 10
244.5033637349956
 20
60.06209383773818
 30
0.0
 10
244.5264648839763
 20
60.04892404797882
 30
0.0
 10
244.5264648839763
 20
60.02524074042991
 30
0.0
  0
LINE
  5
18A
330
1F
100
AcDbEntity
  8
0
  6
Continuous
 62
     7
370
    25
100
AcDbLine
 10
240.276464884
 20
59.3475193352
 30
0.0
 11
244.526464884
 21
59.3475193352
 31
0.0
  0
SPLINE
  5
18B
330
1F
100
AcDbEntity
  8
0
  6
Continuous
 62
     7
370
    25
100
AcDbSpline
210
0.0
220
0.0
230
1.0
 70
    24
 71
     3
 72
    10
 73
     6
 74
     0
 42
0.00000001
 43
0.00000001
 40
0.0
 40
0.0
 40
0.0
 40
0.0
 40
0.4999999999999999
 40
0.4999999999999999
 40
1.0
 40
1.0
 40
1.0
 40
1.0
 10
244.5264648839763
 20
59.34751933516973
 30
0.0
 10
244.5264648839763
 20
59.34751933516973
 30
0.0
 10
244.5264648839763
 20
59.40980369714825
 30
0.0
 10
244.5264648839763
 20
59.64465181515527
 30
0.0
 10
244.5264648839763
 20
59.81789442228647
 30
0.0
 10
244.5264648839763
 20
60.02524074042992
 30
0.0
  0
SPLINE
  5
18C
330
1F
100
AcDbEntity
  8
0
  6
Continuous
 62
     7
370
    25
100
AcDbSpline
210
0.0
220
0.0
230
1.0
 70
     8
 71
     3
 72
     8
 73
     4
 74
     0
 42
0.00000001
 43
0.00000001
 40
0.0
 40
0.0
 40
0.0
 40
0.0
 40
1.0
 40
1.0
 40
1.0
 40
1.0
 10
227.5264648839763
 20
63.54260812359575
 30
0.0
 10
228.0482710352781
 20
63.81519825926509
 30
0.0
 10
228.5719245041343
 20
64.08435076038649
 30
0.0
 10
229.0982616537008
 20
64.34751933516972
 30
0.0
  0
SPLINE
  5
18D
330
1F
100
AcDbEntity
  8
0
  6
Continuous
 62
     7
370
    25
100
AcDbSpline
210
0.0
220
0.0
230
1.0
 70
     8
 71
     3
 72
    10
 73
     6
 74
     0
 42
0.00000001
 43
0.00000001
 40
0.0
 40
0.0
 40
0.0
 40
0.0
 40
0.5
 40
0.5
 40
1.0
 40
1.0
 40
1.0
 40
1.0
 10
227.5264648839763
 20
63.3811227953147
 30
0.0
 10
227.5264648839763
 20
63.35744740089029
 30
0.0
 10
227.5492573333061
 20
63.34435629100567
 30
0.0
 10
227.6372000373994
 20
63.34426996971744
 30
0.0
 10
227.7020578110736
 20
63.35743890366138
 30
0.0
 10
227.776464883977
 20
63.38112279531494
 30
0.0
  0
SPLINE
  5
18E
330
1F
100
AcDbEntity
  8
0
  6
Continuous
 62
     7
370
    25
100
AcDbSpline
210
0.0
220
0.0
230
1.0
 70
    24
 71
     3
 72
     8
 73
     4
 74
     0
 42
0.00000001
 43
0.00000001
 40
0.0
 40
0.0
 40
0.0
 40
0.0
 40
1.0
 40
1.0
 40
1.0
 40
1.0
 10
227.5264648839763
 20
63.54260812359575
 30
0.0
 10
227.5264648839763
 20
63.49171333389491
 30
0.0
 10
227.5264648839763
 20
63.43777948453348
 30
0.0
 10
227.5264648839763
 20
63.38112279531472
 30
0.0
  0
SPLINE
  5
18F
330
1F
100
AcDbEntity
  8
0
  6
Continuous
 62
     7
370
    25
100
AcDbSpline
210
0.0
220
0.0
230
1.0
 70
     8
 71
     3
 72
     8
 73
     4
 74
     0
 42
0.00000001
 43
0.00000001
 40
0.0
 40
0.0
 40
0.0
 40
0.0
 40
1.0
 40
1.0
 40
1.0
 40
1.0
 10
242.9546681142518
 20
64.34751933516972
 30
0.0
 10
243.481088975461
 20
64.0843089045651
 30
0.0
 10
244.0046334321747
 20
63.81521147617841
 30
0.0
 10
244.5264648839763
 20
63.54260812359576
 30
0.0
  0
SPLINE
  5
190
330
1F
100
AcDbEntity
  8
0
  6
Continuous
 62
     7
370
    25
100
AcDbSpline
210
0.0
220
0.0
230
1.0
 70
     8
 71
     3
 72
    10
 73
     6
 74
     0
 42
0.00000001
 43
0.00000001
 40
0.0
 40
0.0
 40
0.0
 40
0.0
 40
0.5
 40
0.5
 40
1.0
 40
1.0
 40
1.0
 40
1.0
 10
244.2764648839763
 20
63.38112279531472
 30
0.0
 10
244.3508452613536
 20
63.35744740089033
 30
0.0
 10
244.4151459001394
 20
63.3443562910057
 30
0.0
 10
244.5033615849223
 20
63.34426996971741
 30
0.0
 10
244.5264648839763
 20
63.35743890366125
 30
0.0
 10
244.5264648839763
 20
63.38112279531472
 30
0.0
  0
SPLINE
  5
191
330
1F
100
AcDbEntity
  8
0
  6
Continuous
 62
     7
370
    25
100
AcDbSpline
210
0.0
220
0.0
230
1.0
 70
    24
 71
     3
 72
     8
 73
     4
 74
     0
 42
0.00000001
 43
0.00000001
 40
0.0
 40
0.0
 40
0.0
 40
0.0
 40
1.0
 40
1.0
 40
1.0
 40
1.0
 10
244.5264648839763
 20
63.54260812359575
 30
0.0
 10
244.5264648839763
 20
63.49171333389491
 30
0.0
 10
244.5264648839763
 20
63.43777948453348
 30
0.0
 10
244.5264648839763
 20
63.38112279531472
 30
0.0
  0
LINE
  5
192
330
1F
100
AcDbEntity
  8
0
  6
Continuous
 62
     7
370
    25
100
AcDbLine
 10
243.526464884
 20
65.8626917779
 30
0.0
 11
243.526464884
 21
64.3475193352
 31
0.0
  0
LINE
  5
193
330
1F
100
AcDbEntity
  8
0
  6
Continuous
 62
     7
370
    25
100
AcDbLine
 10
240.902109231
 20
64.3475193352
 30
0.0
 11
243.526464884
 21
64.3475193352
 31
0.0
  0
LINE
  5
194
330
1F
100
AcDbEntity
  8
0
  6
Continuous
 62
     7
370
    25
100
AcDbLine
 10
228.526464884
 20
64.3475193352
 30
0.0
 11
228.526464884
 21
65.8626917779
 31
0.0
  0
LINE
  5
195
330
1F
100
AcDbEntity
  8
0
  6
Continuous
 62
     7
370
    25
100
AcDbLine
 10
228.526464884
 20
64.3475193352
 30
0.0
 11
231.150820537
 21
64.3475193352
 31
0.0
  0
LINE
  5
196
330
1F
100
AcDbEntity
  8
0
  6
Continuous
 62
     7
370
    25
100
AcDbLine
 10
236.026464884
 20
49.951185209
 30
0.0
 11
242.4910169425
 21
49.951185209
 31
0.0
  0
LINE
  5
197
330
1F
100
AcDbEntity
  8
0
  6
Continuous
 62
     7
370
    25
100
AcDbLine
 10
229.5619128254
 20
49.951185209
 30
0.0
 11
236.026464884
 21
49.951185209
 31
0.0
  0
LINE
  5
198
330
1F
100
AcDbEntity
  8
0
  6
Continuous
 62
     7
370
    25
100
AcDbLine
 10
241.276464884
 20
47.8475193352
 30
0.0
 11
230.776464884
 21
47.8475193352
 31
0.0
  0
LINE
  5
199
330
1F
100
AcDbEntity
  8
0
  6
Continuous
 62
     7
370
    25
100
AcDbLine
 10
227.526464884
 20
60.0252407404
 30
0.0
 11
227.526464884
 21
63.3811227953
 31
0.0
  0
LINE
  5
19A
330
1F
100
AcDbEntity
  8
0
  6
Continuous
 62
     7
370
    25
100
AcDbLine
 10
244.526464884
 20
63.3811227953
 30
0.0
 11
244.526464884
 21
60.0252407404
 31
0.0
  0
LINE
  5
19B
330
1F
100
AcDbEntity
  8
0
  6
Continuous
 62
     7
370
    25
100
AcDbLine
 10
227.526464884
 20
63.5426081236
 30
0.0
 11
227.526464884
 21
66.6809545949
 31
0.0
  0
LINE
  5
19C
330
1F
100
AcDbEntity
  8
0
  6
Continuous
 62
     7
370
    25
100
AcDbLine
 10
244.526464884
 20
63.5426081236
 30
0.0
 11
244.526464884
 21
66.6809545949
 31
0.0
  0
LINE
  5
19D
330
1F
100
AcDbEntity
  8
0
  6
Continuous
 62
     7
370
    25
100
AcDbLine
 10
230.776464884
 20
98.6975193352
 30
0.0
 11
232.526464884
 21
98.6975193352
 31
0.0
  0
LINE
  5
19E
330
1F
100
AcDbEntity
  8
0
  6
Continuous
 62
     7
370
    25
100
AcDbLine
 10
239.526464884
 20
98.6975193352
 30
0.0
 11
241.276464884
 21
98.6975193352
 31
0.0
  0
LINE
  5
19F
330
1F
100
AcDbEntity
  8
0
  6
Continuous
 62
     7
370
    25
100
AcDbLine
 10
230.526464884
 20
97.8475193352
 30
0.0
 11
232.526464884
 21
97.8475193352
 31
0.0
  0
LINE
  5
1A0
330
1F
100
AcDbEntity
  8
0
  6
Continuous
 62
     7
370
    25
100
AcDbLine
 10
239.526464884
 20
97.8475193352
 30
0.0
 11
241.526464884
 21
97.8475193352
 31
0.0
  0
LINE
  5
1A1
330
1F
100
AcDbEntity
  8
0
  6
Continuous
 62
     7
370
    25
100
AcDbLine
 10
239.526464884
 20
87.8475193352
 30
0.0
 11
232.526464884
 21
87.8475193352
 31
0.0
  0
LINE
  5
1A2
330
1F
100
AcDbEntity
  8
0
  6
Continuous
 62
     7
370
    25
100
AcDbLine
 10
232.526464884
 20
87.8475193352
 30
0.0
 11
232.526464884
 21
92.8475193352
 31
0.0
  0
LINE
  5
1A3
330
1F
100
AcDbEntity
  8
0
  6
Continuous
 62
     7
370
    25
100
AcDbLine
 10
232.526464884
 20
92.8475193352
 30
0.0
 11
239.526464884
 21
92.8475193352
 31
0.0
  0
LINE
  5
1A4
330
1F
100
AcDbEntity
  8
0
  6
Continuous
 62
     7
370
    25
100
AcDbLine
 10
239.526464884
 20
92.8475193352
 30
0.0
 11
239.526464884
 21
87.8475193352
 31
0.0
  0
LINE
  5
1A5
330
1F
100
AcDbEntity
  8
0
  6
Continuous
 62
     7
370
    25
100
AcDbLine
 10
239.526464884
 20
92.8475193352
 30
0.0
 11
239.526464884
 21
99.8475193352
 31
0.0
  0
LINE
  5
1A6
330
1F
100
AcDbEntity
  8
0
  6
Continuous
 62
     7
370
    25
100
AcDbLine
 10
232.526464884
 20
99.8475193352
 30
0.0
 11
232.526464884
 21
92.8475193352
 31
0.0
  0
LINE
  5
1A7
330
1F
100
AcDbEntity
  8
0
  6
Continuous
 62
     7
370
    25
100
AcDbLine
 10
232.526464884
 20
99.8475193352
 30
0.0
 11
239.526464884
 21
99.8475193352
 31
0.0
  0
SPLINE
  5
1A8
330
1F
100
AcDbEntity
  8
0
  6
Continuous
 62
     7
370
    25
100
AcDbSpline
210
0.0
220
0.0
230
1.0
 70
     8
 71
     3
 72
     9
 73
     5
 74
     0
 42
0.00000001
 43
0.00000001
 40
0.0
 40
0.0
 40
0.0
 40
0.0
 40
0.4976931370791441
 40
0.9999999999999999
 40
0.9999999999999999
 40
0.9999999999999999
 40
0.9999999999999999
 10
239.5264648839763
 20
87.59969502814526
 30
0.0
 10
239.5431343971935
 20
87.45024814714483
 30
0.0
 10
239.5766279537151
 20
87.14996897938792
 30
0.0
 10
239.7999666373568
 20
86.56854685200051
 30
0.0
 10
239.9121511909057
 20
86.27649452715976
 30
0.0
  0
LINE
  5
1A9
330
1F
100
AcDbEntity
  8
0
  6
Continuous
 62
     7
370
    25
100
AcDbLine
 10
239.9121511909
 20
86.2764945272
 30
0.0
 11
232.140778577
 21
86.2764945272
 31
0.0
  0
SPLINE
  5
1AA
330
1F
100
AcDbEntity
  8
0
  6
Continuous
 62
     7
370
    25
100
AcDbSpline
210
0.0
220
0.0
230
1.0
 70
     8
 71
     3
 72
     9
 73
     5
 74
     0
 42
0.00000001
 43
0.00000001
 40
0.0
 40
0.0
 40
0.0
 40
0.0
 40
0.4977232396629078
 40
1.0
 40
1.0
 40
1.0
 40
1.0
 10
232.1407785770469
 20
86.27649452715976
 30
0.0
 10
232.2520752531609
 20
86.5660869277839
 30
0.0
 10
232.4756868253054
 20
87.14792112306938
 30
0.0
 10
232.5094875603041
 20
87.44864727220751
 30
0.0
 10
232.5264648839763
 20
87.59969502814526
 30
0.0
  0
LINE
  5
1AB
330
1F
100
AcDbEntity
  8
0
  6
Continuous
 62
     7
370
    25
100
AcDbLine
 10
239.526464884
 20
87.8475193352
 30
0.0
 11
239.526464884
 21
87.5996950281
 31
0.0
  0
LINE
  5
1AC
330
1F
100
AcDbEntity
  8
0
  6
Continuous
 62
     7
370
    25
100
AcDbLine
 10
232.526464884
 20
87.5996950281
 30
0.0
 11
232.526464884
 21
87.8475193352
 31
0.0
  0
SPLINE
  5
1AD
330
1F
100
AcDbEntity
  8
0
  6
Continuous
 62
     7
370
    25
100
AcDbSpline
210
0.0
220
0.0
230
1.0
 70
     8
 71
     3
 72
    16
 73
    12
 74
     0
 42
0.00000001
 43
0.00000001
 40
0.0
 40
0.0
 40
0.0
 40
0.0
 40
0.0155634360124117
 40
0.0359329243097674
 40
0.0739120889290614
 40
0.1570057548437684
 40
0.2406581385754913
 40
0.4592958294318596
 40
0.6783839187935417
 40
0.8974954344294845
 40
1.0
 40
1.0
 40
1.0
 40
1.0
 10
229.366742661754
 20
81.84751933516982
 30
0.0
 10
229.3804363287674
 20
81.85271270694898
 30
0.0
 10
229.412052322814
 20
81.86470318481676
 30
0.0
 10
229.4675320131241
 20
81.98302910881372
 30
0.0
 10
229.5461328236146
 20
82.29428041626268
 30
0.0
 10
229.6254730102437
 20
82.81992791762772
 30
0.0
 10
229.7307007183469
 20
83.85847408189788
 30
0.0
 10
229.8456941195661
 20
85.293548124244
 30
0.0
 10
229.948094119981
 20
87.13180022568343
 30
0.0
 10
230.0178429998614
 20
88.65298307450288
 30
0.0
 10
230.0573016192902
 20
89.5588151152994
 30
0.0
 10
230.0698777586032
 20
89.84751933516735
 30
0.0
  0
LINE
  5
1AE
330
1F
100
AcDbEntity
  8
0
  6
Continuous
 62
     7
370
    25
100
AcDbLine
 10
230.0698777586
 20
89.8475193352
 30
0.0
 11
229.8497170433
 21
90.8422629131
 31
0.0
  0
ELLIPSE
  5
1AF
330
1F
100
AcDbEntity
  8
0
  6
Continuous
 62
     7
370
    25
100
AcDbEllipse
 10
167.526464884
 20
88.1953937675
 30
0.0
 11
65.0
 21
0.0
 31
0.0
210
0.0
220
0.0
230
1.0
 40
0.2713992096
 41
6.084179739699224
 42
6.174194364446292
  0
SPLINE
  5
1B0
330
1F
100
AcDbEntity
  8
0
  6
Continuous
 62
     7
370
    25
100
AcDbSpline
210
0.0
220
0.0
230
1.0
 70
     8
 71
     3
 72
    13
 73
     9
 74
     0
 42
0.00000001
 43
0.00000001
 40
0.0
 40
0.0
 40
0.0
 40
0.0
 40
0.1610294006389558
 40
0.3266880383557516
 40
0.4877296220820636
 40
0.6535536198224136
 40
0.8237602734841889
 40
1.0
 40
1.0
 40
1.0
 40
1.0
 10
231.2436025538717
 20
84.70787308667688
 30
0.0
 10
231.1997987864394
 20
84.63847619209963
 30
0.0
 10
231.1109319906971
 20
84.49768739659109
 30
0.0
 10
230.9819119720251
 20
84.15156257888344
 30
0.0
 10
230.8609018762578
 20
83.7123559358314
 30
0.0
 10
230.7542208931331
 20
83.1787540988918
 30
0.0
 10
230.6635536057773
 20
82.55492779219212
 30
0.0
 10
230.6267347968806
 20
82.08604389399012
 30
0.0
 10
230.6080048081092
 20
81.84751933516972
 30
0.0
  0
LINE
  5
1B1
330
1F
100
AcDbEntity
  8
0
  6
Continuous
 62
     7
370
    25
100
AcDbLine
 10
230.6080048081
 20
81.8475193352
 30
0.0
 11
229.3667426618
 21
81.8475193352
 31
0.0
  0
LINE
  5
1B2
330
1F
100
AcDbEntity
  8
0
  6
Continuous
 62
     7
370
    25
100
AcDbLine
 10
229.8497170433
 20
90.8422629131
 30
0.0
 11
232.526464884
 21
90.8422629132
 31
0.0
  0
SPLINE
  5
1B3
330
1F
100
AcDbEntity
  8
0
  6
Continuous
 62
     7
370
    25
100
AcDbSpline
210
0.0
220
0.0
230
1.0
 70
     8
 71
     3
 72
    17
 73
    13
 74
     0
 42
0.00000001
 43
0.00000001
 40
0.0
 40
0.0
 40
0.0
 40
0.0
 40
0.3241697628029873
 40
0.542275846362072
 40
0.689509052693928
 40
0.7894036290694506
 40
0.8577090008137827
 40
0.9049823971474139
 40
0.9551712229700868
 40
0.9753097783197817
 40
0.9919572060138849
 40
1.0
 40
1.0
 40
1.0
 40
1.0
 10
241.9830520093494
 20
89.84751933516735
 30
0.0
 10
242.0237024480761
 20
88.93490583256168
 30
0.0
 10
242.0917030872318
 20
87.40827282630035
 30
0.0
 10
242.2031359865482
 20
85.48149992401936
 30
0.0
 10
242.2956406466067
 20
84.1938644530866
 30
0.0
 10
242.3735421029241
 20
83.33471248636485
 30
0.0
 10
242.4395946023464
 20
82.76124459798744
 30
0.0
 10
242.5029512097089
 20
82.3397124439575
 30
0.0
 10
242.5610776774027
 20
82.05921990116205
 30
0.0
 10
242.6204195057255
 20
81.9036712325814
 30
0.0
 10
242.6574255743483
 20
81.85306063338389
 30
0.0
 10
242.6791201412187
 20
81.84888088157926
 30
0.0
 10
242.6861871061985
 20
81.84751933516979
 30
0.0
  0
LINE
  5
1B4
330
1F
100
AcDbEntity
  8
0
  6
Continuous
 62
     7
370
    25
100
AcDbLine
 10
242.6861871062
 20
81.8475193352
 30
0.0
 11
241.4449249598
 21
81.8475193352
 31
0.0
  0
SPLINE
  5
1B5
330
1F
100
AcDbEntity
  8
0
  6
Continuous
 62
     7
370
    25
100
AcDbSpline
210
0.0
220
0.0
230
1.0
 70
     8
 71
     3
 72
    14
 73
    10
 74
     0
 42
0.00000001
 43
0.00000001
 40
0.0
 40
0.0
 40
0.0
 40
0.0
 40
0.1576095309202821
 40
0.3152382602707094
 40
0.4726926441579496
 40
0.6301650083177254
 40
0.7907313191165902
 40
0.9513050385928076
 40
1.0
 40
1.0
 40
1.0
 40
1.0
 10
241.4449249598434
 20
81.84751933516972
 30
0.0
 10
241.4284196230009
 20
82.06102112364712
 30
0.0
 10
241.3954069387996
 20
82.48805070727263
 30
0.0
 10
241.3156032488876
 20
83.07329778612895
 30
0.0
 10
241.2178158414014
 20
83.59545232695137
 30
0.0
 10
241.1042260017194
 20
84.04443045437124
 30
0.0
 10
240.9796839026877
 20
84.40371218617761
 30
0.0
 10
240.8793265619113
 20
84.6082783652788
 30
0.0
 10
240.8225407642961
 20
84.68907291363011
 30
0.0
 10
240.8093272140808
 20
84.70787308667688
 30
0.0
  0
ELLIPSE
  5
1B6
330
1F
100
AcDbEntity
  8
0
  6
Continuous
 62
     7
370
    25
100
AcDbEllipse
 10
304.526464884
 20
88.1953937675
 30
0.0
 11
65.0
 21
0.0
 31
0.0
210
0.0
220
0.0
230
1.0
 40
0.2713992096
 41
3.25058359632319
 42
3.340598221070255
  0
LINE
  5
1B7
330
1F
100
AcDbEntity
  8
0
  6
Continuous
 62
     7
370
    25
100
AcDbLine
 10
242.2032127246
 20
90.8422629131
 30
0.0
 11
241.9830520093
 21
89.8475193352
 31
0.0
  0
LINE
  5
1B8
330
1F
100
AcDbEntity
  8
0
  6
Continuous
 62
     7
370
    25
100
AcDbLine
 10
239.526464884
 20
90.8422629132
 30
0.0
 11
242.2032127246
 21
90.8422629131
 31
0.0
  0
LINE
  5
1B9
330
1F
100
AcDbEntity
  8
0
  6
Continuous
 62
     7
370
    25
100
AcDbLine
 10
231.2436025539
 20
84.7078730867
 30
0.0
 11
240.8093272141
 21
84.7078730867
 31
0.0
  0
SPLINE
  5
1BA
330
1F
100
AcDbEntity
  8
0
  6
Continuous
 62
     7
370
    25
100
AcDbSpline
210
0.0
220
0.0
230
1.0
 70
     8
 71
     3
 72
    16
 73
    12
 74
     0
 42
0.00000001
 43
0.00000001
 40
0.0
 40
0.0
 40
0.0
 40
0.0
 40
0.1082397394540288
 40
0.2409347985297594
 40
0.3278143823752722
 40
0.4147786007912546
 40
0.5911316736061375
 40
0.6905102391473411
 40
0.7897210831517909
 40
0.9112972329116562
 40
1.0
 40
1.0
 40
1.0
 40
1.0
 10
238.6245410953296
 20
81.84751933516972
 30
0.0
 10
238.5064872121023
 20
82.03057652986057
 30
0.0
 10
238.2437067516678
 20
82.4380502409461
 30
0.0
 10
237.6670289905904
 20
82.78227990942004
 30
0.0
 10
237.0814713981964
 20
82.9862624535378
 30
0.0
 10
236.3744493851643
 20
83.11767648389988
 30
0.0
 10
235.6146264505489
 20
83.11465623984435
 30
0.0
 10
234.8606579442983
 20
82.95989650513602
 30
0.0
 10
234.2602817417318
 20
82.7193501737928
 30
0.0
 10
233.7436276305941
 20
82.35890833536315
 30
0.0
 10
233.521914695682
 20
81.99923973080884
 30
0.0
 10
233.428388672623
 20
81.84751933516972
 30
0.0
  0
LINE
  5
1BB
330
1F
100
AcDbEntity
  8
0
  6
Continuous
 62
     7
370
    25
100
AcDbLine
 10
233.4283886726
 20
81.8475193352
 30
0.0
 11
230.6080048081
 21
81.8475193352
 31
0.0
  0
LINE
  5
1BC
330
1F
100
AcDbEntity
  8
0
  6
Continuous
 62
     7
370
    25
100
AcDbLine
 10
241.4449249598
 20
81.8475193352
 30
0.0
 11
238.6245410953
 21
81.8475193352
 31
0.0
  0
LINE
  5
1BD
330
1F
100
AcDbEntity
  8
0
  6
Continuous
 62
     7
370
    25
100
AcDbLine
 10
238.6245410953
 20
81.8475193352
 30
0.0
 11
233.4283886726
 21
81.8475193352
 31
0.0
  0
LINE
  5
1BE
330
1F
100
AcDbEntity
  8
0
  6
Continuous
 62
     7
370
    25
100
AcDbLine
 10
241.9830520093
 20
89.8475193352
 30
0.0
 11
243.476464884
 21
89.8475193352
 31
0.0
  0
LINE
  5
1BF
330
1F
100
AcDbEntity
  8
0
  6
Continuous
 62
     7
370
    25
100
AcDbLine
 10
228.576464884
 20
89.8475193352
 30
0.0
 11
230.0698777586
 21
89.8475193352
 31
0.0
  0
SPLINE
  5
1C0
330
1F
100
AcDbEntity
  8
0
  6
Continuous
 62
     7
370
    25
100
AcDbSpline
210
0.0
220
0.0
230
1.0
 70
     8
 71
     3
 72
     9
 73
     5
 74
     0
 42
0.00000001
 43
0.00000001
 40
0.0
 40
0.0
 40
0.0
 40
0.0
 40
0.4875141023677128
 40
0.9999999999999999
 40
0.9999999999999999
 40
0.9999999999999999
 40
0.9999999999999999
 10
242.6861871061985
 20
81.84751933516979
 30
0.0
 10
242.6947132177343
 20
81.8492466811415
 30
0.0
 10
242.7122021713756
 20
81.85278985243296
 30
0.0
 10
242.728523875262
 20
81.87430833838228
 30
0.0
 10
242.7368885183291
 20
81.88533625896972
 30
0.0
  0
SPLINE
  5
1C1
330
1F
100
AcDbEntity
  8
0
  6
Continuous
 62
     7
370
    25
100
AcDbSpline
210
0.0
220
0.0
230
1.0
 70
     8
 71
     3
 72
     9
 73
     5
 74
     0
 42
0.00000001
 43
0.00000001
 40
0.0
 40
0.0
 40
0.0
 40
0.0
 40
0.5124861829376838
 40
0.9999999999999999
 40
0.9999999999999999
 40
0.9999999999999999
 40
0.9999999999999999
 10
229.3160412804897
 20
81.88533621310994
 30
0.0
 10
229.3244059236134
 20
81.87430830015876
 30
0.0
 10
229.3407276185236
 20
81.85278984108936
 30
0.0
 10
229.3582165607654
 20
81.8492466767442
 30
0.0
 10
229.366742661754
 20
81.84751933516982
 30
0.0
  0
LINE
  5
1C2
330
1F
100
AcDbEntity
  8
0
  6
Continuous
 62
     7
370
    25
100
AcDbLine
 10
242.7346688165
 20
81.8475193352
 30
0.0
 11
243.026464884
 21
81.8475193352
 31
0.0
  0
LINE
  5
1C3
330
1F
100
AcDbEntity
  8
0
  6
Continuous
 62
     7
370
    25
100
AcDbLine
 10
229.026464884
 20
81.8475193352
 30
0.0
 11
229.3182609515
 21
81.8475193352
 31
0.0
  0
LINE
  5
1C4
330
1F
100
AcDbEntity
  8
0
  6
Continuous
 62
     7
370
    25
100
AcDbLine
 10
242.7368885183
 20
81.885336259
 30
0.0
 11
242.7346688165
 21
81.8475193352
 31
0.0
  0
LINE
  5
1C5
330
1F
100
AcDbEntity
  8
0
  6
Continuous
 62
     7
370
    25
100
AcDbLine
 10
242.7346688165
 20
81.8475193352
 30
0.0
 11
242.6861871062
 21
81.8475193352
 31
0.0
  0
LINE
  5
1C6
330
1F
100
AcDbEntity
  8
0
  6
Continuous
 62
     7
370
    25
100
AcDbLine
 10
229.3182609515
 20
81.8475193352
 30
0.0
 11
229.3160412805
 21
81.8853362131
 31
0.0
  0
LINE
  5
1C7
330
1F
100
AcDbEntity
  8
0
  6
Continuous
 62
     7
370
    25
100
AcDbLine
 10
229.3667426618
 20
81.8475193352
 30
0.0
 11
229.3182609515
 21
81.8475193352
 31
0.0
  0
SPLINE
  5
1C8
330
1F
100
AcDbEntity
  8
0
  6
Continuous
 62
     7
370
    25
100
AcDbSpline
210
0.0
220
0.0
230
1.0
 70
     8
 71
     3
 72
    19
 73
    15
 74
     0
 42
0.00000001
 43
0.00000001
 40
0.0
 40
0.0
 40
0.0
 40
0.0
 40
0.0167708179903541
 40
0.0954878657318928
 40
0.1743095569316387
 40
0.2799291077808587
 40
0.3857442930939367
 40
0.4988277232694527
 40
0.6118926385548799
 40
0.7070724721582363
 40
0.8021781044025671
 40
0.8927554124264132
 40
0.9832580748136969
 40
1.0
 40
1.0
 40
1.0
 40
1.0
 10
230.134109833394
 20
77.88692478367169
 30
0.0
 10
230.1315846240479
 20
77.88379051845267
 30
0.0
 10
230.1172068607736
 20
77.86594497886266
 30
0.0
 10
230.1806522091826
 20
77.94500798830492
 30
0.0
 10
230.3357574038431
 20
78.12949197801584
 30
0.0
 10
230.6240551952947
 20
78.44947124226763
 30
0.0
 10
231.056489037929
 20
78.8739194148369
 30
0.0
 10
231.6109218150339
 20
79.33658402101405
 30
0.0
 10
232.253817363767
 20
79.77706400877332
 30
0.0
 10
232.9532542901027
 20
80.1551249440371
 30
0.0
 10
233.6752546098029
 20
80.45834847358171
 30
0.0
 10
234.452973999147
 20
80.67674759185034
 30
0.0
 10
235.0410224718904
 20
80.79814735161003
 30
0.0
 10
235.3706126504047
 20
80.8114471789594
 30
0.0
 10
235.4220648890274
 20
80.81352341161143
 30
0.0
  0
SPLINE
  5
1C9
330
1F
100
AcDbEntity
  8
0
  6
Continuous
 62
     7
370
    25
100
AcDbSpline
210
0.0
220
0.0
230
1.0
 70
     8
 71
     3
 72
    19
 73
    15
 74
     0
 42
0.00000001
 43
0.00000001
 40
0.0
 40
0.0
 40
0.0
 40
0.0
 40
0.0313541112662621
 40
0.0973966280620731
 40
0.1974100014565805
 40
0.2975356400241142
 40
0.4181230375843088
 40
0.5388068777142072
 40
0.6564377410791509
 40
0.7739022103671558
 40
0.8504366565104973
 40
0.9268703933365045
 40
0.9967371774586367
 40
1.0
 40
1.0
 40
1.0
 40
1.0
 10
236.6386620939174
 20
80.80902168743675
 30
0.0
 10
236.7345340155397
 20
80.80380164790465
 30
0.0
 10
237.0323451004257
 20
80.78758641397698
 30
0.0
 10
237.615230502391
 20
80.67321394908534
 30
0.0
 10
238.3644748408012
 20
80.46394144364733
 30
0.0
 10
239.1849395666931
 20
80.11961955099672
 30
0.0
 10
239.9520862522138
 20
79.68402051063204
 30
0.0
 10
240.6333768495054
 20
79.18862161278997
 30
0.0
 10
241.1840869354324
 20
78.69822559072735
 30
0.0
 10
241.5528245221543
 20
78.31526952861284
 30
0.0
 10
241.780849775312
 20
78.05451772273486
 30
0.0
 10
241.8919559883356
 20
77.92006051946333
 30
0.0
 10
241.9359319742647
 20
77.8661629377109
 30
0.0
 10
241.9250062979603
 20
77.87949720083347
 30
0.0
 10
241.9245188272278
 20
77.88009213544714
 30
0.0
  0
LINE
  5
1CA
330
1F
100
AcDbEntity
  8
0
  6
Continuous
 62
     7
370
    25
100
AcDbLine
 10
232.526464884
 20
98.4475193352
 30
0.0
 11
230.526464884
 21
98.4475193352
 31
0.0
  0
LINE
  5
1CB
330
1F
100
AcDbEntity
  8
0
  6
Continuous
 62
     7
370
    25
100
AcDbLine
 10
241.526464884
 20
98.4475193352
 30
0.0
 11
239.526464884
 21
98.4475193352
 31
0.0
  0
INSERT
  5
1D7
330
1F
100
AcDbEntity
  8
0
  6
Continuous
 62
     7
370
    18
100
AcDbBlockReference
  2
SW_CENTERMARKSYMBOL_0
 10
236.026464884
 20
71.3475193352
 30
0.0
  0
LINE
  5
1D8
330
1F
100
AcDbEntity
  8
0
  6
Continuous
 62
     7
370
    18
100
AcDbLine
 10
229.960214884
 20
58.8475193352
 30
0.0
 11
230.2769265801
 21
48.7127450577
 31
0.0
  0
LINE
  5
1D9
330
1F
100
AcDbEntity
  8
0
  6
Continuous
 62
     7
370
    18
100
AcDbLine
 10
241.7760031878
 20
48.7127450577
 30
0.0
 11
242.092714884
 21
58.8475193352
 31
0.0
  0
LINE
  5
1DA
330
1F
100
AcDbEntity
  8
0
  6
Continuous
 62
     7
370
    25
100
AcDbLine
 10
148.515722184
 20
134.2357471224
 30
0.0
 11
148.315722184
 21
134.0357471224
 31
0.0
  0
LINE
  5
1DB
330
1F
100
AcDbEntity
  8
0
  6
Continuous
 62
     7
370
    25
100
AcDbLine
 10
148.315722184
 20
117.4357471224
 30
0.0
 11
148.515722184
 21
117.2357471224
 31
0.0
  0
LINE
  5
1DC
330
1F
100
AcDbEntity
  8
0
  6
Continuous
 62
     7
370
    25
100
AcDbLine
 10
151.315722184
 20
134.2357471224
 30
0.0
 11
148.515722184
 21
134.2357471224
 31
0.0
  0
LINE
  5
1DD
330
1F
100
AcDbEntity
  8
0
  6
Continuous
 62
     7
370
    25
100
AcDbLine
 10
148.515722184
 20
117.2357471224
 30
0.0
 11
151.315722184
 21
117.2357471224
 31
0.0
  0
LINE
  5
1DE
330
1F
100
AcDbEntity
  8
0
  6
Continuous
 62
     7
370
    25
100
AcDbLine
 10
148.315722184
 20
132.3142471224
 30
0.0
 11
139.315722184
 21
132.3142471224
 31
0.0
  0
LINE
  5
1DF
330
1F
100
AcDbEntity
  8
0
  6
Continuous
 62
     7
370
    25
100
AcDbLine
 10
139.315722184
 20
119.1572471224
 30
0.0
 11
148.315722184
 21
119.1572471224
 31
0.0
  0
LINE
  5
1E0
330
1F
100
AcDbEntity
  8
0
  6
Continuous
 62
     7
370
    25
100
AcDbLine
 10
139.315722184
 20
132.3142471224
 30
0.0
 11
138.315722184
 21
131.3142471224
 31
0.0
  0
LINE
  5
1E1
330
1F
100
AcDbEntity
  8
0
  6
Continuous
 62
     7
370
    25
100
AcDbLine
 10
138.315722184
 20
120.1572471224
 30
0.0
 11
139.315722184
 21
119.1572471224
 31
0.0
  0
LINE
  5
1E2
330
1F
100
AcDbEntity
  8
0
  6
Continuous
 62
     7
370
    25
100
AcDbLine
 10
174.6713846167
 20
117.2357471224
 30
0.0
 11
174.815722184
 21
117.4857471224
 31
0.0
  0
LINE
  5
1E3
330
1F
100
AcDbEntity
  8
0
  6
Continuous
 62
     7
370
    25
100
AcDbLine
 10
174.815722184
 20
133.9857471224
 30
0.0
 11
174.6713846167
 21
134.2357471224
 31
0.0
  0
LINE
  5
1E4
330
1F
100
AcDbEntity
  8
0
  6
Continuous
 62
     7
370
    25
100
AcDbLine
 10
148.315722184
 20
126.1397071544
 30
0.0
 11
148.315722184
 21
134.0357471224
 31
0.0
  0
LINE
  5
1E5
330
1F
100
AcDbEntity
  8
0
  6
Continuous
 62
     7
370
    25
100
AcDbLine
 10
148.315722184
 20
117.4357471224
 30
0.0
 11
148.315722184
 21
126.1397071544
 31
0.0
  0
LINE
  5
1E6
330
1F
100
AcDbEntity
  8
0
  6
Continuous
 62
     7
370
    25
100
AcDbLine
 10
148.515722184
 20
126.149441131
 30
0.0
 11
148.515722184
 21
117.2357471224
 31
0.0
  0
LINE
  5
1E7
330
1F
100
AcDbEntity
  8
0
  6
Continuous
 62
     7
370
    25
100
AcDbLine
 10
148.515722184
 20
134.2357471224
 30
0.0
 11
148.515722184
 21
126.149441131
 31
0.0
  0
LINE
  5
1E8
330
1F
100
AcDbEntity
  8
0
  6
Continuous
 62
     7
370
    25
100
AcDbLine
 10
151.315722184
 20
126.149441131
 30
0.0
 11
151.315722184
 21
134.2357471224
 31
0.0
  0
LINE
  5
1E9
330
1F
100
AcDbEntity
  8
0
  6
Continuous
 62
     7
370
    25
100
AcDbLine
 10
151.315722184
 20
117.2357471224
 30
0.0
 11
151.315722184
 21
126.149441131
 31
0.0
  0
LINE
  5
1EA
330
1F
100
AcDbEntity
  8
0
  6
Continuous
 62
     7
370
    25
100
AcDbLine
 10
139.315722184
 20
126.0559219501
 30
0.0
 11
139.315722184
 21
119.1572471224
 31
0.0
  0
LINE
  5
1EB
330
1F
100
AcDbEntity
  8
0
  6
Continuous
 62
     7
370
    25
100
AcDbLine
 10
139.315722184
 20
132.3142471224
 30
0.0
 11
139.315722184
 21
126.0559219501
 31
0.0
  0
LINE
  5
1EC
330
1F
100
AcDbEntity
  8
0
  6
Continuous
 62
     7
370
    25
100
AcDbLine
 10
138.315722184
 20
126.0072520668
 30
0.0
 11
138.315722184
 21
131.3142471224
 31
0.0
  0
LINE
  5
1ED
330
1F
100
AcDbEntity
  8
0
  6
Continuous
 62
     7
370
    25
100
AcDbLine
 10
138.315722184
 20
120.1572471224
 30
0.0
 11
138.315722184
 21
126.0072520668
 31
0.0
  0
SPLINE
  5
1EE
330
1F
100
AcDbEntity
  8
0
  6
Continuous
 62
     7
370
    25
100
AcDbSpline
210
0.0
220
0.0
230
1.0
 70
    24
 71
     3
 72
    10
 73
     6
 74
     0
 42
0.00000001
 43
0.00000001
 40
0.0
 40
0.0
 40
0.0
 40
0.0
 40
0.3696172597648462
 40
0.7422800651422709
 40
1.0
 40
1.0
 40
1.0
 40
1.0
 10
173.9936632114178
 20
117.2357471223584
 30
0.0
 10
174.1348660216374
 20
117.2357471223584
 30
0.0
 10
174.4184351147979
 20
117.2357471223584
 30
0.0
 10
174.6375749005573
 20
117.2357471223584
 30
0.0
 10
174.6599658803375
 20
117.2357471223584
 30
0.0
 10
174.6691200044624
 20
117.2357471223584
 30
0.0
  0
SPLINE
  5
1EF
330
1F
100
AcDbEntity
  8
0
  6
Continuous
 62
     7
370
    25
100
AcDbSpline
210
0.0
220
0.0
230
1.0
 70
     8
 71
     3
 72
    10
 73
     6
 74
     0
 42
0.00000001
 43
0.00000001
 40
0.0
 40
0.0
 40
0.0
 40
0.0
 40
0.5
 40
0.5
 40
1.0
 40
1.0
 40
1.0
 40
1.0
 10
173.9936632114178
 20
117.4857471223584
 30
0.0
 10
173.9699878169935
 20
117.4113667449811
 30
0.0
 10
173.9568967071088
 20
117.3470661061953
 30
0.0
 10
173.9568103858205
 20
117.2588504214124
 30
0.0
 10
173.9699793197644
 20
117.2357471223584
 30
0.0
 10
173.9936632114178
 20
117.2357471223584
 30
0.0
  0
SPLINE
  5
1F0
330
1F
100
AcDbEntity
  8
0
  6
Continuous
 62
     7
370
    25
100
AcDbSpline
210
0.0
220
0.0
230
1.0
 70
     8
 71
     3
 72
    10
 73
     6
 74
     0
 42
0.00000001
 43
0.00000001
 40
0.0
 40
0.0
 40
0.0
 40
0.0
 40
0.0467461841559108
 40
0.5194406405608584
 40
1.0
 40
1.0
 40
1.0
 40
1.0
 10
174.663064115343
 20
121.3674227229089
 30
0.0
 10
174.6647585813145
 20
121.3061266608584
 30
0.0
 10
174.6835873799759
 20
120.6250086977496
 30
0.0
 10
174.5066011091972
 20
119.3125489903548
 30
0.0
 10
174.165580384337
 20
118.0980212670239
 30
0.0
 10
173.9936632114178
 20
117.4857471223584
 30
0.0
  0
SPLINE
  5
1F1
330
1F
100
AcDbEntity
  8
0
  6
Continuous
 62
     7
370
    25
100
AcDbSpline
210
0.0
220
0.0
230
1.0
 70
     8
 71
     3
 72
    10
 73
     6
 74
     0
 42
0.00000001
 43
0.00000001
 40
0.0
 40
0.0
 40
0.0
 40
0.0
 40
0.5439367190271666
 40
0.8216523943668526
 40
1.0
 40
1.0
 40
1.0
 40
1.0
 10
173.9936632114178
 20
133.9857471223584
 30
0.0
 10
174.1896616598281
 20
133.286929349197
 30
0.0
 10
174.4857302810391
 20
132.2313188775025
 30
0.0
 10
174.6521948800419
 20
130.9150509341063
 30
0.0
 10
174.6565789255906
 20
130.312586580966
 30
0.0
 10
174.6582933456266
 20
130.076987532885
 30
0.0
  0
SPLINE
  5
1F2
330
1F
100
AcDbEntity
  8
0
  6
Continuous
 62
     7
370
    25
100
AcDbSpline
210
0.0
220
0.0
230
1.0
 70
     8
 71
     3
 72
    10
 73
     6
 74
     0
 42
0.00000001
 43
0.00000001
 40
0.0
 40
0.0
 40
0.0
 40
0.0
 40
0.5
 40
0.5
 40
1.0
 40
1.0
 40
1.0
 40
1.0
 10
173.9936632114178
 20
134.2357471223584
 30
0.0
 10
173.9699878169935
 20
134.2357471223584
 30
0.0
 10
173.9568967071088
 20
134.2129546730287
 30
0.0
 10
173.9568103858205
 20
134.1250119689356
 30
0.0
 10
173.9699793197644
 20
134.0601541952617
 30
0.0
 10
173.9936632114178
 20
133.9857471223584
 30
0.0
  0
SPLINE
  5
1F3
330
1F
100
AcDbEntity
  8
0
  6
Continuous
 62
     7
370
    25
100
AcDbSpline
210
0.0
220
0.0
230
1.0
 70
    24
 71
     3
 72
    10
 73
     6
 74
     0
 42
0.00000001
 43
0.00000001
 40
0.0
 40
0.0
 40
0.0
 40
0.0
 40
0.2577159708158537
 40
0.627080255709052
 40
1.0
 40
1.0
 40
1.0
 40
1.0
 10
174.6677781685656
 20
134.2357471223584
 30
0.0
 10
174.6591744955504
 20
134.2357471223584
 30
0.0
 10
174.6382398462254
 20
134.2357471223584
 30
0.0
 10
174.4192694320045
 20
134.2357471223584
 30
0.0
 10
174.1359842532981
 20
134.2357471223584
 30
0.0
 10
173.9936632114178
 20
134.2357471223584
 30
0.0
  0
LINE
  5
1F4
330
1F
100
AcDbEntity
  8
0
  6
Continuous
 62
     7
370
    25
100
AcDbLine
 10
174.815722184
 20
133.9857471224
 30
0.0
 11
174.815722184
 21
130.037145232
 31
0.0
  0
LINE
  5
1F5
330
1F
100
AcDbEntity
  8
0
  6
Continuous
 62
     7
370
    25
100
AcDbLine
 10
174.815722184
 20
121.4343490127
 30
0.0
 11
174.815722184
 21
117.4857471224
 31
0.0
  0
SPLINE
  5
1F6
330
1F
100
AcDbEntity
  8
0
  6
Continuous
 62
     7
370
    25
100
AcDbSpline
210
0.0
220
0.0
230
1.0
 70
     8
 71
     3
 72
    10
 73
     6
 74
     0
 42
0.00000001
 43
0.00000001
 40
0.0
 40
0.0
 40
0.0
 40
0.0
 40
0.5
 40
0.5
 40
1.0
 40
1.0
 40
1.0
 40
1.0
 10
151.9934435892356
 20
125.9857471223584
 30
0.0
 10
152.0171171937267
 20
125.9113723683684
 30
0.0
 10
152.03020996952
 20
125.8242786368025
 30
0.0
 10
152.030296537621
 20
125.648112808258
 30
0.0
 10
152.0171267134976
 20
125.5601517843677
 30
0.0
 10
151.9934435892356
 20
125.4857471223584
 30
0.0
  0
SPLINE
  5
1F7
330
1F
100
AcDbEntity
  8
0
  6
Continuous
 62
     7
370
    25
100
AcDbSpline
210
0.0
220
0.0
230
1.0
 70
     8
 71
     3
 72
    12
 73
     8
 74
     0
 42
0.00000001
 43
0.00000001
 40
0.0
 40
0.0
 40
0.0
 40
0.0
 40
0.2499999999999999
 40
0.2499999999999999
 40
0.5
 40
0.5
 40
1.0
 40
1.0
 40
1.0
 40
1.0
 10
151.3157221839755
 20
121.4857471223584
 30
0.0
 10
151.3157221839755
 20
121.8235030573812
 30
0.0
 10
151.3314685139974
 20
122.1639110722597
 30
0.0
 10
151.3929135385828
 20
122.8384057566601
 30
0.0
 10
151.4385022978365
 20
123.1735310755274
 30
0.0
 10
151.6149533000932
 20
124.1732423938675
 30
0.0
 10
151.7854110020567
 20
124.8321764969328
 30
0.0
 10
151.9934435892355
 20
125.4857471223585
 30
0.0
  0
LINE
  5
1F8
330
1F
100
AcDbEntity
  8
0
  6
Continuous
 62
     7
370
    25
100
AcDbLine
 10
151.315722184
 20
129.9857471224
 30
0.0
 11
151.315722184
 21
121.4857471224
 31
0.0
  0
SPLINE
  5
1F9
330
1F
100
AcDbEntity
  8
0
  6
Continuous
 62
     7
370
    25
100
AcDbSpline
210
0.0
220
0.0
230
1.0
 70
     8
 71
     3
 72
    10
 73
     6
 74
     0
 42
0.00000001
 43
0.00000001
 40
0.0
 40
0.0
 40
0.0
 40
0.0
 40
0.5
 40
0.5
 40
1.0
 40
1.0
 40
1.0
 40
1.0
 10
151.9934435892352
 20
125.9857471223584
 30
0.0
 10
151.7846336645689
 20
126.6417598889635
 30
0.0
 10
151.6140995248217
 20
127.3020267958212
 30
0.0
 10
151.3793137198027
 20
128.6343733144562
 30
0.0
 10
151.3157221839755
 20
129.3065262959435
 30
0.0
 10
151.3157221839755
 20
129.9857471223584
 30
0.0
  0
SPLINE
  5
1FA
330
1F
100
AcDbEntity
  8
0
  6
Continuous
 62
     7
370
    25
100
AcDbSpline
210
0.0
220
0.0
230
1.0
 70
     8
 71
     3
 72
     9
 73
     5
 74
     0
 42
0.00000001
 43
0.00000001
 40
0.0
 40
0.0
 40
0.0
 40
0.0
 40
0.3141709106995553
 40
1.0
 40
1.0
 40
1.0
 40
1.0
 10
168.9275831106382
 20
131.2772880204081
 30
0.0
 10
168.9524791306472
 20
131.5656067653428
 30
0.0
 10
169.0317226861805
 20
132.4833198161557
 30
0.0
 10
169.3056062642879
 20
133.3745295572488
 30
0.0
 10
169.4934435892357
 20
133.9857471223584
 30
0.0
  0
LINE
  5
1FB
330
1F
100
AcDbEntity
  8
0
  6
Continuous
 62
     7
370
    25
100
AcDbLine
 10
173.9936632114
 20
133.9857471224
 30
0.0
 11
169.4934435892
 21
133.9857471224
 31
0.0
  0
SPLINE
  5
1FC
330
1F
100
AcDbEntity
  8
0
  6
Continuous
 62
     7
370
    25
100
AcDbSpline
210
0.0
220
0.0
230
1.0
 70
     8
 71
     3
 72
    12
 73
     8
 74
     0
 42
0.00000001
 43
0.00000001
 40
0.0
 40
0.0
 40
0.0
 40
0.0
 40
0.2500000000000001
 40
0.2500000000000001
 40
0.5000000000000002
 40
0.5000000000000002
 40
1.0
 40
1.0
 40
1.0
 40
1.0
 10
151.3157221839755
 20
129.9857471223584
 30
0.0
 10
151.3157221839755
 20
130.3235030573812
 30
0.0
 10
151.3314685139974
 20
130.6639110722597
 30
0.0
 10
151.3929135385828
 20
131.3384057566601
 30
0.0
 10
151.4385022978365
 20
131.6735310755274
 30
0.0
 10
151.6149533000932
 20
132.6732423938675
 30
0.0
 10
151.7854110020567
 20
133.3321764969328
 30
0.0
 10
151.9934435892355
 20
133.9857471223585
 30
0.0
  0
LINE
  5
1FD
330
1F
100
AcDbEntity
  8
0
  6
Continuous
 62
     7
370
    25
100
AcDbLine
 10
156.1380007787
 20
133.9857471224
 30
0.0
 11
151.9934435892
 21
133.9857471224
 31
0.0
  0
SPLINE
  5
1FE
330
1F
100
AcDbEntity
  8
0
  6
Continuous
 62
     7
370
    25
100
AcDbSpline
210
0.0
220
0.0
230
1.0
 70
     8
 71
     3
 72
    10
 73
     6
 74
     0
 42
0.00000001
 43
0.00000001
 40
0.0
 40
0.0
 40
0.0
 40
0.0
 40
0.5149297067660159
 40
0.7769667506545589
 40
1.0
 40
1.0
 40
1.0
 40
1.0
 10
156.1380007787153
 20
133.9857471223585
 30
0.0
 10
156.3228431463226
 20
133.3347419222949
 30
0.0
 10
156.6017479596516
 20
132.3524536831305
 30
0.0
 10
156.7813503515894
 20
131.058563102611
 30
0.0
 10
156.8000743033799
 20
130.4277187976847
 30
0.0
 10
156.808683496453
 20
130.1376592802882
 30
0.0
  0
SPLINE
  5
1FF
330
1F
100
AcDbEntity
  8
0
  6
Continuous
 62
     7
370
    25
100
AcDbSpline
210
0.0
220
0.0
230
1.0
 70
     8
 71
     3
 72
    12
 73
     8
 74
     0
 42
0.00000001
 43
0.00000001
 40
0.0
 40
0.0
 40
0.0
 40
0.0
 40
0.2500000000000001
 40
0.2500000000000001
 40
0.5000000000000002
 40
0.5000000000000002
 40
1.0
 40
1.0
 40
1.0
 40
1.0
 10
156.8157221839755
 20
121.4857471223584
 30
0.0
 10
156.8157221839755
 20
121.1467115778626
 30
0.0
 10
156.7998792478865
 20
120.8060750185923
 30
0.0
 10
156.7383763876488
 20
120.1318426710874
 30
0.0
 10
156.6927727466052
 20
119.7968570596242
 30
0.0
 10
156.5163217291159
 20
118.797586630485
 30
0.0
 10
156.3459243618641
 20
118.1389752926281
 30
0.0
 10
156.1380007787153
 20
117.4857471223584
 30
0.0
  0
LINE
  5
200
330
1F
100
AcDbEntity
  8
0
  6
Continuous
 62
     7
370
    25
100
AcDbLine
 10
151.9934435892
 20
117.4857471224
 30
0.0
 11
156.1380007787
 21
117.4857471224
 31
0.0
  0
SPLINE
  5
201
330
1F
100
AcDbEntity
  8
0
  6
Continuous
 62
     7
370
    25
100
AcDbSpline
210
0.0
220
0.0
230
1.0
 70
     8
 71
     3
 72
    10
 73
     6
 74
     0
 42
0.00000001
 43
0.00000001
 40
0.0
 40
0.0
 40
0.0
 40
0.0
 40
0.5
 40
0.5
 40
1.0
 40
1.0
 40
1.0
 40
1.0
 10
151.9934435892352
 20
117.4857471223584
 30
0.0
 10
151.7846336645689
 20
118.1417598889635
 30
0.0
 10
151.6140995248217
 20
118.8020267958212
 30
0.0
 10
151.3793137198027
 20
120.1343733144562
 30
0.0
 10
151.3157221839754
 20
120.8065262959436
 30
0.0
 10
151.3157221839755
 20
121.4857471223584
 30
0.0
  0
LINE
  5
202
330
1F
100
AcDbEntity
  8
0
  6
Continuous
 62
     7
370
    25
100
AcDbLine
 10
169.4934435892
 20
117.4857471224
 30
0.0
 11
173.9936632114
 21
117.4857471224
 31
0.0
  0
SPLINE
  5
203
330
1F
100
AcDbEntity
  8
0
  6
Continuous
 62
     7
370
    25
100
AcDbSpline
210
0.0
220
0.0
230
1.0
 70
     8
 71
     3
 72
     9
 73
     5
 74
     0
 42
0.00000001
 43
0.00000001
 40
0.0
 40
0.0
 40
0.0
 40
0.0
 40
0.7361311907829643
 40
1.0
 40
1.0
 40
1.0
 40
1.0
 10
169.4934435892357
 20
117.4857471223584
 30
0.0
 10
169.3015297640274
 20
118.1361527885076
 30
0.0
 10
169.0408237545398
 20
119.0196986486654
 30
0.0
 10
168.9322248908597
 20
119.9252239304261
 30
0.0
 10
168.9035690380181
 20
120.1641638082402
 30
0.0
  0
LINE
  5
204
330
1F
100
AcDbEntity
  8
0
  6
Continuous
 62
     7
370
    25
100
AcDbLine
 10
168.815722184
 20
120.1909315184
 30
0.0
 11
168.815722184
 21
118.2357471224
 31
0.0
  0
LINE
  5
205
330
1F
100
AcDbEntity
  8
0
  6
Continuous
 62
     7
370
    25
100
AcDbLine
 10
168.815722184
 20
118.2357471224
 30
0.0
 11
156.815722184
 21
118.2357471224
 31
0.0
  0
LINE
  5
206
330
1F
100
AcDbEntity
  8
0
  6
Continuous
 62
     7
370
    25
100
AcDbLine
 10
156.815722184
 20
121.319583629
 30
0.0
 11
156.815722184
 21
118.2357471224
 31
0.0
  0
LINE
  5
207
330
1F
100
AcDbEntity
  8
0
  6
Continuous
 62
     7
370
    25
100
AcDbLine
 10
156.815722184
 20
133.2357471224
 30
0.0
 11
156.815722184
 21
130.1519106157
 31
0.0
  0
LINE
  5
208
330
1F
100
AcDbEntity
  8
0
  6
Continuous
 62
     7
370
    25
100
AcDbLine
 10
156.815722184
 20
133.2357471224
 30
0.0
 11
168.815722184
 21
133.2357471224
 31
0.0
  0
LINE
  5
209
330
1F
100
AcDbEntity
  8
0
  6
Continuous
 62
     7
370
    25
100
AcDbLine
 10
168.815722184
 20
133.2357471224
 30
0.0
 11
168.815722184
 21
131.2805627263
 31
0.0
  0
SPLINE
  5
20A
330
1F
100
AcDbEntity
  8
0
  6
Continuous
 62
     7
370
    25
100
AcDbSpline
210
0.0
220
0.0
230
1.0
 70
     8
 71
     3
 72
     8
 73
     4
 74
     0
 42
0.00000001
 43
0.00000001
 40
0.0
 40
0.0
 40
0.0
 40
0.0
 40
1.0
 40
1.0
 40
1.0
 40
1.0
 10
156.2994861069963
 20
134.2357471223584
 30
0.0
 10
156.473189183216
 20
133.903235700223
 30
0.0
 10
156.6454914022787
 20
133.5699086003241
 30
0.0
 10
156.8157221839754
 20
133.2357471223584
 30
0.0
  0
SPLINE
  5
20B
330
1F
100
AcDbEntity
  8
0
  6
Continuous
 62
     7
370
    25
100
AcDbSpline
210
0.0
220
0.0
230
1.0
 70
     8
 71
     3
 72
    10
 73
     6
 74
     0
 42
0.00000001
 43
0.00000001
 40
0.0
 40
0.0
 40
0.0
 40
0.0
 40
0.5
 40
0.5
 40
1.0
 40
1.0
 40
1.0
 40
1.0
 10
156.1380007787209
 20
134.2357471223584
 30
0.0
 10
156.1143253842966
 20
134.2357471223584
 30
0.0
 10
156.1012342744063
 20
134.212954673029
 30
0.0
 10
156.1011479531179
 20
134.1250119689359
 30
0.0
 10
156.1143168870617
 20
134.0601541952619
 30
0.0
 10
156.1380007787152
 20
133.9857471223585
 30
0.0
  0
SPLINE
  5
20C
330
1F
100
AcDbEntity
  8
0
  6
Continuous
 62
     7
370
    25
100
AcDbSpline
210
0.0
220
0.0
230
1.0
 70
    24
 71
     3
 72
     8
 73
     4
 74
     0
 42
0.00000001
 43
0.00000001
 40
0.0
 40
0.0
 40
0.0
 40
0.0
 40
1.0
 40
1.0
 40
1.0
 40
1.0
 10
156.2994861069963
 20
134.2357471223584
 30
0.0
 10
156.2485873900739
 20
134.2357471223584
 30
0.0
 10
156.1946532538232
 20
134.2357471223584
 30
0.0
 10
156.1380007787157
 20
134.2357471223584
 30
0.0
  0
SPLINE
  5
20D
330
1F
100
AcDbEntity
  8
0
  6
Continuous
 62
     7
370
    25
100
AcDbSpline
210
0.0
220
0.0
230
1.0
 70
     8
 71
     3
 72
     8
 73
     4
 74
     0
 42
0.00000001
 43
0.00000001
 40
0.0
 40
0.0
 40
0.0
 40
0.0
 40
1.0
 40
1.0
 40
1.0
 40
1.0
 10
168.8157221839755
 20
133.2357471223584
 30
0.0
 10
168.9859997913192
 20
133.5700005186438
 30
0.0
 10
169.1582715399448
 20
133.9032670082127
 30
0.0
 10
169.3319582609545
 20
134.2357471223582
 30
0.0
  0
SPLINE
  5
20E
330
1F
100
AcDbEntity
  8
0
  6
Continuous
 62
     7
370
    25
100
AcDbSpline
210
0.0
220
0.0
230
1.0
 70
    24
 71
     3
 72
     8
 73
     4
 74
     0
 42
0.00000001
 43
0.00000001
 40
0.0
 40
0.0
 40
0.0
 40
0.0
 40
1.0
 40
1.0
 40
1.0
 40
1.0
 10
169.3319582609541
 20
134.2357471223584
 30
0.0
 10
169.3828544942093
 20
134.2357471223584
 30
0.0
 10
169.4367884491732
 20
134.2357471223584
 30
0.0
 10
169.4934435892357
 20
134.2357471223584
 30
0.0
  0
SPLINE
  5
20F
330
1F
100
AcDbEntity
  8
0
  6
Continuous
 62
     7
370
    25
100
AcDbSpline
210
0.0
220
0.0
230
1.0
 70
     8
 71
     3
 72
    10
 73
     6
 74
     0
 42
0.00000001
 43
0.00000001
 40
0.0
 40
0.0
 40
0.0
 40
0.0
 40
0.5
 40
0.5
 40
1.0
 40
1.0
 40
1.0
 40
1.0
 10
169.4934435892357
 20
133.9857471223584
 30
0.0
 10
169.51711898366
 20
134.0601274997358
 30
0.0
 10
169.5302100935447
 20
134.1244281385216
 30
0.0
 10
169.5302964148329
 20
134.2126438233045
 30
0.0
 10
169.5171274808891
 20
134.2357471223584
 30
0.0
 10
169.4934435892357
 20
134.2357471223584
 30
0.0
  0
SPLINE
  5
210
330
1F
100
AcDbEntity
  8
0
  6
Continuous
 62
     7
370
    25
100
AcDbSpline
210
0.0
220
0.0
230
1.0
 70
     8
 71
     3
 72
    10
 73
     6
 74
     0
 42
0.00000001
 43
0.00000001
 40
0.0
 40
0.0
 40
0.0
 40
0.0
 40
0.5
 40
0.5
 40
1.0
 40
1.0
 40
1.0
 40
1.0
 10
151.9934435892356
 20
134.2357471223584
 30
0.0
 10
152.0171174897916
 20
134.2357471223584
 30
0.0
 10
152.0302100469707
 20
134.212956550711
 30
0.0
 10
152.030296460953
 20
134.1250105534122
 30
0.0
 10
152.0171260693544
 20
134.0601497606794
 30
0.0
 10
151.9934435892356
 20
133.9857471223584
 30
0.0
  0
SPLINE
  5
211
330
1F
100
AcDbEntity
  8
0
  6
Continuous
 62
     7
370
    25
100
AcDbSpline
210
0.0
220
0.0
230
1.0
 70
    24
 71
     3
 72
    12
 73
     8
 74
     0
 42
0.00000001
 43
0.00000001
 40
0.0
 40
0.0
 40
0.0
 40
0.0
 40
0.2499999999999999
 40
0.2499999999999999
 40
0.4999999999999998
 40
0.4999999999999998
 40
1.0
 40
1.0
 40
1.0
 40
1.0
 10
151.3157221839755
 20
134.2357471223584
 30
0.0
 10
151.3157221839755
 20
134.2357471223584
 30
0.0
 10
151.3317209889565
 20
134.2357471223584
 30
0.0
 10
151.3934911272709
 20
134.2357471223584
 30
0.0
 10
151.4392332515725
 20
134.2357471223584
 30
0.0
 10
151.6159033989193
 20
134.2357471223584
 30
0.0
 10
151.7861584643996
 20
134.2357471223584
 30
0.0
 10
151.9934435892356
 20
134.2357471223584
 30
0.0
  0
LINE
  5
212
330
1F
100
AcDbEntity
  8
0
  6
Continuous
 62
     7
370
    25
100
AcDbLine
 10
151.315722184
 20
134.2357471224
 30
0.0
 11
151.315722184
 21
129.9857471224
 31
0.0
  0
SPLINE
  5
213
330
1F
100
AcDbEntity
  8
0
  6
Continuous
 62
     7
370
    25
100
AcDbSpline
210
0.0
220
0.0
230
1.0
 70
     8
 71
     3
 72
     8
 73
     4
 74
     0
 42
0.00000001
 43
0.00000001
 40
0.0
 40
0.0
 40
0.0
 40
0.0
 40
1.0
 40
1.0
 40
1.0
 40
1.0
 10
156.8157221839754
 20
118.2357471223584
 30
0.0
 10
156.6454445766317
 20
117.901493726073
 30
0.0
 10
156.473172828006
 20
117.568227236504
 30
0.0
 10
156.2994861069963
 20
117.2357471223584
 30
0.0
  0
SPLINE
  5
214
330
1F
100
AcDbEntity
  8
0
  6
Continuous
 62
     7
370
    25
100
AcDbSpline
210
0.0
220
0.0
230
1.0
 70
    24
 71
     3
 72
     8
 73
     4
 74
     0
 42
0.00000001
 43
0.00000001
 40
0.0
 40
0.0
 40
0.0
 40
0.0
 40
1.0
 40
1.0
 40
1.0
 40
1.0
 10
156.2994861069963
 20
117.2357471223584
 30
0.0
 10
156.2485873900737
 20
117.2357471223584
 30
0.0
 10
156.194653253823
 20
117.2357471223584
 30
0.0
 10
156.1380007787153
 20
117.2357471223584
 30
0.0
  0
SPLINE
  5
215
330
1F
100
AcDbEntity
  8
0
  6
Continuous
 62
     7
370
    25
100
AcDbSpline
210
0.0
220
0.0
230
1.0
 70
     8
 71
     3
 72
    10
 73
     6
 74
     0
 42
0.00000001
 43
0.00000001
 40
0.0
 40
0.0
 40
0.0
 40
0.0
 40
0.5
 40
0.5
 40
1.0
 40
1.0
 40
1.0
 40
1.0
 10
156.1380007787153
 20
117.4857471223584
 30
0.0
 10
156.1143253842909
 20
117.4113667449811
 30
0.0
 10
156.1012342744062
 20
117.3470661061953
 30
0.0
 10
156.1011479531179
 20
117.2588504214124
 30
0.0
 10
156.1143168870618
 20
117.2357471223584
 30
0.0
 10
156.1380007787153
 20
117.2357471223584
 30
0.0
  0
SPLINE
  5
216
330
1F
100
AcDbEntity
  8
0
  6
Continuous
 62
     7
370
    25
100
AcDbSpline
210
0.0
220
0.0
230
1.0
 70
     8
 71
     3
 72
     8
 73
     4
 74
     0
 42
0.00000001
 43
0.00000001
 40
0.0
 40
0.0
 40
0.0
 40
0.0
 40
1.0
 40
1.0
 40
1.0
 40
1.0
 10
169.3319582609546
 20
117.2357471223584
 30
0.0
 10
169.1582551847349
 20
117.5682585444939
 30
0.0
 10
168.9859529656721
 20
117.9015856443928
 30
0.0
 10
168.8157221839755
 20
118.2357471223584
 30
0.0
  0
SPLINE
  5
217
330
1F
100
AcDbEntity
  8
0
  6
Continuous
 62
     7
370
    25
100
AcDbSpline
210
0.0
220
0.0
230
1.0
 70
     8
 71
     3
 72
    10
 73
     6
 74
     0
 42
0.00000001
 43
0.00000001
 40
0.0
 40
0.0
 40
0.0
 40
0.0
 40
0.5
 40
0.5
 40
1.0
 40
1.0
 40
1.0
 40
1.0
 10
169.4934435892357
 20
117.2357471223584
 30
0.0
 10
169.51711898366
 20
117.2357471223584
 30
0.0
 10
169.5302100935447
 20
117.2585395716882
 30
0.0
 10
169.5302964148329
 20
117.3464822757813
 30
0.0
 10
169.5171274808891
 20
117.4113400494551
 30
0.0
 10
169.4934435892357
 20
117.4857471223584
 30
0.0
  0
SPLINE
  5
218
330
1F
100
AcDbEntity
  8
0
  6
Continuous
 62
     7
370
    25
100
AcDbSpline
210
0.0
220
0.0
230
1.0
 70
    24
 71
     3
 72
     8
 73
     4
 74
     0
 42
0.00000001
 43
0.00000001
 40
0.0
 40
0.0
 40
0.0
 40
0.0
 40
1.0
 40
1.0
 40
1.0
 40
1.0
 10
169.3319582609547
 20
117.2357471223584
 30
0.0
 10
169.3828544942097
 20
117.2357471223584
 30
0.0
 10
169.4367884491734
 20
117.2357471223584
 30
0.0
 10
169.4934435892357
 20
117.2357471223584
 30
0.0
  0
SPLINE
  5
219
330
1F
100
AcDbEntity
  8
0
  6
Continuous
 62
     7
370
    25
100
AcDbSpline
210
0.0
220
0.0
230
1.0
 70
     8
 71
     3
 72
    10
 73
     6
 74
     0
 42
0.00000001
 43
0.00000001
 40
0.0
 40
0.0
 40
0.0
 40
0.0
 40
0.5
 40
0.5
 40
1.0
 40
1.0
 40
1.0
 40
1.0
 10
151.9934435892356
 20
117.4857471223584
 30
0.0
 10
152.0171158291472
 20
117.4113766554329
 30
0.0
 10
152.0302098190825
 20
117.347071059145
 30
0.0
 10
152.0302966865439
 20
117.2588482713392
 30
0.0
 10
152.0171268967845
 20
117.2357471223584
 30
0.0
 10
151.9934435892356
 20
117.2357471223584
 30
0.0
  0
SPLINE
  5
21A
330
1F
100
AcDbEntity
  8
0
  6
Continuous
 62
     7
370
    25
100
AcDbSpline
210
0.0
220
0.0
230
1.0
 70
    24
 71
     3
 72
    12
 73
     8
 74
     0
 42
0.00000001
 43
0.00000001
 40
0.0
 40
0.0
 40
0.0
 40
0.0
 40
0.2500000000000001
 40
0.2500000000000001
 40
0.5000000000000001
 40
0.5000000000000001
 40
1.0
 40
1.0
 40
1.0
 40
1.0
 10
151.3157221839755
 20
117.2357471223584
 30
0.0
 10
151.3157221839755
 20
117.2357471223584
 30
0.0
 10
151.3317209889565
 20
117.2357471223584
 30
0.0
 10
151.3934911272709
 20
117.2357471223584
 30
0.0
 10
151.4392332515725
 20
117.2357471223584
 30
0.0
 10
151.6159033989193
 20
117.2357471223584
 30
0.0
 10
151.7861584643996
 20
117.2357471223584
 30
0.0
 10
151.9934435892356
 20
117.2357471223584
 30
0.0
  0
LINE
  5
21B
330
1F
100
AcDbEntity
  8
0
  6
Continuous
 62
     7
370
    25
100
AcDbLine
 10
151.315722184
 20
117.2357471224
 30
0.0
 11
151.315722184
 21
121.4857471224
 31
0.0
  0
LINE
  5
21C
330
1F
100
AcDbEntity
  8
0
  6
Continuous
 62
     7
370
    25
100
AcDbLine
 10
169.4934435892
 20
134.2357471224
 30
0.0
 11
173.9936632114
 21
134.2357471224
 31
0.0
  0
LINE
  5
21D
330
1F
100
AcDbEntity
  8
0
  6
Continuous
 62
     7
370
    25
100
AcDbLine
 10
151.9934435892
 20
134.2357471224
 30
0.0
 11
156.1380007787
 21
134.2357471224
 31
0.0
  0
LINE
  5
21E
330
1F
100
AcDbEntity
  8
0
  6
Continuous
 62
     7
370
    25
100
AcDbLine
 10
173.9936632114
 20
117.2357471224
 30
0.0
 11
169.4934435892
 21
117.2357471224
 31
0.0
  0
LINE
  5
21F
330
1F
100
AcDbEntity
  8
0
  6
Continuous
 62
     7
370
    25
100
AcDbLine
 10
156.1380007787
 20
117.2357471224
 30
0.0
 11
151.9934435892
 21
117.2357471224
 31
0.0
  0
LINE
  5
220
330
1F
100
AcDbEntity
  8
0
  6
Continuous
 62
     7
370
    25
100
AcDbLine
 10
169.331958261
 20
134.2357471224
 30
0.0
 11
156.299486107
 21
134.2357471224
 31
0.0
  0
LINE
  5
221
330
1F
100
AcDbEntity
  8
0
  6
Continuous
 62
     7
370
    25
100
AcDbLine
 10
169.331958261
 20
117.2357471224
 30
0.0
 11
156.299486107
 21
117.2357471224
 31
0.0
  0
SPLINE
  5
222
330
1F
100
AcDbEntity
  8
0
  6
Continuous
 62
     7
370
    25
100
AcDbSpline
210
0.0
220
0.0
230
1.0
 70
     8
 71
     3
 72
    15
 73
    11
 74
     0
 42
0.00000001
 43
0.00000001
 40
0.0
 40
0.0
 40
0.0
 40
0.0
 40
0.0081667445812695
 40
0.3321939991490083
 40
0.4756279600585602
 40
0.6866830973284899
 40
0.8457435502264811
 40
0.8967566214763185
 40
0.9909540928118029
 40
1.0
 40
1.0
 40
1.0
 40
1.0
 10
167.9147416975682
 20
126.9857471223584
 30
0.0
 10
167.9152292317111
 20
126.9871845852975
 30
0.0
 10
167.9350603792432
 20
127.0456554432492
 30
0.0
 10
167.9633411592525
 20
127.1300806209687
 30
0.0
 10
168.0011704577413
 20
127.2446596929911
 30
0.0
 10
168.0277543543088
 20
127.3260305801877
 30
0.0
 10
168.0449241780638
 20
127.3790495721894
 30
0.0
 10
168.0527411742802
 20
127.4032515040335
 30
0.0
 10
168.0547368607161
 20
127.4094411246997
 30
0.0
 10
168.0548018246669
 20
127.4096425201122
 30
0.0
 10
168.0548075166336
 20
127.4096601658367
 30
0.0
  0
ARC
  5
223
330
1F
100
AcDbEntity
  8
0
  6
Continuous
 62
     7
370
    25
100
AcDbCircle
 10
162.815722184
 20
125.7357471224
 30
0.0
 40
5.250000000000009
100
AcDbArc
 50
13.774146998
 51
166.225853002
  0
SPLINE
  5
224
330
1F
100
AcDbEntity
  8
0
  6
Continuous
 62
     7
370
    25
100
AcDbSpline
210
0.0
220
0.0
230
1.0
 70
     8
 71
     3
 72
    15
 73
    11
 74
     0
 42
0.00000001
 43
0.00000001
 40
0.0
 40
0.0
 40
0.0
 40
0.0
 40
0.0090459071881971
 40
0.1032433785236874
 40
0.1542564497735246
 40
0.313316902671511
 40
0.5243720399414428
 40
0.6678060008509903
 40
0.9918332554187292
 40
1.0
 40
1.0
 40
1.0
 40
1.0
 10
157.5766368513173
 20
127.4096601658367
 30
0.0
 10
157.576642543284
 20
127.4096425201122
 30
0.0
 10
157.5767075072348
 20
127.4094411246997
 30
0.0
 10
157.5787031936707
 20
127.4032515040335
 30
0.0
 10
157.5865201898872
 20
127.3790495721893
 30
0.0
 10
157.6036900136421
 20
127.3260305801877
 30
0.0
 10
157.6302739102096
 20
127.2446596929911
 30
0.0
 10
157.6681032086985
 20
127.1300806209687
 30
0.0
 10
157.6963839887077
 20
127.0456554432492
 30
0.0
 10
157.7162151362398
 20
126.9871845852975
 30
0.0
 10
157.7167026703827
 20
126.9857471223584
 30
0.0
  0
ARC
  5
225
330
1F
100
AcDbEntity
  8
0
  6
Continuous
 62
     7
370
    25
100
AcDbCircle
 10
162.815722184
 20
125.7357471224
 30
0.0
 40
5.500000000000002
100
AcDbArc
 50
17.7189318734
 51
162.2810681266
  0
ARC
  5
226
330
1F
100
AcDbEntity
  8
0
  6
Continuous
 62
     7
370
    25
100
AcDbCircle
 10
157.3384966089
 20
127.4857471224
 30
0.0
 40
0.25
100
AcDbArc
 50
270.0
 51
342.2810681266
  0
SPLINE
  5
227
330
1F
100
AcDbEntity
  8
0
  6
Continuous
 62
     7
370
    25
100
AcDbSpline
210
0.0
220
0.0
230
1.0
 70
     8
 71
     3
 72
    15
 73
    11
 74
     0
 42
0.00000001
 43
0.00000001
 40
0.0
 40
0.0
 40
0.0
 40
0.0
 40
0.0080847466189818
 40
0.3310106400647567
 40
0.4750333064304972
 40
0.6874363079215137
 40
0.8468367539418253
 40
0.9000996640391794
 40
0.9910442771984082
 40
1.0
 40
1.0
 40
1.0
 40
1.0
 10
157.7167026703827
 20
126.9857471223584
 30
0.0
 10
157.7154228388385
 20
126.9865630583467
 30
0.0
 10
157.6630231931147
 20
127.0199696085403
 30
0.0
 10
157.5876681016603
 20
127.0687831732752
 30
0.0
 10
157.4857489896425
 20
127.1361536455434
 30
0.0
 10
157.4133580446506
 20
127.1847376858869
 30
0.0
 10
157.3656526163858
 20
127.2171865473454
 30
0.0
 10
157.3441171326785
 20
127.2318975884117
 30
0.0
 10
157.3386881166589
 20
127.2356160393298
 30
0.0
 10
157.3385123645024
 20
127.2357363379953
 30
0.0
 10
157.3384966089238
 20
127.2357471223584
 30
0.0
  0
SPLINE
  5
228
330
1F
100
AcDbEntity
  8
0
  6
Continuous
 62
     7
370
    25
100
AcDbSpline
210
0.0
220
0.0
230
1.0
 70
     8
 71
     3
 72
    15
 73
    11
 74
     0
 42
0.00000001
 43
0.00000001
 40
0.0
 40
0.0
 40
0.0
 40
0.0
 40
0.0090459071881971
 40
0.1032433785236816
 40
0.1542564497735189
 40
0.31331690267151
 40
0.5243720399414428
 40
0.6678060008509183
 40
0.9918332554187028
 40
1.0
 40
1.0
 40
1.0
 40
1.0
 10
168.0548075166336
 20
124.0618340788802
 30
0.0
 10
168.0548018246669
 20
124.0618517246047
 30
0.0
 10
168.0547368607161
 20
124.0620531200172
 30
0.0
 10
168.0527411742802
 20
124.0682427406834
 30
0.0
 10
168.0449241780638
 20
124.0924446725275
 30
0.0
 10
168.0277543543088
 20
124.1454636645292
 30
0.0
 10
168.0011704577413
 20
124.2268345517258
 30
0.0
 10
167.9633411592526
 20
124.3414136237483
 30
0.0
 10
167.9350603792424
 20
124.4258388014674
 30
0.0
 10
167.9152292317111
 20
124.4843096594194
 30
0.0
 10
167.9147416975682
 20
124.4857471223584
 30
0.0
  0
SPLINE
  5
229
330
1F
100
AcDbEntity
  8
0
  6
Continuous
 62
     7
370
    25
100
AcDbSpline
210
0.0
220
0.0
230
1.0
 70
     8
 71
     3
 72
    15
 73
    11
 74
     0
 42
0.00000001
 43
0.00000001
 40
0.0
 40
0.0
 40
0.0
 40
0.0
 40
0.0080847466189582
 40
0.3310106400648243
 40
0.4750333064304948
 40
0.6874363079215142
 40
0.8468367539418303
 40
0.9000996640391847
 40
0.9910442771984082
 40
1.0
 40
1.0
 40
1.0
 40
1.0
 10
167.9147416975682
 20
124.4857471223584
 30
0.0
 10
167.9160215291124
 20
124.4849311863702
 30
0.0
 10
167.9684211748356
 20
124.4515246361756
 30
0.0
 10
168.0437762662907
 20
124.4027110714418
 30
0.0
 10
168.1456953783084
 20
124.3353405991735
 30
0.0
 10
168.2180863233003
 20
124.28675655883
 30
0.0
 10
168.2657917515651
 20
124.2543076973715
 30
0.0
 10
168.2873272352724
 20
124.2395966563052
 30
0.0
 10
168.2927562512919
 20
124.2358782053871
 30
0.0
 10
168.2929320034485
 20
124.2357579067216
 30
0.0
 10
168.2929477590271
 20
124.2357471223584
 30
0.0
  0
ARC
  5
22A
330
1F
100
AcDbEntity
  8
0
  6
Continuous
 62
     7
370
    25
100
AcDbCircle
 10
168.292947759
 20
123.9857471224
 30
0.0
 40
0.2500000000000213
100
AcDbArc
 50
90.0
 51
162.2810681266
  0
SPLINE
  5
22B
330
1F
100
AcDbEntity
  8
0
  6
Continuous
 62
     7
370
    25
100
AcDbSpline
210
0.0
220
0.0
230
1.0
 70
     8
 71
     3
 72
    15
 73
    11
 74
     0
 42
0.00000001
 43
0.00000001
 40
0.0
 40
0.0
 40
0.0
 40
0.0
 40
0.0089557228015919
 40
0.0999003359608209
 40
0.1531632460581751
 40
0.3125636920784904
 40
0.5249666935695061
 40
0.6689893599351777
 40
0.991915253381045
 40
1.0
 40
1.0
 40
1.0
 40
1.0
 10
157.3384966089238
 20
124.2357471223584
 30
0.0
 10
157.3385123645024
 20
124.2357579067216
 30
0.0
 10
157.338688116659
 20
124.2358782053871
 30
0.0
 10
157.3441171326785
 20
124.2395966563052
 30
0.0
 10
157.3656526163858
 20
124.2543076973715
 30
0.0
 10
157.4133580446506
 20
124.28675655883
 30
0.0
 10
157.4857489896425
 20
124.3353405991735
 30
0.0
 10
157.5876681016602
 20
124.4027110714418
 30
0.0
 10
157.6630231931152
 20
124.4515246361757
 30
0.0
 10
157.7154228388385
 20
124.4849311863702
 30
0.0
 10
157.7167026703827
 20
124.4857471223584
 30
0.0
  0
SPLINE
  5
22C
330
1F
100
AcDbEntity
  8
0
  6
Continuous
 62
     7
370
    25
100
AcDbSpline
210
0.0
220
0.0
230
1.0
 70
     8
 71
     3
 72
    15
 73
    11
 74
     0
 42
0.00000001
 43
0.00000001
 40
0.0
 40
0.0
 40
0.0
 40
0.0
 40
0.0081667445812973
 40
0.3321939991490804
 40
0.475627960058556
 40
0.6866830973284891
 40
0.8457435502264751
 40
0.8967566214763124
 40
0.9909540928118028
 40
1.0
 40
1.0
 40
1.0
 40
1.0
 10
157.7167026703827
 20
124.4857471223584
 30
0.0
 10
157.7162151362398
 20
124.4843096594194
 30
0.0
 10
157.6963839887085
 20
124.4258388014674
 30
0.0
 10
157.6681032086983
 20
124.3414136237483
 30
0.0
 10
157.6302739102096
 20
124.2268345517258
 30
0.0
 10
157.6036900136421
 20
124.1454636645292
 30
0.0
 10
157.5865201898872
 20
124.0924446725275
 30
0.0
 10
157.5787031936707
 20
124.0682427406834
 30
0.0
 10
157.5767075072348
 20
124.0620531200172
 30
0.0
 10
157.576642543284
 20
124.0618517246046
 30
0.0
 10
157.5766368513173
 20
124.0618340788802
 30
0.0
  0
ARC
  5
22D
330
1F
100
AcDbEntity
  8
0
  6
Continuous
 62
     7
370
    25
100
AcDbCircle
 10
157.3384966089
 20
123.9857471224
 30
0.0
 40
0.25
100
AcDbArc
 50
17.7189318734
 51
90.0
  0
ARC
  5
22E
330
1F
100
AcDbEntity
  8
0
  6
Continuous
 62
     7
370
    25
100
AcDbCircle
 10
168.292947759
 20
127.4857471224
 30
0.0
 40
0.2500000000000126
100
AcDbArc
 50
197.7189318734
 51
270.0
  0
SPLINE
  5
22F
330
1F
100
AcDbEntity
  8
0
  6
Continuous
 62
     7
370
    25
100
AcDbSpline
210
0.0
220
0.0
230
1.0
 70
     8
 71
     3
 72
    15
 73
    11
 74
     0
 42
0.00000001
 43
0.00000001
 40
0.0
 40
0.0
 40
0.0
 40
0.0
 40
0.0089557228015919
 40
0.0999003359608148
 40
0.153163246058169
 40
0.3125636920784848
 40
0.5249666935694999
 40
0.6689893599352451
 40
0.9919152533810159
 40
1.0
 40
1.0
 40
1.0
 40
1.0
 10
168.2929477590271
 20
127.2357471223584
 30
0.0
 10
168.2929320034485
 20
127.2357363379953
 30
0.0
 10
168.2927562512919
 20
127.2356160393298
 30
0.0
 10
168.2873272352724
 20
127.2318975884117
 30
0.0
 10
168.2657917515651
 20
127.2171865473454
 30
0.0
 10
168.2180863233003
 20
127.1847376858869
 30
0.0
 10
168.1456953783084
 20
127.1361536455434
 30
0.0
 10
168.0437762662906
 20
127.0687831732752
 30
0.0
 10
167.9684211748361
 20
127.0199696085404
 30
0.0
 10
167.9160215291124
 20
126.9865630583467
 30
0.0
 10
167.9147416975682
 20
126.9857471223584
 30
0.0
  0
ARC
  5
230
330
1F
100
AcDbEntity
  8
0
  6
Continuous
 62
     7
370
    25
100
AcDbCircle
 10
162.815722184
 20
125.7357471224
 30
0.0
 40
5.499999999999989
100
AcDbArc
 50
197.7189318734
 51
342.2810681266
  0
ARC
  5
231
330
1F
100
AcDbEntity
  8
0
  6
Continuous
 62
     7
370
    25
100
AcDbCircle
 10
162.815722184
 20
125.7357471224
 30
0.0
 40
5.250000000000005
100
AcDbArc
 50
193.774146998
 51
346.225853002
  0
LINE
  5
232
330
1F
100
AcDbEntity
  8
0
  6
Continuous
 62
     7
370
    25
100
AcDbLine
 10
157.815722184
 20
125.1357471224
 30
0.0
 11
167.815722184
 21
125.1357471224
 31
0.0
  0
LINE
  5
233
330
1F
100
AcDbEntity
  8
0
  6
Continuous
 62
     7
370
    25
100
AcDbLine
 10
167.815722184
 20
125.1357471224
 30
0.0
 11
167.815722184
 21
126.3357471224
 31
0.0
  0
LINE
  5
234
330
1F
100
AcDbEntity
  8
0
  6
Continuous
 62
     7
370
    25
100
AcDbLine
 10
167.815722184
 20
126.3357471224
 30
0.0
 11
157.815722184
 21
126.3357471224
 31
0.0
  0
LINE
  5
235
330
1F
100
AcDbEntity
  8
0
  6
Continuous
 62
     7
370
    25
100
AcDbLine
 10
157.815722184
 20
126.3357471224
 30
0.0
 11
157.815722184
 21
125.1357471224
 31
0.0
  0
LINE
  5
236
330
1F
100
AcDbEntity
  8
0
  6
Continuous
 62
     7
370
    25
100
AcDbLine
 10
168.565722184
 20
126.9857471224
 30
0.0
 11
167.9147416976
 21
126.9857471224
 31
0.0
  0
LINE
  5
237
330
1F
100
AcDbEntity
  8
0
  6
Continuous
 62
     7
370
    25
100
AcDbLine
 10
168.565722184
 20
124.4857471224
 30
0.0
 11
168.565722184
 21
126.9857471224
 31
0.0
  0
LINE
  5
238
330
1F
100
AcDbEntity
  8
0
  6
Continuous
 62
     7
370
    25
100
AcDbLine
 10
167.9147416976
 20
124.4857471224
 30
0.0
 11
168.565722184
 21
124.4857471224
 31
0.0
  0
LINE
  5
239
330
1F
100
AcDbEntity
  8
0
  6
Continuous
 62
     7
370
    25
100
AcDbLine
 10
157.065722184
 20
124.4857471224
 30
0.0
 11
157.7167026704
 21
124.4857471224
 31
0.0
  0
LINE
  5
23A
330
1F
100
AcDbEntity
  8
0
  6
Continuous
 62
     7
370
    25
100
AcDbLine
 10
157.065722184
 20
126.9857471224
 30
0.0
 11
157.065722184
 21
124.4857471224
 31
0.0
  0
LINE
  5
23B
330
1F
100
AcDbEntity
  8
0
  6
Continuous
 62
     7
370
    25
100
AcDbLine
 10
157.7167026704
 20
126.9857471224
 30
0.0
 11
157.065722184
 21
126.9857471224
 31
0.0
  0
ARC
  5
23C
330
1F
100
AcDbEntity
  8
0
  6
Continuous
 62
     7
370
    25
100
AcDbCircle
 10
168.565722184
 20
126.9857471224
 30
0.0
 40
0.25
100
AcDbArc
 50
0.0
 51
90.0
  0
LINE
  5
23D
330
1F
100
AcDbEntity
  8
0
  6
Continuous
 62
     7
370
    25
100
AcDbLine
 10
168.815722184
 20
126.9857471224
 30
0.0
 11
168.565722184
 21
126.9857471224
 31
0.0
  0
LINE
  5
23E
330
1F
100
AcDbEntity
  8
0
  6
Continuous
 62
     7
370
    25
100
AcDbLine
 10
168.565722184
 20
126.9857471224
 30
0.0
 11
168.565722184
 21
127.2357471224
 31
0.0
  0
LINE
  5
23F
330
1F
100
AcDbEntity
  8
0
  6
Continuous
 62
     7
370
    25
100
AcDbLine
 10
157.065722184
 20
127.2357471224
 30
0.0
 11
157.065722184
 21
126.9857471224
 31
0.0
  0
LINE
  5
240
330
1F
100
AcDbEntity
  8
0
  6
Continuous
 62
     7
370
    25
100
AcDbLine
 10
157.065722184
 20
127.2357471224
 30
0.0
 11
157.3384966089
 21
127.2357471224
 31
0.0
  0
LINE
  5
241
330
1F
100
AcDbEntity
  8
0
  6
Continuous
 62
     7
370
    25
100
AcDbLine
 10
157.065722184
 20
126.9857471224
 30
0.0
 11
156.815722184
 21
126.9857471224
 31
0.0
  0
ARC
  5
242
330
1F
100
AcDbEntity
  8
0
  6
Continuous
 62
     7
370
    25
100
AcDbCircle
 10
157.065722184
 20
126.9857471224
 30
0.0
 40
0.25
100
AcDbArc
 50
90.0
 51
180.0
  0
LINE
  5
243
330
1F
100
AcDbEntity
  8
0
  6
Continuous
 62
     7
370
    25
100
AcDbLine
 10
168.292947759
 20
127.2357471224
 30
0.0
 11
168.565722184
 21
127.2357471224
 31
0.0
  0
LINE
  5
244
330
1F
100
AcDbEntity
  8
0
  6
Continuous
 62
     7
370
    25
100
AcDbLine
 10
168.815722184
 20
126.9857471224
 30
0.0
 11
168.815722184
 21
124.4857471224
 31
0.0
  0
LINE
  5
245
330
1F
100
AcDbEntity
  8
0
  6
Continuous
 62
     7
370
    25
100
AcDbLine
 10
168.565722184
 20
124.4857471224
 30
0.0
 11
168.815722184
 21
124.4857471224
 31
0.0
  0
LINE
  5
246
330
1F
100
AcDbEntity
  8
0
  6
Continuous
 62
     7
370
    25
100
AcDbLine
 10
156.815722184
 20
124.4857471224
 30
0.0
 11
157.065722184
 21
124.4857471224
 31
0.0
  0
LINE
  5
247
330
1F
100
AcDbEntity
  8
0
  6
Continuous
 62
     7
370
    25
100
AcDbLine
 10
156.815722184
 20
124.4857471224
 30
0.0
 11
156.815722184
 21
126.9857471224
 31
0.0
  0
ARC
  5
248
330
1F
100
AcDbEntity
  8
0
  6
Continuous
 62
     7
370
    25
100
AcDbCircle
 10
168.565722184
 20
124.4857471224
 30
0.0
 40
0.25
100
AcDbArc
 50
270.0
 51
0.0
  0
LINE
  5
249
330
1F
100
AcDbEntity
  8
0
  6
Continuous
 62
     7
370
    25
100
AcDbLine
 10
168.565722184
 20
124.2357471224
 30
0.0
 11
168.565722184
 21
124.4857471224
 31
0.0
  0
LINE
  5
24A
330
1F
100
AcDbEntity
  8
0
  6
Continuous
 62
     7
370
    25
100
AcDbLine
 10
157.3384966089
 20
124.2357471224
 30
0.0
 11
157.065722184
 21
124.2357471224
 31
0.0
  0
LINE
  5
24B
330
1F
100
AcDbEntity
  8
0
  6
Continuous
 62
     7
370
    25
100
AcDbLine
 10
157.065722184
 20
124.4857471224
 30
0.0
 11
157.065722184
 21
124.2357471224
 31
0.0
  0
LINE
  5
24C
330
1F
100
AcDbEntity
  8
0
  6
Continuous
 62
     7
370
    25
100
AcDbLine
 10
168.565722184
 20
124.2357471224
 30
0.0
 11
168.292947759
 21
124.2357471224
 31
0.0
  0
ARC
  5
24D
330
1F
100
AcDbEntity
  8
0
  6
Continuous
 62
     7
370
    25
100
AcDbCircle
 10
157.065722184
 20
124.4857471224
 30
0.0
 40
0.25
100
AcDbArc
 50
180.0
 51
270.0
  0
LINE
  5
24E
330
1F
100
AcDbEntity
  8
0
  6
Continuous
 62
     7
370
    25
100
AcDbLine
 10
182.815722184
 20
122.4640478583
 30
0.0
 11
184.9911590455
 21
122.2357471224
 31
0.0
  0
LINE
  5
24F
330
1F
100
AcDbEntity
  8
0
  6
Continuous
 62
     7
370
    25
100
AcDbLine
 10
182.815722184
 20
129.0074463864
 30
0.0
 11
182.815722184
 21
122.4640478583
 31
0.0
  0
LINE
  5
250
330
1F
100
AcDbEntity
  8
0
  6
Continuous
 62
     7
370
    25
100
AcDbLine
 10
184.9911590455
 20
129.2357471224
 30
0.0
 11
182.815722184
 21
129.0074463864
 31
0.0
  0
LINE
  5
251
330
1F
100
AcDbEntity
  8
0
  6
Continuous
 62
     7
370
    25
100
AcDbLine
 10
202.815722184
 20
129.2357471224
 30
0.0
 11
184.9911590455
 21
129.2357471224
 31
0.0
  0
LINE
  5
252
330
1F
100
AcDbEntity
  8
0
  6
Continuous
 62
     7
370
    25
100
AcDbLine
 10
202.815722184
 20
122.2357471224
 30
0.0
 11
202.815722184
 21
129.2357471224
 31
0.0
  0
LINE
  5
253
330
1F
100
AcDbEntity
  8
0
  6
Continuous
 62
     7
370
    25
100
AcDbLine
 10
184.9911590455
 20
122.2357471224
 30
0.0
 11
202.815722184
 21
122.2357471224
 31
0.0
  0
LINE
  5
254
330
1F
100
AcDbEntity
  8
0
  6
Continuous
 62
     7
370
    25
100
AcDbLine
 10
168.0395243583
 20
124.0147326415
 30
0.0
 11
168.1360886757
 21
124.1741319618
 31
0.0
  0
LINE
  5
255
330
1F
100
AcDbEntity
  8
0
  6
Continuous
 62
     7
370
    25
100
AcDbLine
 10
168.1583660563
 20
127.2809647897
 30
0.0
 11
168.0395243583
 21
127.4567616032
 31
0.0
  0
LINE
  5
256
330
1F
100
AcDbEntity
  8
0
  6
Continuous
 62
     7
370
    25
100
AcDbLine
 10
176.2322918376
 20
123.1549444868
 30
0.0
 11
176.2322918376
 21
128.3165497579
 31
0.0
  0
LINE
  5
257
330
1F
100
AcDbEntity
  8
0
  6
Continuous
 62
     7
370
    25
100
AcDbLine
 10
176.2322918376
 20
123.1549444868
 30
0.0
 11
168.0395243583
 21
124.0147326415
 31
0.0
  0
LINE
  5
258
330
1F
100
AcDbEntity
  8
0
  6
Continuous
 62
     7
370
    25
100
AcDbLine
 10
168.0395243583
 20
127.4567616032
 30
0.0
 11
176.2322918376
 21
128.3165497579
 31
0.0
  0
LINE
  5
259
330
1F
100
AcDbEntity
  8
0
  6
Continuous
 62
     7
370
    25
100
AcDbLine
 10
182.815722184
 20
122.4640478583
 30
0.0
 11
176.2322918376
 21
123.1549444868
 31
0.0
  0
LINE
  5
25A
330
1F
100
AcDbEntity
  8
0
  6
Continuous
 62
     7
370
    25
100
AcDbLine
 10
176.2322918376
 20
128.3165497579
 30
0.0
 11
182.815722184
 21
129.0074463864
 31
0.0
  0
ARC
  5
25B
330
1F
100
AcDbEntity
  8
0
  6
Continuous
 62
     7
370
    25
100
AcDbCircle
 10
162.815722184
 20
125.7357471224
 30
0.0
 40
7.450000000000662
100
AcDbArc
 50
53.0863788866
 51
306.9136211134
  0
ARC
  5
25C
330
1F
100
AcDbEntity
  8
0
  6
Continuous
 62
     7
370
    25
100
AcDbCircle
 10
162.815722184
 20
125.7357471224
 30
0.0
 40
7.207531252870803
100
AcDbArc
 50
15.3041237151
 51
58.9797515565
  0
ARC
  5
25D
330
1F
100
AcDbEntity
  8
0
  6
Continuous
 62
     7
370
    25
100
AcDbCircle
 10
162.815722184
 20
125.7357471224
 30
0.0
 40
7.207531252872426
100
AcDbArc
 50
301.0202484435
 51
344.6958762849
  0
ARC
  5
25E
330
1F
100
AcDbEntity
  8
0
  6
Continuous
 62
     7
370
    25
100
AcDbCircle
 10
184.9911590455
 20
194.2357471224
 30
0.0
 40
65.0
100
AcDbArc
 50
253.4999050078
 51
270.0
  0
ARC
  5
25F
330
1F
100
AcDbEntity
  8
0
  6
Continuous
 62
     7
370
    25
100
AcDbCircle
 10
184.9911590455
 20
57.2357471224
 30
0.0
 40
64.99999999999999
100
AcDbArc
 50
90.0
 51
106.5000949923
  0
LINE
  5
260
330
1F
100
AcDbEntity
  8
0
  6
Continuous
 62
     7
370
    25
100
AcDbLine
 10
155.3699179964
 20
125.4857471224
 30
0.0
 11
151.9934435892
 21
125.4857471224
 31
0.0
  0
LINE
  5
261
330
1F
100
AcDbEntity
  8
0
  6
Continuous
 62
     7
370
    25
100
AcDbLine
 10
151.9934435892
 20
125.9857471224
 30
0.0
 11
155.3699179964
 21
125.9857471224
 31
0.0
  0
INSERT
  5
26D
330
1F
100
AcDbEntity
  8
0
  6
Continuous
 62
     7
370
    18
100
AcDbBlockReference
  2
SW_CENTERMARKSYMBOL_1
 10
162.815722184
 20
125.7357471224
 30
0.0
  0
LINE
  5
26E
330
1F
100
AcDbEntity
  8
0
  6
Continuous
 62
     7
370
    18
100
AcDbLine
 10
147.315722184
 20
131.8142471224
 30
0.0
 11
138.815722184
 21
131.8142471224
 31
0.0
  0
LINE
  5
26F
330
1F
100
AcDbEntity
  8
0
  6
Continuous
 62
     7
370
    18
100
AcDbLine
 10
138.815722184
 20
119.6572471224
 30
0.0
 11
147.315722184
 21
119.6572471224
 31
0.0
  0
LINE
  5
270
330
1F
100
AcDbEntity
  8
0
  6
Continuous
 62
     7
370
    25
100
AcDbLine
 10
147.315722184
 20
132.3142471224
 30
0.0
 11
147.315722184
 21
132.2713667183
 31
0.0
  0
SPLINE
  5
271
330
1F
100
AcDbEntity
  8
0
  6
Continuous
 62
     7
370
     0
100
AcDbSpline
210
0.0
220
0.0
230
1.0
 70
     8
 71
     3
 72
    34
 73
    30
 74
     0
 42
0.00000001
 43
0.00000001
 40
0.0
 40
0.0
 40
0.0
 40
0.0
 40
0.0377355589098677
 40
0.0754711174798801
 40
0.1132066760498918
 40
0.1509422346199041
 40
0.1886777931899167
 40
0.2264133517599282
 40
0.2641489103299406
 40
0.301884468899952
 40
0.3396200274699643
 40
0.377355586039977
 40
0.4150911446099886
 40
0.4528267031800008
 40
0.4905622617500127
 40
0.5282978203200255
 40
0.5660333788900375
 40
0.6037689374600494
 40
0.6415044960300612
 40
0.6792400546000738
 40
0.716975613170086
 40
0.7547111717400979
 40
0.7924467303101099
 40
0.8301822888801222
 40
0.8679178474501343
 40
0.9056534060201464
 40
0.9433889645901586
 40
0.9811245231601706
 40
1.0
 40
1.0
 40
1.0
 40
1.0
 10
147.3156213760376
 20
132.2713667183489
 30
0.0
 10
147.3157221839754
 20
132.1432845179636
 30
0.0
 10
147.3157221839754
 20
131.931670268561
 30
0.0
 10
147.3157221839754
 20
131.6392826855045
 30
0.0
 10
147.3157221839754
 20
131.2699334880884
 30
0.0
 10
147.3157221839754
 20
130.8284377079476
 30
0.0
 10
147.3157221839754
 20
130.3205509177573
 30
0.0
 10
147.3157221839754
 20
129.7528941985401
 30
0.0
 10
147.3157221839754
 20
129.1328678237503
 30
0.0
 10
147.3157221839754
 20
128.4685547853913
 30
0.0
 10
147.3157221839754
 20
127.768615419854
 30
0.0
 10
147.3157221839754
 20
127.0421745071874
 30
0.0
 10
147.3157221839754
 20
126.2987023156364
 30
0.0
 10
147.3157221839754
 20
125.5478911422121
 30
0.0
 10
147.3157221839754
 20
124.7995289587776
 30
0.0
 10
147.3157221839754
 20
124.0633718108665
 30
0.0
 10
147.3157221839754
 20
123.3490166327092
 30
0.0
 10
147.3157221839754
 20
122.6657761365183
 30
0.0
 10
147.3157221839754
 20
122.0225574070434
 30
0.0
 10
147.3157221839754
 20
121.4277457840993
 30
0.0
 10
147.3157221839754
 20
120.8890955468385
 30
0.0
 10
147.3157221839754
 20
120.4136288248628
 30
0.0
 10
147.3157221839754
 20
120.0075440540259
 30
0.0
 10
147.3157221839754
 20
119.6761351703424
 30
0.0
 10
147.3157221839754
 20
119.4237225954354
 30
0.0
 10
147.3157221839754
 20
119.2535969132344
 30
0.0
 10
147.3157221839754
 20
119.1679759721803
 30
0.0
 10
147.3157221839754
 20
119.1572471223584
 30
0.0
 10
147.3157221839754
 20
119.1594124992468
 30
0.0
 10
147.3157221839754
 20
119.1572471223584
 30
0.0
  0
ENDSEC
  0
SECTION
  2
OBJECTS
  0
DICTIONARY
  5
C
330
0
100
AcDbDictionary
281
     1
  3
ACAD_GROUP
350
D
  3
ACAD_LAYOUT
350
1A
  3
ACAD_MLINESTYLE
350
17
  3
ACAD_PLOTSETTINGS
350
19
  3
ACAD_PLOTSTYLENAME
350
E
  3
ACAD_SCALELIST
350
47
  3
DWGPROPS
350
272
  0
DICTIONARY
  5
D
102
{ACAD_REACTORS
330
C
102
}
330
C
100
AcDbDictionary
281
     1
  0
DICTIONARY
  5
1A
102
{ACAD_REACTORS
330
C
102
}
330
C
100
AcDbDictionary
281
     1
  3
Layout1
350
1E
  3
Layout2
350
26
  3
Model
350
22
  0
DICTIONARY
  5
17
102
{ACAD_REACTORS
330
C
102
}
330
C
100
AcDbDictionary
281
     1
  3
Standard
350
18
  0
DICTIONARY
  5
19
102
{ACAD_REACTORS
330
C
102
}
330
C
100
AcDbDictionary
281
     1
  0
ACDBDICTIONARYWDFLT
  5
E
102
{ACAD_REACTORS
330
C
102
}
330
C
100
AcDbDictionary
281
     1
  3
Normal
350
F
100
AcDbDictionaryWithDefault
340
F
  0
DICTIONARY
  5
47
102
{ACAD_REACTORS
330
C
102
}
330
C
100
AcDbDictionary
281
     1
  3
A0
350
48
  3
A1
350
49
  3
A2
350
4A
  3
A3
350
4B
  3
A4
350
4C
  3
A5
350
4D
  3
A6
350
4E
  3
A7
350
4F
  3
A8
350
50
  3
A9
350
51
  3
B0
350
52
  3
B1
350
53
  3
B2
350
54
  3
B3
350
55
  3
B4
350
56
  3
B5
350
57
  3
B6
350
58
  0
XRECORD
  5
272
102
{ACAD_REACTORS
330
C
102
}
330
C
100
AcDbXrecord
280
     1
  1
DWGPROPS COOKIE
  2

  3

  4

  6

  7

  8
user28
  9

300
=
301
=
302
=
303
=
304
=
305
=
306
=
307
=
308
=
309
=
 40
0.0
 41
2460305.039664306
 42
2460305.039665104
  1

 90
        0
  0
LAYOUT
  5
1E
102
{ACAD_REACTORS
330
1A
102
}
330
1A
100
AcDbPlotSettings
  1

  2
none_device
  4

  6

 40
0.0
 41
0.0
 42
0.0
 43
0.0
 44
0.0
 45
0.0
 46
0.0
 47
0.0
 48
0.0
 49
0.0
140
0.0
141
0.0
142
1.0
143
1.0
 70
   688
 72
     1
 73
     0
 74
     5
  7

 75
    16
147
1.0
148
0.0
149
0.0
100
AcDbLayout
  1
Layout1
 70
     1
 71
     1
 10
0.0
 20
0.0
 11
420.0
 21
297.0
 12
0.0
 22
0.0
 32
0.0
 14
1.0000000000E+20
 24
1.0000000000E+20
 34
1.0000000000E+20
 15
-1.0000000000E+20
 25
-1.0000000000E+20
 35
-1.0000000000E+20
146
0.0
 13
0.0
 23
0.0
 33
0.0
 16
1.0
 26
0.0
 36
0.0
 17
0.0
 27
1.0
 37
0.0
 76
     0
330
1B
  0
LAYOUT
  5
26
102
{ACAD_REACTORS
330
1A
102
}
330
1A
100
AcDbPlotSettings
  1

  2
none_device
  4

  6

 40
0.0
 41
0.0
 42
0.0
 43
0.0
 44
0.0
 45
0.0
 46
0.0
 47
0.0
 48
0.0
 49
0.0
140
0.0
141
0.0
142
1.0
143
1.0
 70
   688
 72
     1
 73
     0
 74
     5
  7

 75
    16
147
1.0
148
0.0
149
0.0
100
AcDbLayout
  1
Layout2
 70
     1
 71
     2
 10
0.0
 20
0.0
 11
0.0
 21
0.0
 12
0.0
 22
0.0
 32
0.0
 14
0.0
 24
0.0
 34
0.0
 15
0.0
 25
0.0
 35
0.0
146
0.0
 13
0.0
 23
0.0
 33
0.0
 16
1.0
 26
0.0
 36
0.0
 17
0.0
 27
1.0
 37
0.0
 76
     0
330
23
  0
LAYOUT
  5
22
102
{ACAD_REACTORS
330
1A
102
}
330
1A
100
AcDbPlotSettings
  1

  2
none_device
  4
Letter_(8.50_x_11.00_Inches)
  6

 40
6.35
 41
6.35
 42
6.35000508
 43
6.35000508
 44
215.9
 45
279.4
 46
0.0
 47
0.0
 48
0.0
 49
0.0
140
0.0
141
0.0
142
1.0
143
1.0
 70
  1712
 72
     1
 73
     0
 74
     0
  7

 75
     0
147
1.0
148
0.0
149
0.0
100
AcDbLayout
  1
Model
 70
     1
 71
     0
 10
0.0
 20
0.0
 11
431.8
 21
279.4
 12
0.0
 22
0.0
 32
0.0
 14
0.0
 24
0.0
 34
0.0
 15
431.8
 25
279.4
 35
0.0
146
0.0
 13
0.0
 23
0.0
 33
0.0
 16
1.0
 26
0.0
 36
0.0
 17
0.0
 27
1.0
 37
0.0
 76
     0
330
1F
331
29
  0
MLINESTYLE
  5
18
102
{ACAD_REACTORS
330
17
102
}
330
17
100
AcDbMlineStyle
  2
Standard
 70
     0
  3

 62
   256
 51
90.0
 52
90.0
 71
     2
 49
0.5
 62
   256
  6
BYLAYER
 49
-0.5
 62
   256
  6
BYLAYER
  0
ACDBPLACEHOLDER
  5
F
102
{ACAD_REACTORS
330
E
102
}
330
E
  0
SCALE
  5
48
102
{ACAD_REACTORS
330
47
102
}
330
47
100
AcDbScale
 70
     0
300
1:1
140
1.0
141
1.0
290
     1
  0
SCALE
  5
49
102
{ACAD_REACTORS
330
47
102
}
330
47
100
AcDbScale
 70
     0
300
1:2
140
1.0
141
2.0
290
     0
  0
SCALE
  5
4A
102
{ACAD_REACTORS
330
47
102
}
330
47
100
AcDbScale
 70
     0
300
1:4
140
1.0
141
4.0
290
     0
  0
SCALE
  5
4B
102
{ACAD_REACTORS
330
47
102
}
330
47
100
AcDbScale
 70
     0
300
1:5
140
1.0
141
5.0
290
     0
  0
SCALE
  5
4C
102
{ACAD_REACTORS
330
47
102
}
330
47
100
AcDbScale
 70
     0
300
1:8
140
1.0
141
8.0
290
     0
  0
SCALE
  5
4D
102
{ACAD_REACTORS
330
47
102
}
330
47
100
AcDbScale
 70
     0
300
1:10
140
1.0
141
10.0
290
     0
  0
SCALE
  5
4E
102
{ACAD_REACTORS
330
47
102
}
330
47
100
AcDbScale
 70
     0
300
1:16
140
1.0
141
16.0
290
     0
  0
SCALE
  5
4F
102
{ACAD_REACTORS
330
47
102
}
330
47
100
AcDbScale
 70
     0
300
1:20
140
1.0
141
20.0
290
     0
  0
SCALE
  5
50
102
{ACAD_REACTORS
330
47
102
}
330
47
100
AcDbScale
 70
     0
300
1:30
140
1.0
141
30.0
290
     0
  0
SCALE
  5
51
102
{ACAD_REACTORS
330
47
102
}
330
47
100
AcDbScale
 70
     0
300
1:40
140
1.0
141
40.0
290
     0
  0
SCALE
  5
52
102
{ACAD_REACTORS
330
47
102
}
330
47
100
AcDbScale
 70
     0
300
1:50
140
1.0
141
50.0
290
     0
  0
SCALE
  5
53
102
{ACAD_REACTORS
330
47
102
}
330
47
100
AcDbScale
 70
     0
300
1:100
140
1.0
141
100.0
290
     0
  0
SCALE
  5
54
102
{ACAD_REACTORS
330
47
102
}
330
47
100
AcDbScale
 70
     0
300
2:1
140
2.0
141
1.0
290
     0
  0
SCALE
  5
55
102
{ACAD_REACTORS
330
47
102
}
330
47
100
AcDbScale
 70
     0
300
4:1
140
4.0
141
1.0
290
     0
  0
SCALE
  5
56
102
{ACAD_REACTORS
330
47
102
}
330
47
100
AcDbScale
 70
     0
300
8:1
140
8.0
141
1.0
290
     0
  0
SCALE
  5
57
102
{ACAD_REACTORS
330
47
102
}
330
47
100
AcDbScale
 70
     0
300
10:1
140
10.0
141
1.0
290
     0
  0
SCALE
  5
58
102
{ACAD_REACTORS
330
47
102
}
330
47
100
AcDbScale
 70
     0
300
100:1
140
100.0
141
1.0
290
     0
  0
ENDSEC
  0
EOF
