  0
SECTION
  2
HEADER
  9
$ACADVER
  1
AC1015
  9
$ACADMAINTVER
 70
     6
  9
$DWGCODEPAGE
  3
DOS932
  9
$INSBASE
 10
0.0
 20
0.0
 30
0.0
  9
$EXTMIN
 10
0.0
 20
0.0
 30
0.0
  9
$EXTMAX
 10
431.8
 20
279.4
 30
0.0
  9
$LIMMIN
 10
0.0
 20
0.0
  9
$LIMMAX
 10
431.8
 20
279.4
  9
$ORTHOMODE
 70
     0
  9
$REGENMODE
 70
     1
  9
$FILLMODE
 70
     1
  9
$QTEXTMODE
 70
     0
  9
$MIRRTEXT
 70
     1
  9
$LTSCALE
 40
1.0
  9
$ATTMODE
 70
     1
  9
$TEXTSIZE
 40
3.5
  9
$TRACEWID
 40
1.0
  9
$TEXTSTYLE
  7
Standard
  9
$CLAYER
  8
0
  9
$CELTYPE
  6
ByLayer
  9
$CECOLOR
 62
   256
  9
$CELTSCALE
 40
1.0
  9
$DISPSILH
 70
     0
  9
$DIMSCALE
 40
1.0
  9
$DIMASZ
 40
3.556
  9
$DIMEXO
 40
1.0
  9
$DIMDLI
 40
3.75
  9
$DIMRND
 40
0.0
  9
$DIMDLE
 40
0.0
  9
$DIMEXE
 40
1.0
  9
$DIMTP
 40
0.0
  9
$DIMTM
 40
0.0
  9
$DIMTXT
 40
3.5
  9
$DIMCEN
 40
2.5
  9
$DIMTSZ
 40
0.0
  9
$DIMTOL
 70
     0
  9
$DIMLIM
 70
     0
  9
$DIMTIH
 70
     1
  9
$DIMTOH
 70
     1
  9
$DIMSE1
 70
     0
  9
$DIMSE2
 70
     0
  9
$DIMTAD
 70
     1
  9
$DIMZIN
 70
     0
  9
$DIMBLK
  1

  9
$DIMASO
 70
     1
  9
$DIMSHO
 70
     1
  9
$DIMPOST
  1

  9
$DIMAPOST
  1

  9
$DIMALT
 70
     0
  9
$DIMALTD
 70
     3
  9
$DIMALTF
 40
0.0393700787
  9
$DIMLFAC
 40
1.0
  9
$DIMTOFL
 70
     1
  9
$DIMTVP
 40
0.0
  9
$DIMTIX
 70
     0
  9
$DIMSOXD
 70
     0
  9
$DIMSAH
 70
     0
  9
$DIMBLK1
  1

  9
$DIMBLK2
  1

  9
$DIMSTYLE
  2
ISO-25
  9
$DIMCLRD
 70
     0
  9
$DIMCLRE
 70
     0
  9
$DIMCLRT
 70
     0
  9
$DIMTFAC
 40
1.0
  9
$DIMGAP
 40
1.524
  9
$DIMJUST
 70
     0
  9
$DIMSD1
 70
     0
  9
$DIMSD2
 70
     0
  9
$DIMTOLJ
 70
     0
  9
$DIMTZIN
 70
     0
  9
$DIMALTZ
 70
     0
  9
$DIMALTTZ
 70
     0
  9
$DIMUPT
 70
     0
  9
$DIMDEC
 70
     3
  9
$DIMTDEC
 70
     3
  9
$DIMALTU
 70
     2
  9
$DIMALTTD
 70
     3
  9
$DIMTXSTY
  7
Standard
  9
$DIMAUNIT
 70
     0
  9
$DIMADEC
 70
     2
  9
$DIMALTRND
 40
0.0
  9
$DIMAZIN
 70
     0
  9
$DIMDSEP
 70
    44
  9
$DIMATFIT
 70
     3
  9
$DIMFRAC
 70
     0
  9
$DIMLDRBLK
  1

  9
$DIMLUNIT
 70
     2
  9
$DIMLWD
 70
    -2
  9
$DIMLWE
 70
    -2
  9
$DIMTMOVE
 70
     0
  9
$LUNITS
 70
     2
  9
$LUPREC
 70
     3
  9
$SKETCHINC
 40
1.0
  9
$FILLETRAD
 40
0.0
  9
$AUNITS
 70
     0
  9
$AUPREC
 70
     2
  9
$MENU
  1
.
  9
$ELEVATION
 40
0.0
  9
$PELEVATION
 40
0.0
  9
$THICKNESS
 40
0.0
  9
$LIMCHECK
 70
     0
  9
$CHAMFERA
 40
0.0
  9
$CHAMFERB
 40
0.0
  9
$CHAMFERC
 40
0.0
  9
$CHAMFERD
 40
0.0
  9
$SKPOLY
 70
     0
  9
$TDCREATE
 40
2460305.413102697
  9
$TDUCREATE
 40
2460305.038102697
  9
$TDUPDATE
 40
2460305.413103843
  9
$TDUUPDATE
 40
2460305.038103843
  9
$TDINDWG
 40
0.0000000116
  9
$TDUSRTIMER
 40
0.0000000116
  9
$USRTIMER
 70
     1
  9
$ANGBASE
 50
0.0
  9
$ANGDIR
 70
     0
  9
$PDMODE
 70
     0
  9
$PDSIZE
 40
-1.0
  9
$PLINEWID
 40
0.0
  9
$SPLFRAME
 70
     0
  9
$SPLINETYPE
 70
     6
  9
$SPLINESEGS
 70
     8
  9
$HANDSEED
  5
26C
  9
$SURFTAB1
 70
     6
  9
$SURFTAB2
 70
     6
  9
$SURFTYPE
 70
     6
  9
$SURFU
 70
     6
  9
$SURFV
 70
     6
  9
$UCSBASE
  2

  9
$UCSNAME
  2

  9
$UCSORG
 10
0.0
 20
0.0
 30
0.0
  9
$UCSXDIR
 10
1.0
 20
0.0
 30
0.0
  9
$UCSYDIR
 10
0.0
 20
1.0
 30
0.0
  9
$UCSORTHOREF
  2

  9
$UCSORTHOVIEW
 70
     0
  9
$UCSORGTOP
 10
0.0
 20
0.0
 30
0.0
  9
$UCSORGBOTTOM
 10
0.0
 20
0.0
 30
0.0
  9
$UCSORGLEFT
 10
0.0
 20
0.0
 30
0.0
  9
$UCSORGRIGHT
 10
0.0
 20
0.0
 30
0.0
  9
$UCSORGFRONT
 10
0.0
 20
0.0
 30
0.0
  9
$UCSORGBACK
 10
0.0
 20
0.0
 30
0.0
  9
$PUCSBASE
  2

  9
$PUCSNAME
  2

  9
$PUCSORG
 10
0.0
 20
0.0
 30
0.0
  9
$PUCSXDIR
 10
1.0
 20
0.0
 30
0.0
  9
$PUCSYDIR
 10
0.0
 20
1.0
 30
0.0
  9
$PUCSORTHOREF
  2

  9
$PUCSORTHOVIEW
 70
     0
  9
$PUCSORGTOP
 10
0.0
 20
0.0
 30
0.0
  9
$PUCSORGBOTTOM
 10
0.0
 20
0.0
 30
0.0
  9
$PUCSORGLEFT
 10
0.0
 20
0.0
 30
0.0
  9
$PUCSORGRIGHT
 10
0.0
 20
0.0
 30
0.0
  9
$PUCSORGFRONT
 10
0.0
 20
0.0
 30
0.0
  9
$PUCSORGBACK
 10
0.0
 20
0.0
 30
0.0
  9
$USERI1
 70
     0
  9
$USERI2
 70
     0
  9
$USERI3
 70
     0
  9
$USERI4
 70
     0
  9
$USERI5
 70
     0
  9
$USERR1
 40
0.0
  9
$USERR2
 40
0.0
  9
$USERR3
 40
0.0
  9
$USERR4
 40
0.0
  9
$USERR5
 40
0.0
  9
$WORLDVIEW
 70
     1
  9
$SHADEDGE
 70
     3
  9
$SHADEDIF
 70
    70
  9
$TILEMODE
 70
     1
  9
$MAXACTVP
 70
    64
  9
$PINSBASE
 10
0.0
 20
0.0
 30
0.0
  9
$PLIMCHECK
 70
     0
  9
$PEXTMIN
 10
1.0000000000E+20
 20
1.0000000000E+20
 30
1.0000000000E+20
  9
$PEXTMAX
 10
-1.0000000000E+20
 20
-1.0000000000E+20
 30
-1.0000000000E+20
  9
$PLIMMIN
 10
0.0
 20
0.0
  9
$PLIMMAX
 10
420.0
 20
297.0
  9
$UNITMODE
 70
     0
  9
$VISRETAIN
 70
     1
  9
$PLINEGEN
 70
     0
  9
$PSLTSCALE
 70
     1
  9
$TREEDEPTH
 70
  3020
  9
$CMLSTYLE
  2
Standard
  9
$CMLJUST
 70
     0
  9
$CMLSCALE
 40
20.0
  9
$PROXYGRAPHICS
 70
     1
  9
$MEASUREMENT
 70
     1
  9
$CELWEIGHT
370
    -1
  9
$ENDCAPS
280
     0
  9
$JOINSTYLE
280
     0
  9
$LWDISPLAY
290
     1
  9
$INSUNITS
 70
     4
  9
$HYPERLINKBASE
  1

  9
$STYLESHEET
  1

  9
$XEDIT
290
     1
  9
$CEPSNTYPE
380
     0
  9
$PSTYLEMODE
290
     1
  9
$FINGERPRINTGUID
  2
{97dac579-407e-4c97-a030-31a7c39495d1}
  9
$VERSIONGUID
  2
{FAEB1C32-E019-11D5-929B-00C0DF256EC4}
  9
$EXTNAMES
290
     1
  9
$PSVPSCALE
 40
0.0
  9
$OLESTARTUP
290
     0
  0
ENDSEC
  0
SECTION
  2
CLASSES
  0
CLASS
  1
ACDBDICTIONARYWDFLT
  2
AcDbDictionaryWithDefault
  3
ObjectDBX Classes
 90
        0
280
     0
281
     0
  0
CLASS
  1
VISUALSTYLE
  2
AcDbVisualStyle
  3
ObjectDBX Classes
 90
     4095
280
     0
281
     0
  0
CLASS
  1
MATERIAL
  2
AcDbMaterial
  3
ObjectDBX Classes
 90
     1153
280
     0
281
     0
  0
CLASS
  1
SCALE
  2
AcDbScale
  3
ObjectDBX Classes
 90
     1153
280
     0
281
     0
  0
CLASS
  1
TABLESTYLE
  2
AcDbTableStyle
  3
ObjectDBX Classes
 90
     4095
280
     0
281
     0
  0
CLASS
  1
MLEADERSTYLE
  2
AcDbMLeaderStyle
  3
ACDB_MLEADERSTYLE_CLASS
 90
     4095
280
     0
281
     0
  0
CLASS
  1
SUN
  2
AcDbSun
  3
SCENEOE
 90
     1153
280
     0
281
     0
  0
CLASS
  1
ACDBPLACEHOLDER
  2
AcDbPlaceHolder
  3
ObjectDBX Classes
 90
        0
280
     0
281
     0
  0
CLASS
  1
LAYOUT
  2
AcDbLayout
  3
ObjectDBX Classes
 90
        0
280
     0
281
     0
  0
ENDSEC
  0
SECTION
  2
TABLES
  0
TABLE
  2
VPORT
  5
8
330
0
100
AcDbSymbolTable
 70
     1
  0
VPORT
  5
29
330
8
100
AcDbSymbolTableRecord
100
AcDbViewportTableRecord
  2
*Active
 70
     0
 10
0.0
 20
0.0
 11
1.0
 21
1.0
 12
215.9
 22
139.7
 13
0.0
 23
0.0
 14
10.0
 24
10.0
 15
10.0
 25
10.0
 16
0.0
 26
0.0
 36
1.0
 17
0.0
 27
0.0
 37
0.0
 40
279.4
 41
1.5454545455
 42
50.0
 43
0.0
 44
0.0
 50
0.0
 51
0.0
 71
     0
 72
  2000
 73
     1
 74
     3
 75
     0
 76
     0
 77
     0
 78
     0
281
     0
 65
     1
110
0.0
120
0.0
130
0.0
111
1.0
121
0.0
131
0.0
112
0.0
122
1.0
132
0.0
 79
     0
146
0.0
  0
ENDTAB
  0
TABLE
  2
LTYPE
  5
5
330
0
100
AcDbSymbolTable
 70
     6
  0
LTYPE
  5
14
330
5
100
AcDbSymbolTableRecord
100
AcDbLinetypeTableRecord
  2
ByBlock
 70
     0
  3

 72
    65
 73
     0
 40
0.0
  0
LTYPE
  5
15
330
5
100
AcDbSymbolTableRecord
100
AcDbLinetypeTableRecord
  2
ByLayer
 70
     0
  3

 72
    65
 73
     0
 40
0.0
  0
LTYPE
  5
16
330
5
100
AcDbSymbolTableRecord
100
AcDbLinetypeTableRecord
  2
Continuous
 70
     0
  3
Solid line
 72
    65
 73
     0
 40
0.0
  0
LTYPE
  5
5E
330
5
100
AcDbSymbolTableRecord
100
AcDbLinetypeTableRecord
  2
HIDDEN
 70
     0
  3
Hidden __ __ __ __ __ __ __ __ __ __ __ __ __ __
 72
    65
 73
     2
 40
1.905
 49
1.27
 74
     0
 49
-0.635
 74
     0
  0
LTYPE
  5
5F
330
5
100
AcDbSymbolTableRecord
100
AcDbLinetypeTableRecord
  2
PHANTOM
 70
     0
  3
Phantom ______  __  __  ______  __  __  ______
 72
    65
 73
     6
 40
12.7
 49
6.35
 74
     0
 49
-1.27
 74
     0
 49
1.27
 74
     0
 49
-1.27
 74
     0
 49
1.27
 74
     0
 49
-1.27
 74
     0
  0
LTYPE
  5
60
330
5
100
AcDbSymbolTableRecord
100
AcDbLinetypeTableRecord
  2
CENTER
 70
     0
  3
Center ____ _ ____ _ ____ _ ____ _ ____ _ ____
 72
    65
 73
     4
 40
10.16
 49
6.35
 74
     0
 49
-1.27
 74
     0
 49
1.27
 74
     0
 49
-1.27
 74
     0
  0
LTYPE
  5
61
330
5
100
AcDbSymbolTableRecord
100
AcDbLinetypeTableRecord
  2
CENTERX2
 70
     0
  3
Center (2x) ________  __  ________  __  _____
 72
    65
 73
     4
 40
20.32
 49
12.7
 74
     0
 49
-2.54
 74
     0
 49
2.54
 74
     0
 49
-2.54
 74
     0
  0
LTYPE
  5
62
330
5
100
AcDbSymbolTableRecord
100
AcDbLinetypeTableRecord
  2
DOT2
 70
     0
  3
Dot (.5x) ........................................
 72
    65
 73
     2
 40
0.635
 49
0.0
 74
     0
 49
-0.635
 74
     0
  0
ENDTAB
  0
TABLE
  2
LAYER
  5
2
330
0
100
AcDbSymbolTable
 70
     1
  0
LAYER
  5
10
330
2
100
AcDbSymbolTableRecord
100
AcDbLayerTableRecord
  2
0
 70
     0
 62
     7
  6
Continuous
370
    -3
390
F
  0
ENDTAB
  0
TABLE
  2
STYLE
  5
3
330
0
100
AcDbSymbolTable
 70
     2
  0
STYLE
  5
11
330
3
100
AcDbSymbolTableRecord
100
AcDbTextStyleTableRecord
  2
Standard
 70
     0
 40
0.0
 41
1.0
 50
0.0
 71
     0
 42
3.5
  3
txt
  4
bigfont
  0
STYLE
  5
63
330
3
100
AcDbSymbolTableRecord
100
AcDbTextStyleTableRecord
  2
SLDTEXTSTYLE0
 70
     0
 40
0.0
 41
0.7
 50
0.0
 71
     0
 42
3.5
  3
TXT
  4
bigfont
  0
ENDTAB
  0
TABLE
  2
VIEW
  5
6
330
0
100
AcDbSymbolTable
 70
     0
  0
ENDTAB
  0
TABLE
  2
UCS
  5
7
330
0
100
AcDbSymbolTable
 70
     0
  0
ENDTAB
  0
TABLE
  2
APPID
  5
9
330
0
100
AcDbSymbolTable
 70
     1
  0
APPID
  5
12
330
9
100
AcDbSymbolTableRecord
100
AcDbRegAppTableRecord
  2
ACAD
 70
     0
  0
ENDTAB
  0
TABLE
  2
DIMSTYLE
  5
A
330
0
100
AcDbSymbolTable
 70
     1
100
AcDbDimStyleTable
  0
DIMSTYLE
105
27
330
A
100
AcDbSymbolTableRecord
100
AcDbDimStyleTableRecord
  2
ISO-25
 70
     0
 41
2.5
 42
0.625
 43
3.75
 44
1.25
 73
     0
 74
     0
 77
     1
 78
     8
140
2.5
141
2.5
143
0.0393700787
147
0.625
171
     3
172
     1
178
     0
271
     2
272
     2
274
     3
278
    44
283
     0
284
     8
340
11
  0
ENDTAB
  0
TABLE
  2
BLOCK_RECORD
  5
1
330
0
100
AcDbSymbolTable
 70
     3
  0
BLOCK_RECORD
  5
1F
330
1
100
AcDbSymbolTableRecord
100
AcDbBlockTableRecord
  2
*Model_Space
340
22
  0
BLOCK_RECORD
  5
1B
330
1
100
AcDbSymbolTableRecord
100
AcDbBlockTableRecord
  2
*Paper_Space
340
1E
  0
BLOCK_RECORD
  5
23
330
1
100
AcDbSymbolTableRecord
100
AcDbBlockTableRecord
  2
*Paper_Space0
340
26
  0
BLOCK_RECORD
  5
1CD
330
1
100
AcDbSymbolTableRecord
100
AcDbBlockTableRecord
  2
SW_CENTERMARKSYMBOL_0
340
0
102
{BLKREFS
331
1D8
102
}
  0
BLOCK_RECORD
  5
25D
330
1
100
AcDbSymbolTableRecord
100
AcDbBlockTableRecord
  2
SW_CENTERMARKSYMBOL_1
340
0
102
{BLKREFS
331
268
102
}
  0
ENDTAB
  0
ENDSEC
  0
SECTION
  2
BLOCKS
  0
BLOCK
  5
20
330
1F
100
AcDbEntity
  8
0
100
AcDbBlockBegin
  2
*Model_Space
 70
     0
 10
0.0
 20
0.0
 30
0.0
  3
*Model_Space
  1

  0
ENDBLK
  5
21
330
1F
100
AcDbEntity
  8
0
100
AcDbBlockEnd
  0
BLOCK
  5
1C
330
1B
100
AcDbEntity
 67
     1
  8
0
100
AcDbBlockBegin
  2
*Paper_Space
 70
     0
 10
0.0
 20
0.0
 30
0.0
  3
*Paper_Space
  1

  0
ENDBLK
  5
1D
330
1B
100
AcDbEntity
 67
     1
  8
0
100
AcDbBlockEnd
  0
BLOCK
  5
24
330
23
100
AcDbEntity
  8
0
100
AcDbBlockBegin
  2
*Paper_Space0
 70
     0
 10
0.0
 20
0.0
 30
0.0
  3
*Paper_Space0
  1

  0
ENDBLK
  5
25
330
23
100
AcDbEntity
  8
0
100
AcDbBlockEnd
  0
BLOCK
  5
1CE
330
1CD
100
AcDbEntity
  8
0
100
AcDbBlockBegin
  2
SW_CENTERMARKSYMBOL_0
 70
     0
 10
0.0
 20
0.0
 30
0.0
  3
SW_CENTERMARKSYMBOL_0
  1

  0
LINE
  5
1D0
330
1CD
100
AcDbEntity
  8
0
  6
Continuous
 62
     0
370
    18
100
AcDbLine
 10
0.0
 20
0.0
 30
0.0
 11
0.0
 21
2.5
 31
0.0
  0
LINE
  5
1D1
330
1CD
100
AcDbEntity
  8
0
  6
Continuous
 62
     0
370
    18
100
AcDbLine
 10
0.0
 20
0.0
 30
0.0
 11
-2.5
 21
0.0
 31
0.0
  0
LINE
  5
1D2
330
1CD
100
AcDbEntity
  8
0
  6
Continuous
 62
     0
370
    18
100
AcDbLine
 10
0.0
 20
0.0
 30
0.0
 11
0.0
 21
-2.5
 31
0.0
  0
LINE
  5
1D3
330
1CD
100
AcDbEntity
  8
0
  6
Continuous
 62
     0
370
    18
100
AcDbLine
 10
0.0
 20
0.0
 30
0.0
 11
2.5
 21
0.0
 31
0.0
  0
LINE
  5
1D4
330
1CD
100
AcDbEntity
  8
0
  6
Continuous
 62
     0
370
    18
100
AcDbLine
 10
0.0
 20
5.0
 30
0.0
 11
0.0
 21
30.4170852614
 31
0.0
  0
LINE
  5
1D5
330
1CD
100
AcDbEntity
  8
0
  6
Continuous
 62
     0
370
    18
100
AcDbLine
 10
-5.0
 20
0.0
 30
0.0
 11
-10.75
 21
0.0
 31
0.0
  0
LINE
  5
1D6
330
1CD
100
AcDbEntity
  8
0
  6
Continuous
 62
     0
370
    18
100
AcDbLine
 10
0.0
 20
-5.0
 30
0.0
 11
0.0
 21
-25.0072579228
 31
0.0
  0
LINE
  5
1D7
330
1CD
100
AcDbEntity
  8
0
  6
Continuous
 62
     0
370
    18
100
AcDbLine
 10
5.0
 20
0.0
 30
0.0
 11
10.75
 21
0.0
 31
0.0
  0
ENDBLK
  5
1CF
330
1CD
100
AcDbEntity
  8
0
100
AcDbBlockEnd
  0
BLOCK
  5
25E
330
25D
100
AcDbEntity
  8
0
100
AcDbBlockBegin
  2
SW_CENTERMARKSYMBOL_1
 70
     0
 10
0.0
 20
0.0
 30
0.0
  3
SW_CENTERMARKSYMBOL_1
  1

  0
LINE
  5
260
330
25D
100
AcDbEntity
  8
0
  6
Continuous
 62
     0
370
    18
100
AcDbLine
 10
0.0
 20
0.0
 30
0.0
 11
0.0
 21
2.5
 31
0.0
  0
LINE
  5
261
330
25D
100
AcDbEntity
  8
0
  6
Continuous
 62
     0
370
    18
100
AcDbLine
 10
0.0
 20
0.0
 30
0.0
 11
-2.5
 21
0.0
 31
0.0
  0
LINE
  5
262
330
25D
100
AcDbEntity
  8
0
  6
Continuous
 62
     0
370
    18
100
AcDbLine
 10
0.0
 20
0.0
 30
0.0
 11
0.0
 21
-2.5
 31
0.0
  0
LINE
  5
263
330
25D
100
AcDbEntity
  8
0
  6
Continuous
 62
     0
370
    18
100
AcDbLine
 10
0.0
 20
0.0
 30
0.0
 11
2.5
 21
0.0
 31
0.0
  0
LINE
  5
264
330
25D
100
AcDbEntity
  8
0
  6
Continuous
 62
     0
370
    18
100
AcDbLine
 10
0.0
 20
5.0
 30
0.0
 11
0.0
 21
9.95
 31
0.0
  0
LINE
  5
265
330
25D
100
AcDbEntity
  8
0
  6
Continuous
 62
     0
370
    18
100
AcDbLine
 10
-5.0
 20
0.0
 30
0.0
 11
-25.6702756096
 21
0.0
 31
0.0
  0
LINE
  5
266
330
25D
100
AcDbEntity
  8
0
  6
Continuous
 62
     0
370
    18
100
AcDbLine
 10
0.0
 20
-5.0
 30
0.0
 11
0.0
 21
-9.95
 31
0.0
  0
LINE
  5
267
330
25D
100
AcDbEntity
  8
0
  6
Continuous
 62
     0
370
    18
100
AcDbLine
 10
5.0
 20
0.0
 30
0.0
 11
41.8490681256
 21
0.0
 31
0.0
  0
ENDBLK
  5
25F
330
25D
100
AcDbEntity
  8
0
100
AcDbBlockEnd
  0
ENDSEC
  0
SECTION
  2
ENTITIES
  0
MTEXT
  5
64
330
1F
100
AcDbEntity
  8
0
  6
Continuous
 62
     7
370
     0
100
AcDbMText
 10
197.0865958804
 20
118.142721486
 30
0.0
 40
3.7041666667
 41
0.0
 71
     1
 72
     1
  1
エースボール　アングル型
  7
SLDTEXTSTYLE0
 73
     1
 44
1.0
  0
MTEXT
  5
65
330
1F
100
AcDbEntity
  8
0
  6
Continuous
 62
     7
370
     0
100
AcDbMText
 10
197.0865958804
 20
112.2038324929
 30
0.0
 40
3.7041666667
 41
0.0
 71
     1
 72
     1
  1
BS-3011
  7
SLDTEXTSTYLE0
 73
     1
 44
1.0
  0
LINE
  5
66
330
1F
100
AcDbEntity
  8
0
  6
Continuous
 62
     7
370
    25
100
AcDbLine
 10
142.4273625866
 20
94.9211408776
 30
0.0
 11
140.4773625866
 21
86.9211408776
 31
0.0
  0
LINE
  5
67
330
1F
100
AcDbEntity
  8
0
  6
Continuous
 62
     7
370
    25
100
AcDbLine
 10
140.4773625866
 20
86.9211408776
 30
0.0
 11
140.9273625866
 21
78.9211408776
 31
0.0
  0
LINE
  5
68
330
1F
100
AcDbEntity
  8
0
  6
Continuous
 62
     7
370
    25
100
AcDbLine
 10
154.9273625866
 20
78.9211408776
 30
0.0
 11
154.9961080042
 21
80.1432816348
 31
0.0
  0
LINE
  5
69
330
1F
100
AcDbEntity
  8
0
  6
Continuous
 62
     7
370
    25
100
AcDbLine
 10
153.6805941211
 20
93.8822422744
 30
0.0
 11
153.4273625866
 21
94.9211408776
 31
0.0
  0
LINE
  5
6A
330
1F
100
AcDbEntity
  8
0
  6
Continuous
 62
     7
370
    25
100
AcDbLine
 10
136.4273625866
 20
76.4211408776
 30
0.0
 11
133.6273625866
 21
76.4211408776
 31
0.0
  0
LINE
  5
6B
330
1F
100
AcDbEntity
  8
0
  6
Continuous
 62
     7
370
    25
100
AcDbLine
 10
133.6273625866
 20
60.4211408776
 30
0.0
 11
136.4273625866
 21
60.4211408776
 31
0.0
  0
LINE
  5
6C
330
1F
100
AcDbEntity
  8
0
  6
Continuous
 62
     7
370
    25
100
AcDbLine
 10
133.6273625866
 20
76.4211408776
 30
0.0
 11
133.4273625866
 21
76.2211408776
 31
0.0
  0
LINE
  5
6D
330
1F
100
AcDbEntity
  8
0
  6
Continuous
 62
     7
370
    25
100
AcDbLine
 10
133.4273625866
 20
60.6211408776
 30
0.0
 11
133.6273625866
 21
60.4211408776
 31
0.0
  0
LINE
  5
6E
330
1F
100
AcDbEntity
  8
0
  6
Continuous
 62
     7
370
    25
100
AcDbLine
 10
123.9273625866
 20
73.2851408776
 30
0.0
 11
123.4273625866
 21
72.7851408776
 31
0.0
  0
LINE
  5
6F
330
1F
100
AcDbEntity
  8
0
  6
Continuous
 62
     7
370
    25
100
AcDbLine
 10
123.4273625866
 20
64.0571408776
 30
0.0
 11
123.9273625866
 21
63.5571408776
 31
0.0
  0
LINE
  5
70
330
1F
100
AcDbEntity
  8
0
  6
Continuous
 62
     7
370
    25
100
AcDbLine
 10
133.4273625866
 20
73.2851408776
 30
0.0
 11
123.9273625866
 21
73.2851408776
 31
0.0
  0
LINE
  5
71
330
1F
100
AcDbEntity
  8
0
  6
Continuous
 62
     7
370
    25
100
AcDbLine
 10
123.9273625866
 20
63.5571408776
 30
0.0
 11
133.4273625866
 21
63.5571408776
 31
0.0
  0
LINE
  5
72
330
1F
100
AcDbEntity
  8
0
  6
Continuous
 62
     7
370
    25
100
AcDbLine
 10
159.0684938395
 20
58.6835365706
 30
0.0
 11
159.9273625866
 21
60.1711408776
 31
0.0
  0
LINE
  5
73
330
1F
100
AcDbEntity
  8
0
  6
Continuous
 62
     7
370
    25
100
AcDbLine
 10
159.9273625866
 20
76.6711408776
 30
0.0
 11
159.0684938395
 21
78.1587451846
 31
0.0
  0
SPLINE
  5
74
330
1F
100
AcDbEntity
  8
0
  6
Continuous
 62
     7
370
    25
100
AcDbSpline
210
0.0
220
0.0
230
1.0
 70
     8
 71
     3
 72
    11
 73
     7
 74
     0
 42
0.00000001
 43
0.00000001
 40
0.0
 40
0.0
 40
0.0
 40
0.0
 40
0.097856541883915
 40
0.4889255654166445
 40
0.8199738691736762
 40
1.0
 40
1.0
 40
1.0
 40
1.0
 10
154.0971100110398
 20
77.20919908317929
 30
0.0
 10
154.0776189452043
 20
77.22601384017747
 30
0.0
 10
153.9802347519686
 20
77.31002625686843
 30
0.0
 10
153.8798602987607
 20
77.50792630495062
 30
0.0
 10
153.8099205436997
 20
77.73670213254256
 30
0.0
 10
153.8137109476889
 20
77.87132846679538
 30
0.0
 10
153.81504611869
 20
77.91875063551062
 30
0.0
  0
SPLINE
  5
75
330
1F
100
AcDbEntity
  8
0
  6
Continuous
 62
     7
370
    25
100
AcDbSpline
210
0.0
220
0.0
230
1.0
 70
     8
 71
     3
 72
    11
 73
     7
 74
     0
 42
0.00000001
 43
0.00000001
 40
0.0
 40
0.0
 40
0.0
 40
0.0
 40
0.0449759738935085
 40
0.3782878273678047
 40
0.7315808241384545
 40
1.0
 40
1.0
 40
1.0
 40
1.0
 10
142.037047242057
 20
77.92165303493692
 30
0.0
 10
142.0385977792631
 20
77.90997132909445
 30
0.0
 10
142.0516391722598
 20
77.81171782304335
 30
0.0
 10
142.0068249082082
 20
77.62033822407992
 30
0.0
 10
141.9153244750754
 20
77.38401011745334
 30
0.0
 10
141.801465216638
 20
77.26577836851733
 30
0.0
 10
141.7523074075113
 20
77.21473277216732
 30
0.0
  0
LINE
  5
76
330
1F
100
AcDbEntity
  8
0
  6
Continuous
 62
     7
370
    25
100
AcDbLine
 10
153.8273625866
 20
77.9166100575
 30
0.0
 11
153.8273625866
 21
78.9211408776
 31
0.0
  0
LINE
  5
77
330
1F
100
AcDbEntity
  8
0
  6
Continuous
 62
     7
370
    25
100
AcDbLine
 10
142.0273625866
 20
78.9211408776
 30
0.0
 11
142.0273625866
 21
77.9211408776
 31
0.0
  0
LINE
  5
78
330
1F
100
AcDbEntity
  8
0
  6
Continuous
 62
     7
370
    25
100
AcDbLine
 10
142.8280500866
 20
56.4211408776
 30
0.0
 11
143.1450829597
 21
46.276088937
 31
0.0
  0
LINE
  5
79
330
1F
100
AcDbEntity
  8
0
  6
Continuous
 62
     7
370
    25
100
AcDbLine
 10
152.7096422135
 20
46.276088937
 30
0.0
 11
153.0266750866
 21
56.4211408776
 31
0.0
  0
LINE
  5
7A
330
1F
100
AcDbEntity
  8
0
  6
Continuous
 62
     7
370
    25
100
AcDbLine
 10
143.1450829597
 20
46.276088937
 30
0.0
 11
143.9273625866
 21
44.9211408776
 31
0.0
  0
LINE
  5
7B
330
1F
100
AcDbEntity
  8
0
  6
Continuous
 62
     7
370
    25
100
AcDbLine
 10
151.9273625866
 20
44.9211408776
 30
0.0
 11
152.7096422135
 21
46.276088937
 31
0.0
  0
LINE
  5
7C
330
1F
100
AcDbEntity
  8
0
  6
Continuous
 62
     7
370
    25
100
AcDbLine
 10
141.7571956793
 20
77.2158786069
 30
0.0
 11
141.2128314068
 21
78.1587451846
 31
0.0
  0
LINE
  5
7D
330
1F
100
AcDbEntity
  8
0
  6
Continuous
 62
     7
370
    25
100
AcDbLine
 10
156.4273625866
 20
56.4211408776
 30
0.0
 11
157.6649668936
 21
57.1356720574
 31
0.0
  0
LINE
  5
7E
330
1F
100
AcDbEntity
  8
0
  6
Continuous
 62
     7
370
    25
100
AcDbLine
 10
154.6418937664
 20
78.1587451846
 30
0.0
 11
154.0975294939
 21
77.2158786069
 31
0.0
  0
LINE
  5
7F
330
1F
100
AcDbEntity
  8
0
  6
Continuous
 62
     7
370
    25
100
AcDbLine
 10
137.1418937664
 20
78.1587451846
 30
0.0
 11
136.4273625866
 21
76.9211408776
 31
0.0
  0
LINE
  5
80
330
1F
100
AcDbEntity
  8
0
  6
Continuous
 62
     7
370
    25
100
AcDbLine
 10
138.1897582796
 20
57.1356720574
 30
0.0
 11
139.4273625866
 21
56.4211408776
 31
0.0
  0
LINE
  5
81
330
1F
100
AcDbEntity
  8
0
  6
Continuous
 62
     7
370
    25
100
AcDbLine
 10
136.4273625866
 20
59.9211408776
 30
0.0
 11
137.1418937664
 21
58.6835365706
 31
0.0
  0
LINE
  5
82
330
1F
100
AcDbEntity
  8
0
  6
Continuous
 62
     7
370
    25
100
AcDbLine
 10
157.6649668936
 20
57.1331116761
 30
0.0
 11
157.6649668936
 21
58.6835365706
 31
0.0
  0
LINE
  5
83
330
1F
100
AcDbEntity
  8
0
  6
Continuous
 62
     7
370
    25
100
AcDbLine
 10
157.6649668936
 20
58.6835365706
 30
0.0
 11
159.071061895
 21
58.6835365706
 31
0.0
  0
LINE
  5
84
330
1F
100
AcDbEntity
  8
0
  6
Continuous
 62
     7
370
    25
100
AcDbLine
 10
141.2153994623
 20
78.1587451846
 30
0.0
 11
137.1393333851
 21
78.1587451846
 31
0.0
  0
LINE
  5
85
330
1F
100
AcDbEntity
  8
0
  6
Continuous
 62
     7
370
    25
100
AcDbLine
 10
159.071061895
 20
78.1587451846
 30
0.0
 11
154.639325711
 21
78.1587451846
 31
0.0
  0
LINE
  5
86
330
1F
100
AcDbEntity
  8
0
  6
Continuous
 62
     7
370
    25
100
AcDbLine
 10
138.1897582796
 20
58.6835365706
 30
0.0
 11
138.1897582796
 21
57.1331116761
 31
0.0
  0
LINE
  5
87
330
1F
100
AcDbEntity
  8
0
  6
Continuous
 62
     7
370
    25
100
AcDbLine
 10
137.1393333851
 20
58.6835365706
 30
0.0
 11
138.1897582796
 21
58.6835365706
 31
0.0
  0
SPLINE
  5
88
330
1F
100
AcDbEntity
  8
0
  6
Continuous
 62
     7
370
    25
100
AcDbSpline
210
0.0
220
0.0
230
1.0
 70
     8
 71
     3
 72
    15
 73
    11
 74
     0
 42
0.00000001
 43
0.00000001
 40
0.0
 40
0.0
 40
0.0
 40
0.0
 40
0.0090459071881971
 40
0.1032433785236816
 40
0.1542564497735189
 40
0.31331690267151
 40
0.5243720399414428
 40
0.6678060008509183
 40
0.9918332554187028
 40
1.0
 40
1.0
 40
1.0
 40
1.0
 10
153.1664479192632
 20
95.52114087759816
 30
0.0
 10
153.1664422272965
 20
95.52282197618257
 30
0.0
 10
153.1663772633457
 20
95.54200880773809
 30
0.0
 10
153.1643815769098
 20
95.57070308725807
 30
0.0
 10
153.1565645806934
 20
95.62137912723001
 30
0.0
 10
153.1393947569384
 20
95.6792554268069
 30
0.0
 10
153.1128108603709
 20
95.72412094154159
 30
0.0
 10
153.0749815618822
 20
95.76148332479613
 30
0.0
 10
153.046700781872
 20
95.77102933706558
 30
0.0
 10
153.0268696343407
 20
95.77113820125238
 30
0.0
 10
153.0263821001978
 20
95.77114087759816
 30
0.0
  0
LINE
  5
89
330
1F
100
AcDbEntity
  8
0
  6
Continuous
 62
     7
370
    25
100
AcDbLine
 10
153.1664479193
 20
95.5211408776
 30
0.0
 11
142.6882772539
 21
95.5211408776
 31
0.0
  0
SPLINE
  5
8A
330
1F
100
AcDbEntity
  8
0
  6
Continuous
 62
     7
370
    25
100
AcDbSpline
210
0.0
220
0.0
230
1.0
 70
     8
 71
     3
 72
    15
 73
    11
 74
     0
 42
0.00000001
 43
0.00000001
 40
0.0
 40
0.0
 40
0.0
 40
0.0
 40
0.0081667445812973
 40
0.3321939991490804
 40
0.475627960058556
 40
0.6866830973284891
 40
0.8457435502264751
 40
0.8967566214763124
 40
0.9909540928118028
 40
1.0
 40
1.0
 40
1.0
 40
1.0
 10
142.8283430730123
 20
95.77114087759816
 30
0.0
 10
142.8278555388694
 20
95.77113820125237
 30
0.0
 10
142.8080243913381
 20
95.77102933706554
 30
0.0
 10
142.7797436113279
 20
95.76148332479615
 30
0.0
 10
142.7419143128392
 20
95.72412094154159
 30
0.0
 10
142.7153304162717
 20
95.6792554268069
 30
0.0
 10
142.6981605925168
 20
95.62137912723001
 30
0.0
 10
142.6903435963003
 20
95.57070308725808
 30
0.0
 10
142.6883479098644
 20
95.54200880773806
 30
0.0
 10
142.6882829459136
 20
95.52282197618257
 30
0.0
 10
142.6882772539469
 20
95.52114087759816
 30
0.0
  0
LINE
  5
8B
330
1F
100
AcDbEntity
  8
0
  6
Continuous
 62
     7
370
    25
100
AcDbLine
 10
142.828343073
 20
95.7711408776
 30
0.0
 11
153.0263821002
 21
95.7711408776
 31
0.0
  0
LINE
  5
8C
330
1F
100
AcDbEntity
  8
0
  6
Continuous
 62
     7
370
    25
100
AcDbLine
 10
153.1664479193
 20
94.9211408776
 30
0.0
 11
153.1664479193
 21
95.5211408776
 31
0.0
  0
LINE
  5
8D
330
1F
100
AcDbEntity
  8
0
  6
Continuous
 62
     7
370
    25
100
AcDbLine
 10
142.6882772539
 20
95.5211408776
 30
0.0
 11
142.6882772539
 21
94.9211408776
 31
0.0
  0
LINE
  5
8E
330
1F
100
AcDbEntity
  8
0
  6
Continuous
 62
     7
370
    25
100
AcDbLine
 10
142.6882772539
 20
94.9211408776
 30
0.0
 11
153.1664479193
 21
94.9211408776
 31
0.0
  0
SPLINE
  5
8F
330
1F
100
AcDbEntity
  8
0
  6
Continuous
 62
     7
370
    25
100
AcDbSpline
210
0.0
220
0.0
230
1.0
 70
     8
 71
     3
 72
    15
 73
    11
 74
     0
 42
0.00000001
 43
0.00000001
 40
0.0
 40
0.0
 40
0.0
 40
0.0
 40
0.0089557228015919
 40
0.0999003359608209
 40
0.1531632460581751
 40
0.3125636920784904
 40
0.5249666935695061
 40
0.6689893599351777
 40
0.991915253381045
 40
1.0
 40
1.0
 40
1.0
 40
1.0
 10
142.4501370115534
 20
95.52114087759816
 30
0.0
 10
142.450152767132
 20
95.52282200317106
 30
0.0
 10
142.4503285192886
 20
95.54157481779549
 30
0.0
 10
142.4557575353081
 20
95.570337046903
 30
0.0
 10
142.4772930190154
 20
95.62122412037131
 30
0.0
 10
142.5249984472802
 20
95.67935977050396
 30
0.0
 10
142.5973893922722
 20
95.72406764368736
 30
0.0
 10
142.6993085042898
 20
95.76134946714912
 30
0.0
 10
142.7746635957448
 20
95.77102862198674
 30
0.0
 10
142.8270632414682
 20
95.77113820118848
 30
0.0
 10
142.8283430730123
 20
95.77114087759816
 30
0.0
  0
LINE
  5
90
330
1F
100
AcDbEntity
  8
0
  6
Continuous
 62
     7
370
    25
100
AcDbLine
 10
142.4501370116
 20
95.5211408776
 30
0.0
 11
142.6882772539
 21
95.5211408776
 31
0.0
  0
SPLINE
  5
91
330
1F
100
AcDbEntity
  8
0
  6
Continuous
 62
     7
370
    25
100
AcDbSpline
210
0.0
220
0.0
230
1.0
 70
     8
 71
     3
 72
    15
 73
    11
 74
     0
 42
0.00000001
 43
0.00000001
 40
0.0
 40
0.0
 40
0.0
 40
0.0
 40
0.0080847466189582
 40
0.3310106400648243
 40
0.4750333064304948
 40
0.6874363079215142
 40
0.8468367539418303
 40
0.9000996640391847
 40
0.9910442771984082
 40
1.0
 40
1.0
 40
1.0
 40
1.0
 10
153.0263821001978
 20
95.77114087759816
 30
0.0
 10
153.027661931742
 20
95.77113820118848
 30
0.0
 10
153.0800615774652
 20
95.77102862198674
 30
0.0
 10
153.1554166689203
 20
95.7613494671491
 30
0.0
 10
153.257335780938
 20
95.72406764368738
 30
0.0
 10
153.3297267259299
 20
95.67935977050396
 30
0.0
 10
153.3774321541947
 20
95.62122412037131
 30
0.0
 10
153.398967637902
 20
95.57033704690299
 30
0.0
 10
153.4043966539216
 20
95.54157481779549
 30
0.0
 10
153.4045724060781
 20
95.52282200317106
 30
0.0
 10
153.4045881616567
 20
95.52114087759816
 30
0.0
  0
LINE
  5
92
330
1F
100
AcDbEntity
  8
0
  6
Continuous
 62
     7
370
    25
100
AcDbLine
 10
153.1664479193
 20
95.5211408776
 30
0.0
 11
153.4045881617
 21
95.5211408776
 31
0.0
  0
LINE
  5
93
330
1F
100
AcDbEntity
  8
0
  6
Continuous
 62
     7
370
    25
100
AcDbLine
 10
142.4501370116
 20
94.9211408776
 30
0.0
 11
142.4501370116
 21
95.5211408776
 31
0.0
  0
LINE
  5
94
330
1F
100
AcDbEntity
  8
0
  6
Continuous
 62
     7
370
    25
100
AcDbLine
 10
142.6882772539
 20
94.9211408776
 30
0.0
 11
142.4501370116
 21
94.9211408776
 31
0.0
  0
LINE
  5
95
330
1F
100
AcDbEntity
  8
0
  6
Continuous
 62
     7
370
    25
100
AcDbLine
 10
153.4045881617
 20
95.5211408776
 30
0.0
 11
153.4045881617
 21
94.9211408776
 31
0.0
  0
LINE
  5
96
330
1F
100
AcDbEntity
  8
0
  6
Continuous
 62
     7
370
    25
100
AcDbLine
 10
153.4045881617
 20
94.9211408776
 30
0.0
 11
153.1664479193
 21
94.9211408776
 31
0.0
  0
LINE
  5
97
330
1F
100
AcDbEntity
  8
0
  6
Continuous
 62
     7
370
    25
100
AcDbLine
 10
142.4501370116
 20
95.5211408776
 30
0.0
 11
142.1773625866
 21
95.5211408776
 31
0.0
  0
LINE
  5
98
330
1F
100
AcDbEntity
  8
0
  6
Continuous
 62
     7
370
    25
100
AcDbLine
 10
142.1773625866
 20
95.7711408776
 30
0.0
 11
142.1773625866
 21
95.5211408776
 31
0.0
  0
LINE
  5
99
330
1F
100
AcDbEntity
  8
0
  6
Continuous
 62
     7
370
    25
100
AcDbLine
 10
142.1773625866
 20
95.7711408776
 30
0.0
 11
142.828343073
 21
95.7711408776
 31
0.0
  0
LINE
  5
9A
330
1F
100
AcDbEntity
  8
0
  6
Continuous
 62
     7
370
    25
100
AcDbLine
 10
142.1773625866
 20
95.5211408776
 30
0.0
 11
142.1773625866
 21
94.9211408776
 31
0.0
  0
LINE
  5
9B
330
1F
100
AcDbEntity
  8
0
  6
Continuous
 62
     7
370
    25
100
AcDbLine
 10
142.1773625866
 20
94.9211408776
 30
0.0
 11
142.4501370116
 21
94.9211408776
 31
0.0
  0
LINE
  5
9C
330
1F
100
AcDbEntity
  8
0
  6
Continuous
 62
     7
370
    25
100
AcDbLine
 10
141.9273625866
 20
94.9211408776
 30
0.0
 11
141.9273625866
 21
95.5211408776
 31
0.0
  0
LINE
  5
9D
330
1F
100
AcDbEntity
  8
0
  6
Continuous
 62
     7
370
    25
100
AcDbLine
 10
141.9273625866
 20
95.5211408776
 30
0.0
 11
142.1773625866
 21
95.5211408776
 31
0.0
  0
LINE
  5
9E
330
1F
100
AcDbEntity
  8
0
  6
Continuous
 62
     7
370
    25
100
AcDbLine
 10
142.1773625866
 20
94.9211408776
 30
0.0
 11
141.9273625866
 21
94.9211408776
 31
0.0
  0
ARC
  5
9F
330
1F
100
AcDbEntity
  8
0
  6
Continuous
 62
     7
370
    25
100
AcDbCircle
 10
142.1773625866
 20
95.5211408776
 30
0.0
 40
0.25
100
AcDbArc
 50
90.0
 51
180.0
  0
LINE
  5
A0
330
1F
100
AcDbEntity
  8
0
  6
Continuous
 62
     7
370
    25
100
AcDbLine
 10
153.6773625866
 20
95.5211408776
 30
0.0
 11
153.9273625866
 21
95.5211408776
 31
0.0
  0
LINE
  5
A1
330
1F
100
AcDbEntity
  8
0
  6
Continuous
 62
     7
370
    25
100
AcDbLine
 10
153.6773625866
 20
95.5211408776
 30
0.0
 11
153.6773625866
 21
95.7711408776
 31
0.0
  0
ARC
  5
A2
330
1F
100
AcDbEntity
  8
0
  6
Continuous
 62
     7
370
    25
100
AcDbCircle
 10
153.6773625866
 20
95.5211408776
 30
0.0
 40
0.25
100
AcDbArc
 50
0.0
 51
90.0
  0
LINE
  5
A3
330
1F
100
AcDbEntity
  8
0
  6
Continuous
 62
     7
370
    25
100
AcDbLine
 10
153.6773625866
 20
94.9211408776
 30
0.0
 11
153.6773625866
 21
95.5211408776
 31
0.0
  0
LINE
  5
A4
330
1F
100
AcDbEntity
  8
0
  6
Continuous
 62
     7
370
    25
100
AcDbLine
 10
153.6773625866
 20
95.5211408776
 30
0.0
 11
153.4045881617
 21
95.5211408776
 31
0.0
  0
LINE
  5
A5
330
1F
100
AcDbEntity
  8
0
  6
Continuous
 62
     7
370
    25
100
AcDbLine
 10
153.4045881617
 20
94.9211408776
 30
0.0
 11
153.6773625866
 21
94.9211408776
 31
0.0
  0
LINE
  5
A6
330
1F
100
AcDbEntity
  8
0
  6
Continuous
 62
     7
370
    25
100
AcDbLine
 10
153.9273625866
 20
95.5211408776
 30
0.0
 11
153.9273625866
 21
94.9211408776
 31
0.0
  0
LINE
  5
A7
330
1F
100
AcDbEntity
  8
0
  6
Continuous
 62
     7
370
    25
100
AcDbLine
 10
153.9273625866
 20
94.9211408776
 30
0.0
 11
153.6773625866
 21
94.9211408776
 31
0.0
  0
LINE
  5
A8
330
1F
100
AcDbEntity
  8
0
  6
Continuous
 62
     7
370
    25
100
AcDbLine
 10
153.0263821002
 20
95.7711408776
 30
0.0
 11
153.6773625866
 21
95.7711408776
 31
0.0
  0
LINE
  5
A9
330
1F
100
AcDbEntity
  8
0
  6
Continuous
 62
     7
370
    25
100
AcDbLine
 10
142.9273625866
 20
95.7811408776
 30
0.0
 11
152.9273625866
 21
95.7811408776
 31
0.0
  0
LINE
  5
AA
330
1F
100
AcDbEntity
  8
0
  6
Continuous
 62
     7
370
    25
100
AcDbLine
 10
152.9273625866
 20
95.7711408776
 30
0.0
 11
152.9273625866
 21
95.7811408776
 31
0.0
  0
LINE
  5
AB
330
1F
100
AcDbEntity
  8
0
  6
Continuous
 62
     7
370
    25
100
AcDbLine
 10
142.9273625866
 20
95.7711408776
 30
0.0
 11
142.9273625866
 21
95.7811408776
 31
0.0
  0
LINE
  5
AC
330
1F
100
AcDbEntity
  8
0
  6
Continuous
 62
     7
370
    25
100
AcDbLine
 10
140.4773625866
 20
86.9211408776
 30
0.0
 11
152.4019094707
 21
86.9211408776
 31
0.0
  0
LINE
  5
AD
330
1F
100
AcDbEntity
  8
0
  6
Continuous
 62
     7
370
    25
100
AcDbLine
 10
153.151164761
 20
94.9211408776
 30
0.0
 11
142.6882772539
 21
94.9211408776
 31
0.0
  0
LINE
  5
AE
330
1F
100
AcDbEntity
  8
0
  6
Continuous
 62
     7
370
    25
100
AcDbLine
 10
154.8793034249
 20
87.9158844556
 30
0.0
 11
153.151164761
 21
94.9211408776
 31
0.0
  0
LINE
  5
AF
330
1F
100
AcDbEntity
  8
0
  6
Continuous
 62
     7
370
    25
100
AcDbLine
 10
152.4019094707
 20
86.9211408776
 30
0.0
 11
151.6416987149
 21
87.9158844556
 31
0.0
  0
LINE
  5
B0
330
1F
100
AcDbEntity
  8
0
  6
Continuous
 62
     7
370
    25
100
AcDbLine
 10
149.9273625866
 20
78.9211408776
 30
0.0
 11
149.9273626811
 21
78.9589577555
 31
0.0
  0
LINE
  5
B1
330
1F
100
AcDbEntity
  8
0
  6
Continuous
 62
     7
370
    25
100
AcDbLine
 10
140.9273625866
 20
78.9211408776
 30
0.0
 11
149.9273625866
 21
78.9211408776
 31
0.0
  0
SPLINE
  5
B2
330
1F
100
AcDbEntity
  8
0
  6
Continuous
 62
     7
370
    25
100
AcDbSpline
210
0.0
220
0.0
230
1.0
 70
     8
 71
     3
 72
    16
 73
    12
 74
     0
 42
0.00000001
 43
0.00000001
 40
0.0
 40
0.0
 40
0.0
 40
0.0
 40
0.0155634360124117
 40
0.0359329243097674
 40
0.0739120889290614
 40
0.1570057548437684
 40
0.2406581385754913
 40
0.4592958294318596
 40
0.6783839187935417
 40
0.8974954344294845
 40
1.0
 40
1.0
 40
1.0
 40
1.0
 10
150.0833078370322
 20
78.92114087759825
 30
0.0
 10
150.1256998263008
 20
78.9263342493774
 30
0.0
 10
150.2235746233904
 20
78.93832472724519
 30
0.0
 10
150.3970532944032
 20
79.05665065124215
 30
0.0
 10
150.6453869734059
 20
79.3679019586911
 30
0.0
 10
150.8998515154518
 20
79.89354946005615
 30
0.0
 10
151.2435309271429
 20
80.93209562432631
 30
0.0
 10
151.6247509464096
 20
82.36716966667242
 30
0.0
 10
151.9748526024092
 20
84.20542176811186
 30
0.0
 10
152.2186444514975
 20
85.72660461693131
 30
0.0
 10
152.3576166466545
 20
86.63243665772782
 30
0.0
 10
152.4019094706872
 20
86.92114087759578
 30
0.0
  0
SPLINE
  5
B3
330
1F
100
AcDbEntity
  8
0
  6
Continuous
 62
     7
370
    25
100
AcDbSpline
210
0.0
220
0.0
230
1.0
 70
     8
 71
     3
 72
     9
 73
     5
 74
     0
 42
0.00000001
 43
0.00000001
 40
0.0
 40
0.0
 40
0.0
 40
0.0
 40
0.5124861829376838
 40
0.9999999999999999
 40
0.9999999999999999
 40
0.9999999999999999
 40
0.9999999999999999
 10
149.9273626811364
 20
78.95895775553836
 30
0.0
 10
149.9530051853083
 20
78.9479298425872
 30
0.0
 10
150.0030406887531
 20
78.92641138351779
 30
0.0
 10
150.0570012956116
 20
78.92286821917263
 30
0.0
 10
150.0833078370322
 20
78.92114087759825
 30
0.0
  0
LINE
  5
B4
330
1F
100
AcDbEntity
  8
0
  6
Continuous
 62
     7
370
    25
100
AcDbLine
 10
151.6416987149
 20
87.9158844556
 30
0.0
 11
170.1027994481
 21
87.9158844556
 31
0.0
  0
LINE
  5
B5
330
1F
100
AcDbEntity
  8
0
  6
Continuous
 62
     7
370
    25
100
AcDbLine
 10
170.1027994481
 20
87.9158844556
 30
0.0
 11
170.1027994481
 21
84.6733165706
 31
0.0
  0
SPLINE
  5
B6
330
1F
100
AcDbEntity
  8
0
  6
Continuous
 62
     7
370
    25
100
AcDbSpline
210
0.0
220
0.0
230
1.0
 70
     8
 71
     3
 72
     9
 73
     5
 74
     0
 42
0.00000001
 43
0.00000001
 40
0.0
 40
0.0
 40
0.0
 40
0.0
 40
0.4977232396629078
 40
1.0
 40
1.0
 40
1.0
 40
1.0
 10
163.032405825898
 20
83.35011606958818
 30
0.0
 10
164.189727057832
 20
83.63970847021234
 30
0.0
 10
166.5149575066208
 20
84.22154266549781
 30
0.0
 10
168.9032271226108
 20
84.52226881463594
 30
0.0
 10
170.1027994481417
 20
84.6733165705737
 30
0.0
  0
LINE
  5
B7
330
1F
100
AcDbEntity
  8
0
  6
Continuous
 62
     7
370
    25
100
AcDbLine
 10
163.0324058259
 20
83.3501160696
 30
0.0
 11
157.252648976
 21
81.7814946291
 31
0.0
  0
SPLINE
  5
B8
330
1F
100
AcDbEntity
  8
0
  6
Continuous
 62
     7
370
    25
100
AcDbSpline
210
0.0
220
0.0
230
1.0
 70
     8
 71
     3
 72
    13
 73
     9
 74
     0
 42
0.00000001
 43
0.00000001
 40
0.0
 40
0.0
 40
0.0
 40
0.0
 40
0.1610294006389558
 40
0.3266880383557516
 40
0.4877296220820636
 40
0.6535536198224136
 40
0.8237602734841889
 40
1.0
 40
1.0
 40
1.0
 40
1.0
 10
157.2526489760427
 20
81.78149462910531
 30
0.0
 10
157.0387789220116
 20
81.71209773452806
 30
0.0
 10
156.6048905256242
 20
81.57130893901953
 30
0.0
 10
156.0135697769585
 20
81.22518412131187
 30
0.0
 10
155.4796384281078
 20
80.78597747825982
 30
0.0
 10
155.0259544563048
 20
80.25237564132023
 30
0.0
 10
154.6515007433193
 20
79.62854933462054
 30
0.0
 10
154.5029376725605
 20
79.15966543641856
 30
0.0
 10
154.4273625866051
 20
78.92114087759815
 30
0.0
  0
LINE
  5
B9
330
1F
100
AcDbEntity
  8
0
  6
Continuous
 62
     7
370
    25
100
AcDbLine
 10
154.4273625866
 20
78.9211408776
 30
0.0
 11
150.083307837
 21
78.9211408776
 31
0.0
  0
LINE
  5
BA
330
1F
100
AcDbEntity
  8
0
  6
Continuous
 62
     7
370
    25
100
AcDbLine
 10
149.9341619445
 20
78.9211408776
 30
0.0
 11
149.9273626811
 21
78.9589577555
 31
0.0
  0
LINE
  5
BB
330
1F
100
AcDbEntity
  8
0
  6
Continuous
 62
     7
370
    25
100
AcDbLine
 10
149.9273625866
 20
78.9211408776
 30
0.0
 11
149.9341619445
 21
78.9211408776
 31
0.0
  0
LINE
  5
BC
330
1F
100
AcDbEntity
  8
0
  6
Continuous
 62
     7
370
    25
100
AcDbLine
 10
150.083307837
 20
78.9211408776
 30
0.0
 11
149.9341619445
 21
78.9211408776
 31
0.0
  0
LINE
  5
BD
330
1F
100
AcDbEntity
  8
0
  6
Continuous
 62
     7
370
    25
100
AcDbLine
 10
170.1027994481
 20
87.9158844556
 30
0.0
 11
170.1027994481
 21
96.9211408776
 31
0.0
  0
LINE
  5
BE
330
1F
100
AcDbEntity
  8
0
  6
Continuous
 62
     7
370
    25
100
AcDbLine
 10
170.1027994481
 20
96.9211408776
 30
0.0
 11
187.9273625866
 21
96.9211408776
 31
0.0
  0
LINE
  5
BF
330
1F
100
AcDbEntity
  8
0
  6
Continuous
 62
     7
370
    25
100
AcDbLine
 10
187.9273625866
 20
96.9211408776
 30
0.0
 11
187.9273625866
 21
89.9211408776
 31
0.0
  0
ARC
  5
C0
330
1F
100
AcDbEntity
  8
0
  6
Continuous
 62
     7
370
    25
100
AcDbCircle
 10
182.9273625866
 20
89.9211408776
 30
0.0
 40
5.0
100
AcDbArc
 50
270.0
 51
0.0
  0
LINE
  5
C1
330
1F
100
AcDbEntity
  8
0
  6
Continuous
 62
     7
370
    25
100
AcDbLine
 10
182.9273625866
 20
84.9211408776
 30
0.0
 11
174.8190304444
 21
84.9211408776
 31
0.0
  0
ARC
  5
C2
330
1F
100
AcDbEntity
  8
0
  6
Continuous
 62
     7
370
    25
100
AcDbCircle
 10
174.8190304444
 20
39.9210116234
 30
0.0
 40
45.00012925418374
100
AcDbArc
 50
90.0
 51
96.0159222295
  0
ARC
  5
C3
330
1F
100
AcDbEntity
  8
0
  6
Continuous
 62
     7
370
    25
100
AcDbCircle
 10
162.3163161509
 20
98.9211408776
 30
0.0
 40
10.00000000000845
100
AcDbArc
 50
203.5781784783
 51
264.4198332155
  0
ARC
  5
C4
330
1F
100
AcDbEntity
  8
0
  6
Continuous
 62
     7
370
    25
100
AcDbCircle
 10
161.9273625866
 20
94.940096401
 30
0.0
 40
6.000000000000003
100
AcDbArc
 50
264.4198332155
 51
0.0
  0
LINE
  5
C5
330
1F
100
AcDbEntity
  8
0
  6
Continuous
 62
     7
370
    25
100
AcDbLine
 10
167.9273625866
 20
96.9211408776
 30
0.0
 11
167.9273625866
 21
94.940096401
 31
0.0
  0
LINE
  5
C6
330
1F
100
AcDbEntity
  8
0
  6
Continuous
 62
     7
370
    25
100
AcDbLine
 10
167.9273625866
 20
96.9211408776
 30
0.0
 11
170.1027994481
 21
96.9211408776
 31
0.0
  0
LINE
  5
C7
330
1F
100
AcDbEntity
  8
0
  6
Continuous
 62
     7
370
    25
100
AcDbLine
 10
154.9273625866
 20
78.9211408776
 30
0.0
 11
154.4273625866
 21
78.9211408776
 31
0.0
  0
LINE
  5
C8
330
1F
100
AcDbEntity
  8
0
  6
Continuous
 62
     7
370
    25
100
AcDbLine
 10
153.151164761
 20
94.9211408776
 30
0.0
 11
153.1664479193
 21
94.9211408776
 31
0.0
  0
LINE
  5
C9
330
1F
100
AcDbEntity
  8
0
  6
Continuous
 62
     7
370
    25
100
AcDbLine
 10
133.6273625866
 20
64.9378305298
 30
0.0
 11
133.6273625866
 21
60.4211408776
 31
0.0
  0
LINE
  5
CA
330
1F
100
AcDbEntity
  8
0
  6
Continuous
 62
     7
370
    25
100
AcDbLine
 10
133.6273625866
 20
76.4211408776
 30
0.0
 11
133.6273625866
 21
64.9378305298
 31
0.0
  0
LINE
  5
CB
330
1F
100
AcDbEntity
  8
0
  6
Continuous
 62
     7
370
    25
100
AcDbLine
 10
133.4273625866
 20
65.0249132885
 30
0.0
 11
133.4273625866
 21
76.2211408776
 31
0.0
  0
LINE
  5
CC
330
1F
100
AcDbEntity
  8
0
  6
Continuous
 62
     7
370
    25
100
AcDbLine
 10
133.4273625866
 20
60.6211408776
 30
0.0
 11
133.4273625866
 21
65.0249132885
 31
0.0
  0
LINE
  5
CD
330
1F
100
AcDbEntity
  8
0
  6
Continuous
 62
     7
370
    25
100
AcDbLine
 10
123.4273625866
 20
66.5209950829
 30
0.0
 11
123.4273625866
 21
72.7851408776
 31
0.0
  0
LINE
  5
CE
330
1F
100
AcDbEntity
  8
0
  6
Continuous
 62
     7
370
    25
100
AcDbLine
 10
123.4273625866
 20
64.0571408776
 30
0.0
 11
123.4273625866
 21
66.5209950829
 31
0.0
  0
LINE
  5
CF
330
1F
100
AcDbEntity
  8
0
  6
Continuous
 62
     7
370
    25
100
AcDbLine
 10
123.9273625866
 20
66.3032881861
 30
0.0
 11
123.9273625866
 21
63.5571408776
 31
0.0
  0
LINE
  5
D0
330
1F
100
AcDbEntity
  8
0
  6
Continuous
 62
     7
370
    25
100
AcDbLine
 10
123.9273625866
 20
73.2851408776
 30
0.0
 11
123.9273625866
 21
66.3032881861
 31
0.0
  0
SPLINE
  5
D1
330
1F
100
AcDbEntity
  8
0
  6
Continuous
 62
     7
370
    25
100
AcDbSpline
210
0.0
220
0.0
230
1.0
 70
     8
 71
     3
 72
    10
 73
     6
 74
     0
 42
0.00000001
 43
0.00000001
 40
0.0
 40
0.0
 40
0.0
 40
0.0
 40
0.5
 40
0.5
 40
1.0
 40
1.0
 40
1.0
 40
1.0
 10
143.308560433088
 20
57.09886228285831
 30
0.0
 10
144.0592391325839
 20
56.89193222932561
 30
0.0
 10
144.8235200768065
 20
56.72012661895192
 30
0.0
 10
146.3780948108941
 20
56.48317611242054
 30
0.0
 10
147.1536697784102
 20
56.42114087759815
 30
0.0
 10
147.9273625866051
 20
56.42114087759815
 30
0.0
  0
LINE
  5
D2
330
1F
100
AcDbEntity
  8
0
  6
Continuous
 62
     7
370
    25
100
AcDbLine
 10
143.3085604331
 20
60.4547443377
 30
0.0
 11
143.3085604331
 21
57.0988622829
 31
0.0
  0
SPLINE
  5
D3
330
1F
100
AcDbEntity
  8
0
  6
Continuous
 62
     7
370
    25
100
AcDbSpline
210
0.0
220
0.0
230
1.0
 70
     8
 71
     3
 72
     8
 73
     4
 74
     0
 42
0.00000001
 43
0.00000001
 40
0.0
 40
0.0
 40
0.0
 40
0.0
 40
1.0
 40
1.0
 40
1.0
 40
1.0
 10
143.308560433088
 20
60.45474433774316
 30
0.0
 10
143.5137462556313
 20
60.51130530486738
 30
0.0
 10
143.7199694563386
 20
60.56524537628121
 30
0.0
 10
143.9273625866051
 20
60.61622966602418
 30
0.0
  0
LINE
  5
D4
330
1F
100
AcDbEntity
  8
0
  6
Continuous
 62
     7
370
    25
100
AcDbLine
 10
143.9273625866
 20
64.4211408776
 30
0.0
 11
141.4111265096
 21
64.4211408776
 31
0.0
  0
SPLINE
  5
D5
330
1F
100
AcDbEntity
  8
0
  6
Continuous
 62
     7
370
    25
100
AcDbSpline
210
0.0
220
0.0
230
1.0
 70
     8
 71
     3
 72
     8
 73
     4
 74
     0
 42
0.00000001
 43
0.00000001
 40
0.0
 40
0.0
 40
0.0
 40
0.0
 40
1.0
 40
1.0
 40
1.0
 40
1.0
 10
141.2496411813449
 20
63.80233872408112
 30
0.0
 10
141.3062045508131
 20
64.00753326159088
 30
0.0
 10
141.3601444736343
 20
64.21375691510804
 30
0.0
 10
141.4111265096259
 20
64.42114087759815
 30
0.0
  0
LINE
  5
D6
330
1F
100
AcDbEntity
  8
0
  6
Continuous
 62
     7
370
    25
100
AcDbLine
 10
137.1050839919
 20
63.8023387241
 30
0.0
 11
141.2496411813
 21
63.8023387241
 31
0.0
  0
SPLINE
  5
D7
330
1F
100
AcDbEntity
  8
0
  6
Continuous
 62
     7
370
    25
100
AcDbSpline
210
0.0
220
0.0
230
1.0
 70
     8
 71
     3
 72
    10
 73
     6
 74
     0
 42
0.00000001
 43
0.00000001
 40
0.0
 40
0.0
 40
0.0
 40
0.0
 40
0.5
 40
0.5
 40
1.0
 40
1.0
 40
1.0
 40
1.0
 10
137.1050839918653
 20
63.80233872408114
 30
0.0
 10
136.897015315634
 20
64.55714799713043
 30
0.0
 10
136.7266163096095
 20
65.31789438436233
 30
0.0
 10
136.4914563299107
 20
66.85603676198559
 30
0.0
 10
136.427362586605
 20
67.6335379145104
 30
0.0
 10
136.4273625866051
 20
68.42114087759815
 30
0.0
  0
SPLINE
  5
D8
330
1F
100
AcDbEntity
  8
0
  6
Continuous
 62
     7
370
    25
100
AcDbSpline
210
0.0
220
0.0
230
1.0
 70
     8
 71
     3
 72
    12
 73
     8
 74
     0
 42
0.00000001
 43
0.00000001
 40
0.0
 40
0.0
 40
0.0
 40
0.0
 40
0.2500000000000001
 40
0.2500000000000001
 40
0.5000000000000001
 40
0.5000000000000001
 40
1.0
 40
1.0
 40
1.0
 40
1.0
 10
136.4273625866051
 20
68.42114087759815
 30
0.0
 10
136.4273625866051
 20
68.81545895826999
 30
0.0
 10
136.4433613915861
 20
69.20911800222044
 30
0.0
 10
136.5051315299005
 20
69.98865400176577
 30
0.0
 10
136.5508736542021
 20
70.3756071898912
 30
0.0
 10
136.7275438015489
 20
71.5289937527452
 30
0.0
 10
136.8977988670293
 20
72.28797624195023
 30
0.0
 10
137.1050839918653
 20
73.03994303111516
 30
0.0
  0
LINE
  5
D9
330
1F
100
AcDbEntity
  8
0
  6
Continuous
 62
     7
370
    25
100
AcDbLine
 10
141.2496411813
 20
73.0399430311
 30
0.0
 11
137.1050839919
 21
73.0399430311
 31
0.0
  0
SPLINE
  5
DA
330
1F
100
AcDbEntity
  8
0
  6
Continuous
 62
     7
370
    25
100
AcDbSpline
210
0.0
220
0.0
230
1.0
 70
     8
 71
     3
 72
     8
 73
     4
 74
     0
 42
0.00000001
 43
0.00000001
 40
0.0
 40
0.0
 40
0.0
 40
0.0
 40
1.0
 40
1.0
 40
1.0
 40
1.0
 10
141.4111265096259
 20
72.42114087759816
 30
0.0
 10
141.3602277927033
 20
72.62818591602714
 30
0.0
 10
141.3062936564526
 20
72.83442524570378
 30
0.0
 10
141.2496411813449
 20
73.03994303111516
 30
0.0
  0
LINE
  5
DB
330
1F
100
AcDbEntity
  8
0
  6
Continuous
 62
     7
370
    25
100
AcDbLine
 10
154.4435986636
 20
72.4211408776
 30
0.0
 11
141.4111265096
 21
72.4211408776
 31
0.0
  0
SPLINE
  5
DC
330
1F
100
AcDbEntity
  8
0
  6
Continuous
 62
     7
370
    25
100
AcDbSpline
210
0.0
220
0.0
230
1.0
 70
     8
 71
     3
 72
     8
 73
     4
 74
     0
 42
0.00000001
 43
0.00000001
 40
0.0
 40
0.0
 40
0.0
 40
0.0
 40
1.0
 40
1.0
 40
1.0
 40
1.0
 10
154.4435986635843
 20
72.42114087759822
 30
0.0
 10
154.4944948968393
 20
72.62817581300197
 30
0.0
 10
154.548428851803
 20
72.83441557806697
 30
0.0
 10
154.6050839918653
 20
73.03994303111516
 30
0.0
  0
LINE
  5
DD
330
1F
100
AcDbEntity
  8
0
  6
Continuous
 62
     7
370
    25
100
AcDbLine
 10
159.105303614
 20
73.0399430311
 30
0.0
 11
154.6050839919
 21
73.0399430311
 31
0.0
  0
SPLINE
  5
DE
330
1F
100
AcDbEntity
  8
0
  6
Continuous
 62
     7
370
    25
100
AcDbSpline
210
0.0
220
0.0
230
1.0
 70
     8
 71
     3
 72
    14
 73
    10
 74
     0
 42
0.00000001
 43
0.00000001
 40
0.0
 40
0.0
 40
0.0
 40
0.0
 40
0.25
 40
0.25
 40
0.5
 40
0.5
 40
0.75
 40
0.75
 40
1.0
 40
1.0
 40
1.0
 40
1.0
 10
159.1053036140474
 20
63.8023387240811
 30
0.0
 10
159.3132539747533
 20
64.55671878473109
 30
0.0
 10
159.4854757834421
 20
65.32615995219658
 30
0.0
 10
159.720110906193
 20
66.86667131313774
 30
0.0
 10
159.7830549648207
 20
67.64152569314476
 30
0.0
 10
159.7829950520892
 20
69.20188664803031
 30
0.0
 10
159.7183803857971
 20
69.99234284081535
 30
0.0
 10
159.4818210463959
 20
71.53462250362382
 30
0.0
 10
159.3114759063164
 20
72.292013256825
 30
0.0
 10
159.1053036140474
 20
73.03994303111516
 30
0.0
  0
LINE
  5
DF
330
1F
100
AcDbEntity
  8
0
  6
Continuous
 62
     7
370
    25
100
AcDbLine
 10
154.6050839919
 20
63.8023387241
 30
0.0
 11
159.105303614
 21
63.8023387241
 31
0.0
  0
SPLINE
  5
E0
330
1F
100
AcDbEntity
  8
0
  6
Continuous
 62
     7
370
    25
100
AcDbSpline
210
0.0
220
0.0
230
1.0
 70
     8
 71
     3
 72
     8
 73
     4
 74
     0
 42
0.00000001
 43
0.00000001
 40
0.0
 40
0.0
 40
0.0
 40
0.0
 40
1.0
 40
1.0
 40
1.0
 40
1.0
 10
154.6050839918652
 20
63.80233872408112
 30
0.0
 10
154.5485221484283
 20
64.00752772561793
 30
0.0
 10
154.4945821311719
 20
64.21375109168264
 30
0.0
 10
154.4435986635842
 20
64.42114087759809
 30
0.0
  0
LINE
  5
E1
330
1F
100
AcDbEntity
  8
0
  6
Continuous
 62
     7
370
    25
100
AcDbLine
 10
154.4435986636
 20
64.4211408776
 30
0.0
 11
151.9273625866
 21
64.4211408776
 31
0.0
  0
LINE
  5
E2
330
1F
100
AcDbEntity
  8
0
  6
Continuous
 62
     7
370
    25
100
AcDbLine
 10
151.9273625866
 20
60.616229666
 30
0.0
 11
151.9273625866
 21
64.4211408776
 31
0.0
  0
SPLINE
  5
E3
330
1F
100
AcDbEntity
  8
0
  6
Continuous
 62
     7
370
    25
100
AcDbSpline
210
0.0
220
0.0
230
1.0
 70
     8
 71
     3
 72
     8
 73
     4
 74
     0
 42
0.00000001
 43
0.00000001
 40
0.0
 40
0.0
 40
0.0
 40
0.0
 40
1.0
 40
1.0
 40
1.0
 40
1.0
 10
151.9273625866051
 20
60.61622966602417
 30
0.0
 10
152.1343916499405
 20
60.56533487632335
 30
0.0
 10
152.3406316672098
 20
60.51140102696191
 30
0.0
 10
152.5461647401221
 20
60.45474433774315
 30
0.0
  0
LINE
  5
E4
330
1F
100
AcDbEntity
  8
0
  6
Continuous
 62
     7
370
    25
100
AcDbLine
 10
152.5461647401
 20
57.0988622829
 30
0.0
 11
152.5461647401
 21
60.4547443377
 31
0.0
  0
SPLINE
  5
E5
330
1F
100
AcDbEntity
  8
0
  6
Continuous
 62
     7
370
    25
100
AcDbSpline
210
0.0
220
0.0
230
1.0
 70
     8
 71
     3
 72
    10
 73
     6
 74
     0
 42
0.00000001
 43
0.00000001
 40
0.0
 40
0.0
 40
0.0
 40
0.0
 40
0.5
 40
0.5
 40
1.0
 40
1.0
 40
1.0
 40
1.0
 10
147.9273625866051
 20
56.42114087759815
 30
0.0
 10
148.702942523212
 20
56.42114087759816
 30
0.0
 10
149.4766327419384
 20
56.48342523957667
 30
0.0
 10
151.0206672842713
 20
56.71827335758369
 30
0.0
 10
151.7939759604262
 20
56.8915159647149
 30
0.0
 10
152.5461647401221
 20
57.09886228285834
 30
0.0
  0
ARC
  5
E6
330
1F
100
AcDbEntity
  8
0
  6
Continuous
 62
     7
370
    25
100
AcDbCircle
 10
149.4780939423
 20
67.8442218843
 30
0.0
 40
0.889000000000007
100
AcDbArc
 50
45.0
 51
315.0
  0
LINE
  5
E7
330
1F
100
AcDbEntity
  8
0
  6
Continuous
 62
     7
370
    25
100
AcDbLine
 10
150.1067118708
 20
68.4728398128
 30
0.0
 11
150.5733222564
 21
68.9394501984
 31
0.0
  0
ARC
  5
E8
330
1F
100
AcDbEntity
  8
0
  6
Continuous
 62
     7
370
    25
100
AcDbCircle
 10
149.4780939423
 20
67.8442218843
 30
0.0
 40
1.548886735692424
100
AcDbArc
 50
45.0
 51
315.0
  0
LINE
  5
E9
330
1F
100
AcDbEntity
  8
0
  6
Continuous
 62
     7
370
    25
100
AcDbLine
 10
150.5733222564
 20
66.7489935702
 30
0.0
 11
150.1067118708
 21
67.2156039558
 31
0.0
  0
ARC
  5
EA
330
1F
100
AcDbEntity
  8
0
  6
Continuous
 62
     7
370
    25
100
AcDbCircle
 10
152.8202385387
 20
67.8442218843
 30
0.0
 40
0.8889999999999768
100
AcDbArc
 50
45.0
 51
159.0751675724
  0
LINE
  5
EB
330
1F
100
AcDbEntity
  8
0
  6
Continuous
 62
     7
370
    25
100
AcDbLine
 10
153.4488564672
 20
68.4728398128
 30
0.0
 11
153.9154668528
 21
68.9394501984
 31
0.0
  0
ARC
  5
EC
330
1F
100
AcDbEntity
  8
0
  6
Continuous
 62
     7
370
    25
100
AcDbCircle
 10
152.8202385387
 20
67.8442218843
 30
0.0
 40
1.548886735692394
100
AcDbArc
 50
45.0
 51
315.0
  0
LINE
  5
ED
330
1F
100
AcDbEntity
  8
0
  6
Continuous
 62
     7
370
    25
100
AcDbLine
 10
153.9154668528
 20
66.7489935702
 30
0.0
 11
153.4488564672
 21
67.2156039558
 31
0.0
  0
ARC
  5
EE
330
1F
100
AcDbEntity
  8
0
  6
Continuous
 62
     7
370
    25
100
AcDbCircle
 10
152.8202385387
 20
67.8442218843
 30
0.0
 40
0.889000000000014
100
AcDbArc
 50
200.9248324276
 51
315.0
  0
LINE
  5
EF
330
1F
100
AcDbEntity
  8
0
  6
Continuous
 62
     7
370
    25
100
AcDbLine
 10
151.9898682899
 20
67.5267218843
 30
0.0
 11
153.9154668528
 21
67.5267218843
 31
0.0
  0
LINE
  5
F0
330
1F
100
AcDbEntity
  8
0
  6
Continuous
 62
     7
370
    25
100
AcDbLine
 10
153.9154668528
 20
67.5267218843
 30
0.0
 11
153.9154668528
 21
68.1617218843
 31
0.0
  0
LINE
  5
F1
330
1F
100
AcDbEntity
  8
0
  6
Continuous
 62
     7
370
    25
100
AcDbLine
 10
153.9154668528
 20
68.1617218843
 30
0.0
 11
151.9898682899
 21
68.1617218843
 31
0.0
  0
LINE
  5
F2
330
1F
100
AcDbEntity
  8
0
  6
Continuous
 62
     7
370
    25
100
AcDbLine
 10
147.0256036726
 20
66.99876786
 30
0.0
 11
146.9839533533
 21
66.9749629302
 31
0.0
  0
ELLIPSE
  5
F3
330
1F
100
AcDbEntity
  8
0
  6
Continuous
 62
     7
370
    25
100
AcDbEllipse
 10
146.6351101738
 20
67.5296454014
 30
0.0
 11
0.6784129479252385
 21
6.110667527536862E-13
 31
0.0
210
0.0
220
0.0
230
1.0
 40
0.9533039403
 41
3.470145824140245
 42
5.252469180536318
  0
LINE
  5
F4
330
1F
100
AcDbEntity
  8
0
  6
Continuous
 62
     7
370
    25
100
AcDbLine
 10
145.9929854068
 20
67.3209612864
 30
0.0
 11
144.7333312019
 21
70.8434056831
 31
0.0
  0
ELLIPSE
  5
F5
330
1F
100
AcDbEntity
  8
0
  6
Continuous
 62
     7
370
    25
100
AcDbEllipse
 10
144.1423486439
 20
70.581066447
 30
0.0
 11
0.6519124952381503
 21
5.968558980384842E-13
 31
0.0
210
0.0
220
0.0
230
1.0
 40
0.9533023292
 41
0.4357905044354998
 42
2.705800116361537
  0
LINE
  5
F6
330
1F
100
AcDbEntity
  8
0
  6
Continuous
 62
     7
370
    25
100
AcDbLine
 10
143.5513666454
 20
70.8434068283
 30
0.0
 11
142.2920018438
 21
67.3217834266
 31
0.0
  0
ELLIPSE
  5
F7
330
1F
100
AcDbEntity
  8
0
  6
Continuous
 62
     7
370
    25
100
AcDbEllipse
 10
141.6498806598
 20
67.5304662602
 30
0.0
 11
-0.6784085062757867
 21
3.126388037344441E-13
 31
0.0
210
0.0
220
0.0
230
1.0
 40
0.9533122623
 41
1.04719377118793
 42
2.813042320199896
  0
LINE
  5
F8
330
1F
100
AcDbEntity
  8
0
  6
Continuous
 62
     7
370
    25
100
AcDbLine
 10
141.3106741858
 20
66.970378415
 30
0.0
 11
141.2590936153
 21
66.99876786
 31
0.0
  0
LINE
  5
F9
330
1F
100
AcDbEntity
  8
0
  6
Continuous
 62
     7
370
    25
100
AcDbLine
 10
141.2590936153
 20
66.99876786
 30
0.0
 11
142.0553622748
 21
65.4805957586
 31
0.0
  0
ELLIPSE
  5
FA
330
1F
100
AcDbEntity
  8
0
  6
Continuous
 62
     7
370
    25
100
AcDbEllipse
 10
142.1312111482
 20
65.5167492735
 30
0.0
 11
0.08480161849064416
 21
-2.842170943040401E-14
 31
0.0
210
0.0
220
0.0
230
1.0
 40
0.9533039403
 41
3.605240262590998
 42
5.462183310215604
  0
ELLIPSE
  5
FB
330
1F
100
AcDbEntity
  8
0
  6
Continuous
 62
     7
370
    25
100
AcDbEllipse
 10
144.1423486439
 20
63.457900653
 30
0.0
 11
2.866293551216216
 21
-1.499245172453812E-12
 31
0.0
210
0.0
220
0.0
230
1.0
 40
0.9533046568
 41
0.8210016221243815
 42
2.320591031466438
  0
ELLIPSE
  5
FC
330
1F
100
AcDbEntity
  8
0
  6
Continuous
 62
     7
370
    25
100
AcDbEllipse
 10
146.1534861397
 20
65.5167492735
 30
0.0
 11
0.08480161849061574
 21
0.0
 31
0.0
210
0.0
220
0.0
230
1.0
 40
0.9533039403
 41
3.962594650556404
 42
5.819537698177248
  0
LINE
  5
FD
330
1F
100
AcDbEntity
  8
0
  6
Continuous
 62
     7
370
    25
100
AcDbLine
 10
146.2293350131
 20
65.4805957586
 30
0.0
 11
147.0256036726
 21
66.99876786
 31
0.0
  0
LINE
  5
FE
330
1F
100
AcDbEntity
  8
0
  6
Continuous
 62
     7
370
    25
100
AcDbLine
 10
143.9273625866
 20
60.616229666
 30
0.0
 11
143.9273625866
 21
64.4211408776
 31
0.0
  0
SPLINE
  5
FF
330
1F
100
AcDbEntity
  8
0
  6
Continuous
 62
     7
370
    25
100
AcDbSpline
210
0.0
220
0.0
230
1.0
 70
     8
 71
     3
 72
    10
 73
     6
 74
     0
 42
0.00000001
 43
0.00000001
 40
0.0
 40
0.0
 40
0.0
 40
0.0
 40
0.5
 40
0.5
 40
1.0
 40
1.0
 40
1.0
 40
1.0
 10
152.5461647401221
 20
57.09886228285834
 30
0.0
 10
152.6320463826285
 20
57.1225361834143
 30
0.0
 10
152.7194555885939
 20
57.13562874059343
 30
0.0
 10
152.8720980736689
 20
57.13571515457571
 30
0.0
 10
152.9362210587513
 20
57.12254476297709
 30
0.0
 10
152.9791774420143
 20
57.09886228285834
 30
0.0
  0
SPLINE
  5
100
330
1F
100
AcDbEntity
  8
0
  6
Continuous
 62
     7
370
    25
100
AcDbSpline
210
0.0
220
0.0
230
1.0
 70
     8
 71
     3
 72
    12
 73
     8
 74
     0
 42
0.00000001
 43
0.00000001
 40
0.0
 40
0.0
 40
0.0
 40
0.0
 40
0.2499999999999998
 40
0.2499999999999998
 40
0.4999999999999996
 40
0.4999999999999996
 40
1.0
 40
1.0
 40
1.0
 40
1.0
 10
155.2885785187728
 20
56.42114087759815
 30
0.0
 10
155.093575038767
 20
56.42114087759815
 30
0.0
 10
154.8970403797426
 20
56.43688720762011
 30
0.0
 10
154.507620692137
 20
56.49833223220553
 30
0.0
 10
154.3141359990768
 20
56.54392099145926
 30
0.0
 10
153.7369524003212
 20
56.72037199371587
 30
0.0
 10
153.3565166185382
 20
56.89082969567936
 30
0.0
 10
152.9791774420143
 20
57.09886228285819
 30
0.0
  0
LINE
  5
101
330
1F
100
AcDbEntity
  8
0
  6
Continuous
 62
     7
370
    25
100
AcDbLine
 10
147.9273625866
 20
56.4211408776
 30
0.0
 11
155.2885785188
 21
56.4211408776
 31
0.0
  0
LINE
  5
102
330
1F
100
AcDbEntity
  8
0
  6
Continuous
 62
     7
370
    25
100
AcDbLine
 10
141.9273625866
 20
75.7823568098
 30
0.0
 11
141.9273625866
 21
72.4211408776
 31
0.0
  0
SPLINE
  5
103
330
1F
100
AcDbEntity
  8
0
  6
Continuous
 62
     7
370
    25
100
AcDbSpline
210
0.0
220
0.0
230
1.0
 70
     8
 71
     3
 72
    10
 73
     6
 74
     0
 42
0.00000001
 43
0.00000001
 40
0.0
 40
0.0
 40
0.0
 40
0.0
 40
0.5
 40
0.5
 40
1.0
 40
1.0
 40
1.0
 40
1.0
 10
141.2496411813449
 20
73.47295573300738
 30
0.0
 10
141.2259657869205
 20
73.43001220210616
 30
0.0
 10
141.2128746770358
 20
73.36656975748203
 30
0.0
 10
141.2127883557475
 20
73.21409092036306
 30
0.0
 10
141.2259572896914
 20
73.1258609182558
 30
0.0
 10
141.2496411813449
 20
73.03994303111516
 30
0.0
  0
SPLINE
  5
104
330
1F
100
AcDbEntity
  8
0
  6
Continuous
 62
     7
370
    25
100
AcDbSpline
210
0.0
220
0.0
230
1.0
 70
     8
 71
     3
 72
    12
 73
     8
 74
     0
 42
0.00000001
 43
0.00000001
 40
0.0
 40
0.0
 40
0.0
 40
0.0
 40
0.2500000000000001
 40
0.2500000000000001
 40
0.5000000000000002
 40
0.5000000000000002
 40
1.0
 40
1.0
 40
1.0
 40
1.0
 10
141.9273625866051
 20
75.78235680976589
 30
0.0
 10
141.9273625866051
 20
75.58661454688637
 30
0.0
 10
141.9115196505161
 20
75.38994793769581
 30
0.0
 10
141.8500167902784
 20
75.00067971036754
 30
0.0
 10
141.8044131492348
 20
74.80727567741461
 30
0.0
 10
141.6279621317455
 20
74.23034662615785
 30
0.0
 10
141.4575647644937
 20
73.85009719295483
 30
0.0
 10
141.2496411813449
 20
73.47295573300738
 30
0.0
  0
SPLINE
  5
105
330
1F
100
AcDbEntity
  8
0
  6
Continuous
 62
     7
370
    25
100
AcDbSpline
210
0.0
220
0.0
230
1.0
 70
     8
 71
     3
 72
    10
 73
     6
 74
     0
 42
0.00000001
 43
0.00000001
 40
0.0
 40
0.0
 40
0.0
 40
0.0
 40
0.5
 40
0.5
 40
1.0
 40
1.0
 40
1.0
 40
1.0
 10
142.8755477311959
 20
57.09886228285788
 30
0.0
 10
142.4967985838046
 20
56.89005235819161
 30
0.0
 10
142.1155933073933
 20
56.71951821844436
 30
0.0
 10
141.3463626862055
 20
56.48473241342544
 30
0.0
 10
140.9582949814072
 20
56.42114087759815
 30
0.0
 10
140.5661466544373
 20
56.42114087759815
 30
0.0
  0
SPLINE
  5
106
330
1F
100
AcDbEntity
  8
0
  6
Continuous
 62
     7
370
    25
100
AcDbSpline
210
0.0
220
0.0
230
1.0
 70
     8
 71
     3
 72
    10
 73
     6
 74
     0
 42
0.00000001
 43
0.00000001
 40
0.0
 40
0.0
 40
0.0
 40
0.0
 40
0.5
 40
0.5
 40
1.0
 40
1.0
 40
1.0
 40
1.0
 10
142.8755477311958
 20
57.09886228285834
 30
0.0
 10
142.9184855402951
 20
57.1225345227699
 30
0.0
 10
142.9819261301872
 20
57.13562851270516
 30
0.0
 10
143.1344152756961
 20
57.13571538016661
 30
0.0
 10
143.2226446648994
 20
57.12254559040725
 30
0.0
 10
143.308560433088
 20
57.09886228285834
 30
0.0
  0
LINE
  5
107
330
1F
100
AcDbEntity
  8
0
  6
Continuous
 62
     7
370
    25
100
AcDbLine
 10
140.5661466544
 20
56.4211408776
 30
0.0
 11
147.9273625866
 21
56.4211408776
 31
0.0
  0
SPLINE
  5
108
330
1F
100
AcDbEntity
  8
0
  6
Continuous
 62
     7
370
    25
100
AcDbSpline
210
0.0
220
0.0
230
1.0
 70
     8
 71
     3
 72
    10
 73
     6
 74
     0
 42
0.00000001
 43
0.00000001
 40
0.0
 40
0.0
 40
0.0
 40
0.0
 40
0.5
 40
0.5
 40
1.0
 40
1.0
 40
1.0
 40
1.0
 10
152.5461647401221
 20
60.45474433774313
 30
0.0
 10
152.6320518019246
 20
60.43106894331872
 30
0.0
 10
152.7194590109048
 20
60.41797783343409
 30
0.0
 10
152.8720954534987
 20
60.41789151214587
 30
0.0
 10
152.9362184984444
 20
60.43106044608982
 30
0.0
 10
152.9791774420147
 20
60.45474433774336
 30
0.0
  0
LINE
  5
109
330
1F
100
AcDbEntity
  8
0
  6
Continuous
 62
     7
370
    25
100
AcDbLine
 10
152.979177442
 20
60.4547443377
 30
0.0
 11
152.979177442
 21
57.0988622829
 31
0.0
  0
SPLINE
  5
10A
330
1F
100
AcDbEntity
  8
0
  6
Continuous
 62
     7
370
    25
100
AcDbSpline
210
0.0
220
0.0
230
1.0
 70
     8
 71
     3
 72
    10
 73
     6
 74
     0
 42
0.00000001
 43
0.00000001
 40
0.0
 40
0.0
 40
0.0
 40
0.0
 40
0.5
 40
0.5
 40
1.0
 40
1.0
 40
1.0
 40
1.0
 10
142.8755477311958
 20
60.45474433774315
 30
0.0
 10
142.918491262097
 20
60.43106894331876
 30
0.0
 10
142.9819337067212
 20
60.41797783343412
 30
0.0
 10
143.1344125438401
 20
60.41789151214584
 30
0.0
 10
143.2226425459474
 20
60.43106044608968
 30
0.0
 10
143.308560433088
 20
60.45474433774314
 30
0.0
  0
LINE
  5
10B
330
1F
100
AcDbEntity
  8
0
  6
Continuous
 62
     7
370
    25
100
AcDbLine
 10
142.8755477312
 20
57.0988622829
 30
0.0
 11
142.8755477312
 21
60.4547443377
 31
0.0
  0
LINE
  5
10C
330
1F
100
AcDbEntity
  8
0
  6
Continuous
 62
     7
370
    25
100
AcDbLine
 10
159.105303614
 20
63.3693260222
 30
0.0
 11
154.6050839919
 21
63.3693260222
 31
0.0
  0
SPLINE
  5
10D
330
1F
100
AcDbEntity
  8
0
  6
Continuous
 62
     7
370
    25
100
AcDbSpline
210
0.0
220
0.0
230
1.0
 70
     8
 71
     3
 72
    10
 73
     6
 74
     0
 42
0.00000001
 43
0.00000001
 40
0.0
 40
0.0
 40
0.0
 40
0.0
 40
0.5
 40
0.5
 40
1.0
 40
1.0
 40
1.0
 40
1.0
 10
154.605083991862
 20
63.36932602218892
 30
0.0
 10
154.6287593862863
 20
63.41226955309008
 30
0.0
 10
154.6418504961742
 20
63.47571199771387
 30
0.0
 10
154.6419368174626
 20
63.62819083483296
 30
0.0
 10
154.6287678835187
 20
63.71642083694039
 30
0.0
 10
154.6050839918653
 20
63.80233872408113
 30
0.0
  0
SPLINE
  5
10E
330
1F
100
AcDbEntity
  8
0
  6
Continuous
 62
     7
370
    25
100
AcDbSpline
210
0.0
220
0.0
230
1.0
 70
     8
 71
     3
 72
    10
 73
     6
 74
     0
 42
0.00000001
 43
0.00000001
 40
0.0
 40
0.0
 40
0.0
 40
0.0
 40
0.5
 40
0.5
 40
1.0
 40
1.0
 40
1.0
 40
1.0
 10
159.1053036140474
 20
63.80233872408114
 30
0.0
 10
159.081628219623
 20
63.71645166227869
 30
0.0
 10
159.0685371097384
 20
63.62904445329855
 30
0.0
 10
159.0684507884501
 20
63.47640801070482
 30
0.0
 10
159.081619722394
 20
63.41228496575923
 30
0.0
 10
159.1053036140474
 20
63.36932602218892
 30
0.0
  0
SPLINE
  5
10F
330
1F
100
AcDbEntity
  8
0
  6
Continuous
 62
     7
370
    25
100
AcDbSpline
210
0.0
220
0.0
230
1.0
 70
     8
 71
     3
 72
    10
 73
     6
 74
     0
 42
0.00000001
 43
0.00000001
 40
0.0
 40
0.0
 40
0.0
 40
0.0
 40
0.5
 40
0.5
 40
1.0
 40
1.0
 40
1.0
 40
1.0
 10
141.2496411813448
 20
63.80233872408114
 30
0.0
 10
141.2259657869204
 20
63.71645166227869
 30
0.0
 10
141.2128746770358
 20
63.62904445329856
 30
0.0
 10
141.2127883557475
 20
63.47640801070482
 30
0.0
 10
141.2259572896914
 20
63.41228496575923
 30
0.0
 10
141.2496411813449
 20
63.36932602218892
 30
0.0
  0
LINE
  5
110
330
1F
100
AcDbEntity
  8
0
  6
Continuous
 62
     7
370
    25
100
AcDbLine
 10
141.2496411813
 20
63.3693260222
 30
0.0
 11
137.1050839919
 21
63.3693260222
 31
0.0
  0
SPLINE
  5
111
330
1F
100
AcDbEntity
  8
0
  6
Continuous
 62
     7
370
    25
100
AcDbSpline
210
0.0
220
0.0
230
1.0
 70
     8
 71
     3
 72
    10
 73
     6
 74
     0
 42
0.00000001
 43
0.00000001
 40
0.0
 40
0.0
 40
0.0
 40
0.0
 40
0.5
 40
0.5
 40
1.0
 40
1.0
 40
1.0
 40
1.0
 10
137.1050839918653
 20
63.80233872408114
 30
0.0
 10
137.1287578924212
 20
63.71645708157468
 30
0.0
 10
137.1418504496003
 20
63.62904787560925
 30
0.0
 10
137.1419368635826
 20
63.47640539053432
 30
0.0
 10
137.128766471984
 20
63.41228240545195
 30
0.0
 10
137.1050839918653
 20
63.36932602218892
 30
0.0
  0
LINE
  5
112
330
1F
100
AcDbEntity
  8
0
  6
Continuous
 62
     7
370
    25
100
AcDbLine
 10
136.4273625866
 20
68.4211408776
 30
0.0
 11
136.4273625866
 21
61.0599249454
 31
0.0
  0
SPLINE
  5
113
330
1F
100
AcDbEntity
  8
0
  6
Continuous
 62
     7
370
    25
100
AcDbSpline
210
0.0
220
0.0
230
1.0
 70
     8
 71
     3
 72
    12
 73
     8
 74
     0
 42
0.00000001
 43
0.00000001
 40
0.0
 40
0.0
 40
0.0
 40
0.0
 40
0.2499999999999999
 40
0.2499999999999999
 40
0.4999999999999998
 40
0.4999999999999998
 40
1.0
 40
1.0
 40
1.0
 40
1.0
 10
136.4273625866051
 20
61.05992494543042
 30
0.0
 10
136.4273625866051
 20
61.25492842543621
 30
0.0
 10
136.443108916627
 20
61.45146308446063
 30
0.0
 10
136.5045539412124
 20
61.84088277206617
 30
0.0
 10
136.5501427004662
 20
62.03436746512644
 30
0.0
 10
136.7265937027228
 20
62.61155106388204
 30
0.0
 10
136.8970514046862
 20
62.991986845665
 30
0.0
 10
137.1050839918651
 20
63.36932602218894
 30
0.0
  0
LINE
  5
114
330
1F
100
AcDbEntity
  8
0
  6
Continuous
 62
     7
370
    25
100
AcDbLine
 10
136.4273625866
 20
68.4211408776
 30
0.0
 11
136.4273625866
 21
75.7823568098
 31
0.0
  0
SPLINE
  5
115
330
1F
100
AcDbEntity
  8
0
  6
Continuous
 62
     7
370
    25
100
AcDbSpline
210
0.0
220
0.0
230
1.0
 70
     8
 71
     3
 72
    10
 73
     6
 74
     0
 42
0.00000001
 43
0.00000001
 40
0.0
 40
0.0
 40
0.0
 40
0.0
 40
0.5
 40
0.5
 40
1.0
 40
1.0
 40
1.0
 40
1.0
 10
137.1050839918648
 20
73.47295573300735
 30
0.0
 10
136.8962740671985
 20
73.85170488039863
 30
0.0
 10
136.7257399274513
 20
74.23291015680994
 30
0.0
 10
136.4909541224323
 20
75.00214077799771
 30
0.0
 10
136.427362586605
 20
75.39020848279604
 30
0.0
 10
136.4273625866051
 20
75.78235680976589
 30
0.0
  0
SPLINE
  5
116
330
1F
100
AcDbEntity
  8
0
  6
Continuous
 62
     7
370
    25
100
AcDbSpline
210
0.0
220
0.0
230
1.0
 70
     8
 71
     3
 72
    10
 73
     6
 74
     0
 42
0.00000001
 43
0.00000001
 40
0.0
 40
0.0
 40
0.0
 40
0.0
 40
0.5
 40
0.5
 40
1.0
 40
1.0
 40
1.0
 40
1.0
 10
137.1050839918653
 20
73.47295573300738
 30
0.0
 10
137.1287562317768
 20
73.43001792390814
 30
0.0
 10
137.1418502217121
 20
73.36657733401594
 30
0.0
 10
137.1419370891735
 20
73.2140881885071
 30
0.0
 10
137.1287672994141
 20
73.12585879930378
 30
0.0
 10
137.1050839918653
 20
73.03994303111516
 30
0.0
  0
SPLINE
  5
117
330
1F
100
AcDbEntity
  8
0
  6
Continuous
 62
     7
370
    25
100
AcDbSpline
210
0.0
220
0.0
230
1.0
 70
     8
 71
     3
 72
     8
 73
     4
 74
     0
 42
0.00000001
 43
0.00000001
 40
0.0
 40
0.0
 40
0.0
 40
0.0
 40
1.0
 40
1.0
 40
1.0
 40
1.0
 10
154.0487460781012
 20
62.01101934427291
 30
0.0
 10
154.0076308024599
 20
62.14704973876245
 30
0.0
 10
153.9671418195921
 20
62.28375380339989
 30
0.0
 10
153.9273625866051
 20
62.42114087759815
 30
0.0
  0
LINE
  5
118
330
1F
100
AcDbEntity
  8
0
  6
Continuous
 62
     7
370
    25
100
AcDbLine
 10
153.9273625866
 20
64.4211408776
 30
0.0
 11
153.9273625866
 21
62.4211408776
 31
0.0
  0
SPLINE
  5
119
330
1F
100
AcDbEntity
  8
0
  6
Continuous
 62
     7
370
    25
100
AcDbSpline
210
0.0
220
0.0
230
1.0
 70
     8
 71
     3
 72
     8
 73
     4
 74
     0
 42
0.00000001
 43
0.00000001
 40
0.0
 40
0.0
 40
0.0
 40
0.0
 40
1.0
 40
1.0
 40
1.0
 40
1.0
 10
154.0487460781012
 20
62.01101934427291
 30
0.0
 10
154.1643786881303
 20
62.46957027633067
 30
0.0
 10
154.3582680929507
 20
62.92163987208892
 30
0.0
 10
154.6050839918651
 20
63.36932602218867
 30
0.0
  0
SPLINE
  5
11A
330
1F
100
AcDbEntity
  8
0
  6
Continuous
 62
     7
370
    25
100
AcDbSpline
210
0.0
220
0.0
230
1.0
 70
     8
 71
     3
 72
     8
 73
     4
 74
     0
 42
0.00000001
 43
0.00000001
 40
0.0
 40
0.0
 40
0.0
 40
0.0
 40
1.0
 40
1.0
 40
1.0
 40
1.0
 10
140.6379864019884
 20
61.13176469296942
 30
0.0
 10
140.9470035446302
 20
61.23276980079955
 30
0.0
 10
141.2623213009482
 20
61.32942658986548
 30
0.0
 10
141.5848006277912
 20
61.42114087759816
 30
0.0
  0
SPLINE
  5
11B
330
1F
100
AcDbEntity
  8
0
  6
Continuous
 62
     7
370
    25
100
AcDbSpline
210
0.0
220
0.0
230
1.0
 70
     8
 71
     3
 72
    12
 73
     8
 74
     0
 42
0.00000001
 43
0.00000001
 40
0.0
 40
0.0
 40
0.0
 40
0.0
 40
0.2500000000000002
 40
0.2500000000000002
 40
0.5000000000000004
 40
0.5000000000000004
 40
1.0
 40
1.0
 40
1.0
 40
1.0
 10
140.6379864019832
 20
61.13176469296329
 30
0.0
 10
140.8280125772864
 20
61.12805620710686
 30
0.0
 10
141.0182276399722
 20
61.10947370426918
 30
0.0
 10
141.3951643991046
 20
61.04460666730304
 30
0.0
 10
141.5824871903641
 20
60.99834111405276
 30
0.0
 10
142.1413971466782
 20
60.82261658374581
 30
0.0
 10
142.5099328047885
 20
60.65631317496906
 30
0.0
 10
142.8755477311958
 20
60.45474433774315
 30
0.0
  0
LINE
  5
11C
330
1F
100
AcDbEntity
  8
0
  6
Continuous
 62
     7
370
    25
100
AcDbLine
 10
143.8736015801
 20
67.8467090211
 30
0.0
 11
144.4809499389
 21
67.8467090211
 31
0.0
  0
LINE
  5
11D
330
1F
100
AcDbEntity
  8
0
  6
Continuous
 62
     7
370
    25
100
AcDbLine
 10
144.097414523
 20
68.765323367
 30
0.0
 11
143.7937403418
 21
67.9547407502
 31
0.0
  0
ELLIPSE
  5
11E
330
1F
100
AcDbEntity
  8
0
  6
Continuous
 62
     7
370
    25
100
AcDbEllipse
 10
144.1772757613
 20
68.7381333552
 30
0.0
 11
0.08480161849067258
 21
1.421085471520200E-14
 31
0.0
210
0.0
220
0.0
230
1.0
 40
0.9533039403
 41
0.3430239404207371
 42
2.798568713168821
  0
LINE
  5
11F
330
1F
100
AcDbEntity
  8
0
  6
Continuous
 62
     7
370
    25
100
AcDbLine
 10
144.5608111772
 20
67.9547407499
 30
0.0
 11
144.2571369996
 21
68.765323367
 31
0.0
  0
ELLIPSE
  5
120
330
1F
100
AcDbEntity
  8
0
  6
Continuous
 62
     7
370
    25
100
AcDbEllipse
 10
144.4809499389
 20
67.9275507382
 30
0.0
 11
-0.08480161849067258
 21
-4.263256414560601E-14
 31
0.0
210
0.0
220
0.0
230
1.0
 40
0.9533039403
 41
1.570796326794417
 42
3.4846165921492
  0
ELLIPSE
  5
121
330
1F
100
AcDbEntity
  8
0
  6
Continuous
 62
     7
370
    25
100
AcDbEllipse
 10
143.8736015801
 20
67.9275507382
 30
0.0
 11
0.08480161849067258
 21
-1.421085471520200E-14
 31
0.0
210
0.0
220
0.0
230
1.0
 40
0.9533039403
 41
2.79856871130844
 42
4.712388980384862
  0
SPLINE
  5
122
330
1F
100
AcDbEntity
  8
0
  6
Continuous
 62
     7
370
    25
100
AcDbSpline
210
0.0
220
0.0
230
1.0
 70
     8
 71
     3
 72
     8
 73
     4
 74
     0
 42
0.00000001
 43
0.00000001
 40
0.0
 40
0.0
 40
0.0
 40
0.0
 40
1.0
 40
1.0
 40
1.0
 40
1.0
 10
154.2699245454189
 20
61.42114087759816
 30
0.0
 10
154.5924038722682
 20
61.32942658986369
 30
0.0
 10
154.9077216285922
 20
61.23276980079579
 30
0.0
 10
155.2167387712397
 20
61.13176469296354
 30
0.0
  0
SPLINE
  5
123
330
1F
100
AcDbEntity
  8
0
  6
Continuous
 62
     7
370
    25
100
AcDbSpline
210
0.0
220
0.0
230
1.0
 70
     8
 71
     3
 72
    10
 73
     6
 74
     0
 42
0.00000001
 43
0.00000001
 40
0.0
 40
0.0
 40
0.0
 40
0.0
 40
0.5
 40
0.5
 40
1.0
 40
1.0
 40
1.0
 40
1.0
 10
152.9791774420146
 20
60.4547443377433
 30
0.0
 10
153.3456953888551
 20
60.65681102329422
 30
0.0
 10
153.7147756143209
 20
60.82320379556487
 30
0.0
 10
154.4600279625483
 20
61.05725076943492
 30
0.0
 10
154.8362407344961
 20
61.12433902339375
 30
0.0
 10
155.2167387712397
 20
61.13176469296354
 30
0.0
  0
LINE
  5
124
330
1F
100
AcDbEntity
  8
0
  6
Continuous
 62
     7
370
    25
100
AcDbLine
 10
153.9273625866
 20
75.7823568098
 30
0.0
 11
153.9273625866
 21
72.4211408776
 31
0.0
  0
SPLINE
  5
125
330
1F
100
AcDbEntity
  8
0
  6
Continuous
 62
     7
370
    25
100
AcDbSpline
210
0.0
220
0.0
230
1.0
 70
     8
 71
     3
 72
    10
 73
     6
 74
     0
 42
0.00000001
 43
0.00000001
 40
0.0
 40
0.0
 40
0.0
 40
0.0
 40
0.5
 40
0.5
 40
1.0
 40
1.0
 40
1.0
 40
1.0
 10
154.6050839918653
 20
73.47295573300735
 30
0.0
 10
154.3966632390478
 20
73.85099898240952
 30
0.0
 10
154.2261994037704
 20
74.23176848720536
 30
0.0
 10
153.991216968832
 20
75.00091701276291
 30
0.0
 10
153.9273625866051
 20
75.38934374093816
 30
0.0
 10
153.9273625866051
 20
75.78235680976589
 30
0.0
  0
SPLINE
  5
126
330
1F
100
AcDbEntity
  8
0
  6
Continuous
 62
     7
370
    25
100
AcDbSpline
210
0.0
220
0.0
230
1.0
 70
     8
 71
     3
 72
    10
 73
     6
 74
     0
 42
0.00000001
 43
0.00000001
 40
0.0
 40
0.0
 40
0.0
 40
0.0
 40
0.5
 40
0.5
 40
1.0
 40
1.0
 40
1.0
 40
1.0
 10
154.6050839918653
 20
73.03994303111516
 30
0.0
 10
154.6287593862896
 20
73.12583009291761
 30
0.0
 10
154.6418504961743
 20
73.21323730189772
 30
0.0
 10
154.6419368174626
 20
73.36587374449145
 30
0.0
 10
154.6287678835187
 20
73.42999678943703
 30
0.0
 10
154.6050839918653
 20
73.47295573300735
 30
0.0
  0
SPLINE
  5
127
330
1F
100
AcDbEntity
  8
0
  6
Continuous
 62
     7
370
    25
100
AcDbSpline
210
0.0
220
0.0
230
1.0
 70
     8
 71
     3
 72
    10
 73
     6
 74
     0
 42
0.00000001
 43
0.00000001
 40
0.0
 40
0.0
 40
0.0
 40
0.0
 40
0.5
 40
0.5
 40
1.0
 40
1.0
 40
1.0
 40
1.0
 10
159.1053036140474
 20
73.47295573300738
 30
0.0
 10
159.0816282196231
 20
73.43001220210616
 30
0.0
 10
159.0685371097384
 20
73.36656975748203
 30
0.0
 10
159.0684507884501
 20
73.21409092036306
 30
0.0
 10
159.081619722394
 20
73.1258609182558
 30
0.0
 10
159.1053036140474
 20
73.03994303111516
 30
0.0
  0
SPLINE
  5
128
330
1F
100
AcDbEntity
  8
0
  6
Continuous
 62
     7
370
    25
100
AcDbSpline
210
0.0
220
0.0
230
1.0
 70
     8
 71
     3
 72
    16
 73
    12
 74
     0
 42
0.00000001
 43
0.00000001
 40
0.0
 40
0.0
 40
0.0
 40
0.0
 40
0.2500000000000001
 40
0.2500000000000001
 40
0.5000000000000001
 40
0.5000000000000001
 40
0.6250000000000001
 40
0.6250000000000001
 40
0.7500000000000002
 40
0.7500000000000002
 40
1.0
 40
1.0
 40
1.0
 40
1.0
 10
159.1053036140474
 20
78.09175788652439
 30
0.0
 10
159.3133190621532
 20
77.7144497976479
 30
0.0
 10
159.4835253671262
 20
77.33442606727368
 30
0.0
 10
159.7184613986938
 20
76.566802751863
 30
0.0
 10
159.7825335303574
 20
76.17915593507419
 30
0.0
 10
159.7832664792785
 20
75.59083538318636
 30
0.0
 10
159.7676069991954
 20
75.39376219063071
 30
0.0
 10
159.7063318725585
 20
75.0037052130766
 30
0.0
 10
159.6607756000594
 20
74.80991231248856
 30
0.0
 10
159.4842895673031
 20
74.23183132772513
 30
0.0
 10
159.3136331138174
 20
73.85083346339032
 30
0.0
 10
159.1053036140474
 20
73.47295573300738
 30
0.0
  0
SPLINE
  5
129
330
1F
100
AcDbEntity
  8
0
  6
Continuous
 62
     7
370
    25
100
AcDbSpline
210
0.0
220
0.0
230
1.0
 70
     8
 71
     3
 72
    10
 73
     6
 74
     0
 42
0.00000001
 43
0.00000001
 40
0.0
 40
0.0
 40
0.0
 40
0.0
 40
0.1601790552921226
 40
0.7197651707803578
 40
1.0
 40
1.0
 40
1.0
 40
1.0
 10
159.0710741809306
 20
78.15403616527414
 30
0.0
 10
159.0703113908373
 20
78.1554283933005
 30
0.0
 10
159.0668837907636
 20
78.16168437502883
 30
0.0
 10
159.0813912555619
 20
78.13517711030092
 30
0.0
 10
159.0993208086797
 20
78.10262125515575
 30
0.0
 10
159.1053036140474
 20
78.09175788652439
 30
0.0
  0
SPLINE
  5
12A
330
1F
100
AcDbEntity
  8
0
  6
Continuous
 62
     7
370
    25
100
AcDbSpline
210
0.0
220
0.0
230
1.0
 70
     8
 71
     3
 72
     9
 73
     5
 74
     0
 42
0.00000001
 43
0.00000001
 40
0.0
 40
0.0
 40
0.0
 40
0.0
 40
0.5797912171256352
 40
1.0
 40
1.0
 40
1.0
 40
1.0
 10
159.1053036140474
 20
58.75052386867192
 30
0.0
 10
159.092945010701
 20
58.72805022043079
 30
0.0
 10
159.0716294009066
 20
58.68928859800997
 30
0.0
 10
159.0712384584038
 20
58.68855419325176
 30
0.0
 10
159.0710741809306
 20
58.68824558992218
 30
0.0
  0
SPLINE
  5
12B
330
1F
100
AcDbEntity
  8
0
  6
Continuous
 62
     7
370
    25
100
AcDbSpline
210
0.0
220
0.0
230
1.0
 70
     8
 71
     3
 72
    16
 73
    12
 74
     0
 42
0.00000001
 43
0.00000001
 40
0.0
 40
0.0
 40
0.0
 40
0.0
 40
0.2500000000000001
 40
0.2500000000000001
 40
0.5000000000000002
 40
0.5000000000000002
 40
0.6250000000000001
 40
0.6250000000000001
 40
0.7500000000000001
 40
0.7500000000000001
 40
1.0
 40
1.0
 40
1.0
 40
1.0
 10
159.1053036140474
 20
63.36932602218892
 30
0.0
 10
159.3133190621532
 20
62.99201793331243
 30
0.0
 10
159.4835253671262
 20
62.61199420293823
 30
0.0
 10
159.7184613986938
 20
61.84437088752753
 30
0.0
 10
159.7825335303574
 20
61.45672407073874
 30
0.0
 10
159.7832664792785
 20
60.86840351885089
 30
0.0
 10
159.7676069991954
 20
60.67133032629523
 30
0.0
 10
159.7063318725585
 20
60.28127334874114
 30
0.0
 10
159.6607756000594
 20
60.0874804481531
 30
0.0
 10
159.4842895673031
 20
59.50939946338968
 30
0.0
 10
159.3136331138174
 20
59.12840159905485
 30
0.0
 10
159.1053036140474
 20
58.75052386867192
 30
0.0
  0
LINE
  5
12C
330
1F
100
AcDbEntity
  8
0
  6
Continuous
 62
     7
370
    25
100
AcDbLine
 10
159.9273625866
 20
76.6711408776
 30
0.0
 11
159.9273625866
 21
60.1711408776
 31
0.0
  0
LINE
  5
12D
330
1F
100
AcDbEntity
  8
0
  6
Continuous
 62
     7
370
    25
100
AcDbLine
 10
154.6050839919
 20
73.472955733
 30
0.0
 11
159.105303614
 21
73.472955733
 31
0.0
  0
LINE
  5
12E
330
1F
100
AcDbEntity
  8
0
  6
Continuous
 62
     7
370
    25
100
AcDbLine
 10
137.1050839919
 20
73.472955733
 30
0.0
 11
141.2496411813
 21
73.472955733
 31
0.0
  0
LINE
  5
12F
330
1F
100
AcDbEntity
  8
0
  6
Continuous
 62
     7
370
    25
100
AcDbLine
 10
141.9273625866
 20
64.4211408776
 30
0.0
 11
141.9273625866
 21
62.4211408776
 31
0.0
  0
SPLINE
  5
130
330
1F
100
AcDbEntity
  8
0
  6
Continuous
 62
     7
370
    25
100
AcDbSpline
210
0.0
220
0.0
230
1.0
 70
     8
 71
     3
 72
     8
 73
     4
 74
     0
 42
0.00000001
 43
0.00000001
 40
0.0
 40
0.0
 40
0.0
 40
0.0
 40
1.0
 40
1.0
 40
1.0
 40
1.0
 10
141.9273625866051
 20
62.42114087759815
 30
0.0
 10
141.8875839284149
 20
62.28375578859804
 30
0.0
 10
141.8470949655866
 20
62.14705170678628
 30
0.0
 10
141.8059790951089
 20
62.0110193442729
 30
0.0
  0
SPLINE
  5
131
330
1F
100
AcDbEntity
  8
0
  6
Continuous
 62
     7
370
    25
100
AcDbSpline
210
0.0
220
0.0
230
1.0
 70
     8
 71
     3
 72
     8
 73
     4
 74
     0
 42
0.00000001
 43
0.00000001
 40
0.0
 40
0.0
 40
0.0
 40
0.0
 40
1.0
 40
1.0
 40
1.0
 40
1.0
 10
141.2496411813449
 20
63.36932602218892
 30
0.0
 10
141.4968149622288
 20
62.92099072913759
 30
0.0
 10
141.6905366305328
 20
62.46881623839401
 30
0.0
 10
141.8059790951089
 20
62.0110193442729
 30
0.0
  0
SPLINE
  5
132
330
1F
100
AcDbEntity
  8
0
  6
Continuous
 62
     7
370
    25
100
AcDbSpline
210
0.0
220
0.0
230
1.0
 70
     8
 71
     3
 72
    12
 73
     8
 74
     0
 42
0.00000001
 43
0.00000001
 40
0.0
 40
0.0
 40
0.0
 40
0.0
 40
0.2499999999999999
 40
0.2499999999999999
 40
0.4999999999999998
 40
0.4999999999999998
 40
1.0
 40
1.0
 40
1.0
 40
1.0
 10
153.9273625866051
 20
75.78235680976589
 30
0.0
 10
153.9273625866051
 20
75.97809907264539
 30
0.0
 10
153.943205522694
 20
76.17476568183595
 30
0.0
 10
154.0047083829317
 20
76.56403390916424
 30
0.0
 10
154.0503120239754
 20
76.75743794211716
 30
0.0
 10
154.2267630414646
 20
77.33436699337392
 30
0.0
 10
154.3971604087164
 20
77.71461642657692
 30
0.0
 10
154.6050839918653
 20
78.09175788652439
 30
0.0
  0
LINE
  5
133
330
1F
100
AcDbEntity
  8
0
  6
Continuous
 62
     7
370
    25
100
AcDbLine
 10
159.105303614
 20
78.0917578865
 30
0.0
 11
154.6050839919
 21
78.0917578865
 31
0.0
  0
ELLIPSE
  5
134
330
1F
100
AcDbEntity
  8
0
  6
Continuous
 62
     7
370
    25
100
AcDbEllipse
 10
147.9273625866
 20
58.6061863014
 30
0.0
 11
8.5
 21
0.0
 31
0.0
210
0.0
220
0.0
230
1.0
 40
0.5773502692
 41
2.374833212873087
 42
2.530692279913058
  0
LINE
  5
135
330
1F
100
AcDbEntity
  8
0
  6
Continuous
 62
     7
370
    25
100
AcDbLine
 10
140.637986402
 20
61.131764693
 30
0.0
 11
138.2567455777
 21
58.7505238687
 31
0.0
  0
LINE
  5
136
330
1F
100
AcDbEntity
  8
0
  6
Continuous
 62
     7
370
    25
100
AcDbLine
 10
137.1050839919
 20
58.7505238687
 30
0.0
 11
138.2567455777
 21
58.7505238687
 31
0.0
  0
SPLINE
  5
137
330
1F
100
AcDbEntity
  8
0
  6
Continuous
 62
     7
370
    25
100
AcDbSpline
210
0.0
220
0.0
230
1.0
 70
     8
 71
     3
 72
    10
 73
     6
 74
     0
 42
0.00000001
 43
0.00000001
 40
0.0
 40
0.0
 40
0.0
 40
0.0
 40
0.5
 40
0.5
 40
1.0
 40
1.0
 40
1.0
 40
1.0
 10
137.1050839918648
 20
58.75052386867188
 30
0.0
 10
136.8962740671985
 20
59.12927301606317
 30
0.0
 10
136.7257399274513
 20
59.51047829247448
 30
0.0
 10
136.4909541224323
 20
60.27970891366226
 30
0.0
 10
136.4273625866051
 20
60.66777661846058
 30
0.0
 10
136.4273625866051
 20
61.05992494543042
 30
0.0
  0
ELLIPSE
  5
138
330
1F
100
AcDbEntity
  8
0
  6
Continuous
 62
     7
370
    25
100
AcDbEllipse
 10
147.9273625866
 20
58.6061863014
 30
0.0
 11
8.5
 21
0.0
 31
0.0
210
0.0
220
0.0
230
1.0
 40
0.5773502692
 41
0.6109003736767328
 42
0.7667594407167088
  0
LINE
  5
139
330
1F
100
AcDbEntity
  8
0
  6
Continuous
 62
     7
370
    25
100
AcDbLine
 10
157.5979795955
 20
58.7505238687
 30
0.0
 11
159.105303614
 21
58.7505238687
 31
0.0
  0
LINE
  5
13A
330
1F
100
AcDbEntity
  8
0
  6
Continuous
 62
     7
370
    25
100
AcDbLine
 10
157.5979795955
 20
58.7505238687
 30
0.0
 11
155.2167387712
 21
61.131764693
 31
0.0
  0
SPLINE
  5
13B
330
1F
100
AcDbEntity
  8
0
  6
Continuous
 62
     7
370
    25
100
AcDbSpline
210
0.0
220
0.0
230
1.0
 70
     8
 71
     3
 72
    12
 73
     8
 74
     0
 42
0.00000001
 43
0.00000001
 40
0.0
 40
0.0
 40
0.0
 40
0.0
 40
0.2499999999999999
 40
0.2499999999999999
 40
0.5
 40
0.5
 40
1.0
 40
1.0
 40
1.0
 40
1.0
 10
136.4273625866051
 20
75.78235680976589
 30
0.0
 10
136.4273625866051
 20
75.97736028977167
 30
0.0
 10
136.443108916627
 20
76.17389494879609
 30
0.0
 10
136.5045539412124
 20
76.56331463640163
 30
0.0
 10
136.5501427004662
 20
76.75679932946188
 30
0.0
 10
136.7265937027228
 20
77.3339829282175
 30
0.0
 10
136.8970514046863
 20
77.71441871000046
 30
0.0
 10
137.1050839918651
 20
78.09175788652439
 30
0.0
  0
LINE
  5
13C
330
1F
100
AcDbEntity
  8
0
  6
Continuous
 62
     7
370
    25
100
AcDbLine
 10
141.2496411813
 20
78.0917578865
 30
0.0
 11
137.1050839919
 21
78.0917578865
 31
0.0
  0
SPLINE
  5
13D
330
1F
100
AcDbEntity
  8
0
  6
Continuous
 62
     7
370
    25
100
AcDbSpline
210
0.0
220
0.0
230
1.0
 70
     8
 71
     3
 72
    10
 73
     6
 74
     0
 42
0.00000001
 43
0.00000001
 40
0.0
 40
0.0
 40
0.0
 40
0.0
 40
0.5
 40
0.5
 40
1.0
 40
1.0
 40
1.0
 40
1.0
 10
141.2496411813449
 20
78.0917578865244
 30
0.0
 10
141.4580619341623
 20
77.71371463712225
 30
0.0
 10
141.6285257694397
 20
77.3329451323264
 30
0.0
 10
141.8635082043781
 20
76.56379660676886
 30
0.0
 10
141.9273625866051
 20
76.17536987859363
 30
0.0
 10
141.9273625866051
 20
75.78235680976589
 30
0.0
  0
SPLINE
  5
13E
330
1F
100
AcDbEntity
  8
0
  6
Continuous
 62
     7
370
    25
100
AcDbSpline
210
0.0
220
0.0
230
1.0
 70
     8
 71
     3
 72
    12
 73
     8
 74
     0
 42
0.00000001
 43
0.00000001
 40
0.0
 40
0.0
 40
0.0
 40
0.0
 40
0.2499999999999996
 40
0.2499999999999996
 40
0.4999999999999993
 40
0.4999999999999993
 40
1.0
 40
1.0
 40
1.0
 40
1.0
 10
140.5661466544373
 20
56.42114087759815
 30
0.0
 10
140.3711431744315
 20
56.42114087759815
 30
0.0
 10
140.1746085154071
 20
56.43688720762011
 30
0.0
 10
139.7851888278016
 20
56.49833223220553
 30
0.0
 10
139.5917041347413
 20
56.54392099145926
 30
0.0
 10
139.0145205359857
 20
56.72037199371586
 30
0.0
 10
138.6340847542027
 20
56.89082969567935
 30
0.0
 10
138.2567455776788
 20
57.09886228285819
 30
0.0
  0
LINE
  5
13F
330
1F
100
AcDbEntity
  8
0
  6
Continuous
 62
     7
370
    25
100
AcDbLine
 10
138.2567455777
 20
58.7505238687
 30
0.0
 11
138.2567455777
 21
57.0988622829
 31
0.0
  0
LINE
  5
140
330
1F
100
AcDbEntity
  8
0
  6
Continuous
 62
     7
370
    25
100
AcDbLine
 10
157.5979795955
 20
57.0988622829
 30
0.0
 11
157.5979795955
 21
58.7505238687
 31
0.0
  0
SPLINE
  5
141
330
1F
100
AcDbEntity
  8
0
  6
Continuous
 62
     7
370
    25
100
AcDbSpline
210
0.0
220
0.0
230
1.0
 70
     8
 71
     3
 72
    10
 73
     6
 74
     0
 42
0.00000001
 43
0.00000001
 40
0.0
 40
0.0
 40
0.0
 40
0.0
 40
0.5
 40
0.5
 40
1.0
 40
1.0
 40
1.0
 40
1.0
 10
157.5979795955313
 20
57.09886228285788
 30
0.0
 10
157.2192304481401
 20
56.89005235819162
 30
0.0
 10
156.8380251717287
 20
56.71951821844436
 30
0.0
 10
156.068794550541
 20
56.48473241342544
 30
0.0
 10
155.6807268457426
 20
56.42114087759815
 30
0.0
 10
155.2885785187728
 20
56.42114087759815
 30
0.0
  0
LINE
  5
142
330
1F
100
AcDbEntity
  8
0
  6
Continuous
 62
     7
370
    25
100
AcDbLine
 10
153.9273625866
 20
62.4211408776
 30
0.0
 11
151.9273625866
 21
64.4211408776
 31
0.0
  0
LINE
  5
143
330
1F
100
AcDbEntity
  8
0
  6
Continuous
 62
     7
370
    25
100
AcDbLine
 10
151.9273625866
 20
61.4211408776
 30
0.0
 11
154.8899836593
 21
61.4211408776
 31
0.0
  0
LINE
  5
144
330
1F
100
AcDbEntity
  8
0
  6
Continuous
 62
     7
370
    25
100
AcDbLine
 10
143.9273625866
 20
64.4211408776
 30
0.0
 11
141.9273625866
 21
62.4211408776
 31
0.0
  0
LINE
  5
145
330
1F
100
AcDbEntity
  8
0
  6
Continuous
 62
     7
370
    25
100
AcDbLine
 10
140.9647415139
 20
61.4211408776
 30
0.0
 11
143.9273625866
 21
61.4211408776
 31
0.0
  0
LINE
  5
146
330
1F
100
AcDbEntity
  8
0
  6
Continuous
 62
     7
370
    25
100
AcDbLine
 10
141.9273625866
 20
76.3555953558
 30
0.0
 11
141.9273625866
 21
75.7823568098
 31
0.0
  0
SPLINE
  5
147
330
1F
100
AcDbEntity
  8
0
  6
Continuous
 62
     7
370
    25
100
AcDbSpline
210
0.0
220
0.0
230
1.0
 70
     8
 71
     3
 72
    32
 73
    28
 74
     0
 42
0.00000001
 43
0.00000001
 40
0.0
 40
0.0
 40
0.0
 40
0.0
 40
0.0625000000000001
 40
0.0625000000000001
 40
0.1250000000000001
 40
0.1250000000000001
 40
0.1875000000000002
 40
0.1875000000000002
 40
0.2500000000000003
 40
0.2500000000000003
 40
0.3750000000000003
 40
0.3750000000000003
 40
0.4375000000000003
 40
0.4375000000000003
 40
0.5000000000000002
 40
0.5000000000000002
 40
0.5625000000000002
 40
0.5625000000000002
 40
0.6250000000000001
 40
0.6250000000000001
 40
0.7500000000000001
 40
0.7500000000000001
 40
0.8750000000000002
 40
0.8750000000000002
 40
0.9375000000000001
 40
0.9375000000000001
 40
1.0
 40
1.0
 40
1.0
 40
1.0
 10
153.9273625865966
 20
76.3555953558188
 30
0.0
 10
153.7705062506797
 20
76.2606383779231
 30
0.0
 10
153.5975078165241
 20
76.15788520329792
 30
0.0
 10
153.2208032298983
 20
75.94117400164966
 30
0.0
 10
153.0179504494415
 20
75.82775529115965
 30
0.0
 10
152.591969186639
 20
75.59966515446148
 30
0.0
 10
152.3677912263509
 20
75.48435827200963
 30
0.0
 10
151.8964401327746
 20
75.25603516963484
 30
0.0
 10
151.6477546174094
 20
75.1423851535011
 30
0.0
 10
150.8771821327178
 20
74.81932112226706
 30
0.0
 10
150.3315447226357
 20
74.62642259810355
 30
0.0
 10
149.4487649741393
 20
74.41482867282986
 30
0.0
 10
149.1501258742665
 20
74.3591862867121
 30
0.0
 10
148.5436242735507
 20
74.28351821734827
 30
0.0
 10
148.2334770348848
 20
74.26354497157195
 30
0.0
 10
147.613391546201
 20
74.2638787378252
 30
0.0
 10
147.306820508733
 20
74.28387770314798
 30
0.0
 10
146.7001657614248
 20
74.35991648934446
 30
0.0
 10
146.3977926967995
 20
74.416569589476
 30
0.0
 10
145.5211563940465
 20
74.62734813952184
 30
0.0
 10
144.9731022620696
 20
74.8208939700936
 30
0.0
 10
143.9426049948263
 20
75.25351326336938
 30
0.0
 10
143.4750449595469
 20
75.48598990805982
 30
0.0
 10
142.8368313559189
 20
75.82772790897886
 30
0.0
 10
142.6336216177291
 20
75.94134542440726
 30
0.0
 10
142.2572846913347
 20
76.15784781676349
 30
0.0
 10
142.0843060828432
 20
76.26058561320788
 30
0.0
 10
141.9273625866051
 20
76.35559535582395
 30
0.0
  0
LINE
  5
148
330
1F
100
AcDbEntity
  8
0
  6
Continuous
 62
     7
370
    25
100
AcDbLine
 10
153.9273625866
 20
76.3555953558
 30
0.0
 11
153.9273625866
 21
75.7823568098
 31
0.0
  0
SPLINE
  5
149
330
1F
100
AcDbEntity
  8
0
  6
Continuous
 62
     7
370
    25
100
AcDbSpline
210
0.0
220
0.0
230
1.0
 70
     8
 71
     3
 72
    11
 73
     7
 74
     0
 42
0.00000001
 43
0.00000001
 40
0.0
 40
0.0
 40
0.0
 40
0.0
 40
0.0860363962994498
 40
0.3126240132839471
 40
0.544481681962628
 40
1.0
 40
1.0
 40
1.0
 40
1.0
 10
154.1007097740721
 20
77.21404247129928
 30
0.0
 10
154.1018985910922
 20
77.21805609683763
 30
0.0
 10
154.1062183065135
 20
77.23264010753063
 30
0.0
 10
154.0750387981937
 20
77.12608388342835
 30
0.0
 10
153.9926111892859
 20
76.8455359515694
 30
0.0
 10
153.9533684330108
 20
76.55086880777753
 30
0.0
 10
153.9273625866051
 20
76.35559535581683
 30
0.0
  0
SPLINE
  5
14A
330
1F
100
AcDbEntity
  8
0
  6
Continuous
 62
     7
370
    25
100
AcDbSpline
210
0.0
220
0.0
230
1.0
 70
     8
 71
     3
 72
    11
 73
     7
 74
     0
 42
0.00000001
 43
0.00000001
 40
0.0
 40
0.0
 40
0.0
 40
0.0
 40
0.3176274264628125
 40
0.6359419671861375
 40
0.8656650355839972
 40
1.0
 40
1.0
 40
1.0
 40
1.0
 10
141.9273625866051
 20
76.35559535582387
 30
0.0
 10
141.9137238588391
 20
76.48685988577161
 30
0.0
 10
141.8864168990404
 20
76.74967290644288
 30
0.0
 10
141.7984118488024
 20
77.0613188058764
 30
0.0
 10
141.7538506466692
 20
77.21506814812498
 30
0.0
 10
141.7541997765917
 20
77.21355333026978
 30
0.0
 10
141.7543286031839
 20
77.21299437267419
 30
0.0
  0
LINE
  5
14B
330
1F
100
AcDbEntity
  8
0
  6
Continuous
 62
     7
370
    25
100
AcDbLine
 10
143.1450829597
 20
46.276088937
 30
0.0
 11
152.7096422135
 21
46.276088937
 31
0.0
  0
LINE
  5
14C
330
1F
100
AcDbEntity
  8
0
  6
Continuous
 62
     7
370
    25
100
AcDbLine
 10
151.9273625866
 20
44.9211408776
 30
0.0
 11
143.9273625866
 21
44.9211408776
 31
0.0
  0
SPLINE
  5
14D
330
1F
100
AcDbEntity
  8
0
  6
Continuous
 62
     7
370
    25
100
AcDbSpline
210
0.0
220
0.0
230
1.0
 70
     8
 71
     3
 72
    10
 73
     6
 74
     0
 42
0.00000001
 43
0.00000001
 40
0.0
 40
0.0
 40
0.0
 40
0.0
 40
0.1601790552921523
 40
0.7197651707804853
 40
1.0
 40
1.0
 40
1.0
 40
1.0
 10
141.215411748228
 20
78.15403616527414
 30
0.0
 10
141.2146489581347
 20
78.1554283933005
 30
0.0
 10
141.211221358061
 20
78.16168437502883
 30
0.0
 10
141.2257288228593
 20
78.13517711030092
 30
0.0
 10
141.2436583759771
 20
78.10262125515577
 30
0.0
 10
141.2496411813449
 20
78.0917578865244
 30
0.0
  0
SPLINE
  5
14E
330
1F
100
AcDbEntity
  8
0
  6
Continuous
 62
     7
370
    25
100
AcDbSpline
210
0.0
220
0.0
230
1.0
 70
     8
 71
     3
 72
     9
 73
     5
 74
     0
 42
0.00000001
 43
0.00000001
 40
0.0
 40
0.0
 40
0.0
 40
0.0
 40
0.5789479223911438
 40
1.0
 40
1.0
 40
1.0
 40
1.0
 10
157.5979795955313
 20
57.09886228285834
 30
0.0
 10
157.6204209627239
 20
57.11120317317275
 30
0.0
 10
157.6591832871485
 20
57.13251923604666
 30
0.0
 10
157.6599491900076
 20
57.13292740996105
 30
0.0
 10
157.6602716749976
 20
57.13309927243573
 30
0.0
  0
LINE
  5
14F
330
1F
100
AcDbEntity
  8
0
  6
Continuous
 62
     7
370
    25
100
AcDbLine
 10
155.2885785188
 20
56.4211408776
 30
0.0
 11
156.4273625866
 21
56.4211408776
 31
0.0
  0
SPLINE
  5
150
330
1F
100
AcDbEntity
  8
0
  6
Continuous
 62
     7
370
    25
100
AcDbSpline
210
0.0
220
0.0
230
1.0
 70
     8
 71
     3
 72
     9
 73
     5
 74
     0
 42
0.00000001
 43
0.00000001
 40
0.0
 40
0.0
 40
0.0
 40
0.0
 40
0.5797912171256431
 40
1.0
 40
1.0
 40
1.0
 40
1.0
 10
154.6050839918653
 20
78.09175788652439
 30
0.0
 10
154.6174425952117
 20
78.11423153476552
 30
0.0
 10
154.6387582050061
 20
78.15299315718634
 30
0.0
 10
154.6391491475089
 20
78.15372756194455
 30
0.0
 10
154.6393134249822
 20
78.15403616527414
 30
0.0
  0
SPLINE
  5
151
330
1F
100
AcDbEntity
  8
0
  6
Continuous
 62
     7
370
    25
100
AcDbSpline
210
0.0
220
0.0
230
1.0
 70
     8
 71
     3
 72
    10
 73
     6
 74
     0
 42
0.00000001
 43
0.00000001
 40
0.0
 40
0.0
 40
0.0
 40
0.0
 40
0.1593935212994522
 40
0.7189934545690309
 40
1.0
 40
1.0
 40
1.0
 40
1.0
 10
137.1393209814427
 20
78.15404996599085
 30
0.0
 10
137.1400825084401
 20
78.15543988481747
 30
0.0
 10
137.1435176099561
 20
78.1617095407644
 30
0.0
 10
137.1290229874896
 20
78.13522559894061
 30
0.0
 10
137.1110816169969
 20
78.10264819489373
 30
0.0
 10
137.1050839918653
 20
78.09175788652439
 30
0.0
  0
LINE
  5
152
330
1F
100
AcDbEntity
  8
0
  6
Continuous
 62
     7
370
    25
100
AcDbLine
 10
136.4273625866
 20
76.9211408776
 30
0.0
 11
136.4273625866
 21
75.7823568098
 31
0.0
  0
SPLINE
  5
153
330
1F
100
AcDbEntity
  8
0
  6
Continuous
 62
     7
370
    25
100
AcDbSpline
210
0.0
220
0.0
230
1.0
 70
     8
 71
     3
 72
    10
 73
     6
 74
     0
 42
0.00000001
 43
0.00000001
 40
0.0
 40
0.0
 40
0.0
 40
0.0
 40
0.1593935213061672
 40
0.7189934545756304
 40
1.0
 40
1.0
 40
1.0
 40
1.0
 10
138.1944534982125
 20
57.13309927243573
 30
0.0
 10
138.1930635793858
 20
57.13386079943319
 30
0.0
 10
138.186793923439
 20
57.13729590094905
 30
0.0
 10
138.213277865263
 20
57.12280127848245
 30
0.0
 10
138.2458552693097
 20
57.10485990798983
 30
0.0
 10
138.2567455776788
 20
57.09886228285834
 30
0.0
  0
LINE
  5
154
330
1F
100
AcDbEntity
  8
0
  6
Continuous
 62
     7
370
    25
100
AcDbLine
 10
139.4273625866
 20
56.4211408776
 30
0.0
 11
140.5661466544
 21
56.4211408776
 31
0.0
  0
SPLINE
  5
155
330
1F
100
AcDbEntity
  8
0
  6
Continuous
 62
     7
370
    25
100
AcDbSpline
210
0.0
220
0.0
230
1.0
 70
     8
 71
     3
 72
     9
 73
     5
 74
     0
 42
0.00000001
 43
0.00000001
 40
0.0
 40
0.0
 40
0.0
 40
0.0
 40
0.5789479223839474
 40
0.9999999999999999
 40
0.9999999999999999
 40
0.9999999999999999
 40
0.9999999999999999
 10
137.1050839918653
 20
58.75052386867191
 30
0.0
 10
137.1174248821795
 20
58.72808250147955
 30
0.0
 10
137.1387409450534
 20
58.689320177055
 30
0.0
 10
137.139149118968
 20
58.68855427419563
 30
0.0
 10
137.1393209814427
 20
58.68823178920545
 30
0.0
  0
LINE
  5
156
330
1F
100
AcDbEntity
  8
0
  6
Continuous
 62
     7
370
    25
100
AcDbLine
 10
136.4273625866
 20
61.0599249454
 30
0.0
 11
136.4273625866
 21
59.9211408776
 31
0.0
  0
LINE
  5
157
330
1F
100
AcDbEntity
  8
0
  6
Continuous
 62
     7
370
    25
100
AcDbLine
 10
157.6649668936
 20
58.6835365706
 30
0.0
 11
157.5979795955
 21
58.7505238687
 31
0.0
  0
LINE
  5
158
330
1F
100
AcDbEntity
  8
0
  6
Continuous
 62
     7
370
    25
100
AcDbLine
 10
138.2567455777
 20
58.7505238687
 30
0.0
 11
138.1897582796
 21
58.6835365706
 31
0.0
  0
SPLINE
  5
159
330
1F
100
AcDbEntity
  8
0
  6
Continuous
 62
     7
370
    25
100
AcDbSpline
210
0.0
220
0.0
230
1.0
 70
     8
 71
     3
 72
    30
 73
    26
 74
     0
 42
0.00000001
 43
0.00000001
 40
0.0
 40
0.0
 40
0.0
 40
0.0
 40
0.0110312627994485
 40
0.0532775810292973
 40
0.0955510378508273
 40
0.1522052454330493
 40
0.208959123704861
 40
0.2161886180052242
 40
0.2769246189766393
 40
0.3376598461904488
 40
0.3847632753142897
 40
0.4317719483729652
 40
0.4687706615117917
 40
0.5057306350555035
 40
0.5426485300810666
 40
0.5796155023562984
 40
0.6291505345097084
 40
0.6787773182316452
 40
0.7318128718268198
 40
0.7848397420327119
 40
0.8294785998955816
 40
0.874082657698466
 40
0.9165629544735936
 40
0.9590082428248307
 40
1.0
 40
1.0
 40
1.0
 40
1.0
 10
142.0273625866051
 20
77.92114087759816
 30
0.0
 10
142.0281866339513
 20
77.92044304570045
 30
0.0
 10
142.0321665272835
 20
77.91707273387385
 30
0.0
 10
142.1029482362127
 20
77.85672309026852
 30
0.0
 10
142.324236966312
 20
77.67119299461059
 30
0.0
 10
142.7147999817085
 20
77.35064704966896
 30
0.0
 10
143.1180420677947
 20
77.03697014612862
 30
0.0
 10
143.5848563068836
 20
76.69058085823869
 30
0.0
 10
144.1204841409616
 20
76.31015591123527
 30
0.0
 10
144.9362345189641
 20
75.8121323609746
 30
0.0
 10
145.7777943247286
 20
75.4000144879008
 30
0.0
 10
146.5612012433553
 20
75.12301537168571
 30
0.0
 10
147.3341861204601
 20
74.97159821922385
 30
0.0
 10
148.0647764247354
 20
74.93344874868815
 30
0.0
 10
148.789498887193
 20
75.01278064512823
 30
0.0
 10
149.5628684769025
 20
75.2052838283808
 30
0.0
 10
150.3532634456448
 20
75.52244342129363
 30
0.0
 10
151.1500674023528
 20
75.94772145994642
 30
0.0
 10
151.8774368531444
 20
76.41018415359139
 30
0.0
 10
152.4916342918398
 20
76.85059042446134
 30
0.0
 10
152.9851191242241
 20
77.22907211590247
 30
0.0
 10
153.3600935414448
 20
77.53076357599828
 30
0.0
 10
153.630617262841
 20
77.75463634851714
 30
0.0
 10
153.8017931483013
 20
77.8994252645275
 30
0.0
 10
153.8172048456578
 20
77.91244099836727
 30
0.0
 10
153.8247764531099
 20
77.91883549373382
 30
0.0
  0
LINE
  5
15A
330
1F
100
AcDbEntity
  8
0
  6
Continuous
 62
     7
370
    18
100
AcDbLine
 10
143.3006125866
 20
55.9211408776
 30
0.0
 11
143.6281682163
 21
45.4393607284
 31
0.0
  0
LINE
  5
15B
330
1F
100
AcDbEntity
  8
0
  6
Continuous
 62
     7
370
    18
100
AcDbLine
 10
152.2265569569
 20
45.4393607284
 30
0.0
 11
152.5541125866
 21
55.9211408776
 31
0.0
  0
LINE
  5
15C
330
1F
100
AcDbEntity
  8
0
  6
Continuous
 62
     7
370
    18
100
AcDbLine
 10
133.4273625866
 20
72.7011408776
 30
0.0
 11
123.4273625866
 21
72.7011408776
 31
0.0
  0
LINE
  5
15D
330
1F
100
AcDbEntity
  8
0
  6
Continuous
 62
     7
370
    18
100
AcDbLine
 10
123.4273625866
 20
64.1411408776
 30
0.0
 11
133.4273625866
 21
64.1411408776
 31
0.0
  0
LINE
  5
15E
330
1F
100
AcDbEntity
  8
0
  6
CENTERX2
 62
     7
370
    18
100
AcDbLine
 10
121.9273625866
 20
68.4211408776
 30
0.0
 11
162.1307151671
 21
68.4211408776
 31
0.0
  0
LINE
  5
15F
330
1F
100
AcDbEntity
  8
0
  6
CENTERX2
 62
     7
370
    18
100
AcDbLine
 10
147.9273625866
 20
44.276088937
 30
0.0
 11
147.9273625866
 21
98.0407535752
 31
0.0
  0
ARC
  5
160
330
1F
100
AcDbEntity
  8
0
  6
Continuous
 62
     7
370
    25
100
AcDbCircle
 10
222.9411739074
 20
95.5211408776
 30
0.0
 40
0.25
100
AcDbArc
 50
90.0
 51
180.0
  0
ARC
  5
161
330
1F
100
AcDbEntity
  8
0
  6
Continuous
 62
     7
370
    25
100
AcDbCircle
 10
233.4411739074
 20
95.5211408776
 30
0.0
 40
0.25
100
AcDbArc
 50
0.0
 51
90.0
  0
LINE
  5
162
330
1F
100
AcDbEntity
  8
0
  6
Continuous
 62
     7
370
    25
100
AcDbLine
 10
222.6911739074
 20
95.5211408776
 30
0.0
 11
222.6911739074
 21
94.9211408776
 31
0.0
  0
LINE
  5
163
330
1F
100
AcDbEntity
  8
0
  6
Continuous
 62
     7
370
    25
100
AcDbLine
 10
233.6911739074
 20
94.9211408776
 30
0.0
 11
233.6911739074
 21
95.5211408776
 31
0.0
  0
LINE
  5
164
330
1F
100
AcDbEntity
  8
0
  6
Continuous
 62
     7
370
    25
100
AcDbLine
 10
235.6411739074
 20
86.9211408776
 30
0.0
 11
233.6911739074
 21
94.9211408776
 31
0.0
  0
LINE
  5
165
330
1F
100
AcDbEntity
  8
0
  6
Continuous
 62
     7
370
    25
100
AcDbLine
 10
222.6911739074
 20
94.9211408776
 30
0.0
 11
220.7411739074
 21
86.9211408776
 31
0.0
  0
LINE
  5
166
330
1F
100
AcDbEntity
  8
0
  6
Continuous
 62
     7
370
    25
100
AcDbLine
 10
220.7411739074
 20
86.9211408776
 30
0.0
 11
221.1911739074
 21
78.9211408776
 31
0.0
  0
LINE
  5
167
330
1F
100
AcDbEntity
  8
0
  6
Continuous
 62
     7
370
    25
100
AcDbLine
 10
235.1911739074
 20
78.9211408776
 30
0.0
 11
235.6411739074
 21
86.9211408776
 31
0.0
  0
LINE
  5
168
330
1F
100
AcDbEntity
  8
0
  6
Continuous
 62
     7
370
    25
100
AcDbLine
 10
234.0911739074
 20
74.9543671308
 30
0.0
 11
234.0911739074
 21
78.9211408776
 31
0.0
  0
LINE
  5
169
330
1F
100
AcDbEntity
  8
0
  6
Continuous
 62
     7
370
    25
100
AcDbLine
 10
222.2911739074
 20
78.9211408776
 30
0.0
 11
222.2911739074
 21
74.9596695415
 31
0.0
  0
LINE
  5
16A
330
1F
100
AcDbEntity
  8
0
  6
Continuous
 62
     7
370
    25
100
AcDbLine
 10
223.0918614074
 20
56.4211408776
 30
0.0
 11
223.4088942805
 21
46.276088937
 31
0.0
  0
LINE
  5
16B
330
1F
100
AcDbEntity
  8
0
  6
Continuous
 62
     7
370
    25
100
AcDbLine
 10
232.9734535342
 20
46.276088937
 30
0.0
 11
233.2904864074
 21
56.4211408776
 31
0.0
  0
LINE
  5
16C
330
1F
100
AcDbEntity
  8
0
  6
Continuous
 62
     7
370
    25
100
AcDbLine
 10
223.4088942805
 20
46.276088937
 30
0.0
 11
224.1911739074
 21
44.9211408776
 31
0.0
  0
LINE
  5
16D
330
1F
100
AcDbEntity
  8
0
  6
Continuous
 62
     7
370
    25
100
AcDbLine
 10
232.1911739074
 20
44.9211408776
 30
0.0
 11
232.9734535342
 21
46.276088937
 31
0.0
  0
LINE
  5
16E
330
1F
100
AcDbEntity
  8
0
  6
Continuous
 62
     7
370
    25
100
AcDbLine
 10
222.9411739074
 20
95.7711408776
 30
0.0
 11
224.6911739074
 21
95.7711408776
 31
0.0
  0
LINE
  5
16F
330
1F
100
AcDbEntity
  8
0
  6
Continuous
 62
     7
370
    25
100
AcDbLine
 10
231.6911739074
 20
95.7711408776
 30
0.0
 11
233.4411739074
 21
95.7711408776
 31
0.0
  0
LINE
  5
170
330
1F
100
AcDbEntity
  8
0
  6
Continuous
 62
     7
370
    25
100
AcDbLine
 10
222.6911739074
 20
94.9211408776
 30
0.0
 11
224.6911739074
 21
94.9211408776
 31
0.0
  0
LINE
  5
171
330
1F
100
AcDbEntity
  8
0
  6
Continuous
 62
     7
370
    25
100
AcDbLine
 10
231.6911739074
 20
94.9211408776
 30
0.0
 11
233.6911739074
 21
94.9211408776
 31
0.0
  0
LINE
  5
172
330
1F
100
AcDbEntity
  8
0
  6
Continuous
 62
     7
370
    25
100
AcDbLine
 10
231.6911739074
 20
84.9211408776
 30
0.0
 11
224.6911739074
 21
84.9211408776
 31
0.0
  0
LINE
  5
173
330
1F
100
AcDbEntity
  8
0
  6
Continuous
 62
     7
370
    25
100
AcDbLine
 10
224.6911739074
 20
84.9211408776
 30
0.0
 11
224.6911739074
 21
89.9211408776
 31
0.0
  0
LINE
  5
174
330
1F
100
AcDbEntity
  8
0
  6
Continuous
 62
     7
370
    25
100
AcDbLine
 10
224.6911739074
 20
89.9211408776
 30
0.0
 11
231.6911739074
 21
89.9211408776
 31
0.0
  0
LINE
  5
175
330
1F
100
AcDbEntity
  8
0
  6
Continuous
 62
     7
370
    25
100
AcDbLine
 10
231.6911739074
 20
89.9211408776
 30
0.0
 11
231.6911739074
 21
84.9211408776
 31
0.0
  0
LINE
  5
176
330
1F
100
AcDbEntity
  8
0
  6
Continuous
 62
     7
370
    25
100
AcDbLine
 10
231.6911739074
 20
89.9211408776
 30
0.0
 11
231.6911739074
 21
96.9211408776
 31
0.0
  0
LINE
  5
177
330
1F
100
AcDbEntity
  8
0
  6
Continuous
 62
     7
370
    25
100
AcDbLine
 10
224.6911739074
 20
96.9211408776
 30
0.0
 11
224.6911739074
 21
89.9211408776
 31
0.0
  0
LINE
  5
178
330
1F
100
AcDbEntity
  8
0
  6
Continuous
 62
     7
370
    25
100
AcDbLine
 10
224.6911739074
 20
96.9211408776
 30
0.0
 11
231.6911739074
 21
96.9211408776
 31
0.0
  0
SPLINE
  5
179
330
1F
100
AcDbEntity
  8
0
  6
Continuous
 62
     7
370
    25
100
AcDbSpline
210
0.0
220
0.0
230
1.0
 70
     8
 71
     3
 72
     9
 73
     5
 74
     0
 42
0.00000001
 43
0.00000001
 40
0.0
 40
0.0
 40
0.0
 40
0.0
 40
0.4976931370791441
 40
0.9999999999999999
 40
0.9999999999999999
 40
0.9999999999999999
 40
0.9999999999999999
 10
231.6911739073732
 20
84.6733165705737
 30
0.0
 10
231.7078434205904
 20
84.52386968957326
 30
0.0
 10
231.741336977112
 20
84.22359052181635
 30
0.0
 10
231.9646756607536
 20
83.64216839442894
 30
0.0
 10
232.0768602143025
 20
83.35011606958818
 30
0.0
  0
LINE
  5
17A
330
1F
100
AcDbEntity
  8
0
  6
Continuous
 62
     7
370
    25
100
AcDbLine
 10
232.0768602143
 20
83.3501160696
 30
0.0
 11
224.3054876004
 21
83.3501160696
 31
0.0
  0
SPLINE
  5
17B
330
1F
100
AcDbEntity
  8
0
  6
Continuous
 62
     7
370
    25
100
AcDbSpline
210
0.0
220
0.0
230
1.0
 70
     8
 71
     3
 72
     9
 73
     5
 74
     0
 42
0.00000001
 43
0.00000001
 40
0.0
 40
0.0
 40
0.0
 40
0.0
 40
0.4977232396629078
 40
1.0
 40
1.0
 40
1.0
 40
1.0
 10
224.3054876004438
 20
83.35011606958818
 30
0.0
 10
224.4167842765577
 20
83.63970847021234
 30
0.0
 10
224.6403958487023
 20
84.22154266549781
 30
0.0
 10
224.674196583701
 20
84.52226881463594
 30
0.0
 10
224.6911739073732
 20
84.6733165705737
 30
0.0
  0
LINE
  5
17C
330
1F
100
AcDbEntity
  8
0
  6
Continuous
 62
     7
370
    25
100
AcDbLine
 10
231.6911739074
 20
84.9211408776
 30
0.0
 11
231.6911739074
 21
84.6733165706
 31
0.0
  0
LINE
  5
17D
330
1F
100
AcDbEntity
  8
0
  6
Continuous
 62
     7
370
    25
100
AcDbLine
 10
224.6911739074
 20
84.6733165706
 30
0.0
 11
224.6911739074
 21
84.9211408776
 31
0.0
  0
SPLINE
  5
17E
330
1F
100
AcDbEntity
  8
0
  6
Continuous
 62
     7
370
    25
100
AcDbSpline
210
0.0
220
0.0
230
1.0
 70
     8
 71
     3
 72
    16
 73
    12
 74
     0
 42
0.00000001
 43
0.00000001
 40
0.0
 40
0.0
 40
0.0
 40
0.0
 40
0.0155634360124117
 40
0.0359329243097674
 40
0.0739120889290614
 40
0.1570057548437684
 40
0.2406581385754913
 40
0.4592958294318596
 40
0.6783839187935417
 40
0.8974954344294845
 40
1.0
 40
1.0
 40
1.0
 40
1.0
 10
221.5314516851509
 20
78.92114087759825
 30
0.0
 10
221.5451453521643
 20
78.9263342493774
 30
0.0
 10
221.5767613462109
 20
78.93832472724519
 30
0.0
 10
221.632241036521
 20
79.05665065124215
 30
0.0
 10
221.7108418470115
 20
79.3679019586911
 30
0.0
 10
221.7901820336405
 20
79.89354946005615
 30
0.0
 10
221.8954097417437
 20
80.93209562432631
 30
0.0
 10
222.010403142963
 20
82.36716966667242
 30
0.0
 10
222.1128031433779
 20
84.20542176811186
 30
0.0
 10
222.1825520232583
 20
85.72660461693131
 30
0.0
 10
222.2220106426871
 20
86.63243665772782
 30
0.0
 10
222.2345867820001
 20
86.92114087759578
 30
0.0
  0
LINE
  5
17F
330
1F
100
AcDbEntity
  8
0
  6
Continuous
 62
     7
370
    25
100
AcDbLine
 10
222.234586782
 20
86.9211408776
 30
0.0
 11
222.0144260667
 21
87.9158844556
 31
0.0
  0
ELLIPSE
  5
180
330
1F
100
AcDbEntity
  8
0
  6
Continuous
 62
     7
370
    25
100
AcDbEllipse
 10
159.6911739074
 20
85.2690153099
 30
0.0
 11
65.00000000000003
 21
0.0
 31
0.0
210
0.0
220
0.0
230
1.0
 40
0.2713992096
 41
6.084179739699223
 42
6.174194364446292
  0
SPLINE
  5
181
330
1F
100
AcDbEntity
  8
0
  6
Continuous
 62
     7
370
    25
100
AcDbSpline
210
0.0
220
0.0
230
1.0
 70
     8
 71
     3
 72
    13
 73
     9
 74
     0
 42
0.00000001
 43
0.00000001
 40
0.0
 40
0.0
 40
0.0
 40
0.0
 40
0.1610294006389558
 40
0.3266880383557516
 40
0.4877296220820636
 40
0.6535536198224136
 40
0.8237602734841889
 40
1.0
 40
1.0
 40
1.0
 40
1.0
 10
223.4083115772686
 20
81.78149462910531
 30
0.0
 10
223.3645078098363
 20
81.71209773452806
 30
0.0
 10
223.275641014094
 20
81.57130893901953
 30
0.0
 10
223.146620995422
 20
81.22518412131187
 30
0.0
 10
223.0256108996547
 20
80.78597747825982
 30
0.0
 10
222.91892991653
 20
80.25237564132023
 30
0.0
 10
222.8282626291742
 20
79.62854933462054
 30
0.0
 10
222.7914438202774
 20
79.15966543641856
 30
0.0
 10
222.7727138315061
 20
78.92114087759815
 30
0.0
  0
LINE
  5
182
330
1F
100
AcDbEntity
  8
0
  6
Continuous
 62
     7
370
    25
100
AcDbLine
 10
222.7727138315
 20
78.9211408776
 30
0.0
 11
221.5314516852
 21
78.9211408776
 31
0.0
  0
LINE
  5
183
330
1F
100
AcDbEntity
  8
0
  6
Continuous
 62
     7
370
    25
100
AcDbLine
 10
222.0144260667
 20
87.9158844556
 30
0.0
 11
224.6911739074
 21
87.9158844556
 31
0.0
  0
SPLINE
  5
184
330
1F
100
AcDbEntity
  8
0
  6
Continuous
 62
     7
370
    25
100
AcDbSpline
210
0.0
220
0.0
230
1.0
 70
     8
 71
     3
 72
    17
 73
    13
 74
     0
 42
0.00000001
 43
0.00000001
 40
0.0
 40
0.0
 40
0.0
 40
0.0
 40
0.3241697628029873
 40
0.542275846362072
 40
0.689509052693928
 40
0.7894036290694506
 40
0.8577090008137827
 40
0.9049823971474139
 40
0.9551712229700868
 40
0.9753097783197817
 40
0.9919572060138849
 40
1.0
 40
1.0
 40
1.0
 40
1.0
 10
234.1477610327462
 20
86.92114087759578
 30
0.0
 10
234.188411471473
 20
86.00852737499011
 30
0.0
 10
234.2564121106287
 20
84.48189436872877
 30
0.0
 10
234.367845009945
 20
82.55512146644779
 30
0.0
 10
234.4603496700036
 20
81.26748599551503
 30
0.0
 10
234.538251126321
 20
80.40833402879329
 30
0.0
 10
234.6043036257433
 20
79.83486614041588
 30
0.0
 10
234.6676602331057
 20
79.41333398638592
 30
0.0
 10
234.7257867007996
 20
79.13284144359048
 30
0.0
 10
234.7851285291224
 20
78.97729277500983
 30
0.0
 10
234.8221345977451
 20
78.92668217581232
 30
0.0
 10
234.8438291646156
 20
78.92250242400769
 30
0.0
 10
234.8508961295954
 20
78.92114087759822
 30
0.0
  0
LINE
  5
185
330
1F
100
AcDbEntity
  8
0
  6
Continuous
 62
     7
370
    25
100
AcDbLine
 10
234.8508961296
 20
78.9211408776
 30
0.0
 11
233.6096339832
 21
78.9211408776
 31
0.0
  0
SPLINE
  5
186
330
1F
100
AcDbEntity
  8
0
  6
Continuous
 62
     7
370
    25
100
AcDbSpline
210
0.0
220
0.0
230
1.0
 70
     8
 71
     3
 72
    14
 73
    10
 74
     0
 42
0.00000001
 43
0.00000001
 40
0.0
 40
0.0
 40
0.0
 40
0.0
 40
0.1576095309202821
 40
0.3152382602707094
 40
0.4726926441579496
 40
0.6301650083177254
 40
0.7907313191165902
 40
0.9513050385928076
 40
1.0
 40
1.0
 40
1.0
 40
1.0
 10
233.6096339832403
 20
78.92114087759815
 30
0.0
 10
233.5931286463978
 20
79.13464266607555
 30
0.0
 10
233.5601159621964
 20
79.56167224970106
 30
0.0
 10
233.4803122722845
 20
80.14691932855737
 30
0.0
 10
233.3825248647983
 20
80.6690738693798
 30
0.0
 10
233.2689350251163
 20
81.11805199679966
 30
0.0
 10
233.1443929260845
 20
81.47733372860606
 30
0.0
 10
233.0440355853081
 20
81.68189990770723
 30
0.0
 10
232.987249787693
 20
81.76269445605854
 30
0.0
 10
232.9740362374777
 20
81.78149462910531
 30
0.0
  0
ELLIPSE
  5
187
330
1F
100
AcDbEntity
  8
0
  6
Continuous
 62
     7
370
    25
100
AcDbEllipse
 10
296.6911739074
 20
85.2690153099
 30
0.0
 11
65.0
 21
0.0
 31
0.0
210
0.0
220
0.0
230
1.0
 40
0.2713992096
 41
3.25058359632319
 42
3.340598221070255
  0
LINE
  5
188
330
1F
100
AcDbEntity
  8
0
  6
Continuous
 62
     7
370
    25
100
AcDbLine
 10
231.6911739074
 20
87.9158844556
 30
0.0
 11
234.367921748
 21
87.9158844556
 31
0.0
  0
LINE
  5
189
330
1F
100
AcDbEntity
  8
0
  6
Continuous
 62
     7
370
    25
100
AcDbLine
 10
234.367921748
 20
87.9158844556
 30
0.0
 11
234.1477610327
 21
86.9211408776
 31
0.0
  0
LINE
  5
18A
330
1F
100
AcDbEntity
  8
0
  6
Continuous
 62
     7
370
    25
100
AcDbLine
 10
223.4083115773
 20
81.7814946291
 30
0.0
 11
232.9740362375
 21
81.7814946291
 31
0.0
  0
SPLINE
  5
18B
330
1F
100
AcDbEntity
  8
0
  6
Continuous
 62
     7
370
    25
100
AcDbSpline
210
0.0
220
0.0
230
1.0
 70
     8
 71
     3
 72
    16
 73
    12
 74
     0
 42
0.00000001
 43
0.00000001
 40
0.0
 40
0.0
 40
0.0
 40
0.0
 40
0.1082397394540288
 40
0.2409347985297594
 40
0.3278143823752722
 40
0.4147786007912546
 40
0.5911316736061375
 40
0.6905102391473411
 40
0.7897210831517909
 40
0.9112972329116562
 40
1.0
 40
1.0
 40
1.0
 40
1.0
 10
230.7892501187265
 20
78.92114087759815
 30
0.0
 10
230.6711962354991
 20
79.104198072289
 30
0.0
 10
230.4084157750647
 20
79.51167178337452
 30
0.0
 10
229.8317380139873
 20
79.85590145184847
 30
0.0
 10
229.2461804215932
 20
80.05988399596623
 30
0.0
 10
228.5391584085612
 20
80.19129802632831
 30
0.0
 10
227.7793354739458
 20
80.18827778227278
 30
0.0
 10
227.0253669676952
 20
80.03351804756446
 30
0.0
 10
226.4249907651287
 20
79.79297171622125
 30
0.0
 10
225.9083366539909
 20
79.43252987779158
 30
0.0
 10
225.6866237190789
 20
79.07286127323727
 30
0.0
 10
225.5930976960198
 20
78.92114087759815
 30
0.0
  0
LINE
  5
18C
330
1F
100
AcDbEntity
  8
0
  6
Continuous
 62
     7
370
    25
100
AcDbLine
 10
225.593097696
 20
78.9211408776
 30
0.0
 11
222.7727138315
 21
78.9211408776
 31
0.0
  0
LINE
  5
18D
330
1F
100
AcDbEntity
  8
0
  6
Continuous
 62
     7
370
    25
100
AcDbLine
 10
233.6096339832
 20
78.9211408776
 30
0.0
 11
230.7892501187
 21
78.9211408776
 31
0.0
  0
LINE
  5
18E
330
1F
100
AcDbEntity
  8
0
  6
Continuous
 62
     7
370
    25
100
AcDbLine
 10
230.7892501187
 20
78.9211408776
 30
0.0
 11
225.593097696
 21
78.9211408776
 31
0.0
  0
LINE
  5
18F
330
1F
100
AcDbEntity
  8
0
  6
Continuous
 62
     7
370
    25
100
AcDbLine
 10
234.1477610327
 20
86.9211408776
 30
0.0
 11
235.6411739074
 21
86.9211408776
 31
0.0
  0
LINE
  5
190
330
1F
100
AcDbEntity
  8
0
  6
Continuous
 62
     7
370
    25
100
AcDbLine
 10
220.7411739074
 20
86.9211408776
 30
0.0
 11
222.234586782
 21
86.9211408776
 31
0.0
  0
SPLINE
  5
191
330
1F
100
AcDbEntity
  8
0
  6
Continuous
 62
     7
370
    25
100
AcDbSpline
210
0.0
220
0.0
230
1.0
 70
     8
 71
     3
 72
     9
 73
     5
 74
     0
 42
0.00000001
 43
0.00000001
 40
0.0
 40
0.0
 40
0.0
 40
0.0
 40
0.4875141023677128
 40
0.9999999999999999
 40
0.9999999999999999
 40
0.9999999999999999
 40
0.9999999999999999
 10
234.8508961295954
 20
78.92114087759822
 30
0.0
 10
234.8594222411312
 20
78.92286822356992
 30
0.0
 10
234.8769111947724
 20
78.92641139486139
 30
0.0
 10
234.8932328986589
 20
78.9479298808107
 30
0.0
 10
234.901597541726
 20
78.95895780139814
 30
0.0
  0
SPLINE
  5
192
330
1F
100
AcDbEntity
  8
0
  6
Continuous
 62
     7
370
    25
100
AcDbSpline
210
0.0
220
0.0
230
1.0
 70
     8
 71
     3
 72
     9
 73
     5
 74
     0
 42
0.00000001
 43
0.00000001
 40
0.0
 40
0.0
 40
0.0
 40
0.0
 40
0.5124861829376838
 40
0.9999999999999999
 40
0.9999999999999999
 40
0.9999999999999999
 40
0.9999999999999999
 10
221.4807503038866
 20
78.95895775553836
 30
0.0
 10
221.4891149470102
 20
78.9479298425872
 30
0.0
 10
221.5054366419205
 20
78.92641138351779
 30
0.0
 10
221.5229255841623
 20
78.92286821917263
 30
0.0
 10
221.5314516851509
 20
78.92114087759825
 30
0.0
  0
LINE
  5
193
330
1F
100
AcDbEntity
  8
0
  6
Continuous
 62
     7
370
    25
100
AcDbLine
 10
234.8993778399
 20
78.9211408776
 30
0.0
 11
235.1911739074
 21
78.9211408776
 31
0.0
  0
LINE
  5
194
330
1F
100
AcDbEntity
  8
0
  6
Continuous
 62
     7
370
    25
100
AcDbLine
 10
221.1911739074
 20
78.9211408776
 30
0.0
 11
221.4829699749
 21
78.9211408776
 31
0.0
  0
LINE
  5
195
330
1F
100
AcDbEntity
  8
0
  6
Continuous
 62
     7
370
    25
100
AcDbLine
 10
234.9015975417
 20
78.9589578014
 30
0.0
 11
234.8993778399
 21
78.9211408776
 31
0.0
  0
LINE
  5
196
330
1F
100
AcDbEntity
  8
0
  6
Continuous
 62
     7
370
    25
100
AcDbLine
 10
234.8993778399
 20
78.9211408776
 30
0.0
 11
234.8508961296
 21
78.9211408776
 31
0.0
  0
LINE
  5
197
330
1F
100
AcDbEntity
  8
0
  6
Continuous
 62
     7
370
    25
100
AcDbLine
 10
221.4829699749
 20
78.9211408776
 30
0.0
 11
221.4807503039
 21
78.9589577555
 31
0.0
  0
LINE
  5
198
330
1F
100
AcDbEntity
  8
0
  6
Continuous
 62
     7
370
    25
100
AcDbLine
 10
221.5314516852
 20
78.9211408776
 30
0.0
 11
221.4829699749
 21
78.9211408776
 31
0.0
  0
SPLINE
  5
199
330
1F
100
AcDbEntity
  8
0
  6
Continuous
 62
     7
370
    25
100
AcDbSpline
210
0.0
220
0.0
230
1.0
 70
     8
 71
     3
 72
    10
 73
     6
 74
     0
 42
0.00000001
 43
0.00000001
 40
0.0
 40
0.0
 40
0.0
 40
0.0
 40
0.5
 40
0.5
 40
1.0
 40
1.0
 40
1.0
 40
1.0
 10
219.6911739073732
 20
63.80233872408114
 30
0.0
 10
219.6911739073732
 20
63.71645166227869
 30
0.0
 10
219.713966356703
 20
63.62904445329855
 30
0.0
 10
219.801909060796
 20
63.47640801070482
 30
0.0
 10
219.8667668344699
 20
63.41228496575923
 30
0.0
 10
219.9411739073732
 20
63.36932602218892
 30
0.0
  0
SPLINE
  5
19A
330
1F
100
AcDbEntity
  8
0
  6
Continuous
 62
     7
370
    25
100
AcDbSpline
210
0.0
220
0.0
230
1.0
 70
    24
 71
     3
 72
    14
 73
    10
 74
     0
 42
0.00000001
 43
0.00000001
 40
0.0
 40
0.0
 40
0.0
 40
0.0
 40
0.25
 40
0.25
 40
0.5
 40
0.5
 40
0.75
 40
0.75
 40
1.0
 40
1.0
 40
1.0
 40
1.0
 10
219.6911739073732
 20
63.8023387240811
 30
0.0
 10
219.6911739073732
 20
64.55671878473109
 30
0.0
 10
219.6911739073732
 20
65.32615995219658
 30
0.0
 10
219.6911739073732
 20
66.86667131313774
 30
0.0
 10
219.6911739073732
 20
67.64152569314476
 30
0.0
 10
219.6911739073732
 20
69.20188664803031
 30
0.0
 10
219.6911739073732
 20
69.99234284081535
 30
0.0
 10
219.6911739073732
 20
71.53462250362382
 30
0.0
 10
219.6911739073732
 20
72.292013256825
 30
0.0
 10
219.6911739073732
 20
73.03994303111516
 30
0.0
  0
SPLINE
  5
19B
330
1F
100
AcDbEntity
  8
0
  6
Continuous
 62
     7
370
    25
100
AcDbSpline
210
0.0
220
0.0
230
1.0
 70
     8
 71
     3
 72
    10
 73
     6
 74
     0
 42
0.00000001
 43
0.00000001
 40
0.0
 40
0.0
 40
0.0
 40
0.0
 40
0.5
 40
0.5
 40
1.0
 40
1.0
 40
1.0
 40
1.0
 10
219.9411739073732
 20
73.47295573300738
 30
0.0
 10
219.8667935299958
 20
73.43001220210616
 30
0.0
 10
219.8024928912101
 20
73.36656975748203
 30
0.0
 10
219.7142772064271
 20
73.21409092036306
 30
0.0
 10
219.6911739073732
 20
73.1258609182558
 30
0.0
 10
219.6911739073732
 20
73.03994303111516
 30
0.0
  0
SPLINE
  5
19C
330
1F
100
AcDbEntity
  8
0
  6
Continuous
 62
     7
370
    25
100
AcDbSpline
210
0.0
220
0.0
230
1.0
 70
    24
 71
     3
 72
    16
 73
    12
 74
     0
 42
0.00000001
 43
0.00000001
 40
0.0
 40
0.0
 40
0.0
 40
0.0
 40
0.2500000000000001
 40
0.2500000000000001
 40
0.5000000000000001
 40
0.5000000000000001
 40
0.6250000000000001
 40
0.6250000000000001
 40
0.7500000000000002
 40
0.7500000000000002
 40
1.0
 40
1.0
 40
1.0
 40
1.0
 10
227.9411739073732
 20
78.09175788652439
 30
0.0
 10
227.2876571273324
 20
77.7144497976479
 30
0.0
 10
226.6294367182424
 20
77.33442606727368
 30
0.0
 10
225.2998741348766
 20
76.566802751863
 30
0.0
 10
224.628450152806
 20
76.17915593507419
 30
0.0
 10
223.6094490657994
 20
75.59083538318636
 30
0.0
 10
223.2681082834831
 20
75.39376219063071
 30
0.0
 10
222.5925097805127
 20
75.0037052130766
 30
0.0
 10
222.2568506305481
 20
74.80991231248856
 30
0.0
 10
221.2555849940484
 20
74.23183132772513
 30
0.0
 10
220.5956773354452
 20
73.85083346339032
 30
0.0
 10
219.9411739073732
 20
73.47295573300738
 30
0.0
  0
SPLINE
  5
19D
330
1F
100
AcDbEntity
  8
0
  6
Continuous
 62
     7
370
    25
100
AcDbSpline
210
0.0
220
0.0
230
1.0
 70
     8
 71
     3
 72
    10
 73
     6
 74
     0
 42
0.00000001
 43
0.00000001
 40
0.0
 40
0.0
 40
0.0
 40
0.0
 40
0.5
 40
0.5
 40
1.0
 40
1.0
 40
1.0
 40
1.0
 10
228.4411739073732
 20
78.09175788652439
 30
0.0
 10
228.3667935299958
 20
78.13470141742562
 30
0.0
 10
228.2797004418803
 20
78.15866618178161
 30
0.0
 10
228.1035420530042
 20
78.15882378725638
 30
0.0
 10
228.0155809802764
 20
78.1347168300947
 30
0.0
 10
227.9411739073732
 20
78.09175788652439
 30
0.0
  0
SPLINE
  5
19E
330
1F
100
AcDbEntity
  8
0
  6
Continuous
 62
     7
370
    25
100
AcDbSpline
210
0.0
220
0.0
230
1.0
 70
    24
 71
     3
 72
    16
 73
    12
 74
     0
 42
0.00000001
 43
0.00000001
 40
0.0
 40
0.0
 40
0.0
 40
0.0
 40
0.2499999999999997
 40
0.2499999999999997
 40
0.4999999999999993
 40
0.4999999999999993
 40
0.6249999999999993
 40
0.6249999999999993
 40
0.7499999999999996
 40
0.7499999999999996
 40
1.0
 40
1.0
 40
1.0
 40
1.0
 10
236.4411739073732
 20
73.47295573300738
 30
0.0
 10
235.7876571273324
 20
73.85026382188389
 30
0.0
 10
235.1294367182424
 20
74.23028755225808
 30
0.0
 10
233.7998741348766
 20
74.99791086766876
 30
0.0
 10
233.1284501528061
 20
75.38555768445758
 30
0.0
 10
232.1094490657993
 20
75.97387823634543
 30
0.0
 10
231.7681082834831
 20
76.17095142890106
 30
0.0
 10
231.0925097805127
 20
76.56100840645517
 30
0.0
 10
230.7568506305481
 20
76.75480130704321
 30
0.0
 10
229.7555849940484
 20
77.33288229180664
 30
0.0
 10
229.0956773354452
 20
77.71388015614146
 30
0.0
 10
228.4411739073732
 20
78.09175788652439
 30
0.0
  0
SPLINE
  5
19F
330
1F
100
AcDbEntity
  8
0
  6
Continuous
 62
     7
370
    25
100
AcDbSpline
210
0.0
220
0.0
230
1.0
 70
     8
 71
     3
 72
    10
 73
     6
 74
     0
 42
0.00000001
 43
0.00000001
 40
0.0
 40
0.0
 40
0.0
 40
0.0
 40
0.5
 40
0.5
 40
1.0
 40
1.0
 40
1.0
 40
1.0
 10
236.6911739073732
 20
73.03994303111516
 30
0.0
 10
236.6911739073732
 20
73.12583009291762
 30
0.0
 10
236.6683814580434
 20
73.21323730189773
 30
0.0
 10
236.5804387539503
 20
73.36587374449148
 30
0.0
 10
236.5155809802764
 20
73.42999678943707
 30
0.0
 10
236.4411739073732
 20
73.47295573300738
 30
0.0
  0
SPLINE
  5
1A0
330
1F
100
AcDbEntity
  8
0
  6
Continuous
 62
     7
370
    25
100
AcDbSpline
210
0.0
220
0.0
230
1.0
 70
    24
 71
     3
 72
    14
 73
    10
 74
     0
 42
0.00000001
 43
0.00000001
 40
0.0
 40
0.0
 40
0.0
 40
0.0
 40
0.25
 40
0.25
 40
0.5
 40
0.5
 40
0.75
 40
0.75
 40
1.0
 40
1.0
 40
1.0
 40
1.0
 10
236.6911739073732
 20
63.80233872408109
 30
0.0
 10
236.6911739073732
 20
64.55671878473107
 30
0.0
 10
236.6911739073732
 20
65.32615995219656
 30
0.0
 10
236.6911739073732
 20
66.86667131313774
 30
0.0
 10
236.6911739073732
 20
67.64152569314476
 30
0.0
 10
236.6911739073732
 20
69.20188664803031
 30
0.0
 10
236.6911739073732
 20
69.99234284081535
 30
0.0
 10
236.6911739073732
 20
71.53462250362382
 30
0.0
 10
236.6911739073732
 20
72.29201325682499
 30
0.0
 10
236.6911739073732
 20
73.03994303111516
 30
0.0
  0
SPLINE
  5
1A1
330
1F
100
AcDbEntity
  8
0
  6
Continuous
 62
     7
370
    25
100
AcDbSpline
210
0.0
220
0.0
230
1.0
 70
     8
 71
     3
 72
    10
 73
     6
 74
     0
 42
0.00000001
 43
0.00000001
 40
0.0
 40
0.0
 40
0.0
 40
0.0
 40
0.5
 40
0.5
 40
1.0
 40
1.0
 40
1.0
 40
1.0
 10
236.4411739073732
 20
63.36932602218892
 30
0.0
 10
236.5155542847503
 20
63.41226955309006
 30
0.0
 10
236.5798549235358
 20
63.47571199771374
 30
0.0
 10
236.6680706083191
 20
63.62819083483286
 30
0.0
 10
236.6911739073732
 20
63.71642083694033
 30
0.0
 10
236.6911739073732
 20
63.80233872408112
 30
0.0
  0
SPLINE
  5
1A2
330
1F
100
AcDbEntity
  8
0
  6
Continuous
 62
     7
370
    25
100
AcDbSpline
210
0.0
220
0.0
230
1.0
 70
    24
 71
     3
 72
    16
 73
    12
 74
     0
 42
0.00000001
 43
0.00000001
 40
0.0
 40
0.0
 40
0.0
 40
0.0
 40
0.2500000000000002
 40
0.2500000000000002
 40
0.5000000000000004
 40
0.5000000000000004
 40
0.6250000000000003
 40
0.6250000000000003
 40
0.7500000000000002
 40
0.7500000000000002
 40
1.0
 40
1.0
 40
1.0
 40
1.0
 10
228.4411739073732
 20
58.75052386867192
 30
0.0
 10
229.0946906874139
 20
59.12783195754839
 30
0.0
 10
229.7529110965038
 20
59.50785568792256
 30
0.0
 10
231.0824736798695
 20
60.2754790033332
 30
0.0
 10
231.75389766194
 20
60.66312582012197
 30
0.0
 10
232.7728987489467
 20
61.25144637200976
 30
0.0
 10
233.1142395312628
 20
61.44851956456539
 30
0.0
 10
233.7898380342332
 20
61.83857654211947
 30
0.0
 10
234.1254971841978
 20
62.03236944270749
 30
0.0
 10
235.1267628206975
 20
62.61045042747087
 30
0.0
 10
235.7866704793006
 20
62.99144829180567
 30
0.0
 10
236.4411739073726
 20
63.36932602218857
 30
0.0
  0
SPLINE
  5
1A3
330
1F
100
AcDbEntity
  8
0
  6
Continuous
 62
     7
370
    25
100
AcDbSpline
210
0.0
220
0.0
230
1.0
 70
     8
 71
     3
 72
    10
 73
     6
 74
     0
 42
0.00000001
 43
0.00000001
 40
0.0
 40
0.0
 40
0.0
 40
0.0
 40
0.5
 40
0.5
 40
1.0
 40
1.0
 40
1.0
 40
1.0
 10
227.9411739073732
 20
58.75052386867192
 30
0.0
 10
228.0155542847505
 20
58.70758033777069
 30
0.0
 10
228.1026473728661
 20
58.68361557341471
 30
0.0
 10
228.2788057617421
 20
58.68345796793992
 30
0.0
 10
228.3667668344699
 20
58.70756492510161
 30
0.0
 10
228.4411739073732
 20
58.75052386867192
 30
0.0
  0
SPLINE
  5
1A4
330
1F
100
AcDbEntity
  8
0
  6
Continuous
 62
     7
370
    25
100
AcDbSpline
210
0.0
220
0.0
230
1.0
 70
    24
 71
     3
 72
    16
 73
    12
 74
     0
 42
0.00000001
 43
0.00000001
 40
0.0
 40
0.0
 40
0.0
 40
0.0
 40
0.2500000000000001
 40
0.2500000000000001
 40
0.5000000000000002
 40
0.5000000000000002
 40
0.6250000000000001
 40
0.6250000000000001
 40
0.7500000000000001
 40
0.7500000000000001
 40
1.0
 40
1.0
 40
1.0
 40
1.0
 10
219.9411739073732
 20
63.36932602218892
 30
0.0
 10
220.594690687414
 20
62.99201793331243
 30
0.0
 10
221.2529110965039
 20
62.61199420293823
 30
0.0
 10
222.5824736798697
 20
61.84437088752753
 30
0.0
 10
223.2538976619403
 20
61.45672407073874
 30
0.0
 10
224.272898748947
 20
60.86840351885089
 30
0.0
 10
224.6142395312632
 20
60.67133032629523
 30
0.0
 10
225.2898380342336
 20
60.28127334874114
 30
0.0
 10
225.6254971841983
 20
60.0874804481531
 30
0.0
 10
226.626762820698
 20
59.50939946338968
 30
0.0
 10
227.2866704793011
 20
59.12840159905485
 30
0.0
 10
227.9411739073732
 20
58.75052386867192
 30
0.0
  0
CIRCLE
  5
1A5
330
1F
100
AcDbEntity
  8
0
  6
Continuous
 62
     7
370
    25
100
AcDbCircle
 10
228.1911739074
 20
68.4211408776
 30
0.0
 40
8.25
  0
SPLINE
  5
1A6
330
1F
100
AcDbEntity
  8
0
  6
Continuous
 62
     7
370
    25
100
AcDbSpline
210
0.0
220
0.0
230
1.0
 70
     8
 71
     3
 72
    10
 73
     6
 74
     0
 42
0.00000001
 43
0.00000001
 40
0.0
 40
0.0
 40
0.0
 40
0.0
 40
0.5
 40
0.5
 40
1.0
 40
1.0
 40
1.0
 40
1.0
 10
227.9411739073732
 20
57.09886228285834
 30
0.0
 10
228.0155486613632
 20
57.12253588734946
 30
0.0
 10
228.1026423929291
 20
57.13562866314269
 30
0.0
 10
228.2788082214736
 20
57.13571523124364
 30
0.0
 10
228.3667692453639
 20
57.12254540712036
 30
0.0
 10
228.4411739073732
 20
57.09886228285834
 30
0.0
  0
SPLINE
  5
1A7
330
1F
100
AcDbEntity
  8
0
  6
Continuous
 62
     7
370
    25
100
AcDbSpline
210
0.0
220
0.0
230
1.0
 70
     8
 71
     3
 72
    12
 73
     8
 74
     0
 42
0.00000001
 43
0.00000001
 40
0.0
 40
0.0
 40
0.0
 40
0.0
 40
0.2500000000000002
 40
0.2500000000000002
 40
0.5000000000000001
 40
0.5000000000000001
 40
1.0
 40
1.0
 40
1.0
 40
1.0
 10
232.4411739073732
 20
56.42114087759815
 30
0.0
 10
232.1034179723504
 20
56.42114087759814
 30
0.0
 10
231.7630099574719
 20
56.43688720762011
 30
0.0
 10
231.0885152730715
 20
56.49833223220553
 30
0.0
 10
230.7533899542042
 20
56.54392099145927
 30
0.0
 10
229.7536786358641
 20
56.72037199371587
 30
0.0
 10
229.0947445327988
 20
56.89082969567935
 30
0.0
 10
228.4411739073732
 20
57.09886228285819
 30
0.0
  0
LINE
  5
1A8
330
1F
100
AcDbEntity
  8
0
  6
Continuous
 62
     7
370
    25
100
AcDbLine
 10
223.9411739074
 20
56.4211408776
 30
0.0
 11
232.4411739074
 21
56.4211408776
 31
0.0
  0
SPLINE
  5
1A9
330
1F
100
AcDbEntity
  8
0
  6
Continuous
 62
     7
370
    25
100
AcDbSpline
210
0.0
220
0.0
230
1.0
 70
     8
 71
     3
 72
    10
 73
     6
 74
     0
 42
0.00000001
 43
0.00000001
 40
0.0
 40
0.0
 40
0.0
 40
0.0
 40
0.5
 40
0.5
 40
1.0
 40
1.0
 40
1.0
 40
1.0
 10
227.9411739073732
 20
57.09886228285788
 30
0.0
 10
227.2851611407681
 20
56.89005235819162
 30
0.0
 10
226.6248942339104
 20
56.71951821844436
 30
0.0
 10
225.2925477152754
 20
56.48473241342544
 30
0.0
 10
224.6203947337881
 20
56.42114087759815
 30
0.0
 10
223.9411739073732
 20
56.42114087759815
 30
0.0
  0
LINE
  5
1AA
330
1F
100
AcDbEntity
  8
0
  6
Continuous
 62
     7
370
    25
100
AcDbLine
 10
228.4411739074
 20
58.7505238687
 30
0.0
 11
228.4411739074
 21
57.0988622829
 31
0.0
  0
LINE
  5
1AB
330
1F
100
AcDbEntity
  8
0
  6
Continuous
 62
     7
370
    25
100
AcDbLine
 10
227.9411739074
 20
57.0988622829
 30
0.0
 11
227.9411739074
 21
58.7505238687
 31
0.0
  0
SPLINE
  5
1AC
330
1F
100
AcDbEntity
  8
0
  6
Continuous
 62
     7
370
    25
100
AcDbSpline
210
0.0
220
0.0
230
1.0
 70
     8
 71
     3
 72
    12
 73
     8
 74
     0
 42
0.00000001
 43
0.00000001
 40
0.0
 40
0.0
 40
0.0
 40
0.0
 40
0.2499999999999999
 40
0.2499999999999999
 40
0.4999999999999998
 40
0.4999999999999998
 40
1.0
 40
1.0
 40
1.0
 40
1.0
 10
232.5656040001255
 20
61.13176469296329
 30
0.0
 10
232.8947389905187
 20
61.12805620710686
 30
0.0
 10
233.2242011434554
 20
61.10947370426918
 30
0.0
 10
233.8770747615131
 20
61.04460666730304
 30
0.0
 10
234.2015273533902
 20
60.99834111405276
 30
0.0
 10
235.1695877945823
 20
60.82261658374581
 30
0.0
 10
235.8079102788302
 20
60.65631317496905
 30
0.0
 10
236.4411739073732
 20
60.45474433774315
 30
0.0
  0
LINE
  5
1AD
330
1F
100
AcDbEntity
  8
0
  6
Continuous
 62
     7
370
    25
100
AcDbLine
 10
236.4411739074
 20
57.0988622829
 30
0.0
 11
236.4411739074
 21
60.4547443377
 31
0.0
  0
SPLINE
  5
1AE
330
1F
100
AcDbEntity
  8
0
  6
Continuous
 62
     7
370
    25
100
AcDbSpline
210
0.0
220
0.0
230
1.0
 70
     8
 71
     3
 72
    10
 73
     6
 74
     0
 42
0.00000001
 43
0.00000001
 40
0.0
 40
0.0
 40
0.0
 40
0.0
 40
0.5
 40
0.5
 40
1.0
 40
1.0
 40
1.0
 40
1.0
 10
236.4411739073732
 20
57.09886228285788
 30
0.0
 10
235.7851611407681
 20
56.89005235819162
 30
0.0
 10
235.1248942339104
 20
56.71951821844436
 30
0.0
 10
233.7925477152754
 20
56.48473241342544
 30
0.0
 10
233.1203947337881
 20
56.42114087759815
 30
0.0
 10
232.4411739073732
 20
56.42114087759815
 30
0.0
  0
SPLINE
  5
1AF
330
1F
100
AcDbEntity
  8
0
  6
Continuous
 62
     7
370
    25
100
AcDbSpline
210
0.0
220
0.0
230
1.0
 70
     8
 71
     3
 72
    12
 73
     8
 74
     0
 42
0.00000001
 43
0.00000001
 40
0.0
 40
0.0
 40
0.0
 40
0.0
 40
0.2499999999999998
 40
0.2499999999999998
 40
0.4999999999999996
 40
0.4999999999999996
 40
1.0
 40
1.0
 40
1.0
 40
1.0
 10
223.9411739073732
 20
56.42114087759815
 30
0.0
 10
223.6034179723504
 20
56.42114087759815
 30
0.0
 10
223.2630099574719
 20
56.43688720762011
 30
0.0
 10
222.5885152730715
 20
56.49833223220553
 30
0.0
 10
222.2533899542042
 20
56.54392099145926
 30
0.0
 10
221.2536786358641
 20
56.72037199371587
 30
0.0
 10
220.5947445327988
 20
56.89082969567936
 30
0.0
 10
219.9411739073732
 20
57.09886228285819
 30
0.0
  0
LINE
  5
1B0
330
1F
100
AcDbEntity
  8
0
  6
Continuous
 62
     7
370
    25
100
AcDbLine
 10
219.9411739074
 20
60.4547443377
 30
0.0
 11
219.9411739074
 21
57.0988622829
 31
0.0
  0
SPLINE
  5
1B1
330
1F
100
AcDbEntity
  8
0
  6
Continuous
 62
     7
370
    25
100
AcDbSpline
210
0.0
220
0.0
230
1.0
 70
     8
 71
     3
 72
    10
 73
     6
 74
     0
 42
0.00000001
 43
0.00000001
 40
0.0
 40
0.0
 40
0.0
 40
0.0
 40
0.5
 40
0.5
 40
1.0
 40
1.0
 40
1.0
 40
1.0
 10
219.9411739073736
 20
60.4547443377433
 30
0.0
 10
220.5760016131873
 20
60.65681102329422
 30
0.0
 10
221.2152673157631
 20
60.82320379556487
 30
0.0
 10
222.506082247353
 20
61.05725076943492
 30
0.0
 10
223.1577018828228
 20
61.12433902339375
 30
0.0
 10
223.8167438146429
 20
61.13176469296354
 30
0.0
  0
SPLINE
  5
1B2
330
1F
100
AcDbEntity
  8
0
  6
Continuous
 62
     7
370
    25
100
AcDbSpline
210
0.0
220
0.0
230
1.0
 70
     8
 71
     3
 72
    10
 73
     6
 74
     0
 42
0.00000001
 43
0.00000001
 40
0.0
 40
0.0
 40
0.0
 40
0.0
 40
0.5
 40
0.5
 40
1.0
 40
1.0
 40
1.0
 40
1.0
 10
236.4411739073732
 20
57.09886228285834
 30
0.0
 10
236.5155443742987
 20
57.1225345227699
 30
0.0
 10
236.5798499705866
 20
57.13562851270516
 30
0.0
 10
236.6680727583924
 20
57.13571538016661
 30
0.0
 10
236.6911739073732
 20
57.12254559040725
 30
0.0
 10
236.6911739073732
 20
57.09886228285834
 30
0.0
  0
LINE
  5
1B3
330
1F
100
AcDbEntity
  8
0
  6
Continuous
 62
     7
370
    25
100
AcDbLine
 10
232.4411739074
 20
56.4211408776
 30
0.0
 11
236.6911739074
 21
56.4211408776
 31
0.0
  0
SPLINE
  5
1B4
330
1F
100
AcDbEntity
  8
0
  6
Continuous
 62
     7
370
    25
100
AcDbSpline
210
0.0
220
0.0
230
1.0
 70
    24
 71
     3
 72
    10
 73
     6
 74
     0
 42
0.00000001
 43
0.00000001
 40
0.0
 40
0.0
 40
0.0
 40
0.0
 40
0.5
 40
0.5
 40
1.0
 40
1.0
 40
1.0
 40
1.0
 10
236.6911739073732
 20
56.42114087759815
 30
0.0
 10
236.6911739073732
 20
56.42114087759816
 30
0.0
 10
236.6911739073732
 20
56.48342523957667
 30
0.0
 10
236.6911739073732
 20
56.71827335758369
 30
0.0
 10
236.6911739073732
 20
56.8915159647149
 30
0.0
 10
236.6911739073732
 20
57.09886228285834
 30
0.0
  0
SPLINE
  5
1B5
330
1F
100
AcDbEntity
  8
0
  6
Continuous
 62
     7
370
    25
100
AcDbSpline
210
0.0
220
0.0
230
1.0
 70
     8
 71
     3
 72
    10
 73
     6
 74
     0
 42
0.00000001
 43
0.00000001
 40
0.0
 40
0.0
 40
0.0
 40
0.0
 40
0.5
 40
0.5
 40
1.0
 40
1.0
 40
1.0
 40
1.0
 10
219.6911739073732
 20
57.09886228285834
 30
0.0
 10
219.6911739073732
 20
57.1225361834143
 30
0.0
 10
219.7139644790206
 20
57.13562874059343
 30
0.0
 10
219.8019104763194
 20
57.13571515457571
 30
0.0
 10
219.8667712690522
 20
57.12254476297709
 30
0.0
 10
219.9411739073732
 20
57.09886228285834
 30
0.0
  0
LINE
  5
1B6
330
1F
100
AcDbEntity
  8
0
  6
Continuous
 62
     7
370
    25
100
AcDbLine
 10
219.6911739074
 20
56.4211408776
 30
0.0
 11
223.9411739074
 21
56.4211408776
 31
0.0
  0
SPLINE
  5
1B7
330
1F
100
AcDbEntity
  8
0
  6
Continuous
 62
     7
370
    25
100
AcDbSpline
210
0.0
220
0.0
230
1.0
 70
    24
 71
     3
 72
    10
 73
     6
 74
     0
 42
0.00000001
 43
0.00000001
 40
0.0
 40
0.0
 40
0.0
 40
0.0
 40
0.5
 40
0.5
 40
1.0
 40
1.0
 40
1.0
 40
1.0
 10
219.6911739073732
 20
56.42114087759815
 30
0.0
 10
219.6911739073732
 20
56.42114087759816
 30
0.0
 10
219.6911739073732
 20
56.48342523957667
 30
0.0
 10
219.6911739073732
 20
56.71827335758369
 30
0.0
 10
219.6911739073732
 20
56.8915159647149
 30
0.0
 10
219.6911739073732
 20
57.09886228285834
 30
0.0
  0
SPLINE
  5
1B8
330
1F
100
AcDbEntity
  8
0
  6
Continuous
 62
     7
370
    25
100
AcDbSpline
210
0.0
220
0.0
230
1.0
 70
     8
 71
     3
 72
     8
 73
     4
 74
     0
 42
0.00000001
 43
0.00000001
 40
0.0
 40
0.0
 40
0.0
 40
0.0
 40
1.0
 40
1.0
 40
1.0
 40
1.0
 10
219.6911739073732
 20
60.61622966602417
 30
0.0
 10
220.212980058675
 20
60.88881980169352
 30
0.0
 10
220.7366335275312
 20
61.15797230281492
 30
0.0
 10
221.2629706770977
 20
61.42114087759816
 30
0.0
  0
SPLINE
  5
1B9
330
1F
100
AcDbEntity
  8
0
  6
Continuous
 62
     7
370
    25
100
AcDbSpline
210
0.0
220
0.0
230
1.0
 70
     8
 71
     3
 72
    10
 73
     6
 74
     0
 42
0.00000001
 43
0.00000001
 40
0.0
 40
0.0
 40
0.0
 40
0.0
 40
0.5
 40
0.5
 40
1.0
 40
1.0
 40
1.0
 40
1.0
 10
219.6911739073732
 20
60.45474433774313
 30
0.0
 10
219.6911739073732
 20
60.43106894331872
 30
0.0
 10
219.713966356703
 20
60.41797783343409
 30
0.0
 10
219.8019090607963
 20
60.41789151214587
 30
0.0
 10
219.8667668344705
 20
60.43106044608982
 30
0.0
 10
219.9411739073738
 20
60.45474433774336
 30
0.0
  0
SPLINE
  5
1BA
330
1F
100
AcDbEntity
  8
0
  6
Continuous
 62
     7
370
    25
100
AcDbSpline
210
0.0
220
0.0
230
1.0
 70
    24
 71
     3
 72
     8
 73
     4
 74
     0
 42
0.00000001
 43
0.00000001
 40
0.0
 40
0.0
 40
0.0
 40
0.0
 40
1.0
 40
1.0
 40
1.0
 40
1.0
 10
219.6911739073732
 20
60.61622966602417
 30
0.0
 10
219.6911739073732
 20
60.56533487632335
 30
0.0
 10
219.6911739073732
 20
60.51140102696191
 30
0.0
 10
219.6911739073732
 20
60.45474433774315
 30
0.0
  0
SPLINE
  5
1BB
330
1F
100
AcDbEntity
  8
0
  6
Continuous
 62
     7
370
    25
100
AcDbSpline
210
0.0
220
0.0
230
1.0
 70
     8
 71
     3
 72
     8
 73
     4
 74
     0
 42
0.00000001
 43
0.00000001
 40
0.0
 40
0.0
 40
0.0
 40
0.0
 40
1.0
 40
1.0
 40
1.0
 40
1.0
 10
235.1193771376487
 20
61.42114087759815
 30
0.0
 10
235.6457979988579
 20
61.15793044699355
 30
0.0
 10
236.1693424555716
 20
60.88883301860684
 30
0.0
 10
236.6911739073732
 20
60.61622966602419
 30
0.0
  0
SPLINE
  5
1BC
330
1F
100
AcDbEntity
  8
0
  6
Continuous
 62
     7
370
    25
100
AcDbSpline
210
0.0
220
0.0
230
1.0
 70
     8
 71
     3
 72
    10
 73
     6
 74
     0
 42
0.00000001
 43
0.00000001
 40
0.0
 40
0.0
 40
0.0
 40
0.0
 40
0.5
 40
0.5
 40
1.0
 40
1.0
 40
1.0
 40
1.0
 10
236.4411739073732
 20
60.45474433774315
 30
0.0
 10
236.5155542847505
 20
60.43106894331876
 30
0.0
 10
236.5798549235363
 20
60.41797783343412
 30
0.0
 10
236.6680706083192
 20
60.41789151214584
 30
0.0
 10
236.6911739073732
 20
60.43106044608968
 30
0.0
 10
236.6911739073732
 20
60.45474433774314
 30
0.0
  0
SPLINE
  5
1BD
330
1F
100
AcDbEntity
  8
0
  6
Continuous
 62
     7
370
    25
100
AcDbSpline
210
0.0
220
0.0
230
1.0
 70
    24
 71
     3
 72
     8
 73
     4
 74
     0
 42
0.00000001
 43
0.00000001
 40
0.0
 40
0.0
 40
0.0
 40
0.0
 40
1.0
 40
1.0
 40
1.0
 40
1.0
 10
236.6911739073732
 20
60.61622966602417
 30
0.0
 10
236.6911739073732
 20
60.56533487632335
 30
0.0
 10
236.6911739073732
 20
60.51140102696191
 30
0.0
 10
236.6911739073732
 20
60.45474433774315
 30
0.0
  0
LINE
  5
1BE
330
1F
100
AcDbEntity
  8
0
  6
Continuous
 62
     7
370
    25
100
AcDbLine
 10
233.0668182544
 20
61.4211408776
 30
0.0
 11
235.6911739074
 21
61.4211408776
 31
0.0
  0
LINE
  5
1BF
330
1F
100
AcDbEntity
  8
0
  6
Continuous
 62
     7
370
    25
100
AcDbLine
 10
235.6911739074
 20
62.9363133203
 30
0.0
 11
235.6911739074
 21
61.4211408776
 31
0.0
  0
LINE
  5
1C0
330
1F
100
AcDbEntity
  8
0
  6
Continuous
 62
     7
370
    25
100
AcDbLine
 10
220.6911739074
 20
61.4211408776
 30
0.0
 11
220.6911739074
 21
62.9363133203
 31
0.0
  0
LINE
  5
1C1
330
1F
100
AcDbEntity
  8
0
  6
Continuous
 62
     7
370
    25
100
AcDbLine
 10
220.6911739074
 20
61.4211408776
 30
0.0
 11
223.3155295604
 21
61.4211408776
 31
0.0
  0
LINE
  5
1C2
330
1F
100
AcDbEntity
  8
0
  6
Continuous
 62
     7
370
    25
100
AcDbLine
 10
228.1911739074
 20
46.276088937
 30
0.0
 11
232.9734535342
 21
46.276088937
 31
0.0
  0
LINE
  5
1C3
330
1F
100
AcDbEntity
  8
0
  6
Continuous
 62
     7
370
    25
100
AcDbLine
 10
223.4088942805
 20
46.276088937
 30
0.0
 11
228.1911739074
 21
46.276088937
 31
0.0
  0
LINE
  5
1C4
330
1F
100
AcDbEntity
  8
0
  6
Continuous
 62
     7
370
    25
100
AcDbLine
 10
219.6911739074
 20
57.0988622829
 30
0.0
 11
219.6911739074
 21
60.4547443377
 31
0.0
  0
LINE
  5
1C5
330
1F
100
AcDbEntity
  8
0
  6
Continuous
 62
     7
370
    25
100
AcDbLine
 10
236.6911739074
 20
60.4547443377
 30
0.0
 11
236.6911739074
 21
57.0988622829
 31
0.0
  0
LINE
  5
1C6
330
1F
100
AcDbEntity
  8
0
  6
Continuous
 62
     7
370
    25
100
AcDbLine
 10
232.1911739074
 20
44.9211408776
 30
0.0
 11
224.1911739074
 21
44.9211408776
 31
0.0
  0
LINE
  5
1C7
330
1F
100
AcDbEntity
  8
0
  6
Continuous
 62
     7
370
    25
100
AcDbLine
 10
219.6911739074
 20
60.616229666
 30
0.0
 11
219.6911739074
 21
63.7541142598
 31
0.0
  0
LINE
  5
1C8
330
1F
100
AcDbEntity
  8
0
  6
Continuous
 62
     7
370
    25
100
AcDbLine
 10
236.6911739074
 20
60.616229666
 30
0.0
 11
236.6911739074
 21
63.7541142598
 31
0.0
  0
LINE
  5
1C9
330
1F
100
AcDbEntity
  8
0
  6
Continuous
 62
     7
370
    25
100
AcDbLine
 10
224.6911739074
 20
95.5211408776
 30
0.0
 11
222.6911739074
 21
95.5211408776
 31
0.0
  0
LINE
  5
1CA
330
1F
100
AcDbEntity
  8
0
  6
Continuous
 62
     7
370
    25
100
AcDbLine
 10
233.6911739074
 20
95.5211408776
 30
0.0
 11
231.6911739074
 21
95.5211408776
 31
0.0
  0
SPLINE
  5
1CB
330
1F
100
AcDbEntity
  8
0
  6
Continuous
 62
     7
370
    25
100
AcDbSpline
210
0.0
220
0.0
230
1.0
 70
     8
 71
     3
 72
    19
 73
    15
 74
     0
 42
0.00000001
 43
0.00000001
 40
0.0
 40
0.0
 40
0.0
 40
0.0
 40
0.0167765667327858
 40
0.0954931542316458
 40
0.1743143845768839
 40
0.2799333178899234
 40
0.3857478845229858
 40
0.4988306535225264
 40
0.6118949077402311
 40
0.7070741848463251
 40
0.802179261027234
 40
0.8927560394638552
 40
0.9832581727003519
 40
1.0
 40
1.0
 40
1.0
 40
1.0
 10
222.2988209694998
 20
74.96054894651655
 30
0.0
 10
222.2962947383469
 20
74.95741341254373
 30
0.0
 10
222.2819152896226
 20
74.93956577815985
 30
0.0
 10
222.3453606226276
 20
75.01862877152308
 30
0.0
 10
222.5004666536077
 20
75.20311380220544
 30
0.0
 10
222.7887641507645
 20
75.52309270014683
 30
0.0
 10
223.2211980809467
 20
75.94754098168752
 30
0.0
 10
223.7756308329964
 20
76.41020555667828
 30
0.0
 10
224.4185263883661
 20
76.85068555269818
 30
0.0
 10
225.1179633132008
 20
77.22874648609371
 30
0.0
 10
225.8399636332758
 20
77.53197001610478
 30
0.0
 10
226.6176830225231
 20
77.75036913425289
 30
0.0
 10
227.205731495288
 20
77.87176889403938
 30
0.0
 10
227.5353216738017
 20
77.88506872138795
 30
0.0
 10
227.5867739124243
 20
77.88714495403985
 30
0.0
  0
SPLINE
  5
1CC
330
1F
100
AcDbEntity
  8
0
  6
Continuous
 62
     7
370
    25
100
AcDbSpline
210
0.0
220
0.0
230
1.0
 70
     8
 71
     3
 72
    19
 73
    15
 74
     0
 42
0.00000001
 43
0.00000001
 40
0.0
 40
0.0
 40
0.0
 40
0.0
 40
0.0313540670114532
 40
0.0973964905914515
 40
0.197409722821928
 40
0.2975352200669741
 40
0.4181224474238995
 40
0.5388061172144047
 40
0.656436814549084
 40
0.7739011180416818
 40
0.8504354561603606
 40
0.9268690851038516
 40
0.996735770612403
 40
1.0
 40
1.0
 40
1.0
 40
1.0
 10
228.8033711173142
 20
77.88264322986518
 30
0.0
 10
228.8992430389364
 20
77.87742319033322
 30
0.0
 10
229.1970541238222
 20
77.86120795640595
 30
0.0
 10
229.7799395257929
 20
77.74683549150754
 30
0.0
 10
230.5291838641687
 20
77.53756298611171
 30
0.0
 10
231.3496485902075
 20
77.19324109328133
 30
0.0
 10
232.1167952750717
 20
76.7576420537201
 30
0.0
 10
232.7980858748816
 20
76.26224315279596
 30
0.0
 10
233.3487959516577
 20
75.77184714193287
 30
0.0
 10
233.7175335683581
 20
75.38889104312842
 30
0.0
 10
233.9455587458413
 20
75.1281393298666
 30
0.0
 10
234.0566652043258
 20
74.9936818261817
 30
0.0
 10
234.1006410215707
 20
74.9397844501558
 30
0.0
 10
234.0897149363741
 20
74.95311921298939
 30
0.0
 10
234.0892272459296
 20
74.95371441578126
 30
0.0
  0
INSERT
  5
1D8
330
1F
100
AcDbEntity
  8
0
  6
Continuous
 62
     7
370
    18
100
AcDbBlockReference
  2
SW_CENTERMARKSYMBOL_0
 10
228.1911739074
 20
68.4211408776
 30
0.0
  0
LINE
  5
1D9
330
1F
100
AcDbEntity
  8
0
  6
Continuous
 62
     7
370
    18
100
AcDbLine
 10
223.5644239074
 20
55.9211408776
 30
0.0
 11
223.891979537
 21
45.4393607284
 31
0.0
  0
LINE
  5
1DA
330
1F
100
AcDbEntity
  8
0
  6
Continuous
 62
     7
370
    18
100
AcDbLine
 10
232.4903682777
 20
45.4393607284
 30
0.0
 11
232.8179239074
 21
55.9211408776
 31
0.0
  0
LINE
  5
1DB
330
1F
100
AcDbEntity
  8
0
  6
Continuous
 62
     7
370
    25
100
AcDbLine
 10
136.4273625866
 20
129.2712147806
 30
0.0
 11
133.6273625866
 21
129.2712147806
 31
0.0
  0
LINE
  5
1DC
330
1F
100
AcDbEntity
  8
0
  6
Continuous
 62
     7
370
    25
100
AcDbLine
 10
133.6273625866
 20
113.2712147806
 30
0.0
 11
136.4273625866
 21
113.2712147806
 31
0.0
  0
LINE
  5
1DD
330
1F
100
AcDbEntity
  8
0
  6
Continuous
 62
     7
370
    25
100
AcDbLine
 10
133.6273625866
 20
129.2712147806
 30
0.0
 11
133.4273625866
 21
129.0712147806
 31
0.0
  0
LINE
  5
1DE
330
1F
100
AcDbEntity
  8
0
  6
Continuous
 62
     7
370
    25
100
AcDbLine
 10
133.4273625866
 20
113.4712147806
 30
0.0
 11
133.6273625866
 21
113.2712147806
 31
0.0
  0
LINE
  5
1DF
330
1F
100
AcDbEntity
  8
0
  6
Continuous
 62
     7
370
    25
100
AcDbLine
 10
133.4273625866
 20
126.1352147806
 30
0.0
 11
123.9273625866
 21
126.1352147806
 31
0.0
  0
LINE
  5
1E0
330
1F
100
AcDbEntity
  8
0
  6
Continuous
 62
     7
370
    25
100
AcDbLine
 10
123.9273625866
 20
116.4072147806
 30
0.0
 11
133.4273625866
 21
116.4072147806
 31
0.0
  0
LINE
  5
1E1
330
1F
100
AcDbEntity
  8
0
  6
Continuous
 62
     7
370
    25
100
AcDbLine
 10
123.9273625866
 20
126.1352147806
 30
0.0
 11
123.4273625866
 21
125.6352147806
 31
0.0
  0
LINE
  5
1E2
330
1F
100
AcDbEntity
  8
0
  6
Continuous
 62
     7
370
    25
100
AcDbLine
 10
123.4273625866
 20
116.9072147806
 30
0.0
 11
123.9273625866
 21
116.4072147806
 31
0.0
  0
LINE
  5
1E3
330
1F
100
AcDbEntity
  8
0
  6
Continuous
 62
     7
370
    25
100
AcDbLine
 10
159.7830250193
 20
112.7712147806
 30
0.0
 11
159.9273625866
 21
113.0212147806
 31
0.0
  0
LINE
  5
1E4
330
1F
100
AcDbEntity
  8
0
  6
Continuous
 62
     7
370
    25
100
AcDbLine
 10
159.9273625866
 20
129.5212147806
 30
0.0
 11
159.7830250193
 21
129.7712147806
 31
0.0
  0
SPLINE
  5
1E5
330
1F
100
AcDbEntity
  8
0
  6
Continuous
 62
     7
370
    25
100
AcDbSpline
210
0.0
220
0.0
230
1.0
 70
     8
 71
     3
 72
    15
 73
    11
 74
     0
 42
0.00000001
 43
0.00000001
 40
0.0
 40
0.0
 40
0.0
 40
0.0
 40
0.0081667445812695
 40
0.3321939991490083
 40
0.4756279600585602
 40
0.6866830973284899
 40
0.8457435502264811
 40
0.8967566214763185
 40
0.9909540928118029
 40
1.0
 40
1.0
 40
1.0
 40
1.0
 10
153.0263821001978
 20
122.5212147806004
 30
0.0
 10
153.0268696343407
 20
122.5226522435394
 30
0.0
 10
153.0467007818728
 20
122.5811231014911
 30
0.0
 10
153.0749815618821
 20
122.6655482792106
 30
0.0
 10
153.1128108603709
 20
122.780127351233
 30
0.0
 10
153.1393947569384
 20
122.8614982384296
 30
0.0
 10
153.1565645806934
 20
122.9145172304313
 30
0.0
 10
153.1643815769098
 20
122.9387191622755
 30
0.0
 10
153.1663772633457
 20
122.9449087829417
 30
0.0
 10
153.1664422272965
 20
122.9451101783542
 30
0.0
 10
153.1664479192632
 20
122.9451278240787
 30
0.0
  0
ARC
  5
1E6
330
1F
100
AcDbEntity
  8
0
  6
Continuous
 62
     7
370
    25
100
AcDbCircle
 10
147.9273625866
 20
121.2712147806
 30
0.0
 40
5.250000000000009
100
AcDbArc
 50
13.774146998
 51
166.225853002
  0
SPLINE
  5
1E7
330
1F
100
AcDbEntity
  8
0
  6
Continuous
 62
     7
370
    25
100
AcDbSpline
210
0.0
220
0.0
230
1.0
 70
     8
 71
     3
 72
    15
 73
    11
 74
     0
 42
0.00000001
 43
0.00000001
 40
0.0
 40
0.0
 40
0.0
 40
0.0
 40
0.0090459071881971
 40
0.1032433785236874
 40
0.1542564497735246
 40
0.313316902671511
 40
0.5243720399414428
 40
0.6678060008509903
 40
0.9918332554187292
 40
1.0
 40
1.0
 40
1.0
 40
1.0
 10
142.6882772539469
 20
122.9451278240787
 30
0.0
 10
142.6882829459136
 20
122.9451101783542
 30
0.0
 10
142.6883479098644
 20
122.9449087829417
 30
0.0
 10
142.6903435963003
 20
122.9387191622755
 30
0.0
 10
142.6981605925168
 20
122.9145172304313
 30
0.0
 10
142.7153304162717
 20
122.8614982384296
 30
0.0
 10
142.7419143128392
 20
122.7801273512331
 30
0.0
 10
142.7797436113281
 20
122.6655482792106
 30
0.0
 10
142.8080243913373
 20
122.5811231014911
 30
0.0
 10
142.8278555388694
 20
122.5226522435394
 30
0.0
 10
142.8283430730123
 20
122.5212147806004
 30
0.0
  0
ARC
  5
1E8
330
1F
100
AcDbEntity
  8
0
  6
Continuous
 62
     7
370
    25
100
AcDbCircle
 10
147.9273625866
 20
121.2712147806
 30
0.0
 40
5.499999999999997
100
AcDbArc
 50
17.7189318734
 51
162.2810681266
  0
ARC
  5
1E9
330
1F
100
AcDbEntity
  8
0
  6
Continuous
 62
     7
370
    25
100
AcDbCircle
 10
142.4501370116
 20
123.0212147806
 30
0.0
 40
0.25
100
AcDbArc
 50
270.0
 51
342.2810681266
  0
SPLINE
  5
1EA
330
1F
100
AcDbEntity
  8
0
  6
Continuous
 62
     7
370
    25
100
AcDbSpline
210
0.0
220
0.0
230
1.0
 70
     8
 71
     3
 72
    15
 73
    11
 74
     0
 42
0.00000001
 43
0.00000001
 40
0.0
 40
0.0
 40
0.0
 40
0.0
 40
0.0080847466189818
 40
0.3310106400647567
 40
0.4750333064304972
 40
0.6874363079215137
 40
0.8468367539418253
 40
0.9000996640391794
 40
0.9910442771984082
 40
1.0
 40
1.0
 40
1.0
 40
1.0
 10
142.8283430730123
 20
122.5212147806004
 30
0.0
 10
142.8270632414681
 20
122.5220307165887
 30
0.0
 10
142.7746635957443
 20
122.5554372667823
 30
0.0
 10
142.6993085042899
 20
122.6042508315172
 30
0.0
 10
142.5973893922721
 20
122.6716213037853
 30
0.0
 10
142.5249984472802
 20
122.7202053441288
 30
0.0
 10
142.4772930190154
 20
122.7526542055874
 30
0.0
 10
142.4557575353081
 20
122.7673652466536
 30
0.0
 10
142.4503285192885
 20
122.7710836975717
 30
0.0
 10
142.450152767132
 20
122.7712039962373
 30
0.0
 10
142.4501370115534
 20
122.7712147806004
 30
0.0
  0
SPLINE
  5
1EB
330
1F
100
AcDbEntity
  8
0
  6
Continuous
 62
     7
370
    25
100
AcDbSpline
210
0.0
220
0.0
230
1.0
 70
     8
 71
     3
 72
    15
 73
    11
 74
     0
 42
0.00000001
 43
0.00000001
 40
0.0
 40
0.0
 40
0.0
 40
0.0
 40
0.0090459071881971
 40
0.1032433785236816
 40
0.1542564497735189
 40
0.31331690267151
 40
0.5243720399414428
 40
0.6678060008509183
 40
0.9918332554187028
 40
1.0
 40
1.0
 40
1.0
 40
1.0
 10
153.1664479192632
 20
119.5973017371221
 30
0.0
 10
153.1664422272965
 20
119.5973193828466
 30
0.0
 10
153.1663772633457
 20
119.5975207782592
 30
0.0
 10
153.1643815769098
 20
119.6037103989253
 30
0.0
 10
153.1565645806934
 20
119.6279123307695
 30
0.0
 10
153.1393947569384
 20
119.6809313227712
 30
0.0
 10
153.1128108603709
 20
119.7623022099677
 30
0.0
 10
153.0749815618822
 20
119.8768812819902
 30
0.0
 10
153.046700781872
 20
119.9613064597094
 30
0.0
 10
153.0268696343407
 20
120.0197773176614
 30
0.0
 10
153.0263821001978
 20
120.0212147806004
 30
0.0
  0
ARC
  5
1EC
330
1F
100
AcDbEntity
  8
0
  6
Continuous
 62
     7
370
    25
100
AcDbCircle
 10
147.9273625866
 20
121.2712147806
 30
0.0
 40
5.499999999999997
100
AcDbArc
 50
197.7189318734
 51
342.2810681266
  0
SPLINE
  5
1ED
330
1F
100
AcDbEntity
  8
0
  6
Continuous
 62
     7
370
    25
100
AcDbSpline
210
0.0
220
0.0
230
1.0
 70
     8
 71
     3
 72
    15
 73
    11
 74
     0
 42
0.00000001
 43
0.00000001
 40
0.0
 40
0.0
 40
0.0
 40
0.0
 40
0.0081667445812973
 40
0.3321939991490804
 40
0.475627960058556
 40
0.6866830973284891
 40
0.8457435502264751
 40
0.8967566214763124
 40
0.9909540928118028
 40
1.0
 40
1.0
 40
1.0
 40
1.0
 10
142.8283430730123
 20
120.0212147806004
 30
0.0
 10
142.8278555388694
 20
120.0197773176614
 30
0.0
 10
142.8080243913381
 20
119.9613064597094
 30
0.0
 10
142.7797436113279
 20
119.8768812819902
 30
0.0
 10
142.7419143128392
 20
119.7623022099677
 30
0.0
 10
142.7153304162717
 20
119.6809313227712
 30
0.0
 10
142.6981605925168
 20
119.6279123307695
 30
0.0
 10
142.6903435963003
 20
119.6037103989253
 30
0.0
 10
142.6883479098644
 20
119.5975207782592
 30
0.0
 10
142.6882829459136
 20
119.5973193828466
 30
0.0
 10
142.6882772539469
 20
119.5973017371221
 30
0.0
  0
ARC
  5
1EE
330
1F
100
AcDbEntity
  8
0
  6
Continuous
 62
     7
370
    25
100
AcDbCircle
 10
147.9273625866
 20
121.2712147806
 30
0.0
 40
5.250000000000009
100
AcDbArc
 50
193.774146998
 51
346.225853002
  0
SPLINE
  5
1EF
330
1F
100
AcDbEntity
  8
0
  6
Continuous
 62
     7
370
    25
100
AcDbSpline
210
0.0
220
0.0
230
1.0
 70
     8
 71
     3
 72
    15
 73
    11
 74
     0
 42
0.00000001
 43
0.00000001
 40
0.0
 40
0.0
 40
0.0
 40
0.0
 40
0.0080847466189582
 40
0.3310106400648243
 40
0.4750333064304948
 40
0.6874363079215142
 40
0.8468367539418303
 40
0.9000996640391847
 40
0.9910442771984082
 40
1.0
 40
1.0
 40
1.0
 40
1.0
 10
153.0263821001978
 20
120.0212147806004
 30
0.0
 10
153.027661931742
 20
120.0203988446121
 30
0.0
 10
153.0800615774652
 20
119.9869922944176
 30
0.0
 10
153.1554166689203
 20
119.9381787296838
 30
0.0
 10
153.257335780938
 20
119.8708082574154
 30
0.0
 10
153.3297267259299
 20
119.822224217072
 30
0.0
 10
153.3774321541947
 20
119.7897753556135
 30
0.0
 10
153.398967637902
 20
119.7750643145472
 30
0.0
 10
153.4043966539216
 20
119.7713458636291
 30
0.0
 10
153.4045724060781
 20
119.7712255649636
 30
0.0
 10
153.4045881616567
 20
119.7712147806004
 30
0.0
  0
ARC
  5
1F0
330
1F
100
AcDbEntity
  8
0
  6
Continuous
 62
     7
370
    25
100
AcDbCircle
 10
153.4045881617
 20
119.5212147806
 30
0.0
 40
0.2500000000000169
100
AcDbArc
 50
90.0
 51
162.2810681266
  0
SPLINE
  5
1F1
330
1F
100
AcDbEntity
  8
0
  6
Continuous
 62
     7
370
    25
100
AcDbSpline
210
0.0
220
0.0
230
1.0
 70
     8
 71
     3
 72
    15
 73
    11
 74
     0
 42
0.00000001
 43
0.00000001
 40
0.0
 40
0.0
 40
0.0
 40
0.0
 40
0.0089557228015919
 40
0.0999003359608209
 40
0.1531632460581751
 40
0.3125636920784904
 40
0.5249666935695061
 40
0.6689893599351777
 40
0.991915253381045
 40
1.0
 40
1.0
 40
1.0
 40
1.0
 10
142.4501370115534
 20
119.7712147806004
 30
0.0
 10
142.450152767132
 20
119.7712255649635
 30
0.0
 10
142.4503285192886
 20
119.7713458636291
 30
0.0
 10
142.4557575353081
 20
119.7750643145472
 30
0.0
 10
142.4772930190154
 20
119.7897753556134
 30
0.0
 10
142.5249984472802
 20
119.822224217072
 30
0.0
 10
142.5973893922722
 20
119.8708082574154
 30
0.0
 10
142.6993085042898
 20
119.9381787296838
 30
0.0
 10
142.7746635957448
 20
119.9869922944177
 30
0.0
 10
142.8270632414682
 20
120.0203988446121
 30
0.0
 10
142.8283430730123
 20
120.0212147806004
 30
0.0
  0
ARC
  5
1F2
330
1F
100
AcDbEntity
  8
0
  6
Continuous
 62
     7
370
    25
100
AcDbCircle
 10
142.4501370116
 20
119.5212147806
 30
0.0
 40
0.25
100
AcDbArc
 50
17.7189318734
 51
90.0
  0
ARC
  5
1F3
330
1F
100
AcDbEntity
  8
0
  6
Continuous
 62
     7
370
    25
100
AcDbCircle
 10
153.4045881617
 20
123.0212147806
 30
0.0
 40
0.2500000000000169
100
AcDbArc
 50
197.7189318734
 51
270.0
  0
SPLINE
  5
1F4
330
1F
100
AcDbEntity
  8
0
  6
Continuous
 62
     7
370
    25
100
AcDbSpline
210
0.0
220
0.0
230
1.0
 70
     8
 71
     3
 72
    15
 73
    11
 74
     0
 42
0.00000001
 43
0.00000001
 40
0.0
 40
0.0
 40
0.0
 40
0.0
 40
0.0089557228015919
 40
0.0999003359608148
 40
0.153163246058169
 40
0.3125636920784848
 40
0.5249666935694999
 40
0.6689893599352451
 40
0.9919152533810159
 40
1.0
 40
1.0
 40
1.0
 40
1.0
 10
153.4045881616567
 20
122.7712147806004
 30
0.0
 10
153.4045724060781
 20
122.7712039962373
 30
0.0
 10
153.4043966539216
 20
122.7710836975717
 30
0.0
 10
153.398967637902
 20
122.7673652466536
 30
0.0
 10
153.3774321541947
 20
122.7526542055874
 30
0.0
 10
153.3297267259299
 20
122.7202053441288
 30
0.0
 10
153.257335780938
 20
122.6716213037853
 30
0.0
 10
153.1554166689202
 20
122.6042508315172
 30
0.0
 10
153.0800615774657
 20
122.5554372667824
 30
0.0
 10
153.027661931742
 20
122.5220307165887
 30
0.0
 10
153.0263821001978
 20
122.5212147806004
 30
0.0
  0
LINE
  5
1F5
330
1F
100
AcDbEntity
  8
0
  6
Continuous
 62
     7
370
    25
100
AcDbLine
 10
152.9273625866
 20
121.8712147806
 30
0.0
 11
142.9273625866
 21
121.8712147806
 31
0.0
  0
LINE
  5
1F6
330
1F
100
AcDbEntity
  8
0
  6
Continuous
 62
     7
370
    25
100
AcDbLine
 10
142.9273625866
 20
120.6712147806
 30
0.0
 11
152.9273625866
 21
120.6712147806
 31
0.0
  0
LINE
  5
1F7
330
1F
100
AcDbEntity
  8
0
  6
Continuous
 62
     7
370
    25
100
AcDbLine
 10
142.9273625866
 20
121.8712147806
 30
0.0
 11
142.9273625866
 21
120.6712147806
 31
0.0
  0
LINE
  5
1F8
330
1F
100
AcDbEntity
  8
0
  6
Continuous
 62
     7
370
    25
100
AcDbLine
 10
152.9273625866
 20
120.6712147806
 30
0.0
 11
152.9273625866
 21
121.8712147806
 31
0.0
  0
LINE
  5
1F9
330
1F
100
AcDbEntity
  8
0
  6
Continuous
 62
     7
370
    25
100
AcDbLine
 10
153.6773625866
 20
122.5212147806
 30
0.0
 11
153.0263821002
 21
122.5212147806
 31
0.0
  0
LINE
  5
1FA
330
1F
100
AcDbEntity
  8
0
  6
Continuous
 62
     7
370
    25
100
AcDbLine
 10
153.6773625866
 20
120.0212147806
 30
0.0
 11
153.6773625866
 21
122.5212147806
 31
0.0
  0
LINE
  5
1FB
330
1F
100
AcDbEntity
  8
0
  6
Continuous
 62
     7
370
    25
100
AcDbLine
 10
153.0263821002
 20
120.0212147806
 30
0.0
 11
153.6773625866
 21
120.0212147806
 31
0.0
  0
LINE
  5
1FC
330
1F
100
AcDbEntity
  8
0
  6
Continuous
 62
     7
370
    25
100
AcDbLine
 10
142.1773625866
 20
120.0212147806
 30
0.0
 11
142.828343073
 21
120.0212147806
 31
0.0
  0
LINE
  5
1FD
330
1F
100
AcDbEntity
  8
0
  6
Continuous
 62
     7
370
    25
100
AcDbLine
 10
142.1773625866
 20
122.5212147806
 30
0.0
 11
142.1773625866
 21
120.0212147806
 31
0.0
  0
LINE
  5
1FE
330
1F
100
AcDbEntity
  8
0
  6
Continuous
 62
     7
370
    25
100
AcDbLine
 10
142.828343073
 20
122.5212147806
 30
0.0
 11
142.1773625866
 21
122.5212147806
 31
0.0
  0
LINE
  5
1FF
330
1F
100
AcDbEntity
  8
0
  6
Continuous
 62
     7
370
    25
100
AcDbLine
 10
153.6773625866
 20
122.5212147806
 30
0.0
 11
153.6773625866
 21
122.7712147806
 31
0.0
  0
LINE
  5
200
330
1F
100
AcDbEntity
  8
0
  6
Continuous
 62
     7
370
    25
100
AcDbLine
 10
153.4045881617
 20
122.7712147806
 30
0.0
 11
153.6773625866
 21
122.7712147806
 31
0.0
  0
LINE
  5
201
330
1F
100
AcDbEntity
  8
0
  6
Continuous
 62
     7
370
    25
100
AcDbLine
 10
142.1773625866
 20
122.7712147806
 30
0.0
 11
142.1773625866
 21
122.5212147806
 31
0.0
  0
LINE
  5
202
330
1F
100
AcDbEntity
  8
0
  6
Continuous
 62
     7
370
    25
100
AcDbLine
 10
142.1773625866
 20
122.7712147806
 30
0.0
 11
142.4501370116
 21
122.7712147806
 31
0.0
  0
LINE
  5
203
330
1F
100
AcDbEntity
  8
0
  6
Continuous
 62
     7
370
    25
100
AcDbLine
 10
142.1773625866
 20
122.5212147806
 30
0.0
 11
141.9273625866
 21
122.5212147806
 31
0.0
  0
ARC
  5
204
330
1F
100
AcDbEntity
  8
0
  6
Continuous
 62
     7
370
    25
100
AcDbCircle
 10
142.1773625866
 20
122.5212147806
 30
0.0
 40
0.25
100
AcDbArc
 50
90.0
 51
180.0
  0
ARC
  5
205
330
1F
100
AcDbEntity
  8
0
  6
Continuous
 62
     7
370
    25
100
AcDbCircle
 10
153.6773625866
 20
122.5212147806
 30
0.0
 40
0.25
100
AcDbArc
 50
0.0
 51
90.0
  0
LINE
  5
206
330
1F
100
AcDbEntity
  8
0
  6
Continuous
 62
     7
370
    25
100
AcDbLine
 10
153.9273625866
 20
122.5212147806
 30
0.0
 11
153.6773625866
 21
122.5212147806
 31
0.0
  0
LINE
  5
207
330
1F
100
AcDbEntity
  8
0
  6
Continuous
 62
     7
370
    25
100
AcDbLine
 10
153.9273625866
 20
122.5212147806
 30
0.0
 11
153.9273625866
 21
120.0212147806
 31
0.0
  0
LINE
  5
208
330
1F
100
AcDbEntity
  8
0
  6
Continuous
 62
     7
370
    25
100
AcDbLine
 10
153.6773625866
 20
120.0212147806
 30
0.0
 11
153.9273625866
 21
120.0212147806
 31
0.0
  0
LINE
  5
209
330
1F
100
AcDbEntity
  8
0
  6
Continuous
 62
     7
370
    25
100
AcDbLine
 10
141.9273625866
 20
120.0212147806
 30
0.0
 11
142.1773625866
 21
120.0212147806
 31
0.0
  0
LINE
  5
20A
330
1F
100
AcDbEntity
  8
0
  6
Continuous
 62
     7
370
    25
100
AcDbLine
 10
141.9273625866
 20
120.0212147806
 30
0.0
 11
141.9273625866
 21
122.5212147806
 31
0.0
  0
LINE
  5
20B
330
1F
100
AcDbEntity
  8
0
  6
Continuous
 62
     7
370
    25
100
AcDbLine
 10
142.1773625866
 20
120.0212147806
 30
0.0
 11
142.1773625866
 21
119.7712147806
 31
0.0
  0
ARC
  5
20C
330
1F
100
AcDbEntity
  8
0
  6
Continuous
 62
     7
370
    25
100
AcDbCircle
 10
142.1773625866
 20
120.0212147806
 30
0.0
 40
0.25
100
AcDbArc
 50
180.0
 51
270.0
  0
LINE
  5
20D
330
1F
100
AcDbEntity
  8
0
  6
Continuous
 62
     7
370
    25
100
AcDbLine
 10
153.6773625866
 20
119.7712147806
 30
0.0
 11
153.6773625866
 21
120.0212147806
 31
0.0
  0
LINE
  5
20E
330
1F
100
AcDbEntity
  8
0
  6
Continuous
 62
     7
370
    25
100
AcDbLine
 10
153.6773625866
 20
119.7712147806
 30
0.0
 11
153.4045881617
 21
119.7712147806
 31
0.0
  0
LINE
  5
20F
330
1F
100
AcDbEntity
  8
0
  6
Continuous
 62
     7
370
    25
100
AcDbLine
 10
142.4501370116
 20
119.7712147806
 30
0.0
 11
142.1773625866
 21
119.7712147806
 31
0.0
  0
ARC
  5
210
330
1F
100
AcDbEntity
  8
0
  6
Continuous
 62
     7
370
    25
100
AcDbCircle
 10
153.6773625866
 20
120.0212147806
 30
0.0
 40
0.25
100
AcDbArc
 50
270.0
 51
0.0
  0
LINE
  5
211
330
1F
100
AcDbEntity
  8
0
  6
Continuous
 62
     7
370
    25
100
AcDbLine
 10
167.9273625866
 20
117.9995155165
 30
0.0
 11
170.1027994481
 21
117.7712147806
 31
0.0
  0
LINE
  5
212
330
1F
100
AcDbEntity
  8
0
  6
Continuous
 62
     7
370
    25
100
AcDbLine
 10
167.9273625866
 20
124.5429140447
 30
0.0
 11
167.9273625866
 21
117.9995155165
 31
0.0
  0
LINE
  5
213
330
1F
100
AcDbEntity
  8
0
  6
Continuous
 62
     7
370
    25
100
AcDbLine
 10
170.1027994481
 20
124.7712147806
 30
0.0
 11
167.9273625866
 21
124.5429140447
 31
0.0
  0
LINE
  5
214
330
1F
100
AcDbEntity
  8
0
  6
Continuous
 62
     7
370
    25
100
AcDbLine
 10
187.9273625866
 20
124.7712147806
 30
0.0
 11
170.1027994481
 21
124.7712147806
 31
0.0
  0
LINE
  5
215
330
1F
100
AcDbEntity
  8
0
  6
Continuous
 62
     7
370
    25
100
AcDbLine
 10
187.9273625866
 20
117.7712147806
 30
0.0
 11
187.9273625866
 21
124.7712147806
 31
0.0
  0
LINE
  5
216
330
1F
100
AcDbEntity
  8
0
  6
Continuous
 62
     7
370
    25
100
AcDbLine
 10
170.1027994481
 20
117.7712147806
 30
0.0
 11
187.9273625866
 21
117.7712147806
 31
0.0
  0
LINE
  5
217
330
1F
100
AcDbEntity
  8
0
  6
Continuous
 62
     7
370
    25
100
AcDbLine
 10
153.151164761
 20
119.5502002998
 30
0.0
 11
153.2477290783
 21
119.70959962
 31
0.0
  0
LINE
  5
218
330
1F
100
AcDbEntity
  8
0
  6
Continuous
 62
     7
370
    25
100
AcDbLine
 10
153.2700064589
 20
122.816432448
 30
0.0
 11
153.151164761
 21
122.9922292614
 31
0.0
  0
LINE
  5
219
330
1F
100
AcDbEntity
  8
0
  6
Continuous
 62
     7
370
    25
100
AcDbLine
 10
161.3439322402
 20
118.690412145
 30
0.0
 11
161.3439322402
 21
123.8520174162
 31
0.0
  0
LINE
  5
21A
330
1F
100
AcDbEntity
  8
0
  6
Continuous
 62
     7
370
    25
100
AcDbLine
 10
161.3439322402
 20
118.690412145
 30
0.0
 11
153.151164761
 21
119.5502002998
 31
0.0
  0
LINE
  5
21B
330
1F
100
AcDbEntity
  8
0
  6
Continuous
 62
     7
370
    25
100
AcDbLine
 10
153.151164761
 20
122.9922292614
 30
0.0
 11
161.3439322402
 21
123.8520174162
 31
0.0
  0
LINE
  5
21C
330
1F
100
AcDbEntity
  8
0
  6
Continuous
 62
     7
370
    25
100
AcDbLine
 10
167.9273625866
 20
117.9995155165
 30
0.0
 11
161.3439322402
 21
118.690412145
 31
0.0
  0
LINE
  5
21D
330
1F
100
AcDbEntity
  8
0
  6
Continuous
 62
     7
370
    25
100
AcDbLine
 10
161.3439322402
 20
123.8520174162
 30
0.0
 11
167.9273625866
 21
124.5429140447
 31
0.0
  0
ARC
  5
21E
330
1F
100
AcDbEntity
  8
0
  6
Continuous
 62
     7
370
    25
100
AcDbCircle
 10
147.9273625866
 20
121.2712147806
 30
0.0
 40
7.450000000000633
100
AcDbArc
 50
53.0863788866
 51
306.9136211134
  0
ARC
  5
21F
330
1F
100
AcDbEntity
  8
0
  6
Continuous
 62
     7
370
    25
100
AcDbCircle
 10
147.9273625866
 20
121.2712147806
 30
0.0
 40
7.207531252870779
100
AcDbArc
 50
15.3041237151
 51
58.9797515565
  0
ARC
  5
220
330
1F
100
AcDbEntity
  8
0
  6
Continuous
 62
     7
370
    25
100
AcDbCircle
 10
147.9273625866
 20
121.2712147806
 30
0.0
 40
7.207531252872458
100
AcDbArc
 50
301.0202484435
 51
344.6958762849
  0
ARC
  5
221
330
1F
100
AcDbEntity
  8
0
  6
Continuous
 62
     7
370
    25
100
AcDbCircle
 10
170.1027994481
 20
189.7712147806
 30
0.0
 40
65.00000000000003
100
AcDbArc
 50
253.4999050078
 51
270.0
  0
ARC
  5
222
330
1F
100
AcDbEntity
  8
0
  6
Continuous
 62
     7
370
    25
100
AcDbCircle
 10
170.1027994481
 20
52.7712147806
 30
0.0
 40
64.99999999999999
100
AcDbArc
 50
90.0
 51
106.5000949923
  0
LINE
  5
223
330
1F
100
AcDbEntity
  8
0
  6
Continuous
 62
     7
370
    25
100
AcDbLine
 10
133.6273625866
 20
129.2712147806
 30
0.0
 11
133.6273625866
 21
113.2712147806
 31
0.0
  0
LINE
  5
224
330
1F
100
AcDbEntity
  8
0
  6
Continuous
 62
     7
370
    25
100
AcDbLine
 10
133.4273625866
 20
113.4712147806
 30
0.0
 11
133.4273625866
 21
129.0712147806
 31
0.0
  0
LINE
  5
225
330
1F
100
AcDbEntity
  8
0
  6
Continuous
 62
     7
370
    25
100
AcDbLine
 10
123.9273625866
 20
126.1352147806
 30
0.0
 11
123.9273625866
 21
116.4072147806
 31
0.0
  0
LINE
  5
226
330
1F
100
AcDbEntity
  8
0
  6
Continuous
 62
     7
370
    25
100
AcDbLine
 10
123.4273625866
 20
116.9072147806
 30
0.0
 11
123.4273625866
 21
125.6352147806
 31
0.0
  0
SPLINE
  5
227
330
1F
100
AcDbEntity
  8
0
  6
Continuous
 62
     7
370
    25
100
AcDbSpline
210
0.0
220
0.0
230
1.0
 70
    24
 71
     3
 72
    10
 73
     6
 74
     0
 42
0.00000001
 43
0.00000001
 40
0.0
 40
0.0
 40
0.0
 40
0.0
 40
0.3696169057021958
 40
0.7422793540995901
 40
1.0
 40
1.0
 40
1.0
 40
1.0
 10
159.1053036140474
 20
112.7712147806004
 30
0.0
 10
159.2465064297324
 20
112.7712147806004
 30
0.0
 10
159.5300755338688
 20
112.7712147806004
 30
0.0
 10
159.749215455247
 20
112.7712147806004
 30
0.0
 10
159.7716064363125
 20
112.7712147806004
 30
0.0
 10
159.7807605810773
 20
112.7712147806004
 30
0.0
  0
SPLINE
  5
228
330
1F
100
AcDbEntity
  8
0
  6
Continuous
 62
     7
370
    25
100
AcDbSpline
210
0.0
220
0.0
230
1.0
 70
     8
 71
     3
 72
    10
 73
     6
 74
     0
 42
0.00000001
 43
0.00000001
 40
0.0
 40
0.0
 40
0.0
 40
0.0
 40
0.5
 40
0.5
 40
1.0
 40
1.0
 40
1.0
 40
1.0
 10
159.1053036140474
 20
113.0212147806004
 30
0.0
 10
159.0816282196231
 20
112.9468344032231
 30
0.0
 10
159.0685371097384
 20
112.8825337644373
 30
0.0
 10
159.0684507884501
 20
112.7943180796544
 30
0.0
 10
159.081619722394
 20
112.7712147806004
 30
0.0
 10
159.1053036140474
 20
112.7712147806004
 30
0.0
  0
SPLINE
  5
229
330
1F
100
AcDbEntity
  8
0
  6
Continuous
 62
     7
370
    25
100
AcDbSpline
210
0.0
220
0.0
230
1.0
 70
     8
 71
     3
 72
    10
 73
     6
 74
     0
 42
0.00000001
 43
0.00000001
 40
0.0
 40
0.0
 40
0.0
 40
0.0
 40
0.0465179299424016
 40
0.5193255718385411
 40
1.0
 40
1.0
 40
1.0
 40
1.0
 10
159.774725956553
 20
116.9019486521876
 30
0.0
 10
159.7764103754465
 20
116.8409664833717
 30
0.0
 10
159.7952152063183
 20
116.1601623347023
 30
0.0
 10
159.6182293622166
 20
114.8480165798265
 30
0.0
 10
159.2772167148817
 20
113.6334889022167
 30
0.0
 10
159.1053036140474
 20
113.0212147806004
 30
0.0
  0
SPLINE
  5
22A
330
1F
100
AcDbEntity
  8
0
  6
Continuous
 62
     7
370
    25
100
AcDbSpline
210
0.0
220
0.0
230
1.0
 70
     8
 71
     3
 72
    10
 73
     6
 74
     0
 42
0.00000001
 43
0.00000001
 40
0.0
 40
0.0
 40
0.0
 40
0.0
 40
0.5437276749913411
 40
0.8213366195229125
 40
1.0
 40
1.0
 40
1.0
 40
1.0
 10
159.1053036140474
 20
129.5212147806004
 30
0.0
 10
159.3013071523625
 20
128.8223971613347
 30
0.0
 10
159.5973834622114
 20
127.76678692211
 30
0.0
 10
159.7638790002734
 20
126.4500119206969
 30
0.0
 10
159.7682549280421
 20
125.8470393286369
 30
0.0
 10
159.7699684180019
 20
125.61093225896
 30
0.0
  0
SPLINE
  5
22B
330
1F
100
AcDbEntity
  8
0
  6
Continuous
 62
     7
370
    25
100
AcDbSpline
210
0.0
220
0.0
230
1.0
 70
     8
 71
     3
 72
    10
 73
     6
 74
     0
 42
0.00000001
 43
0.00000001
 40
0.0
 40
0.0
 40
0.0
 40
0.0
 40
0.5
 40
0.5
 40
1.0
 40
1.0
 40
1.0
 40
1.0
 10
159.1053036140474
 20
129.7712147806004
 30
0.0
 10
159.0816282196231
 20
129.7712147806004
 30
0.0
 10
159.0685371097384
 20
129.7484223312706
 30
0.0
 10
159.0684507884501
 20
129.6604796271775
 30
0.0
 10
159.081619722394
 20
129.5956218535037
 30
0.0
 10
159.1053036140474
 20
129.5212147806004
 30
0.0
  0
SPLINE
  5
22C
330
1F
100
AcDbEntity
  8
0
  6
Continuous
 62
     7
370
    25
100
AcDbSpline
210
0.0
220
0.0
230
1.0
 70
    24
 71
     3
 72
    10
 73
     6
 74
     0
 42
0.00000001
 43
0.00000001
 40
0.0
 40
0.0
 40
0.0
 40
0.0
 40
0.2577166623829157
 40
0.6270806031488483
 40
1.0
 40
1.0
 40
1.0
 40
1.0
 10
159.7794187355658
 20
129.7712147806004
 30
0.0
 10
159.7708150446295
 20
129.7712147806004
 30
0.0
 10
159.7498803962769
 20
129.7712147806004
 30
0.0
 10
159.5309098509991
 20
129.7712147806004
 30
0.0
 10
159.2476246614001
 20
129.7712147806004
 30
0.0
 10
159.1053036140474
 20
129.7712147806004
 30
0.0
  0
LINE
  5
22D
330
1F
100
AcDbEntity
  8
0
  6
Continuous
 62
     7
370
    25
100
AcDbLine
 10
159.9273625866
 20
129.5212147806
 30
0.0
 11
159.9273625866
 21
125.5726128902
 31
0.0
  0
LINE
  5
22E
330
1F
100
AcDbEntity
  8
0
  6
Continuous
 62
     7
370
    25
100
AcDbLine
 10
159.9273625866
 20
116.969816671
 30
0.0
 11
159.9273625866
 21
113.0212147806
 31
0.0
  0
SPLINE
  5
22F
330
1F
100
AcDbEntity
  8
0
  6
Continuous
 62
     7
370
    25
100
AcDbSpline
210
0.0
220
0.0
230
1.0
 70
     8
 71
     3
 72
    10
 73
     6
 74
     0
 42
0.00000001
 43
0.00000001
 40
0.0
 40
0.0
 40
0.0
 40
0.0
 40
0.5
 40
0.5
 40
1.0
 40
1.0
 40
1.0
 40
1.0
 10
137.1050839918653
 20
121.5212147806004
 30
0.0
 10
137.1287575963563
 20
121.4468400266104
 30
0.0
 10
137.1418503721496
 20
121.3597462950445
 30
0.0
 10
137.1419369402506
 20
121.1835804665
 30
0.0
 10
137.1287671161272
 20
121.0956194426097
 30
0.0
 10
137.1050839918653
 20
121.0212147806004
 30
0.0
  0
SPLINE
  5
230
330
1F
100
AcDbEntity
  8
0
  6
Continuous
 62
     7
370
    25
100
AcDbSpline
210
0.0
220
0.0
230
1.0
 70
     8
 71
     3
 72
    12
 73
     8
 74
     0
 42
0.00000001
 43
0.00000001
 40
0.0
 40
0.0
 40
0.0
 40
0.0
 40
0.2499999999999999
 40
0.2499999999999999
 40
0.5
 40
0.5
 40
1.0
 40
1.0
 40
1.0
 40
1.0
 10
136.4273625866051
 20
117.0212147806004
 30
0.0
 10
136.4273625866051
 20
117.3589707156232
 30
0.0
 10
136.443108916627
 20
117.6993787305017
 30
0.0
 10
136.5045539412124
 20
118.3738734149021
 30
0.0
 10
136.5501427004662
 20
118.7089987337693
 30
0.0
 10
136.7265937027228
 20
119.7087100521095
 30
0.0
 10
136.8970514046863
 20
120.3676441551748
 30
0.0
 10
137.1050839918651
 20
121.0212147806004
 30
0.0
  0
LINE
  5
231
330
1F
100
AcDbEntity
  8
0
  6
Continuous
 62
     7
370
    25
100
AcDbLine
 10
136.4273625866
 20
125.5212147806
 30
0.0
 11
136.4273625866
 21
117.0212147806
 31
0.0
  0
SPLINE
  5
232
330
1F
100
AcDbEntity
  8
0
  6
Continuous
 62
     7
370
    25
100
AcDbSpline
210
0.0
220
0.0
230
1.0
 70
     8
 71
     3
 72
    10
 73
     6
 74
     0
 42
0.00000001
 43
0.00000001
 40
0.0
 40
0.0
 40
0.0
 40
0.0
 40
0.5
 40
0.5
 40
1.0
 40
1.0
 40
1.0
 40
1.0
 10
137.1050839918648
 20
121.5212147806003
 30
0.0
 10
136.8962740671985
 20
122.1772275472055
 30
0.0
 10
136.7257399274513
 20
122.8374944540632
 30
0.0
 10
136.4909541224323
 20
124.1698409726982
 30
0.0
 10
136.4273625866051
 20
124.8419939541855
 30
0.0
 10
136.4273625866051
 20
125.5212147806004
 30
0.0
  0
SPLINE
  5
233
330
1F
100
AcDbEntity
  8
0
  6
Continuous
 62
     7
370
    25
100
AcDbSpline
210
0.0
220
0.0
230
1.0
 70
     8
 71
     3
 72
     9
 73
     5
 74
     0
 42
0.00000001
 43
0.00000001
 40
0.0
 40
0.0
 40
0.0
 40
0.0
 40
0.3145165369286708
 40
1.0
 40
1.0
 40
1.0
 40
1.0
 10
154.0390728151344
 20
126.8113717222543
 30
0.0
 10
154.0640017340282
 20
127.1001541462616
 30
0.0
 10
154.1432628092553
 20
128.0183329702664
 30
0.0
 10
154.4172620461083
 20
128.9099951213713
 30
0.0
 10
154.6050839918653
 20
129.5212147806004
 30
0.0
  0
LINE
  5
234
330
1F
100
AcDbEntity
  8
0
  6
Continuous
 62
     7
370
    25
100
AcDbLine
 10
159.105303614
 20
129.5212147806
 30
0.0
 11
154.6050839919
 21
129.5212147806
 31
0.0
  0
SPLINE
  5
235
330
1F
100
AcDbEntity
  8
0
  6
Continuous
 62
     7
370
    25
100
AcDbSpline
210
0.0
220
0.0
230
1.0
 70
     8
 71
     3
 72
    12
 73
     8
 74
     0
 42
0.00000001
 43
0.00000001
 40
0.0
 40
0.0
 40
0.0
 40
0.0
 40
0.2500000000000001
 40
0.2500000000000001
 40
0.5000000000000002
 40
0.5000000000000002
 40
1.0
 40
1.0
 40
1.0
 40
1.0
 10
136.4273625866051
 20
125.5212147806004
 30
0.0
 10
136.4273625866051
 20
125.8589707156232
 30
0.0
 10
136.443108916627
 20
126.1993787305017
 30
0.0
 10
136.5045539412124
 20
126.8738734149021
 30
0.0
 10
136.5501427004662
 20
127.2089987337693
 30
0.0
 10
136.7265937027228
 20
128.2087100521095
 30
0.0
 10
136.8970514046863
 20
128.8676441551748
 30
0.0
 10
137.1050839918651
 20
129.5212147806004
 30
0.0
  0
LINE
  5
236
330
1F
100
AcDbEntity
  8
0
  6
Continuous
 62
     7
370
    25
100
AcDbLine
 10
141.2496411813
 20
129.5212147806
 30
0.0
 11
137.1050839919
 21
129.5212147806
 31
0.0
  0
SPLINE
  5
237
330
1F
100
AcDbEntity
  8
0
  6
Continuous
 62
     7
370
    25
100
AcDbSpline
210
0.0
220
0.0
230
1.0
 70
     8
 71
     3
 72
    10
 73
     6
 74
     0
 42
0.00000001
 43
0.00000001
 40
0.0
 40
0.0
 40
0.0
 40
0.0
 40
0.5137918186634087
 40
0.7752498149057093
 40
1.0
 40
1.0
 40
1.0
 40
1.0
 10
141.2496411813449
 20
129.5212147806004
 30
0.0
 10
141.4345041745115
 20
128.8702105504862
 30
0.0
 10
141.7134401093191
 20
127.8879237748583
 30
0.0
 10
141.8932986916903
 20
126.59116097391
 30
0.0
 10
141.9120541963502
 20
125.9574338846202
 30
0.0
 10
141.9207239458642
 20
125.6644929467988
 30
0.0
  0
SPLINE
  5
238
330
1F
100
AcDbEntity
  8
0
  6
Continuous
 62
     7
370
    25
100
AcDbSpline
210
0.0
220
0.0
230
1.0
 70
     8
 71
     3
 72
    12
 73
     8
 74
     0
 42
0.00000001
 43
0.00000001
 40
0.0
 40
0.0
 40
0.0
 40
0.0
 40
0.2500000000000001
 40
0.2500000000000001
 40
0.5000000000000002
 40
0.5000000000000002
 40
1.0
 40
1.0
 40
1.0
 40
1.0
 10
141.9273625866051
 20
117.0212147806004
 30
0.0
 10
141.9273625866051
 20
116.6821792361046
 30
0.0
 10
141.9115196505161
 20
116.3415426768342
 30
0.0
 10
141.8500167902784
 20
115.6673103293294
 30
0.0
 10
141.8044131492348
 20
115.3323247178662
 30
0.0
 10
141.6279621317455
 20
114.333054288727
 30
0.0
 10
141.4575647644937
 20
113.6744429508701
 30
0.0
 10
141.2496411813449
 20
113.0212147806004
 30
0.0
  0
LINE
  5
239
330
1F
100
AcDbEntity
  8
0
  6
Continuous
 62
     7
370
    25
100
AcDbLine
 10
137.1050839919
 20
113.0212147806
 30
0.0
 11
141.2496411813
 21
113.0212147806
 31
0.0
  0
SPLINE
  5
23A
330
1F
100
AcDbEntity
  8
0
  6
Continuous
 62
     7
370
    25
100
AcDbSpline
210
0.0
220
0.0
230
1.0
 70
     8
 71
     3
 72
    10
 73
     6
 74
     0
 42
0.00000001
 43
0.00000001
 40
0.0
 40
0.0
 40
0.0
 40
0.0
 40
0.5
 40
0.5
 40
1.0
 40
1.0
 40
1.0
 40
1.0
 10
137.1050839918648
 20
113.0212147806003
 30
0.0
 10
136.8962740671985
 20
113.6772275472054
 30
0.0
 10
136.7257399274513
 20
114.3374944540632
 30
0.0
 10
136.4909541224323
 20
115.6698409726982
 30
0.0
 10
136.427362586605
 20
116.3419939541855
 30
0.0
 10
136.4273625866051
 20
117.0212147806004
 30
0.0
  0
LINE
  5
23B
330
1F
100
AcDbEntity
  8
0
  6
Continuous
 62
     7
370
    25
100
AcDbLine
 10
154.6050839919
 20
113.0212147806
 30
0.0
 11
159.105303614
 21
113.0212147806
 31
0.0
  0
SPLINE
  5
23C
330
1F
100
AcDbEntity
  8
0
  6
Continuous
 62
     7
370
    25
100
AcDbSpline
210
0.0
220
0.0
230
1.0
 70
     8
 71
     3
 72
     9
 73
     5
 74
     0
 42
0.00000001
 43
0.00000001
 40
0.0
 40
0.0
 40
0.0
 40
0.0
 40
0.7362539524754711
 40
1.0
 40
1.0
 40
1.0
 40
1.0
 10
154.6050839918653
 20
113.0212147806004
 30
0.0
 10
154.4131655847481
 20
113.6716197846656
 30
0.0
 10
154.1524968216509
 20
114.5550174246761
 30
0.0
 10
154.0439098422824
 20
115.4603908214795
 30
0.0
 10
154.0152704556613
 20
115.6991794764202
 30
0.0
  0
LINE
  5
23D
330
1F
100
AcDbEntity
  8
0
  6
Continuous
 62
     7
370
    25
100
AcDbLine
 10
153.9273625866
 20
115.7263991766
 30
0.0
 11
153.9273625866
 21
113.7712147806
 31
0.0
  0
LINE
  5
23E
330
1F
100
AcDbEntity
  8
0
  6
Continuous
 62
     7
370
    25
100
AcDbLine
 10
153.9273625866
 20
113.7712147806
 30
0.0
 11
141.9273625866
 21
113.7712147806
 31
0.0
  0
LINE
  5
23F
330
1F
100
AcDbEntity
  8
0
  6
Continuous
 62
     7
370
    25
100
AcDbLine
 10
141.9273625866
 20
116.8550512872
 30
0.0
 11
141.9273625866
 21
113.7712147806
 31
0.0
  0
LINE
  5
240
330
1F
100
AcDbEntity
  8
0
  6
Continuous
 62
     7
370
    25
100
AcDbLine
 10
141.9273625866
 20
128.7712147806
 30
0.0
 11
141.9273625866
 21
125.687378274
 31
0.0
  0
LINE
  5
241
330
1F
100
AcDbEntity
  8
0
  6
Continuous
 62
     7
370
    25
100
AcDbLine
 10
141.9273625866
 20
128.7712147806
 30
0.0
 11
153.9273625866
 21
128.7712147806
 31
0.0
  0
LINE
  5
242
330
1F
100
AcDbEntity
  8
0
  6
Continuous
 62
     7
370
    25
100
AcDbLine
 10
153.9273625866
 20
128.7712147806
 30
0.0
 11
153.9273625866
 21
126.8160303846
 31
0.0
  0
SPLINE
  5
243
330
1F
100
AcDbEntity
  8
0
  6
Continuous
 62
     7
370
    25
100
AcDbSpline
210
0.0
220
0.0
230
1.0
 70
     8
 71
     3
 72
     8
 73
     4
 74
     0
 42
0.00000001
 43
0.00000001
 40
0.0
 40
0.0
 40
0.0
 40
0.0
 40
1.0
 40
1.0
 40
1.0
 40
1.0
 10
141.4111265096259
 20
129.7712147806004
 30
0.0
 10
141.5848295858457
 20
129.4387033584649
 30
0.0
 10
141.7571318049083
 20
129.105376258566
 30
0.0
 10
141.9273625866051
 20
128.7712147806004
 30
0.0
  0
SPLINE
  5
244
330
1F
100
AcDbEntity
  8
0
  6
Continuous
 62
     7
370
    25
100
AcDbSpline
210
0.0
220
0.0
230
1.0
 70
     8
 71
     3
 72
    10
 73
     6
 74
     0
 42
0.00000001
 43
0.00000001
 40
0.0
 40
0.0
 40
0.0
 40
0.0
 40
0.5
 40
0.5
 40
1.0
 40
1.0
 40
1.0
 40
1.0
 10
141.2496411813505
 20
129.7712147806004
 30
0.0
 10
141.2259657869262
 20
129.7712147806004
 30
0.0
 10
141.2128746770359
 20
129.7484223312709
 30
0.0
 10
141.2127883557475
 20
129.6604796271779
 30
0.0
 10
141.2259572896913
 20
129.5956218535039
 30
0.0
 10
141.2496411813448
 20
129.5212147806005
 30
0.0
  0
SPLINE
  5
245
330
1F
100
AcDbEntity
  8
0
  6
Continuous
 62
     7
370
    25
100
AcDbSpline
210
0.0
220
0.0
230
1.0
 70
    24
 71
     3
 72
     8
 73
     4
 74
     0
 42
0.00000001
 43
0.00000001
 40
0.0
 40
0.0
 40
0.0
 40
0.0
 40
1.0
 40
1.0
 40
1.0
 40
1.0
 10
141.4111265096259
 20
129.7712147806004
 30
0.0
 10
141.3602277927035
 20
129.7712147806004
 30
0.0
 10
141.3062936564528
 20
129.7712147806004
 30
0.0
 10
141.2496411813453
 20
129.7712147806004
 30
0.0
  0
SPLINE
  5
246
330
1F
100
AcDbEntity
  8
0
  6
Continuous
 62
     7
370
    25
100
AcDbSpline
210
0.0
220
0.0
230
1.0
 70
     8
 71
     3
 72
     8
 73
     4
 74
     0
 42
0.00000001
 43
0.00000001
 40
0.0
 40
0.0
 40
0.0
 40
0.0
 40
1.0
 40
1.0
 40
1.0
 40
1.0
 10
153.9273625866051
 20
128.7712147806004
 30
0.0
 10
154.0976401939488
 20
129.1054681768857
 30
0.0
 10
154.2699119425745
 20
129.4387346664547
 30
0.0
 10
154.4435986635841
 20
129.7712147806002
 30
0.0
  0
SPLINE
  5
247
330
1F
100
AcDbEntity
  8
0
  6
Continuous
 62
     7
370
    25
100
AcDbSpline
210
0.0
220
0.0
230
1.0
 70
    24
 71
     3
 72
     8
 73
     4
 74
     0
 42
0.00000001
 43
0.00000001
 40
0.0
 40
0.0
 40
0.0
 40
0.0
 40
1.0
 40
1.0
 40
1.0
 40
1.0
 10
154.4435986635837
 20
129.7712147806004
 30
0.0
 10
154.4944948968389
 20
129.7712147806004
 30
0.0
 10
154.5484288518028
 20
129.7712147806004
 30
0.0
 10
154.6050839918653
 20
129.7712147806004
 30
0.0
  0
SPLINE
  5
248
330
1F
100
AcDbEntity
  8
0
  6
Continuous
 62
     7
370
    25
100
AcDbSpline
210
0.0
220
0.0
230
1.0
 70
     8
 71
     3
 72
    10
 73
     6
 74
     0
 42
0.00000001
 43
0.00000001
 40
0.0
 40
0.0
 40
0.0
 40
0.0
 40
0.5
 40
0.5
 40
1.0
 40
1.0
 40
1.0
 40
1.0
 10
154.6050839918653
 20
129.5212147806004
 30
0.0
 10
154.6287593862896
 20
129.5955951579777
 30
0.0
 10
154.6418504961743
 20
129.6598957967635
 30
0.0
 10
154.6419368174626
 20
129.7481114815464
 30
0.0
 10
154.6287678835187
 20
129.7712147806004
 30
0.0
 10
154.6050839918653
 20
129.7712147806004
 30
0.0
  0
SPLINE
  5
249
330
1F
100
AcDbEntity
  8
0
  6
Continuous
 62
     7
370
    25
100
AcDbSpline
210
0.0
220
0.0
230
1.0
 70
     8
 71
     3
 72
    10
 73
     6
 74
     0
 42
0.00000001
 43
0.00000001
 40
0.0
 40
0.0
 40
0.0
 40
0.0
 40
0.5
 40
0.5
 40
1.0
 40
1.0
 40
1.0
 40
1.0
 10
137.1050839918653
 20
129.7712147806004
 30
0.0
 10
137.1287578924212
 20
129.7712147806004
 30
0.0
 10
137.1418504496003
 20
129.748424208953
 30
0.0
 10
137.1419368635826
 20
129.6604782116541
 30
0.0
 10
137.128766471984
 20
129.5956174189214
 30
0.0
 10
137.1050839918653
 20
129.5212147806004
 30
0.0
  0
SPLINE
  5
24A
330
1F
100
AcDbEntity
  8
0
  6
Continuous
 62
     7
370
    25
100
AcDbSpline
210
0.0
220
0.0
230
1.0
 70
    24
 71
     3
 72
    12
 73
     8
 74
     0
 42
0.00000001
 43
0.00000001
 40
0.0
 40
0.0
 40
0.0
 40
0.0
 40
0.2499999999999999
 40
0.2499999999999999
 40
0.4999999999999998
 40
0.4999999999999998
 40
1.0
 40
1.0
 40
1.0
 40
1.0
 10
136.4273625866051
 20
129.7712147806004
 30
0.0
 10
136.4273625866051
 20
129.7712147806004
 30
0.0
 10
136.4433613915861
 20
129.7712147806004
 30
0.0
 10
136.5051315299005
 20
129.7712147806004
 30
0.0
 10
136.5508736542021
 20
129.7712147806004
 30
0.0
 10
136.7275438015489
 20
129.7712147806004
 30
0.0
 10
136.8977988670293
 20
129.7712147806004
 30
0.0
 10
137.1050839918653
 20
129.7712147806004
 30
0.0
  0
LINE
  5
24B
330
1F
100
AcDbEntity
  8
0
  6
Continuous
 62
     7
370
    25
100
AcDbLine
 10
136.4273625866
 20
129.7712147806
 30
0.0
 11
136.4273625866
 21
125.5212147806
 31
0.0
  0
SPLINE
  5
24C
330
1F
100
AcDbEntity
  8
0
  6
Continuous
 62
     7
370
    25
100
AcDbSpline
210
0.0
220
0.0
230
1.0
 70
     8
 71
     3
 72
     8
 73
     4
 74
     0
 42
0.00000001
 43
0.00000001
 40
0.0
 40
0.0
 40
0.0
 40
0.0
 40
1.0
 40
1.0
 40
1.0
 40
1.0
 10
154.4435986635842
 20
112.7712147806004
 30
0.0
 10
154.2698955873645
 20
113.1037262027359
 30
0.0
 10
154.0975933683017
 20
113.4370533026348
 30
0.0
 10
153.9273625866051
 20
113.7712147806004
 30
0.0
  0
SPLINE
  5
24D
330
1F
100
AcDbEntity
  8
0
  6
Continuous
 62
     7
370
    25
100
AcDbSpline
210
0.0
220
0.0
230
1.0
 70
     8
 71
     3
 72
    10
 73
     6
 74
     0
 42
0.00000001
 43
0.00000001
 40
0.0
 40
0.0
 40
0.0
 40
0.0
 40
0.5
 40
0.5
 40
1.0
 40
1.0
 40
1.0
 40
1.0
 10
154.6050839918653
 20
112.7712147806004
 30
0.0
 10
154.6287593862896
 20
112.7712147806004
 30
0.0
 10
154.6418504961743
 20
112.7940072299302
 30
0.0
 10
154.6419368174626
 20
112.8819499340232
 30
0.0
 10
154.6287678835187
 20
112.9468077076971
 30
0.0
 10
154.6050839918653
 20
113.0212147806003
 30
0.0
  0
SPLINE
  5
24E
330
1F
100
AcDbEntity
  8
0
  6
Continuous
 62
     7
370
    25
100
AcDbSpline
210
0.0
220
0.0
230
1.0
 70
    24
 71
     3
 72
     8
 73
     4
 74
     0
 42
0.00000001
 43
0.00000001
 40
0.0
 40
0.0
 40
0.0
 40
0.0
 40
1.0
 40
1.0
 40
1.0
 40
1.0
 10
154.4435986635843
 20
112.7712147806004
 30
0.0
 10
154.4944948968393
 20
112.7712147806004
 30
0.0
 10
154.548428851803
 20
112.7712147806004
 30
0.0
 10
154.6050839918653
 20
112.7712147806004
 30
0.0
  0
SPLINE
  5
24F
330
1F
100
AcDbEntity
  8
0
  6
Continuous
 62
     7
370
    25
100
AcDbSpline
210
0.0
220
0.0
230
1.0
 70
     8
 71
     3
 72
     8
 73
     4
 74
     0
 42
0.00000001
 43
0.00000001
 40
0.0
 40
0.0
 40
0.0
 40
0.0
 40
1.0
 40
1.0
 40
1.0
 40
1.0
 10
141.9273625866051
 20
113.7712147806004
 30
0.0
 10
141.7570849792613
 20
113.436961384315
 30
0.0
 10
141.5848132306356
 20
113.103694894746
 30
0.0
 10
141.4111265096259
 20
112.7712147806004
 30
0.0
  0
SPLINE
  5
250
330
1F
100
AcDbEntity
  8
0
  6
Continuous
 62
     7
370
    25
100
AcDbSpline
210
0.0
220
0.0
230
1.0
 70
    24
 71
     3
 72
     8
 73
     4
 74
     0
 42
0.00000001
 43
0.00000001
 40
0.0
 40
0.0
 40
0.0
 40
0.0
 40
1.0
 40
1.0
 40
1.0
 40
1.0
 10
141.4111265096259
 20
112.7712147806004
 30
0.0
 10
141.3602277927033
 20
112.7712147806004
 30
0.0
 10
141.3062936564526
 20
112.7712147806004
 30
0.0
 10
141.2496411813449
 20
112.7712147806004
 30
0.0
  0
SPLINE
  5
251
330
1F
100
AcDbEntity
  8
0
  6
Continuous
 62
     7
370
    25
100
AcDbSpline
210
0.0
220
0.0
230
1.0
 70
     8
 71
     3
 72
    10
 73
     6
 74
     0
 42
0.00000001
 43
0.00000001
 40
0.0
 40
0.0
 40
0.0
 40
0.0
 40
0.5
 40
0.5
 40
1.0
 40
1.0
 40
1.0
 40
1.0
 10
141.2496411813449
 20
113.0212147806004
 30
0.0
 10
141.2259657869205
 20
112.9468344032231
 30
0.0
 10
141.2128746770358
 20
112.8825337644373
 30
0.0
 10
141.2127883557475
 20
112.7943180796544
 30
0.0
 10
141.2259572896914
 20
112.7712147806004
 30
0.0
 10
141.2496411813449
 20
112.7712147806004
 30
0.0
  0
SPLINE
  5
252
330
1F
100
AcDbEntity
  8
0
  6
Continuous
 62
     7
370
    25
100
AcDbSpline
210
0.0
220
0.0
230
1.0
 70
     8
 71
     3
 72
    10
 73
     6
 74
     0
 42
0.00000001
 43
0.00000001
 40
0.0
 40
0.0
 40
0.0
 40
0.0
 40
0.5
 40
0.5
 40
1.0
 40
1.0
 40
1.0
 40
1.0
 10
137.1050839918653
 20
113.0212147806004
 30
0.0
 10
137.1287562317768
 20
112.9468443136748
 30
0.0
 10
137.1418502217121
 20
112.882538717387
 30
0.0
 10
137.1419370891735
 20
112.7943159295811
 30
0.0
 10
137.1287672994141
 20
112.7712147806004
 30
0.0
 10
137.1050839918653
 20
112.7712147806004
 30
0.0
  0
SPLINE
  5
253
330
1F
100
AcDbEntity
  8
0
  6
Continuous
 62
     7
370
    25
100
AcDbSpline
210
0.0
220
0.0
230
1.0
 70
    24
 71
     3
 72
    12
 73
     8
 74
     0
 42
0.00000001
 43
0.00000001
 40
0.0
 40
0.0
 40
0.0
 40
0.0
 40
0.2500000000000001
 40
0.2500000000000001
 40
0.5000000000000001
 40
0.5000000000000001
 40
1.0
 40
1.0
 40
1.0
 40
1.0
 10
136.4273625866051
 20
112.7712147806004
 30
0.0
 10
136.4273625866051
 20
112.7712147806004
 30
0.0
 10
136.4433613915861
 20
112.7712147806004
 30
0.0
 10
136.5051315299005
 20
112.7712147806004
 30
0.0
 10
136.5508736542021
 20
112.7712147806004
 30
0.0
 10
136.7275438015489
 20
112.7712147806004
 30
0.0
 10
136.8977988670293
 20
112.7712147806004
 30
0.0
 10
137.1050839918653
 20
112.7712147806004
 30
0.0
  0
LINE
  5
254
330
1F
100
AcDbEntity
  8
0
  6
Continuous
 62
     7
370
    25
100
AcDbLine
 10
136.4273625866
 20
112.7712147806
 30
0.0
 11
136.4273625866
 21
117.0212147806
 31
0.0
  0
LINE
  5
255
330
1F
100
AcDbEntity
  8
0
  6
Continuous
 62
     7
370
    25
100
AcDbLine
 10
154.6050839919
 20
129.7712147806
 30
0.0
 11
159.105303614
 21
129.7712147806
 31
0.0
  0
LINE
  5
256
330
1F
100
AcDbEntity
  8
0
  6
Continuous
 62
     7
370
    25
100
AcDbLine
 10
137.1050839919
 20
129.7712147806
 30
0.0
 11
141.2496411813
 21
129.7712147806
 31
0.0
  0
LINE
  5
257
330
1F
100
AcDbEntity
  8
0
  6
Continuous
 62
     7
370
    25
100
AcDbLine
 10
159.105303614
 20
112.7712147806
 30
0.0
 11
154.6050839919
 21
112.7712147806
 31
0.0
  0
LINE
  5
258
330
1F
100
AcDbEntity
  8
0
  6
Continuous
 62
     7
370
    25
100
AcDbLine
 10
141.2496411813
 20
112.7712147806
 30
0.0
 11
137.1050839919
 21
112.7712147806
 31
0.0
  0
LINE
  5
259
330
1F
100
AcDbEntity
  8
0
  6
Continuous
 62
     7
370
    25
100
AcDbLine
 10
154.4435986636
 20
129.7712147806
 30
0.0
 11
141.4111265096
 21
129.7712147806
 31
0.0
  0
LINE
  5
25A
330
1F
100
AcDbEntity
  8
0
  6
Continuous
 62
     7
370
    25
100
AcDbLine
 10
154.4435986636
 20
112.7712147806
 30
0.0
 11
141.4111265096
 21
112.7712147806
 31
0.0
  0
LINE
  5
25B
330
1F
100
AcDbEntity
  8
0
  6
Continuous
 62
     7
370
    25
100
AcDbLine
 10
140.481558399
 20
121.0212147806
 30
0.0
 11
137.1050839919
 21
121.0212147806
 31
0.0
  0
LINE
  5
25C
330
1F
100
AcDbEntity
  8
0
  6
Continuous
 62
     7
370
    25
100
AcDbLine
 10
137.1050839919
 20
121.5212147806
 30
0.0
 11
140.481558399
 21
121.5212147806
 31
0.0
  0
INSERT
  5
268
330
1F
100
AcDbEntity
  8
0
  6
Continuous
 62
     7
370
    18
100
AcDbBlockReference
  2
SW_CENTERMARKSYMBOL_1
 10
147.9273625866
 20
121.2712147806
 30
0.0
  0
LINE
  5
269
330
1F
100
AcDbEntity
  8
0
  6
Continuous
 62
     7
370
    18
100
AcDbLine
 10
133.4273625866
 20
125.5512147806
 30
0.0
 11
123.4273625866
 21
125.5512147806
 31
0.0
  0
LINE
  5
26A
330
1F
100
AcDbEntity
  8
0
  6
Continuous
 62
     7
370
    18
100
AcDbLine
 10
123.4273625866
 20
116.9912147806
 30
0.0
 11
133.4273625866
 21
116.9912147806
 31
0.0
  0
ENDSEC
  0
SECTION
  2
OBJECTS
  0
DICTIONARY
  5
C
330
0
100
AcDbDictionary
281
     1
  3
ACAD_GROUP
350
D
  3
ACAD_LAYOUT
350
1A
  3
ACAD_MLINESTYLE
350
17
  3
ACAD_PLOTSETTINGS
350
19
  3
ACAD_PLOTSTYLENAME
350
E
  3
ACAD_SCALELIST
350
47
  3
DWGPROPS
350
26B
  0
DICTIONARY
  5
D
102
{ACAD_REACTORS
330
C
102
}
330
C
100
AcDbDictionary
281
     1
  0
DICTIONARY
  5
1A
102
{ACAD_REACTORS
330
C
102
}
330
C
100
AcDbDictionary
281
     1
  3
Layout1
350
1E
  3
Layout2
350
26
  3
Model
350
22
  0
DICTIONARY
  5
17
102
{ACAD_REACTORS
330
C
102
}
330
C
100
AcDbDictionary
281
     1
  3
Standard
350
18
  0
DICTIONARY
  5
19
102
{ACAD_REACTORS
330
C
102
}
330
C
100
AcDbDictionary
281
     1
  0
ACDBDICTIONARYWDFLT
  5
E
102
{ACAD_REACTORS
330
C
102
}
330
C
100
AcDbDictionary
281
     1
  3
Normal
350
F
100
AcDbDictionaryWithDefault
340
F
  0
DICTIONARY
  5
47
102
{ACAD_REACTORS
330
C
102
}
330
C
100
AcDbDictionary
281
     1
  3
A0
350
48
  3
A1
350
49
  3
A2
350
4A
  3
A3
350
4B
  3
A4
350
4C
  3
A5
350
4D
  3
A6
350
4E
  3
A7
350
4F
  3
A8
350
50
  3
A9
350
51
  3
B0
350
52
  3
B1
350
53
  3
B2
350
54
  3
B3
350
55
  3
B4
350
56
  3
B5
350
57
  3
B6
350
58
  0
XRECORD
  5
26B
102
{ACAD_REACTORS
330
C
102
}
330
C
100
AcDbXrecord
280
     1
  1
DWGPROPS COOKIE
  2

  3

  4

  6

  7

  8
user28
  9

300
=
301
=
302
=
303
=
304
=
305
=
306
=
307
=
308
=
309
=
 40
0.0
 41
2460305.038102697
 42
2460305.038103843
  1

 90
        0
  0
LAYOUT
  5
1E
102
{ACAD_REACTORS
330
1A
102
}
330
1A
100
AcDbPlotSettings
  1

  2
none_device
  4

  6

 40
0.0
 41
0.0
 42
0.0
 43
0.0
 44
0.0
 45
0.0
 46
0.0
 47
0.0
 48
0.0
 49
0.0
140
0.0
141
0.0
142
1.0
143
1.0
 70
   688
 72
     1
 73
     0
 74
     5
  7

 75
    16
147
1.0
148
0.0
149
0.0
100
AcDbLayout
  1
Layout1
 70
     1
 71
     1
 10
0.0
 20
0.0
 11
420.0
 21
297.0
 12
0.0
 22
0.0
 32
0.0
 14
1.0000000000E+20
 24
1.0000000000E+20
 34
1.0000000000E+20
 15
-1.0000000000E+20
 25
-1.0000000000E+20
 35
-1.0000000000E+20
146
0.0
 13
0.0
 23
0.0
 33
0.0
 16
1.0
 26
0.0
 36
0.0
 17
0.0
 27
1.0
 37
0.0
 76
     0
330
1B
  0
LAYOUT
  5
26
102
{ACAD_REACTORS
330
1A
102
}
330
1A
100
AcDbPlotSettings
  1

  2
none_device
  4

  6

 40
0.0
 41
0.0
 42
0.0
 43
0.0
 44
0.0
 45
0.0
 46
0.0
 47
0.0
 48
0.0
 49
0.0
140
0.0
141
0.0
142
1.0
143
1.0
 70
   688
 72
     1
 73
     0
 74
     5
  7

 75
    16
147
1.0
148
0.0
149
0.0
100
AcDbLayout
  1
Layout2
 70
     1
 71
     2
 10
0.0
 20
0.0
 11
0.0
 21
0.0
 12
0.0
 22
0.0
 32
0.0
 14
0.0
 24
0.0
 34
0.0
 15
0.0
 25
0.0
 35
0.0
146
0.0
 13
0.0
 23
0.0
 33
0.0
 16
1.0
 26
0.0
 36
0.0
 17
0.0
 27
1.0
 37
0.0
 76
     0
330
23
  0
LAYOUT
  5
22
102
{ACAD_REACTORS
330
1A
102
}
330
1A
100
AcDbPlotSettings
  1

  2
none_device
  4
Letter_(8.50_x_11.00_Inches)
  6

 40
6.35
 41
6.35
 42
6.35000508
 43
6.35000508
 44
215.9
 45
279.4
 46
0.0
 47
0.0
 48
0.0
 49
0.0
140
0.0
141
0.0
142
1.0
143
1.0
 70
  1712
 72
     1
 73
     0
 74
     0
  7

 75
     0
147
1.0
148
0.0
149
0.0
100
AcDbLayout
  1
Model
 70
     1
 71
     0
 10
0.0
 20
0.0
 11
431.8
 21
279.4
 12
0.0
 22
0.0
 32
0.0
 14
0.0
 24
0.0
 34
0.0
 15
431.8
 25
279.4
 35
0.0
146
0.0
 13
0.0
 23
0.0
 33
0.0
 16
1.0
 26
0.0
 36
0.0
 17
0.0
 27
1.0
 37
0.0
 76
     0
330
1F
331
29
  0
MLINESTYLE
  5
18
102
{ACAD_REACTORS
330
17
102
}
330
17
100
AcDbMlineStyle
  2
Standard
 70
     0
  3

 62
   256
 51
90.0
 52
90.0
 71
     2
 49
0.5
 62
   256
  6
BYLAYER
 49
-0.5
 62
   256
  6
BYLAYER
  0
ACDBPLACEHOLDER
  5
F
102
{ACAD_REACTORS
330
E
102
}
330
E
  0
SCALE
  5
48
102
{ACAD_REACTORS
330
47
102
}
330
47
100
AcDbScale
 70
     0
300
1:1
140
1.0
141
1.0
290
     1
  0
SCALE
  5
49
102
{ACAD_REACTORS
330
47
102
}
330
47
100
AcDbScale
 70
     0
300
1:2
140
1.0
141
2.0
290
     0
  0
SCALE
  5
4A
102
{ACAD_REACTORS
330
47
102
}
330
47
100
AcDbScale
 70
     0
300
1:4
140
1.0
141
4.0
290
     0
  0
SCALE
  5
4B
102
{ACAD_REACTORS
330
47
102
}
330
47
100
AcDbScale
 70
     0
300
1:5
140
1.0
141
5.0
290
     0
  0
SCALE
  5
4C
102
{ACAD_REACTORS
330
47
102
}
330
47
100
AcDbScale
 70
     0
300
1:8
140
1.0
141
8.0
290
     0
  0
SCALE
  5
4D
102
{ACAD_REACTORS
330
47
102
}
330
47
100
AcDbScale
 70
     0
300
1:10
140
1.0
141
10.0
290
     0
  0
SCALE
  5
4E
102
{ACAD_REACTORS
330
47
102
}
330
47
100
AcDbScale
 70
     0
300
1:16
140
1.0
141
16.0
290
     0
  0
SCALE
  5
4F
102
{ACAD_REACTORS
330
47
102
}
330
47
100
AcDbScale
 70
     0
300
1:20
140
1.0
141
20.0
290
     0
  0
SCALE
  5
50
102
{ACAD_REACTORS
330
47
102
}
330
47
100
AcDbScale
 70
     0
300
1:30
140
1.0
141
30.0
290
     0
  0
SCALE
  5
51
102
{ACAD_REACTORS
330
47
102
}
330
47
100
AcDbScale
 70
     0
300
1:40
140
1.0
141
40.0
290
     0
  0
SCALE
  5
52
102
{ACAD_REACTORS
330
47
102
}
330
47
100
AcDbScale
 70
     0
300
1:50
140
1.0
141
50.0
290
     0
  0
SCALE
  5
53
102
{ACAD_REACTORS
330
47
102
}
330
47
100
AcDbScale
 70
     0
300
1:100
140
1.0
141
100.0
290
     0
  0
SCALE
  5
54
102
{ACAD_REACTORS
330
47
102
}
330
47
100
AcDbScale
 70
     0
300
2:1
140
2.0
141
1.0
290
     0
  0
SCALE
  5
55
102
{ACAD_REACTORS
330
47
102
}
330
47
100
AcDbScale
 70
     0
300
4:1
140
4.0
141
1.0
290
     0
  0
SCALE
  5
56
102
{ACAD_REACTORS
330
47
102
}
330
47
100
AcDbScale
 70
     0
300
8:1
140
8.0
141
1.0
290
     0
  0
SCALE
  5
57
102
{ACAD_REACTORS
330
47
102
}
330
47
100
AcDbScale
 70
     0
300
10:1
140
10.0
141
1.0
290
     0
  0
SCALE
  5
58
102
{ACAD_REACTORS
330
47
102
}
330
47
100
AcDbScale
 70
     0
300
100:1
140
100.0
141
1.0
290
     0
  0
ENDSEC
  0
EOF
