  0
SECTION
  2
HEADER
  9
$ACADVER
  1
AC1015
  9
$ACADMAINTVER
 70
     6
  9
$DWGCODEPAGE
  3
DOS932
  9
$INSBASE
 10
0.0
 20
0.0
 30
0.0
  9
$EXTMIN
 10
0.0
 20
0.0
 30
0.0
  9
$EXTMAX
 10
431.8
 20
279.4
 30
0.0
  9
$LIMMIN
 10
0.0
 20
0.0
  9
$LIMMAX
 10
431.8
 20
279.4
  9
$ORTHOMODE
 70
     0
  9
$REGENMODE
 70
     1
  9
$FILLMODE
 70
     1
  9
$QTEXTMODE
 70
     0
  9
$MIRRTEXT
 70
     1
  9
$LTSCALE
 40
1.0
  9
$ATTMODE
 70
     1
  9
$TEXTSIZE
 40
3.5
  9
$TRACEWID
 40
1.0
  9
$TEXTSTYLE
  7
Standard
  9
$CLAYER
  8
0
  9
$CELTYPE
  6
ByLayer
  9
$CECOLOR
 62
   256
  9
$CELTSCALE
 40
1.0
  9
$DISPSILH
 70
     0
  9
$DIMSCALE
 40
1.0
  9
$DIMASZ
 40
3.556
  9
$DIMEXO
 40
1.0
  9
$DIMDLI
 40
3.75
  9
$DIMRND
 40
0.0
  9
$DIMDLE
 40
0.0
  9
$DIMEXE
 40
1.0
  9
$DIMTP
 40
0.0
  9
$DIMTM
 40
0.0
  9
$DIMTXT
 40
3.5
  9
$DIMCEN
 40
2.5
  9
$DIMTSZ
 40
0.0
  9
$DIMTOL
 70
     0
  9
$DIMLIM
 70
     0
  9
$DIMTIH
 70
     1
  9
$DIMTOH
 70
     1
  9
$DIMSE1
 70
     0
  9
$DIMSE2
 70
     0
  9
$DIMTAD
 70
     1
  9
$DIMZIN
 70
     0
  9
$DIMBLK
  1

  9
$DIMASO
 70
     1
  9
$DIMSHO
 70
     1
  9
$DIMPOST
  1

  9
$DIMAPOST
  1

  9
$DIMALT
 70
     0
  9
$DIMALTD
 70
     3
  9
$DIMALTF
 40
0.0393700787
  9
$DIMLFAC
 40
1.0
  9
$DIMTOFL
 70
     1
  9
$DIMTVP
 40
0.0
  9
$DIMTIX
 70
     0
  9
$DIMSOXD
 70
     0
  9
$DIMSAH
 70
     0
  9
$DIMBLK1
  1

  9
$DIMBLK2
  1

  9
$DIMSTYLE
  2
ISO-25
  9
$DIMCLRD
 70
     0
  9
$DIMCLRE
 70
     0
  9
$DIMCLRT
 70
     0
  9
$DIMTFAC
 40
1.0
  9
$DIMGAP
 40
1.524
  9
$DIMJUST
 70
     0
  9
$DIMSD1
 70
     0
  9
$DIMSD2
 70
     0
  9
$DIMTOLJ
 70
     0
  9
$DIMTZIN
 70
     0
  9
$DIMALTZ
 70
     0
  9
$DIMALTTZ
 70
     0
  9
$DIMUPT
 70
     0
  9
$DIMDEC
 70
     3
  9
$DIMTDEC
 70
     3
  9
$DIMALTU
 70
     2
  9
$DIMALTTD
 70
     3
  9
$DIMTXSTY
  7
Standard
  9
$DIMAUNIT
 70
     0
  9
$DIMADEC
 70
     2
  9
$DIMALTRND
 40
0.0
  9
$DIMAZIN
 70
     0
  9
$DIMDSEP
 70
    44
  9
$DIMATFIT
 70
     3
  9
$DIMFRAC
 70
     0
  9
$DIMLDRBLK
  1

  9
$DIMLUNIT
 70
     2
  9
$DIMLWD
 70
    -2
  9
$DIMLWE
 70
    -2
  9
$DIMTMOVE
 70
     0
  9
$LUNITS
 70
     2
  9
$LUPREC
 70
     3
  9
$SKETCHINC
 40
1.0
  9
$FILLETRAD
 40
0.0
  9
$AUNITS
 70
     0
  9
$AUPREC
 70
     2
  9
$MENU
  1
.
  9
$ELEVATION
 40
0.0
  9
$PELEVATION
 40
0.0
  9
$THICKNESS
 40
0.0
  9
$LIMCHECK
 70
     0
  9
$CHAMFERA
 40
0.0
  9
$CHAMFERB
 40
0.0
  9
$CHAMFERC
 40
0.0
  9
$CHAMFERD
 40
0.0
  9
$SKPOLY
 70
     0
  9
$TDCREATE
 40
2460297.6364361
  9
$TDUCREATE
 40
2460297.2614361
  9
$TDUPDATE
 40
2460297.636437187
  9
$TDUUPDATE
 40
2460297.261437187
  9
$TDINDWG
 40
0.0000000116
  9
$TDUSRTIMER
 40
0.0000000116
  9
$USRTIMER
 70
     1
  9
$ANGBASE
 50
0.0
  9
$ANGDIR
 70
     0
  9
$PDMODE
 70
     0
  9
$PDSIZE
 40
-1.0
  9
$PLINEWID
 40
0.0
  9
$SPLFRAME
 70
     0
  9
$SPLINETYPE
 70
     6
  9
$SPLINESEGS
 70
     8
  9
$HANDSEED
  5
2EB
  9
$SURFTAB1
 70
     6
  9
$SURFTAB2
 70
     6
  9
$SURFTYPE
 70
     6
  9
$SURFU
 70
     6
  9
$SURFV
 70
     6
  9
$UCSBASE
  2

  9
$UCSNAME
  2

  9
$UCSORG
 10
0.0
 20
0.0
 30
0.0
  9
$UCSXDIR
 10
1.0
 20
0.0
 30
0.0
  9
$UCSYDIR
 10
0.0
 20
1.0
 30
0.0
  9
$UCSORTHOREF
  2

  9
$UCSORTHOVIEW
 70
     0
  9
$UCSORGTOP
 10
0.0
 20
0.0
 30
0.0
  9
$UCSORGBOTTOM
 10
0.0
 20
0.0
 30
0.0
  9
$UCSORGLEFT
 10
0.0
 20
0.0
 30
0.0
  9
$UCSORGRIGHT
 10
0.0
 20
0.0
 30
0.0
  9
$UCSORGFRONT
 10
0.0
 20
0.0
 30
0.0
  9
$UCSORGBACK
 10
0.0
 20
0.0
 30
0.0
  9
$PUCSBASE
  2

  9
$PUCSNAME
  2

  9
$PUCSORG
 10
0.0
 20
0.0
 30
0.0
  9
$PUCSXDIR
 10
1.0
 20
0.0
 30
0.0
  9
$PUCSYDIR
 10
0.0
 20
1.0
 30
0.0
  9
$PUCSORTHOREF
  2

  9
$PUCSORTHOVIEW
 70
     0
  9
$PUCSORGTOP
 10
0.0
 20
0.0
 30
0.0
  9
$PUCSORGBOTTOM
 10
0.0
 20
0.0
 30
0.0
  9
$PUCSORGLEFT
 10
0.0
 20
0.0
 30
0.0
  9
$PUCSORGRIGHT
 10
0.0
 20
0.0
 30
0.0
  9
$PUCSORGFRONT
 10
0.0
 20
0.0
 30
0.0
  9
$PUCSORGBACK
 10
0.0
 20
0.0
 30
0.0
  9
$USERI1
 70
     0
  9
$USERI2
 70
     0
  9
$USERI3
 70
     0
  9
$USERI4
 70
     0
  9
$USERI5
 70
     0
  9
$USERR1
 40
0.0
  9
$USERR2
 40
0.0
  9
$USERR3
 40
0.0
  9
$USERR4
 40
0.0
  9
$USERR5
 40
0.0
  9
$WORLDVIEW
 70
     1
  9
$SHADEDGE
 70
     3
  9
$SHADEDIF
 70
    70
  9
$TILEMODE
 70
     1
  9
$MAXACTVP
 70
    64
  9
$PINSBASE
 10
0.0
 20
0.0
 30
0.0
  9
$PLIMCHECK
 70
     0
  9
$PEXTMIN
 10
1.0000000000E+20
 20
1.0000000000E+20
 30
1.0000000000E+20
  9
$PEXTMAX
 10
-1.0000000000E+20
 20
-1.0000000000E+20
 30
-1.0000000000E+20
  9
$PLIMMIN
 10
0.0
 20
0.0
  9
$PLIMMAX
 10
420.0
 20
297.0
  9
$UNITMODE
 70
     0
  9
$VISRETAIN
 70
     1
  9
$PLINEGEN
 70
     0
  9
$PSLTSCALE
 70
     1
  9
$TREEDEPTH
 70
  3020
  9
$CMLSTYLE
  2
Standard
  9
$CMLJUST
 70
     0
  9
$CMLSCALE
 40
20.0
  9
$PROXYGRAPHICS
 70
     1
  9
$MEASUREMENT
 70
     1
  9
$CELWEIGHT
370
    -1
  9
$ENDCAPS
280
     0
  9
$JOINSTYLE
280
     0
  9
$LWDISPLAY
290
     1
  9
$INSUNITS
 70
     4
  9
$HYPERLINKBASE
  1

  9
$STYLESHEET
  1

  9
$XEDIT
290
     1
  9
$CEPSNTYPE
380
     0
  9
$PSTYLEMODE
290
     1
  9
$FINGERPRINTGUID
  2
{34ccff28-df55-4520-92ed-7f2b523094b1}
  9
$VERSIONGUID
  2
{FAEB1C32-E019-11D5-929B-00C0DF256EC4}
  9
$EXTNAMES
290
     1
  9
$PSVPSCALE
 40
0.0
  9
$OLESTARTUP
290
     0
  0
ENDSEC
  0
SECTION
  2
CLASSES
  0
CLASS
  1
ACDBDICTIONARYWDFLT
  2
AcDbDictionaryWithDefault
  3
ObjectDBX Classes
 90
        0
280
     0
281
     0
  0
CLASS
  1
VISUALSTYLE
  2
AcDbVisualStyle
  3
ObjectDBX Classes
 90
     4095
280
     0
281
     0
  0
CLASS
  1
MATERIAL
  2
AcDbMaterial
  3
ObjectDBX Classes
 90
     1153
280
     0
281
     0
  0
CLASS
  1
SCALE
  2
AcDbScale
  3
ObjectDBX Classes
 90
     1153
280
     0
281
     0
  0
CLASS
  1
TABLESTYLE
  2
AcDbTableStyle
  3
ObjectDBX Classes
 90
     4095
280
     0
281
     0
  0
CLASS
  1
MLEADERSTYLE
  2
AcDbMLeaderStyle
  3
ACDB_MLEADERSTYLE_CLASS
 90
     4095
280
     0
281
     0
  0
CLASS
  1
SUN
  2
AcDbSun
  3
SCENEOE
 90
     1153
280
     0
281
     0
  0
CLASS
  1
ACDBPLACEHOLDER
  2
AcDbPlaceHolder
  3
ObjectDBX Classes
 90
        0
280
     0
281
     0
  0
CLASS
  1
LAYOUT
  2
AcDbLayout
  3
ObjectDBX Classes
 90
        0
280
     0
281
     0
  0
ENDSEC
  0
SECTION
  2
TABLES
  0
TABLE
  2
VPORT
  5
8
330
0
100
AcDbSymbolTable
 70
     1
  0
VPORT
  5
29
330
8
100
AcDbSymbolTableRecord
100
AcDbViewportTableRecord
  2
*Active
 70
     0
 10
0.0
 20
0.0
 11
1.0
 21
1.0
 12
215.9
 22
139.7
 13
0.0
 23
0.0
 14
10.0
 24
10.0
 15
10.0
 25
10.0
 16
0.0
 26
0.0
 36
1.0
 17
0.0
 27
0.0
 37
0.0
 40
279.4
 41
1.5454545455
 42
50.0
 43
0.0
 44
0.0
 50
0.0
 51
0.0
 71
     0
 72
  2000
 73
     1
 74
     3
 75
     0
 76
     0
 77
     0
 78
     0
281
     0
 65
     1
110
0.0
120
0.0
130
0.0
111
1.0
121
0.0
131
0.0
112
0.0
122
1.0
132
0.0
 79
     0
146
0.0
  0
ENDTAB
  0
TABLE
  2
LTYPE
  5
5
330
0
100
AcDbSymbolTable
 70
     6
  0
LTYPE
  5
14
330
5
100
AcDbSymbolTableRecord
100
AcDbLinetypeTableRecord
  2
ByBlock
 70
     0
  3

 72
    65
 73
     0
 40
0.0
  0
LTYPE
  5
15
330
5
100
AcDbSymbolTableRecord
100
AcDbLinetypeTableRecord
  2
ByLayer
 70
     0
  3

 72
    65
 73
     0
 40
0.0
  0
LTYPE
  5
16
330
5
100
AcDbSymbolTableRecord
100
AcDbLinetypeTableRecord
  2
Continuous
 70
     0
  3
Solid line
 72
    65
 73
     0
 40
0.0
  0
LTYPE
  5
5E
330
5
100
AcDbSymbolTableRecord
100
AcDbLinetypeTableRecord
  2
HIDDEN
 70
     0
  3
Hidden __ __ __ __ __ __ __ __ __ __ __ __ __ __
 72
    65
 73
     2
 40
1.905
 49
1.27
 74
     0
 49
-0.635
 74
     0
  0
LTYPE
  5
5F
330
5
100
AcDbSymbolTableRecord
100
AcDbLinetypeTableRecord
  2
PHANTOM
 70
     0
  3
Phantom ______  __  __  ______  __  __  ______
 72
    65
 73
     6
 40
12.7
 49
6.35
 74
     0
 49
-1.27
 74
     0
 49
1.27
 74
     0
 49
-1.27
 74
     0
 49
1.27
 74
     0
 49
-1.27
 74
     0
  0
LTYPE
  5
60
330
5
100
AcDbSymbolTableRecord
100
AcDbLinetypeTableRecord
  2
CENTER
 70
     0
  3
Center ____ _ ____ _ ____ _ ____ _ ____ _ ____
 72
    65
 73
     4
 40
10.16
 49
6.35
 74
     0
 49
-1.27
 74
     0
 49
1.27
 74
     0
 49
-1.27
 74
     0
  0
LTYPE
  5
61
330
5
100
AcDbSymbolTableRecord
100
AcDbLinetypeTableRecord
  2
CENTERX2
 70
     0
  3
Center (2x) ________  __  ________  __  _____
 72
    65
 73
     4
 40
20.32
 49
12.7
 74
     0
 49
-2.54
 74
     0
 49
2.54
 74
     0
 49
-2.54
 74
     0
  0
LTYPE
  5
62
330
5
100
AcDbSymbolTableRecord
100
AcDbLinetypeTableRecord
  2
DOT2
 70
     0
  3
Dot (.5x) ........................................
 72
    65
 73
     2
 40
0.635
 49
0.0
 74
     0
 49
-0.635
 74
     0
  0
ENDTAB
  0
TABLE
  2
LAYER
  5
2
330
0
100
AcDbSymbolTable
 70
     1
  0
LAYER
  5
10
330
2
100
AcDbSymbolTableRecord
100
AcDbLayerTableRecord
  2
0
 70
     0
 62
     7
  6
Continuous
370
    -3
390
F
  0
ENDTAB
  0
TABLE
  2
STYLE
  5
3
330
0
100
AcDbSymbolTable
 70
     2
  0
STYLE
  5
11
330
3
100
AcDbSymbolTableRecord
100
AcDbTextStyleTableRecord
  2
Standard
 70
     0
 40
0.0
 41
1.0
 50
0.0
 71
     0
 42
3.5
  3
txt
  4
bigfont
  0
STYLE
  5
63
330
3
100
AcDbSymbolTableRecord
100
AcDbTextStyleTableRecord
  2
SLDTEXTSTYLE0
 70
     0
 40
0.0
 41
0.7
 50
0.0
 71
     0
 42
3.5
  3
TXT
  4
bigfont
  0
ENDTAB
  0
TABLE
  2
VIEW
  5
6
330
0
100
AcDbSymbolTable
 70
     0
  0
ENDTAB
  0
TABLE
  2
UCS
  5
7
330
0
100
AcDbSymbolTable
 70
     0
  0
ENDTAB
  0
TABLE
  2
APPID
  5
9
330
0
100
AcDbSymbolTable
 70
     1
  0
APPID
  5
12
330
9
100
AcDbSymbolTableRecord
100
AcDbRegAppTableRecord
  2
ACAD
 70
     0
  0
ENDTAB
  0
TABLE
  2
DIMSTYLE
  5
A
330
0
100
AcDbSymbolTable
 70
     1
100
AcDbDimStyleTable
  0
DIMSTYLE
105
27
330
A
100
AcDbSymbolTableRecord
100
AcDbDimStyleTableRecord
  2
ISO-25
 70
     0
 41
2.5
 42
0.625
 43
3.75
 44
1.25
 73
     0
 74
     0
 77
     1
 78
     8
140
2.5
141
2.5
143
0.0393700787
147
0.625
171
     3
172
     1
178
     0
271
     2
272
     2
274
     3
278
    44
283
     0
284
     8
340
11
  0
ENDTAB
  0
TABLE
  2
BLOCK_RECORD
  5
1
330
0
100
AcDbSymbolTable
 70
     3
  0
BLOCK_RECORD
  5
1F
330
1
100
AcDbSymbolTableRecord
100
AcDbBlockTableRecord
  2
*Model_Space
340
22
  0
BLOCK_RECORD
  5
1B
330
1
100
AcDbSymbolTableRecord
100
AcDbBlockTableRecord
  2
*Paper_Space
340
1E
  0
BLOCK_RECORD
  5
23
330
1
100
AcDbSymbolTableRecord
100
AcDbBlockTableRecord
  2
*Paper_Space0
340
26
  0
BLOCK_RECORD
  5
1F6
330
1
100
AcDbSymbolTableRecord
100
AcDbBlockTableRecord
  2
SW_CENTERMARKSYMBOL_0
340
0
102
{BLKREFS
331
201
102
}
  0
BLOCK_RECORD
  5
2D7
330
1
100
AcDbSymbolTableRecord
100
AcDbBlockTableRecord
  2
SW_CENTERMARKSYMBOL_1
340
0
102
{BLKREFS
331
2E2
102
}
  0
ENDTAB
  0
ENDSEC
  0
SECTION
  2
BLOCKS
  0
BLOCK
  5
20
330
1F
100
AcDbEntity
  8
0
100
AcDbBlockBegin
  2
*Model_Space
 70
     0
 10
0.0
 20
0.0
 30
0.0
  3
*Model_Space
  1

  0
ENDBLK
  5
21
330
1F
100
AcDbEntity
  8
0
100
AcDbBlockEnd
  0
BLOCK
  5
1C
330
1B
100
AcDbEntity
 67
     1
  8
0
100
AcDbBlockBegin
  2
*Paper_Space
 70
     0
 10
0.0
 20
0.0
 30
0.0
  3
*Paper_Space
  1

  0
ENDBLK
  5
1D
330
1B
100
AcDbEntity
 67
     1
  8
0
100
AcDbBlockEnd
  0
BLOCK
  5
24
330
23
100
AcDbEntity
  8
0
100
AcDbBlockBegin
  2
*Paper_Space0
 70
     0
 10
0.0
 20
0.0
 30
0.0
  3
*Paper_Space0
  1

  0
ENDBLK
  5
25
330
23
100
AcDbEntity
  8
0
100
AcDbBlockEnd
  0
BLOCK
  5
1F7
330
1F6
100
AcDbEntity
  8
0
100
AcDbBlockBegin
  2
SW_CENTERMARKSYMBOL_0
 70
     0
 10
0.0
 20
0.0
 30
0.0
  3
SW_CENTERMARKSYMBOL_0
  1

  0
LINE
  5
1F9
330
1F6
100
AcDbEntity
  8
0
  6
Continuous
 62
     0
370
    18
100
AcDbLine
 10
0.0
 20
0.0
 30
0.0
 11
0.0
 21
2.5
 31
0.0
  0
LINE
  5
1FA
330
1F6
100
AcDbEntity
  8
0
  6
Continuous
 62
     0
370
    18
100
AcDbLine
 10
0.0
 20
0.0
 30
0.0
 11
-2.5
 21
0.0
 31
0.0
  0
LINE
  5
1FB
330
1F6
100
AcDbEntity
  8
0
  6
Continuous
 62
     0
370
    18
100
AcDbLine
 10
0.0
 20
0.0
 30
0.0
 11
0.0
 21
-2.5
 31
0.0
  0
LINE
  5
1FC
330
1F6
100
AcDbEntity
  8
0
  6
Continuous
 62
     0
370
    18
100
AcDbLine
 10
0.0
 20
0.0
 30
0.0
 11
2.5
 21
0.0
 31
0.0
  0
LINE
  5
1FD
330
1F6
100
AcDbEntity
  8
0
  6
Continuous
 62
     0
370
    18
100
AcDbLine
 10
0.0
 20
5.0
 30
0.0
 11
0.0
 21
42.846213954
 31
0.0
  0
LINE
  5
1FE
330
1F6
100
AcDbEntity
  8
0
  6
Continuous
 62
     0
370
    18
100
AcDbLine
 10
-5.0
 20
0.0
 30
0.0
 11
-16.5
 21
0.0
 31
0.0
  0
LINE
  5
1FF
330
1F6
100
AcDbEntity
  8
0
  6
Continuous
 62
     0
370
    18
100
AcDbLine
 10
0.0
 20
-5.0
 30
0.0
 11
0.0
 21
-16.5
 31
0.0
  0
LINE
  5
200
330
1F6
100
AcDbEntity
  8
0
  6
Continuous
 62
     0
370
    18
100
AcDbLine
 10
5.0
 20
0.0
 30
0.0
 11
16.5
 21
0.0
 31
0.0
  0
ENDBLK
  5
1F8
330
1F6
100
AcDbEntity
  8
0
100
AcDbBlockEnd
  0
BLOCK
  5
2D8
330
2D7
100
AcDbEntity
  8
0
100
AcDbBlockBegin
  2
SW_CENTERMARKSYMBOL_1
 70
     0
 10
0.0
 20
0.0
 30
0.0
  3
SW_CENTERMARKSYMBOL_1
  1

  0
LINE
  5
2DA
330
2D7
100
AcDbEntity
  8
0
  6
Continuous
 62
     0
370
    18
100
AcDbLine
 10
0.0
 20
0.0
 30
0.0
 11
0.0
 21
2.5
 31
0.0
  0
LINE
  5
2DB
330
2D7
100
AcDbEntity
  8
0
  6
Continuous
 62
     0
370
    18
100
AcDbLine
 10
0.0
 20
0.0
 30
0.0
 11
-2.5
 21
0.0
 31
0.0
  0
LINE
  5
2DC
330
2D7
100
AcDbEntity
  8
0
  6
Continuous
 62
     0
370
    18
100
AcDbLine
 10
0.0
 20
0.0
 30
0.0
 11
0.0
 21
-2.5
 31
0.0
  0
LINE
  5
2DD
330
2D7
100
AcDbEntity
  8
0
  6
Continuous
 62
     0
370
    18
100
AcDbLine
 10
0.0
 20
0.0
 30
0.0
 11
2.5
 21
0.0
 31
0.0
  0
LINE
  5
2DE
330
2D7
100
AcDbEntity
  8
0
  6
Continuous
 62
     0
370
    18
100
AcDbLine
 10
0.0
 20
5.0
 30
0.0
 11
0.0
 21
16.0770456125
 31
0.0
  0
LINE
  5
2DF
330
2D7
100
AcDbEntity
  8
0
  6
Continuous
 62
     0
370
    18
100
AcDbLine
 10
-5.0
 20
0.0
 30
0.0
 11
-57.1307112047
 21
0.0
 31
0.0
  0
LINE
  5
2E0
330
2D7
100
AcDbEntity
  8
0
  6
Continuous
 62
     0
370
    18
100
AcDbLine
 10
0.0
 20
-5.0
 30
0.0
 11
0.0
 21
-15.7432711973
 31
0.0
  0
LINE
  5
2E1
330
2D7
100
AcDbEntity
  8
0
  6
Continuous
 62
     0
370
    18
100
AcDbLine
 10
5.0
 20
0.0
 30
0.0
 11
30.8367175187
 21
0.0
 31
0.0
  0
ENDBLK
  5
2D9
330
2D7
100
AcDbEntity
  8
0
100
AcDbBlockEnd
  0
ENDSEC
  0
SECTION
  2
ENTITIES
  0
MTEXT
  5
64
330
1F
100
AcDbEntity
  8
0
  6
Continuous
 62
     7
370
     0
100
AcDbMText
 10
167.0049820104
 20
115.7363938955
 30
0.0
 40
4.2333333333
 41
0.0
 71
     1
 72
     1
  1
エースボールZERO　BS-0066
  7
SLDTEXTSTYLE0
 73
     1
 44
1.0
  0
LINE
  5
65
330
1F
100
AcDbEntity
  8
0
  6
Continuous
 62
     7
370
    25
100
AcDbLine
 10
134.8796698167
 20
71.666470307
 30
0.0
 11
131.8796698167
 21
71.666470307
 31
0.0
  0
LINE
  5
66
330
1F
100
AcDbEntity
  8
0
  6
Continuous
 62
     7
370
    25
100
AcDbLine
 10
131.8796698167
 20
44.666470307
 30
0.0
 11
134.8796698167
 21
44.666470307
 31
0.0
  0
LINE
  5
67
330
1F
100
AcDbEntity
  8
0
  6
Continuous
 62
     7
370
    25
100
AcDbLine
 10
128.3796698167
 20
71.386970307
 30
0.0
 11
119.3796698167
 21
71.386970307
 31
0.0
  0
LINE
  5
68
330
1F
100
AcDbEntity
  8
0
  6
Continuous
 62
     7
370
    25
100
AcDbLine
 10
119.3796698167
 20
44.945970307
 30
0.0
 11
128.3796698167
 21
44.945970307
 31
0.0
  0
LINE
  5
69
330
1F
100
AcDbEntity
  8
0
  6
Continuous
 62
     7
370
    25
100
AcDbLine
 10
119.3796698167
 20
71.386970307
 30
0.0
 11
118.3796698167
 21
70.386970307
 31
0.0
  0
LINE
  5
6A
330
1F
100
AcDbEntity
  8
0
  6
Continuous
 62
     7
370
    25
100
AcDbLine
 10
118.3796698167
 20
45.945970307
 30
0.0
 11
119.3796698167
 21
44.945970307
 31
0.0
  0
LINE
  5
6B
330
1F
100
AcDbEntity
  8
0
  6
Continuous
 62
     7
370
    25
100
AcDbLine
 10
128.3796698167
 20
44.945970307
 30
0.0
 11
129.3796698167
 21
45.945970307
 31
0.0
  0
LINE
  5
6C
330
1F
100
AcDbEntity
  8
0
  6
Continuous
 62
     7
370
    25
100
AcDbLine
 10
129.3796698167
 20
70.386970307
 30
0.0
 11
128.3796698167
 21
71.386970307
 31
0.0
  0
LINE
  5
6D
330
1F
100
AcDbEntity
  8
0
  6
Continuous
 62
     7
370
    25
100
AcDbLine
 10
131.8796698167
 20
69.666470307
 30
0.0
 11
129.3796698167
 21
69.666470307
 31
0.0
  0
LINE
  5
6E
330
1F
100
AcDbEntity
  8
0
  6
Continuous
 62
     7
370
    25
100
AcDbLine
 10
129.3796698167
 20
46.666470307
 30
0.0
 11
131.8796698167
 21
46.666470307
 31
0.0
  0
LINE
  5
6F
330
1F
100
AcDbEntity
  8
0
  6
Continuous
 62
     7
370
    25
100
AcDbLine
 10
160.8796698167
 20
44.743782807
 30
0.0
 11
174.2744934777
 21
45.1623710464
 31
0.0
  0
LINE
  5
70
330
1F
100
AcDbEntity
  8
0
  6
Continuous
 62
     7
370
    25
100
AcDbLine
 10
174.2744934777
 20
71.1705695676
 30
0.0
 11
160.8796698167
 21
71.589157807
 31
0.0
  0
LINE
  5
71
330
1F
100
AcDbEntity
  8
0
  6
Continuous
 62
     7
370
    25
100
AcDbLine
 10
174.2744934777
 20
45.1623710464
 30
0.0
 11
176.8796698167
 21
46.666470307
 31
0.0
  0
LINE
  5
72
330
1F
100
AcDbEntity
  8
0
  6
Continuous
 62
     7
370
    25
100
AcDbLine
 10
176.8796698167
 20
69.666470307
 30
0.0
 11
174.2744934777
 21
71.1705695676
 31
0.0
  0
ARC
  5
73
330
1F
100
AcDbEntity
  8
0
  6
Continuous
 62
     7
370
    25
100
AcDbCircle
 10
156.6296698167
 20
72.666470307
 30
0.0
 40
0.5
100
AcDbArc
 50
180.0
 51
270.0
  0
ARC
  5
74
330
1F
100
AcDbEntity
  8
0
  6
Continuous
 62
     7
370
    25
100
AcDbCircle
 10
139.1296698167
 20
72.666470307
 30
0.0
 40
0.5
100
AcDbArc
 50
270.0
 51
0.0
  0
LINE
  5
75
330
1F
100
AcDbEntity
  8
0
  6
Continuous
 62
     7
370
    25
100
AcDbLine
 10
156.1296698167
 20
72.666470307
 30
0.0
 11
156.1296698167
 21
77.666470307
 31
0.0
  0
LINE
  5
76
330
1F
100
AcDbEntity
  8
0
  6
Continuous
 62
     7
370
    25
100
AcDbLine
 10
139.6296698167
 20
77.666470307
 30
0.0
 11
139.6296698167
 21
72.666470307
 31
0.0
  0
LINE
  5
77
330
1F
100
AcDbEntity
  8
0
  6
Continuous
 62
     7
370
    25
100
AcDbLine
 10
156.1296698167
 20
77.666470307
 30
0.0
 11
155.6296698167
 21
78.166470307
 31
0.0
  0
LINE
  5
78
330
1F
100
AcDbEntity
  8
0
  6
Continuous
 62
     7
370
    25
100
AcDbLine
 10
140.1296698167
 20
78.166470307
 30
0.0
 11
139.6296698167
 21
77.666470307
 31
0.0
  0
LINE
  5
79
330
1F
100
AcDbEntity
  8
0
  6
Continuous
 62
     7
370
    25
100
AcDbLine
 10
142.8796698167
 20
78.666470307
 30
0.0
 11
142.8796698167
 21
78.166470307
 31
0.0
  0
LINE
  5
7A
330
1F
100
AcDbEntity
  8
0
  6
Continuous
 62
     7
370
    25
100
AcDbLine
 10
152.8796698167
 20
78.166470307
 30
0.0
 11
152.8796698167
 21
78.666470307
 31
0.0
  0
ARC
  5
7B
330
1F
100
AcDbEntity
  8
0
  6
Continuous
 62
     7
370
    25
100
AcDbCircle
 10
147.8796698167
 20
76.166470307
 30
0.0
 40
20.6
100
AcDbArc
 50
90.5928919267
 51
93.3558231766
  0
ARC
  5
7C
330
1F
100
AcDbEntity
  8
0
  6
Continuous
 62
     7
370
    25
100
AcDbCircle
 10
147.8796698167
 20
76.166470307
 30
0.0
 40
20.6
100
AcDbArc
 50
86.6441768145
 51
89.3963494181
  0
ARC
  5
7D
330
1F
100
AcDbEntity
  8
0
  6
Continuous
 62
     7
370
    25
100
AcDbCircle
 10
155.8734401851
 20
88.6540496118
 30
0.0
 40
1.000000000000025
100
AcDbArc
 50
354.2894068625
 51
7.1250163489
  0
LINE
  5
7E
330
1F
100
AcDbEntity
  8
0
  6
Continuous
 62
     7
370
    25
100
AcDbLine
 10
139.4730419601
 20
82.7327488733
 30
0.0
 11
139.6996698167
 21
80.466470307
 31
0.0
  0
LINE
  5
7F
330
1F
100
AcDbEntity
  8
0
  6
Continuous
 62
     7
370
    25
100
AcDbLine
 10
155.9246946307
 20
79.1167184475
 30
0.0
 11
156.8684773753
 21
88.5545458928
 31
0.0
  0
LINE
  5
80
330
1F
100
AcDbEntity
  8
0
  6
Continuous
 62
     7
370
    25
100
AcDbLine
 10
156.8657180618
 20
88.7780843464
 30
0.0
 11
155.9344176458
 21
96.2284876743
 31
0.0
  0
LINE
  5
81
330
1F
100
AcDbEntity
  8
0
  6
Continuous
 62
     7
370
    25
100
AcDbLine
 10
139.8249219876
 20
96.2284876743
 30
0.0
 11
139.6296698167
 21
94.666470307
 31
0.0
  0
ARC
  5
82
330
1F
100
AcDbEntity
  8
0
  6
Continuous
 62
     7
370
    25
100
AcDbCircle
 10
140.321060926
 20
96.166470307
 30
0.0
 40
0.5000000000000017
100
AcDbArc
 50
90.0
 51
172.8749836511
  0
ARC
  5
83
330
1F
100
AcDbEntity
  8
0
  6
Continuous
 62
     7
370
    25
100
AcDbCircle
 10
155.4382787074
 20
96.166470307
 30
0.0
 40
0.5
100
AcDbArc
 50
7.1250163489
 51
90.0
  0
ARC
  5
84
330
1F
100
AcDbEntity
  8
0
  6
Continuous
 62
     7
370
    25
100
AcDbCircle
 10
155.4271760356
 20
79.166470307
 30
0.0
 40
0.5
100
AcDbArc
 50
270.0
 51
354.2894068625
  0
LINE
  5
85
330
1F
100
AcDbEntity
  8
0
  6
Continuous
 62
     7
370
    25
100
AcDbLine
 10
142.3796698167
 20
78.166470307
 30
0.0
 11
142.3796698167
 21
78.666470307
 31
0.0
  0
LINE
  5
86
330
1F
100
AcDbEntity
  8
0
  6
Continuous
 62
     7
370
    25
100
AcDbLine
 10
140.3796698167
 20
78.669705039
 30
0.0
 11
140.3796698167
 21
78.166470307
 31
0.0
  0
LINE
  5
87
330
1F
100
AcDbEntity
  8
0
  6
Continuous
 62
     7
370
    25
100
AcDbLine
 10
131.8796698167
 20
49.7289270085
 30
0.0
 11
131.8796698167
 21
71.666470307
 31
0.0
  0
LINE
  5
88
330
1F
100
AcDbEntity
  8
0
  6
Continuous
 62
     7
370
    25
100
AcDbLine
 10
131.8796698167
 20
44.666470307
 30
0.0
 11
131.8796698167
 21
49.7289270085
 31
0.0
  0
LINE
  5
89
330
1F
100
AcDbEntity
  8
0
  6
Continuous
 62
     7
370
    25
100
AcDbLine
 10
119.3796698167
 20
49.9036154049
 30
0.0
 11
119.3796698167
 21
44.945970307
 31
0.0
  0
LINE
  5
8A
330
1F
100
AcDbEntity
  8
0
  6
Continuous
 62
     7
370
    25
100
AcDbLine
 10
119.3796698167
 20
71.386970307
 30
0.0
 11
119.3796698167
 21
49.9036154049
 31
0.0
  0
LINE
  5
8B
330
1F
100
AcDbEntity
  8
0
  6
Continuous
 62
     7
370
    25
100
AcDbLine
 10
128.3796698167
 20
49.9036154049
 30
0.0
 11
128.3796698167
 21
71.386970307
 31
0.0
  0
LINE
  5
8C
330
1F
100
AcDbEntity
  8
0
  6
Continuous
 62
     7
370
    25
100
AcDbLine
 10
128.3796698167
 20
44.945970307
 30
0.0
 11
128.3796698167
 21
49.9036154049
 31
0.0
  0
LINE
  5
8D
330
1F
100
AcDbEntity
  8
0
  6
Continuous
 62
     7
370
    25
100
AcDbLine
 10
118.3796698167
 20
50.5286186122
 30
0.0
 11
118.3796698167
 21
70.386970307
 31
0.0
  0
LINE
  5
8E
330
1F
100
AcDbEntity
  8
0
  6
Continuous
 62
     7
370
    25
100
AcDbLine
 10
118.3796698167
 20
45.945970307
 30
0.0
 11
118.3796698167
 21
50.5286186122
 31
0.0
  0
LINE
  5
8F
330
1F
100
AcDbEntity
  8
0
  6
Continuous
 62
     7
370
    25
100
AcDbLine
 10
129.3796698167
 20
50.5286186122
 30
0.0
 11
129.3796698167
 21
45.945970307
 31
0.0
  0
LINE
  5
90
330
1F
100
AcDbEntity
  8
0
  6
Continuous
 62
     7
370
    25
100
AcDbLine
 10
129.3796698167
 20
70.386970307
 30
0.0
 11
129.3796698167
 21
50.5286186122
 31
0.0
  0
SPLINE
  5
91
330
1F
100
AcDbEntity
  8
0
  6
Continuous
 62
     7
370
    25
100
AcDbSpline
210
0.0
220
0.0
230
1.0
 70
     8
 71
     3
 72
    12
 73
     8
 74
     0
 42
0.00000001
 43
0.00000001
 40
0.0
 40
0.0
 40
0.0
 40
0.0
 40
0.25
 40
0.25
 40
0.5
 40
0.5
 40
1.0
 40
1.0
 40
1.0
 40
1.0
 10
159.4362941437237
 20
49.43434570874289
 30
0.0
 10
159.6529491847656
 20
50.14342278620729
 30
0.0
 10
159.8531627086278
 20
50.86087783517626
 30
0.0
 10
160.2082013718446
 20
52.30603684526674
 30
0.0
 10
160.3623849644051
 20
53.03110354959863
 30
0.0
 10
160.7410430231396
 20
55.21524522258915
 30
0.0
 10
160.8796698166977
 20
56.68347011658989
 30
0.0
 10
160.8796698166977
 20
58.16647030702938
 30
0.0
  0
LINE
  5
92
330
1F
100
AcDbEntity
  8
0
  6
Continuous
 62
     7
370
    25
100
AcDbLine
 10
159.4362941437
 20
49.4343457087
 30
0.0
 11
136.3230454897
 21
49.4343457087
 31
0.0
  0
SPLINE
  5
93
330
1F
100
AcDbEntity
  8
0
  6
Continuous
 62
     7
370
    25
100
AcDbSpline
210
0.0
220
0.0
230
1.0
 70
     8
 71
     3
 72
    10
 73
     6
 74
     0
 42
0.00000001
 43
0.00000001
 40
0.0
 40
0.0
 40
0.0
 40
0.0
 40
0.5
 40
0.5
 40
1.0
 40
1.0
 40
1.0
 40
1.0
 10
136.3230454896718
 20
49.43434570874289
 30
0.0
 10
135.8899457639155
 20
50.85181140126972
 30
0.0
 10
135.5231454735759
 20
52.30304555579631
 30
0.0
 10
135.018122845824
 20
55.21642302477454
 30
0.0
 10
134.8796698166977
 20
56.68452158708382
 30
0.0
 10
134.8796698166977
 20
58.16647030702939
 30
0.0
  0
SPLINE
  5
94
330
1F
100
AcDbEntity
  8
0
  6
Continuous
 62
     7
370
    25
100
AcDbSpline
210
0.0
220
0.0
230
1.0
 70
     8
 71
     3
 72
    14
 73
    10
 74
     0
 42
0.00000001
 43
0.00000001
 40
0.0
 40
0.0
 40
0.0
 40
0.0
 40
0.125
 40
0.125
 40
0.2500000000000001
 40
0.2500000000000001
 40
0.5
 40
0.5
 40
1.0
 40
1.0
 40
1.0
 40
1.0
 10
134.8796698166977
 20
58.16647030702939
 30
0.0
 10
134.8796698166977
 20
58.53748238584974
 30
0.0
 10
134.8881981735179
 20
58.90934759939083
 30
0.0
 10
134.9223851069059
 20
59.65479164910262
 30
0.0
 10
134.9481326399469
 20
60.02892411310427
 30
0.0
 10
135.0494445825795
 20
61.14266215483617
 30
0.0
 10
135.1491626165967
 20
61.87707990268992
 30
0.0
 10
135.5299905978298
 20
64.05983828603543
 30
0.0
 10
135.8920073769885
 20
65.48787654054829
 30
0.0
 10
136.3230454896718
 20
66.89859490531587
 30
0.0
  0
LINE
  5
95
330
1F
100
AcDbEntity
  8
0
  6
Continuous
 62
     7
370
    25
100
AcDbLine
 10
159.4362941437
 20
66.8985949053
 30
0.0
 11
136.3230454897
 21
66.8985949053
 31
0.0
  0
SPLINE
  5
96
330
1F
100
AcDbEntity
  8
0
  6
Continuous
 62
     7
370
    25
100
AcDbSpline
210
0.0
220
0.0
230
1.0
 70
     8
 71
     3
 72
    12
 73
     8
 74
     0
 42
0.00000001
 43
0.00000001
 40
0.0
 40
0.0
 40
0.0
 40
0.0
 40
0.25
 40
0.25
 40
0.5
 40
0.5
 40
1.0
 40
1.0
 40
1.0
 40
1.0
 10
160.8796698166977
 20
58.16647030702938
 30
0.0
 10
160.8796698166977
 20
58.90912701134547
 30
0.0
 10
160.8448604517332
 20
59.6593078229195
 30
0.0
 10
160.7098202716258
 20
61.1431422844773
 30
0.0
 10
160.6101568029926
 20
61.8771751525064
 30
0.0
 10
160.2294618866407
 20
64.05923267730566
 30
0.0
 10
159.8674776636958
 20
65.48740064589643
 30
0.0
 10
159.4362941437237
 20
66.89859490531589
 30
0.0
  0
LINE
  5
97
330
1F
100
AcDbEntity
  8
0
  6
Continuous
 62
     7
370
    25
100
AcDbLine
 10
136.3230454897
 20
66.8985949053
 30
0.0
 11
136.3230454897
 21
72.166470307
 31
0.0
  0
LINE
  5
98
330
1F
100
AcDbEntity
  8
0
  6
Continuous
 62
     7
370
    25
100
AcDbLine
 10
147.3206528223
 20
72.166470307
 30
0.0
 11
136.3230454897
 21
72.166470307
 31
0.0
  0
LINE
  5
99
330
1F
100
AcDbEntity
  8
0
  6
Continuous
 62
     7
370
    25
100
AcDbLine
 10
148.4386868111
 20
72.166470307
 30
0.0
 11
147.3206528223
 21
72.166470307
 31
0.0
  0
LINE
  5
9A
330
1F
100
AcDbEntity
  8
0
  6
Continuous
 62
     7
370
    25
100
AcDbLine
 10
159.4362941437
 20
72.166470307
 30
0.0
 11
148.4386868111
 21
72.166470307
 31
0.0
  0
LINE
  5
9B
330
1F
100
AcDbEntity
  8
0
  6
Continuous
 62
     7
370
    25
100
AcDbLine
 10
159.4362941437
 20
72.166470307
 30
0.0
 11
159.4362941437
 21
66.8985949053
 31
0.0
  0
SPLINE
  5
9C
330
1F
100
AcDbEntity
  8
0
  6
Continuous
 62
     7
370
    25
100
AcDbSpline
210
0.0
220
0.0
230
1.0
 70
    24
 71
     3
 72
    12
 73
     8
 74
     0
 42
0.00000001
 43
0.00000001
 40
0.0
 40
0.0
 40
0.0
 40
0.0
 40
0.25
 40
0.25
 40
0.5
 40
0.5
 40
1.0
 40
1.0
 40
1.0
 40
1.0
 10
160.8796698166977
 20
72.16647030702939
 30
0.0
 10
160.8796698166977
 20
72.16647030702939
 30
0.0
 10
160.8448604517374
 20
72.16647030702939
 30
0.0
 10
160.7098202716286
 20
72.16647030702939
 30
0.0
 10
160.6101568029935
 20
72.16647030702939
 30
0.0
 10
160.229461886637
 20
72.16647030702939
 30
0.0
 10
159.8674776636908
 20
72.16647030702939
 30
0.0
 10
159.4362941437237
 20
72.16647030702939
 30
0.0
  0
LINE
  5
9D
330
1F
100
AcDbEntity
  8
0
  6
Continuous
 62
     7
370
    25
100
AcDbLine
 10
160.8796698167
 20
72.166470307
 30
0.0
 11
160.8796698167
 21
58.166470307
 31
0.0
  0
LINE
  5
9E
330
1F
100
AcDbEntity
  8
0
  6
Continuous
 62
     7
370
    25
100
AcDbLine
 10
134.8796698167
 20
58.166470307
 30
0.0
 11
134.8796698167
 21
72.166470307
 31
0.0
  0
SPLINE
  5
9F
330
1F
100
AcDbEntity
  8
0
  6
Continuous
 62
     7
370
    25
100
AcDbSpline
210
0.0
220
0.0
230
1.0
 70
    24
 71
     3
 72
    14
 73
    10
 74
     0
 42
0.00000001
 43
0.00000001
 40
0.0
 40
0.0
 40
0.0
 40
0.0
 40
0.125
 40
0.125
 40
0.25
 40
0.25
 40
0.5
 40
0.5
 40
1.0
 40
1.0
 40
1.0
 40
1.0
 10
134.8796698166977
 20
72.16647030702939
 30
0.0
 10
134.8796698166977
 20
72.16647030702939
 30
0.0
 10
134.8881981735179
 20
72.16647030702939
 30
0.0
 10
134.9223851069057
 20
72.16647030702939
 30
0.0
 10
134.9481326399467
 20
72.16647030702939
 30
0.0
 10
135.0494445825792
 20
72.16647030702939
 30
0.0
 10
135.1491626165966
 20
72.16647030702939
 30
0.0
 10
135.52999059783
 20
72.16647030702939
 30
0.0
 10
135.8920073769887
 20
72.16647030702939
 30
0.0
 10
136.3230454896718
 20
72.16647030702939
 30
0.0
  0
LINE
  5
A0
330
1F
100
AcDbEntity
  8
0
  6
Continuous
 62
     7
370
    25
100
AcDbLine
 10
160.8796698167
 20
58.166470307
 30
0.0
 11
160.8796698167
 21
44.166470307
 31
0.0
  0
SPLINE
  5
A1
330
1F
100
AcDbEntity
  8
0
  6
Continuous
 62
     7
370
    25
100
AcDbSpline
210
0.0
220
0.0
230
1.0
 70
    24
 71
     3
 72
    12
 73
     8
 74
     0
 42
0.00000001
 43
0.00000001
 40
0.0
 40
0.0
 40
0.0
 40
0.0
 40
0.25
 40
0.25
 40
0.5
 40
0.5
 40
1.0
 40
1.0
 40
1.0
 40
1.0
 10
160.8796698166977
 20
44.16647030702939
 30
0.0
 10
160.8796698166977
 20
44.16647030702939
 30
0.0
 10
160.8448604517332
 20
44.16647030702939
 30
0.0
 10
160.7098202716258
 20
44.16647030702939
 30
0.0
 10
160.6101568029926
 20
44.16647030702939
 30
0.0
 10
160.2294618866407
 20
44.16647030702938
 30
0.0
 10
159.8674776636958
 20
44.16647030702939
 30
0.0
 10
159.4362941437237
 20
44.16647030702939
 30
0.0
  0
LINE
  5
A2
330
1F
100
AcDbEntity
  8
0
  6
Continuous
 62
     7
370
    25
100
AcDbLine
 10
159.4362941437
 20
49.4343457087
 30
0.0
 11
159.4362941437
 21
44.166470307
 31
0.0
  0
LINE
  5
A3
330
1F
100
AcDbEntity
  8
0
  6
Continuous
 62
     7
370
    25
100
AcDbLine
 10
159.4362941437
 20
44.166470307
 30
0.0
 11
136.3230454897
 21
44.166470307
 31
0.0
  0
LINE
  5
A4
330
1F
100
AcDbEntity
  8
0
  6
Continuous
 62
     7
370
    25
100
AcDbLine
 10
136.3230454897
 20
44.166470307
 30
0.0
 11
136.3230454897
 21
49.4343457087
 31
0.0
  0
SPLINE
  5
A5
330
1F
100
AcDbEntity
  8
0
  6
Continuous
 62
     7
370
    25
100
AcDbSpline
210
0.0
220
0.0
230
1.0
 70
    24
 71
     3
 72
    14
 73
    10
 74
     0
 42
0.00000001
 43
0.00000001
 40
0.0
 40
0.0
 40
0.0
 40
0.0
 40
0.125
 40
0.125
 40
0.25
 40
0.25
 40
0.5
 40
0.5
 40
1.0
 40
1.0
 40
1.0
 40
1.0
 10
134.8796698166977
 20
44.16647030702939
 30
0.0
 10
134.8796698166977
 20
44.16647030702939
 30
0.0
 10
134.8881981735179
 20
44.16647030702939
 30
0.0
 10
134.9223851069059
 20
44.16647030702939
 30
0.0
 10
134.9481326399469
 20
44.16647030702939
 30
0.0
 10
135.0494445825795
 20
44.16647030702939
 30
0.0
 10
135.1491626165967
 20
44.16647030702938
 30
0.0
 10
135.5299905978298
 20
44.16647030702938
 30
0.0
 10
135.8920073769885
 20
44.16647030702939
 30
0.0
 10
136.3230454896718
 20
44.16647030702939
 30
0.0
  0
LINE
  5
A6
330
1F
100
AcDbEntity
  8
0
  6
Continuous
 62
     7
370
    25
100
AcDbLine
 10
134.8796698167
 20
44.166470307
 30
0.0
 11
134.8796698167
 21
58.166470307
 31
0.0
  0
LINE
  5
A7
330
1F
100
AcDbEntity
  8
0
  6
Continuous
 62
     7
370
    25
100
AcDbLine
 10
174.2744934777
 20
58.166470307
 30
0.0
 11
174.2744934777
 21
71.1705695676
 31
0.0
  0
LINE
  5
A8
330
1F
100
AcDbEntity
  8
0
  6
Continuous
 62
     7
370
    25
100
AcDbLine
 10
174.2744934777
 20
45.1623710464
 30
0.0
 11
174.2744934777
 21
58.166470307
 31
0.0
  0
LINE
  5
A9
330
1F
100
AcDbEntity
  8
0
  6
Continuous
 62
     7
370
    25
100
AcDbLine
 10
176.8796698167
 20
69.666470307
 30
0.0
 11
176.8796698167
 21
46.666470307
 31
0.0
  0
ARC
  5
AA
330
1F
100
AcDbEntity
  8
0
  6
Continuous
 62
     7
370
    25
100
AcDbCircle
 10
150.3872603343
 20
72.5419805111
 30
0.0
 40
1.984426035125824
100
AcDbArc
 50
176.4032790661
 51
190.9077708916
  0
SPLINE
  5
AB
330
1F
100
AcDbEntity
  8
0
  6
Continuous
 62
     7
370
    25
100
AcDbSpline
210
0.0
220
0.0
230
1.0
 70
    24
 71
     3
 72
     8
 73
     4
 74
     0
 42
0.00000001
 43
0.00000001
 40
0.0
 40
0.0
 40
0.0
 40
0.0
 40
1.0
 40
1.0
 40
1.0
 40
1.0
 10
147.3525966505728
 20
72.66647030702939
 30
0.0
 10
147.7039787613228
 20
72.66647030702939
 30
0.0
 10
148.0553608720727
 20
72.66647030702939
 30
0.0
 10
148.4067429828226
 20
72.66647030702939
 30
0.0
  0
ARC
  5
AC
330
1F
100
AcDbEntity
  8
0
  6
Continuous
 62
     7
370
    25
100
AcDbCircle
 10
145.3720792991
 20
72.5419805111
 30
0.0
 40
1.984426035125966
100
AcDbArc
 50
349.0922291084
 51
3.5967209339
  0
LINE
  5
AD
330
1F
100
AcDbEntity
  8
0
  6
Continuous
 62
     7
370
    25
100
AcDbLine
 10
147.8796698167
 20
77.666470307
 30
0.0
 11
139.6296698167
 21
77.666470307
 31
0.0
  0
LINE
  5
AE
330
1F
100
AcDbEntity
  8
0
  6
Continuous
 62
     7
370
    25
100
AcDbLine
 10
156.1296698167
 20
77.666470307
 30
0.0
 11
147.8796698167
 21
77.666470307
 31
0.0
  0
LINE
  5
AF
330
1F
100
AcDbEntity
  8
0
  6
Continuous
 62
     7
370
    25
100
AcDbLine
 10
147.8796698167
 20
78.166470307
 30
0.0
 11
155.6296698167
 21
78.166470307
 31
0.0
  0
LINE
  5
B0
330
1F
100
AcDbEntity
  8
0
  6
Continuous
 62
     7
370
    25
100
AcDbLine
 10
140.1296698167
 20
78.166470307
 30
0.0
 11
147.8796698167
 21
78.166470307
 31
0.0
  0
ARC
  5
B1
330
1F
100
AcDbEntity
  8
0
  6
Continuous
 62
     7
370
    25
100
AcDbCircle
 10
146.8127181475
 20
94.3675463578
 30
0.0
 40
2.36767830360417
100
AcDbArc
 50
93.3632881502
 51
99.4868245016
  0
ARC
  5
B2
330
1F
100
AcDbEntity
  8
0
  6
Continuous
 62
     7
370
    25
100
AcDbCircle
 10
148.9466251725
 20
94.3675876086
 30
0.0
 40
2.367636907560175
100
AcDbArc
 50
80.5187694297
 51
86.6367422681
  0
SPLINE
  5
B3
330
1F
100
AcDbEntity
  8
0
  6
Continuous
 62
     7
370
    25
100
AcDbSpline
210
0.0
220
0.0
230
1.0
 70
     8
 71
     3
 72
    15
 73
    11
 74
     0
 42
0.00000001
 43
0.00000001
 40
0.0
 40
0.0
 40
0.0
 40
0.0
 40
0.1233867499278388
 40
0.2487396502211602
 40
0.3739317114754985
 40
0.4999973617625659
 40
0.6259591330513601
 40
0.7512551380600303
 40
0.8765613478174267
 40
1.0
 40
1.0
 40
1.0
 40
1.0
 10
147.8167869518917
 20
96.76636320433387
 30
0.0
 10
147.8196651530835
 20
96.76636386340601
 30
0.0
 10
147.8254674191952
 20
96.76636519205253
 30
0.0
 10
147.8409968239159
 20
96.76636914167966
 30
0.0
 10
147.8593514057893
 20
96.76637092402906
 30
0.0
 10
147.8796642222723
 20
96.766372477607
 30
0.0
 10
147.8999826399874
 20
96.76637092347207
 30
0.0
 10
147.9183355091515
 20
96.7663691465915
 30
0.0
 10
147.933873613547
 20
96.76636517907336
 30
0.0
 10
147.9396741755783
 20
96.76636385927739
 30
0.0
 10
147.9425526815038
 20
96.76636320433387
 30
0.0
  0
ARC
  5
B4
330
1F
100
AcDbEntity
  8
0
  6
Continuous
 62
     7
370
    25
100
AcDbCircle
 10
147.8176813795
 20
94.2220137915
 30
0.0
 40
2.544349570058781
100
AcDbArc
 50
90.0201414662
 51
95.4127462174
  0
SPLINE
  5
B5
330
1F
100
AcDbEntity
  8
0
  6
Continuous
 62
     7
370
    25
100
AcDbSpline
210
0.0
220
0.0
230
1.0
 70
     8
 71
     3
 72
    15
 73
    11
 74
     0
 42
0.00000001
 43
0.00000001
 40
0.0
 40
0.0
 40
0.0
 40
0.0
 40
0.1261585224210644
 40
0.2513121451548802
 40
0.3762846848783791
 40
0.4993062783340883
 40
0.6261594278645745
 40
0.7521171342021309
 40
0.8758196922692798
 40
1.0
 40
1.0
 40
1.0
 40
1.0
 10
147.64055629102
 20
96.75312007292315
 30
0.0
 10
147.6353251945313
 20
96.75306914717267
 30
0.0
 10
147.6249046691887
 20
96.75296770131432
 30
0.0
 10
147.6101181186743
 20
96.75296351967708
 30
0.0
 10
147.5969277660487
 20
96.75306285849769
 30
0.0
 10
147.5860571912075
 20
96.75328340070078
 30
0.0
 10
147.5780496038789
 20
96.75360726810223
 30
0.0
 10
147.5738829768462
 20
96.7540271379497
 30
0.0
 10
147.5732619253346
 20
96.75450585501544
 30
0.0
 10
147.5762010376894
 20
96.75484714426099
 30
0.0
 10
147.5776734261721
 20
96.75501811777062
 30
0.0
  0
ARC
  5
B6
330
1F
100
AcDbEntity
  8
0
  6
Continuous
 62
     7
370
    25
100
AcDbCircle
 10
147.8796698167
 20
76.166470307
 30
0.0
 40
20.58803836847347
100
AcDbArc
 50
89.3345405821
 51
90.66545941
  0
SPLINE
  5
B7
330
1F
100
AcDbEntity
  8
0
  6
Continuous
 62
     7
370
    25
100
AcDbSpline
210
0.0
220
0.0
230
1.0
 70
     8
 71
     3
 72
    15
 73
    11
 74
     0
 42
0.00000001
 43
0.00000001
 40
0.0
 40
0.0
 40
0.0
 40
0.0
 40
0.1241186784437694
 40
0.2478474916628981
 40
0.373657414947894
 40
0.5005082335853294
 40
0.6234527658309922
 40
0.7484986612277523
 40
0.8736976492452768
 40
1.0
 40
1.0
 40
1.0
 40
1.0
 10
148.1816662099493
 20
96.75501811773732
 30
0.0
 10
148.1831372825582
 20
96.75484723745883
 30
0.0
 10
148.1860748070365
 20
96.75450601364845
 30
0.0
 10
148.1854580725364
 20
96.75402747736095
 30
0.0
 10
148.1812961109418
 20
96.75360768748905
 30
0.0
 10
148.1732973631434
 20
96.75328389964265
 30
0.0
 10
148.1624312716066
 20
96.75306320143697
 30
0.0
 10
148.149243553782
 20
96.75296360952677
 30
0.0
 10
148.1344491072068
 20
96.75296752392539
 30
0.0
 10
148.1240205162995
 20
96.7530690747308
 30
0.0
 10
148.118783345185
 20
96.75312007289052
 30
0.0
  0
ARC
  5
B8
330
1F
100
AcDbEntity
  8
0
  6
Continuous
 62
     7
370
    25
100
AcDbCircle
 10
147.9416582538
 20
94.2220137393
 30
0.0
 40
2.544349622285406
100
AcDbArc
 50
84.5872538302
 51
89.9798585321
  0
SPLINE
  5
B9
330
1F
100
AcDbEntity
  8
0
  6
Continuous
 62
     7
370
    25
100
AcDbSpline
210
0.0
220
0.0
230
1.0
 70
     8
 71
     3
 72
    13
 73
     9
 74
     0
 42
0.00000001
 43
0.00000001
 40
0.0
 40
0.0
 40
0.0
 40
0.0
 40
0.1374692963454099
 40
0.2749820892813126
 40
0.4163021045260215
 40
0.5576318202769774
 40
0.777008491451321
 40
1.0
 40
1.0
 40
1.0
 40
1.0
 10
128.3554690493417
 20
87.94284290905566
 30
0.0
 10
128.8407969407054
 20
87.85660249962675
 30
0.0
 10
129.8116062857853
 20
87.68409439348464
 30
0.0
 10
131.2322986535951
 20
87.28511232016164
 30
0.0
 10
132.6243949786112
 20
86.78480290868939
 30
0.0
 10
134.2287541628529
 20
86.05598243708664
 30
0.0
 10
136.0196220384852
 20
85.03976348688498
 30
0.0
 10
137.2562854017002
 20
84.05218020058145
 30
0.0
 10
137.8796698166977
 20
83.55435351022552
 30
0.0
  0
ELLIPSE
  5
BA
330
1F
100
AcDbEntity
  8
0
  6
Continuous
 62
     7
370
    25
100
AcDbEllipse
 10
250.3935652891
 20
81.2882930253
 30
0.0
 11
171.000000000001
 21
0.0
 31
0.0
210
0.0
220
0.0
230
1.0
 40
0.0555555556
 41
2.292395939553286
 42
2.365524293035123
  0
LINE
  5
BB
330
1F
100
AcDbEntity
  8
0
  6
Continuous
 62
     7
370
    25
100
AcDbLine
 10
137.4332864618
 20
88.4204180977
 30
0.0
 11
137.8796698167
 21
88.3829561318
 31
0.0
  0
LINE
  5
BC
330
1F
100
AcDbEntity
  8
0
  6
Continuous
 62
     7
370
    25
100
AcDbLine
 10
137.8796698167
 20
83.5543535102
 30
0.0
 11
137.8796698167
 21
88.3829561318
 31
0.0
  0
SPLINE
  5
BD
330
1F
100
AcDbEntity
  8
0
  6
Continuous
 62
     7
370
    25
100
AcDbSpline
210
0.0
220
0.0
230
1.0
 70
     8
 71
     3
 72
    11
 73
     7
 74
     0
 42
0.00000001
 43
0.00000001
 40
0.0
 40
0.0
 40
0.0
 40
0.0
 40
0.2795638428677821
 40
0.5590315779132456
 40
0.7794196683689406
 40
1.0
 40
1.0
 40
1.0
 40
1.0
 10
125.4433418626202
 20
88.1664703070294
 30
0.0
 10
125.3197685168441
 20
88.2049891589775
 30
0.0
 10
125.0726643070557
 20
88.28201362095031
 30
0.0
 10
124.8189083991324
 20
88.81481151874002
 30
0.0
 10
124.7022899581519
 20
89.44254808560639
 30
0.0
 10
124.7288093441871
 20
89.84353090177504
 30
0.0
 10
124.7420748177977
 20
90.04410971453962
 30
0.0
  0
SPLINE
  5
BE
330
1F
100
AcDbEntity
  8
0
  6
Continuous
 62
     7
370
    25
100
AcDbSpline
210
0.0
220
0.0
230
1.0
 70
     8
 71
     3
 72
     9
 73
     5
 74
     0
 42
0.00000001
 43
0.00000001
 40
0.0
 40
0.0
 40
0.0
 40
0.0
 40
0.4986740982738611
 40
1.0
 40
1.0
 40
1.0
 40
1.0
 10
126.0336353588666
 20
90.07391073997007
 30
0.0
 10
125.8271617177968
 20
90.07537581922672
 30
0.0
 10
125.4131164690372
 20
90.07831376860435
 30
0.0
 10
124.9661503670923
 20
90.05553048967263
 30
0.0
 10
124.7420746829938
 20
90.04410864181791
 30
0.0
  0
SPLINE
  5
BF
330
1F
100
AcDbEntity
  8
0
  6
Continuous
 62
     7
370
    25
100
AcDbSpline
210
0.0
220
0.0
230
1.0
 70
     8
 71
     3
 72
    13
 73
     9
 74
     0
 42
0.00000001
 43
0.00000001
 40
0.0
 40
0.0
 40
0.0
 40
0.0
 40
0.3327087167328944
 40
0.5628656559531304
 40
0.6987124125384707
 40
0.8016200683166474
 40
0.9052998751809803
 40
1.0
 40
1.0
 40
1.0
 40
1.0
 10
128.0244360991372
 20
87.99101734588028
 30
0.0
 10
127.6620452688101
 20
88.07680292079841
 30
0.0
 10
127.0489643900567
 20
88.22193213283641
 30
0.0
 10
126.3994190653943
 20
88.67229882926372
 30
0.0
 10
126.0567220497962
 20
89.07203997786958
 30
0.0
 10
125.9077984386525
 20
89.42793222428114
 30
0.0
 10
125.8956257192258
 20
89.77536607131536
 30
0.0
 10
125.9890423130459
 20
89.97744494249444
 30
0.0
 10
126.0336363554971
 20
90.0739108206786
 30
0.0
  0
SPLINE
  5
C0
330
1F
100
AcDbEntity
  8
0
  6
Continuous
 62
     7
370
    25
100
AcDbSpline
210
0.0
220
0.0
230
1.0
 70
     8
 71
     3
 72
     9
 73
     5
 74
     0
 42
0.00000001
 43
0.00000001
 40
0.0
 40
0.0
 40
0.0
 40
0.0
 40
0.5551829690770672
 40
1.0
 40
1.0
 40
1.0
 40
1.0
 10
125.4433418626202
 20
88.1664703070294
 30
0.0
 10
125.9733647363414
 20
88.15347128653835
 30
0.0
 10
126.9280461715488
 20
88.1300573469633
 30
0.0
 10
127.6868896127063
 20
88.03382370761159
 30
0.0
 10
128.0244360991372
 20
87.99101734588028
 30
0.0
  0
LINE
  5
C1
330
1F
100
AcDbEntity
  8
0
  6
Continuous
 62
     7
370
    25
100
AcDbLine
 10
137.8796698167
 20
93.666470307
 30
0.0
 11
137.4332864618
 21
93.666470307
 31
0.0
  0
ARC
  5
C2
330
1F
100
AcDbEntity
  8
0
  6
Continuous
 62
     7
370
    25
100
AcDbCircle
 10
144.2560988753
 20
94.0403164609
 30
0.0
 40
6.83304691755457
100
AcDbArc
 50
170.513808076
 51
183.1363032674
  0
ARC
  5
C3
330
1F
100
AcDbEntity
  8
0
  6
Continuous
 62
     7
370
    25
100
AcDbCircle
 10
137.5121019504
 20
94.3762203586
 30
0.0
 40
0.7902621394872388
100
AcDbArc
 50
62.2819181136
 51
89.6817467964
  0
LINE
  5
C4
330
1F
100
AcDbEntity
  8
0
  6
Continuous
 62
     7
370
    25
100
AcDbLine
 10
137.8796698167
 20
93.666470307
 30
0.0
 11
137.8796698167
 21
95.0757974542
 31
0.0
  0
LINE
  5
C5
330
1F
100
AcDbEntity
  8
0
  6
Continuous
 62
     7
370
    25
100
AcDbLine
 10
137.4332864618
 20
93.666470307
 30
0.0
 11
137.4332864618
 21
88.4204180977
 31
0.0
  0
LINE
  5
C6
330
1F
100
AcDbEntity
  8
0
  6
Continuous
 62
     7
370
    25
100
AcDbLine
 10
137.8796698167
 20
88.3829561318
 30
0.0
 11
137.8796698167
 21
93.666470307
 31
0.0
  0
LINE
  5
C7
330
1F
100
AcDbEntity
  8
0
  6
Continuous
 62
     7
370
    25
100
AcDbLine
 10
126.0334622852
 20
90.0740112264
 30
0.0
 11
128.0994160201
 21
93.6665813129
 31
0.0
  0
LINE
  5
C8
330
1F
100
AcDbEntity
  8
0
  6
Continuous
 62
     7
370
    25
100
AcDbLine
 10
128.0996084503
 20
93.666470307
 30
0.0
 11
137.4332864618
 21
93.666470307
 31
0.0
  0
ARC
  5
C9
330
1F
100
AcDbEntity
  8
0
  6
Continuous
 62
     7
370
    25
100
AcDbCircle
 10
125.4433418627
 20
69.0934630598
 30
0.0
 40
19.07300724724772
100
AcDbArc
 50
81.2175477188
 51
82.2224666688
  0
LINE
  5
CA
330
1F
100
AcDbEntity
  8
0
  6
Continuous
 62
     7
370
    25
100
AcDbLine
 10
137.5164914912
 20
95.166470307
 30
0.0
 11
126.1007622077
 21
95.166470307
 31
0.0
  0
SPLINE
  5
CB
330
1F
100
AcDbEntity
  8
0
  6
Continuous
 62
     7
370
    25
100
AcDbSpline
210
0.0
220
0.0
230
1.0
 70
     8
 71
     3
 72
    15
 73
    11
 74
     0
 42
0.00000001
 43
0.00000001
 40
0.0
 40
0.0
 40
0.0
 40
0.0
 40
0.2070474010410781
 40
0.417596863024684
 40
0.5931232720441638
 40
0.6923428991082528
 40
0.773099683107911
 40
0.8543284120985949
 40
0.9261475166372038
 40
1.0
 40
1.0
 40
1.0
 40
1.0
 10
126.0981959210123
 20
95.16645558092338
 30
0.0
 10
126.3292851579771
 20
95.16260534208207
 30
0.0
 10
126.7953723435687
 20
95.15483974032156
 30
0.0
 10
127.4199701428758
 20
95.06818977758414
 30
0.0
 10
127.8816493333065
 20
94.89823926804151
 30
0.0
 10
128.1435530322903
 20
94.66887441069296
 30
0.0
 10
128.2640196884214
 20
94.43108094541364
 30
0.0
 10
128.2828137266172
 20
94.16916796814039
 30
0.0
 10
128.2217753346171
 20
93.903625566125
 30
0.0
 10
128.1405802410023
 20
93.74632794311127
 30
0.0
 10
128.0994160072165
 20
93.66658130031026
 30
0.0
  0
SPLINE
  5
CC
330
1F
100
AcDbEntity
  8
0
  6
Continuous
 62
     7
370
    25
100
AcDbSpline
210
0.0
220
0.0
230
1.0
 70
     8
 71
     3
 72
    11
 73
     7
 74
     0
 42
0.00000001
 43
0.00000001
 40
0.0
 40
0.0
 40
0.0
 40
0.0
 40
0.249115000282908
 40
0.4989585322854286
 40
0.7493328274976518
 40
1.0
 40
1.0
 40
1.0
 40
1.0
 10
124.7420748177977
 20
90.04410971453962
 30
0.0
 10
124.3163635364843
 20
90.01785660657079
 30
0.0
 10
123.4636959899284
 20
89.96527361395621
 30
0.0
 10
122.1001302286766
 20
89.88095258372972
 30
0.0
 10
120.6994576114644
 20
89.794219314918
 30
0.0
 10
119.7486373759772
 20
89.7352417494904
 30
0.0
 10
119.2729493634166
 20
89.7057357294912
 30
0.0
  0
SPLINE
  5
CD
330
1F
100
AcDbEntity
  8
0
  6
Continuous
 62
     7
370
    25
100
AcDbSpline
210
0.0
220
0.0
230
1.0
 70
     8
 71
     3
 72
     9
 73
     5
 74
     0
 42
0.00000001
 43
0.00000001
 40
0.0
 40
0.0
 40
0.0
 40
0.0
 40
0.5599987526606142
 40
1.0
 40
1.0
 40
1.0
 40
1.0
 10
121.836850731074
 20
94.67955878118322
 30
0.0
 10
121.3570844731868
 20
93.7517174813339
 30
0.0
 10
120.5003571044065
 20
92.09485432683393
 30
0.0
 10
119.6479913559339
 20
90.43574562692345
 30
0.0
 10
119.2729493634166
 20
89.70573572949122
 30
0.0
  0
SPLINE
  5
CE
330
1F
100
AcDbEntity
  8
0
  6
Continuous
 62
     7
370
    25
100
AcDbSpline
210
0.0
220
0.0
230
1.0
 70
     8
 71
     3
 72
     9
 73
     5
 74
     0
 42
0.00000001
 43
0.00000001
 40
0.0
 40
0.0
 40
0.0
 40
0.0
 40
0.5600000882143319
 40
1.0
 40
1.0
 40
1.0
 40
1.0
 10
122.3413378686261
 20
95.65338183287534
 30
0.0
 10
122.2471254530944
 20
95.47162296204355
 30
0.0
 10
122.0788890232894
 20
95.1470536009719
 30
0.0
 10
121.9108068656209
 20
94.8224044006751
 30
0.0
 10
121.836850731074
 20
94.67955878118322
 30
0.0
  0
SPLINE
  5
CF
330
1F
100
AcDbEntity
  8
0
  6
Continuous
 62
     7
370
    25
100
AcDbSpline
210
0.0
220
0.0
230
1.0
 70
     8
 71
     3
 72
    10
 73
     6
 74
     0
 42
0.00000001
 43
0.00000001
 40
0.0
 40
0.0
 40
0.0
 40
0.0
 40
0.428349366631063
 40
0.7616603141144169
 40
1.0
 40
1.0
 40
1.0
 40
1.0
 10
122.3413378686263
 20
95.65338183287554
 30
0.0
 10
122.7882650699093
 20
95.5515855700524
 30
0.0
 10
123.5829591655089
 20
95.37057871079784
 30
0.0
 10
124.6195139665145
 20
95.19691632784475
 30
0.0
 10
125.2053792995149
 20
95.17542904994897
 30
0.0
 10
125.4496455546149
 20
95.16647030702931
 30
0.0
  0
LINE
  5
D0
330
1F
100
AcDbEntity
  8
0
  6
Continuous
 62
     7
370
    25
100
AcDbLine
 10
125.4475453946
 20
95.166470307
 30
0.0
 11
126.0981988606
 21
95.166470307
 31
0.0
  0
LINE
  5
D1
330
1F
100
AcDbEntity
  8
0
  6
Continuous
 62
     7
370
    25
100
AcDbLine
 10
137.8796698167
 20
95.166470307
 30
0.0
 11
137.5164914912
 21
95.166470307
 31
0.0
  0
LINE
  5
D2
330
1F
100
AcDbEntity
  8
0
  6
Continuous
 62
     7
370
    25
100
AcDbLine
 10
137.8796698167
 20
95.0757974542
 30
0.0
 11
137.8796698167
 21
95.166470307
 31
0.0
  0
SPLINE
  5
D3
330
1F
100
AcDbEntity
  8
0
  6
Continuous
 62
     7
370
    25
100
AcDbSpline
210
0.0
220
0.0
230
1.0
 70
    24
 71
     3
 72
    11
 73
     7
 74
     0
 42
0.00000001
 43
0.00000001
 40
0.0
 40
0.0
 40
0.0
 40
0.0
 40
0.2799857774483057
 40
0.5599458358671288
 40
0.779998565900937
 40
0.9999999999999999
 40
0.9999999999999999
 40
0.9999999999999999
 40
0.9999999999999999
 10
119.3122013305988
 20
88.1664703070294
 30
0.0
 10
119.9095253176828
 20
88.1664703070294
 30
0.0
 10
121.1041184226593
 20
88.1664703070294
 30
0.0
 10
122.7314801781419
 20
88.1664703070294
 30
0.0
 10
124.18720974764
 20
88.1664703070294
 30
0.0
 10
125.0246636975478
 20
88.1664703070294
 30
0.0
 10
125.4433418626202
 20
88.1664703070294
 30
0.0
  0
SPLINE
  5
D4
330
1F
100
AcDbEntity
  8
0
  6
Continuous
 62
     7
370
    25
100
AcDbSpline
210
0.0
220
0.0
230
1.0
 70
     8
 71
     3
 72
    11
 73
     7
 74
     0
 42
0.00000001
 43
0.00000001
 40
0.0
 40
0.0
 40
0.0
 40
0.0
 40
0.2500000000000001
 40
0.4999999999999997
 40
0.75
 40
1.0
 40
1.0
 40
1.0
 40
1.0
 10
119.3122013305988
 20
88.1664703070294
 30
0.0
 10
119.3069702968387
 20
88.1897918393377
 30
0.0
 10
119.2965082293184
 20
88.2364349039543
 30
0.0
 10
119.2833937414511
 20
88.59441597232102
 30
0.0
 10
119.2743693979572
 20
89.10460891036296
 30
0.0
 10
119.2734227082635
 20
89.50536012311514
 30
0.0
 10
119.2729493634166
 20
89.70573572949121
 30
0.0
  0
SPLINE
  5
D5
330
1F
100
AcDbEntity
  8
0
  6
Continuous
 62
     7
370
    25
100
AcDbSpline
210
0.0
220
0.0
230
1.0
 70
     8
 71
     3
 72
    11
 73
     7
 74
     0
 42
0.00000001
 43
0.00000001
 40
0.0
 40
0.0
 40
0.0
 40
0.0
 40
0.2499999999999989
 40
0.4999999999999996
 40
0.749999999999999
 40
1.0
 40
1.0
 40
1.0
 40
1.0
 10
134.8665992829166
 20
95.16647030702937
 30
0.0
 10
134.8682857534206
 20
95.17373261668152
 30
0.0
 10
134.8716586944284
 20
95.18825723598582
 30
0.0
 10
134.8759385913297
 20
95.3002294395783
 30
0.0
 10
134.8789807121435
 20
95.46074101760328
 30
0.0
 10
134.8794490853661
 20
95.58916822778473
 30
0.0
 10
134.8796832719774
 20
95.65338183287544
 30
0.0
  0
SPLINE
  5
D6
330
1F
100
AcDbEntity
  8
0
  6
Continuous
 62
     7
370
    25
100
AcDbSpline
210
0.0
220
0.0
230
1.0
 70
     8
 71
     3
 72
    13
 73
     9
 74
     0
 42
0.00000001
 43
0.00000001
 40
0.0
 40
0.0
 40
0.0
 40
0.0
 40
0.2886949682914851
 40
0.554553683594315
 40
0.6780091910936104
 40
0.7888922083801199
 40
0.8964194071406489
 40
1.0
 40
1.0
 40
1.0
 40
1.0
 10
134.8796832719774
 20
95.65338183287544
 30
0.0
 10
135.1514084625535
 20
95.61475167899745
 30
0.0
 10
135.673364928408
 20
95.5405470807752
 30
0.0
 10
136.2709403365113
 20
95.4574843612466
 30
0.0
 10
136.6347945166908
 20
95.40850343063799
 30
0.0
 10
136.8313420082565
 20
95.38248647086648
 30
0.0
 10
136.9576252973627
 20
95.36712766052227
 30
0.0
 10
136.9724137993338
 20
95.3666866768348
 30
0.0
 10
136.9796698166977
 20
95.36647030702942
 30
0.0
  0
SPLINE
  5
D7
330
1F
100
AcDbEntity
  8
0
  6
Continuous
 62
     7
370
    25
100
AcDbSpline
210
0.0
220
0.0
230
1.0
 70
     8
 71
     3
 72
    11
 73
     7
 74
     0
 42
0.00000001
 43
0.00000001
 40
0.0
 40
0.0
 40
0.0
 40
0.0
 40
0.2500000000000007
 40
0.5000000000000022
 40
0.7500000000000036
 40
1.0
 40
1.0
 40
1.0
 40
1.0
 10
136.9796698166977
 20
95.36647030702942
 30
0.0
 10
137.0049297549019
 20
95.33709263719764
 30
0.0
 10
137.0554496313102
 20
95.2783372975341
 30
0.0
 10
137.1543082405106
 20
95.21574715465508
 30
0.0
 10
137.263695520334
 20
95.17421435302218
 30
0.0
 10
137.3410117179098
 20
95.16905165569365
 30
0.0
 10
137.3796698166977
 20
95.1664703070294
 30
0.0
  0
LINE
  5
D8
330
1F
100
AcDbEntity
  8
0
  6
Continuous
 62
     7
370
    25
100
AcDbLine
 10
134.879683272
 20
95.6533818329
 30
0.0
 11
122.3413378686
 21
95.6533818329
 31
0.0
  0
LINE
  5
D9
330
1F
100
AcDbEntity
  8
0
  6
Continuous
 62
     7
370
    25
100
AcDbLine
 10
136.9796698167
 20
95.366470307
 30
0.0
 11
134.5796698167
 21
98.566470307
 31
0.0
  0
LINE
  5
DA
330
1F
100
AcDbEntity
  8
0
  6
Continuous
 62
     7
370
    25
100
AcDbLine
 10
132.7561240185
 20
98.4847941708
 30
0.0
 11
134.879683272
 21
95.6533818329
 31
0.0
  0
ELLIPSE
  5
DB
330
1F
100
AcDbEntity
  8
0
  6
Continuous
 62
     7
370
    25
100
AcDbEllipse
 10
132.7796698167
 20
98.466470307
 30
0.0
 11
1.56006363488487
 21
0.4198716740993121
 31
0.0
210
0.0
220
0.0
230
0.9999999999999999
 40
0.0147408623
 41
0.9331929812040766
 42
1.581922327328491
  0
SPLINE
  5
DC
330
1F
100
AcDbEntity
  8
0
  6
Continuous
 62
     7
370
    25
100
AcDbSpline
210
0.0
220
0.0
230
1.0
 70
     8
 71
     3
 72
    11
 73
     7
 74
     0
 42
0.00000001
 43
0.00000001
 40
0.0
 40
0.0
 40
0.0
 40
0.0
 40
0.2307374805226512
 40
0.4903955403005855
 40
0.7438105520730652
 40
0.9999999999999999
 40
0.9999999999999999
 40
0.9999999999999999
 40
0.9999999999999999
 10
133.7033578203328
 20
98.73488630218272
 30
0.0
 10
133.7949898250923
 20
98.75360215258716
 30
0.0
 10
133.9897389676289
 20
98.79337969349852
 30
0.0
 10
134.2372465348669
 20
98.77605970493993
 30
0.0
 10
134.447055264261
 20
98.70507481261379
 30
0.0
 10
134.5353048137413
 20
98.61283919481006
 30
0.0
 10
134.5796698166978
 20
98.56647030702939
 30
0.0
  0
LINE
  5
DD
330
1F
100
AcDbEntity
  8
0
  6
Continuous
 62
     7
370
    25
100
AcDbLine
 10
119.2729493634
 20
89.7057357295
 30
0.0
 11
97.6454011947
 21
89.7057357295
 31
0.0
  0
LINE
  5
DE
330
1F
100
AcDbEntity
  8
0
  6
Continuous
 62
     7
370
    25
100
AcDbLine
 10
97.6454011947
 20
89.7057357295
 30
0.0
 11
97.8678461059
 21
98.200564166
 31
0.0
  0
ARC
  5
DF
330
1F
100
AcDbEntity
  8
0
  6
Continuous
 62
     7
370
    25
100
AcDbCircle
 10
98.4793862208
 20
97.6847941708
 30
0.0
 40
0.8000000000000114
100
AcDbArc
 50
90.0
 51
139.8558773282
  0
LINE
  5
E0
330
1F
100
AcDbEntity
  8
0
  6
Continuous
 62
     7
370
    25
100
AcDbLine
 10
98.4793862208
 20
98.4847941708
 30
0.0
 11
132.7561240185
 21
98.4847941708
 31
0.0
  0
SPLINE
  5
E1
330
1F
100
AcDbEntity
  8
0
  6
Continuous
 62
     7
370
    25
100
AcDbSpline
210
0.0
220
0.0
230
1.0
 70
     8
 71
     3
 72
    11
 73
     7
 74
     0
 42
0.00000001
 43
0.00000001
 40
0.0
 40
0.0
 40
0.0
 40
0.0
 40
0.249999999999998
 40
0.4999999999999973
 40
0.7500000000000001
 40
1.0
 40
1.0
 40
1.0
 40
1.0
 10
98.4793862207626
 20
98.4847941708449
 30
0.0
 10
98.47971408201842
 20
98.57469321797193
 30
0.0
 10
98.48036980453004
 20
98.75449131222594
 30
0.0
 10
98.48462877366929
 20
98.97920752146092
 30
0.0
 10
98.49062062933113
 20
99.1359686064904
 30
0.0
 10
98.49534274674212
 20
99.15630307351638
 30
0.0
 10
98.49770380544763
 20
99.16647030702941
 30
0.0
  0
LINE
  5
E2
330
1F
100
AcDbEntity
  8
0
  6
Continuous
 62
     7
370
    25
100
AcDbLine
 10
132.7744416032
 20
99.166470307
 30
0.0
 11
98.4977038054
 21
99.166470307
 31
0.0
  0
SPLINE
  5
E3
330
1F
100
AcDbEntity
  8
0
  6
Continuous
 62
     7
370
    25
100
AcDbSpline
210
0.0
220
0.0
230
1.0
 70
     8
 71
     3
 72
    11
 73
     7
 74
     0
 42
0.00000001
 43
0.00000001
 40
0.0
 40
0.0
 40
0.0
 40
0.0
 40
0.2499999999999988
 40
0.5000000000000004
 40
0.7499999999999976
 40
1.0
 40
1.0
 40
1.0
 40
1.0
 10
132.7744416031853
 20
99.16647030702941
 30
0.0
 10
132.7720805444798
 20
99.1563030735164
 30
0.0
 10
132.7673584270688
 20
99.13596860649041
 30
0.0
 10
132.761366571407
 20
98.97920752146089
 30
0.0
 10
132.7571076022677
 20
98.75449131222597
 30
0.0
 10
132.7564518797561
 20
98.57469321797193
 30
0.0
 10
132.7561240185003
 20
98.4847941708449
 30
0.0
  0
LINE
  5
E4
330
1F
100
AcDbEntity
  8
0
  6
Continuous
 62
     7
370
    25
100
AcDbLine
 10
133.3796698167
 20
99.166470307
 30
0.0
 11
132.7744416032
 21
99.166470307
 31
0.0
  0
SPLINE
  5
E5
330
1F
100
AcDbEntity
  8
0
  6
Continuous
 62
     7
370
    25
100
AcDbSpline
210
0.0
220
0.0
230
1.0
 70
     8
 71
     3
 72
    10
 73
     6
 74
     0
 42
0.00000001
 43
0.00000001
 40
0.0
 40
0.0
 40
0.0
 40
0.0
 40
0.2808335173386708
 40
0.5616510917414125
 40
1.0
 40
1.0
 40
1.0
 40
1.0
 10
133.3796698166977
 20
99.16647030702941
 30
0.0
 10
133.4180202656602
 20
99.15889569876147
 30
0.0
 10
133.4947189864277
 20
99.1437469122366
 30
0.0
 10
133.6198733364697
 20
99.01011597917694
 30
0.0
 10
133.671742402823
 20
98.8391152648187
 30
0.0
 10
133.7033578203328
 20
98.7348863021827
 30
0.0
  0
LINE
  5
E6
330
1F
100
AcDbEntity
  8
0
  6
Continuous
 62
     7
370
    25
100
AcDbLine
 10
97.6454011947
 20
89.7057357295
 30
0.0
 11
97.6024087672
 21
89.6428486446
 31
0.0
  0
ELLIPSE
  5
E7
330
1F
100
AcDbEntity
  8
0
  6
Continuous
 62
     7
370
    25
100
AcDbEllipse
 10
93.3796698167
 20
89.666470307
 30
0.0
 11
0.5000325503427945
 21
1.499994860148007
 31
0.0
210
0.0
220
0.0
230
1.0
 40
0.0078530307
 41
2.363888000156533
 42
3.144210503885704
  0
SPLINE
  5
E8
330
1F
100
AcDbEntity
  8
0
  6
Continuous
 62
     7
370
    25
100
AcDbSpline
210
0.0
220
0.0
230
1.0
 70
     8
 71
     3
 72
    12
 73
     8
 74
     0
 42
0.00000001
 43
0.00000001
 40
0.0
 40
0.0
 40
0.0
 40
0.0
 40
0.0715202026166142
 40
0.1260836237049476
 40
0.3855387013103047
 40
0.8475626424815554
 40
1.0
 40
1.0
 40
1.0
 40
1.0
 10
93.35424120369716
 20
88.99477825667859
 30
0.0
 10
93.3397870689183
 20
88.99166960881377
 30
0.0
 10
93.31430574163223
 20
88.98618934487044
 30
0.0
 10
93.24783401398606
 20
88.94660079945004
 30
0.0
 10
93.14312962685304
 20
88.84016666646774
 30
0.0
 10
93.05630106800669
 20
88.7096596507595
 30
0.0
 10
93.02330450129683
 20
88.62214993679618
 30
0.0
 10
93.0151186164459
 20
88.60044027081362
 30
0.0
  0
ELLIPSE
  5
E9
330
1F
100
AcDbEntity
  8
0
  6
Continuous
 62
     7
370
    25
100
AcDbEllipse
 10
61.4555329761
 20
89.666470307
 30
0.0
 11
36.17607470647088
 21
0.04043410480178977
 31
0.0
210
0.0
220
0.0
230
1.0
 40
0.0414488012
 41
5.791928562280354
 42
6.243021298617556
  0
ELLIPSE
  5
EA
330
1F
100
AcDbEntity
  8
0
  6
Continuous
 62
     7
370
    25
100
AcDbEllipse
 10
97.6846531619
 20
89.666470307
 30
0.0
 11
0.03725061189165046
 21
1.499998630535856
 31
0.0
210
0.0
220
0.0
230
1.0
 40
0.0544129722
 41
1.585352277991072
 42
1.587896030767898
  0
LINE
  5
EB
330
1F
100
AcDbEntity
  8
0
  6
Continuous
 62
     7
370
    25
100
AcDbLine
 10
92.8796698167
 20
88.166470307
 30
0.0
 11
119.3122013306
 21
88.166470307
 31
0.0
  0
SPLINE
  5
EC
330
1F
100
AcDbEntity
  8
0
  6
Continuous
 62
     7
370
    25
100
AcDbSpline
210
0.0
220
0.0
230
1.0
 70
     8
 71
     3
 72
    11
 73
     7
 74
     0
 42
0.00000001
 43
0.00000001
 40
0.0
 40
0.0
 40
0.0
 40
0.0
 40
0.2561894651307314
 40
0.509604493920692
 40
0.769274206655365
 40
1.0
 40
1.0
 40
1.0
 40
1.0
 10
134.5796698166978
 20
98.56647030702939
 30
0.0
 10
134.5040736844039
 20
98.65448067201783
 30
0.0
 10
134.3537000977292
 20
98.82954828257246
 30
0.0
 10
134.0544873117739
 20
99.019735852274
 30
0.0
 10
133.7269675768872
 20
99.1437346529997
 30
0.0
 10
133.4907891960733
 20
99.15919593887885
 30
0.0
 10
133.3796698166977
 20
99.1664703070294
 30
0.0
  0
ARC
  5
ED
330
1F
100
AcDbEntity
  8
0
  6
Continuous
 62
     7
370
    25
100
AcDbCircle
 10
102.0784080389
 20
89.6714743549
 30
0.0
 40
8.75037168228171
100
AcDbArc
 50
182.878079786
 51
184.4353064954
  0
ELLIPSE
  5
EE
330
1F
100
AcDbEntity
  8
0
  6
Continuous
 62
     7
370
    25
100
AcDbEllipse
 10
61.4286626172
 20
89.6799054865
 30
0.0
 11
36.18915847374971
 21
0.02692057091444156
 31
0.0
210
0.0
220
0.0
230
1.0
 40
0.0276225703
 41
5.791964074121238
 42
6.254836299513503
  0
SPLINE
  5
EF
330
1F
100
AcDbEntity
  8
0
  6
Continuous
 62
     7
370
    25
100
AcDbSpline
210
0.0
220
0.0
230
1.0
 70
     8
 71
     3
 72
     9
 73
     5
 74
     0
 42
0.00000001
 43
0.00000001
 40
0.0
 40
0.0
 40
0.0
 40
0.0
 40
0.8673350121728702
 40
1.0
 40
1.0
 40
1.0
 40
1.0
 10
97.60330114037336
 20
89.67848030289197
 30
0.0
 10
97.60306375474347
 20
89.66928187951677
 30
0.0
 10
97.60279005931261
 20
89.6586764926177
 30
0.0
 10
97.60253417280396
 20
89.64807086801629
 30
0.0
 10
97.60250022562342
 20
89.64666387295765
 30
0.0
  0
LINE
  5
F0
330
1F
100
AcDbEntity
  8
0
  6
Continuous
 62
     7
370
    25
100
AcDbLine
 10
97.8526008817
 20
98.1592805416
 30
0.0
 11
97.8257305228
 21
98.1727157211
 31
0.0
  0
LINE
  5
F1
330
1F
100
AcDbEntity
  8
0
  6
Continuous
 62
     7
370
    25
100
AcDbLine
 10
97.8526008817
 20
98.1592805416
 30
0.0
 11
97.6306728755
 21
89.684191911
 31
0.0
  0
LINE
  5
F2
330
1F
100
AcDbEntity
  8
0
  6
Continuous
 62
     7
370
    25
100
AcDbLine
 10
97.8257305228
 20
98.1727157211
 30
0.0
 11
97.6033011404
 21
89.6784803029
 31
0.0
  0
ARC
  5
F3
330
1F
100
AcDbEntity
  8
0
  6
Continuous
 62
     7
370
    25
100
AcDbCircle
 10
98.460085303
 20
97.6852795582
 30
0.0
 40
0.8000000000000103
100
AcDbArc
 50
142.4614409777
 51
153.4349488229
  0
LINE
  5
F4
330
1F
100
AcDbEntity
  8
0
  6
Continuous
 62
     7
370
    25
100
AcDbLine
 10
93.339073726
 20
89.2321107862
 30
0.0
 11
97.7445435502
 21
98.0430504346
 31
0.0
  0
SPLINE
  5
F5
330
1F
100
AcDbEntity
  8
0
  6
Continuous
 62
     7
370
    25
100
AcDbSpline
210
0.0
220
0.0
230
1.0
 70
    24
 71
     3
 72
    11
 73
     7
 74
     0
 42
0.00000001
 43
0.00000001
 40
0.0
 40
0.0
 40
0.0
 40
0.0
 40
0.2499999999999991
 40
0.4999999999999979
 40
0.7499999999999996
 40
1.0
 40
1.0
 40
1.0
 40
1.0
 10
97.74454355022078
 20
98.04305043464284
 30
0.0
 10
97.66630844188852
 20
98.08216798880898
 30
0.0
 10
97.50983822522397
 20
98.16040309714124
 30
0.0
 10
97.31651207380753
 20
98.25706617284946
 30
0.0
 10
97.18213564152857
 20
98.32425438898895
 30
0.0
 10
97.16475389314135
 20
98.33294526318255
 30
0.0
 10
97.15606301894776
 20
98.33729070027934
 30
0.0
  0
SPLINE
  5
F6
330
1F
100
AcDbEntity
  8
0
  6
Continuous
 62
     7
370
    25
100
AcDbSpline
210
0.0
220
0.0
230
1.0
 70
     8
 71
     3
 72
    12
 73
     8
 74
     0
 42
0.00000001
 43
0.00000001
 40
0.0
 40
0.0
 40
0.0
 40
0.0
 40
0.139683458618249
 40
0.3831896274038307
 40
0.55131692930133
 40
0.8194729461607051
 40
0.9999999999999999
 40
0.9999999999999999
 40
0.9999999999999999
 40
0.9999999999999999
 10
92.57711287579254
 20
89.17939041396886
 30
0.0
 10
92.58735425653882
 20
89.19270278762981
 30
0.0
 10
92.61544914272714
 20
89.22922224063777
 30
0.0
 10
92.72259950408191
 20
89.26689430122916
 30
0.0
 10
92.90293659149492
 20
89.29126162199064
 30
0.0
 10
93.11139273606389
 20
89.29014458722669
 30
0.0
 10
93.27374963676782
 20
89.24876129884912
 30
0.0
 10
93.33907372601621
 20
89.23211078623372
 30
0.0
  0
LINE
  5
F7
330
1F
100
AcDbEntity
  8
0
  6
Continuous
 62
     7
370
    25
100
AcDbLine
 10
97.1560630189
 20
98.3372907003
 30
0.0
 11
92.5771128758
 21
89.179390414
 31
0.0
  0
LWPOLYLINE
  5
F8
330
1F
100
AcDbEntity
  8
0
  6
Continuous
 62
     7
370
    25
100
AcDbPolyline
 90
        9
 70
   128
 43
0.0
 10
92.5771128758
 20
89.179390414
 10
92.554262386
 20
89.1030599364
 10
92.557167512
 20
89.0186599371
 10
92.585669077
 20
88.9308148366
 10
92.6382054315
 20
88.8443378182
 10
92.7118980187
 20
88.7639671059
 10
92.8027090955
 20
88.6941063485
 10
92.9056629678
 20
88.6385833365
 10
93.0151186164
 20
88.6004402708
  0
LINE
  5
F9
330
1F
100
AcDbEntity
  8
0
  6
Continuous
 62
     7
370
    25
100
AcDbLine
 10
97.7332786618
 20
98.3111828009
 30
0.0
 11
97.35106609
 21
98.6335390479
 31
0.0
  0
SPLINE
  5
FA
330
1F
100
AcDbEntity
  8
0
  6
Continuous
 62
     7
370
    25
100
AcDbSpline
210
0.0
220
0.0
230
1.0
 70
     8
 71
     3
 72
    12
 73
     8
 74
     0
 42
0.00000001
 43
0.00000001
 40
0.0
 40
0.0
 40
0.0
 40
0.0
 40
0.2198609600791294
 40
0.4397396970008148
 40
0.6583291451397767
 40
0.87912395168436
 40
1.0
 40
1.0
 40
1.0
 40
1.0
 10
97.86784610585671
 20
98.20056416595989
 30
0.0
 10
97.80793104312785
 20
98.25105238208776
 30
0.0
 10
97.68809607324185
 20
98.35203289656472
 30
0.0
 10
97.5313610849673
 20
98.48369588951478
 30
0.0
 10
97.41479276118118
 20
98.58125721228785
 30
0.0
 10
97.35853606938693
 20
98.62791660376455
 30
0.0
 10
97.35301819817063
 20
98.6320697507659
 30
0.0
 10
97.35106608999912
 20
98.63353904786997
 30
0.0
  0
SPLINE
  5
FB
330
1F
100
AcDbEntity
  8
0
  6
Continuous
 62
     7
370
    25
100
AcDbSpline
210
0.0
220
0.0
230
1.0
 70
     8
 71
     3
 72
    12
 73
     8
 74
     0
 42
0.00000001
 43
0.00000001
 40
0.0
 40
0.0
 40
0.0
 40
0.0
 40
0.0006864401058021
 40
0.2840613788817195
 40
0.5703177902163796
 40
0.8469872112136485
 40
1.0
 40
1.0
 40
1.0
 40
1.0
 10
97.8305743411672
 20
98.22988785345753
 30
0.0
 10
97.83053362341012
 20
98.22992214809445
 30
0.0
 10
97.81368387624879
 20
98.2441138915054
 30
0.0
 10
97.7844549401356
 20
98.26864617135406
 30
0.0
 10
97.75120889443687
 20
98.2964757561009
 30
0.0
 10
97.73552667132695
 20
98.30947661907369
 30
0.0
 10
97.73394644352096
 20
98.31066943195977
 30
0.0
 10
97.73338371353586
 20
98.31109420082856
 30
0.0
  0
SPLINE
  5
FC
330
1F
100
AcDbEntity
  8
0
  6
Continuous
 62
     7
370
    25
100
AcDbSpline
210
0.0
220
0.0
230
1.0
 70
     8
 71
     3
 72
    12
 73
     8
 74
     0
 42
0.00000001
 43
0.00000001
 40
0.0
 40
0.0
 40
0.0
 40
0.0
 40
0.2225634137435274
 40
0.446206317369568
 40
0.6680851268158019
 40
0.8917990985569294
 40
1.0
 40
1.0
 40
1.0
 40
1.0
 10
97.30828859257926
 20
98.58041311235
 30
0.0
 10
97.31387515868175
 20
98.57498603973627
 30
0.0
 10
97.32507538717132
 20
98.56410557180884
 30
0.0
 10
97.41912616485838
 20
98.48881214078853
 30
0.0
 10
97.55861722825642
 20
98.3793335960352
 30
0.0
 10
97.70384132809276
 20
98.26661895548874
 30
0.0
 10
97.79576449682283
 20
98.19580149804452
 30
0.0
 10
97.82573052282426
 20
98.1727157210805
 30
0.0
  0
LINE
  5
FD
330
1F
100
AcDbEntity
  8
0
  6
Continuous
 62
     7
370
    25
100
AcDbLine
 10
97.7047603302
 20
98.2757655106
 30
0.0
 11
97.3082885926
 21
98.5804131124
 31
0.0
  0
ARC
  5
FE
330
1F
100
AcDbEntity
  8
0
  6
Continuous
 62
     7
370
    25
100
AcDbCircle
 10
98.4977038054
 20
97.666470307
 30
0.0
 40
1.5
100
AcDbArc
 50
90.0
 51
139.8558773282
  0
ARC
  5
FF
330
1F
100
AcDbEntity
  8
0
  6
Continuous
 62
     7
370
    25
100
AcDbCircle
 10
98.4977038054
 20
97.666470307
 30
0.0
 40
1.500000000000002
100
AcDbArc
 50
142.4614409777
 51
153.4349488229
  0
LINE
  5
100
330
1F
100
AcDbEntity
  8
0
  6
Continuous
 62
     7
370
    25
100
AcDbLine
 10
92.4324562212
 20
88.8900771048
 30
0.0
 11
92.5771128758
 21
89.179390414
 31
0.0
  0
ARC
  5
101
330
1F
100
AcDbEntity
  8
0
  6
Continuous
 62
     7
370
    25
100
AcDbCircle
 10
92.8796698167
 20
88.666470307
 30
0.0
 40
0.5000000000000023
100
AcDbArc
 50
153.4349488229
 51
270.0
  0
SPLINE
  5
102
330
1F
100
AcDbEntity
  8
0
  6
Continuous
 62
     7
370
    25
100
AcDbSpline
210
0.0
220
0.0
230
1.0
 70
     8
 71
     3
 72
     9
 73
     5
 74
     0
 42
0.00000001
 43
0.00000001
 40
0.0
 40
0.0
 40
0.0
 40
0.0
 40
0.5600029565045499
 40
1.0
 40
1.0
 40
1.0
 40
1.0
 10
97.35106608999912
 20
98.63353904786997
 30
0.0
 10
97.342918330646
 20
98.62375258571002
 30
0.0
 10
97.32836883718622
 20
98.60627685268705
 30
0.0
 10
97.3144241942457
 20
98.58831588502125
 30
0.0
 10
97.30828859257926
 20
98.58041311235
 30
0.0
  0
LINE
  5
103
330
1F
100
AcDbEntity
  8
0
  6
Continuous
 62
     7
370
    25
100
AcDbLine
 10
139.4736089616
 20
88.5545458928
 30
0.0
 11
139.4757490768
 21
88.7780843464
 31
0.0
  0
SPLINE
  5
104
330
1F
100
AcDbEntity
  8
0
  6
Continuous
 62
     7
370
    25
100
AcDbSpline
210
0.0
220
0.0
230
1.0
 70
     8
 71
     3
 72
    10
 73
     6
 74
     0
 42
0.00000001
 43
0.00000001
 40
0.0
 40
0.0
 40
0.0
 40
0.0
 40
0.3536466237081646
 40
0.7182931081305524
 40
1.0
 40
1.0
 40
1.0
 40
1.0
 10
139.6248969254869
 20
86.60827724631515
 30
0.0
 10
139.5873898911777
 20
86.1647395961966
 30
0.0
 10
139.5112091999321
 20
85.26386845557603
 30
0.0
 10
139.5496456025453
 20
83.88585916076478
 30
0.0
 10
139.6126277218783
 20
82.96782512945991
 30
0.0
 10
139.6400778717985
 20
82.56770884156647
 30
0.0
  0
LINE
  5
105
330
1F
100
AcDbEntity
  8
0
  6
Continuous
 62
     7
370
    25
100
AcDbLine
 10
139.4736089616
 20
88.5545458928
 30
0.0
 11
139.6248969255
 21
86.6082772463
 31
0.0
  0
LINE
  5
106
330
1F
100
AcDbEntity
  8
0
  6
Continuous
 62
     7
370
    25
100
AcDbLine
 10
139.6996698167
 20
80.466470307
 30
0.0
 11
139.7610246095
 21
80.466470307
 31
0.0
  0
LWPOLYLINE
  5
107
330
1F
100
AcDbEntity
  8
0
  6
Continuous
 62
     7
370
    25
100
AcDbPolyline
 90
        3
 70
   128
 43
0.0
 10
139.8970371521
 20
79.1167184475
 10
139.8557383798
 20
79.5265195921
 10
139.7610246095
 20
80.466470307
  0
SPLINE
  5
108
330
1F
100
AcDbEntity
  8
0
  6
Continuous
 62
     7
370
    25
100
AcDbSpline
210
0.0
220
0.0
230
1.0
 70
     8
 71
     3
 72
    11
 73
     7
 74
     0
 42
0.00000001
 43
0.00000001
 40
0.0
 40
0.0
 40
0.0
 40
0.0
 40
0.2920574028183094
 40
0.5665622171831318
 40
0.8065682389915578
 40
1.0
 40
1.0
 40
1.0
 40
1.0
 10
139.7634642096444
 20
94.66647030702943
 30
0.0
 10
139.7951247459599
 20
94.64963851098072
 30
0.0
 10
139.8565430270205
 20
94.61698650628404
 30
0.0
 10
139.9364553862851
 20
94.36159461924306
 30
0.0
 10
139.9755542000126
 20
94.02587170266841
 30
0.0
 10
139.960137837083
 20
93.77737000784734
 30
0.0
 10
139.9532579240988
 20
93.6664703070173
 30
0.0
  0
LINE
  5
109
330
1F
100
AcDbEntity
  8
0
  6
Continuous
 62
     7
370
    25
100
AcDbLine
 10
139.9532579241
 20
93.666470307
 30
0.0
 11
139.4757490768
 21
88.7780843464
 31
0.0
  0
LINE
  5
10A
330
1F
100
AcDbEntity
  8
0
  6
Continuous
 62
     7
370
    25
100
AcDbLine
 10
140.321060926
 20
96.666470307
 30
0.0
 11
155.4382787074
 21
96.666470307
 31
0.0
  0
LINE
  5
10B
330
1F
100
AcDbEntity
  8
0
  6
Continuous
 62
     7
370
    25
100
AcDbLine
 10
155.4271760356
 20
78.666470307
 30
0.0
 11
140.3987039616
 21
78.666470307
 31
0.0
  0
SPLINE
  5
10C
330
1F
100
AcDbEntity
  8
0
  6
Continuous
 62
     7
370
    25
100
AcDbSpline
210
0.0
220
0.0
230
1.0
 70
     8
 71
     3
 72
    12
 73
     8
 74
     0
 42
0.00000001
 43
0.00000001
 40
0.0
 40
0.0
 40
0.0
 40
0.0
 40
0.2316347876629375
 40
0.46330664808196
 40
0.6939442291381526
 40
0.9227406525226395
 40
1.0
 40
1.0
 40
1.0
 40
1.0
 10
140.3987039616094
 20
78.66647030702939
 30
0.0
 10
140.3416506439606
 20
78.67205977205967
 30
0.0
 10
140.2275348773761
 20
78.68323959670464
 30
0.0
 10
140.075681546898
 20
78.77056266266031
 30
0.0
 10
139.9615141640141
 20
78.89887283644235
 30
0.0
 10
139.9097598316469
 20
79.02355226314018
 30
0.0
 10
139.8996014806598
 20
79.09794027189348
 30
0.0
 10
139.8970371520523
 20
79.1167184475189
 30
0.0
  0
SPLINE
  5
10D
330
1F
100
AcDbEntity
  8
0
  6
Continuous
 62
     7
370
    25
100
AcDbSpline
210
0.0
220
0.0
230
1.0
 70
     8
 71
     3
 72
     9
 73
     5
 74
     0
 42
0.00000001
 43
0.00000001
 40
0.0
 40
0.0
 40
0.0
 40
0.0
 40
0.4474581094010271
 40
1.0
 40
1.0
 40
1.0
 40
1.0
 10
137.8796698166977
 20
84.1987821262065
 30
0.0
 10
138.1533204183761
 20
83.97084918283959
 30
0.0
 10
138.7648873917507
 20
83.46145413874926
 30
0.0
 10
139.3286019590337
 20
82.88578832090909
 30
0.0
 10
139.6400778717985
 20
82.56770884156647
 30
0.0
  0
SPLINE
  5
10E
330
1F
100
AcDbEntity
  8
0
  6
Continuous
 62
     7
370
    25
100
AcDbSpline
210
0.0
220
0.0
230
1.0
 70
     8
 71
     3
 72
     9
 73
     5
 74
     0
 42
0.00000001
 43
0.00000001
 40
0.0
 40
0.0
 40
0.0
 40
0.0
 40
0.7210175706402088
 40
0.9999999999999999
 40
0.9999999999999999
 40
0.9999999999999999
 40
0.9999999999999999
 10
138.2235982723952
 20
88.36427044326427
 30
0.0
 10
138.154665053399
 20
88.42752125617358
 30
0.0
 10
138.0590595899495
 20
88.51524562723591
 30
0.0
 10
137.9187998263016
 20
88.56005481357985
 30
0.0
 10
137.8796698166977
 20
88.57255578924374
 30
0.0
  0
ARC
  5
10F
330
1F
100
AcDbEntity
  8
0
  6
Continuous
 62
     7
370
    25
100
AcDbCircle
 10
131.1574434778
 20
81.2882930253
 30
0.0
 40
10.00000000000001
100
AcDbArc
 50
32.1405798582
 51
45.0397956095
  0
LINE
  5
110
330
1F
100
AcDbEntity
  8
0
  6
Continuous
 62
     7
370
    25
100
AcDbLine
 10
138.2235982724
 20
93.666470307
 30
0.0
 11
138.2235982724
 21
88.3642704433
 31
0.0
  0
LINE
  5
111
330
1F
100
AcDbEntity
  8
0
  6
Continuous
 62
     7
370
    25
100
AcDbLine
 10
139.9532579241
 20
93.666470307
 30
0.0
 11
138.2235982724
 21
93.666470307
 31
0.0
  0
LINE
  5
112
330
1F
100
AcDbEntity
  8
0
  6
Continuous
 62
     7
370
    25
100
AcDbLine
 10
137.8796698167
 20
94.666470307
 30
0.0
 11
139.7634642096
 21
94.666470307
 31
0.0
  0
ARC
  5
113
330
1F
100
AcDbEntity
  8
0
  6
Continuous
 62
     7
370
    25
100
AcDbCircle
 10
100.2671291423
 20
101.3758155281
 30
0.0
 40
4.021945305480898
100
AcDbArc
 50
230.4243196696
 51
233.1058614851
  0
LINE
  5
114
330
1F
100
AcDbEntity
  8
0
  6
Continuous
 62
     7
370
    25
100
AcDbLine
 10
148.4067429828
 20
72.666470307
 30
0.0
 11
156.1296698167
 21
72.666470307
 31
0.0
  0
LINE
  5
115
330
1F
100
AcDbEntity
  8
0
  6
Continuous
 62
     7
370
    25
100
AcDbLine
 10
139.6296698167
 20
72.666470307
 30
0.0
 11
147.3525966506
 21
72.666470307
 31
0.0
  0
LINE
  5
116
330
1F
100
AcDbEntity
  8
0
  6
Continuous
 62
     7
370
    25
100
AcDbLine
 10
147.8167869519
 20
96.7544126425
 30
0.0
 11
147.8167869519
 21
96.7663632043
 31
0.0
  0
LINE
  5
117
330
1F
100
AcDbEntity
  8
0
  6
Continuous
 62
     7
370
    25
100
AcDbLine
 10
147.9425526815
 20
96.7544126425
 30
0.0
 11
147.9425526815
 21
96.7663632043
 31
0.0
  0
LINE
  5
118
330
1F
100
AcDbEntity
  8
0
  6
Continuous
 62
     7
370
    25
100
AcDbLine
 10
139.4757490768
 20
88.7780843464
 30
0.0
 11
156.8657180618
 21
88.7780843464
 31
0.0
  0
LINE
  5
119
330
1F
100
AcDbEntity
  8
0
  6
Continuous
 62
     7
370
    25
100
AcDbLine
 10
156.8684773753
 20
88.5545458928
 30
0.0
 11
139.4736089616
 21
88.5545458928
 31
0.0
  0
LINE
  5
11A
330
1F
100
AcDbEntity
  8
0
  6
Continuous
 62
     7
370
    25
100
AcDbLine
 10
139.8970371521
 20
79.1167184475
 30
0.0
 11
155.9246946307
 21
79.1167184475
 31
0.0
  0
LINE
  5
11B
330
1F
100
AcDbEntity
  8
0
  6
Continuous
 62
     7
370
    25
100
AcDbLine
 10
155.9344176458
 20
96.2284876743
 30
0.0
 11
139.8249219876
 21
96.2284876743
 31
0.0
  0
LINE
  5
11C
330
1F
100
AcDbEntity
  8
0
  6
Continuous
 62
     7
370
    25
100
AcDbLine
 10
137.8796698167
 20
93.666470307
 30
0.0
 11
138.2235982724
 21
93.666470307
 31
0.0
  0
ARC
  5
11D
330
1F
100
AcDbEntity
  8
0
  6
Continuous
 62
     7
370
    25
100
AcDbCircle
 10
137.1177245535
 20
93.7211348901
 30
0.0
 40
1.107223960532976
100
AcDbArc
 50
357.1701084939
 51
46.5155082001
  0
LINE
  5
11E
330
1F
100
AcDbEntity
  8
0
  6
Continuous
 62
     7
370
    25
100
AcDbLine
 10
97.6306728755
 20
89.684191911
 30
0.0
 11
97.8526003119
 21
98.1592587825
 31
0.0
  0
LINE
  5
11F
330
1F
100
AcDbEntity
  8
0
  6
Continuous
 62
     7
370
    18
100
AcDbLine
 10
161.3796698167
 20
45.623595307
 30
0.0
 11
175.8569638568
 21
46.0760107458
 31
0.0
  0
LINE
  5
120
330
1F
100
AcDbEntity
  8
0
  6
Continuous
 62
     7
370
    18
100
AcDbLine
 10
175.8569638568
 20
70.2569298683
 30
0.0
 11
161.3796698167
 21
70.709345307
 31
0.0
  0
LINE
  5
121
330
1F
100
AcDbEntity
  8
0
  6
Continuous
 62
     7
370
    18
100
AcDbLine
 10
129.3796698167
 20
70.224970307
 30
0.0
 11
118.3796698167
 21
70.224970307
 31
0.0
  0
LINE
  5
122
330
1F
100
AcDbEntity
  8
0
  6
Continuous
 62
     7
370
    18
100
AcDbLine
 10
118.3796698167
 20
46.107970307
 30
0.0
 11
129.3796698167
 21
46.107970307
 31
0.0
  0
LINE
  5
123
330
1F
100
AcDbEntity
  8
0
  6
Continuous
 62
     7
370
    25
100
AcDbLine
 10
129.3796698167
 20
70.386970307
 30
0.0
 11
129.3796698167
 21
70.3836119317
 31
0.0
  0
SPLINE
  5
124
330
1F
100
AcDbEntity
  8
0
  6
Continuous
 62
     7
370
     0
100
AcDbSpline
210
0.0
220
0.0
230
1.0
 70
     8
 71
     3
 72
    41
 73
    37
 74
     0
 42
0.00000001
 43
0.00000001
 40
0.0
 40
0.0
 40
0.0
 40
0.0
 40
0.0300751102851105
 40
0.0601502205521368
 40
0.0902253308191632
 40
0.1203004410861895
 40
0.1503755513532158
 40
0.1804506616202423
 40
0.2105257718872685
 40
0.2406008821542949
 40
0.2706759924213212
 40
0.3007511026883474
 40
0.3308262129553738
 40
0.3609013232224001
 40
0.3909764334894266
 40
0.4210515437564527
 40
0.4511266540234791
 40
0.4812017642905054
 40
0.5112768745575318
 40
0.5413519848245583
 40
0.5714270950915844
 40
0.6015022053586108
 40
0.6315773156256373
 40
0.6616524258926635
 40
0.69172753615969
 40
0.7218026464267162
 40
0.7518777566937427
 40
0.781952866960769
 40
0.8120279772277953
 40
0.8421030874948217
 40
0.8721781977618479
 40
0.9022533080288743
 40
0.9323284182959006
 40
0.962403528562927
 40
0.9924786388299532
 40
1.0
 40
1.0
 40
1.0
 40
1.0
 10
129.3796300888062
 20
70.38361193166388
 30
0.0
 10
129.3796698166977
 20
70.30310318054437
 30
0.0
 10
129.3796698166977
 20
70.11593726334516
 30
0.0
 10
129.3796698166977
 20
69.82375900087636
 30
0.0
 10
129.3796698166977
 20
69.42913606621421
 30
0.0
 10
129.3796698166977
 20
68.93553641989763
 30
0.0
 10
129.3796698166977
 20
68.34729783336643
 30
0.0
 10
129.3796698166977
 20
67.66958976846986
 30
0.0
 10
129.3796698166977
 20
66.90836794805006
 30
0.0
 10
129.3796698166977
 20
66.0703220168355
 30
0.0
 10
129.3796698166977
 20
65.16281675260268
 30
0.0
 10
129.3796698166977
 20
64.1938273442441
 30
0.0
 10
129.3796698166977
 20
63.1718693055216
 30
0.0
 10
129.3796698166977
 20
62.10592364042519
 30
0.0
 10
129.3796698166977
 20
61.00535791778713
 30
0.0
 10
129.3796698166977
 20
59.87984394875009
 30
0.0
 10
129.3796698166977
 20
58.73927279054321
 30
0.0
 10
129.3796698166977
 20
57.5936678235154
 30
0.0
 10
129.3796698166977
 20
56.45309666530851
 30
0.0
 10
129.3796698166977
 20
55.32758269627149
 30
0.0
 10
129.3796698166977
 20
54.22701697363343
 30
0.0
 10
129.3796698166977
 20
53.16107130853703
 30
0.0
 10
129.3796698166977
 20
52.13911326981453
 30
0.0
 10
129.3796698166977
 20
51.17012386145596
 30
0.0
 10
129.3796698166977
 20
50.26261859722314
 30
0.0
 10
129.3796698166977
 20
49.42457266600859
 30
0.0
 10
129.3796698166977
 20
48.6633508455888
 30
0.0
 10
129.3796698166977
 20
47.98564278069225
 30
0.0
 10
129.3796698166977
 20
47.39740419416106
 30
0.0
 10
129.3796698166977
 20
46.90380454784449
 30
0.0
 10
129.3796698166977
 20
46.50918161318235
 30
0.0
 10
129.3796698166977
 20
46.21700335071358
 30
0.0
 10
129.3796698166977
 20
46.02983743351438
 30
0.0
 10
129.3796698166977
 20
45.94932868239488
 30
0.0
 10
129.3796698166977
 20
45.94597030702939
 30
0.0
 10
129.3796698166978
 20
45.94667438707477
 30
0.0
 10
129.3796698166977
 20
45.94597030702939
 30
0.0
  0
LINE
  5
125
330
1F
100
AcDbEntity
  8
0
  6
CENTERX2
 62
     7
370
    18
100
AcDbLine
 10
147.8796698167
 20
98.6234454562
 30
0.0
 11
147.8796698167
 21
42.3677317788
 31
0.0
  0
LINE
  5
126
330
1F
100
AcDbEntity
  8
0
  6
CENTERX2
 62
     7
370
    18
100
AcDbLine
 10
178.28198028
 20
58.166470307
 30
0.0
 11
116.7047801736
 21
58.166470307
 31
0.0
  0
LINE
  5
127
330
1F
100
AcDbEntity
  8
0
  6
Continuous
 62
     7
370
    25
100
AcDbLine
 10
225.4313131347
 20
77.666470307
 30
0.0
 11
224.9313131347
 21
78.166470307
 31
0.0
  0
LINE
  5
128
330
1F
100
AcDbEntity
  8
0
  6
Continuous
 62
     7
370
    25
100
AcDbLine
 10
209.4313131347
 20
78.166470307
 30
0.0
 11
208.9313131347
 21
77.666470307
 31
0.0
  0
LINE
  5
129
330
1F
100
AcDbEntity
  8
0
  6
Continuous
 62
     7
370
    25
100
AcDbLine
 10
225.4313131347
 20
72.666470307
 30
0.0
 11
225.4313131347
 21
77.666470307
 31
0.0
  0
LINE
  5
12A
330
1F
100
AcDbEntity
  8
0
  6
Continuous
 62
     7
370
    25
100
AcDbLine
 10
208.9313131347
 20
77.666470307
 30
0.0
 11
208.9313131347
 21
72.666470307
 31
0.0
  0
LINE
  5
12B
330
1F
100
AcDbEntity
  8
0
  6
Continuous
 62
     7
370
    25
100
AcDbLine
 10
212.1813131347
 20
80.466470307
 30
0.0
 11
212.1813131347
 21
78.166470307
 31
0.0
  0
LINE
  5
12C
330
1F
100
AcDbEntity
  8
0
  6
Continuous
 62
     7
370
    25
100
AcDbLine
 10
222.1813131347
 20
78.166470307
 30
0.0
 11
222.1813131347
 21
78.666470307
 31
0.0
  0
SPLINE
  5
12D
330
1F
100
AcDbEntity
  8
0
  6
Continuous
 62
     7
370
    25
100
AcDbSpline
210
0.0
220
0.0
230
1.0
 70
     8
 71
     3
 72
    14
 73
    10
 74
     0
 42
0.00000001
 43
0.00000001
 40
0.0
 40
0.0
 40
0.0
 40
0.0
 40
0.0838484065680039
 40
0.3419916113493713
 40
0.5418384030432378
 40
0.7073935654016649
 40
0.8472521892153463
 40
0.9621619547801582
 40
0.9999999999999999
 40
0.9999999999999999
 40
0.9999999999999999
 40
0.9999999999999999
 10
208.9246117811794
 20
72.66591671398872
 30
0.0
 10
208.9259541657059
 20
72.64485909768962
 30
0.0
 10
208.9314293353132
 20
72.55897162022787
 30
0.0
 10
208.8729689970639
 20
72.42812946097195
 30
0.0
 10
208.7738463738953
 20
72.3068796208712
 30
0.0
 10
208.6675932844759
 20
72.23469283453001
 30
0.0
 10
208.568820611665
 20
72.1973448081619
 30
0.0
 10
208.4961970105596
 20
72.1826992281662
 30
0.0
 10
208.4582178795864
 20
72.18239866319576
 30
0.0
 10
208.4488098490045
 20
72.18232420850546
 30
0.0
  0
SPLINE
  5
12E
330
1F
100
AcDbEntity
  8
0
  6
Continuous
 62
     7
370
    25
100
AcDbSpline
210
0.0
220
0.0
230
1.0
 70
     8
 71
     3
 72
    13
 73
     9
 74
     0
 42
0.00000001
 43
0.00000001
 40
0.0
 40
0.0
 40
0.0
 40
0.0
 40
0.0751610347454829
 40
0.2195267999194516
 40
0.4308813262323208
 40
0.6539048332065566
 40
0.8933327138331005
 40
1.0
 40
1.0
 40
1.0
 40
1.0
 10
225.9144809889208
 20
72.18257358647662
 30
0.0
 10
225.8957040539933
 20
72.18328687861458
 30
0.0
 10
225.840861269419
 20
72.18537022859755
 30
0.0
 10
225.7355996843451
 20
72.21458066427103
 30
0.0
 10
225.606928094709
 20
72.28722278616645
 30
0.0
 10
225.4961544179228
 20
72.41680858528467
 30
0.0
 10
225.4339731535952
 20
72.5524523470035
 30
0.0
 10
225.4378919044723
 20
72.63968860634901
 30
0.0
 10
225.4390996720499
 20
72.66657501197538
 30
0.0
  0
SPLINE
  5
12F
330
1F
100
AcDbEntity
  8
0
  6
Continuous
 62
     7
370
    25
100
AcDbSpline
210
0.0
220
0.0
230
1.0
 70
     8
 71
     3
 72
     9
 73
     5
 74
     0
 42
0.00000001
 43
0.00000001
 40
0.0
 40
0.0
 40
0.0
 40
0.0
 40
0.4993165458323629
 40
1.0
 40
1.0
 40
1.0
 40
1.0
 10
218.1906059296297
 20
99.15403773578112
 30
0.0
 10
218.1674753119825
 20
99.15738877142876
 30
0.0
 10
218.1211507552653
 20
99.16410001638069
 30
0.0
 10
218.074591362137
 20
99.15977284707502
 30
0.0
 10
218.0512798443616
 20
99.15760630500029
 30
0.0
  0
SPLINE
  5
130
330
1F
100
AcDbEntity
  8
0
  6
Continuous
 62
     7
370
    25
100
AcDbSpline
210
0.0
220
0.0
230
1.0
 70
     8
 71
     3
 72
     9
 73
     5
 74
     0
 42
0.00000001
 43
0.00000001
 40
0.0
 40
0.0
 40
0.0
 40
0.0
 40
0.5006834545219033
 40
1.0
 40
1.0
 40
1.0
 40
1.0
 10
216.3113463724815
 20
99.15760630492787
 30
0.0
 10
216.2880348578305
 20
99.15977284559315
 30
0.0
 10
216.2414754709754
 20
99.16410001208072
 30
0.0
 10
216.1951509207189
 20
99.15738876572605
 30
0.0
 10
216.1720203063139
 20
99.15403772938039
 30
0.0
  0
LINE
  5
131
330
1F
100
AcDbEntity
  8
0
  6
Continuous
 62
     7
370
    25
100
AcDbLine
 10
214.7054586164
 20
98.4985206965
 30
0.0
 11
214.5746812618
 21
95.6452592064
 31
0.0
  0
LINE
  5
132
330
1F
100
AcDbEntity
  8
0
  6
Continuous
 62
     7
370
    25
100
AcDbLine
 10
219.7879450077
 20
95.6452592064
 30
0.0
 11
219.657167653
 21
98.4985206965
 31
0.0
  0
LINE
  5
133
330
1F
100
AcDbEntity
  8
0
  6
Continuous
 62
     7
370
    25
100
AcDbLine
 10
215.2283391545
 20
99.1436215875
 30
0.0
 11
215.1799082115
 21
99.1224170735
 31
0.0
  0
SPLINE
  5
134
330
1F
100
AcDbEntity
  8
0
  6
Continuous
 62
     7
370
    25
100
AcDbSpline
210
0.0
220
0.0
230
1.0
 70
     8
 71
     3
 72
     9
 73
     5
 74
     0
 42
0.00000001
 43
0.00000001
 40
0.0
 40
0.0
 40
0.0
 40
0.0
 40
0.0503631419175414
 40
1.0
 40
1.0
 40
1.0
 40
1.0
 10
214.7618209404992
 20
98.7370288649702
 30
0.0
 10
214.7599248599051
 20
98.7338588076062
 30
0.0
 10
214.7222766806627
 20
98.67091481238855
 30
0.0
 10
214.7157362376474
 20
98.59576721369464
 30
0.0
 10
214.7095251918919
 20
98.52440428417853
 30
0.0
  0
SPLINE
  5
135
330
1F
100
AcDbEntity
  8
0
  6
Continuous
 62
     7
370
    25
100
AcDbSpline
210
0.0
220
0.0
230
1.0
 70
     8
 71
     3
 72
    11
 73
     7
 74
     0
 42
0.00000001
 43
0.00000001
 40
0.0
 40
0.0
 40
0.0
 40
0.0
 40
0.2436788845968631
 40
0.491588446668192
 40
0.7437897073051962
 40
0.9999999999999999
 40
0.9999999999999999
 40
0.9999999999999999
 40
0.9999999999999999
 10
219.6531010775687
 20
98.52440428417853
 30
0.0
 10
219.6417971207403
 20
98.59352363607535
 30
0.0
 10
219.6189929512788
 20
98.73296236869223
 30
0.0
 10
219.5058281523743
 20
98.91761626123215
 30
0.0
 10
219.3435445595641
 20
99.06824476704138
 30
0.0
 10
219.2044053196456
 20
99.1183642432042
 30
0.0
 10
219.1342871149132
 20
99.14362158752148
 30
0.0
  0
SPLINE
  5
136
330
1F
100
AcDbEntity
  8
0
  6
Continuous
 62
     7
370
    25
100
AcDbSpline
210
0.0
220
0.0
230
1.0
 70
     8
 71
     3
 72
    10
 73
     6
 74
     0
 42
0.00000001
 43
0.00000001
 40
0.0
 40
0.0
 40
0.0
 40
0.0
 40
0.2663464296502981
 40
0.5214744039517447
 40
1.0
 40
1.0
 40
1.0
 40
1.0
 10
220.1360803316453
 20
95.18971608509568
 30
0.0
 10
220.0908988677287
 20
95.20870215083521
 30
0.0
 10
220.0024389736109
 20
95.24587459323628
 30
0.0
 10
219.8558546342113
 20
95.37544171135218
 30
0.0
 10
219.8018305174343
 20
95.50592110279506
 30
0.0
 10
219.7665932832321
 20
95.59102629560759
 30
0.0
  0
SPLINE
  5
137
330
1F
100
AcDbEntity
  8
0
  6
Continuous
 62
     7
370
    25
100
AcDbSpline
210
0.0
220
0.0
230
1.0
 70
     8
 71
     3
 72
    10
 73
     6
 74
     0
 42
0.00000001
 43
0.00000001
 40
0.0
 40
0.0
 40
0.0
 40
0.0
 40
0.4785255960482541
 40
0.7336535703497082
 40
1.0
 40
1.0
 40
1.0
 40
1.0
 10
214.5960329862286
 20
95.59102629560756
 30
0.0
 10
214.5607957520263
 20
95.50592110279504
 30
0.0
 10
214.5067716352493
 20
95.37544171135218
 30
0.0
 10
214.3601872958498
 20
95.24587459323625
 30
0.0
 10
214.2717274017319
 20
95.20870215083521
 30
0.0
 10
214.2265459378154
 20
95.18971608509568
 30
0.0
  0
ARC
  5
138
330
1F
100
AcDbEntity
  8
0
  6
Continuous
 62
     7
370
    25
100
AcDbCircle
 10
213.4545747105
 20
93.666470307
 30
0.0
 40
1.5
100
AcDbArc
 50
90.0
 51
180.0
  0
LINE
  5
139
330
1F
100
AcDbEntity
  8
0
  6
Continuous
 62
     7
370
    25
100
AcDbLine
 10
211.9545747105
 20
93.666470307
 30
0.0
 11
211.9545747105
 21
88.4135156748
 31
0.0
  0
ARC
  5
13A
330
1F
100
AcDbEntity
  8
0
  6
Continuous
 62
     7
370
    25
100
AcDbCircle
 10
220.908051559
 20
93.666470307
 30
0.0
 40
1.5
100
AcDbArc
 50
0.0
 51
90.0
  0
LINE
  5
13B
330
1F
100
AcDbEntity
  8
0
  6
Continuous
 62
     7
370
    25
100
AcDbLine
 10
222.408051559
 20
88.4135156748
 30
0.0
 11
222.408051559
 21
93.666470307
 31
0.0
  0
LINE
  5
13C
330
1F
100
AcDbEntity
  8
0
  6
Continuous
 62
     7
370
    25
100
AcDbLine
 10
208.1925055762
 20
88.5545458928
 30
0.0
 11
209.0013131347
 21
80.466470307
 31
0.0
  0
LINE
  5
13D
330
1F
100
AcDbEntity
  8
0
  6
Continuous
 62
     7
370
    25
100
AcDbLine
 10
225.2263379488
 20
79.1167184475
 30
0.0
 11
226.1701206933
 21
88.5545458928
 31
0.0
  0
ARC
  5
13E
330
1F
100
AcDbEntity
  8
0
  6
Continuous
 62
     7
370
    25
100
AcDbCircle
 10
225.1750835031
 20
88.6540496118
 30
0.0
 40
1.000000000000003
100
AcDbArc
 50
354.2894068625
 51
7.1250163489
  0
ARC
  5
13F
330
1F
100
AcDbEntity
  8
0
  6
Continuous
 62
     7
370
    25
100
AcDbCircle
 10
209.1875427664
 20
88.6540496118
 30
0.0
 40
0.9999999999999971
100
AcDbArc
 50
172.8749836511
 51
185.7105931375
  0
LINE
  5
140
330
1F
100
AcDbEntity
  8
0
  6
Continuous
 62
     7
370
    25
100
AcDbLine
 10
226.1673613798
 20
88.7780843464
 30
0.0
 11
225.2360609638
 21
96.2284876743
 31
0.0
  0
LINE
  5
141
330
1F
100
AcDbEntity
  8
0
  6
Continuous
 62
     7
370
    25
100
AcDbLine
 10
209.1265653056
 20
96.2284876743
 30
0.0
 11
208.1952648896
 21
88.7780843464
 31
0.0
  0
ARC
  5
142
330
1F
100
AcDbEntity
  8
0
  6
Continuous
 62
     7
370
    25
100
AcDbCircle
 10
209.622704244
 20
96.166470307
 30
0.0
 40
0.5
100
AcDbArc
 50
90.0
 51
172.8749836511
  0
ARC
  5
143
330
1F
100
AcDbEntity
  8
0
  6
Continuous
 62
     7
370
    25
100
AcDbCircle
 10
224.7399220255
 20
96.166470307
 30
0.0
 40
0.5000000000000017
100
AcDbArc
 50
7.1250163489
 51
90.0
  0
ARC
  5
144
330
1F
100
AcDbEntity
  8
0
  6
Continuous
 62
     7
370
    25
100
AcDbCircle
 10
224.7288193537
 20
79.166470307
 30
0.0
 40
0.5
100
AcDbArc
 50
270.0
 51
354.2894068625
  0
LINE
  5
145
330
1F
100
AcDbEntity
  8
0
  6
Continuous
 62
     7
370
    25
100
AcDbLine
 10
218.1813131347
 20
78.166470307
 30
0.0
 11
218.1813131347
 21
78.6376791534
 31
0.0
  0
LINE
  5
146
330
1F
100
AcDbEntity
  8
0
  6
Continuous
 62
     7
370
    25
100
AcDbLine
 10
216.1813131347
 20
79.966470307
 30
0.0
 11
216.1813131347
 21
78.166470307
 31
0.0
  0
ARC
  5
147
330
1F
100
AcDbEntity
  8
0
  6
Continuous
 62
     7
370
    25
100
AcDbCircle
 10
216.3813131347
 20
79.966470307
 30
0.0
 40
0.2000000000000171
100
AcDbArc
 50
90.0
 51
180.0
  0
ARC
  5
148
330
1F
100
AcDbEntity
  8
0
  6
Continuous
 62
     7
370
    25
100
AcDbCircle
 10
217.9813131347
 20
79.966470307
 30
0.0
 40
0.2000000000000028
100
AcDbArc
 50
0.0
 51
90.0
  0
CIRCLE
  5
149
330
1F
100
AcDbEntity
  8
0
  6
Continuous
 62
     7
370
    25
100
AcDbCircle
 10
217.1813131347
 20
58.166470307
 30
0.0
 40
12.22050000000002
  0
CIRCLE
  5
14A
330
1F
100
AcDbEntity
  8
0
  6
Continuous
 62
     7
370
    25
100
AcDbCircle
 10
217.1813131347
 20
58.166470307
 30
0.0
 40
13.22050000000003
  0
CIRCLE
  5
14B
330
1F
100
AcDbEntity
  8
0
  6
Continuous
 62
     7
370
    25
100
AcDbCircle
 10
217.1813131347
 20
58.166470307
 30
0.0
 40
9.250000000000023
  0
CIRCLE
  5
14C
330
1F
100
AcDbEntity
  8
0
  6
Continuous
 62
     7
370
    25
100
AcDbCircle
 10
217.1813131347
 20
58.166470307
 30
0.0
 40
8.00000000000003
  0
CIRCLE
  5
14D
330
1F
100
AcDbEntity
  8
0
  6
Continuous
 62
     7
370
    25
100
AcDbCircle
 10
217.1813131347
 20
58.166470307
 30
0.0
 40
6.500000000000011
  0
CIRCLE
  5
14E
330
1F
100
AcDbEntity
  8
0
  6
Continuous
 62
     7
370
    25
100
AcDbCircle
 10
217.1813131347
 20
58.166470307
 30
0.0
 40
13.50000000000003
  0
ARC
  5
14F
330
1F
100
AcDbEntity
  8
0
  6
Continuous
 62
     7
370
    25
100
AcDbCircle
 10
217.1813131347
 20
58.166470307
 30
0.0
 40
16.49999999999999
100
AcDbArc
 50
121.9527464003
 51
148.0472535997
  0
SPLINE
  5
150
330
1F
100
AcDbEntity
  8
0
  6
Continuous
 62
     7
370
    25
100
AcDbSpline
210
0.0
220
0.0
230
1.0
 70
    24
 71
     3
 72
    10
 73
     6
 74
     0
 42
0.00000001
 43
0.00000001
 40
0.0
 40
0.0
 40
0.0
 40
0.0
 40
0.5
 40
0.5
 40
1.0
 40
1.0
 40
1.0
 40
1.0
 10
208.4491885364438
 20
72.16647030702939
 30
0.0
 10
209.8666542289719
 20
72.16647030702939
 30
0.0
 10
211.3178883834996
 20
72.16647030702939
 30
0.0
 10
214.2312658524778
 20
72.16647030702939
 30
0.0
 10
215.6993644147863
 20
72.16647030702939
 30
0.0
 10
217.1813131347303
 20
72.16647030702939
 30
0.0
  0
ARC
  5
151
330
1F
100
AcDbEntity
  8
0
  6
Continuous
 62
     7
370
    25
100
AcDbCircle
 10
217.1813131347
 20
58.166470307
 30
0.0
 40
14.0
100
AcDbArc
 50
90.0
 51
180.0
  0
SPLINE
  5
152
330
1F
100
AcDbEntity
  8
0
  6
Continuous
 62
     7
370
    25
100
AcDbSpline
210
0.0
220
0.0
230
1.0
 70
    24
 71
     3
 72
    14
 73
    10
 74
     0
 42
0.00000001
 43
0.00000001
 40
0.0
 40
0.0
 40
0.0
 40
0.0
 40
0.125
 40
0.125
 40
0.25
 40
0.25
 40
0.5
 40
0.5
 40
1.0
 40
1.0
 40
1.0
 40
1.0
 10
203.1813131347303
 20
58.16647030702939
 30
0.0
 10
203.1813131347303
 20
58.53748238584974
 30
0.0
 10
203.1813131347303
 20
58.90934759939083
 30
0.0
 10
203.1813131347303
 20
59.65479164910262
 30
0.0
 10
203.1813131347303
 20
60.02892411310427
 30
0.0
 10
203.1813131347303
 20
61.14266215483618
 30
0.0
 10
203.1813131347303
 20
61.87707990268992
 30
0.0
 10
203.1813131347303
 20
64.05983828603543
 30
0.0
 10
203.1813131347303
 20
65.4878765405483
 30
0.0
 10
203.1813131347303
 20
66.89859490531589
 30
0.0
  0
ARC
  5
153
330
1F
100
AcDbEntity
  8
0
  6
Continuous
 62
     7
370
    25
100
AcDbCircle
 10
217.1813131347
 20
58.166470307
 30
0.0
 40
14.0
100
AcDbArc
 50
180.0
 51
270.0
  0
ARC
  5
154
330
1F
100
AcDbEntity
  8
0
  6
Continuous
 62
     7
370
    25
100
AcDbCircle
 10
217.1813131347
 20
58.166470307
 30
0.0
 40
14.00000000000003
100
AcDbArc
 50
0.0
 51
90.0
  0
ARC
  5
155
330
1F
100
AcDbEntity
  8
0
  6
Continuous
 62
     7
370
    25
100
AcDbCircle
 10
217.1813131347
 20
58.166470307
 30
0.0
 40
14.00000000000003
100
AcDbArc
 50
270.0
 51
0.0
  0
ARC
  5
156
330
1F
100
AcDbEntity
  8
0
  6
Continuous
 62
     7
370
    25
100
AcDbCircle
 10
217.1813131347
 20
58.166470307
 30
0.0
 40
16.49999999999999
100
AcDbArc
 50
211.9527464003
 51
238.0472535997
  0
SPLINE
  5
157
330
1F
100
AcDbEntity
  8
0
  6
Continuous
 62
     7
370
    25
100
AcDbSpline
210
0.0
220
0.0
230
1.0
 70
    24
 71
     3
 72
    10
 73
     6
 74
     0
 42
0.00000001
 43
0.00000001
 40
0.0
 40
0.0
 40
0.0
 40
0.0
 40
0.5
 40
0.5
 40
1.0
 40
1.0
 40
1.0
 40
1.0
 10
208.4491885364438
 20
44.16647030702939
 30
0.0
 10
209.8666542289707
 20
44.16647030702939
 30
0.0
 10
211.3178883834973
 20
44.16647030702939
 30
0.0
 10
214.2312658524755
 20
44.16647030702939
 30
0.0
 10
215.6993644147848
 20
44.16647030702939
 30
0.0
 10
217.1813131347303
 20
44.16647030702939
 30
0.0
  0
SPLINE
  5
158
330
1F
100
AcDbEntity
  8
0
  6
Continuous
 62
     7
370
    25
100
AcDbSpline
210
0.0
220
0.0
230
1.0
 70
    24
 71
     3
 72
    10
 73
     6
 74
     0
 42
0.00000001
 43
0.00000001
 40
0.0
 40
0.0
 40
0.0
 40
0.0
 40
0.5
 40
0.5
 40
1.0
 40
1.0
 40
1.0
 40
1.0
 10
203.1813131347303
 20
49.43434570874289
 30
0.0
 10
203.1813131347303
 20
50.85181140126972
 30
0.0
 10
203.1813131347303
 20
52.30304555579632
 30
0.0
 10
203.1813131347303
 20
55.21642302477455
 30
0.0
 10
203.1813131347303
 20
56.68452158708383
 30
0.0
 10
203.1813131347303
 20
58.16647030702939
 30
0.0
  0
ARC
  5
159
330
1F
100
AcDbEntity
  8
0
  6
Continuous
 62
     7
370
    25
100
AcDbCircle
 10
217.1813131347
 20
58.166470307
 30
0.0
 40
16.50000000000003
100
AcDbArc
 50
31.9527464003
 51
58.0472535997
  0
SPLINE
  5
15A
330
1F
100
AcDbEntity
  8
0
  6
Continuous
 62
     7
370
    25
100
AcDbSpline
210
0.0
220
0.0
230
1.0
 70
    24
 71
     3
 72
    14
 73
    10
 74
     0
 42
0.00000001
 43
0.00000001
 40
0.0
 40
0.0
 40
0.0
 40
0.0
 40
0.125
 40
0.125
 40
0.2500000000000001
 40
0.2500000000000001
 40
0.5
 40
0.5
 40
1.0
 40
1.0
 40
1.0
 40
1.0
 10
231.1813131347303
 20
58.16647030702939
 30
0.0
 10
231.1813131347303
 20
58.53748238584974
 30
0.0
 10
231.1813131347303
 20
58.90934759939083
 30
0.0
 10
231.1813131347303
 20
59.65479164910262
 30
0.0
 10
231.1813131347303
 20
60.02892411310427
 30
0.0
 10
231.1813131347303
 20
61.14266215483617
 30
0.0
 10
231.1813131347303
 20
61.87707990268992
 30
0.0
 10
231.1813131347303
 20
64.05983828603543
 30
0.0
 10
231.1813131347303
 20
65.48787654054829
 30
0.0
 10
231.1813131347303
 20
66.89859490531587
 30
0.0
  0
SPLINE
  5
15B
330
1F
100
AcDbEntity
  8
0
  6
Continuous
 62
     7
370
    25
100
AcDbSpline
210
0.0
220
0.0
230
1.0
 70
    24
 71
     3
 72
    14
 73
    10
 74
     0
 42
0.00000001
 43
0.00000001
 40
0.0
 40
0.0
 40
0.0
 40
0.0
 40
0.125
 40
0.125
 40
0.25
 40
0.25
 40
0.5
 40
0.5
 40
1.0
 40
1.0
 40
1.0
 40
1.0
 10
217.1813131347303
 20
72.16647030702939
 30
0.0
 10
217.5523252135497
 20
72.16647030702939
 30
0.0
 10
217.9241904270898
 20
72.16647030702939
 30
0.0
 10
218.6696344767994
 20
72.16647030702939
 30
0.0
 10
219.0437669408012
 20
72.16647030702939
 30
0.0
 10
220.1575049825353
 20
72.16647030702939
 30
0.0
 10
220.89192273039
 20
72.16647030702939
 30
0.0
 10
223.0746811137375
 20
72.16647030702939
 30
0.0
 10
224.5027193682502
 20
72.16647030702939
 30
0.0
 10
225.9134377330168
 20
72.16647030702939
 30
0.0
  0
SPLINE
  5
15C
330
1F
100
AcDbEntity
  8
0
  6
Continuous
 62
     7
370
    25
100
AcDbSpline
210
0.0
220
0.0
230
1.0
 70
    24
 71
     3
 72
    10
 73
     6
 74
     0
 42
0.00000001
 43
0.00000001
 40
0.0
 40
0.0
 40
0.0
 40
0.0
 40
0.5
 40
0.5
 40
1.0
 40
1.0
 40
1.0
 40
1.0
 10
231.1813131347303
 20
49.43434570874289
 30
0.0
 10
231.1813131347303
 20
50.85181140126972
 30
0.0
 10
231.1813131347303
 20
52.30304555579631
 30
0.0
 10
231.1813131347303
 20
55.21642302477454
 30
0.0
 10
231.1813131347303
 20
56.68452158708382
 30
0.0
 10
231.1813131347303
 20
58.16647030702939
 30
0.0
  0
ARC
  5
15D
330
1F
100
AcDbEntity
  8
0
  6
Continuous
 62
     7
370
    25
100
AcDbCircle
 10
217.1813131347
 20
58.166470307
 30
0.0
 40
16.50000000000002
100
AcDbArc
 50
301.9527464003
 51
328.0472535997
  0
SPLINE
  5
15E
330
1F
100
AcDbEntity
  8
0
  6
Continuous
 62
     7
370
    25
100
AcDbSpline
210
0.0
220
0.0
230
1.0
 70
    24
 71
     3
 72
    14
 73
    10
 74
     0
 42
0.00000001
 43
0.00000001
 40
0.0
 40
0.0
 40
0.0
 40
0.0
 40
0.125
 40
0.125
 40
0.25
 40
0.25
 40
0.5
 40
0.5
 40
1.0
 40
1.0
 40
1.0
 40
1.0
 10
217.1813131347303
 20
44.16647030702939
 30
0.0
 10
217.5523252135507
 20
44.16647030702939
 30
0.0
 10
217.9241904270918
 20
44.16647030702939
 30
0.0
 10
218.6696344768036
 20
44.16647030702939
 30
0.0
 10
219.0437669408052
 20
44.16647030702939
 30
0.0
 10
220.1575049825371
 20
44.16647030702939
 30
0.0
 10
220.8919227303909
 20
44.16647030702938
 30
0.0
 10
223.0746811137364
 20
44.16647030702938
 30
0.0
 10
224.5027193682492
 20
44.16647030702939
 30
0.0
 10
225.9134377330168
 20
44.16647030702939
 30
0.0
  0
ARC
  5
15F
330
1F
100
AcDbEntity
  8
0
  6
Continuous
 62
     7
370
    25
100
AcDbCircle
 10
208.4486772879
 20
72.6659601029
 30
0.0
 40
0.4994900575603813
100
AcDbArc
 50
270.0586445851
 51
0.0585247798
  0
LINE
  5
160
330
1F
100
AcDbEntity
  8
0
  6
Continuous
 62
     7
370
    25
100
AcDbLine
 10
208.9481670849
 20
72.666470307
 30
0.0
 11
225.4144591845
 21
72.666470307
 31
0.0
  0
ARC
  5
161
330
1F
100
AcDbEntity
  8
0
  6
Continuous
 62
     7
370
    25
100
AcDbCircle
 10
225.9139489815
 20
72.6659601029
 30
0.0
 40
0.4994900575603195
100
AcDbArc
 50
179.9414752202
 51
269.9413554149
  0
LINE
  5
162
330
1F
100
AcDbEntity
  8
0
  6
Continuous
 62
     7
370
    25
100
AcDbLine
 10
209.4313131347
 20
78.166470307
 30
0.0
 11
224.9313131347
 21
78.166470307
 31
0.0
  0
LINE
  5
163
330
1F
100
AcDbEntity
  8
0
  6
Continuous
 62
     7
370
    25
100
AcDbLine
 10
225.4313131347
 20
77.666470307
 30
0.0
 11
208.9313131347
 21
77.666470307
 31
0.0
  0
ELLIPSE
  5
164
330
1F
100
AcDbEntity
  8
0
  6
Continuous
 62
     7
370
    25
100
AcDbEllipse
 10
217.0067745796
 20
89.8900771048
 30
0.0
 11
0.7234244958980014
 21
-0.7001325129304661
 31
0.0
210
0.0
220
0.0
230
1.0
 40
0.9869902583
 41
4.70764954536259
 42
5.487972049091431
  0
LINE
  5
165
330
1F
100
AcDbEntity
  8
0
  6
Continuous
 62
     7
370
    25
100
AcDbLine
 10
217.0198675404
 20
88.8900771048
 30
0.0
 11
217.0198675404
 21
88.166470307
 31
0.0
  0
ELLIPSE
  5
166
330
1F
100
AcDbEntity
  8
0
  6
Continuous
 62
     7
370
    25
100
AcDbEllipse
 10
217.0067745796
 20
89.666470307
 30
0.0
 11
1.074619436156752
 21
-1.056020081253678
 31
0.0
210
0.0
220
0.0
230
0.9999999999999999
 40
0.9913091236
 41
4.713099434383474
 42
5.4934219381123
  0
LWPOLYLINE
  5
167
330
1F
100
AcDbEntity
  8
0
  6
Continuous
 62
     7
370
    25
100
AcDbPolyline
 90
        9
 70
   128
 43
0.0
 10
216.3123297602
 20
89.179390414
 10
216.2266008781
 20
89.1030599364
 10
216.1455692283
 20
89.0186599371
 10
216.0736746734
 20
88.9308148366
 10
216.0148564392
 20
88.8443378182
 10
215.9723372774
 20
88.7639671059
 10
215.9484468857
 20
88.6941063485
 10
215.9444942596
 20
88.6385833365
 10
215.9606959702
 20
88.6004402708
  0
ELLIPSE
  5
168
330
1F
100
AcDbEntity
  8
0
  6
Continuous
 62
     7
370
    25
100
AcDbEllipse
 10
217.3558516898
 20
89.8900771048
 30
0.0
 11
0.7234244958980014
 21
0.7001325129304519
 31
0.0
210
0.0
220
0.0
230
1.0
 40
0.9869902583
 41
3.936805911677963
 42
4.717128415406806
  0
LWPOLYLINE
  5
169
330
1F
100
AcDbEntity
  8
0
  6
Continuous
 62
     7
370
    25
100
AcDbPolyline
 90
        9
 70
   128
 43
0.0
 10
218.0502965092
 20
89.179390414
 10
218.1360253913
 20
89.1030599364
 10
218.2170570412
 20
89.0186599371
 10
218.2889515961
 20
88.9308148366
 10
218.3477698303
 20
88.8443378182
 10
218.390288992
 20
88.7639671059
 10
218.4141793837
 20
88.6941063485
 10
218.4181320098
 20
88.6385833365
 10
218.4019302993
 20
88.6004402708
  0
ELLIPSE
  5
16A
330
1F
100
AcDbEntity
  8
0
  6
Continuous
 62
     7
370
    25
100
AcDbEllipse
 10
217.3558516898
 20
89.666470307
 30
0.0
 11
1.074619436156752
 21
1.056020081253692
 31
0.0
210
0.0
220
0.0
230
1.0
 40
0.9913091236
 41
3.931356022657084
 42
4.711678526385926
  0
LINE
  5
16B
330
1F
100
AcDbEntity
  8
0
  6
Continuous
 62
     7
370
    25
100
AcDbLine
 10
217.3427587291
 20
88.8900771048
 30
0.0
 11
217.3427587291
 21
88.166470307
 31
0.0
  0
LINE
  5
16C
330
1F
100
AcDbEntity
  8
0
  6
Continuous
 62
     7
370
    25
100
AcDbLine
 10
217.0198675404
 20
88.8900771048
 30
0.0
 11
217.3427587291
 21
88.8900771048
 31
0.0
  0
LINE
  5
16D
330
1F
100
AcDbEntity
  8
0
  6
Continuous
 62
     7
370
    25
100
AcDbLine
 10
217.3427587291
 20
88.166470307
 30
0.0
 11
217.0198675404
 21
88.166470307
 31
0.0
  0
LINE
  5
16E
330
1F
100
AcDbEntity
  8
0
  6
Continuous
 62
     7
370
    25
100
AcDbLine
 10
216.3123297602
 20
89.179390414
 30
0.0
 11
216.3123297602
 21
98.3372907003
 31
0.0
  0
LINE
  5
16F
330
1F
100
AcDbEntity
  8
0
  6
Continuous
 62
     7
370
    25
100
AcDbLine
 10
216.3123297602
 20
98.3372907003
 30
0.0
 11
218.0502965092
 21
98.3372907003
 31
0.0
  0
LINE
  5
170
330
1F
100
AcDbEntity
  8
0
  6
Continuous
 62
     7
370
    25
100
AcDbLine
 10
218.0502965092
 20
98.3372907003
 30
0.0
 11
218.0502965092
 21
89.179390414
 31
0.0
  0
SPLINE
  5
171
330
1F
100
AcDbEntity
  8
0
  6
Continuous
 62
     7
370
    25
100
AcDbSpline
210
0.0
220
0.0
230
1.0
 70
     8
 71
     3
 72
    12
 73
     8
 74
     0
 42
0.00000001
 43
0.00000001
 40
0.0
 40
0.0
 40
0.0
 40
0.0
 40
0.139683458618249
 40
0.3831896274038307
 40
0.55131692930133
 40
0.8194729461607051
 40
0.9999999999999999
 40
0.9999999999999999
 40
0.9999999999999999
 40
0.9999999999999999
 10
218.050296509249
 20
89.17939041396886
 30
0.0
 10
218.1000114297275
 20
89.19270278762981
 30
0.0
 10
218.2363929457853
 20
89.22922224063777
 30
0.0
 10
218.4163090549974
 20
89.26689430122916
 30
0.0
 10
218.5946504833823
 20
89.29126162199064
 30
0.0
 10
218.7151707079338
 20
89.29014458722669
 30
0.0
 10
218.7393167212407
 20
89.24876129884912
 30
0.0
 10
218.7490318385003
 20
89.23211078623372
 30
0.0
  0
ARC
  5
172
330
1F
100
AcDbEntity
  8
0
  6
Continuous
 62
     7
370
    25
100
AcDbCircle
 10
218.2507776578
 20
89.2172578005
 30
0.0
 40
0.4984755156844251
100
AcDbArc
 50
333.4921832491
 51
1.7074848132
  0
SPLINE
  5
173
330
1F
100
AcDbEntity
  8
0
  6
Continuous
 62
     7
370
    25
100
AcDbSpline
210
0.0
220
0.0
230
1.0
 70
     8
 71
     3
 72
    12
 73
     8
 74
     0
 42
0.00000001
 43
0.00000001
 40
0.0
 40
0.0
 40
0.0
 40
0.0
 40
0.0715202026166142
 40
0.1260836237049476
 40
0.3855387013103047
 40
0.8475626424815554
 40
1.0
 40
1.0
 40
1.0
 40
1.0
 10
218.6968501769393
 20
88.99477825667859
 30
0.0
 10
218.694914131234
 20
88.99166960881377
 30
0.0
 10
218.6915010584345
 20
88.98618934487044
 30
0.0
 10
218.6693186079293
 20
88.94660079945004
 30
0.0
 10
218.6063051331629
 20
88.84016666646774
 30
0.0
 10
218.5092588076909
 20
88.7096596507595
 30
0.0
 10
218.4232641144728
 20
88.62214993679618
 30
0.0
 10
218.4019302992712
 20
88.60044027081362
 30
0.0
  0
SPLINE
  5
174
330
1F
100
AcDbEntity
  8
0
  6
Continuous
 62
     7
370
    25
100
AcDbSpline
210
0.0
220
0.0
230
1.0
 70
     8
 71
     3
 72
    11
 73
     7
 74
     0
 42
0.00000001
 43
0.00000001
 40
0.0
 40
0.0
 40
0.0
 40
0.0
 40
0.2499999999999991
 40
0.4999999999999979
 40
0.7499999999999996
 40
1.0
 40
1.0
 40
1.0
 40
1.0
 10
218.7490318385003
 20
98.04305043464284
 30
0.0
 10
218.7340325333338
 20
98.08216798880898
 30
0.0
 10
218.7040339230007
 20
98.16040309714124
 30
0.0
 10
218.540514220204
 20
98.25706617284946
 30
0.0
 10
218.3149346061216
 20
98.32425438898895
 30
0.0
 10
218.1385092082066
 20
98.33294526318255
 30
0.0
 10
218.050296509249
 20
98.33729070027934
 30
0.0
  0
LINE
  5
175
330
1F
100
AcDbEntity
  8
0
  6
Continuous
 62
     7
370
    25
100
AcDbLine
 10
218.7490318385
 20
89.2321107862
 30
0.0
 11
218.7490318385
 21
98.0430504346
 31
0.0
  0
SPLINE
  5
176
330
1F
100
AcDbEntity
  8
0
  6
Continuous
 62
     7
370
    25
100
AcDbSpline
210
0.0
220
0.0
230
1.0
 70
     8
 71
     3
 72
    13
 73
     9
 74
     0
 42
0.00000001
 43
0.00000001
 40
0.0
 40
0.0
 40
0.0
 40
0.0
 40
0.1143463544469914
 40
0.2890454840074685
 40
0.5294852105593209
 40
0.7014879056604271
 40
0.9335094878266192
 40
1.0
 40
1.0
 40
1.0
 40
1.0
 10
215.6135944309603
 20
89.23211078623372
 30
0.0
 10
215.6184290224654
 20
89.24349761799171
 30
0.0
 10
215.6306499353955
 20
89.27228132791157
 30
0.0
 10
215.7032980304365
 20
89.29253150536044
 30
0.0
 10
215.8338102968433
 20
89.28467417861482
 30
0.0
 10
216.0206778960129
 20
89.25214676228687
 30
0.0
 10
216.1820513007695
 20
89.21502540733499
 30
0.0
 10
216.2885976516214
 20
89.18588184421601
 30
0.0
 10
216.3123297602116
 20
89.17939041396886
 30
0.0
  0
SPLINE
  5
177
330
1F
100
AcDbEntity
  8
0
  6
Continuous
 62
     7
370
    25
100
AcDbSpline
210
0.0
220
0.0
230
1.0
 70
     8
 71
     3
 72
    11
 73
     7
 74
     0
 42
0.00000001
 43
0.00000001
 40
0.0
 40
0.0
 40
0.0
 40
0.0
 40
0.3325271082490199
 40
0.7778992719027311
 40
0.9254453528959206
 40
1.0
 40
1.0
 40
1.0
 40
1.0
 10
215.9606959701895
 20
88.60044027081362
 30
0.0
 10
215.9154651470433
 20
88.6483768189418
 30
0.0
 10
215.8096541514277
 20
88.76051746841489
 30
0.0
 10
215.7218941769501
 20
88.89587768643206
 30
0.0
 10
215.6742812850123
 20
88.98087832021055
 30
0.0
 10
215.6679135950841
 20
88.99128496127668
 30
0.0
 10
215.6657760925214
 20
88.99477825667859
 30
0.0
  0
ARC
  5
178
330
1F
100
AcDbEntity
  8
0
  6
Continuous
 62
     7
370
    25
100
AcDbCircle
 10
216.1118486116
 20
89.2172578005
 30
0.0
 40
0.4984755156837268
100
AcDbArc
 50
178.2925151868
 51
206.5078167509
  0
SPLINE
  5
179
330
1F
100
AcDbEntity
  8
0
  6
Continuous
 62
     7
370
    25
100
AcDbSpline
210
0.0
220
0.0
230
1.0
 70
     8
 71
     3
 72
    11
 73
     7
 74
     0
 42
0.00000001
 43
0.00000001
 40
0.0
 40
0.0
 40
0.0
 40
0.0
 40
0.249999999999999
 40
0.4999999999999998
 40
0.7499999999999988
 40
1.0
 40
1.0
 40
1.0
 40
1.0
 10
215.6135944309603
 20
98.04305043464281
 30
0.0
 10
215.6285937361269
 20
98.08216798880895
 30
0.0
 10
215.65859234646
 20
98.16040309714118
 30
0.0
 10
215.8221120492567
 20
98.25706617284943
 30
0.0
 10
216.0476916633391
 20
98.32425438898895
 30
0.0
 10
216.2241170612541
 20
98.33294526318255
 30
0.0
 10
216.3123297602116
 20
98.33729070027934
 30
0.0
  0
LINE
  5
17A
330
1F
100
AcDbEntity
  8
0
  6
Continuous
 62
     7
370
    25
100
AcDbLine
 10
215.613594431
 20
98.0430504346
 30
0.0
 11
215.613594431
 21
89.2321107862
 31
0.0
  0
LINE
  5
17B
330
1F
100
AcDbEntity
  8
0
  6
Continuous
 62
     7
370
    25
100
AcDbLine
 10
216.3277073433
 20
88.166470307
 30
0.0
 11
217.0198675404
 21
88.166470307
 31
0.0
  0
SPLINE
  5
17C
330
1F
100
AcDbEntity
  8
0
  6
Continuous
 62
     7
370
    25
100
AcDbSpline
210
0.0
220
0.0
230
1.0
 70
     8
 71
     3
 72
    11
 73
     7
 74
     0
 42
0.00000001
 43
0.00000001
 40
0.0
 40
0.0
 40
0.0
 40
0.0
 40
0.2500000000000013
 40
0.5000000000000004
 40
0.7500000000000003
 40
1.0
 40
1.0
 40
1.0
 40
1.0
 10
214.8287351922332
 20
89.70573572949121
 30
0.0
 10
214.8468115026513
 20
89.50536012311514
 30
0.0
 10
214.8829641234873
 20
89.10460891036297
 30
0.0
 10
215.2275898976879
 20
88.594415972321
 30
0.0
 10
215.728411983808
 20
88.23643490395432
 30
0.0
 10
216.1279422234688
 20
88.1897918393377
 30
0.0
 10
216.3277073432992
 20
88.1664703070294
 30
0.0
  0
LINE
  5
17D
330
1F
100
AcDbEntity
  8
0
  6
Continuous
 62
     7
370
    25
100
AcDbLine
 10
215.3950724723
 20
89.7057357295
 30
0.0
 11
214.8287351922
 21
89.7057357295
 31
0.0
  0
SPLINE
  5
17E
330
1F
100
AcDbEntity
  8
0
  6
Continuous
 62
     7
370
    25
100
AcDbSpline
210
0.0
220
0.0
230
1.0
 70
     8
 71
     3
 72
     9
 73
     5
 74
     0
 42
0.00000001
 43
0.00000001
 40
0.0
 40
0.0
 40
0.0
 40
0.0
 40
0.540774756067758
 40
1.0
 40
1.0
 40
1.0
 40
1.0
 10
215.3950724723137
 20
89.70573572949122
 30
0.0
 10
215.3950429719008
 20
89.69440177569054
 30
0.0
 10
215.3949884197744
 20
89.6734430425516
 30
0.0
 10
215.3955926649093
 20
89.65247684968364
 30
0.0
 10
215.3958701495288
 20
89.64284864464952
 30
0.0
  0
ELLIPSE
  5
17F
330
1F
100
AcDbEntity
  8
0
  6
Continuous
 62
     7
370
    25
100
AcDbEllipse
 10
216.8940446234
 20
89.666470307
 30
0.0
 11
-0.399986139932679
 21
1.445826639360064
 31
0.0
210
0.0
220
0.0
230
1.0
 40
0.9987379186
 41
1.314426961368743
 42
1.316970714136491
  0
ELLIPSE
  5
180
330
1F
100
AcDbEntity
  8
0
  6
Continuous
 62
     7
370
    25
100
AcDbEllipse
 10
217.8427375231
 20
89.666470307
 30
0.0
 11
2.447559743736974
 21
-0.02501587584980314
 31
0.0
210
0.0
220
0.0
230
1.0
 40
0.6127700831
 41
3.171475350442053
 42
3.622568086779213
  0
LINE
  5
181
330
1F
100
AcDbEntity
  8
0
  6
Continuous
 62
     7
370
    25
100
AcDbLine
 10
218.9675537971
 20
89.7057357295
 30
0.0
 11
218.9667561199
 21
89.6428486446
 31
0.0
  0
LINE
  5
182
330
1F
100
AcDbEntity
  8
0
  6
Continuous
 62
     7
370
    25
100
AcDbLine
 10
219.5338910772
 20
89.7057357295
 30
0.0
 11
218.9675537971
 21
89.7057357295
 31
0.0
  0
SPLINE
  5
183
330
1F
100
AcDbEntity
  8
0
  6
Continuous
 62
     7
370
    25
100
AcDbSpline
210
0.0
220
0.0
230
1.0
 70
     8
 71
     3
 72
    11
 73
     7
 74
     0
 42
0.00000001
 43
0.00000001
 40
0.0
 40
0.0
 40
0.0
 40
0.0
 40
0.2500000000000001
 40
0.4999999999999997
 40
0.75
 40
1.0
 40
1.0
 40
1.0
 40
1.0
 10
218.0349189261615
 20
88.1664703070294
 30
0.0
 10
218.2346840459919
 20
88.1897918393377
 30
0.0
 10
218.6342142856527
 20
88.2364349039543
 30
0.0
 10
219.1350363717728
 20
88.59441597232102
 30
0.0
 10
219.4796621459734
 20
89.10460891036296
 30
0.0
 10
219.5158147668094
 20
89.50536012311514
 30
0.0
 10
219.5338910772275
 20
89.70573572949121
 30
0.0
  0
LINE
  5
184
330
1F
100
AcDbEntity
  8
0
  6
Continuous
 62
     7
370
    25
100
AcDbLine
 10
217.3427587291
 20
88.166470307
 30
0.0
 11
218.0349189262
 21
88.166470307
 31
0.0
  0
ELLIPSE
  5
185
330
1F
100
AcDbEntity
  8
0
  6
Continuous
 62
     7
370
    25
100
AcDbEllipse
 10
216.5198887464
 20
89.666470307
 30
0.0
 11
2.447559743736974
 21
0.02501587584980314
 31
0.0
210
0.0
220
0.0
230
1.0
 40
0.6127700831
 41
5.80220987399021
 42
6.253302610327353
  0
ELLIPSE
  5
186
330
1F
100
AcDbEntity
  8
0
  6
Continuous
 62
     7
370
    25
100
AcDbEllipse
 10
217.4685816461
 20
89.666470307
 30
0.0
 11
0.3999861399325653
 21
1.445826639360106
 31
0.0
210
0.0
220
0.0
230
1.0
 40
0.9987379186
 41
4.966214593033921
 42
4.96875834581075
  0
ELLIPSE
  5
187
330
1F
100
AcDbEntity
  8
0
  6
Continuous
 62
     7
370
    25
100
AcDbEllipse
 10
215.5654402729
 20
97.6852795582
 30
0.0
 11
0.02159772760037982
 21
0.7999991561933372
 31
0.0
210
0.0
220
0.0
230
1.0
 40
0.0537988877
 41
5.177489007048338
 42
5.369012849440509
  0
ELLIPSE
  5
188
330
1F
100
AcDbEntity
  8
0
  6
Continuous
 62
     7
370
    25
100
AcDbEllipse
 10
217.3436408593
 20
89.6799054865
 30
0.0
 11
1.947791790405546
 21
-0.0177698114313074
 31
0.0
210
0.0
220
0.0
230
1.0
 40
0.513320833
 41
3.160788584408909
 42
3.623660809788554
  0
LINE
  5
189
330
1F
100
AcDbEntity
  8
0
  6
Continuous
 62
     7
370
    25
100
AcDbLine
 10
215.3960328356
 20
89.6784803029
 30
0.0
 11
215.6127139468
 21
98.1727157211
 31
0.0
  0
ELLIPSE
  5
18A
330
1F
100
AcDbEntity
  8
0
  6
Continuous
 62
     7
370
    25
100
AcDbEllipse
 10
218.7971859965
 20
97.6852795582
 30
0.0
 11
-0.02159772760037982
 21
0.7999991561933372
 31
0.0
210
0.0
220
0.0
230
1.0
 40
0.0537988877
 41
0.9141724577388735
 42
1.105696300130701
  0
LINE
  5
18B
330
1F
100
AcDbEntity
  8
0
  6
Continuous
 62
     7
370
    25
100
AcDbLine
 10
218.7499123226
 20
98.1727157211
 30
0.0
 11
218.9665934339
 21
89.6784803029
 31
0.0
  0
ELLIPSE
  5
18C
330
1F
100
AcDbEntity
  8
0
  6
Continuous
 62
     7
370
    25
100
AcDbEllipse
 10
217.0189854101
 20
89.6799054865
 30
0.0
 11
1.947791790405574
 21
0.01776981143129319
 31
0.0
210
0.0
220
0.0
230
1.0
 40
0.513320833
 41
5.801117150980877
 42
6.263989376373029
  0
LINE
  5
18D
330
1F
100
AcDbEntity
  8
0
  6
Continuous
 62
     7
370
    25
100
AcDbLine
 10
215.3958125005
 20
89.646663873
 30
0.0
 11
215.3960328356
 21
89.6784803029
 31
0.0
  0
SPLINE
  5
18E
330
1F
100
AcDbEntity
  8
0
  6
Continuous
 62
     7
370
    25
100
AcDbSpline
210
0.0
220
0.0
230
1.0
 70
     8
 71
     3
 72
     9
 73
     5
 74
     0
 42
0.00000001
 43
0.00000001
 40
0.0
 40
0.0
 40
0.0
 40
0.0
 40
0.8673350121728702
 40
1.0
 40
1.0
 40
1.0
 40
1.0
 10
218.9665934338557
 20
89.67848030289197
 30
0.0
 10
218.966764166043
 20
89.66928187951677
 30
0.0
 10
218.9669610129186
 20
89.6586764926177
 30
0.0
 10
218.9668310151533
 20
89.64807086801629
 30
0.0
 10
218.9668137690014
 20
89.64666387295765
 30
0.0
  0
ELLIPSE
  5
18F
330
1F
100
AcDbEntity
  8
0
  6
Continuous
 62
     7
370
    25
100
AcDbEllipse
 10
216.2817647643
 20
97.666470307
 30
0.0
 11
0.0209600052571659
 21
1.49999997144873
 31
0.0
210
0.0
220
0.0
230
1.0
 40
0.013963099
 41
5.413231207420207
 42
6.283380418268021
  0
LINE
  5
190
330
1F
100
AcDbEntity
  8
0
  6
Continuous
 62
     7
370
    25
100
AcDbLine
 10
218.0599055869
 20
99.166470307
 30
0.0
 11
216.3027206826
 21
99.166470307
 31
0.0
  0
ELLIPSE
  5
191
330
1F
100
AcDbEntity
  8
0
  6
Continuous
 62
     7
370
    25
100
AcDbEllipse
 10
218.0808615052
 20
97.666470307
 30
0.0
 11
-0.0209600052571659
 21
1.49999997144873
 31
0.0
210
0.0
220
0.0
230
1.0
 40
0.013963099
 41
6.282990196092134
 42
7.153139406939391
  0
SPLINE
  5
192
330
1F
100
AcDbEntity
  8
0
  6
Continuous
 62
     7
370
    25
100
AcDbSpline
210
0.0
220
0.0
230
1.0
 70
     8
 71
     3
 72
     9
 73
     5
 74
     0
 42
0.00000001
 43
0.00000001
 40
0.0
 40
0.0
 40
0.0
 40
0.0
 40
0.5600029565045499
 40
1.0
 40
1.0
 40
1.0
 40
1.0
 10
218.0513372213543
 20
98.63353904786997
 30
0.0
 10
218.0513428594205
 20
98.62375258571002
 30
0.0
 10
218.0513529273427
 20
98.60627685268705
 30
0.0
 10
218.0512307507393
 20
98.58831588502125
 30
0.0
 10
218.051176993395
 20
98.58041311235
 30
0.0
  0
ELLIPSE
  5
193
330
1F
100
AcDbEntity
  8
0
  6
Continuous
 62
     7
370
    25
100
AcDbEllipse
 10
218.0984506673
 20
97.666470307
 30
0.0
 11
-0.02155295842283067
 21
1.499999872388898
 31
0.0
210
0.0
220
0.0
230
1.0
 40
0.0287076702
 41
0.9152123852433427
 42
1.106736227635108
  0
ELLIPSE
  5
194
330
1F
100
AcDbEntity
  8
0
  6
Continuous
 62
     7
370
    25
100
AcDbEllipse
 10
216.2641756022
 20
97.666470307
 30
0.0
 11
0.02155295842285909
 21
1.499999872388898
 31
0.0
210
0.0
220
0.0
230
0.9999999999999998
 40
0.0287076702
 41
5.17644907954444
 42
5.367972921935937
  0
SPLINE
  5
195
330
1F
100
AcDbEntity
  8
0
  6
Continuous
 62
     7
370
    25
100
AcDbSpline
210
0.0
220
0.0
230
1.0
 70
     8
 71
     3
 72
     9
 73
     5
 74
     0
 42
0.00000001
 43
0.00000001
 40
0.0
 40
0.0
 40
0.0
 40
0.0
 40
0.5599925069633377
 40
1.0
 40
1.0
 40
1.0
 40
1.0
 10
216.3114492760657
 20
98.58041311234999
 30
0.0
 10
216.3113835309142
 20
98.59046070665283
 30
0.0
 10
216.3112661272873
 20
98.60840307941307
 30
0.0
 10
216.3112820444399
 20
98.62585852223435
 30
0.0
 10
216.3112890481064
 20
98.63353904786999
 30
0.0
  0
SPLINE
  5
196
330
1F
100
AcDbEntity
  8
0
  6
Continuous
 62
     7
370
    25
100
AcDbSpline
210
0.0
220
0.0
230
1.0
 70
     8
 71
     3
 72
    12
 73
     8
 74
     0
 42
0.00000001
 43
0.00000001
 40
0.0
 40
0.0
 40
0.0
 40
0.0
 40
0.2225634137434379
 40
0.4462063173695244
 40
0.6680851268156933
 40
0.8917990985568367
 40
1.0
 40
1.0
 40
1.0
 40
1.0
 10
215.6127139468143
 20
98.17271572108051
 30
0.0
 10
215.6250670543811
 20
98.22030166438684
 30
0.0
 10
215.6498331852681
 20
98.3157043550813
 30
0.0
 10
215.782417113266
 20
98.43992308765425
 30
0.0
 10
215.9687745167606
 20
98.53181288875872
 30
0.0
 10
216.1568653281138
 20
98.57426846776882
 30
0.0
 10
216.2734453610022
 20
98.57890247328393
 30
0.0
 10
216.3114492760657
 20
98.58041311234999
 30
0.0
  0
SPLINE
  5
197
330
1F
100
AcDbEntity
  8
0
  6
Continuous
 62
     7
370
    25
100
AcDbSpline
210
0.0
220
0.0
230
1.0
 70
     8
 71
     3
 72
    12
 73
     8
 74
     0
 42
0.00000001
 43
0.00000001
 40
0.0
 40
0.0
 40
0.0
 40
0.0
 40
0.2225634137435274
 40
0.446206317369568
 40
0.6680851268158019
 40
0.8917990985569294
 40
1.0
 40
1.0
 40
1.0
 40
1.0
 10
218.051176993395
 20
98.58041311235
 30
0.0
 10
218.1296806534376
 20
98.57498603973627
 30
0.0
 10
218.2870687364942
 20
98.56410557180884
 30
0.0
 10
218.4964202741217
 20
98.48881214078853
 30
0.0
 10
218.6551795685917
 20
98.3793335960352
 30
0.0
 10
218.7330284389083
 20
98.26661895548874
 30
0.0
 10
218.7457614797417
 20
98.19580149804452
 30
0.0
 10
218.7499123226463
 20
98.1727157210805
 30
0.0
  0
SPLINE
  5
198
330
1F
100
AcDbEntity
  8
0
  6
Continuous
 62
     7
370
    25
100
AcDbSpline
210
0.0
220
0.0
230
1.0
 70
     8
 71
     3
 72
    12
 73
     8
 74
     0
 42
0.00000001
 43
0.00000001
 40
0.0
 40
0.0
 40
0.0
 40
0.0
 40
0.2198609600791294
 40
0.4397396970008148
 40
0.6583291451397767
 40
0.87912395168436
 40
1.0
 40
1.0
 40
1.0
 40
1.0
 10
218.7508575585184
 20
98.20056416595989
 30
0.0
 10
218.7401855638743
 20
98.25105238208776
 30
0.0
 10
218.7188407117027
 20
98.35203289656472
 30
0.0
 10
218.5907223164357
 20
98.48369588951478
 30
0.0
 10
218.4077843803706
 20
98.58125721228785
 30
0.0
 10
218.2162352084835
 20
98.62791660376455
 30
0.0
 10
218.0944295367985
 20
98.6320697507659
 30
0.0
 10
218.0513372213543
 20
98.63353904786997
 30
0.0
  0
SPLINE
  5
199
330
1F
100
AcDbEntity
  8
0
  6
Continuous
 62
     7
370
    25
100
AcDbSpline
210
0.0
220
0.0
230
1.0
 70
     8
 71
     3
 72
    12
 73
     8
 74
     0
 42
0.00000001
 43
0.00000001
 40
0.0
 40
0.0
 40
0.0
 40
0.0
 40
0.2198610998683202
 40
0.4397399767664986
 40
0.6583294271823332
 40
0.8791242261983154
 40
1.0
 40
1.0
 40
1.0
 40
1.0
 10
216.3112890481064
 20
98.63353904786999
 30
0.0
 10
216.2325981383872
 20
98.62871525452039
 30
0.0
 10
216.0752099563379
 20
98.61906727778981
 30
0.0
 10
215.865928207853
 20
98.54189314012804
 30
0.0
 10
215.7072788871886
 20
98.4280256309159
 30
0.0
 10
215.6271788244733
 20
98.30654506141228
 30
0.0
 10
215.6157957871716
 20
98.2282598181678
 30
0.0
 10
215.6117687109423
 20
98.20056416595989
 30
0.0
  0
LINE
  5
19A
330
1F
100
AcDbEntity
  8
0
  6
Continuous
 62
     7
370
    25
100
AcDbLine
 10
218.1873952444
 20
99.1415359287
 30
0.0
 11
218.0599055869
 21
99.166470307
 31
0.0
  0
ELLIPSE
  5
19B
330
1F
100
AcDbEntity
  8
0
  6
Continuous
 62
     7
370
    25
100
AcDbEllipse
 10
218.7803818424
 20
97.6847941708
 30
0.0
 11
-0.02097028290364733
 21
0.7999998117962974
 31
0.0
210
0.0
220
0.0
230
0.9999999999999999
 40
0.0261679535
 41
6.282499370390492
 42
7.152648581237383
  0
ELLIPSE
  5
19C
330
1F
100
AcDbEntity
  8
0
  6
Continuous
 62
     7
370
    25
100
AcDbEllipse
 10
215.5822444271
 20
97.6847941708
 30
0.0
 11
0.02097028290364733
 21
0.7999998117962974
 31
0.0
210
0.0
220
0.0
230
0.9999999999999999
 40
0.0261679535
 41
5.413722033121131
 42
6.283871243967846
  0
SPLINE
  5
19D
330
1F
100
AcDbEntity
  8
0
  6
Continuous
 62
     7
370
    25
100
AcDbSpline
210
0.0
220
0.0
230
1.0
 70
     8
 71
     3
 72
    11
 73
     7
 74
     0
 42
0.00000001
 43
0.00000001
 40
0.0
 40
0.0
 40
0.0
 40
0.0
 40
0.2499999999999963
 40
0.4999999999999995
 40
0.7500000000000014
 40
1.0
 40
1.0
 40
1.0
 40
1.0
 10
215.6032003454169
 20
98.4847941708449
 30
0.0
 10
215.6157208616394
 20
98.57469321797191
 30
0.0
 10
215.6407618940846
 20
98.75449131222594
 30
0.0
 10
215.8034053637072
 20
98.9792075214609
 30
0.0
 10
216.0322250997616
 20
99.1359686064904
 30
0.0
 10
216.2125554883079
 20
99.15630307351638
 30
0.0
 10
216.302720682581
 20
99.1664703070294
 30
0.0
  0
LINE
  5
19E
330
1F
100
AcDbEntity
  8
0
  6
Continuous
 62
     7
370
    25
100
AcDbLine
 10
218.9658992754
 20
89.7056923895
 30
0.0
 11
218.9675537971
 21
89.7057357295
 31
0.0
  0
LINE
  5
19F
330
1F
100
AcDbEntity
  8
0
  6
Continuous
 62
     7
370
    25
100
AcDbLine
 10
215.396726994
 20
89.7056923895
 30
0.0
 11
215.3950724723
 21
89.7057357295
 31
0.0
  0
SPLINE
  5
1A0
330
1F
100
AcDbEntity
  8
0
  6
Continuous
 62
     7
370
    25
100
AcDbSpline
210
0.0
220
0.0
230
1.0
 70
     8
 71
     3
 72
     9
 73
     5
 74
     0
 42
0.00000001
 43
0.00000001
 40
0.0
 40
0.0
 40
0.0
 40
0.0
 40
0.5600012771711204
 40
1.0
 40
1.0
 40
1.0
 40
1.0
 10
214.8287351922332
 20
89.70573572949121
 30
0.0
 10
214.8405696045783
 20
90.6347853689194
 30
0.0
 10
214.861702435569
 20
92.29379879853391
 30
0.0
 10
214.8826631649815
 20
93.9505780337005
 30
0.0
 10
214.8918858591525
 20
94.67955878118322
 30
0.0
  0
SPLINE
  5
1A1
330
1F
100
AcDbEntity
  8
0
  6
Continuous
 62
     7
370
    25
100
AcDbSpline
210
0.0
220
0.0
230
1.0
 70
     8
 71
     3
 72
     9
 73
     5
 74
     0
 42
0.00000001
 43
0.00000001
 40
0.0
 40
0.0
 40
0.0
 40
0.0
 40
0.5599999095971039
 40
1.0
 40
1.0
 40
1.0
 40
1.0
 10
214.8918858591525
 20
94.67955878118322
 30
0.0
 10
214.8941832690497
 20
94.86136049593202
 30
0.0
 10
214.8982857873856
 20
95.18600646753514
 30
0.0
 10
214.9023821805787
 20
95.51057267308963
 30
0.0
 10
214.904184593954
 20
95.65338183287534
 30
0.0
  0
LINE
  5
1A2
330
1F
100
AcDbEntity
  8
0
  6
Continuous
 62
     7
370
    25
100
AcDbLine
 10
214.904184594
 20
95.6533818329
 30
0.0
 11
214.5758564646
 21
95.6533818329
 31
0.0
  0
LINE
  5
1A3
330
1F
100
AcDbEntity
  8
0
  6
Continuous
 62
     7
370
    25
100
AcDbLine
 10
214.5758564646
 20
95.6533818329
 30
0.0
 11
214.7056323778
 21
98.4847941708
 31
0.0
  0
LINE
  5
1A4
330
1F
100
AcDbEntity
  8
0
  6
Continuous
 62
     7
370
    25
100
AcDbLine
 10
214.7056323778
 20
98.4847941708
 30
0.0
 11
215.6032003454
 21
98.4847941708
 31
0.0
  0
LINE
  5
1A5
330
1F
100
AcDbEntity
  8
0
  6
Continuous
 62
     7
370
    25
100
AcDbLine
 10
215.6117687109
 20
98.200564166
 30
0.0
 11
215.3950724723
 21
89.7057357295
 31
0.0
  0
LINE
  5
1A6
330
1F
100
AcDbEntity
  8
0
  6
Continuous
 62
     7
370
    25
100
AcDbLine
 10
219.7867698048
 20
95.6533818329
 30
0.0
 11
219.4584416755
 21
95.6533818329
 31
0.0
  0
SPLINE
  5
1A7
330
1F
100
AcDbEntity
  8
0
  6
Continuous
 62
     7
370
    25
100
AcDbSpline
210
0.0
220
0.0
230
1.0
 70
     8
 71
     3
 72
     9
 73
     5
 74
     0
 42
0.00000001
 43
0.00000001
 40
0.0
 40
0.0
 40
0.0
 40
0.0
 40
0.5600000882143319
 40
1.0
 40
1.0
 40
1.0
 40
1.0
 10
219.4584416755067
 20
95.65338183287534
 30
0.0
 10
219.4607357916478
 20
95.47162296204355
 30
0.0
 10
219.4648324269687
 20
95.1470536009719
 30
0.0
 10
219.468935193428
 20
94.8224044006751
 30
0.0
 10
219.4707404103081
 20
94.67955878118322
 30
0.0
  0
SPLINE
  5
1A8
330
1F
100
AcDbEntity
  8
0
  6
Continuous
 62
     7
370
    25
100
AcDbSpline
210
0.0
220
0.0
230
1.0
 70
     8
 71
     3
 72
     9
 73
     5
 74
     0
 42
0.00000001
 43
0.00000001
 40
0.0
 40
0.0
 40
0.0
 40
0.0
 40
0.5599987526606142
 40
1.0
 40
1.0
 40
1.0
 40
1.0
 10
219.4707404103081
 20
94.67955878118322
 30
0.0
 10
219.4824819968305
 20
93.7517174813339
 30
0.0
 10
219.5034491623226
 20
92.09485432683393
 30
0.0
 10
219.5245893626947
 20
90.43574562692345
 30
0.0
 10
219.5338910772275
 20
89.70573572949122
 30
0.0
  0
LINE
  5
1A9
330
1F
100
AcDbEntity
  8
0
  6
Continuous
 62
     7
370
    25
100
AcDbLine
 10
218.9675537971
 20
89.7057357295
 30
0.0
 11
218.7508575585
 21
98.200564166
 31
0.0
  0
LINE
  5
1AA
330
1F
100
AcDbEntity
  8
0
  6
Continuous
 62
     7
370
    25
100
AcDbLine
 10
218.759425924
 20
98.4847941708
 30
0.0
 11
219.6569938917
 21
98.4847941708
 31
0.0
  0
LINE
  5
1AB
330
1F
100
AcDbEntity
  8
0
  6
Continuous
 62
     7
370
    25
100
AcDbLine
 10
219.6569938917
 20
98.4847941708
 30
0.0
 11
219.7867698048
 21
95.6533818329
 31
0.0
  0
LINE
  5
1AC
330
1F
100
AcDbEntity
  8
0
  6
Continuous
 62
     7
370
    25
100
AcDbLine
 10
216.3027206826
 20
99.166470307
 30
0.0
 11
215.405152715
 21
99.166470307
 31
0.0
  0
SPLINE
  5
1AD
330
1F
100
AcDbEntity
  8
0
  6
Continuous
 62
     7
370
    25
100
AcDbSpline
210
0.0
220
0.0
230
1.0
 70
     8
 71
     3
 72
    11
 73
     7
 74
     0
 42
0.00000001
 43
0.00000001
 40
0.0
 40
0.0
 40
0.0
 40
0.0
 40
0.2499999999999982
 40
0.4999999999999978
 40
0.750000000000001
 40
1.0
 40
1.0
 40
1.0
 40
1.0
 10
214.7056323777977
 20
98.4847941708449
 30
0.0
 10
214.7181528940203
 20
98.57469321797193
 30
0.0
 10
214.7431939264654
 20
98.75449131222597
 30
0.0
 10
214.905837396088
 20
98.9792075214609
 30
0.0
 10
215.1346571321425
 20
99.13596860649041
 30
0.0
 10
215.3149875206887
 20
99.15630307351638
 30
0.0
 10
215.4051527149618
 20
99.1664703070294
 30
0.0
  0
LINE
  5
1AE
330
1F
100
AcDbEntity
  8
0
  6
Continuous
 62
     7
370
    25
100
AcDbLine
 10
218.9574735545
 20
99.166470307
 30
0.0
 11
218.0599055869
 21
99.166470307
 31
0.0
  0
SPLINE
  5
1AF
330
1F
100
AcDbEntity
  8
0
  6
Continuous
 62
     7
370
    25
100
AcDbSpline
210
0.0
220
0.0
230
1.0
 70
     8
 71
     3
 72
    11
 73
     7
 74
     0
 42
0.00000001
 43
0.00000001
 40
0.0
 40
0.0
 40
0.0
 40
0.0
 40
0.2499999999999988
 40
0.5000000000000004
 40
0.7499999999999976
 40
1.0
 40
1.0
 40
1.0
 40
1.0
 10
218.9574735544988
 20
99.16647030702941
 30
0.0
 10
219.047638748772
 20
99.1563030735164
 30
0.0
 10
219.2279691373182
 20
99.13596860649041
 30
0.0
 10
219.4567888733727
 20
98.97920752146089
 30
0.0
 10
219.6194323429953
 20
98.75449131222597
 30
0.0
 10
219.6444733754404
 20
98.57469321797193
 30
0.0
 10
219.6569938916629
 20
98.4847941708449
 30
0.0
  0
LINE
  5
1B0
330
1F
100
AcDbEntity
  8
0
  6
Continuous
 62
     7
370
    25
100
AcDbLine
 10
214.3163647226
 20
95.166470307
 30
0.0
 11
214.0822695887
 21
95.166470307
 31
0.0
  0
SPLINE
  5
1B1
330
1F
100
AcDbEntity
  8
0
  6
Continuous
 62
     7
370
    25
100
AcDbSpline
210
0.0
220
0.0
230
1.0
 70
     8
 71
     3
 72
    10
 73
     6
 74
     0
 42
0.00000001
 43
0.00000001
 40
0.0
 40
0.0
 40
0.0
 40
0.0
 40
0.2383396858856107
 40
0.571650633368965
 40
1.0
 40
1.0
 40
1.0
 40
1.0
 10
214.3227906926756
 20
95.16647030702931
 30
0.0
 10
214.3973888951025
 20
95.17542904994895
 30
0.0
 10
214.5763104603763
 20
95.19691632784468
 30
0.0
 10
214.8126545726313
 20
95.37057871079779
 30
0.0
 10
214.8712379488168
 20
95.55158557005237
 30
0.0
 10
214.904184593954
 20
95.65338183287552
 30
0.0
  0
SPLINE
  5
1B2
330
1F
100
AcDbEntity
  8
0
  6
Continuous
 62
     7
370
    25
100
AcDbSpline
210
0.0
220
0.0
230
1.0
 70
     8
 71
     3
 72
    11
 73
     7
 74
     0
 42
0.00000001
 43
0.00000001
 40
0.0
 40
0.0
 40
0.0
 40
0.0
 40
0.2506671725023491
 40
0.5010414677145718
 40
0.7508849997170933
 40
1.0
 40
1.0
 40
1.0
 40
1.0
 10
214.8287351922332
 20
89.70573572949121
 30
0.0
 10
214.8018606255781
 20
89.73524174949041
 30
0.0
 10
214.7481428922719
 20
89.794219314918
 30
0.0
 10
214.462677428618
 20
89.88095258372971
 30
0.0
 10
214.0411492819983
 20
89.96527361395621
 30
0.0
 10
213.6247922043013
 20
90.0178566065708
 30
0.0
 10
213.4169176279248
 20
90.04410971453962
 30
0.0
  0
SPLINE
  5
1B3
330
1F
100
AcDbEntity
  8
0
  6
Continuous
 62
     7
370
    25
100
AcDbSpline
210
0.0
220
0.0
230
1.0
 70
     8
 71
     3
 72
     9
 73
     5
 74
     0
 42
0.00000001
 43
0.00000001
 40
0.0
 40
0.0
 40
0.0
 40
0.0
 40
0.501325902198991
 40
1.0
 40
1.0
 40
1.0
 40
1.0
 10
213.4169175745606
 20
90.04410948025239
 30
0.0
 10
213.2918749170906
 20
90.05553132736502
 30
0.0
 10
213.042451025523
 20
90.07831460479495
 30
0.0
 10
212.7406829171017
 20
90.07537665088746
 30
0.0
 10
212.5901989778897
 20
90.07391156937328
 30
0.0
  0
LINE
  5
1B4
330
1F
100
AcDbEntity
  8
0
  6
Continuous
 62
     7
370
    25
100
AcDbLine
 10
212.4754325386
 20
93.6665813129
 30
0.0
 11
212.5902077461
 21
90.0740112264
 31
0.0
  0
SPLINE
  5
1B5
330
1F
100
AcDbEntity
  8
0
  6
Continuous
 62
     7
370
    25
100
AcDbSpline
210
0.0
220
0.0
230
1.0
 70
     8
 71
     3
 72
    14
 73
    10
 74
     0
 42
0.00000001
 43
0.00000001
 40
0.0
 40
0.0
 40
0.0
 40
0.0
 40
0.0829413618596714
 40
0.1664594845668882
 40
0.2437726390188662
 40
0.3161479456895724
 40
0.4353725718192331
 40
0.6486290670514194
 40
1.0
 40
1.0
 40
1.0
 40
1.0
 10
212.475432543393
 20
93.66658130029009
 30
0.0
 10
212.4772477329754
 20
93.75644520787998
 30
0.0
 10
212.4808907346757
 20
93.9367979221733
 30
0.0
 10
212.5625518671632
 20
94.22468263295919
 30
0.0
 10
212.6958353474481
 20
94.47620866038595
 30
0.0
 10
212.8841618036857
 20
94.71015799028699
 30
0.0
 10
213.182428883348
 20
94.95096896079494
 30
0.0
 10
213.6404560421333
 20
95.14291056403431
 30
0.0
 10
213.9127915708112
 20
95.15742386765722
 30
0.0
 10
214.082267554461
 20
95.16645558092443
 30
0.0
  0
LINE
  5
1B6
330
1F
100
AcDbEntity
  8
0
  6
Continuous
 62
     7
370
    25
100
AcDbLine
 10
221.7724185234
 20
90.0740112264
 30
0.0
 11
221.8871937309
 21
93.6665813129
 31
0.0
  0
SPLINE
  5
1B7
330
1F
100
AcDbEntity
  8
0
  6
Continuous
 62
     7
370
    25
100
AcDbSpline
210
0.0
220
0.0
230
1.0
 70
     8
 71
     3
 72
     9
 73
     5
 74
     0
 42
0.00000001
 43
0.00000001
 40
0.0
 40
0.0
 40
0.0
 40
0.0
 40
0.4986740982738611
 40
1.0
 40
1.0
 40
1.0
 40
1.0
 10
221.7724274734063
 20
90.07391073997007
 30
0.0
 10
221.6219435371272
 20
90.07537581922672
 30
0.0
 10
221.3201754348738
 20
90.07831376860435
 30
0.0
 10
221.0707515432516
 20
90.05553048967263
 30
0.0
 10
220.945708885872
 20
90.04410864181791
 30
0.0
  0
SPLINE
  5
1B8
330
1F
100
AcDbEntity
  8
0
  6
Continuous
 62
     7
370
    25
100
AcDbSpline
210
0.0
220
0.0
230
1.0
 70
     8
 71
     3
 72
    11
 73
     7
 74
     0
 42
0.00000001
 43
0.00000001
 40
0.0
 40
0.0
 40
0.0
 40
0.0
 40
0.249115000282908
 40
0.4989585322854286
 40
0.7493328274976518
 40
1.0
 40
1.0
 40
1.0
 40
1.0
 10
220.9457086415358
 20
90.04410971453962
 30
0.0
 10
220.7378340651593
 20
90.01785660657079
 30
0.0
 10
220.3214769874624
 20
89.96527361395621
 30
0.0
 10
219.8999488408427
 20
89.88095258372972
 30
0.0
 10
219.6144833771888
 20
89.794219314918
 30
0.0
 10
219.5607656438826
 20
89.7352417494904
 30
0.0
 10
219.5338910772275
 20
89.7057357294912
 30
0.0
  0
SPLINE
  5
1B9
330
1F
100
AcDbEntity
  8
0
  6
Continuous
 62
     7
370
    25
100
AcDbSpline
210
0.0
220
0.0
230
1.0
 70
     8
 71
     3
 72
    10
 73
     6
 74
     0
 42
0.00000001
 43
0.00000001
 40
0.0
 40
0.0
 40
0.0
 40
0.0
 40
0.428349366631063
 40
0.7616603141144169
 40
1.0
 40
1.0
 40
1.0
 40
1.0
 10
219.4584416755067
 20
95.65338183287554
 30
0.0
 10
219.4913883206438
 20
95.5515855700524
 30
0.0
 10
219.5499716968293
 20
95.37057871079784
 30
0.0
 10
219.7863158090842
 20
95.19691632784475
 30
0.0
 10
219.965237374358
 20
95.17542904994897
 30
0.0
 10
220.0398355767849
 20
95.16647030702931
 30
0.0
  0
LINE
  5
1BA
330
1F
100
AcDbEntity
  8
0
  6
Continuous
 62
     7
370
    25
100
AcDbLine
 10
220.0462615472
 20
95.166470307
 30
0.0
 11
220.280356681
 21
95.166470307
 31
0.0
  0
SPLINE
  5
1BB
330
1F
100
AcDbEntity
  8
0
  6
Continuous
 62
     7
370
    25
100
AcDbSpline
210
0.0
220
0.0
230
1.0
 70
     8
 71
     3
 72
    15
 73
    11
 74
     0
 42
0.00000001
 43
0.00000001
 40
0.0
 40
0.0
 40
0.0
 40
0.0
 40
0.2091652517822448
 40
0.4176299509274911
 40
0.5931463878153098
 40
0.6923603779431111
 40
0.7731125739307029
 40
0.8543366880968446
 40
0.9261517123972134
 40
1.0
 40
1.0
 40
1.0
 40
1.0
 10
220.2803587152312
 20
95.1664555809234
 30
0.0
 10
220.3780563477206
 20
95.16336409042492
 30
0.0
 10
220.5731243961399
 20
95.15719146369
 30
0.0
 10
220.9224042494924
 20
95.06691800387978
 30
0.0
 10
221.2552944364358
 20
94.89831155177639
 30
0.0
 10
221.5169125224718
 20
94.66886284372342
 30
0.0
 10
221.6975065353856
 20
94.43108380046708
 30
0.0
 10
221.8196006986959
 20
94.16916730362858
 30
0.0
 10
221.8836506880143
 20
93.90362572889059
 30
0.0
 10
221.8860017740523
 20
93.74632799786902
 30
0.0
 10
221.8871937260657
 20
93.66658130031026
 30
0.0
  0
SPLINE
  5
1BC
330
1F
100
AcDbEntity
  8
0
  6
Continuous
 62
     7
370
    25
100
AcDbSpline
210
0.0
220
0.0
230
1.0
 70
     8
 71
     3
 72
    11
 73
     7
 74
     0
 42
0.00000001
 43
0.00000001
 40
0.0
 40
0.0
 40
0.0
 40
0.0
 40
0.279563842830426
 40
0.5590315778757569
 40
0.7794196683313495
 40
1.0
 40
1.0
 40
1.0
 40
1.0
 10
213.4169176279248
 20
90.04410971453962
 30
0.0
 10
213.3931684517979
 20
89.78684410435878
 30
0.0
 10
213.3456782639787
 20
89.27240132614945
 30
0.0
 10
213.6813653453969
 20
88.6298871269103
 30
0.0
 10
214.1600802346602
 20
88.23821382571639
 30
0.0
 10
214.5119658053295
 20
88.1903917626384
 30
0.0
 10
214.6879852933322
 20
88.1664703070294
 30
0.0
  0
SPLINE
  5
1BD
330
1F
100
AcDbEntity
  8
0
  6
Continuous
 62
     7
370
    25
100
AcDbSpline
210
0.0
220
0.0
230
1.0
 70
    24
 71
     3
 72
    11
 73
     7
 74
     0
 42
0.00000001
 43
0.00000001
 40
0.0
 40
0.0
 40
0.0
 40
0.0
 40
0.2799317596299056
 40
0.5599103390525024
 40
0.7799480709991913
 40
1.0
 40
1.0
 40
1.0
 40
1.0
 10
214.6879852933322
 20
88.1664703070294
 30
0.0
 10
214.9555532507717
 20
88.1664703070294
 30
0.0
 10
215.4907339175443
 20
88.1664703070294
 30
0.0
 10
215.9646007112068
 20
88.1664703070294
 30
0.0
 10
216.2498504687555
 20
88.16647030702939
 30
0.0
 10
216.3017544936527
 20
88.1664703070294
 30
0.0
 10
216.3277073432992
 20
88.1664703070294
 30
0.0
  0
SPLINE
  5
1BE
330
1F
100
AcDbEntity
  8
0
  6
Continuous
 62
     7
370
    25
100
AcDbSpline
210
0.0
220
0.0
230
1.0
 70
     8
 71
     3
 72
    11
 73
     7
 74
     0
 42
0.00000001
 43
0.00000001
 40
0.0
 40
0.0
 40
0.0
 40
0.0
 40
0.2795638428677821
 40
0.5590315779132456
 40
0.7794196683689406
 40
1.0
 40
1.0
 40
1.0
 40
1.0
 10
219.6746409761284
 20
88.1664703070294
 30
0.0
 10
219.8986213916947
 20
88.2049891589775
 30
0.0
 10
220.3465052233492
 20
88.28201362095031
 30
0.0
 10
220.8064454584546
 20
88.81481151874002
 30
0.0
 10
221.017819899354
 20
89.44254808560639
 30
0.0
 10
220.9697527124746
 20
89.84353090177504
 30
0.0
 10
220.9457086415358
 20
90.04410971453962
 30
0.0
  0
SPLINE
  5
1BF
330
1F
100
AcDbEntity
  8
0
  6
Continuous
 62
     7
370
    25
100
AcDbSpline
210
0.0
220
0.0
230
1.0
 70
    24
 71
     3
 72
    11
 73
     7
 74
     0
 42
0.00000001
 43
0.00000001
 40
0.0
 40
0.0
 40
0.0
 40
0.0
 40
0.2799857774483057
 40
0.5599458358671288
 40
0.779998565900937
 40
0.9999999999999999
 40
0.9999999999999999
 40
0.9999999999999999
 40
0.9999999999999999
 10
218.0349189261615
 20
88.1664703070294
 30
0.0
 10
218.0726726457694
 20
88.1664703070294
 30
0.0
 10
218.148176616991
 20
88.1664703070294
 30
0.0
 10
218.5297297672998
 20
88.1664703070294
 30
0.0
 10
219.0331604491129
 20
88.1664703070294
 30
0.0
 10
219.4608307512503
 20
88.1664703070294
 30
0.0
 10
219.6746409761284
 20
88.1664703070294
 30
0.0
  0
SPLINE
  5
1C0
330
1F
100
AcDbEntity
  8
0
  6
Continuous
 62
     7
370
    25
100
AcDbSpline
210
0.0
220
0.0
230
1.0
 70
     8
 71
     3
 72
    11
 73
     7
 74
     0
 42
0.00000001
 43
0.00000001
 40
0.0
 40
0.0
 40
0.0
 40
0.0
 40
0.2499999999999989
 40
0.4999999999999996
 40
0.749999999999999
 40
1.0
 40
1.0
 40
1.0
 40
1.0
 10
220.2864271885349
 20
95.16647030702937
 30
0.0
 10
220.2220234783398
 20
95.17373261668152
 30
0.0
 10
220.0932160579497
 20
95.18825723598582
 30
0.0
 10
219.9297733893393
 20
95.3002294395783
 30
0.0
 10
219.813599482466
 20
95.46074101760328
 30
0.0
 10
219.7957130307195
 20
95.58916822778473
 30
0.0
 10
219.7867698048462
 20
95.65338183287544
 30
0.0
  0
SPLINE
  5
1C1
330
1F
100
AcDbEntity
  8
0
  6
Continuous
 62
     7
370
    25
100
AcDbSpline
210
0.0
220
0.0
230
1.0
 70
     8
 71
     3
 72
    11
 73
     7
 74
     0
 42
0.00000001
 43
0.00000001
 40
0.0
 40
0.0
 40
0.0
 40
0.0
 40
0.2500000000000009
 40
0.5000000000000002
 40
0.7500000000000007
 40
0.9999999999999999
 40
0.9999999999999999
 40
0.9999999999999999
 40
0.9999999999999999
 10
214.5758564646144
 20
95.65338183287544
 30
0.0
 10
214.5669132387412
 20
95.58916822778473
 30
0.0
 10
214.5490267869946
 20
95.46074101760327
 30
0.0
 10
214.4328528801213
 20
95.3002294395783
 30
0.0
 10
214.269410211511
 20
95.18825723598582
 30
0.0
 10
214.1406027911208
 20
95.17373261668152
 30
0.0
 10
214.0761990809258
 20
95.16647030702937
 30
0.0
  0
SPLINE
  5
1C2
330
1F
100
AcDbEntity
  8
0
  6
Continuous
 62
     7
370
    25
100
AcDbSpline
210
0.0
220
0.0
230
1.0
 70
     8
 71
     3
 72
     9
 73
     5
 74
     0
 42
0.00000001
 43
0.00000001
 40
0.0
 40
0.0
 40
0.0
 40
0.0
 40
0.5642319118445199
 40
1.0
 40
1.0
 40
1.0
 40
1.0
 10
212.4795980897309
 20
87.99101734588028
 30
0.0
 10
212.9550297010044
 20
88.0445993146076
 30
0.0
 10
213.7976470739198
 20
88.13956375671465
 30
0.0
 10
214.4177599088249
 20
88.15830393525512
 30
0.0
 10
214.6879852933322
 20
88.1664703070294
 30
0.0
  0
SPLINE
  5
1C3
330
1F
100
AcDbEntity
  8
0
  6
Continuous
 62
     7
370
    25
100
AcDbSpline
210
0.0
220
0.0
230
1.0
 70
     8
 71
     3
 72
    13
 73
     9
 74
     0
 42
0.00000001
 43
0.00000001
 40
0.0
 40
0.0
 40
0.0
 40
0.0
 40
0.0926677825200998
 40
0.1856533156297218
 40
0.2733112842947868
 40
0.4135488925758314
 40
0.6528449691515641
 40
1.0
 40
1.0
 40
1.0
 40
1.0
 10
212.5901980754887
 20
90.0739108206786
 30
0.0
 10
212.5926327429398
 20
89.97967610355981
 30
0.0
 10
212.5975104261265
 20
89.79088354583634
 30
0.0
 10
212.5974359389805
 20
89.47767314161548
 30
0.0
 10
212.5910488819242
 20
89.1359390068224
 30
0.0
 10
212.5731342358274
 20
88.71908484991903
 30
0.0
 10
212.5360724950609
 20
88.23585620425611
 30
0.0
 10
212.5005977095072
 20
88.08205899390288
 30
0.0
 10
212.4795980897309
 20
87.99101734588028
 30
0.0
  0
SPLINE
  5
1C4
330
1F
100
AcDbEntity
  8
0
  6
Continuous
 62
     7
370
    25
100
AcDbSpline
210
0.0
220
0.0
230
1.0
 70
     8
 71
     3
 72
     9
 73
     5
 74
     0
 42
0.00000001
 43
0.00000001
 40
0.0
 40
0.0
 40
0.0
 40
0.0
 40
0.5551829690770672
 40
1.0
 40
1.0
 40
1.0
 40
1.0
 10
219.6746409761284
 20
88.1664703070294
 30
0.0
 10
220.0248954348765
 20
88.15347128653835
 30
0.0
 10
220.6557765646243
 20
88.1300573469633
 30
0.0
 10
221.5051931958233
 20
88.03382370761159
 30
0.0
 10
221.8830281797297
 20
87.99101734588028
 30
0.0
  0
SPLINE
  5
1C5
330
1F
100
AcDbEntity
  8
0
  6
Continuous
 62
     7
370
    25
100
AcDbSpline
210
0.0
220
0.0
230
1.0
 70
     8
 71
     3
 72
    13
 73
     9
 74
     0
 42
0.00000001
 43
0.00000001
 40
0.0
 40
0.0
 40
0.0
 40
0.0
 40
0.3327087167328944
 40
0.5628656559531304
 40
0.6987124125384707
 40
0.8016200683166474
 40
0.9052998751809803
 40
1.0
 40
1.0
 40
1.0
 40
1.0
 10
221.8830281797297
 20
87.99101734588028
 30
0.0
 10
221.8628953558226
 20
88.07680292079841
 30
0.0
 10
221.828835307003
 20
88.22193213283641
 30
0.0
 10
221.7927494556328
 20
88.67229882926372
 30
0.0
 10
221.7737107325441
 20
89.07203997786958
 30
0.0
 10
221.7654371985917
 20
89.42793222428114
 30
0.0
 10
221.7647609364013
 20
89.77536607131536
 30
0.0
 10
221.7699507471691
 20
89.97744494249444
 30
0.0
 10
221.7724281939719
 20
90.0739108206786
 30
0.0
  0
SPLINE
  5
1C6
330
1F
100
AcDbEntity
  8
0
  6
Continuous
 62
     7
370
    25
100
AcDbSpline
210
0.0
220
0.0
230
1.0
 70
     8
 71
     3
 72
    13
 73
     9
 74
     0
 42
0.00000001
 43
0.00000001
 40
0.0
 40
0.0
 40
0.0
 40
0.0
 40
0.1400312919410834
 40
0.2800978778503041
 40
0.4240602241121907
 40
0.5680316995452359
 40
0.7822812815056388
 40
0.9999999999999999
 40
0.9999999999999999
 40
0.9999999999999999
 40
0.9999999999999999
 10
214.9070906032255
 20
83.55435350595793
 30
0.0
 10
214.8182449829162
 20
83.87247912609858
 30
0.0
 10
214.6405313493421
 20
84.50881054785455
 30
0.0
 10
214.2863153303437
 20
85.341918639278
 30
0.0
 10
213.8951394045307
 20
86.08421541398087
 30
0.0
 10
213.420366641263
 20
86.82267378577704
 30
0.0
 10
212.880016457742
 20
87.5058284104593
 30
0.0
 10
212.6015558383183
 20
87.79639356679888
 30
0.0
 10
212.4612073702752
 20
87.94284290905566
 30
0.0
  0
ELLIPSE
  5
1C7
330
1F
100
AcDbEntity
  8
0
  6
Continuous
 62
     7
370
    25
100
AcDbEllipse
 10
212.622992214
 20
69.0934630598
 30
0.0
 11
0.0
 21
19.0730072472477
 31
0.0
210
0.0
220
0.0
230
1.0
 40
0.0555555556
 41
0.1357435643136111
 42
0.1532827087060913
  0
ELLIPSE
  5
1C8
330
1F
100
AcDbEntity
  8
0
  6
Continuous
 62
     7
370
    25
100
AcDbEllipse
 10
221.7396340555
 20
69.0934630598
 30
0.0
 11
0.0
 21
19.0730072472477
 31
0.0
210
0.0
220
0.0
230
1.0
 40
0.0555555556
 41
6.129902598473734
 42
6.147441742866273
  0
SPLINE
  5
1C9
330
1F
100
AcDbEntity
  8
0
  6
Continuous
 62
     7
370
    25
100
AcDbSpline
210
0.0
220
0.0
230
1.0
 70
     8
 71
     3
 72
    13
 73
     9
 74
     0
 42
0.00000001
 43
0.00000001
 40
0.0
 40
0.0
 40
0.0
 40
0.0
 40
0.1374692963454099
 40
0.2749820892813126
 40
0.4163021045260215
 40
0.5576318202769774
 40
0.777008491451321
 40
1.0
 40
1.0
 40
1.0
 40
1.0
 10
221.9014188991855
 20
87.94284290905566
 30
0.0
 10
221.8181404195696
 20
87.85660249962675
 30
0.0
 10
221.6515571102363
 20
87.68409439348464
 30
0.0
 10
221.3058569370075
 20
87.28511232016164
 30
0.0
 10
220.9222926223161
 20
86.78480290868939
 30
0.0
 10
220.4470349067176
 20
86.05598243708664
 30
0.0
 10
219.9009321387989
 20
85.03976348688498
 30
0.0
 10
219.604807757006
 20
84.05218020058145
 30
0.0
 10
219.4555356672834
 20
83.55435351022552
 30
0.0
  0
LINE
  5
1CA
330
1F
100
AcDbEntity
  8
0
  6
Continuous
 62
     7
370
    25
100
AcDbLine
 10
214.9070906032
 20
83.554353506
 30
0.0
 11
219.4555356673
 21
83.5543535102
 31
0.0
  0
LINE
  5
1CB
330
1F
100
AcDbEntity
  8
0
  6
Continuous
 62
     7
370
    25
100
AcDbLine
 10
211.9568841807
 20
93.666470307
 30
0.0
 11
212.475421848
 21
93.666470307
 31
0.0
  0
ARC
  5
1CC
330
1F
100
AcDbEntity
  8
0
  6
Continuous
 62
     7
370
    25
100
AcDbCircle
 10
205.6813131347
 20
81.2882930253
 30
0.0
 40
9.500000000000004
100
AcDbArc
 50
44.4654416734
 51
48.6553876907
  0
LINE
  5
1CD
330
1F
100
AcDbEntity
  8
0
  6
Continuous
 62
     7
370
    25
100
AcDbLine
 10
211.9568841807
 20
88.4204180977
 30
0.0
 11
211.9568841807
 21
93.666470307
 31
0.0
  0
LINE
  5
1CE
330
1F
100
AcDbEntity
  8
0
  6
Continuous
 62
     7
370
    25
100
AcDbLine
 10
222.4057420888
 20
93.666470307
 30
0.0
 11
222.4057420888
 21
88.4204180977
 31
0.0
  0
ARC
  5
1CF
330
1F
100
AcDbEntity
  8
0
  6
Continuous
 62
     7
370
    25
100
AcDbCircle
 10
228.6813131347
 20
81.2882930253
 30
0.0
 40
9.500000000000021
100
AcDbArc
 50
131.3446123093
 51
135.5345583266
  0
LINE
  5
1D0
330
1F
100
AcDbEntity
  8
0
  6
Continuous
 62
     7
370
    25
100
AcDbLine
 10
221.8872044215
 20
93.666470307
 30
0.0
 11
222.4057420888
 21
93.666470307
 31
0.0
  0
ARC
  5
1D1
330
1F
100
AcDbEntity
  8
0
  6
Continuous
 62
     7
370
    25
100
AcDbCircle
 10
220.9068959335
 20
93.6676241532
 30
0.0
 40
1.498846599345409
100
AcDbArc
 50
359.9558924033
 51
89.9558243884
  0
LINE
  5
1D2
330
1F
100
AcDbEntity
  8
0
  6
Continuous
 62
     7
370
    25
100
AcDbLine
 10
220.908051559
 20
95.166470307
 30
0.0
 11
220.2738443765
 21
95.166470307
 31
0.0
  0
ARC
  5
1D3
330
1F
100
AcDbEntity
  8
0
  6
Continuous
 62
     7
370
    25
100
AcDbCircle
 10
213.4557303359
 20
93.6676241532
 30
0.0
 40
1.498846599345437
100
AcDbArc
 50
90.0441756116
 51
180.0441075967
  0
LINE
  5
1D4
330
1F
100
AcDbEntity
  8
0
  6
Continuous
 62
     7
370
    25
100
AcDbLine
 10
214.0887818929
 20
95.166470307
 30
0.0
 11
213.4545747105
 21
95.166470307
 31
0.0
  0
LINE
  5
1D5
330
1F
100
AcDbEntity
  8
0
  6
Continuous
 62
     7
370
    25
100
AcDbLine
 10
214.6209321781
 20
95.5967616317
 30
0.0
 11
214.58332725
 21
95.6439976804
 31
0.0
  0
LINE
  5
1D6
330
1F
100
AcDbEntity
  8
0
  6
Continuous
 62
     7
370
    25
100
AcDbLine
 10
219.7792990195
 20
95.6439976804
 30
0.0
 11
219.7416940914
 21
95.5967616317
 31
0.0
  0
ELLIPSE
  5
1D7
330
1F
100
AcDbEntity
  8
0
  6
Continuous
 62
     7
370
    25
100
AcDbEllipse
 10
218.1570618981
 20
98.466470307
 30
0.0
 11
1.500207016110408
 21
0.02894030982646712
 31
0.0
210
0.0
220
0.0
230
1.0
 40
0.2796306798
 41
6.257897524076024
 42
6.352561004482506
  0
LINE
  5
1D8
330
1F
100
AcDbEntity
  8
0
  6
Continuous
 62
     7
370
    25
100
AcDbLine
 10
211.9646818222
 20
88.4135156748
 30
0.0
 11
211.9568841807
 21
88.4204180977
 31
0.0
  0
LINE
  5
1D9
330
1F
100
AcDbEntity
  8
0
  6
Continuous
 62
     7
370
    25
100
AcDbLine
 10
222.4057420888
 20
88.4204180977
 30
0.0
 11
222.3979444473
 21
88.4135156748
 31
0.0
  0
SPLINE
  5
1DA
330
1F
100
AcDbEntity
  8
0
  6
Continuous
 62
     7
370
    25
100
AcDbSpline
210
0.0
220
0.0
230
1.0
 70
     8
 71
     3
 72
     9
 73
     5
 74
     0
 42
0.00000001
 43
0.00000001
 40
0.0
 40
0.0
 40
0.0
 40
0.0
 40
0.0576289627817999
 40
1.0
 40
1.0
 40
1.0
 40
1.0
 10
218.9438266852582
 20
83.55435350974541
 30
0.0
 10
218.9389706131624
 20
83.53685023672705
 30
0.0
 10
218.8547061763003
 20
83.23312668916574
 30
0.0
 10
218.807748053129
 20
82.8905464947286
 30
0.0
 10
218.7634960778904
 20
82.56770884156647
 30
0.0
  0
SPLINE
  5
1DB
330
1F
100
AcDbEntity
  8
0
  6
Continuous
 62
     7
370
    25
100
AcDbSpline
210
0.0
220
0.0
230
1.0
 70
     8
 71
     3
 72
    10
 73
     6
 74
     0
 42
0.00000001
 43
0.00000001
 40
0.0
 40
0.0
 40
0.0
 40
0.0
 40
0.2746918501531821
 40
0.5573359346812419
 40
1.0
 40
1.0
 40
1.0
 40
1.0
 10
218.7634960778904
 20
82.56770884156647
 30
0.0
 10
218.478875319536
 20
82.62093288472957
 30
0.0
 10
217.9013941299826
 20
82.7289217887589
 30
0.0
 10
216.8223761868158
 20
82.77070786199745
 30
0.0
 10
216.0627431423831
 20
82.64464592146692
 30
0.0
 10
215.5991301915703
 20
82.56770884156647
 30
0.0
  0
LINE
  5
1DC
330
1F
100
AcDbEntity
  8
0
  6
Continuous
 62
     7
370
    25
100
AcDbLine
 10
215.5991301916
 20
82.5677088416
 30
0.0
 11
215.3838954058
 21
83.5543535064
 31
0.0
  0
LINE
  5
1DD
330
1F
100
AcDbEntity
  8
0
  6
Continuous
 62
     7
370
    25
100
AcDbLine
 10
209.0013131347
 20
80.466470307
 30
0.0
 11
218.1813131347
 21
80.466470307
 31
0.0
  0
LWPOLYLINE
  5
1DE
330
1F
100
AcDbEntity
  8
0
  6
Continuous
 62
     7
370
    25
100
AcDbPolyline
 90
        3
 70
   128
 43
0.0
 10
209.0626679276
 20
80.466470307
 10
209.1561516037
 20
79.5387261176
 10
209.1986804701
 20
79.1167184475
  0
LINE
  5
1DF
330
1F
100
AcDbEntity
  8
0
  6
Continuous
 62
     7
370
    25
100
AcDbLine
 10
218.1813131347
 20
79.1167184475
 30
0.0
 11
218.1813131347
 21
80.466470307
 31
0.0
  0
LINE
  5
1E0
330
1F
100
AcDbEntity
  8
0
  6
Continuous
 62
     7
370
    25
100
AcDbLine
 10
209.622704244
 20
96.666470307
 30
0.0
 11
214.6214877977
 21
96.666470307
 31
0.0
  0
LINE
  5
1E1
330
1F
100
AcDbEntity
  8
0
  6
Continuous
 62
     7
370
    25
100
AcDbLine
 10
219.7411384718
 20
96.666470307
 30
0.0
 11
224.7399219573
 21
96.666470307
 31
0.0
  0
SPLINE
  5
1E2
330
1F
100
AcDbEntity
  8
0
  6
Continuous
 62
     7
370
    25
100
AcDbSpline
210
0.0
220
0.0
230
1.0
 70
     8
 71
     3
 72
    12
 73
     8
 74
     0
 42
0.00000001
 43
0.00000001
 40
0.0
 40
0.0
 40
0.0
 40
0.0
 40
0.2271543139929597
 40
0.4542742953683958
 40
0.6823371405829708
 40
0.9121899191033218
 40
1.0
 40
1.0
 40
1.0
 40
1.0
 10
209.198680470085
 20
79.1167184475189
 30
0.0
 10
209.2097844152833
 20
79.06159864062454
 30
0.0
 10
209.2319906274046
 20
78.95136735776825
 30
0.0
 10
209.3324868389431
 20
78.81151329817985
 30
0.0
 10
209.4699491137735
 20
78.71126490909428
 30
0.0
 10
209.6009226971297
 20
78.67033621851954
 30
0.0
 10
209.6788156809445
 20
78.66730751703021
 30
0.0
 10
209.700347279642
 20
78.66647030702939
 30
0.0
  0
LINE
  5
1E3
330
1F
100
AcDbEntity
  8
0
  6
Continuous
 62
     7
370
    25
100
AcDbLine
 10
224.7288193537
 20
78.666470307
 30
0.0
 11
218.1813131347
 21
78.666470307
 31
0.0
  0
SPLINE
  5
1E4
330
1F
100
AcDbEntity
  8
0
  6
Continuous
 62
     7
370
    25
100
AcDbSpline
210
0.0
220
0.0
230
1.0
 70
    24
 71
     3
 72
    12
 73
     8
 74
     0
 42
0.00000001
 43
0.00000001
 40
0.0
 40
0.0
 40
0.0
 40
0.0
 40
0.2316347876629375
 40
0.46330664808196
 40
0.6939442291381526
 40
0.9227406525226395
 40
1.0
 40
1.0
 40
1.0
 40
1.0
 10
218.1813131347303
 20
78.66647030702939
 30
0.0
 10
218.1813131347303
 20
78.67205977205967
 30
0.0
 10
218.1813131347303
 20
78.68323959670464
 30
0.0
 10
218.1813131347303
 20
78.77056266266031
 30
0.0
 10
218.1813131347303
 20
78.89887283644235
 30
0.0
 10
218.1813131347303
 20
79.02355226314018
 30
0.0
 10
218.1813131347303
 20
79.09794027189348
 30
0.0
 10
218.1813131347303
 20
79.1167184475189
 30
0.0
  0
SPLINE
  5
1E5
330
1F
100
AcDbEntity
  8
0
  6
Continuous
 62
     7
370
    25
100
AcDbSpline
210
0.0
220
0.0
230
1.0
 70
     8
 71
     3
 72
    11
 73
     7
 74
     0
 42
0.00000001
 43
0.00000001
 40
0.0
 40
0.0
 40
0.0
 40
0.0
 40
0.2981995125517625
 40
0.5964325929955623
 40
0.8933636912282922
 40
1.0
 40
1.0
 40
1.0
 40
1.0
 10
211.2652333516307
 20
78.66647030702939
 30
0.0
 10
211.3812558432391
 20
78.67766707263502
 30
0.0
 10
211.6133138869415
 20
78.70006186425015
 30
0.0
 10
211.9152177371098
 20
78.87941079039423
 30
0.0
 10
212.1151648655296
 20
79.07755748396353
 30
0.0
 10
212.1674876625884
 20
79.22517390581505
 30
0.0
 10
212.1813131347303
 20
79.26417921215824
 30
0.0
  0
LINE
  5
1E6
330
1F
100
AcDbEntity
  8
0
  6
Continuous
 62
     7
370
    25
100
AcDbLine
 10
212.1813131347
 20
78.666470307
 30
0.0
 11
211.2652333516
 21
78.666470307
 31
0.0
  0
LINE
  5
1E7
330
1F
100
AcDbEntity
  8
0
  6
Continuous
 62
     7
370
    25
100
AcDbLine
 10
209.7003472796
 20
78.666470307
 30
0.0
 11
211.2652333516
 21
78.666470307
 31
0.0
  0
LINE
  5
1E8
330
1F
100
AcDbEntity
  8
0
  6
Continuous
 62
     7
370
    25
100
AcDbLine
 10
216.3813131347
 20
80.166470307
 30
0.0
 11
217.9813131347
 21
80.166470307
 31
0.0
  0
SPLINE
  5
1E9
330
1F
100
AcDbEntity
  8
0
  6
Continuous
 62
     7
370
    25
100
AcDbSpline
210
0.0
220
0.0
230
1.0
 70
     8
 71
     3
 72
    11
 73
     7
 74
     0
 42
0.00000001
 43
0.00000001
 40
0.0
 40
0.0
 40
0.0
 40
0.0
 40
0.2843931288920266
 40
0.5687862577840547
 40
0.8531793866760868
 40
0.9999999999999999
 40
0.9999999999999999
 40
0.9999999999999999
 40
0.9999999999999999
 10
218.7594259240438
 20
98.4847941708449
 30
0.0
 10
218.7469594004284
 20
98.57485679169334
 30
0.0
 10
218.7220263531976
 20
98.75498203339019
 30
0.0
 10
218.5585729944674
 20
98.97724463680387
 30
0.0
 10
218.3692310559612
 20
99.11654876994096
 30
0.0
 10
218.2335815049824
 20
99.13518919528042
 30
0.0
 10
218.1873952443835
 20
99.1415359287284
 30
0.0
  0
LINE
  5
1EA
330
1F
100
AcDbEntity
  8
0
  6
Continuous
 62
     7
370
    25
100
AcDbLine
 10
214.58332725
 20
95.6439976804
 30
0.0
 11
214.5758564646
 21
95.6533818329
 31
0.0
  0
ELLIPSE
  5
1EB
330
1F
100
AcDbEntity
  8
0
  6
Continuous
 62
     7
370
    25
100
AcDbEllipse
 10
216.2055643714
 20
98.466470307
 30
0.0
 11
1.500207016110409
 21
-0.0289403098264529
 31
0.0
210
0.0
220
0.0
230
1.0
 40
0.2796306798
 41
3.072248304391406
 42
3.166880436693421
  0
LINE
  5
1EC
330
1F
100
AcDbEntity
  8
0
  6
Continuous
 62
     7
370
    25
100
AcDbLine
 10
211.9568841807
 20
93.666470307
 30
0.0
 11
211.9545747105
 21
93.666470307
 31
0.0
  0
LINE
  5
1ED
330
1F
100
AcDbEntity
  8
0
  6
Continuous
 62
     7
370
    25
100
AcDbLine
 10
222.408051559
 20
93.666470307
 30
0.0
 11
222.4057420888
 21
93.666470307
 31
0.0
  0
LINE
  5
1EE
330
1F
100
AcDbEntity
  8
0
  6
Continuous
 62
     7
370
    25
100
AcDbLine
 10
211.9545747105
 20
88.5545458928
 30
0.0
 11
208.1925055762
 21
88.5545458928
 31
0.0
  0
LINE
  5
1EF
330
1F
100
AcDbEntity
  8
0
  6
Continuous
 62
     7
370
    25
100
AcDbLine
 10
226.1701206933
 20
88.5545458928
 30
0.0
 11
222.408051559
 21
88.5545458928
 31
0.0
  0
LINE
  5
1F0
330
1F
100
AcDbEntity
  8
0
  6
Continuous
 62
     7
370
    25
100
AcDbLine
 10
218.1813131347
 20
79.1167184475
 30
0.0
 11
225.2263379488
 21
79.1167184475
 31
0.0
  0
LINE
  5
1F1
330
1F
100
AcDbEntity
  8
0
  6
Continuous
 62
     7
370
    25
100
AcDbLine
 10
222.408051559
 20
88.7780843464
 30
0.0
 11
226.1673613798
 21
88.7780843464
 31
0.0
  0
LINE
  5
1F2
330
1F
100
AcDbEntity
  8
0
  6
Continuous
 62
     7
370
    25
100
AcDbLine
 10
208.1952648897
 20
88.7780843464
 30
0.0
 11
211.9545747105
 21
88.7780843464
 31
0.0
  0
LINE
  5
1F3
330
1F
100
AcDbEntity
  8
0
  6
Continuous
 62
     7
370
    25
100
AcDbLine
 10
225.2360609638
 20
96.2284876743
 30
0.0
 11
219.7612131163
 21
96.2284876743
 31
0.0
  0
LINE
  5
1F4
330
1F
100
AcDbEntity
  8
0
  6
Continuous
 62
     7
370
    25
100
AcDbLine
 10
214.6014131532
 20
96.2284876743
 30
0.0
 11
209.1265653056
 21
96.2284876743
 31
0.0
  0
LINE
  5
1F5
330
1F
100
AcDbEntity
  8
0
  6
Continuous
 62
     7
370
    25
100
AcDbLine
 10
218.1813131347
 20
79.966470307
 30
0.0
 11
216.1813131347
 21
79.966470307
 31
0.0
  0
INSERT
  5
201
330
1F
100
AcDbEntity
  8
0
  6
Continuous
 62
     7
370
    18
100
AcDbBlockReference
  2
SW_CENTERMARKSYMBOL_0
 10
217.1813131347
 20
58.166470307
 30
0.0
  0
LINE
  5
202
330
1F
100
AcDbEntity
  8
0
  6
Continuous
 62
     7
370
    25
100
AcDbLine
 10
134.8796698167
 20
155.1257593813
 30
0.0
 11
131.8796698167
 21
155.1257593813
 31
0.0
  0
LINE
  5
203
330
1F
100
AcDbEntity
  8
0
  6
Continuous
 62
     7
370
    25
100
AcDbLine
 10
131.8796698167
 20
128.1257593813
 30
0.0
 11
134.8796698167
 21
128.1257593813
 31
0.0
  0
LINE
  5
204
330
1F
100
AcDbEntity
  8
0
  6
Continuous
 62
     7
370
    25
100
AcDbLine
 10
119.3796698167
 20
154.8462593813
 30
0.0
 11
118.3796698167
 21
153.8462593813
 31
0.0
  0
LINE
  5
205
330
1F
100
AcDbEntity
  8
0
  6
Continuous
 62
     7
370
    25
100
AcDbLine
 10
118.3796698167
 20
129.4052593813
 30
0.0
 11
119.3796698167
 21
128.4052593813
 31
0.0
  0
LINE
  5
206
330
1F
100
AcDbEntity
  8
0
  6
Continuous
 62
     7
370
    25
100
AcDbLine
 10
128.3796698167
 20
154.8462593813
 30
0.0
 11
119.3796698167
 21
154.8462593813
 31
0.0
  0
LINE
  5
207
330
1F
100
AcDbEntity
  8
0
  6
Continuous
 62
     7
370
    25
100
AcDbLine
 10
119.3796698167
 20
128.4052593813
 30
0.0
 11
128.3796698167
 21
128.4052593813
 31
0.0
  0
LINE
  5
208
330
1F
100
AcDbEntity
  8
0
  6
Continuous
 62
     7
370
    25
100
AcDbLine
 10
128.3796698167
 20
128.4052593813
 30
0.0
 11
129.3796698167
 21
129.4052593813
 31
0.0
  0
LINE
  5
209
330
1F
100
AcDbEntity
  8
0
  6
Continuous
 62
     7
370
    25
100
AcDbLine
 10
129.3796698167
 20
153.8462593813
 30
0.0
 11
128.3796698167
 21
154.8462593813
 31
0.0
  0
LINE
  5
20A
330
1F
100
AcDbEntity
  8
0
  6
Continuous
 62
     7
370
    25
100
AcDbLine
 10
131.8796698167
 20
153.1257593813
 30
0.0
 11
129.3796698167
 21
153.1257593813
 31
0.0
  0
LINE
  5
20B
330
1F
100
AcDbEntity
  8
0
  6
Continuous
 62
     7
370
    25
100
AcDbLine
 10
129.3796698167
 20
130.1257593813
 30
0.0
 11
131.8796698167
 21
130.1257593813
 31
0.0
  0
LINE
  5
20C
330
1F
100
AcDbEntity
  8
0
  6
Continuous
 62
     7
370
    25
100
AcDbLine
 10
160.8796698167
 20
128.2030718813
 30
0.0
 11
174.2744934777
 21
128.6216601208
 31
0.0
  0
LINE
  5
20D
330
1F
100
AcDbEntity
  8
0
  6
Continuous
 62
     7
370
    25
100
AcDbLine
 10
174.2744934777
 20
154.6298586419
 30
0.0
 11
160.8796698167
 21
155.0484468813
 31
0.0
  0
LINE
  5
20E
330
1F
100
AcDbEntity
  8
0
  6
Continuous
 62
     7
370
    25
100
AcDbLine
 10
174.2744934777
 20
128.6216601208
 30
0.0
 11
176.8796698167
 21
130.1257593813
 31
0.0
  0
LINE
  5
20F
330
1F
100
AcDbEntity
  8
0
  6
Continuous
 62
     7
370
    25
100
AcDbLine
 10
176.8796698167
 20
153.1257593813
 30
0.0
 11
174.2744934777
 21
154.6298586419
 31
0.0
  0
LINE
  5
210
330
1F
100
AcDbEntity
  8
0
  6
Continuous
 62
     7
370
    25
100
AcDbLine
 10
97.3358444246
 20
140.7557302989
 30
0.0
 11
97.3532634149
 21
140.7557302989
 31
0.0
  0
LINE
  5
211
330
1F
100
AcDbEntity
  8
0
  6
Continuous
 62
     7
370
    25
100
AcDbLine
 10
125.9140174941
 20
146.2209177408
 30
0.0
 11
124.7217774373
 21
145.4269445024
 31
0.0
  0
LINE
  5
212
330
1F
100
AcDbEntity
  8
0
  6
Continuous
 62
     7
370
    25
100
AcDbLine
 10
124.721777378
 20
137.8245741528
 30
0.0
 11
125.91839665
 21
137.0276846302
 31
0.0
  0
SPLINE
  5
213
330
1F
100
AcDbEntity
  8
0
  6
Continuous
 62
     7
370
    25
100
AcDbSpline
210
0.0
220
0.0
230
1.0
 70
     8
 71
     3
 72
    11
 73
     7
 74
     0
 42
0.00000001
 43
0.00000001
 40
0.0
 40
0.0
 40
0.0
 40
0.0
 40
0.2485427336868735
 40
0.4982459407376401
 40
0.7488347621401439
 40
1.0
 40
1.0
 40
1.0
 40
1.0
 10
124.721697595246
 20
145.4270892184998
 30
0.0
 10
124.3004174521899
 20
145.2133239850446
 30
0.0
 10
123.4558901627479
 20
144.7847954247446
 30
0.0
 10
122.0992845955138
 20
144.3461014631312
 30
0.0
 10
120.7011874893874
 20
144.0451725186371
 30
0.0
 10
119.7498315904067
 20
143.9838918345245
 30
0.0
 10
119.2736071807663
 20
143.953216292758
 30
0.0
  0
SPLINE
  5
214
330
1F
100
AcDbEntity
  8
0
  6
Continuous
 62
     7
370
    25
100
AcDbSpline
210
0.0
220
0.0
230
1.0
 70
     8
 71
     3
 72
    10
 73
     6
 74
     0
 42
0.00000001
 43
0.00000001
 40
0.0
 40
0.0
 40
0.0
 40
0.0
 40
0.0711023749285983
 40
0.5366329433438182
 40
1.0
 40
1.0
 40
1.0
 40
1.0
 10
121.8821825079027
 20
138.9258534241485
 30
0.0
 10
121.9531569002561
 20
138.9116270705458
 30
0.0
 10
122.4888239171297
 20
138.8042561140271
 30
0.0
 10
123.4540991324136
 20
138.4577664143462
 30
0.0
 10
124.2998213698032
 20
138.0352137759877
 30
0.0
 10
124.721697595246
 20
137.8244295441909
 30
0.0
  0
LINE
  5
215
330
1F
100
AcDbEntity
  8
0
  6
Continuous
 62
     7
370
    25
100
AcDbLine
 10
119.2729359081
 20
143.9788511602
 30
0.0
 11
97.6185448784
 21
143.4118109751
 31
0.0
  0
LINE
  5
216
330
1F
100
AcDbEntity
  8
0
  6
Continuous
 62
     7
370
    25
100
AcDbLine
 10
97.6185483969
 20
139.8397076954
 30
0.0
 11
119.2729359081
 21
139.2726676025
 31
0.0
  0
SPLINE
  5
217
330
1F
100
AcDbEntity
  8
0
  6
Continuous
 62
     7
370
    25
100
AcDbSpline
210
0.0
220
0.0
230
1.0
 70
     8
 71
     3
 72
    12
 73
     8
 74
     0
 42
0.00000001
 43
0.00000001
 40
0.0
 40
0.0
 40
0.0
 40
0.0
 40
0.114975008664476
 40
0.3352857830088486
 40
0.6013544857891646
 40
0.8546349207559562
 40
1.0
 40
1.0
 40
1.0
 40
1.0
 10
92.58011380610989
 20
140.5407988226355
 30
0.0
 10
92.59556603782626
 20
140.5076120136151
 30
0.0
 10
92.6406272530454
 20
140.4108338930724
 30
0.0
 10
92.77436017036639
 20
140.2749109528644
 30
0.0
 10
92.96432466740396
 20
140.1522934716132
 30
0.0
 10
93.16185241465544
 20
140.0747061176737
 30
0.0
 10
93.29264303098891
 20
140.0660569632569
 30
0.0
 10
93.3403354986825
 20
140.0629030709582
 30
0.0
  0
SPLINE
  5
218
330
1F
100
AcDbEntity
  8
0
  6
Continuous
 62
     7
370
    25
100
AcDbSpline
210
0.0
220
0.0
230
1.0
 70
     8
 71
     3
 72
    12
 73
     8
 74
     0
 42
0.00000001
 43
0.00000001
 40
0.0
 40
0.0
 40
0.0
 40
0.0
 40
0.0693008813045692
 40
0.2377024651855265
 40
0.4635117223056388
 40
0.7665988773142846
 40
1.0
 40
1.0
 40
1.0
 40
1.0
 10
93.34013916066989
 20
143.1893095853366
 30
0.0
 10
93.31745546966032
 20
143.1892136425548
 30
0.0
 10
93.2396502647195
 20
143.1888845582009
 30
0.0
 10
93.09376609418845
 20
143.1487506817977
 30
0.0
 10
92.89635252376904
 20
143.0641666261402
 30
0.0
 10
92.70226925987912
 20
142.9236877712509
 30
0.0
 10
92.61583617694677
 20
142.7769888849156
 30
0.0
 10
92.5782331585168
 20
142.7131670155645
 30
0.0
  0
SPLINE
  5
219
330
1F
100
AcDbEntity
  8
0
  6
Continuous
 62
     7
370
    25
100
AcDbSpline
210
0.0
220
0.0
230
1.0
 70
     8
 71
     3
 72
    10
 73
     6
 74
     0
 42
0.00000001
 43
0.00000001
 40
0.0
 40
0.0
 40
0.0
 40
0.0
 40
0.2281331077991485
 40
0.6347609242839045
 40
1.0
 40
1.0
 40
1.0
 40
1.0
 10
92.57505683574489
 20
142.7141893201456
 30
0.0
 10
92.54809819600149
 20
142.6529770138257
 30
0.0
 10
92.47308807911817
 20
142.4826589897914
 30
0.0
 10
92.39664224086775
 20
142.1698534979129
 30
0.0
 10
92.38512136887617
 20
141.9101118959904
 30
0.0
 10
92.37966981669773
 20
141.7872049756785
 30
0.0
  0
SPLINE
  5
21A
330
1F
100
AcDbEntity
  8
0
  6
Continuous
 62
     7
370
    25
100
AcDbSpline
210
0.0
220
0.0
230
1.0
 70
     8
 71
     3
 72
    10
 73
     6
 74
     0
 42
0.00000001
 43
0.00000001
 40
0.0
 40
0.0
 40
0.0
 40
0.0
 40
0.203422307832858
 40
0.5927613154311953
 40
1.0
 40
1.0
 40
1.0
 40
1.0
 10
92.37966981669773
 20
141.4643137870123
 30
0.0
 10
92.38143916174515
 20
141.3960012159404
 30
0.0
 10
92.38659493501771
 20
141.1969421750689
 30
0.0
 10
92.4393976117523
 20
140.8684353218094
 30
0.0
 10
92.5291647171494
 20
140.6493391521075
 30
0.0
 10
92.57505683574487
 20
140.5373294425452
 30
0.0
  0
LINE
  5
21B
330
1F
100
AcDbEntity
  8
0
  6
Continuous
 62
     7
370
    25
100
AcDbLine
 10
92.3796698167
 20
141.7872049757
 30
0.0
 11
92.3796698167
 21
141.464313787
 31
0.0
  0
ARC
  5
21C
330
1F
100
AcDbEntity
  8
0
  6
Continuous
 62
     7
370
    25
100
AcDbCircle
 10
147.8796698167
 20
141.6257593813
 30
0.0
 40
8.993770368365592
100
AcDbArc
 50
200.7375423627
 51
90.0
  0
ARC
  5
21D
330
1F
100
AcDbEntity
  8
0
  6
Continuous
 62
     7
370
    25
100
AcDbCircle
 10
147.8796698167
 20
141.6257593813
 30
0.0
 40
8.993770368365581
100
AcDbArc
 50
90.0
 51
159.2571573528
  0
LINE
  5
21E
330
1F
100
AcDbEntity
  8
0
  6
Continuous
 62
     7
370
    25
100
AcDbLine
 10
131.8796698167
 20
128.1257593813
 30
0.0
 11
131.8796698167
 21
136.7098646854
 31
0.0
  0
LINE
  5
21F
330
1F
100
AcDbEntity
  8
0
  6
Continuous
 62
     7
370
    25
100
AcDbLine
 10
131.8796698167
 20
146.5416540773
 30
0.0
 11
131.8796698167
 21
155.1257593813
 31
0.0
  0
LINE
  5
220
330
1F
100
AcDbEntity
  8
0
  6
Continuous
 62
     7
370
    25
100
AcDbLine
 10
118.3796698167
 20
129.4052593813
 30
0.0
 11
118.3796698167
 21
139.2960585983
 31
0.0
  0
LINE
  5
221
330
1F
100
AcDbEntity
  8
0
  6
Continuous
 62
     7
370
    25
100
AcDbLine
 10
118.3796698167
 20
143.9554601644
 30
0.0
 11
118.3796698167
 21
153.8462593813
 31
0.0
  0
LINE
  5
222
330
1F
100
AcDbEntity
  8
0
  6
Continuous
 62
     7
370
    25
100
AcDbLine
 10
119.3796698167
 20
154.8462593813
 30
0.0
 11
119.3796698167
 21
143.9683395926
 31
0.0
  0
LINE
  5
223
330
1F
100
AcDbEntity
  8
0
  6
Continuous
 62
     7
370
    25
100
AcDbLine
 10
119.3796698167
 20
139.2814265866
 30
0.0
 11
119.3796698167
 21
128.4052593813
 31
0.0
  0
LINE
  5
224
330
1F
100
AcDbEntity
  8
0
  6
Continuous
 62
     7
370
    25
100
AcDbLine
 10
128.3796698167
 20
128.4052593813
 30
0.0
 11
128.3796698167
 21
136.9043091298
 31
0.0
  0
LINE
  5
225
330
1F
100
AcDbEntity
  8
0
  6
Continuous
 62
     7
370
    25
100
AcDbLine
 10
128.3796698167
 20
146.3472096329
 30
0.0
 11
128.3796698167
 21
154.8462593813
 31
0.0
  0
LINE
  5
226
330
1F
100
AcDbEntity
  8
0
  6
Continuous
 62
     7
370
    25
100
AcDbLine
 10
129.3796698167
 20
153.8462593813
 30
0.0
 11
129.3796698167
 21
146.4027651884
 31
0.0
  0
LINE
  5
227
330
1F
100
AcDbEntity
  8
0
  6
Continuous
 62
     7
370
    25
100
AcDbLine
 10
129.3796698167
 20
136.8487535743
 30
0.0
 11
129.3796698167
 21
129.4052593813
 31
0.0
  0
LINE
  5
228
330
1F
100
AcDbEntity
  8
0
  6
Continuous
 62
     7
370
    25
100
AcDbLine
 10
159.4362941437
 20
150.3578839796
 30
0.0
 11
150.0332494969
 21
150.3578839796
 31
0.0
  0
LINE
  5
229
330
1F
100
AcDbEntity
  8
0
  6
Continuous
 62
     7
370
    25
100
AcDbLine
 10
145.7260901365
 20
150.3578839796
 30
0.0
 11
136.3230454897
 21
150.3578839796
 31
0.0
  0
LINE
  5
22A
330
1F
100
AcDbEntity
  8
0
  6
Continuous
 62
     7
370
    25
100
AcDbLine
 10
136.3230454897
 20
150.3578839796
 30
0.0
 11
136.3230454897
 21
155.6257593813
 31
0.0
  0
LINE
  5
22B
330
1F
100
AcDbEntity
  8
0
  6
Continuous
 62
     7
370
    25
100
AcDbLine
 10
159.4362941437
 20
155.6257593813
 30
0.0
 11
136.3230454897
 21
155.6257593813
 31
0.0
  0
LINE
  5
22C
330
1F
100
AcDbEntity
  8
0
  6
Continuous
 62
     7
370
    25
100
AcDbLine
 10
159.4362941437
 20
155.6257593813
 30
0.0
 11
159.4362941437
 21
150.3578839796
 31
0.0
  0
SPLINE
  5
22D
330
1F
100
AcDbEntity
  8
0
  6
Continuous
 62
     7
370
    25
100
AcDbSpline
210
0.0
220
0.0
230
1.0
 70
     8
 71
     3
 72
     9
 73
     5
 74
     0
 42
0.00000001
 43
0.00000001
 40
0.0
 40
0.0
 40
0.0
 40
0.0
 40
0.4494293696496634
 40
0.9999999999999999
 40
0.9999999999999999
 40
0.9999999999999999
 40
0.9999999999999999
 10
135.4508757541361
 20
146.740054407178
 30
0.0
 10
135.5482202747712
 20
147.2899310640396
 30
0.0
 10
135.7648160898399
 20
148.5134306704189
 30
0.0
 10
136.1248315505389
 20
149.702962622792
 30
0.0
 10
136.3230454896718
 20
150.3578839796319
 30
0.0
  0
LINE
  5
22E
330
1F
100
AcDbEntity
  8
0
  6
Continuous
 62
     7
370
    25
100
AcDbLine
 10
134.8796698167
 20
146.708320744
 30
0.0
 11
134.8796698167
 21
155.6257593813
 31
0.0
  0
SPLINE
  5
22F
330
1F
100
AcDbEntity
  8
0
  6
Continuous
 62
     7
370
    25
100
AcDbSpline
210
0.0
220
0.0
230
1.0
 70
    24
 71
     3
 72
    14
 73
    10
 74
     0
 42
0.00000001
 43
0.00000001
 40
0.0
 40
0.0
 40
0.0
 40
0.0
 40
0.125
 40
0.125
 40
0.25
 40
0.25
 40
0.5
 40
0.5
 40
1.0
 40
1.0
 40
1.0
 40
1.0
 10
134.8796698166977
 20
155.6257593813454
 30
0.0
 10
134.8796698166977
 20
155.6257593813454
 30
0.0
 10
134.8881981735179
 20
155.6257593813454
 30
0.0
 10
134.9223851069059
 20
155.6257593813454
 30
0.0
 10
134.9481326399469
 20
155.6257593813454
 30
0.0
 10
135.0494445825795
 20
155.6257593813454
 30
0.0
 10
135.1491626165967
 20
155.6257593813454
 30
0.0
 10
135.5299905978298
 20
155.6257593813454
 30
0.0
 10
135.8920073769884
 20
155.6257593813454
 30
0.0
 10
136.3230454896718
 20
155.6257593813454
 30
0.0
  0
SPLINE
  5
230
330
1F
100
AcDbEntity
  8
0
  6
Continuous
 62
     7
370
    25
100
AcDbSpline
210
0.0
220
0.0
230
1.0
 70
     8
 71
     3
 72
    12
 73
     8
 74
     0
 42
0.00000001
 43
0.00000001
 40
0.0
 40
0.0
 40
0.0
 40
0.0
 40
0.2500000000000001
 40
0.2500000000000001
 40
0.5000000000000001
 40
0.5000000000000001
 40
1.0
 40
1.0
 40
1.0
 40
1.0
 10
159.4362941437237
 20
150.3578839796319
 30
0.0
 10
159.6529491847683
 20
149.6488069021583
 30
0.0
 10
159.8531627086342
 20
148.931351853175
 30
0.0
 10
160.2082013718517
 20
147.4861928430764
 30
0.0
 10
160.3623849644118
 20
146.7611261387424
 30
0.0
 10
160.7410430231435
 20
144.5769844657526
 30
0.0
 10
160.8796698166977
 20
143.1087595717621
 30
0.0
 10
160.8796698166977
 20
141.6257593813454
 30
0.0
  0
SPLINE
  5
231
330
1F
100
AcDbEntity
  8
0
  6
Continuous
 62
     7
370
    25
100
AcDbSpline
210
0.0
220
0.0
230
1.0
 70
    24
 71
     3
 72
    12
 73
     8
 74
     0
 42
0.00000001
 43
0.00000001
 40
0.0
 40
0.0
 40
0.0
 40
0.0
 40
0.25
 40
0.25
 40
0.5
 40
0.5
 40
1.0
 40
1.0
 40
1.0
 40
1.0
 10
160.8796698166977
 20
155.6257593813454
 30
0.0
 10
160.8796698166977
 20
155.6257593813454
 30
0.0
 10
160.8448604517332
 20
155.6257593813454
 30
0.0
 10
160.7098202716258
 20
155.6257593813454
 30
0.0
 10
160.6101568029925
 20
155.6257593813454
 30
0.0
 10
160.2294618866406
 20
155.6257593813454
 30
0.0
 10
159.8674776636957
 20
155.6257593813454
 30
0.0
 10
159.4362941437236
 20
155.6257593813454
 30
0.0
  0
LINE
  5
232
330
1F
100
AcDbEntity
  8
0
  6
Continuous
 62
     7
370
    25
100
AcDbLine
 10
160.8796698167
 20
155.6257593813
 30
0.0
 11
160.8796698167
 21
141.6257593813
 31
0.0
  0
LINE
  5
233
330
1F
100
AcDbEntity
  8
0
  6
Continuous
 62
     7
370
    25
100
AcDbLine
 10
145.7260901365
 20
132.8936347831
 30
0.0
 11
136.3230454897
 21
132.8936347831
 31
0.0
  0
SPLINE
  5
234
330
1F
100
AcDbEntity
  8
0
  6
Continuous
 62
     7
370
    25
100
AcDbSpline
210
0.0
220
0.0
230
1.0
 70
     8
 71
     3
 72
     9
 73
     5
 74
     0
 42
0.00000001
 43
0.00000001
 40
0.0
 40
0.0
 40
0.0
 40
0.0
 40
0.9656021239381652
 40
1.0
 40
1.0
 40
1.0
 40
1.0
 10
136.3230454896718
 20
132.8936347830589
 30
0.0
 10
135.9776753965019
 20
134.0482545349202
 30
0.0
 10
135.6200021016656
 20
135.2440055831389
 30
0.0
 10
135.412515086723
 20
136.4717598701598
 30
0.0
 10
135.4053779740986
 20
136.5139920099592
 30
0.0
  0
SPLINE
  5
235
330
1F
100
AcDbEntity
  8
0
  6
Continuous
 62
     7
370
    25
100
AcDbSpline
210
0.0
220
0.0
230
1.0
 70
     8
 71
     3
 72
    12
 73
     8
 74
     0
 42
0.00000001
 43
0.00000001
 40
0.0
 40
0.0
 40
0.0
 40
0.0
 40
0.25
 40
0.25
 40
0.5
 40
0.5
 40
1.0
 40
1.0
 40
1.0
 40
1.0
 10
160.8796698166977
 20
141.6257593813454
 30
0.0
 10
160.8796698166977
 20
140.8831026770583
 30
0.0
 10
160.8448604517374
 20
140.1329218655137
 30
0.0
 10
160.7098202716286
 20
138.6490874039156
 30
0.0
 10
160.6101568029935
 20
137.915054535873
 30
0.0
 10
160.2294618866369
 20
135.7329970110489
 30
0.0
 10
159.8674776636908
 20
134.3048290424622
 30
0.0
 10
159.4362941437236
 20
132.8936347830589
 30
0.0
  0
LINE
  5
236
330
1F
100
AcDbEntity
  8
0
  6
Continuous
 62
     7
370
    25
100
AcDbLine
 10
159.4362941437
 20
132.8936347831
 30
0.0
 11
150.0332494969
 21
132.8936347831
 31
0.0
  0
LINE
  5
237
330
1F
100
AcDbEntity
  8
0
  6
Continuous
 62
     7
370
    25
100
AcDbLine
 10
159.4362941437
 20
132.8936347831
 30
0.0
 11
159.4362941437
 21
127.6257593813
 31
0.0
  0
SPLINE
  5
238
330
1F
100
AcDbEntity
  8
0
  6
Continuous
 62
     7
370
    25
100
AcDbSpline
210
0.0
220
0.0
230
1.0
 70
    24
 71
     3
 72
    12
 73
     8
 74
     0
 42
0.00000001
 43
0.00000001
 40
0.0
 40
0.0
 40
0.0
 40
0.0
 40
0.25
 40
0.25
 40
0.5
 40
0.5
 40
1.0
 40
1.0
 40
1.0
 40
1.0
 10
160.8796698166977
 20
127.6257593813454
 30
0.0
 10
160.8796698166977
 20
127.6257593813454
 30
0.0
 10
160.8448604517332
 20
127.6257593813454
 30
0.0
 10
160.7098202716258
 20
127.6257593813454
 30
0.0
 10
160.6101568029925
 20
127.6257593813454
 30
0.0
 10
160.2294618866406
 20
127.6257593813454
 30
0.0
 10
159.8674776636957
 20
127.6257593813454
 30
0.0
 10
159.4362941437236
 20
127.6257593813454
 30
0.0
  0
LINE
  5
239
330
1F
100
AcDbEntity
  8
0
  6
Continuous
 62
     7
370
    25
100
AcDbLine
 10
160.8796698167
 20
141.6257593813
 30
0.0
 11
160.8796698167
 21
127.6257593813
 31
0.0
  0
LINE
  5
23A
330
1F
100
AcDbEntity
  8
0
  6
Continuous
 62
     7
370
    25
100
AcDbLine
 10
136.3230454897
 20
127.6257593813
 30
0.0
 11
136.3230454897
 21
132.8936347831
 31
0.0
  0
SPLINE
  5
23B
330
1F
100
AcDbEntity
  8
0
  6
Continuous
 62
     7
370
    25
100
AcDbSpline
210
0.0
220
0.0
230
1.0
 70
    24
 71
     3
 72
    14
 73
    10
 74
     0
 42
0.00000001
 43
0.00000001
 40
0.0
 40
0.0
 40
0.0
 40
0.0
 40
0.125
 40
0.125
 40
0.2500000000000001
 40
0.2500000000000001
 40
0.5
 40
0.5
 40
1.0
 40
1.0
 40
1.0
 40
1.0
 10
134.8796698166977
 20
127.6257593813454
 30
0.0
 10
134.8796698166977
 20
127.6257593813454
 30
0.0
 10
134.8881981735179
 20
127.6257593813454
 30
0.0
 10
134.9223851069059
 20
127.6257593813454
 30
0.0
 10
134.9481326399469
 20
127.6257593813454
 30
0.0
 10
135.0494445825795
 20
127.6257593813454
 30
0.0
 10
135.1491626165967
 20
127.6257593813454
 30
0.0
 10
135.5299905978298
 20
127.6257593813454
 30
0.0
 10
135.8920073769884
 20
127.6257593813454
 30
0.0
 10
136.3230454896718
 20
127.6257593813454
 30
0.0
  0
LINE
  5
23C
330
1F
100
AcDbEntity
  8
0
  6
Continuous
 62
     7
370
    25
100
AcDbLine
 10
134.8796698167
 20
127.6257593813
 30
0.0
 11
134.8796698167
 21
136.5431980187
 31
0.0
  0
LINE
  5
23D
330
1F
100
AcDbEntity
  8
0
  6
Continuous
 62
     7
370
    25
100
AcDbLine
 10
159.4362941437
 20
127.6257593813
 30
0.0
 11
136.3230454897
 21
127.6257593813
 31
0.0
  0
LINE
  5
23E
330
1F
100
AcDbEntity
  8
0
  6
Continuous
 62
     7
370
    25
100
AcDbLine
 10
174.2744934777
 20
128.6216601208
 30
0.0
 11
174.2744934777
 21
154.6298586419
 31
0.0
  0
LINE
  5
23F
330
1F
100
AcDbEntity
  8
0
  6
Continuous
 62
     7
370
    25
100
AcDbLine
 10
176.8796698167
 20
153.1257593813
 30
0.0
 11
176.8796698167
 21
130.1257593813
 31
0.0
  0
LINE
  5
240
330
1F
100
AcDbEntity
  8
0
  6
Continuous
 62
     7
370
    25
100
AcDbLine
 10
145.6421857951
 20
140.6504868363
 30
0.0
 11
145.6093902681
 21
140.6692308756
 31
0.0
  0
SPLINE
  5
241
330
1F
100
AcDbEntity
  8
0
  6
Continuous
 62
     7
370
    25
100
AcDbSpline
210
0.0
220
0.0
230
1.0
 70
     8
 71
     3
 72
    15
 73
    11
 74
     0
 42
0.00000001
 43
0.00000001
 40
0.0
 40
0.0
 40
0.0
 40
0.0
 40
0.1241930067305288
 40
0.2496556654892296
 40
0.3743703853151211
 40
0.4998404796364202
 40
0.6240146704162363
 40
0.7475381382242062
 40
0.8745858500551816
 40
1.0
 40
1.0
 40
1.0
 40
1.0
 10
146.4224755168283
 20
140.9229264869312
 30
0.0
 10
146.4069151217186
 20
140.8870792841872
 30
0.0
 10
146.375635254207
 20
140.8150184049754
 30
0.0
 10
146.2981988947186
 20
140.7251428916325
 30
0.0
 10
146.2048448909797
 20
140.6528191138382
 30
0.0
 10
146.0976192849588
 20
140.6038916953336
 30
0.0
 10
145.9832333742378
 20
140.5775636418788
 30
0.0
 10
145.8655626113525
 20
140.5767045478763
 30
0.0
 10
145.7486788861273
 20
140.5980873085059
 30
0.0
 10
145.6775300352326
 20
140.6330958349666
 30
0.0
 10
145.6421857951491
 20
140.6504868363481
 30
0.0
  0
LINE
  5
242
330
1F
100
AcDbEntity
  8
0
  6
Continuous
 62
     7
370
    25
100
AcDbLine
 10
147.4143295615
 20
143.6965057028
 30
0.0
 11
146.4224755168
 21
140.9229264869
 31
0.0
  0
SPLINE
  5
243
330
1F
100
AcDbEntity
  8
0
  6
Continuous
 62
     7
370
    25
100
AcDbSpline
210
0.0
220
0.0
230
1.0
 70
     8
 71
     3
 72
    15
 73
    11
 74
     0
 42
0.00000001
 43
0.00000001
 40
0.0
 40
0.0
 40
0.0
 40
0.0
 40
0.1233025178081761
 40
0.2485158700387114
 40
0.3756924668130948
 40
0.4999990880429331
 40
0.6243057092728396
 40
0.7514823060473044
 40
0.8766757256079959
 40
1.0
 40
1.0
 40
1.0
 40
1.0
 10
148.3450100750494
 20
143.6965057028445
 30
0.0
 10
148.320859103087
 20
143.7371508387803
 30
0.0
 10
148.2721828885523
 20
143.8190709933681
 30
0.0
 10
148.1568322303472
 20
143.9088899491806
 30
0.0
 10
148.0236726080853
 20
143.9664640973417
 30
0.0
 10
147.8796699647165
 20
143.9856227930118
 30
0.0
 10
147.735666436018
 20
143.9664646901268
 30
0.0
 10
147.6025165630525
 20
143.9088905763882
 30
0.0
 10
147.4871542055181
 20
143.8190850142416
 30
0.0
 10
147.4384824198469
 20
143.7371600827168
 30
0.0
 10
147.4143295615301
 20
143.6965057028446
 30
0.0
  0
LINE
  5
244
330
1F
100
AcDbEntity
  8
0
  6
Continuous
 62
     7
370
    25
100
AcDbLine
 10
149.3366329814
 20
140.9235728325
 30
0.0
 11
148.345010075
 21
143.6965057028
 31
0.0
  0
SPLINE
  5
245
330
1F
100
AcDbEntity
  8
0
  6
Continuous
 62
     7
370
    25
100
AcDbSpline
210
0.0
220
0.0
230
1.0
 70
     8
 71
     3
 72
    15
 73
    11
 74
     0
 42
0.00000001
 43
0.00000001
 40
0.0
 40
0.0
 40
0.0
 40
0.0
 40
0.1253320172137755
 40
0.2522975129251765
 40
0.3758847553984062
 40
0.5001929511416483
 40
0.6255758307380151
 40
0.7502289462456482
 40
0.8757444935777828
 40
1.0
 40
1.0
 40
1.0
 40
1.0
 10
150.1093347459632
 20
140.6468769818902
 30
0.0
 10
150.0740838293352
 20
140.6302026734074
 30
0.0
 10
150.0031225634808
 20
140.5966367366781
 30
0.0
 10
149.8871356726925
 20
140.576855120424
 30
0.0
 10
149.7705393064521
 20
140.5789279007706
 30
0.0
 10
149.6574186998706
 20
140.6060059271212
 30
0.0
 10
149.5515429855311
 20
140.6552187428283
 30
0.0
 10
149.459433900912
 20
140.7273045067022
 30
0.0
 10
149.3830022370436
 20
140.8165920282017
 30
0.0
 10
149.3520373295443
 20
140.8880326986387
 30
0.0
 10
149.3366329814231
 20
140.9235728324968
 30
0.0
  0
LINE
  5
246
330
1F
100
AcDbEntity
  8
0
  6
Continuous
 62
     7
370
    25
100
AcDbLine
 10
150.1499493684
 20
140.6692308756
 30
0.0
 11
150.109334746
 21
140.6468769819
 31
0.0
  0
LINE
  5
247
330
1F
100
AcDbEntity
  8
0
  6
Continuous
 62
     7
370
    25
100
AcDbLine
 10
149.5229661719
 20
139.4738197721
 30
0.0
 11
150.1499493684
 21
140.6692308756
 31
0.0
  0
SPLINE
  5
248
330
1F
100
AcDbEntity
  8
0
  6
Continuous
 62
     7
370
    25
100
AcDbSpline
210
0.0
220
0.0
230
1.0
 70
     8
 71
     3
 72
    15
 73
    11
 74
     0
 42
0.00000001
 43
0.00000001
 40
0.0
 40
0.0
 40
0.0
 40
0.0
 40
0.1246332186438571
 40
0.2519059530189798
 40
0.3765391000744966
 40
0.4994035903146521
 40
0.6264494152300174
 40
0.7526064410610431
 40
0.8746804377363274
 40
1.0
 40
1.0
 40
1.0
 40
1.0
 10
149.4177376831542
 20
139.4557026053927
 30
0.0
 10
149.4217521588223
 20
139.4525973705401
 30
0.0
 10
149.429866129801
 20
139.4463211373383
 30
0.0
 10
149.4443047216376
 20
139.4407081238584
 30
0.0
 10
149.4594381715706
 20
139.4381717712316
 30
0.0
 10
149.4748007138524
 20
139.4390571747994
 30
0.0
 10
149.4897312926891
 20
139.4431882453151
 30
0.0
 10
149.5032331927184
 20
139.450678945261
 30
0.0
 10
149.5149188476048
 20
139.4608175271753
 30
0.0
 10
149.5202603719456
 20
139.4694479495181
 30
0.0
 10
149.5229661719473
 20
139.4738197721104
 30
0.0
  0
SPLINE
  5
249
330
1F
100
AcDbEntity
  8
0
  6
Continuous
 62
     7
370
    25
100
AcDbSpline
210
0.0
220
0.0
230
1.0
 70
     8
 71
     3
 72
    11
 73
     7
 74
     0
 42
0.00000001
 43
0.00000001
 40
0.0
 40
0.0
 40
0.0
 40
0.0
 40
0.2506252605986011
 40
0.4999999999996215
 40
0.7493747394010042
 40
1.0
 40
1.0
 40
1.0
 40
1.0
 10
146.3416019534253
 20
139.4557026053927
 30
0.0
 10
146.5713296475986
 20
139.6185568973537
 30
0.0
 10
147.0296387853616
 20
139.9434529025925
 30
0.0
 10
147.8796698182977
 20
140.0771848495296
 30
0.0
 10
148.7297008512279
 20
139.9434529025873
 30
0.0
 10
149.1880099889842
 20
139.618556897352
 30
0.0
 10
149.4177376831542
 20
139.4557026053927
 30
0.0
  0
SPLINE
  5
24A
330
1F
100
AcDbEntity
  8
0
  6
Continuous
 62
     7
370
    25
100
AcDbSpline
210
0.0
220
0.0
230
1.0
 70
     8
 71
     3
 72
    15
 73
    11
 74
     0
 42
0.00000001
 43
0.00000001
 40
0.0
 40
0.0
 40
0.0
 40
0.0
 40
0.125319195797913
 40
0.2473928354984057
 40
0.3734492416489697
 40
0.5005950046079961
 40
0.6235484391777629
 40
0.7480947836179478
 40
0.875367145815393
 40
1.0
 40
1.0
 40
1.0
 40
1.0
 10
146.2363734646321
 20
139.4738197721104
 30
0.0
 10
146.2390792609645
 20
139.4694479438264
 30
0.0
 10
146.2444207780617
 20
139.4608175102476
 30
0.0
 10
146.2561033506508
 20
139.4506817327479
 30
0.0
 10
146.269604330638
 20
139.4431896168742
 30
0.0
 10
146.2845383594881
 20
139.4390571715821
 30
0.0
 10
146.2999053706772
 20
139.4381692298086
 30
0.0
 10
146.3150381071154
 20
139.4407101720661
 30
0.0
 10
146.329473536897
 20
139.4463209503333
 30
0.0
 10
146.3375874877263
 20
139.452597308642
 30
0.0
 10
146.3416019534253
 20
139.4557026053927
 30
0.0
  0
LINE
  5
24B
330
1F
100
AcDbEntity
  8
0
  6
Continuous
 62
     7
370
    25
100
AcDbLine
 10
145.6093902681
 20
140.6692308756
 30
0.0
 11
146.2363734646
 21
139.4738197721
 31
0.0
  0
SPLINE
  5
24C
330
1F
100
AcDbEntity
  8
0
  6
Continuous
 62
     7
370
    25
100
AcDbSpline
210
0.0
220
0.0
230
1.0
 70
     8
 71
     3
 72
    15
 73
    11
 74
     0
 42
0.00000001
 43
0.00000001
 40
0.0
 40
0.0
 40
0.0
 40
0.0
 40
0.1233867499278388
 40
0.2487396502211602
 40
0.3739317114754985
 40
0.4999973617625659
 40
0.6259591330513601
 40
0.7512551380600303
 40
0.8765613478174267
 40
1.0
 40
1.0
 40
1.0
 40
1.0
 10
147.8167869518916
 20
141.6471688394882
 30
0.0
 10
147.8196651530835
 20
141.6531836355711
 30
0.0
 10
147.8254674191951
 20
141.6653090726598
 30
0.0
 10
147.8409968239159
 20
141.6787003330099
 30
0.0
 10
147.8593514057893
 20
141.6875780445898
 30
0.0
 10
147.8796642222723
 20
141.6903347078863
 30
0.0
 10
147.8999826399873
 20
141.6875800266857
 30
0.0
 10
147.9183355091515
 20
141.6787043283962
 30
0.0
 10
147.933873613547
 20
141.6653139611425
 30
0.0
 10
147.9396741755782
 20
141.6531868635965
 30
0.0
 10
147.9425526815038
 20
141.6471688394882
 30
0.0
  0
LINE
  5
24D
330
1F
100
AcDbEntity
  8
0
  6
Continuous
 62
     7
370
    25
100
AcDbLine
 10
147.5776734262
 20
141.0089148102
 30
0.0
 11
147.8167869519
 21
141.6471688395
 31
0.0
  0
SPLINE
  5
24E
330
1F
100
AcDbEntity
  8
0
  6
Continuous
 62
     7
370
    25
100
AcDbSpline
210
0.0
220
0.0
230
1.0
 70
     8
 71
     3
 72
    15
 73
    11
 74
     0
 42
0.00000001
 43
0.00000001
 40
0.0
 40
0.0
 40
0.0
 40
0.0
 40
0.1261585224210644
 40
0.2513121451548802
 40
0.3762846848783791
 40
0.4993062783340883
 40
0.6261594278645745
 40
0.7521171342021309
 40
0.8758196922692798
 40
1.0
 40
1.0
 40
1.0
 40
1.0
 10
147.6405562910199
 20
140.9238504568656
 30
0.0
 10
147.6353251945313
 20
140.924172763458
 30
0.0
 10
147.6249046691886
 20
140.9248148093505
 30
0.0
 10
147.6101181186742
 20
140.9302630497257
 30
0.0
 10
147.5969277660487
 20
140.9384856523113
 30
0.0
 10
147.5860571912075
 20
140.9497422586239
 30
0.0
 10
147.5780496038789
 20
140.963263003965
 30
0.0
 10
147.5738829768462
 20
140.9783998915418
 30
0.0
 10
147.5732619253346
 20
140.9940890231129
 30
0.0
 10
147.5762010376894
 20
141.0039665354715
 30
0.0
 10
147.5776734261721
 20
141.0089148102156
 30
0.0
  0
LINE
  5
24F
330
1F
100
AcDbEntity
  8
0
  6
Continuous
 62
     7
370
    25
100
AcDbLine
 10
148.1187833452
 20
140.9238504569
 30
0.0
 11
147.640556291
 21
140.9238504569
 31
0.0
  0
SPLINE
  5
250
330
1F
100
AcDbEntity
  8
0
  6
Continuous
 62
     7
370
    25
100
AcDbSpline
210
0.0
220
0.0
230
1.0
 70
     8
 71
     3
 72
    15
 73
    11
 74
     0
 42
0.00000001
 43
0.00000001
 40
0.0
 40
0.0
 40
0.0
 40
0.0
 40
0.1241186784437694
 40
0.2478474916628981
 40
0.373657414947894
 40
0.5005082335853294
 40
0.6234527658309922
 40
0.7484986612277523
 40
0.8736976492452768
 40
1.0
 40
1.0
 40
1.0
 40
1.0
 10
148.1816662099493
 20
141.0089148104387
 30
0.0
 10
148.1831372825581
 20
141.0039689647805
 30
0.0
 10
148.1860748070365
 20
140.9940928087024
 30
0.0
 10
148.1854580725364
 20
140.9784114130767
 30
0.0
 10
148.1812961109418
 20
140.9632788809964
 30
0.0
 10
148.1732973631434
 20
140.949763973382
 30
0.0
 10
148.1624312716066
 20
140.938503912186
 30
0.0
 10
148.149243553782
 20
140.9302741997525
 30
0.0
 10
148.1344491072067
 20
140.9248146293675
 30
0.0
 10
148.1240205162994
 20
140.9241727863105
 30
0.0
 10
148.118783345185
 20
140.9238504568656
 30
0.0
  0
LINE
  5
251
330
1F
100
AcDbEntity
  8
0
  6
Continuous
 62
     7
370
    25
100
AcDbLine
 10
147.9425526815
 20
141.6471688395
 30
0.0
 11
148.1816662099
 21
141.0089148104
 31
0.0
  0
CIRCLE
  5
252
330
1F
100
AcDbEntity
  8
0
  6
Continuous
 62
     7
370
    25
100
AcDbCircle
 10
147.8796698167
 20
141.6257593813
 30
0.0
 40
4.5
  0
LINE
  5
253
330
1F
100
AcDbEntity
  8
0
  6
Continuous
 62
     7
370
    25
100
AcDbLine
 10
134.5796698167
 20
140.6133431467
 30
0.0
 11
134.5796698167
 21
142.638175616
 31
0.0
  0
SPLINE
  5
254
330
1F
100
AcDbEntity
  8
0
  6
Continuous
 62
     7
370
    25
100
AcDbSpline
210
0.0
220
0.0
230
1.0
 70
     8
 71
     3
 72
    11
 73
     7
 74
     0
 42
0.00000001
 43
0.00000001
 40
0.0
 40
0.0
 40
0.0
 40
0.0
 40
0.2561894651307314
 40
0.509604493920692
 40
0.769274206655365
 40
1.0
 40
1.0
 40
1.0
 40
1.0
 10
134.5796698166977
 20
140.6133431467119
 30
0.0
 10
134.5040736844038
 20
140.5538311060635
 30
0.0
 10
134.3537000977292
 20
140.4354515179672
 30
0.0
 10
134.0544873117739
 20
140.2648139758318
 30
0.0
 10
133.7269675768871
 20
140.113190064931
 30
0.0
 10
133.4907891960733
 20
140.0337540292599
 30
0.0
 10
133.3796698166977
 20
139.9963802317369
 30
0.0
  0
LINE
  5
255
330
1F
100
AcDbEntity
  8
0
  6
Continuous
 62
     7
370
    25
100
AcDbLine
 10
133.3796698167
 20
143.255138531
 30
0.0
 11
133.3796698167
 21
139.9963802317
 31
0.0
  0
SPLINE
  5
256
330
1F
100
AcDbEntity
  8
0
  6
Continuous
 62
     7
370
    25
100
AcDbSpline
210
0.0
220
0.0
230
1.0
 70
     8
 71
     3
 72
    11
 73
     7
 74
     0
 42
0.00000001
 43
0.00000001
 40
0.0
 40
0.0
 40
0.0
 40
0.0
 40
0.2307374805224083
 40
0.4903955403005851
 40
0.7438105520730633
 40
1.0
 40
1.0
 40
1.0
 40
1.0
 10
133.3796698166977
 20
143.2551385309538
 30
0.0
 10
133.4907950504541
 20
143.2177633400408
 30
0.0
 10
133.7269739275296
 20
143.1383283609462
 30
0.0
 10
134.0544915684807
 20
142.9867016811826
 30
0.0
 10
134.3537001651432
 20
142.8160673762342
 30
0.0
 10
134.5040737069566
 20
142.6976877006229
 30
0.0
 10
134.5796698166977
 20
142.6381756159788
 30
0.0
  0
LINE
  5
257
330
1F
100
AcDbEntity
  8
0
  6
Continuous
 62
     7
370
    25
100
AcDbLine
 10
132.7744416032
 20
139.8495989616
 30
0.0
 11
98.4977038054
 21
140.7471669292
 31
0.0
  0
LINE
  5
258
330
1F
100
AcDbEntity
  8
0
  6
Continuous
 62
     7
370
    25
100
AcDbLine
 10
98.4977038054
 20
140.7471669292
 30
0.0
 11
98.4977038054
 21
142.5043518335
 31
0.0
  0
LINE
  5
259
330
1F
100
AcDbEntity
  8
0
  6
Continuous
 62
     7
370
    25
100
AcDbLine
 10
98.4977038054
 20
142.5043518335
 30
0.0
 11
132.7744416032
 21
143.4019198011
 31
0.0
  0
ELLIPSE
  5
25A
330
1F
100
AcDbEntity
  8
0
  6
Continuous
 62
     7
370
    25
100
AcDbEllipse
 10
132.7796698167
 20
142.6015081447
 30
0.0
 11
0.9988086229566591
 21
0.0610396441386456
 31
0.0
210
0.0
220
0.0
230
1.0
 40
0.7994627403
 41
0.8784769082856279
 42
1.527206254409825
  0
ELLIPSE
  5
25B
330
1F
100
AcDbEntity
  8
0
  6
Continuous
 62
     7
370
    25
100
AcDbEllipse
 10
132.7796698167
 20
140.650010618
 30
0.0
 11
0.9988086229566305
 21
-0.06103964413861718
 31
0.0
210
0.0
220
0.0
230
0.9999999999999999
 40
0.7994627403
 41
4.755979052769753
 42
5.404708398893954
  0
SPLINE
  5
25C
330
1F
100
AcDbEntity
  8
0
  6
Continuous
 62
     7
370
    25
100
AcDbSpline
210
0.0
220
0.0
230
1.0
 70
    24
 71
     3
 72
    11
 73
     7
 74
     0
 42
0.00000001
 43
0.00000001
 40
0.0
 40
0.0
 40
0.0
 40
0.0
 40
0.2499999999999963
 40
0.4999999999999995
 40
0.7500000000000014
 40
1.0
 40
1.0
 40
1.0
 40
1.0
 10
98.47938622076258
 20
143.2038721706588
 30
0.0
 10
98.47971408201839
 20
143.1913516544363
 30
0.0
 10
98.48036980453003
 20
143.1663106219911
 30
0.0
 10
98.48462877366926
 20
143.0036671523685
 30
0.0
 10
98.4906206293311
 20
142.7748474163141
 30
0.0
 10
98.4953427467421
 20
142.5945170277678
 30
0.0
 10
98.4977038054476
 20
142.5043518334947
 30
0.0
  0
LINE
  5
25D
330
1F
100
AcDbEntity
  8
0
  6
Continuous
 62
     7
370
    25
100
AcDbLine
 10
132.7561240185
 20
144.1014401383
 30
0.0
 11
98.4793862208
 21
143.2038721707
 31
0.0
  0
SPLINE
  5
25E
330
1F
100
AcDbEntity
  8
0
  6
Continuous
 62
     7
370
    25
100
AcDbSpline
210
0.0
220
0.0
230
1.0
 70
    24
 71
     3
 72
    11
 73
     7
 74
     0
 42
0.00000001
 43
0.00000001
 40
0.0
 40
0.0
 40
0.0
 40
0.0
 40
0.2499999999999982
 40
0.4999999999999978
 40
0.750000000000001
 40
1.0
 40
1.0
 40
1.0
 40
1.0
 10
132.7561240185002
 20
144.101440138278
 30
0.0
 10
132.756451879756
 20
144.0889196220554
 30
0.0
 10
132.7571076022677
 20
144.0638785896103
 30
0.0
 10
132.7613665714069
 20
143.9012351199877
 30
0.0
 10
132.7673584270688
 20
143.6724153839332
 30
0.0
 10
132.7720805444798
 20
143.492084995387
 30
0.0
 10
132.7744416031852
 20
143.4019198011139
 30
0.0
  0
LINE
  5
25F
330
1F
100
AcDbEntity
  8
0
  6
Continuous
 62
     7
370
    25
100
AcDbLine
 10
98.4793862208
 20
140.047646592
 30
0.0
 11
132.7561240185
 21
139.1500786244
 31
0.0
  0
SPLINE
  5
260
330
1F
100
AcDbEntity
  8
0
  6
Continuous
 62
     7
370
    25
100
AcDbSpline
210
0.0
220
0.0
230
1.0
 70
    24
 71
     3
 72
    11
 73
     7
 74
     0
 42
0.00000001
 43
0.00000001
 40
0.0
 40
0.0
 40
0.0
 40
0.0
 40
0.249999999999998
 40
0.4999999999999973
 40
0.7500000000000001
 40
1.0
 40
1.0
 40
1.0
 40
1.0
 10
98.47938622076258
 20
140.0476465920319
 30
0.0
 10
98.47971408201839
 20
140.0601671082545
 30
0.0
 10
98.48036980453001
 20
140.0852081406996
 30
0.0
 10
98.48462877366926
 20
140.2478516103222
 30
0.0
 10
98.4906206293311
 20
140.4766713463766
 30
0.0
 10
98.4953427467421
 20
140.6570017349229
 30
0.0
 10
98.4977038054476
 20
140.747166929196
 30
0.0
  0
SPLINE
  5
261
330
1F
100
AcDbEntity
  8
0
  6
Continuous
 62
     7
370
    25
100
AcDbSpline
210
0.0
220
0.0
230
1.0
 70
    24
 71
     3
 72
    11
 73
     7
 74
     0
 42
0.00000001
 43
0.00000001
 40
0.0
 40
0.0
 40
0.0
 40
0.0
 40
0.2499999999999988
 40
0.5000000000000004
 40
0.7499999999999976
 40
1.0
 40
1.0
 40
1.0
 40
1.0
 10
132.7744416031853
 20
139.8495989615769
 30
0.0
 10
132.7720805444798
 20
139.7594337673037
 30
0.0
 10
132.7673584270688
 20
139.5791033787575
 30
0.0
 10
132.7613665714069
 20
139.3502836427031
 30
0.0
 10
132.7571076022677
 20
139.1876401730805
 30
0.0
 10
132.756451879756
 20
139.1625991406353
 30
0.0
 10
132.7561240185002
 20
139.1500786244127
 30
0.0
  0
ELLIPSE
  5
262
330
1F
100
AcDbEntity
  8
0
  6
Continuous
 62
     7
370
    25
100
AcDbEllipse
 10
98.4977038054
 20
142.5253077518
 30
0.0
 11
1.49999997144873
 21
0.02095282558968847
 31
0.0
210
0.0
220
0.0
230
0.9999999999999998
 40
0.0139678873
 41
3.842044658397667
 42
4.712193869245414
  0
ELLIPSE
  5
263
330
1F
100
AcDbEntity
  8
0
  6
Continuous
 62
     7
370
    25
100
AcDbEllipse
 10
98.4977038054
 20
140.7262110109
 30
0.0
 11
1.49999997144873
 21
-0.02095282558968847
 31
0.0
210
0.0
220
0.0
230
0.9999999999999998
 40
0.0139678873
 41
1.570991437934172
 42
2.441140648781504
  0
SPLINE
  5
264
330
1F
100
AcDbEntity
  8
0
  6
Continuous
 62
     7
370
    25
100
AcDbSpline
210
0.0
220
0.0
230
1.0
 70
     8
 71
     3
 72
     9
 73
     5
 74
     0
 42
0.00000001
 43
0.00000001
 40
0.0
 40
0.0
 40
0.0
 40
0.0
 40
0.5600029565045499
 40
1.0
 40
1.0
 40
1.0
 40
1.0
 10
97.3510660899991
 20
140.7557352947214
 30
0.0
 10
97.34291833064597
 20
140.7557296566552
 30
0.0
 10
97.32836883718619
 20
140.7557195887329
 30
0.0
 10
97.31442419424567
 20
140.7558417653364
 30
0.0
 10
97.30828859257923
 20
140.7558955226807
 30
0.0
  0
ELLIPSE
  5
265
330
1F
100
AcDbEntity
  8
0
  6
Continuous
 62
     7
370
    25
100
AcDbEllipse
 10
98.4977038054
 20
140.7086218488
 30
0.0
 11
1.499999872704151
 21
-0.0430792567095466
 31
0.0
210
0.0
220
0.0
230
1.0
 40
0.0143449667
 41
2.486833182542028
 42
2.678357024934474
  0
LINE
  5
266
330
1F
100
AcDbEntity
  8
0
  6
Continuous
 62
     7
370
    25
100
AcDbLine
 10
97.1560630189
 20
142.4947427559
 30
0.0
 11
97.1560630189
 21
140.7567760068
 31
0.0
  0
ELLIPSE
  5
267
330
1F
100
AcDbEntity
  8
0
  6
Continuous
 62
     7
370
    25
100
AcDbEllipse
 10
98.4977038054
 20
142.5428969139
 30
0.0
 11
1.499999872704151
 21
0.04307925670957503
 31
0.0
210
0.0
220
0.0
230
1.0
 40
0.0143449667
 41
3.604828282243142
 42
3.796352124635673
  0
SPLINE
  5
268
330
1F
100
AcDbEntity
  8
0
  6
Continuous
 62
     7
370
    25
100
AcDbSpline
210
0.0
220
0.0
230
1.0
 70
     8
 71
     3
 72
     9
 73
     5
 74
     0
 42
0.00000001
 43
0.00000001
 40
0.0
 40
0.0
 40
0.0
 40
0.0
 40
0.5599925069633377
 40
1.0
 40
1.0
 40
1.0
 40
1.0
 10
97.30828859257923
 20
142.49562324001
 30
0.0
 10
97.31611140243615
 20
142.4956889851614
 30
0.0
 10
97.33008089266976
 20
142.4958063887884
 30
0.0
 10
97.34465387054024
 20
142.4957904716357
 30
0.0
 10
97.35106608999912
 20
142.4957834679693
 30
0.0
  0
ELLIPSE
  5
269
330
1F
100
AcDbEntity
  8
0
  6
Continuous
 62
     7
370
    25
100
AcDbEllipse
 10
98.4793862208
 20
140.0266906737
 30
0.0
 11
0.7999998117959422
 21
-0.02096310677475799
 31
0.0
210
0.0
220
0.0
230
1.0
 40
0.026176936
 41
1.571482264229186
 42
2.441631475075622
  0
SPLINE
  5
26A
330
1F
100
AcDbEntity
  8
0
  6
Continuous
 62
     7
370
    25
100
AcDbSpline
210
0.0
220
0.0
230
1.0
 70
     8
 71
     3
 72
    12
 73
     8
 74
     0
 42
0.00000001
 43
0.00000001
 40
0.0
 40
0.0
 40
0.0
 40
0.0
 40
0.2198609600791294
 40
0.4397396970008148
 40
0.6583291451397767
 40
0.87912395168436
 40
1.0
 40
1.0
 40
1.0
 40
1.0
 10
97.8678461058567
 20
140.0562149575573
 30
0.0
 10
97.80793104312782
 20
140.0668869522014
 30
0.0
 10
97.68809607324182
 20
140.088231804373
 30
0.0
 10
97.53136108496729
 20
140.21635019964
 30
0.0
 10
97.41479276118115
 20
140.3992881357051
 30
0.0
 10
97.3585360693869
 20
140.5908373075922
 30
0.0
 10
97.3530181981706
 20
140.7126429792772
 30
0.0
 10
97.3510660899991
 20
140.7557352947214
 30
0.0
  0
ELLIPSE
  5
26B
330
1F
100
AcDbEntity
  8
0
  6
Continuous
 62
     7
370
    25
100
AcDbEllipse
 10
98.4793862208
 20
143.224828089
 30
0.0
 11
0.7999998117959422
 21
0.02096310677475799
 31
0.0
210
0.0
220
0.0
230
1.0
 40
0.026176936
 41
3.841553832104662
 42
4.7117030429504
  0
SPLINE
  5
26C
330
1F
100
AcDbEntity
  8
0
  6
Continuous
 62
     7
370
    25
100
AcDbSpline
210
0.0
220
0.0
230
1.0
 70
     8
 71
     3
 72
    12
 73
     8
 74
     0
 42
0.00000001
 43
0.00000001
 40
0.0
 40
0.0
 40
0.0
 40
0.0
 40
0.2198610998683202
 40
0.4397399767664986
 40
0.6583294271823332
 40
0.8791242261983154
 40
1.0
 40
1.0
 40
1.0
 40
1.0
 10
97.35106608999912
 20
142.4957834679693
 30
0.0
 10
97.35716903989444
 20
142.5744743776885
 30
0.0
 10
97.36937543314356
 20
142.7318625597377
 30
0.0
 10
97.46189937424194
 20
142.9411443082227
 30
0.0
 10
97.59768332166364
 20
143.0997936288871
 30
0.0
 10
97.74211118502704
 20
143.1798936916024
 30
0.0
 10
97.8349881966758
 20
143.1912767289041
 30
0.0
 10
97.86784610585671
 20
143.1953038051334
 30
0.0
  0
ELLIPSE
  5
26D
330
1F
100
AcDbEntity
  8
0
  6
Continuous
 62
     7
370
    25
100
AcDbEllipse
 10
132.7796698167
 20
142.6015081447
 30
0.0
 11
1.557390436637291
 21
0.09517594847736177
 31
0.0
210
0.0
220
0.0
230
0.9999999999999998
 40
0.9613560848
 41
0.878476908285592
 42
1.527206254409808
  0
SPLINE
  5
26E
330
1F
100
AcDbEntity
  8
0
  6
Continuous
 62
     7
370
    25
100
AcDbSpline
210
0.0
220
0.0
230
1.0
 70
    24
 71
     3
 72
    10
 73
     6
 74
     0
 42
0.00000001
 43
0.00000001
 40
0.0
 40
0.0
 40
0.0
 40
0.0
 40
0.2808335173386709
 40
0.5616510917414143
 40
0.9999999999999999
 40
0.9999999999999999
 40
0.9999999999999999
 40
0.9999999999999999
 10
133.7033578203327
 20
143.814762449178
 30
0.0
 10
133.6851497006879
 20
143.783282446383
 30
0.0
 10
133.6487344950743
 20
143.7203242279147
 30
0.0
 10
133.5389514102739
 20
143.5305203446049
 30
0.0
 10
133.4399894575401
 20
143.3594251074565
 30
0.0
 10
133.3796698166977
 20
143.2551385309538
 30
0.0
  0
SPLINE
  5
26F
330
1F
100
AcDbEntity
  8
0
  6
Continuous
 62
     7
370
    25
100
AcDbSpline
210
0.0
220
0.0
230
1.0
 70
     8
 71
     3
 72
    11
 73
     7
 74
     0
 42
0.00000001
 43
0.00000001
 40
0.0
 40
0.0
 40
0.0
 40
0.0
 40
0.2561894651307129
 40
0.5096044939206584
 40
0.7692742066444705
 40
1.0
 40
1.0
 40
1.0
 40
1.0
 10
134.5796698166977
 20
142.6381756159788
 30
0.0
 10
134.5353048260809
 20
142.7516831513001
 30
0.0
 10
134.4470553011462
 20
142.9774689776769
 30
0.0
 10
134.2372432142218
 20
143.3026713134363
 30
0.0
 10
133.9897353447301
 20
143.5926276713656
 30
0.0
 10
133.794985513992
 20
143.743689492544
 30
0.0
 10
133.7033578203327
 20
143.814762449178
 30
0.0
  0
SPLINE
  5
270
330
1F
100
AcDbEntity
  8
0
  6
Continuous
 62
     7
370
    25
100
AcDbSpline
210
0.0
220
0.0
230
1.0
 70
    24
 71
     3
 72
    10
 73
     6
 74
     0
 42
0.00000001
 43
0.00000001
 40
0.0
 40
0.0
 40
0.0
 40
0.0
 40
0.2808335173386708
 40
0.5616510917414125
 40
1.0
 40
1.0
 40
1.0
 40
1.0
 10
133.3796698166977
 20
139.9963802317369
 30
0.0
 10
133.4180202656601
 20
139.9300761726646
 30
0.0
 10
133.4947189864277
 20
139.7974718186054
 30
0.0
 10
133.6198733364697
 20
139.581092567701
 30
0.0
 10
133.671742402823
 20
139.4914161823506
 30
0.0
 10
133.7033578203327
 20
139.4367563135127
 30
0.0
  0
ELLIPSE
  5
271
330
1F
100
AcDbEntity
  8
0
  6
Continuous
 62
     7
370
    25
100
AcDbEllipse
 10
132.7796698167
 20
140.650010618
 30
0.0
 11
1.557390436637263
 21
-0.09517594847733335
 31
0.0
210
0.0
220
0.0
230
0.9999999999999999
 40
0.9613560848
 41
4.755979052769757
 42
5.404708398893987
  0
SPLINE
  5
272
330
1F
100
AcDbEntity
  8
0
  6
Continuous
 62
     7
370
    25
100
AcDbSpline
210
0.0
220
0.0
230
1.0
 70
     8
 71
     3
 72
    11
 73
     7
 74
     0
 42
0.00000001
 43
0.00000001
 40
0.0
 40
0.0
 40
0.0
 40
0.0
 40
0.2307374805226512
 40
0.4903955403005855
 40
0.7438105520730652
 40
0.9999999999999999
 40
0.9999999999999999
 40
0.9999999999999999
 40
0.9999999999999999
 10
133.7033578203327
 20
139.4367563135127
 30
0.0
 10
133.7949898250922
 20
139.5078333317028
 30
0.0
 10
133.9897389676289
 20
139.6588961441222
 30
0.0
 10
134.2372465348668
 20
139.9488521732777
 30
0.0
 10
134.4470552642609
 20
140.2740498338263
 30
0.0
 10
134.5353048137413
 20
140.4998356277204
 30
0.0
 10
134.5796698166977
 20
140.6133431467119
 30
0.0
  0
LINE
  5
273
330
1F
100
AcDbEntity
  8
0
  6
Continuous
 62
     7
370
    25
100
AcDbLine
 10
134.879683272
 20
144.2312160515
 30
0.0
 11
132.7561240185
 21
144.1014401383
 31
0.0
  0
SPLINE
  5
274
330
1F
100
AcDbEntity
  8
0
  6
Continuous
 62
     7
370
    25
100
AcDbSpline
210
0.0
220
0.0
230
1.0
 70
     8
 71
     3
 72
    13
 73
     9
 74
     0
 42
0.00000001
 43
0.00000001
 40
0.0
 40
0.0
 40
0.0
 40
0.0
 40
0.1035746466401555
 40
0.2111076158583393
 40
0.3219769626223817
 40
0.4454462032504118
 40
0.7113049728010379
 40
1.0
 40
1.0
 40
1.0
 40
1.0
 10
136.9796698166977
 20
142.7848455010456
 30
0.0
 10
136.9724136519373
 20
142.8831882794944
 30
0.0
 10
136.9576240128457
 20
143.0836322121427
 30
0.0
 10
136.8313514032838
 20
143.3665742623727
 30
0.0
 10
136.634804015153
 20
143.6248324873916
 30
0.0
 10
136.2709523420657
 20
143.9279278371467
 30
0.0
 10
135.6733649553304
 20
144.1934575034302
 30
0.0
 10
135.1514084717707
 20
144.218289018845
 30
0.0
 10
134.8796832719773
 20
144.2312160514613
 30
0.0
  0
LINE
  5
275
330
1F
100
AcDbEntity
  8
0
  6
Continuous
 62
     7
370
    25
100
AcDbLine
 10
134.5796698167
 20
142.638175616
 30
0.0
 11
136.9796698167
 21
142.784845501
 31
0.0
  0
LINE
  5
276
330
1F
100
AcDbEntity
  8
0
  6
Continuous
 62
     7
370
    25
100
AcDbLine
 10
136.9796698167
 20
140.4666732616
 30
0.0
 11
134.5796698167
 21
140.6133431467
 31
0.0
  0
SPLINE
  5
277
330
1F
100
AcDbEntity
  8
0
  6
Continuous
 62
     7
370
    25
100
AcDbSpline
210
0.0
220
0.0
230
1.0
 70
     8
 71
     3
 72
    13
 73
     9
 74
     0
 42
0.00000001
 43
0.00000001
 40
0.0
 40
0.0
 40
0.0
 40
0.0
 40
0.2886949682914851
 40
0.554553683594315
 40
0.6780091910936104
 40
0.7888922083801199
 40
0.8964194071406489
 40
1.0
 40
1.0
 40
1.0
 40
1.0
 10
134.8796832719773
 20
139.0203027112294
 30
0.0
 10
135.1514084625535
 20
139.0332297167122
 30
0.0
 10
135.673364928408
 20
139.0580611800062
 30
0.0
 10
136.2709403365112
 20
139.3235857814388
 30
0.0
 10
136.6347945166908
 20
139.626676778043
 30
0.0
 10
136.8313420082565
 20
139.8849285321636
 30
0.0
 10
136.9576252973626
 20
140.1678798983319
 30
0.0
 10
136.9724137993337
 20
140.368324561023
 30
0.0
 10
136.9796698166977
 20
140.4666732616452
 30
0.0
  0
LINE
  5
278
330
1F
100
AcDbEntity
  8
0
  6
Continuous
 62
     7
370
    25
100
AcDbLine
 10
132.7561240185
 20
139.1500786244
 30
0.0
 11
134.879683272
 21
139.0203027112
 31
0.0
  0
SPLINE
  5
279
330
1F
100
AcDbEntity
  8
0
  6
Continuous
 62
     7
370
    25
100
AcDbSpline
210
0.0
220
0.0
230
1.0
 70
     8
 71
     3
 72
    12
 73
     8
 74
     0
 42
0.00000001
 43
0.00000001
 40
0.0
 40
0.0
 40
0.0
 40
0.0
 40
0.2225634137434379
 40
0.4462063173695244
 40
0.6680851268156933
 40
0.8917990985568367
 40
1.0
 40
1.0
 40
1.0
 40
1.0
 10
97.82573052282423
 20
143.1943585692614
 30
0.0
 10
97.76403395718933
 20
143.1820054616946
 30
0.0
 10
97.64034158168494
 20
143.1572393308076
 30
0.0
 10
97.48117523989144
 20
143.0246554028098
 30
0.0
 10
97.3650933518745
 20
142.8382979993152
 30
0.0
 10
97.31337830114664
 20
142.6502071879619
 30
0.0
 10
97.30953987936972
 20
142.5336271550735
 30
0.0
 10
97.30828859257923
 20
142.49562324001
 30
0.0
  0
SPLINE
  5
27A
330
1F
100
AcDbEntity
  8
0
  6
Continuous
 62
     7
370
    25
100
AcDbSpline
210
0.0
220
0.0
230
1.0
 70
     8
 71
     3
 72
    12
 73
     8
 74
     0
 42
0.00000001
 43
0.00000001
 40
0.0
 40
0.0
 40
0.0
 40
0.0
 40
0.2225634137435274
 40
0.446206317369568
 40
0.6680851268158019
 40
0.8917990985569294
 40
1.0
 40
1.0
 40
1.0
 40
1.0
 10
97.30828859257923
 20
140.7558955226807
 30
0.0
 10
97.31387515868172
 20
140.6773918626381
 30
0.0
 10
97.3250753871713
 20
140.5200037795815
 30
0.0
 10
97.41912616485835
 20
140.310652241954
 30
0.0
 10
97.5586172282564
 20
140.151892947484
 30
0.0
 10
97.70384132809274
 20
140.0740440771674
 30
0.0
 10
97.7957644968228
 20
140.061311036334
 30
0.0
 10
97.82573052282423
 20
140.0571601934294
 30
0.0
  0
SPLINE
  5
27B
330
1F
100
AcDbEntity
  8
0
  6
Continuous
 62
     7
370
    25
100
AcDbSpline
210
0.0
220
0.0
230
1.0
 70
     8
 71
     3
 72
    11
 73
     7
 74
     0
 42
0.00000001
 43
0.00000001
 40
0.0
 40
0.0
 40
0.0
 40
0.0
 40
0.249999999999999
 40
0.4999999999999998
 40
0.7499999999999988
 40
1.0
 40
1.0
 40
1.0
 40
1.0
 10
97.74454355022078
 20
143.1934780851154
 30
0.0
 10
97.66630844188852
 20
143.1784787799488
 30
0.0
 10
97.50983822522399
 20
143.1484801696157
 30
0.0
 10
97.31651207380752
 20
142.984960466819
 30
0.0
 10
97.1821356415285
 20
142.7593808527367
 30
0.0
 10
97.16475389314134
 20
142.5829554548216
 30
0.0
 10
97.15606301894773
 20
142.4947427558641
 30
0.0
  0
ELLIPSE
  5
27C
330
1F
100
AcDbEntity
  8
0
  6
Continuous
 62
     7
370
    25
100
AcDbEllipse
 10
98.460085303
 20
143.2416322431
 30
0.0
 11
0.7999991634988818
 21
0.04310148564320571
 31
0.0
210
0.0
220
0.0
230
0.9999999999999999
 40
0.0268411366
 41
3.603794146007214
 42
3.795317988398174
  0
ELLIPSE
  5
27D
330
1F
100
AcDbEntity
  8
0
  6
Continuous
 62
     7
370
    25
100
AcDbEllipse
 10
98.460085303
 20
140.0098865196
 30
0.0
 11
0.7999991634988818
 21
-0.04310148564323413
 31
0.0
210
0.0
220
0.0
230
1.0
 40
0.0268411366
 41
2.487867318782573
 42
2.679391161175109
  0
SPLINE
  5
27E
330
1F
100
AcDbEntity
  8
0
  6
Continuous
 62
     7
370
    25
100
AcDbSpline
210
0.0
220
0.0
230
1.0
 70
     8
 71
     3
 72
    11
 73
     7
 74
     0
 42
0.00000001
 43
0.00000001
 40
0.0
 40
0.0
 40
0.0
 40
0.0
 40
0.2499999999999991
 40
0.4999999999999979
 40
0.7499999999999996
 40
1.0
 40
1.0
 40
1.0
 40
1.0
 10
97.74454355022075
 20
140.0580406775753
 30
0.0
 10
97.66630844188849
 20
140.0730399827419
 30
0.0
 10
97.50983822522396
 20
140.1030385930751
 30
0.0
 10
97.3165120738075
 20
140.2665582958717
 30
0.0
 10
97.18213564152855
 20
140.4921379099541
 30
0.0
 10
97.16475389314134
 20
140.6685633078691
 30
0.0
 10
97.15606301894773
 20
140.7567760068267
 30
0.0
  0
LINE
  5
27F
330
1F
100
AcDbEntity
  8
0
  6
Continuous
 62
     7
370
    25
100
AcDbLine
 10
136.9796698167
 20
142.784845501
 30
0.0
 11
136.9796698167
 21
140.4666732616
 31
0.0
  0
LINE
  5
280
330
1F
100
AcDbEntity
  8
0
  6
Continuous
 62
     7
370
    25
100
AcDbLine
 10
97.6454011947
 20
143.4120000438
 30
0.0
 11
119.2729493634
 21
143.9783373238
 31
0.0
  0
SPLINE
  5
281
330
1F
100
AcDbEntity
  8
0
  6
Continuous
 62
     7
370
    25
100
AcDbSpline
210
0.0
220
0.0
230
1.0
 70
     8
 71
     3
 72
     9
 73
     5
 74
     0
 42
0.00000001
 43
0.00000001
 40
0.0
 40
0.0
 40
0.0
 40
0.0
 40
0.5600012771711204
 40
1.0
 40
1.0
 40
1.0
 40
1.0
 10
119.2729493634166
 20
143.9783373238425
 30
0.0
 10
119.7503794999416
 20
143.9665029114974
 30
0.0
 10
120.6029313707815
 20
143.9453700805067
 30
0.0
 10
121.459820575425
 20
143.9244093510942
 30
0.0
 10
121.8368507310739
 20
143.9151866569232
 30
0.0
  0
SPLINE
  5
282
330
1F
100
AcDbEntity
  8
0
  6
Continuous
 62
     7
370
    25
100
AcDbSpline
210
0.0
220
0.0
230
1.0
 70
     8
 71
     3
 72
     9
 73
     5
 74
     0
 42
0.00000001
 43
0.00000001
 40
0.0
 40
0.0
 40
0.0
 40
0.0
 40
0.5599999095971039
 40
1.0
 40
1.0
 40
1.0
 40
1.0
 10
121.8368507310739
 20
143.9151866569232
 30
0.0
 10
121.9309802217364
 20
143.912889247026
 30
0.0
 10
122.0990686250546
 20
143.90878672869
 30
0.0
 10
122.2673111447503
 20
143.904690335497
 30
0.0
 10
122.3413378686261
 20
143.9028879221217
 30
0.0
  0
LINE
  5
283
330
1F
100
AcDbEntity
  8
0
  6
Continuous
 62
     7
370
    25
100
AcDbLine
 10
122.3413378686
 20
143.9028879221
 30
0.0
 11
134.879683272
 21
144.2312160515
 31
0.0
  0
LINE
  5
284
330
1F
100
AcDbEntity
  8
0
  6
Continuous
 62
     7
370
    25
100
AcDbLine
 10
97.8678461059
 20
143.1953038051
 30
0.0
 11
97.6454011947
 21
143.4120000438
 31
0.0
  0
LINE
  5
285
330
1F
100
AcDbEntity
  8
0
  6
Continuous
 62
     7
370
    25
100
AcDbLine
 10
134.879683272
 20
139.0203027112
 30
0.0
 11
122.3413378686
 21
139.3486308406
 31
0.0
  0
SPLINE
  5
286
330
1F
100
AcDbEntity
  8
0
  6
Continuous
 62
     7
370
    25
100
AcDbSpline
210
0.0
220
0.0
230
1.0
 70
     8
 71
     3
 72
     9
 73
     5
 74
     0
 42
0.00000001
 43
0.00000001
 40
0.0
 40
0.0
 40
0.0
 40
0.0
 40
0.5600000882143319
 40
1.0
 40
1.0
 40
1.0
 40
1.0
 10
122.3413378686261
 20
139.348630840569
 30
0.0
 10
122.2471254530944
 20
139.3463367244279
 30
0.0
 10
122.0788890232893
 20
139.342240089107
 30
0.0
 10
121.9108068656208
 20
139.3381373226477
 30
0.0
 10
121.836850731074
 20
139.3363321057676
 30
0.0
  0
SPLINE
  5
287
330
1F
100
AcDbEntity
  8
0
  6
Continuous
 62
     7
370
    25
100
AcDbSpline
210
0.0
220
0.0
230
1.0
 70
     8
 71
     3
 72
     9
 73
     5
 74
     0
 42
0.00000001
 43
0.00000001
 40
0.0
 40
0.0
 40
0.0
 40
0.0
 40
0.5599987526606142
 40
1.0
 40
1.0
 40
1.0
 40
1.0
 10
121.836850731074
 20
139.3363321057676
 30
0.0
 10
121.3570844731868
 20
139.3245905192452
 30
0.0
 10
120.5003571044065
 20
139.3036233537531
 30
0.0
 10
119.6479913559339
 20
139.282483153381
 30
0.0
 10
119.2729493634166
 20
139.2731814388483
 30
0.0
  0
LINE
  5
288
330
1F
100
AcDbEntity
  8
0
  6
Continuous
 62
     7
370
    25
100
AcDbLine
 10
119.2729493634
 20
139.2731814388
 30
0.0
 11
97.6454011947
 21
139.8395187189
 31
0.0
  0
LINE
  5
289
330
1F
100
AcDbEntity
  8
0
  6
Continuous
 62
     7
370
    25
100
AcDbLine
 10
97.6454011947
 20
139.8395187189
 30
0.0
 11
97.8678461059
 21
140.0562149576
 31
0.0
  0
LINE
  5
28A
330
1F
100
AcDbEntity
  8
0
  6
Continuous
 62
     7
370
    25
100
AcDbLine
 10
92.5771128758
 20
142.4947427559
 30
0.0
 11
97.1560630189
 21
142.4947427559
 31
0.0
  0
SPLINE
  5
28B
330
1F
100
AcDbEntity
  8
0
  6
Continuous
 62
     7
370
    25
100
AcDbSpline
210
0.0
220
0.0
230
1.0
 70
     8
 71
     3
 72
    13
 73
     9
 74
     0
 42
0.00000001
 43
0.00000001
 40
0.0
 40
0.0
 40
0.0
 40
0.0
 40
0.1143463544469914
 40
0.2890454840074685
 40
0.5294852105593209
 40
0.7014879056604271
 40
0.9335094878266192
 40
1.0
 40
1.0
 40
1.0
 40
1.0
 10
93.3390737260162
 20
143.1934780851154
 30
0.0
 10
93.29787252530724
 20
143.1886434936103
 30
0.0
 10
93.19372385298439
 20
143.1764225806802
 30
0.0
 10
93.00636435860454
 20
143.1037744856392
 30
0.0
 10
92.82433662859576
 20
142.9732622192324
 30
0.0
 10
92.67205304738141
 20
142.7863946200628
 30
0.0
 10
92.59954977050141
 20
142.6250212153062
 30
0.0
 10
92.5812000811827
 20
142.5184748644542
 30
0.0
 10
92.57711287579251
 20
142.4947427558641
 30
0.0
  0
LINE
  5
28C
330
1F
100
AcDbEntity
  8
0
  6
Continuous
 62
     7
370
    25
100
AcDbLine
 10
97.7445435502
 20
143.1934780851
 30
0.0
 11
93.339073726
 21
143.1934780851
 31
0.0
  0
LINE
  5
28D
330
1F
100
AcDbEntity
  8
0
  6
Continuous
 62
     7
370
    25
100
AcDbLine
 10
93.339073726
 20
140.0580406776
 30
0.0
 11
97.7445435502
 21
140.0580406776
 31
0.0
  0
SPLINE
  5
28E
330
1F
100
AcDbEntity
  8
0
  6
Continuous
 62
     7
370
    25
100
AcDbSpline
210
0.0
220
0.0
230
1.0
 70
     8
 71
     3
 72
    12
 73
     8
 74
     0
 42
0.00000001
 43
0.00000001
 40
0.0
 40
0.0
 40
0.0
 40
0.0
 40
0.139683458618249
 40
0.3831896274038307
 40
0.55131692930133
 40
0.8194729461607051
 40
0.9999999999999999
 40
0.9999999999999999
 40
0.9999999999999999
 40
0.9999999999999999
 10
92.57711287579251
 20
140.7567760068267
 30
0.0
 10
92.58735425653879
 20
140.7070610863482
 30
0.0
 10
92.61544914272712
 20
140.5706795702904
 30
0.0
 10
92.72259950408188
 20
140.3907634610783
 30
0.0
 10
92.90293659149489
 20
140.2124220326934
 30
0.0
 10
93.11139273606386
 20
140.0919018081419
 30
0.0
 10
93.27374963676779
 20
140.067755794835
 30
0.0
 10
93.33907372601618
 20
140.0580406775753
 30
0.0
  0
LINE
  5
28F
330
1F
100
AcDbEntity
  8
0
  6
Continuous
 62
     7
370
    25
100
AcDbLine
 10
97.1560630189
 20
140.7567760068
 30
0.0
 11
92.5771128758
 21
140.7567760068
 31
0.0
  0
ELLIPSE
  5
290
330
1F
100
AcDbEntity
  8
0
  6
Continuous
 62
     7
370
    25
100
AcDbEllipse
 10
92.9324562212
 20
141.8002979365
 30
0.0
 11
0.008721666502680138
 21
1.000418978703721
 31
0.0
210
0.0
220
0.0
230
1.0
 40
0.499714557
 41
0.807918040772638
 42
1.588240544501508
  0
ELLIPSE
  5
291
330
1F
100
AcDbEntity
  8
0
  6
Continuous
 62
     7
370
    25
100
AcDbEllipse
 10
92.9324562212
 20
141.4512208262
 30
0.0
 11
-0.008721666502694349
 21
1.000418978703749
 31
0.0
210
0.0
220
0.0
230
0.9999999999999999
 40
0.499714557
 41
1.553352109088308
 42
2.333674612817124
  0
LINE
  5
292
330
1F
100
AcDbEntity
  8
0
  6
Continuous
 62
     7
370
    25
100
AcDbLine
 10
92.4324562212
 20
141.7872049757
 30
0.0
 11
92.4324562212
 21
141.464313787
 31
0.0
  0
LINE
  5
293
330
1F
100
AcDbEntity
  8
0
  6
Continuous
 62
     7
370
    25
100
AcDbLine
 10
97.6465290519
 20
143.3689289134
 30
0.0
 11
97.6454011947
 21
143.4120000438
 31
0.0
  0
LINE
  5
294
330
1F
100
AcDbEntity
  8
0
  6
Continuous
 62
     7
370
    25
100
AcDbLine
 10
97.6465290519
 20
139.8825898493
 30
0.0
 11
97.6454011947
 21
139.8395187189
 31
0.0
  0
ELLIPSE
  5
295
330
1F
100
AcDbEntity
  8
0
  6
Continuous
 62
     7
370
    25
100
AcDbEllipse
 10
61.4286626172
 20
141.4634316567
 30
0.0
 11
36.18915845259203
 21
1.947628334984216
 31
0.0
210
0.0
220
0.0
230
1.0
 40
0.0007414247
 41
0.0282885576629575
 42
0.4911607830429424
  0
LINE
  5
296
330
1F
100
AcDbEntity
  8
0
  6
Continuous
 62
     7
370
    25
100
AcDbLine
 10
97.6033011404
 20
143.4110396805
 30
0.0
 11
97.8257305228
 21
143.1943585693
 31
0.0
  0
LINE
  5
297
330
1F
100
AcDbEntity
  8
0
  6
Continuous
 62
     7
370
    25
100
AcDbLine
 10
97.8257305228
 20
140.0571601934
 30
0.0
 11
97.6033011404
 21
139.8404790822
 31
0.0
  0
ELLIPSE
  5
298
330
1F
100
AcDbEntity
  8
0
  6
Continuous
 62
     7
370
    25
100
AcDbEllipse
 10
61.4286626172
 20
141.7880871059
 30
0.0
 11
36.18915845257633
 21
-1.947628334983364
 31
0.0
210
0.0
220
0.0
230
1.0
 40
0.0007414247
 41
5.792024524150261
 42
6.254896749546813
  0
LINE
  5
299
330
1F
100
AcDbEntity
  8
0
  6
Continuous
 62
     7
370
    25
100
AcDbLine
 10
125.4475453947
 20
144.4907077935
 30
0.0
 11
126.0981988607
 21
144.7248029273
 31
0.0
  0
SPLINE
  5
29A
330
1F
100
AcDbEntity
  8
0
  6
Continuous
 62
     7
370
    25
100
AcDbSpline
210
0.0
220
0.0
230
1.0
 70
     8
 71
     3
 72
    10
 73
     6
 74
     0
 42
0.00000001
 43
0.00000001
 40
0.0
 40
0.0
 40
0.0
 40
0.0
 40
0.2383396858856107
 40
0.571650633368965
 40
1.0
 40
1.0
 40
1.0
 40
1.0
 10
125.4496455546148
 20
144.4842818234001
 30
0.0
 10
125.2053792995148
 20
144.4096836209732
 30
0.0
 10
124.6195139665144
 20
144.2307620556994
 30
0.0
 10
123.5829591655088
 20
143.9944179434444
 30
0.0
 10
122.7882650699093
 20
143.9358345672589
 30
0.0
 10
122.3413378686263
 20
143.9028879221217
 30
0.0
  0
SPLINE
  5
29B
330
1F
100
AcDbEntity
  8
0
  6
Continuous
 62
     7
370
    25
100
AcDbSpline
210
0.0
220
0.0
230
1.0
 70
     8
 71
     3
 72
    11
 73
     7
 74
     0
 42
0.00000001
 43
0.00000001
 40
0.0
 40
0.0
 40
0.0
 40
0.0
 40
0.2506671725023491
 40
0.5010414677145718
 40
0.7508849997170933
 40
1.0
 40
1.0
 40
1.0
 40
1.0
 10
119.2729493634166
 20
143.9783373238425
 30
0.0
 10
119.7486373759771
 20
144.0052118904976
 30
0.0
 10
120.6994576114643
 20
144.0589296238038
 30
0.0
 10
122.1001302286766
 20
144.3443950874577
 30
0.0
 10
123.4636959899284
 20
144.7659232340774
 30
0.0
 10
124.3163635364842
 20
145.1822803117744
 30
0.0
 10
124.7420748177977
 20
145.3901548881509
 30
0.0
  0
SPLINE
  5
29C
330
1F
100
AcDbEntity
  8
0
  6
Continuous
 62
     7
370
    25
100
AcDbSpline
210
0.0
220
0.0
230
1.0
 70
     8
 71
     3
 72
     9
 73
     5
 74
     0
 42
0.00000001
 43
0.00000001
 40
0.0
 40
0.0
 40
0.0
 40
0.0
 40
0.501325902198991
 40
1.0
 40
1.0
 40
1.0
 40
1.0
 10
124.7420747883559
 20
145.390154941515
 30
0.0
 10
124.9661504891899
 20
145.5151975989851
 30
0.0
 10
125.4131166240957
 20
145.7646214905527
 30
0.0
 10
125.8271619037912
 20
146.066389598974
 30
0.0
 10
126.0336355600922
 20
146.216873538186
 30
0.0
  0
LINE
  5
29D
330
1F
100
AcDbEntity
  8
0
  6
Continuous
 62
     7
370
    25
100
AcDbLine
 10
128.0994160201
 20
146.3316399775
 30
0.0
 11
126.0334622852
 21
146.21686477
 31
0.0
  0
SPLINE
  5
29E
330
1F
100
AcDbEntity
  8
0
  6
Continuous
 62
     7
370
    25
100
AcDbSpline
210
0.0
220
0.0
230
1.0
 70
     8
 71
     3
 72
    14
 73
    10
 74
     0
 42
0.00000001
 43
0.00000001
 40
0.0
 40
0.0
 40
0.0
 40
0.0
 40
0.0829413618596714
 40
0.1664594845668882
 40
0.2437726390188662
 40
0.3161479456895724
 40
0.4353725718192331
 40
0.6486290670514194
 40
1.0
 40
1.0
 40
1.0
 40
1.0
 10
128.0994160072514
 20
146.3316399726827
 30
0.0
 10
128.1452153085264
 20
146.3298247831003
 30
0.0
 10
128.2371323920274
 20
146.3261817814001
 30
0.0
 10
128.2876774245637
 20
146.2445206489125
 30
0.0
 10
128.2467725281235
 20
146.1112371686277
 30
0.0
 10
128.111171482019
 20
145.92291071239
 30
0.0
 10
127.7942632112742
 20
145.6246436327277
 30
0.0
 10
127.117274601041
 20
145.1666164739424
 30
0.0
 10
126.4891077848276
 20
144.8942809452645
 30
0.0
 10
126.0981959211028
 20
144.7248049616148
 30
0.0
  0
LINE
  5
29F
330
1F
100
AcDbEntity
  8
0
  6
Continuous
 62
     7
370
    25
100
AcDbLine
 10
126.0334622852
 20
137.0346539927
 30
0.0
 11
128.0994160201
 21
136.9198787852
 31
0.0
  0
SPLINE
  5
2A0
330
1F
100
AcDbEntity
  8
0
  6
Continuous
 62
     7
370
    25
100
AcDbSpline
210
0.0
220
0.0
230
1.0
 70
     8
 71
     3
 72
     9
 73
     5
 74
     0
 42
0.00000001
 43
0.00000001
 40
0.0
 40
0.0
 40
0.0
 40
0.0
 40
0.4986740982738611
 40
1.0
 40
1.0
 40
1.0
 40
1.0
 10
126.0336353588665
 20
137.0346450426695
 30
0.0
 10
125.8271617177968
 20
137.1851289789485
 30
0.0
 10
125.4131164690372
 20
137.4868970812019
 30
0.0
 10
124.9661503670923
 20
137.7363209728241
 30
0.0
 10
124.7420746829938
 20
137.8613636302037
 30
0.0
  0
SPLINE
  5
2A1
330
1F
100
AcDbEntity
  8
0
  6
Continuous
 62
     7
370
    25
100
AcDbSpline
210
0.0
220
0.0
230
1.0
 70
     8
 71
     3
 72
    11
 73
     7
 74
     0
 42
0.00000001
 43
0.00000001
 40
0.0
 40
0.0
 40
0.0
 40
0.0
 40
0.249115000282908
 40
0.4989585322854286
 40
0.7493328274976518
 40
1.0
 40
1.0
 40
1.0
 40
1.0
 10
124.7420748177977
 20
137.8613638745399
 30
0.0
 10
124.3163635364842
 20
138.0692384509163
 30
0.0
 10
123.4636959899284
 20
138.4855955286133
 30
0.0
 10
122.1001302286766
 20
138.907123675233
 30
0.0
 10
120.6994576114643
 20
139.1925891388869
 30
0.0
 10
119.7486373759772
 20
139.2463068721931
 30
0.0
 10
119.2729493634166
 20
139.2731814388483
 30
0.0
  0
SPLINE
  5
2A2
330
1F
100
AcDbEntity
  8
0
  6
Continuous
 62
     7
370
    25
100
AcDbSpline
210
0.0
220
0.0
230
1.0
 70
     8
 71
     3
 72
    10
 73
     6
 74
     0
 42
0.00000001
 43
0.00000001
 40
0.0
 40
0.0
 40
0.0
 40
0.0
 40
0.428349366631063
 40
0.7616603141144169
 40
1.0
 40
1.0
 40
1.0
 40
1.0
 10
122.3413378686263
 20
139.348630840569
 30
0.0
 10
122.7882650699093
 20
139.3156841954319
 30
0.0
 10
123.5829591655089
 20
139.2571008192464
 30
0.0
 10
124.6195139665144
 20
139.0207567069915
 30
0.0
 10
125.2053792995149
 20
138.8418351417177
 30
0.0
 10
125.4496455546148
 20
138.7672369392908
 30
0.0
  0
LINE
  5
2A3
330
1F
100
AcDbEntity
  8
0
  6
Continuous
 62
     7
370
    25
100
AcDbLine
 10
125.4475453946
 20
138.7608109689
 30
0.0
 11
126.0981988606
 21
138.5267158351
 31
0.0
  0
SPLINE
  5
2A4
330
1F
100
AcDbEntity
  8
0
  6
Continuous
 62
     7
370
    25
100
AcDbSpline
210
0.0
220
0.0
230
1.0
 70
     8
 71
     3
 72
    15
 73
    11
 74
     0
 42
0.00000001
 43
0.00000001
 40
0.0
 40
0.0
 40
0.0
 40
0.0
 40
0.2091652517822448
 40
0.4176299509274911
 40
0.5931463878153098
 40
0.6923603779431111
 40
0.7731125739307029
 40
0.8543366880968446
 40
0.9261517123972134
 40
1.0
 40
1.0
 40
1.0
 40
1.0
 10
126.0981959210122
 20
138.5267138008446
 30
0.0
 10
126.3317801331076
 20
138.4290161683551
 30
0.0
 10
126.7981662187677
 20
138.2339481199358
 30
0.0
 10
127.4218163659469
 20
137.8846682665833
 30
0.0
 10
127.8816659952475
 20
137.5517780796399
 30
0.0
 10
128.1435503660173
 20
137.2901599936039
 30
0.0
 10
128.2640203465326
 20
137.1095659806901
 30
0.0
 10
128.2828135734422
 20
136.9874718173798
 30
0.0
 10
128.2217753721357
 20
136.9234218280614
 30
0.0
 10
128.1405802536244
 20
136.9210707420234
 30
0.0
 10
128.0994160072165
 20
136.91987879001
 30
0.0
  0
SPLINE
  5
2A5
330
1F
100
AcDbEntity
  8
0
  6
Continuous
 62
     7
370
    25
100
AcDbSpline
210
0.0
220
0.0
230
1.0
 70
    24
 71
     3
 72
    11
 73
     7
 74
     0
 42
0.00000001
 43
0.00000001
 40
0.0
 40
0.0
 40
0.0
 40
0.0
 40
0.2499999999999989
 40
0.4999999999999996
 40
0.749999999999999
 40
1.0
 40
1.0
 40
1.0
 40
1.0
 10
134.8665992829166
 20
138.5206453275408
 30
0.0
 10
134.8682857534206
 20
138.5850490377359
 30
0.0
 10
134.8716586944284
 20
138.7138564581261
 30
0.0
 10
134.8759385913297
 20
138.8772991267364
 30
0.0
 10
134.8789807121435
 20
138.9934730336097
 30
0.0
 10
134.879449085366
 20
139.0113594853562
 30
0.0
 10
134.8796832719773
 20
139.0203027112294
 30
0.0
  0
LINE
  5
2A6
330
1F
100
AcDbEntity
  8
0
  6
Continuous
 62
     7
370
    25
100
AcDbLine
 10
125.4496455546
 20
138.7672369393
 30
0.0
 11
134.8665992829
 21
138.5206453275
 31
0.0
  0
LINE
  5
2A7
330
1F
100
AcDbEntity
  8
0
  6
Continuous
 62
     7
370
    25
100
AcDbLine
 10
134.8665992829
 20
144.7308734351
 30
0.0
 11
125.4496455546
 21
144.4842818234
 31
0.0
  0
SPLINE
  5
2A8
330
1F
100
AcDbEntity
  8
0
  6
Continuous
 62
     7
370
    25
100
AcDbSpline
210
0.0
220
0.0
230
1.0
 70
    24
 71
     3
 72
    11
 73
     7
 74
     0
 42
0.00000001
 43
0.00000001
 40
0.0
 40
0.0
 40
0.0
 40
0.0
 40
0.2500000000000009
 40
0.5000000000000002
 40
0.7500000000000007
 40
0.9999999999999999
 40
0.9999999999999999
 40
0.9999999999999999
 40
0.9999999999999999
 10
134.8796832719773
 20
144.2312160514613
 30
0.0
 10
134.879449085366
 20
144.2401592773346
 30
0.0
 10
134.8789807121435
 20
144.2580457290811
 30
0.0
 10
134.8759385913297
 20
144.3742196359543
 30
0.0
 10
134.8716586944284
 20
144.5376623045647
 30
0.0
 10
134.8682857534205
 20
144.6664697249549
 30
0.0
 10
134.8665992829166
 20
144.7308734351499
 30
0.0
  0
ELLIPSE
  5
2A9
330
1F
100
AcDbEntity
  8
0
  6
Continuous
 62
     7
370
    25
100
AcDbEllipse
 10
134.8796698167
 20
140.5216744685
 30
0.0
 11
2.497021557391577
 21
-0.152599110346614
 31
2.131628207280301E-14
210
-8.504919643681399E-15
220
5.197564944337183E-16
230
0.9999999999999998
 40
0.7994627403
 41
4.755979052769788
 42
6.332003616895593
  0
SPLINE
  5
2AA
330
1F
100
AcDbEntity
  8
0
  6
Continuous
 62
     7
370
    25
100
AcDbSpline
210
0.0
220
0.0
230
1.0
 70
    24
 71
     3
 72
    11
 73
     7
 74
     0
 42
0.00000001
 43
0.00000001
 40
0.0
 40
0.0
 40
0.0
 40
0.0
 40
0.2500000000000007
 40
0.5000000000000022
 40
0.7500000000000036
 40
1.0
 40
1.0
 40
1.0
 40
1.0
 10
136.9796698166977
 20
140.4666732616452
 30
0.0
 10
137.0049297549019
 20
140.4666732616452
 30
0.0
 10
137.0554496313102
 20
140.4666732616452
 30
0.0
 10
137.1543082405105
 20
140.4666732616452
 30
0.0
 10
137.263695520334
 20
140.4666732616452
 30
0.0
 10
137.3410117179098
 20
140.4666732616452
 30
0.0
 10
137.3796698166977
 20
140.4666732616452
 30
0.0
  0
ELLIPSE
  5
2AB
330
1F
100
AcDbEntity
  8
0
  6
Continuous
 62
     7
370
    25
100
AcDbEllipse
 10
134.8796698167
 20
142.7298442941
 30
0.0
 11
2.497021557391577
 21
0.152599110346614
 31
2.131628207280301E-14
210
-8.504919643681407E-15
220
-5.197564944335903E-16
230
0.9999999999999998
 40
0.7994627403
 41
6.234366997463598
 42
7.810391561589396
  0
SPLINE
  5
2AC
330
1F
100
AcDbEntity
  8
0
  6
Continuous
 62
     7
370
    25
100
AcDbSpline
210
0.0
220
0.0
230
1.0
 70
    24
 71
     3
 72
    11
 73
     7
 74
     0
 42
0.00000001
 43
0.00000001
 40
0.0
 40
0.0
 40
0.0
 40
0.0
 40
0.2500000000000002
 40
0.500000000000003
 40
0.7499999999999994
 40
1.0
 40
1.0
 40
1.0
 40
1.0
 10
137.3796698166977
 20
142.7848455010456
 30
0.0
 10
137.3410117179098
 20
142.7848455010456
 30
0.0
 10
137.263695520334
 20
142.7848455010456
 30
0.0
 10
137.1543082405105
 20
142.7848455010456
 30
0.0
 10
137.0554496313102
 20
142.7848455010456
 30
0.0
 10
137.0049297549019
 20
142.7848455010456
 30
0.0
 10
136.9796698166977
 20
142.7848455010456
 30
0.0
  0
LINE
  5
2AD
330
1F
100
AcDbEntity
  8
0
  6
Continuous
 62
     7
370
    25
100
AcDbLine
 10
137.5164914912
 20
137.8990209571
 30
0.0
 11
126.1007622077
 21
138.5332281395
 31
0.0
  0
LINE
  5
2AE
330
1F
100
AcDbEntity
  8
0
  6
Continuous
 62
     7
370
    25
100
AcDbLine
 10
137.4332864618
 20
136.4013304273
 30
0.0
 11
137.5164914912
 21
137.8990209571
 31
0.0
  0
LINE
  5
2AF
330
1F
100
AcDbEntity
  8
0
  6
Continuous
 62
     7
370
    25
100
AcDbLine
 10
128.0996084503
 20
136.9198680946
 30
0.0
 11
137.4332864618
 21
136.4013304273
 31
0.0
  0
LINE
  5
2B0
330
1F
100
AcDbEntity
  8
0
  6
Continuous
 62
     7
370
    25
100
AcDbLine
 10
137.3796698167
 20
140.4666732616
 30
0.0
 11
137.3796698167
 21
142.784845501
 31
0.0
  0
LINE
  5
2B1
330
1F
100
AcDbEntity
  8
0
  6
Continuous
 62
     7
370
    25
100
AcDbLine
 10
137.4332864618
 20
146.8501883354
 30
0.0
 11
128.0996084503
 21
146.3316506681
 31
0.0
  0
LINE
  5
2B2
330
1F
100
AcDbEntity
  8
0
  6
Continuous
 62
     7
370
    25
100
AcDbLine
 10
137.5164914912
 20
145.3524978056
 30
0.0
 11
137.4332864618
 21
146.8501883354
 31
0.0
  0
LINE
  5
2B3
330
1F
100
AcDbEntity
  8
0
  6
Continuous
 62
     7
370
    25
100
AcDbLine
 10
126.1007622077
 20
144.7182906232
 30
0.0
 11
137.5164914912
 21
145.3524978056
 31
0.0
  0
LINE
  5
2B4
330
1F
100
AcDbEntity
  8
0
  6
Continuous
 62
     7
370
    25
100
AcDbLine
 10
137.8796698167
 20
138.2621992826
 30
0.0
 11
137.5164914912
 21
137.8990209571
 31
0.0
  0
LINE
  5
2B5
330
1F
100
AcDbEntity
  8
0
  6
Continuous
 62
     7
370
    25
100
AcDbLine
 10
137.5164914912
 20
145.3524978056
 30
0.0
 11
137.8796698167
 21
144.9893194801
 31
0.0
  0
LINE
  5
2B6
330
1F
100
AcDbEntity
  8
0
  6
Continuous
 62
     7
370
    25
100
AcDbLine
 10
137.8796698167
 20
138.2621992826
 30
0.0
 11
137.8796698167
 21
144.9893194801
 31
0.0
  0
LINE
  5
2B7
330
1F
100
AcDbEntity
  8
0
  6
Continuous
 62
     7
370
    25
100
AcDbLine
 10
137.8796698167
 20
145.7156761311
 30
0.0
 11
137.5164914912
 21
145.3524978056
 31
0.0
  0
ARC
  5
2B8
330
1F
100
AcDbEntity
  8
0
  6
Continuous
 62
     7
370
    25
100
AcDbCircle
 10
137.5164914912
 20
145.3524978056
 30
0.0
 40
1.500000000000004
100
AcDbArc
 50
75.9883675978
 51
93.1798301199
  0
LINE
  5
2B9
330
1F
100
AcDbEntity
  8
0
  6
Continuous
 62
     7
370
    25
100
AcDbLine
 10
137.8796698167
 20
145.7156761311
 30
0.0
 11
137.8796698167
 21
146.8078676912
 31
0.0
  0
LINE
  5
2BA
330
1F
100
AcDbEntity
  8
0
  6
Continuous
 62
     7
370
    25
100
AcDbLine
 10
137.8796698167
 20
144.9893194801
 30
0.0
 11
137.8796698167
 21
145.7156761311
 31
0.0
  0
ARC
  5
2BB
330
1F
100
AcDbEntity
  8
0
  6
Continuous
 62
     7
370
    25
100
AcDbCircle
 10
137.5164914912
 20
137.8990209571
 30
0.0
 40
1.500000000000007
100
AcDbArc
 50
266.8201698801
 51
284.0116324022
  0
LINE
  5
2BC
330
1F
100
AcDbEntity
  8
0
  6
Continuous
 62
     7
370
    25
100
AcDbLine
 10
137.5164914912
 20
137.8990209571
 30
0.0
 11
137.8796698167
 21
137.5358426316
 31
0.0
  0
LINE
  5
2BD
330
1F
100
AcDbEntity
  8
0
  6
Continuous
 62
     7
370
    25
100
AcDbLine
 10
137.8796698167
 20
136.4436510715
 30
0.0
 11
137.8796698167
 21
137.5358426316
 31
0.0
  0
LINE
  5
2BE
330
1F
100
AcDbEntity
  8
0
  6
Continuous
 62
     7
370
    25
100
AcDbLine
 10
137.8796698167
 20
137.5358426316
 30
0.0
 11
137.8796698167
 21
138.2621992826
 31
0.0
  0
SPLINE
  5
2BF
330
1F
100
AcDbEntity
  8
0
  6
Continuous
 62
     7
370
    25
100
AcDbSpline
210
0.0
220
0.0
230
1.0
 70
    24
 71
     3
 72
     9
 73
     5
 74
     0
 42
0.00000001
 43
0.00000001
 40
0.0
 40
0.0
 40
0.0
 40
0.0
 40
0.5389665913333049
 40
1.0
 40
1.0
 40
1.0
 40
1.0
 10
126.033636355497
 20
146.216874440587
 30
0.0
 10
125.9877104137195
 20
146.2143229993771
 30
0.0
 10
125.9024993032055
 20
146.209589048793
 30
0.0
 10
125.9150804953686
 20
146.2102880039132
 30
0.0
 10
125.9208808452766
 20
146.2106102455747
 30
0.0
  0
SPLINE
  5
2C0
330
1F
100
AcDbEntity
  8
0
  6
Continuous
 62
     7
370
    25
100
AcDbSpline
210
0.0
220
0.0
230
1.0
 70
    24
 71
     3
 72
     9
 73
     5
 74
     0
 42
0.00000001
 43
0.00000001
 40
0.0
 40
0.0
 40
0.0
 40
0.0
 40
0.4490009010282568
 40
1.0
 40
1.0
 40
1.0
 40
1.0
 10
125.9269789164419
 20
137.0405697353846
 30
0.0
 10
125.9185933638502
 20
137.0410355994175
 30
0.0
 10
125.8999173376496
 20
137.0420731564286
 30
0.0
 10
125.9861320994351
 20
137.0372834474405
 30
0.0
 10
126.033636355497
 20
137.0346443221038
 30
0.0
  0
SPLINE
  5
2C1
330
1F
100
AcDbEntity
  8
0
  6
Continuous
 62
     7
370
    25
100
AcDbSpline
210
0.0
220
0.0
230
1.0
 70
     8
 71
     3
 72
     9
 73
     5
 74
     0
 42
0.00000001
 43
0.00000001
 40
0.0
 40
0.0
 40
0.0
 40
0.0
 40
0.540774756067758
 40
1.0
 40
1.0
 40
1.0
 40
1.0
 10
97.64540119467563
 20
143.412000043762
 30
0.0
 10
97.63764515262818
 20
143.4120295441749
 30
0.0
 10
97.62330268941145
 20
143.4120840963012
 30
0.0
 10
97.60898418560346
 20
143.4114798511663
 30
0.0
 10
97.60240876719952
 20
143.4112023665469
 30
0.0
  0
LINE
  5
2C2
330
1F
100
AcDbEntity
  8
0
  6
Continuous
 62
     7
370
    25
100
AcDbLine
 10
97.6454011947
 20
139.8395187189
 30
0.0
 11
97.6024087672
 21
139.8403163961
 31
0.0
  0
CIRCLE
  5
2C3
330
1F
100
AcDbEntity
  8
0
  6
Continuous
 62
     7
370
    25
100
AcDbCircle
 10
147.8796698167
 20
141.6257593813
 30
0.0
 40
7.558608890731335
  0
CIRCLE
  5
2C4
330
1F
100
AcDbEntity
  8
0
  6
Continuous
 62
     7
370
    25
100
AcDbCircle
 10
147.8796698167
 20
141.6257593813
 30
0.0
 40
5.5
  0
CIRCLE
  5
2C5
330
1F
100
AcDbEntity
  8
0
  6
Continuous
 62
     7
370
    25
100
AcDbCircle
 10
147.8796698167
 20
141.6257593813
 30
0.0
 40
8.054747829088171
  0
SPLINE
  5
2C6
330
1F
100
AcDbEntity
  8
0
  6
Continuous
 62
     7
370
    25
100
AcDbSpline
210
0.0
220
0.0
230
1.0
 70
     8
 71
     3
 72
    11
 73
     7
 74
     0
 42
0.00000001
 43
0.00000001
 40
0.0
 40
0.0
 40
0.0
 40
0.0
 40
0.2920574028183094
 40
0.5665622171831318
 40
0.8065682389915578
 40
1.0
 40
1.0
 40
1.0
 40
1.0
 10
139.7634642096443
 20
140.1459936755544
 30
0.0
 10
139.7951247459598
 20
139.9783931401307
 30
0.0
 10
139.8565430270205
 20
139.6532648261952
 30
0.0
 10
139.936455386285
 20
139.252661160329
 30
0.0
 10
139.9755542000125
 20
138.9948209643238
 30
0.0
 10
139.960137837083
 20
138.9441755360422
 30
0.0
 10
139.9532579240988
 20
138.9215738276358
 30
0.0
  0
ARC
  5
2C7
330
1F
100
AcDbEntity
  8
0
  6
Continuous
 62
     7
370
    25
100
AcDbCircle
 10
147.8796698167
 20
141.6257593813
 30
0.0
 40
8.249999999999996
100
AcDbArc
 50
169.6671934996
 51
190.3328065004
  0
SPLINE
  5
2C8
330
1F
100
AcDbEntity
  8
0
  6
Continuous
 62
     7
370
    25
100
AcDbSpline
210
0.0
220
0.0
230
1.0
 70
     8
 71
     3
 72
    12
 73
     8
 74
     0
 42
0.00000001
 43
0.00000001
 40
0.0
 40
0.0
 40
0.0
 40
0.0
 40
0.1882084234719069
 40
0.3759134198095928
 40
0.5768476463044282
 40
0.8018243756979397
 40
1.0
 40
1.0
 40
1.0
 40
1.0
 10
139.9532579241022
 20
144.3299449350516
 30
0.0
 10
139.9601295154717
 20
144.308341740539
 30
0.0
 10
139.9738543178136
 20
144.2651931365698
 30
0.0
 10
139.9480296178555
 20
144.0716532787872
 30
0.0
 10
139.8969498232138
 20
143.7968242207482
 30
0.0
 10
139.8297098215457
 20
143.4610840833788
 30
0.0
 10
139.7845935744254
 20
143.218932383366
 30
0.0
 10
139.7634642096443
 20
143.1055250871363
 30
0.0
  0
ARC
  5
2C9
330
1F
100
AcDbEntity
  8
0
  6
Continuous
 62
     7
370
    25
100
AcDbCircle
 10
147.8796698167
 20
141.6257593813
 30
0.0
 40
8.986048245081998
100
AcDbArc
 50
200.7364869057
 51
159.2635130943
  0
LINE
  5
2CA
330
1F
100
AcDbEntity
  8
0
  6
Continuous
 62
     7
370
    25
100
AcDbLine
 10
139.9532579241
 20
138.9215738276
 30
0.0
 11
138.2235982724
 21
137.1919141759
 31
0.0
  0
LINE
  5
2CB
330
1F
100
AcDbEntity
  8
0
  6
Continuous
 62
     7
370
    25
100
AcDbLine
 10
138.2235982724
 20
146.0596045868
 30
0.0
 11
139.9532579241
 21
144.3299449351
 31
0.0
  0
ARC
  5
2CC
330
1F
100
AcDbEntity
  8
0
  6
Continuous
 62
     7
370
    25
100
AcDbCircle
 10
137.5164914912
 20
145.3524978056
 30
0.0
 40
1.000000000000008
100
AcDbArc
 50
45.0
 51
68.7044833353
  0
ARC
  5
2CD
330
1F
100
AcDbEntity
  8
0
  6
Continuous
 62
     7
370
    25
100
AcDbCircle
 10
137.5164914912
 20
137.8990209571
 30
0.0
 40
1.000000000000006
100
AcDbArc
 50
291.2955166647
 51
315.0
  0
LINE
  5
2CE
330
1F
100
AcDbEntity
  8
0
  6
Continuous
 62
     7
370
    25
100
AcDbLine
 10
124.7289976391
 20
137.8376610938
 30
0.0
 11
124.7420748178
 21
137.8613638745
 31
0.0
  0
ARC
  5
2CF
330
1F
100
AcDbEntity
  8
0
  6
Continuous
 62
     7
370
    25
100
AcDbCircle
 10
92.8155440439
 20
140.6447652981
 30
0.0
 40
0.2634308652557951
100
AcDbArc
 50
154.8366994587
 51
203.8371016763
  0
ARC
  5
2D0
330
1F
100
AcDbEntity
  8
0
  6
Continuous
 62
     7
370
    25
100
AcDbCircle
 10
92.8153813275
 20
142.6067205208
 30
0.0
 40
0.2632695860445655
100
AcDbArc
 50
155.9736683579
 51
205.17186859
  0
LINE
  5
2D1
330
1F
100
AcDbEntity
  8
0
  6
Continuous
 62
     7
370
    25
100
AcDbLine
 10
92.4324562212
 20
141.7872049757
 30
0.0
 11
92.3796699034
 21
141.7872049757
 31
0.0
  0
LINE
  5
2D2
330
1F
100
AcDbEntity
  8
0
  6
Continuous
 62
     7
370
    25
100
AcDbLine
 10
92.4324562212
 20
141.464313787
 30
0.0
 11
92.3796698843
 21
141.464313787
 31
0.0
  0
LINE
  5
2D3
330
1F
100
AcDbEntity
  8
0
  6
Continuous
 62
     7
370
    25
100
AcDbLine
 10
138.2235982724
 20
137.1919141759
 30
0.0
 11
137.8796698167
 21
137.5358426316
 31
0.0
  0
LINE
  5
2D4
330
1F
100
AcDbEntity
  8
0
  6
Continuous
 62
     7
370
    25
100
AcDbLine
 10
137.8796698167
 20
138.2621992826
 30
0.0
 11
139.7634642096
 21
140.1459936756
 31
0.0
  0
LINE
  5
2D5
330
1F
100
AcDbEntity
  8
0
  6
Continuous
 62
     7
370
    25
100
AcDbLine
 10
139.7634642096
 20
143.1055250871
 30
0.0
 11
137.8796698167
 21
144.9893194801
 31
0.0
  0
LINE
  5
2D6
330
1F
100
AcDbEntity
  8
0
  6
Continuous
 62
     7
370
    25
100
AcDbLine
 10
138.2235982724
 20
146.0596045868
 30
0.0
 11
137.8796698167
 21
145.7156761311
 31
0.0
  0
INSERT
  5
2E2
330
1F
100
AcDbEntity
  8
0
  6
Continuous
 62
     7
370
    18
100
AcDbBlockReference
  2
SW_CENTERMARKSYMBOL_1
 10
147.8796698167
 20
141.6257593813
 30
0.0
  0
LINE
  5
2E3
330
1F
100
AcDbEntity
  8
0
  6
Continuous
 62
     7
370
    18
100
AcDbLine
 10
161.3796698167
 20
129.0828843813
 30
0.0
 11
175.8569638568
 21
129.5352998201
 31
0.0
  0
LINE
  5
2E4
330
1F
100
AcDbEntity
  8
0
  6
Continuous
 62
     7
370
    18
100
AcDbLine
 10
175.8569638568
 20
153.7162189426
 30
0.0
 11
161.3796698167
 21
154.1686343813
 31
0.0
  0
LINE
  5
2E5
330
1F
100
AcDbEntity
  8
0
  6
Continuous
 62
     7
370
    18
100
AcDbLine
 10
129.3796698167
 20
153.6842593813
 30
0.0
 11
118.3796698167
 21
153.6842593813
 31
0.0
  0
LINE
  5
2E6
330
1F
100
AcDbEntity
  8
0
  6
Continuous
 62
     7
370
    18
100
AcDbLine
 10
118.3796698167
 20
129.5672593813
 30
0.0
 11
129.3796698167
 21
129.5672593813
 31
0.0
  0
LINE
  5
2E7
330
1F
100
AcDbEntity
  8
0
  6
Continuous
 62
     7
370
    25
100
AcDbLine
 10
129.3796698167
 20
153.8462593813
 30
0.0
 11
129.3796698167
 21
153.7925622846
 31
0.0
  0
SPLINE
  5
2E8
330
1F
100
AcDbEntity
  8
0
  6
Continuous
 62
     7
370
     0
100
AcDbSpline
210
0.0
220
0.0
230
1.0
 70
     8
 71
     3
 72
    19
 73
    15
 74
     0
 42
0.00000001
 43
0.00000001
 40
0.0
 40
0.0
 40
0.0
 40
0.0
 40
0.0872021262250201
 40
0.1744042523976058
 40
0.2616063785701913
 40
0.3488085047427772
 40
0.4360106309153636
 40
0.5232127570879492
 40
0.6104148832605338
 40
0.6976170094331197
 40
0.7848191356057055
 40
0.8720212617782911
 40
0.9592233879508771
 40
1.0
 40
1.0
 40
1.0
 40
1.0
 10
129.3796300888062
 20
153.7925622846439
 30
0.0
 10
129.3796698166977
 20
153.6319428865563
 30
0.0
 10
129.3796698166977
 20
153.3658127161281
 30
0.0
 10
129.3796698166977
 20
152.9965105348661
 30
0.0
 10
129.3796698166977
 20
152.5272817836179
 30
0.0
 10
129.3796698166977
 20
151.9622500615211
 30
0.0
 10
129.3796698166977
 20
151.306380887666
 30
0.0
 10
129.3796698166977
 20
150.565438063935
 30
0.0
 10
129.3796698166977
 20
149.7459330225044
 30
0.0
 10
129.3796698166977
 20
148.8550676031448
 30
0.0
 10
129.3796698166977
 20
147.9006707631934
 30
0.0
 10
129.3796698166977
 20
146.8911297763964
 30
0.0
 10
129.3796698166977
 20
146.4027651884313
 30
0.0
 10
129.3796698166996
 20
146.5661974401139
 30
0.0
 10
129.3796698166977
 20
146.4027651884313
 30
0.0
  0
SPLINE
  5
2E9
330
1F
100
AcDbEntity
  8
0
  6
Continuous
 62
     7
370
     0
100
AcDbSpline
210
0.0
220
0.0
230
1.0
 70
     8
 71
     3
 72
    20
 73
    16
 74
     0
 42
0.00000001
 43
0.00000001
 40
0.0
 40
0.0
 40
0.0
 40
0.0
 40
0.0776008417068835
 40
0.1578085055445675
 40
0.2380161693822498
 40
0.3182238332199332
 40
0.3984314970576168
 40
0.4786391608952994
 40
0.5588468247329831
 40
0.6390544885706662
 40
0.7192621524083492
 40
0.7994698162460323
 40
0.8796774800837156
 40
0.9598851439213987
 40
1.0
 40
1.0
 40
1.0
 40
1.0
 10
129.3796300888062
 20
136.8487535742591
 30
0.0
 10
129.3796698166977
 20
135.8492695036884
 30
0.0
 10
129.3796698166977
 20
134.8662201123583
 30
0.0
 10
129.3796698166977
 20
133.9425737951714
 30
0.0
 10
129.3796698166977
 20
133.086447589174
 30
0.0
 10
129.3796698166977
 20
132.3053651622474
 30
0.0
 10
129.3796698166977
 20
131.6061906948442
 30
0.0
 10
129.3796698166977
 20
130.9950685573237
 30
0.0
 10
129.3796698166977
 20
130.4773693130039
 30
0.0
 10
129.3796698166977
 20
130.0576425214586
 30
0.0
 10
129.3796698166977
 20
129.7395767568235
 30
0.0
 10
129.3796698166977
 20
129.5259671924746
 30
0.0
 10
129.3796698166977
 20
129.4186910369442
 30
0.0
 10
129.3796698166977
 20
129.4052593813454
 30
0.0
 10
129.3796698166971
 20
129.4079705211112
 30
0.0
 10
129.3796698166977
 20
129.4052593813454
 30
0.0
  0
ENDSEC
  0
SECTION
  2
OBJECTS
  0
DICTIONARY
  5
C
330
0
100
AcDbDictionary
281
     1
  3
ACAD_GROUP
350
D
  3
ACAD_LAYOUT
350
1A
  3
ACAD_MLINESTYLE
350
17
  3
ACAD_PLOTSETTINGS
350
19
  3
ACAD_PLOTSTYLENAME
350
E
  3
ACAD_SCALELIST
350
47
  3
DWGPROPS
350
2EA
  0
DICTIONARY
  5
D
102
{ACAD_REACTORS
330
C
102
}
330
C
100
AcDbDictionary
281
     1
  0
DICTIONARY
  5
1A
102
{ACAD_REACTORS
330
C
102
}
330
C
100
AcDbDictionary
281
     1
  3
Layout1
350
1E
  3
Layout2
350
26
  3
Model
350
22
  0
DICTIONARY
  5
17
102
{ACAD_REACTORS
330
C
102
}
330
C
100
AcDbDictionary
281
     1
  3
Standard
350
18
  0
DICTIONARY
  5
19
102
{ACAD_REACTORS
330
C
102
}
330
C
100
AcDbDictionary
281
     1
  0
ACDBDICTIONARYWDFLT
  5
E
102
{ACAD_REACTORS
330
C
102
}
330
C
100
AcDbDictionary
281
     1
  3
Normal
350
F
100
AcDbDictionaryWithDefault
340
F
  0
DICTIONARY
  5
47
102
{ACAD_REACTORS
330
C
102
}
330
C
100
AcDbDictionary
281
     1
  3
A0
350
48
  3
A1
350
49
  3
A2
350
4A
  3
A3
350
4B
  3
A4
350
4C
  3
A5
350
4D
  3
A6
350
4E
  3
A7
350
4F
  3
A8
350
50
  3
A9
350
51
  3
B0
350
52
  3
B1
350
53
  3
B2
350
54
  3
B3
350
55
  3
B4
350
56
  3
B5
350
57
  3
B6
350
58
  0
XRECORD
  5
2EA
102
{ACAD_REACTORS
330
C
102
}
330
C
100
AcDbXrecord
280
     1
  1
DWGPROPS COOKIE
  2

  3

  4

  6

  7

  8
user28
  9

300
=
301
=
302
=
303
=
304
=
305
=
306
=
307
=
308
=
309
=
 40
0.0
 41
2460297.2614361
 42
2460297.261437187
  1

 90
        0
  0
LAYOUT
  5
1E
102
{ACAD_REACTORS
330
1A
102
}
330
1A
100
AcDbPlotSettings
  1

  2
none_device
  4

  6

 40
0.0
 41
0.0
 42
0.0
 43
0.0
 44
0.0
 45
0.0
 46
0.0
 47
0.0
 48
0.0
 49
0.0
140
0.0
141
0.0
142
1.0
143
1.0
 70
   688
 72
     1
 73
     0
 74
     5
  7

 75
    16
147
1.0
148
0.0
149
0.0
100
AcDbLayout
  1
Layout1
 70
     1
 71
     1
 10
0.0
 20
0.0
 11
420.0
 21
297.0
 12
0.0
 22
0.0
 32
0.0
 14
1.0000000000E+20
 24
1.0000000000E+20
 34
1.0000000000E+20
 15
-1.0000000000E+20
 25
-1.0000000000E+20
 35
-1.0000000000E+20
146
0.0
 13
0.0
 23
0.0
 33
0.0
 16
1.0
 26
0.0
 36
0.0
 17
0.0
 27
1.0
 37
0.0
 76
     0
330
1B
  0
LAYOUT
  5
26
102
{ACAD_REACTORS
330
1A
102
}
330
1A
100
AcDbPlotSettings
  1

  2
none_device
  4

  6

 40
0.0
 41
0.0
 42
0.0
 43
0.0
 44
0.0
 45
0.0
 46
0.0
 47
0.0
 48
0.0
 49
0.0
140
0.0
141
0.0
142
1.0
143
1.0
 70
   688
 72
     1
 73
     0
 74
     5
  7

 75
    16
147
1.0
148
0.0
149
0.0
100
AcDbLayout
  1
Layout2
 70
     1
 71
     2
 10
0.0
 20
0.0
 11
0.0
 21
0.0
 12
0.0
 22
0.0
 32
0.0
 14
0.0
 24
0.0
 34
0.0
 15
0.0
 25
0.0
 35
0.0
146
0.0
 13
0.0
 23
0.0
 33
0.0
 16
1.0
 26
0.0
 36
0.0
 17
0.0
 27
1.0
 37
0.0
 76
     0
330
23
  0
LAYOUT
  5
22
102
{ACAD_REACTORS
330
1A
102
}
330
1A
100
AcDbPlotSettings
  1

  2
none_device
  4
Letter_(8.50_x_11.00_Inches)
  6

 40
6.35
 41
6.35
 42
6.35000508
 43
6.35000508
 44
215.9
 45
279.4
 46
0.0
 47
0.0
 48
0.0
 49
0.0
140
0.0
141
0.0
142
1.0
143
1.0
 70
  1712
 72
     1
 73
     0
 74
     0
  7

 75
     0
147
1.0
148
0.0
149
0.0
100
AcDbLayout
  1
Model
 70
     1
 71
     0
 10
0.0
 20
0.0
 11
431.8
 21
279.4
 12
0.0
 22
0.0
 32
0.0
 14
0.0
 24
0.0
 34
0.0
 15
431.8
 25
279.4
 35
0.0
146
0.0
 13
0.0
 23
0.0
 33
0.0
 16
1.0
 26
0.0
 36
0.0
 17
0.0
 27
1.0
 37
0.0
 76
     0
330
1F
331
29
  0
MLINESTYLE
  5
18
102
{ACAD_REACTORS
330
17
102
}
330
17
100
AcDbMlineStyle
  2
Standard
 70
     0
  3

 62
   256
 51
90.0
 52
90.0
 71
     2
 49
0.5
 62
   256
  6
BYLAYER
 49
-0.5
 62
   256
  6
BYLAYER
  0
ACDBPLACEHOLDER
  5
F
102
{ACAD_REACTORS
330
E
102
}
330
E
  0
SCALE
  5
48
102
{ACAD_REACTORS
330
47
102
}
330
47
100
AcDbScale
 70
     0
300
1:1
140
1.0
141
1.0
290
     1
  0
SCALE
  5
49
102
{ACAD_REACTORS
330
47
102
}
330
47
100
AcDbScale
 70
     0
300
1:2
140
1.0
141
2.0
290
     0
  0
SCALE
  5
4A
102
{ACAD_REACTORS
330
47
102
}
330
47
100
AcDbScale
 70
     0
300
1:4
140
1.0
141
4.0
290
     0
  0
SCALE
  5
4B
102
{ACAD_REACTORS
330
47
102
}
330
47
100
AcDbScale
 70
     0
300
1:5
140
1.0
141
5.0
290
     0
  0
SCALE
  5
4C
102
{ACAD_REACTORS
330
47
102
}
330
47
100
AcDbScale
 70
     0
300
1:8
140
1.0
141
8.0
290
     0
  0
SCALE
  5
4D
102
{ACAD_REACTORS
330
47
102
}
330
47
100
AcDbScale
 70
     0
300
1:10
140
1.0
141
10.0
290
     0
  0
SCALE
  5
4E
102
{ACAD_REACTORS
330
47
102
}
330
47
100
AcDbScale
 70
     0
300
1:16
140
1.0
141
16.0
290
     0
  0
SCALE
  5
4F
102
{ACAD_REACTORS
330
47
102
}
330
47
100
AcDbScale
 70
     0
300
1:20
140
1.0
141
20.0
290
     0
  0
SCALE
  5
50
102
{ACAD_REACTORS
330
47
102
}
330
47
100
AcDbScale
 70
     0
300
1:30
140
1.0
141
30.0
290
     0
  0
SCALE
  5
51
102
{ACAD_REACTORS
330
47
102
}
330
47
100
AcDbScale
 70
     0
300
1:40
140
1.0
141
40.0
290
     0
  0
SCALE
  5
52
102
{ACAD_REACTORS
330
47
102
}
330
47
100
AcDbScale
 70
     0
300
1:50
140
1.0
141
50.0
290
     0
  0
SCALE
  5
53
102
{ACAD_REACTORS
330
47
102
}
330
47
100
AcDbScale
 70
     0
300
1:100
140
1.0
141
100.0
290
     0
  0
SCALE
  5
54
102
{ACAD_REACTORS
330
47
102
}
330
47
100
AcDbScale
 70
     0
300
2:1
140
2.0
141
1.0
290
     0
  0
SCALE
  5
55
102
{ACAD_REACTORS
330
47
102
}
330
47
100
AcDbScale
 70
     0
300
4:1
140
4.0
141
1.0
290
     0
  0
SCALE
  5
56
102
{ACAD_REACTORS
330
47
102
}
330
47
100
AcDbScale
 70
     0
300
8:1
140
8.0
141
1.0
290
     0
  0
SCALE
  5
57
102
{ACAD_REACTORS
330
47
102
}
330
47
100
AcDbScale
 70
     0
300
10:1
140
10.0
141
1.0
290
     0
  0
SCALE
  5
58
102
{ACAD_REACTORS
330
47
102
}
330
47
100
AcDbScale
 70
     0
300
100:1
140
100.0
141
1.0
290
     0
  0
ENDSEC
  0
EOF
