  0
SECTION
  2
HEADER
  9
$ACADVER
  1
AC1015
  9
$ACADMAINTVER
 70
     6
  9
$DWGCODEPAGE
  3
DOS932
  9
$INSBASE
 10
0.0
 20
0.0
 30
0.0
  9
$EXTMIN
 10
0.0
 20
0.0
 30
0.0
  9
$EXTMAX
 10
431.8
 20
279.4
 30
0.0
  9
$LIMMIN
 10
0.0
 20
0.0
  9
$LIMMAX
 10
431.8
 20
279.4
  9
$ORTHOMODE
 70
     0
  9
$REGENMODE
 70
     1
  9
$FILLMODE
 70
     1
  9
$QTEXTMODE
 70
     0
  9
$MIRRTEXT
 70
     1
  9
$LTSCALE
 40
1.0
  9
$ATTMODE
 70
     1
  9
$TEXTSIZE
 40
3.5
  9
$TRACEWID
 40
1.0
  9
$TEXTSTYLE
  7
Standard
  9
$CLAYER
  8
0
  9
$CELTYPE
  6
ByLayer
  9
$CECOLOR
 62
   256
  9
$CELTSCALE
 40
1.0
  9
$DISPSILH
 70
     0
  9
$DIMSCALE
 40
1.0
  9
$DIMASZ
 40
3.556
  9
$DIMEXO
 40
1.0
  9
$DIMDLI
 40
3.75
  9
$DIMRND
 40
0.0
  9
$DIMDLE
 40
0.0
  9
$DIMEXE
 40
1.0
  9
$DIMTP
 40
0.0
  9
$DIMTM
 40
0.0
  9
$DIMTXT
 40
3.5
  9
$DIMCEN
 40
2.5
  9
$DIMTSZ
 40
0.0
  9
$DIMTOL
 70
     0
  9
$DIMLIM
 70
     0
  9
$DIMTIH
 70
     1
  9
$DIMTOH
 70
     1
  9
$DIMSE1
 70
     0
  9
$DIMSE2
 70
     0
  9
$DIMTAD
 70
     1
  9
$DIMZIN
 70
     0
  9
$DIMBLK
  1

  9
$DIMASO
 70
     1
  9
$DIMSHO
 70
     1
  9
$DIMPOST
  1

  9
$DIMAPOST
  1

  9
$DIMALT
 70
     0
  9
$DIMALTD
 70
     3
  9
$DIMALTF
 40
0.0393700787
  9
$DIMLFAC
 40
1.0
  9
$DIMTOFL
 70
     1
  9
$DIMTVP
 40
0.0
  9
$DIMTIX
 70
     0
  9
$DIMSOXD
 70
     0
  9
$DIMSAH
 70
     0
  9
$DIMBLK1
  1

  9
$DIMBLK2
  1

  9
$DIMSTYLE
  2
ISO-25
  9
$DIMCLRD
 70
     0
  9
$DIMCLRE
 70
     0
  9
$DIMCLRT
 70
     0
  9
$DIMTFAC
 40
1.0
  9
$DIMGAP
 40
1.524
  9
$DIMJUST
 70
     0
  9
$DIMSD1
 70
     0
  9
$DIMSD2
 70
     0
  9
$DIMTOLJ
 70
     0
  9
$DIMTZIN
 70
     0
  9
$DIMALTZ
 70
     0
  9
$DIMALTTZ
 70
     0
  9
$DIMUPT
 70
     0
  9
$DIMDEC
 70
     3
  9
$DIMTDEC
 70
     3
  9
$DIMALTU
 70
     2
  9
$DIMALTTD
 70
     3
  9
$DIMTXSTY
  7
Standard
  9
$DIMAUNIT
 70
     0
  9
$DIMADEC
 70
     2
  9
$DIMALTRND
 40
0.0
  9
$DIMAZIN
 70
     0
  9
$DIMDSEP
 70
    44
  9
$DIMATFIT
 70
     3
  9
$DIMFRAC
 70
     0
  9
$DIMLDRBLK
  1

  9
$DIMLUNIT
 70
     2
  9
$DIMLWD
 70
    -2
  9
$DIMLWE
 70
    -2
  9
$DIMTMOVE
 70
     0
  9
$LUNITS
 70
     2
  9
$LUPREC
 70
     3
  9
$SKETCHINC
 40
1.0
  9
$FILLETRAD
 40
0.0
  9
$AUNITS
 70
     0
  9
$AUPREC
 70
     2
  9
$MENU
  1
.
  9
$ELEVATION
 40
0.0
  9
$PELEVATION
 40
0.0
  9
$THICKNESS
 40
0.0
  9
$LIMCHECK
 70
     0
  9
$CHAMFERA
 40
0.0
  9
$CHAMFERB
 40
0.0
  9
$CHAMFERC
 40
0.0
  9
$CHAMFERD
 40
0.0
  9
$SKPOLY
 70
     0
  9
$TDCREATE
 40
2460297.634376585
  9
$TDUCREATE
 40
2460297.259376585
  9
$TDUPDATE
 40
2460297.634377512
  9
$TDUUPDATE
 40
2460297.259377512
  9
$TDINDWG
 40
0.0000000116
  9
$TDUSRTIMER
 40
0.0000000116
  9
$USRTIMER
 70
     1
  9
$ANGBASE
 50
0.0
  9
$ANGDIR
 70
     0
  9
$PDMODE
 70
     0
  9
$PDSIZE
 40
-1.0
  9
$PLINEWID
 40
0.0
  9
$SPLFRAME
 70
     0
  9
$SPLINETYPE
 70
     6
  9
$SPLINESEGS
 70
     8
  9
$HANDSEED
  5
2ED
  9
$SURFTAB1
 70
     6
  9
$SURFTAB2
 70
     6
  9
$SURFTYPE
 70
     6
  9
$SURFU
 70
     6
  9
$SURFV
 70
     6
  9
$UCSBASE
  2

  9
$UCSNAME
  2

  9
$UCSORG
 10
0.0
 20
0.0
 30
0.0
  9
$UCSXDIR
 10
1.0
 20
0.0
 30
0.0
  9
$UCSYDIR
 10
0.0
 20
1.0
 30
0.0
  9
$UCSORTHOREF
  2

  9
$UCSORTHOVIEW
 70
     0
  9
$UCSORGTOP
 10
0.0
 20
0.0
 30
0.0
  9
$UCSORGBOTTOM
 10
0.0
 20
0.0
 30
0.0
  9
$UCSORGLEFT
 10
0.0
 20
0.0
 30
0.0
  9
$UCSORGRIGHT
 10
0.0
 20
0.0
 30
0.0
  9
$UCSORGFRONT
 10
0.0
 20
0.0
 30
0.0
  9
$UCSORGBACK
 10
0.0
 20
0.0
 30
0.0
  9
$PUCSBASE
  2

  9
$PUCSNAME
  2

  9
$PUCSORG
 10
0.0
 20
0.0
 30
0.0
  9
$PUCSXDIR
 10
1.0
 20
0.0
 30
0.0
  9
$PUCSYDIR
 10
0.0
 20
1.0
 30
0.0
  9
$PUCSORTHOREF
  2

  9
$PUCSORTHOVIEW
 70
     0
  9
$PUCSORGTOP
 10
0.0
 20
0.0
 30
0.0
  9
$PUCSORGBOTTOM
 10
0.0
 20
0.0
 30
0.0
  9
$PUCSORGLEFT
 10
0.0
 20
0.0
 30
0.0
  9
$PUCSORGRIGHT
 10
0.0
 20
0.0
 30
0.0
  9
$PUCSORGFRONT
 10
0.0
 20
0.0
 30
0.0
  9
$PUCSORGBACK
 10
0.0
 20
0.0
 30
0.0
  9
$USERI1
 70
     0
  9
$USERI2
 70
     0
  9
$USERI3
 70
     0
  9
$USERI4
 70
     0
  9
$USERI5
 70
     0
  9
$USERR1
 40
0.0
  9
$USERR2
 40
0.0
  9
$USERR3
 40
0.0
  9
$USERR4
 40
0.0
  9
$USERR5
 40
0.0
  9
$WORLDVIEW
 70
     1
  9
$SHADEDGE
 70
     3
  9
$SHADEDIF
 70
    70
  9
$TILEMODE
 70
     1
  9
$MAXACTVP
 70
    64
  9
$PINSBASE
 10
0.0
 20
0.0
 30
0.0
  9
$PLIMCHECK
 70
     0
  9
$PEXTMIN
 10
1.0000000000E+20
 20
1.0000000000E+20
 30
1.0000000000E+20
  9
$PEXTMAX
 10
-1.0000000000E+20
 20
-1.0000000000E+20
 30
-1.0000000000E+20
  9
$PLIMMIN
 10
0.0
 20
0.0
  9
$PLIMMAX
 10
420.0
 20
297.0
  9
$UNITMODE
 70
     0
  9
$VISRETAIN
 70
     1
  9
$PLINEGEN
 70
     0
  9
$PSLTSCALE
 70
     1
  9
$TREEDEPTH
 70
  3020
  9
$CMLSTYLE
  2
Standard
  9
$CMLJUST
 70
     0
  9
$CMLSCALE
 40
20.0
  9
$PROXYGRAPHICS
 70
     1
  9
$MEASUREMENT
 70
     1
  9
$CELWEIGHT
370
    -1
  9
$ENDCAPS
280
     0
  9
$JOINSTYLE
280
     0
  9
$LWDISPLAY
290
     1
  9
$INSUNITS
 70
     4
  9
$HYPERLINKBASE
  1

  9
$STYLESHEET
  1

  9
$XEDIT
290
     1
  9
$CEPSNTYPE
380
     0
  9
$PSTYLEMODE
290
     1
  9
$FINGERPRINTGUID
  2
{835940c6-6698-4ce2-824a-31b80dbc4fb3}
  9
$VERSIONGUID
  2
{FAEB1C32-E019-11D5-929B-00C0DF256EC4}
  9
$EXTNAMES
290
     1
  9
$PSVPSCALE
 40
0.0
  9
$OLESTARTUP
290
     0
  0
ENDSEC
  0
SECTION
  2
CLASSES
  0
CLASS
  1
ACDBDICTIONARYWDFLT
  2
AcDbDictionaryWithDefault
  3
ObjectDBX Classes
 90
        0
280
     0
281
     0
  0
CLASS
  1
VISUALSTYLE
  2
AcDbVisualStyle
  3
ObjectDBX Classes
 90
     4095
280
     0
281
     0
  0
CLASS
  1
MATERIAL
  2
AcDbMaterial
  3
ObjectDBX Classes
 90
     1153
280
     0
281
     0
  0
CLASS
  1
SCALE
  2
AcDbScale
  3
ObjectDBX Classes
 90
     1153
280
     0
281
     0
  0
CLASS
  1
TABLESTYLE
  2
AcDbTableStyle
  3
ObjectDBX Classes
 90
     4095
280
     0
281
     0
  0
CLASS
  1
MLEADERSTYLE
  2
AcDbMLeaderStyle
  3
ACDB_MLEADERSTYLE_CLASS
 90
     4095
280
     0
281
     0
  0
CLASS
  1
SUN
  2
AcDbSun
  3
SCENEOE
 90
     1153
280
     0
281
     0
  0
CLASS
  1
ACDBPLACEHOLDER
  2
AcDbPlaceHolder
  3
ObjectDBX Classes
 90
        0
280
     0
281
     0
  0
CLASS
  1
LAYOUT
  2
AcDbLayout
  3
ObjectDBX Classes
 90
        0
280
     0
281
     0
  0
ENDSEC
  0
SECTION
  2
TABLES
  0
TABLE
  2
VPORT
  5
8
330
0
100
AcDbSymbolTable
 70
     1
  0
VPORT
  5
29
330
8
100
AcDbSymbolTableRecord
100
AcDbViewportTableRecord
  2
*Active
 70
     0
 10
0.0
 20
0.0
 11
1.0
 21
1.0
 12
215.9
 22
139.7
 13
0.0
 23
0.0
 14
10.0
 24
10.0
 15
10.0
 25
10.0
 16
0.0
 26
0.0
 36
1.0
 17
0.0
 27
0.0
 37
0.0
 40
279.4
 41
1.5454545455
 42
50.0
 43
0.0
 44
0.0
 50
0.0
 51
0.0
 71
     0
 72
  2000
 73
     1
 74
     3
 75
     0
 76
     0
 77
     0
 78
     0
281
     0
 65
     1
110
0.0
120
0.0
130
0.0
111
1.0
121
0.0
131
0.0
112
0.0
122
1.0
132
0.0
 79
     0
146
0.0
  0
ENDTAB
  0
TABLE
  2
LTYPE
  5
5
330
0
100
AcDbSymbolTable
 70
     6
  0
LTYPE
  5
14
330
5
100
AcDbSymbolTableRecord
100
AcDbLinetypeTableRecord
  2
ByBlock
 70
     0
  3

 72
    65
 73
     0
 40
0.0
  0
LTYPE
  5
15
330
5
100
AcDbSymbolTableRecord
100
AcDbLinetypeTableRecord
  2
ByLayer
 70
     0
  3

 72
    65
 73
     0
 40
0.0
  0
LTYPE
  5
16
330
5
100
AcDbSymbolTableRecord
100
AcDbLinetypeTableRecord
  2
Continuous
 70
     0
  3
Solid line
 72
    65
 73
     0
 40
0.0
  0
LTYPE
  5
5E
330
5
100
AcDbSymbolTableRecord
100
AcDbLinetypeTableRecord
  2
HIDDEN
 70
     0
  3
Hidden __ __ __ __ __ __ __ __ __ __ __ __ __ __
 72
    65
 73
     2
 40
1.905
 49
1.27
 74
     0
 49
-0.635
 74
     0
  0
LTYPE
  5
5F
330
5
100
AcDbSymbolTableRecord
100
AcDbLinetypeTableRecord
  2
PHANTOM
 70
     0
  3
Phantom ______  __  __  ______  __  __  ______
 72
    65
 73
     6
 40
12.7
 49
6.35
 74
     0
 49
-1.27
 74
     0
 49
1.27
 74
     0
 49
-1.27
 74
     0
 49
1.27
 74
     0
 49
-1.27
 74
     0
  0
LTYPE
  5
60
330
5
100
AcDbSymbolTableRecord
100
AcDbLinetypeTableRecord
  2
CENTER
 70
     0
  3
Center ____ _ ____ _ ____ _ ____ _ ____ _ ____
 72
    65
 73
     4
 40
10.16
 49
6.35
 74
     0
 49
-1.27
 74
     0
 49
1.27
 74
     0
 49
-1.27
 74
     0
  0
LTYPE
  5
61
330
5
100
AcDbSymbolTableRecord
100
AcDbLinetypeTableRecord
  2
CENTERX2
 70
     0
  3
Center (2x) ________  __  ________  __  _____
 72
    65
 73
     4
 40
20.32
 49
12.7
 74
     0
 49
-2.54
 74
     0
 49
2.54
 74
     0
 49
-2.54
 74
     0
  0
LTYPE
  5
62
330
5
100
AcDbSymbolTableRecord
100
AcDbLinetypeTableRecord
  2
DOT2
 70
     0
  3
Dot (.5x) ........................................
 72
    65
 73
     2
 40
0.635
 49
0.0
 74
     0
 49
-0.635
 74
     0
  0
ENDTAB
  0
TABLE
  2
LAYER
  5
2
330
0
100
AcDbSymbolTable
 70
     1
  0
LAYER
  5
10
330
2
100
AcDbSymbolTableRecord
100
AcDbLayerTableRecord
  2
0
 70
     0
 62
     7
  6
Continuous
370
    -3
390
F
  0
ENDTAB
  0
TABLE
  2
STYLE
  5
3
330
0
100
AcDbSymbolTable
 70
     2
  0
STYLE
  5
11
330
3
100
AcDbSymbolTableRecord
100
AcDbTextStyleTableRecord
  2
Standard
 70
     0
 40
0.0
 41
1.0
 50
0.0
 71
     0
 42
3.5
  3
txt
  4
bigfont
  0
STYLE
  5
63
330
3
100
AcDbSymbolTableRecord
100
AcDbTextStyleTableRecord
  2
SLDTEXTSTYLE0
 70
     0
 40
0.0
 41
0.7
 50
0.0
 71
     0
 42
3.5
  3
TXT
  4
bigfont
  0
ENDTAB
  0
TABLE
  2
VIEW
  5
6
330
0
100
AcDbSymbolTable
 70
     0
  0
ENDTAB
  0
TABLE
  2
UCS
  5
7
330
0
100
AcDbSymbolTable
 70
     0
  0
ENDTAB
  0
TABLE
  2
APPID
  5
9
330
0
100
AcDbSymbolTable
 70
     1
  0
APPID
  5
12
330
9
100
AcDbSymbolTableRecord
100
AcDbRegAppTableRecord
  2
ACAD
 70
     0
  0
ENDTAB
  0
TABLE
  2
DIMSTYLE
  5
A
330
0
100
AcDbSymbolTable
 70
     1
100
AcDbDimStyleTable
  0
DIMSTYLE
105
27
330
A
100
AcDbSymbolTableRecord
100
AcDbDimStyleTableRecord
  2
ISO-25
 70
     0
 41
2.5
 42
0.625
 43
3.75
 44
1.25
 73
     0
 74
     0
 77
     1
 78
     8
140
2.5
141
2.5
143
0.0393700787
147
0.625
171
     3
172
     1
178
     0
271
     2
272
     2
274
     3
278
    44
283
     0
284
     8
340
11
  0
ENDTAB
  0
TABLE
  2
BLOCK_RECORD
  5
1
330
0
100
AcDbSymbolTable
 70
     3
  0
BLOCK_RECORD
  5
1F
330
1
100
AcDbSymbolTableRecord
100
AcDbBlockTableRecord
  2
*Model_Space
340
22
  0
BLOCK_RECORD
  5
1B
330
1
100
AcDbSymbolTableRecord
100
AcDbBlockTableRecord
  2
*Paper_Space
340
1E
  0
BLOCK_RECORD
  5
23
330
1
100
AcDbSymbolTableRecord
100
AcDbBlockTableRecord
  2
*Paper_Space0
340
26
  0
BLOCK_RECORD
  5
1F4
330
1
100
AcDbSymbolTableRecord
100
AcDbBlockTableRecord
  2
SW_CENTERMARKSYMBOL_0
340
0
102
{BLKREFS
331
1FF
102
}
  0
BLOCK_RECORD
  5
2D9
330
1
100
AcDbSymbolTableRecord
100
AcDbBlockTableRecord
  2
SW_CENTERMARKSYMBOL_1
340
0
102
{BLKREFS
331
2E4
102
}
  0
ENDTAB
  0
ENDSEC
  0
SECTION
  2
BLOCKS
  0
BLOCK
  5
20
330
1F
100
AcDbEntity
  8
0
100
AcDbBlockBegin
  2
*Model_Space
 70
     0
 10
0.0
 20
0.0
 30
0.0
  3
*Model_Space
  1

  0
ENDBLK
  5
21
330
1F
100
AcDbEntity
  8
0
100
AcDbBlockEnd
  0
BLOCK
  5
1C
330
1B
100
AcDbEntity
 67
     1
  8
0
100
AcDbBlockBegin
  2
*Paper_Space
 70
     0
 10
0.0
 20
0.0
 30
0.0
  3
*Paper_Space
  1

  0
ENDBLK
  5
1D
330
1B
100
AcDbEntity
 67
     1
  8
0
100
AcDbBlockEnd
  0
BLOCK
  5
24
330
23
100
AcDbEntity
  8
0
100
AcDbBlockBegin
  2
*Paper_Space0
 70
     0
 10
0.0
 20
0.0
 30
0.0
  3
*Paper_Space0
  1

  0
ENDBLK
  5
25
330
23
100
AcDbEntity
  8
0
100
AcDbBlockEnd
  0
BLOCK
  5
1F5
330
1F4
100
AcDbEntity
  8
0
100
AcDbBlockBegin
  2
SW_CENTERMARKSYMBOL_0
 70
     0
 10
0.0
 20
0.0
 30
0.0
  3
SW_CENTERMARKSYMBOL_0
  1

  0
LINE
  5
1F7
330
1F4
100
AcDbEntity
  8
0
  6
Continuous
 62
     0
370
    18
100
AcDbLine
 10
0.0
 20
0.0
 30
0.0
 11
0.0
 21
2.5
 31
0.0
  0
LINE
  5
1F8
330
1F4
100
AcDbEntity
  8
0
  6
Continuous
 62
     0
370
    18
100
AcDbLine
 10
0.0
 20
0.0
 30
0.0
 11
-2.5
 21
0.0
 31
0.0
  0
LINE
  5
1F9
330
1F4
100
AcDbEntity
  8
0
  6
Continuous
 62
     0
370
    18
100
AcDbLine
 10
0.0
 20
0.0
 30
0.0
 11
0.0
 21
-2.5
 31
0.0
  0
LINE
  5
1FA
330
1F4
100
AcDbEntity
  8
0
  6
Continuous
 62
     0
370
    18
100
AcDbLine
 10
0.0
 20
0.0
 30
0.0
 11
2.5
 21
0.0
 31
0.0
  0
LINE
  5
1FB
330
1F4
100
AcDbEntity
  8
0
  6
Continuous
 62
     0
370
    18
100
AcDbLine
 10
0.0
 20
5.0
 30
0.0
 11
0.0
 21
41.3192573365
 31
0.0
  0
LINE
  5
1FC
330
1F4
100
AcDbEntity
  8
0
  6
Continuous
 62
     0
370
    18
100
AcDbLine
 10
-5.0
 20
0.0
 30
0.0
 11
-15.0
 21
0.0
 31
0.0
  0
LINE
  5
1FD
330
1F4
100
AcDbEntity
  8
0
  6
Continuous
 62
     0
370
    18
100
AcDbLine
 10
0.0
 20
-5.0
 30
0.0
 11
0.0
 21
-15.0
 31
0.0
  0
LINE
  5
1FE
330
1F4
100
AcDbEntity
  8
0
  6
Continuous
 62
     0
370
    18
100
AcDbLine
 10
5.0
 20
0.0
 30
0.0
 11
15.0
 21
0.0
 31
0.0
  0
ENDBLK
  5
1F6
330
1F4
100
AcDbEntity
  8
0
100
AcDbBlockEnd
  0
BLOCK
  5
2DA
330
2D9
100
AcDbEntity
  8
0
100
AcDbBlockBegin
  2
SW_CENTERMARKSYMBOL_1
 70
     0
 10
0.0
 20
0.0
 30
0.0
  3
SW_CENTERMARKSYMBOL_1
  1

  0
LINE
  5
2DC
330
2D9
100
AcDbEntity
  8
0
  6
Continuous
 62
     0
370
    18
100
AcDbLine
 10
0.0
 20
0.0
 30
0.0
 11
0.0
 21
2.5
 31
0.0
  0
LINE
  5
2DD
330
2D9
100
AcDbEntity
  8
0
  6
Continuous
 62
     0
370
    18
100
AcDbLine
 10
0.0
 20
0.0
 30
0.0
 11
-2.5
 21
0.0
 31
0.0
  0
LINE
  5
2DE
330
2D9
100
AcDbEntity
  8
0
  6
Continuous
 62
     0
370
    18
100
AcDbLine
 10
0.0
 20
0.0
 30
0.0
 11
0.0
 21
-2.5
 31
0.0
  0
LINE
  5
2DF
330
2D9
100
AcDbEntity
  8
0
  6
Continuous
 62
     0
370
    18
100
AcDbLine
 10
0.0
 20
0.0
 30
0.0
 11
2.5
 21
0.0
 31
0.0
  0
LINE
  5
2E0
330
2D9
100
AcDbEntity
  8
0
  6
Continuous
 62
     0
370
    18
100
AcDbLine
 10
0.0
 20
5.0
 30
0.0
 11
0.0
 21
14.5325326012
 31
0.0
  0
LINE
  5
2E1
330
2D9
100
AcDbEntity
  8
0
  6
Continuous
 62
     0
370
    18
100
AcDbLine
 10
-5.0
 20
0.0
 30
0.0
 11
-56.8973564088
 21
0.0
 31
0.0
  0
LINE
  5
2E2
330
2D9
100
AcDbEntity
  8
0
  6
Continuous
 62
     0
370
    18
100
AcDbLine
 10
0.0
 20
-5.0
 30
0.0
 11
0.0
 21
-14.1402680653
 31
0.0
  0
LINE
  5
2E3
330
2D9
100
AcDbEntity
  8
0
  6
Continuous
 62
     0
370
    18
100
AcDbLine
 10
5.0
 20
0.0
 30
0.0
 11
29.2400198674
 21
0.0
 31
0.0
  0
ENDBLK
  5
2DB
330
2D9
100
AcDbEntity
  8
0
100
AcDbBlockEnd
  0
ENDSEC
  0
SECTION
  2
ENTITIES
  0
MTEXT
  5
64
330
1F
100
AcDbEntity
  8
0
  6
Continuous
 62
     7
370
     0
100
AcDbMText
 10
167.0049820104
 20
115.7363938955
 30
0.0
 40
4.2333333333
 41
0.0
 71
     1
 72
     1
  1
エースボールZERO　BS-0044
  7
SLDTEXTSTYLE0
 73
     1
 44
1.0
  0
LINE
  5
65
330
1F
100
AcDbEntity
  8
0
  6
Continuous
 62
     7
370
    25
100
AcDbLine
 10
134.6564527998
 20
72.6675690704
 30
0.0
 11
131.9064527998
 21
72.6675690704
 31
0.0
  0
LINE
  5
66
330
1F
100
AcDbEntity
  8
0
  6
Continuous
 62
     7
370
    25
100
AcDbLine
 10
131.9064527998
 20
48.6675690704
 30
0.0
 11
134.6564527998
 21
48.6675690704
 31
0.0
  0
LINE
  5
67
330
1F
100
AcDbEntity
  8
0
  6
Continuous
 62
     7
370
    25
100
AcDbLine
 10
131.9064527998
 20
72.6675690704
 30
0.0
 11
131.6564527998
 21
72.4175690704
 31
0.0
  0
LINE
  5
68
330
1F
100
AcDbEntity
  8
0
  6
Continuous
 62
     7
370
    25
100
AcDbLine
 10
131.6564527998
 20
48.9175690704
 30
0.0
 11
131.9064527998
 21
48.6675690704
 31
0.0
  0
LINE
  5
69
330
1F
100
AcDbEntity
  8
0
  6
Continuous
 62
     7
370
    25
100
AcDbLine
 10
120.6564527998
 20
71.1450690704
 30
0.0
 11
119.6564527998
 21
70.1450690704
 31
0.0
  0
LINE
  5
6A
330
1F
100
AcDbEntity
  8
0
  6
Continuous
 62
     7
370
    25
100
AcDbLine
 10
119.6564527998
 20
51.1900690704
 30
0.0
 11
120.6564527998
 21
50.1900690704
 31
0.0
  0
LINE
  5
6B
330
1F
100
AcDbEntity
  8
0
  6
Continuous
 62
     7
370
    25
100
AcDbLine
 10
128.1564527998
 20
50.1900690704
 30
0.0
 11
129.1564527998
 21
51.1900690704
 31
0.0
  0
LINE
  5
6C
330
1F
100
AcDbEntity
  8
0
  6
Continuous
 62
     7
370
    25
100
AcDbLine
 10
129.1564527998
 20
70.1450690704
 30
0.0
 11
128.1564527998
 21
71.1450690704
 31
0.0
  0
LINE
  5
6D
330
1F
100
AcDbEntity
  8
0
  6
Continuous
 62
     7
370
    25
100
AcDbLine
 10
128.1564527998
 20
71.1450690704
 30
0.0
 11
120.6564527998
 21
71.1450690704
 31
0.0
  0
LINE
  5
6E
330
1F
100
AcDbEntity
  8
0
  6
Continuous
 62
     7
370
    25
100
AcDbLine
 10
120.6564527998
 20
50.1900690704
 30
0.0
 11
128.1564527998
 21
50.1900690704
 31
0.0
  0
LINE
  5
6F
330
1F
100
AcDbEntity
  8
0
  6
Continuous
 62
     7
370
    25
100
AcDbLine
 10
131.6564527998
 20
69.6675690704
 30
0.0
 11
129.1564527998
 21
69.6675690704
 31
0.0
  0
LINE
  5
70
330
1F
100
AcDbEntity
  8
0
  6
Continuous
 62
     7
370
    25
100
AcDbLine
 10
129.1564527998
 20
51.6675690704
 30
0.0
 11
131.6564527998
 21
51.6675690704
 31
0.0
  0
LINE
  5
71
330
1F
100
AcDbEntity
  8
0
  6
Continuous
 62
     7
370
    25
100
AcDbLine
 10
160.1564527998
 20
49.9763190704
 30
0.0
 11
172.4600615268
 21
50.3608068431
 31
0.0
  0
LINE
  5
72
330
1F
100
AcDbEntity
  8
0
  6
Continuous
 62
     7
370
    25
100
AcDbLine
 10
172.4600615268
 20
70.9743312977
 30
0.0
 11
160.1564527998
 21
71.3588190704
 31
0.0
  0
LINE
  5
73
330
1F
100
AcDbEntity
  8
0
  6
Continuous
 62
     7
370
    25
100
AcDbLine
 10
172.4600615268
 20
50.3608068431
 30
0.0
 11
175.1564527998
 21
51.9175690704
 31
0.0
  0
LINE
  5
74
330
1F
100
AcDbEntity
  8
0
  6
Continuous
 62
     7
370
    25
100
AcDbLine
 10
175.1564527998
 20
69.4175690704
 30
0.0
 11
172.4600615268
 21
70.9743312977
 31
0.0
  0
ARC
  5
75
330
1F
100
AcDbEntity
  8
0
  6
Continuous
 62
     7
370
    25
100
AcDbCircle
 10
156.1564527998
 20
73.4175690704
 30
0.0
 40
0.25
100
AcDbArc
 50
180.0
 51
270.0
  0
ARC
  5
76
330
1F
100
AcDbEntity
  8
0
  6
Continuous
 62
     7
370
    25
100
AcDbCircle
 10
139.1564527998
 20
73.4175690704
 30
0.0
 40
0.25
100
AcDbArc
 50
270.0
 51
0.0
  0
LINE
  5
77
330
1F
100
AcDbEntity
  8
0
  6
Continuous
 62
     7
370
    25
100
AcDbLine
 10
155.9064527998
 20
73.4175690704
 30
0.0
 11
155.9064527998
 21
78.8675690704
 31
0.0
  0
LINE
  5
78
330
1F
100
AcDbEntity
  8
0
  6
Continuous
 62
     7
370
    25
100
AcDbLine
 10
139.4064527998
 20
78.8675690704
 30
0.0
 11
139.4064527998
 21
73.4175690704
 31
0.0
  0
LINE
  5
79
330
1F
100
AcDbEntity
  8
0
  6
Continuous
 62
     7
370
    25
100
AcDbLine
 10
155.9064527998
 20
78.8675690704
 30
0.0
 11
155.4064527998
 21
79.3675690704
 31
0.0
  0
LINE
  5
7A
330
1F
100
AcDbEntity
  8
0
  6
Continuous
 62
     7
370
    25
100
AcDbLine
 10
139.9064527998
 20
79.3675690704
 30
0.0
 11
139.4064527998
 21
78.8675690704
 31
0.0
  0
LINE
  5
7B
330
1F
100
AcDbEntity
  8
0
  6
Continuous
 62
     7
370
    25
100
AcDbLine
 10
142.6564527998
 20
79.8675690704
 30
0.0
 11
142.6564527998
 21
79.3675690704
 31
0.0
  0
LINE
  5
7C
330
1F
100
AcDbEntity
  8
0
  6
Continuous
 62
     7
370
    25
100
AcDbLine
 10
152.6564527998
 20
79.3675690704
 30
0.0
 11
152.6564527998
 21
79.8675690704
 31
0.0
  0
ARC
  5
7D
330
1F
100
AcDbEntity
  8
0
  6
Continuous
 62
     7
370
    25
100
AcDbCircle
 10
147.6564527998
 20
77.3675690704
 30
0.0
 40
20.6
100
AcDbArc
 50
90.54846352
 51
93.3558231766
  0
ARC
  5
7E
330
1F
100
AcDbEntity
  8
0
  6
Continuous
 62
     7
370
    25
100
AcDbCircle
 10
147.6564527998
 20
77.3675690704
 30
0.0
 40
20.6
100
AcDbArc
 50
86.6441768145
 51
89.43957762
  0
ARC
  5
7F
330
1F
100
AcDbEntity
  8
0
  6
Continuous
 62
     7
370
    25
100
AcDbCircle
 10
155.6502231681
 20
89.8551483752
 30
0.0
 40
1.000000000000003
100
AcDbArc
 50
354.2894068625
 51
7.1250163489
  0
LINE
  5
80
330
1F
100
AcDbEntity
  8
0
  6
Continuous
 62
     7
370
    25
100
AcDbLine
 10
139.2498249431
 20
83.9338476367
 30
0.0
 11
139.4764527998
 21
81.6675690704
 31
0.0
  0
LINE
  5
81
330
1F
100
AcDbEntity
  8
0
  6
Continuous
 62
     7
370
    25
100
AcDbLine
 10
155.7014776138
 20
80.3178172109
 30
0.0
 11
156.6452603583
 21
89.7556446561
 31
0.0
  0
LINE
  5
82
330
1F
100
AcDbEntity
  8
0
  6
Continuous
 62
     7
370
    25
100
AcDbLine
 10
156.6425010449
 20
89.9791831097
 30
0.0
 11
155.7112006289
 21
97.4295864377
 31
0.0
  0
LINE
  5
83
330
1F
100
AcDbEntity
  8
0
  6
Continuous
 62
     7
370
    25
100
AcDbLine
 10
139.6017049707
 20
97.4295864377
 30
0.0
 11
139.4064527998
 21
95.8675690704
 31
0.0
  0
ARC
  5
84
330
1F
100
AcDbEntity
  8
0
  6
Continuous
 62
     7
370
    25
100
AcDbCircle
 10
140.097843909
 20
97.3675690704
 30
0.0
 40
0.5000000000000017
100
AcDbArc
 50
90.0
 51
172.8749836511
  0
ARC
  5
85
330
1F
100
AcDbEntity
  8
0
  6
Continuous
 62
     7
370
    25
100
AcDbCircle
 10
155.2150616905
 20
97.3675690704
 30
0.0
 40
0.5
100
AcDbArc
 50
7.1250163489
 51
90.0
  0
ARC
  5
86
330
1F
100
AcDbEntity
  8
0
  6
Continuous
 62
     7
370
    25
100
AcDbCircle
 10
155.2039590187
 20
80.3675690704
 30
0.0
 40
0.5
100
AcDbArc
 50
270.0
 51
354.2894068625
  0
LINE
  5
87
330
1F
100
AcDbEntity
  8
0
  6
Continuous
 62
     7
370
    25
100
AcDbLine
 10
142.1564527998
 20
79.3675690704
 30
0.0
 11
142.1564527998
 21
79.8675690704
 31
0.0
  0
LINE
  5
88
330
1F
100
AcDbEntity
  8
0
  6
Continuous
 62
     7
370
    25
100
AcDbLine
 10
140.1564527998
 20
79.8708038024
 30
0.0
 11
140.1564527998
 21
79.3675690704
 31
0.0
  0
LINE
  5
89
330
1F
100
AcDbEntity
  8
0
  6
Continuous
 62
     7
370
    25
100
AcDbLine
 10
131.9064527998
 20
52.5478851525
 30
0.0
 11
131.9064527998
 21
48.6675690704
 31
0.0
  0
LINE
  5
8A
330
1F
100
AcDbEntity
  8
0
  6
Continuous
 62
     7
370
    25
100
AcDbLine
 10
131.9064527998
 20
72.6675690704
 30
0.0
 11
131.9064527998
 21
52.5478851525
 31
0.0
  0
LINE
  5
8B
330
1F
100
AcDbEntity
  8
0
  6
Continuous
 62
     7
370
    25
100
AcDbLine
 10
131.6564527998
 20
52.7170452341
 30
0.0
 11
131.6564527998
 21
72.4175690704
 31
0.0
  0
LINE
  5
8C
330
1F
100
AcDbEntity
  8
0
  6
Continuous
 62
     7
370
    25
100
AcDbLine
 10
131.6564527998
 20
48.9175690704
 30
0.0
 11
131.6564527998
 21
52.7170452341
 31
0.0
  0
LINE
  5
8D
330
1F
100
AcDbEntity
  8
0
  6
Continuous
 62
     7
370
    25
100
AcDbLine
 10
119.6564527998
 20
54.254710376
 30
0.0
 11
119.6564527998
 21
70.1450690704
 31
0.0
  0
LINE
  5
8E
330
1F
100
AcDbEntity
  8
0
  6
Continuous
 62
     7
370
    25
100
AcDbLine
 10
119.6564527998
 20
51.1900690704
 30
0.0
 11
119.6564527998
 21
54.254710376
 31
0.0
  0
LINE
  5
8F
330
1F
100
AcDbEntity
  8
0
  6
Continuous
 62
     7
370
    25
100
AcDbLine
 10
120.6564527998
 20
53.5780700496
 30
0.0
 11
120.6564527998
 21
50.1900690704
 31
0.0
  0
LINE
  5
90
330
1F
100
AcDbEntity
  8
0
  6
Continuous
 62
     7
370
    25
100
AcDbLine
 10
120.6564527998
 20
71.1450690704
 30
0.0
 11
120.6564527998
 21
53.5780700496
 31
0.0
  0
LINE
  5
91
330
1F
100
AcDbEntity
  8
0
  6
Continuous
 62
     7
370
    25
100
AcDbLine
 10
128.1564527998
 20
53.5780700496
 30
0.0
 11
128.1564527998
 21
71.1450690704
 31
0.0
  0
LINE
  5
92
330
1F
100
AcDbEntity
  8
0
  6
Continuous
 62
     7
370
    25
100
AcDbLine
 10
128.1564527998
 20
50.1900690704
 30
0.0
 11
128.1564527998
 21
53.5780700496
 31
0.0
  0
LINE
  5
93
330
1F
100
AcDbEntity
  8
0
  6
Continuous
 62
     7
370
    25
100
AcDbLine
 10
129.1564527998
 20
54.254710376
 30
0.0
 11
129.1564527998
 21
51.1900690704
 31
0.0
  0
LINE
  5
94
330
1F
100
AcDbEntity
  8
0
  6
Continuous
 62
     7
370
    25
100
AcDbLine
 10
129.1564527998
 20
70.1450690704
 30
0.0
 11
129.1564527998
 21
54.254710376
 31
0.0
  0
LINE
  5
95
330
1F
100
AcDbEntity
  8
0
  6
Continuous
 62
     7
370
    25
100
AcDbLine
 10
158.5687395595
 20
69.4032716752
 30
0.0
 11
136.24416604
 21
69.4032716752
 31
0.0
  0
LINE
  5
96
330
1F
100
AcDbEntity
  8
0
  6
Continuous
 62
     7
370
    25
100
AcDbLine
 10
136.24416604
 20
69.4032716752
 30
0.0
 11
136.24416604
 21
73.1675690704
 31
0.0
  0
LINE
  5
97
330
1F
100
AcDbEntity
  8
0
  6
Continuous
 62
     7
370
    25
100
AcDbLine
 10
158.5687395595
 20
73.1675690704
 30
0.0
 11
136.24416604
 21
73.1675690704
 31
0.0
  0
LINE
  5
98
330
1F
100
AcDbEntity
  8
0
  6
Continuous
 62
     7
370
    25
100
AcDbLine
 10
158.5687395595
 20
73.1675690704
 30
0.0
 11
158.5687395595
 21
69.4032716752
 31
0.0
  0
SPLINE
  5
99
330
1F
100
AcDbEntity
  8
0
  6
Continuous
 62
     7
370
    25
100
AcDbSpline
210
0.0
220
0.0
230
1.0
 70
    24
 71
     3
 72
    12
 73
     8
 74
     0
 42
0.00000001
 43
0.00000001
 40
0.0
 40
0.0
 40
0.0
 40
0.0
 40
0.2500000000000001
 40
0.2500000000000001
 40
0.5000000000000001
 40
0.5000000000000001
 40
1.0
 40
1.0
 40
1.0
 40
1.0
 10
134.6564527997745
 20
48.16756907039261
 30
0.0
 10
134.6564527997745
 20
48.16756907039261
 30
0.0
 10
134.6958458851441
 20
48.16756907039261
 30
0.0
 10
134.8464772879095
 20
48.16756907039261
 30
0.0
 10
134.9573577170812
 20
48.1675690703926
 30
0.0
 10
135.3785451230455
 20
48.1675690703926
 30
0.0
 10
135.7762328685252
 20
48.1675690703926
 30
0.0
 10
136.2441660400459
 20
48.1675690703926
 30
0.0
  0
LINE
  5
9A
330
1F
100
AcDbEntity
  8
0
  6
Continuous
 62
     7
370
    25
100
AcDbLine
 10
134.6564527998
 20
48.1675690704
 30
0.0
 11
134.6564527998
 21
60.6675690704
 31
0.0
  0
SPLINE
  5
9B
330
1F
100
AcDbEntity
  8
0
  6
Continuous
 62
     7
370
    25
100
AcDbSpline
210
0.0
220
0.0
230
1.0
 70
     8
 71
     3
 72
    10
 73
     6
 74
     0
 42
0.00000001
 43
0.00000001
 40
0.0
 40
0.0
 40
0.0
 40
0.0
 40
0.5
 40
0.5
 40
1.0
 40
1.0
 40
1.0
 40
1.0
 10
136.2441660400459
 20
51.93186646556455
 30
0.0
 10
135.7771631411521
 20
53.34392339647633
 30
0.0
 10
135.3747593940255
 20
54.79070632035418
 30
0.0
 10
134.8140008234338
 20
57.70403596682937
 30
0.0
 10
134.6564527997745
 20
59.17599442268534
 30
0.0
 10
134.6564527997745
 20
60.66756907039262
 30
0.0
  0
LINE
  5
9C
330
1F
100
AcDbEntity
  8
0
  6
Continuous
 62
     7
370
    25
100
AcDbLine
 10
136.24416604
 20
48.1675690704
 30
0.0
 11
136.24416604
 21
51.9318664656
 31
0.0
  0
LINE
  5
9D
330
1F
100
AcDbEntity
  8
0
  6
Continuous
 62
     7
370
    25
100
AcDbLine
 10
160.1564527998
 20
60.6675690704
 30
0.0
 11
160.1564527998
 21
48.1675690704
 31
0.0
  0
SPLINE
  5
9E
330
1F
100
AcDbEntity
  8
0
  6
Continuous
 62
     7
370
    25
100
AcDbSpline
210
0.0
220
0.0
230
1.0
 70
    24
 71
     3
 72
    12
 73
     8
 74
     0
 42
0.00000001
 43
0.00000001
 40
0.0
 40
0.0
 40
0.0
 40
0.0
 40
0.25
 40
0.25
 40
0.5
 40
0.5
 40
1.0
 40
1.0
 40
1.0
 40
1.0
 10
160.1564527997745
 20
48.16756907039261
 30
0.0
 10
160.1564527997745
 20
48.16756907039261
 30
0.0
 10
160.1171032742237
 20
48.16756907039261
 30
0.0
 10
159.96644376485
 20
48.16756907039261
 30
0.0
 10
159.8555355821452
 20
48.16756907039261
 30
0.0
 10
159.4342865571504
 20
48.16756907039261
 30
0.0
 10
159.036594068538
 20
48.1675690703926
 30
0.0
 10
158.568739559503
 20
48.1675690703926
 30
0.0
  0
LINE
  5
9F
330
1F
100
AcDbEntity
  8
0
  6
Continuous
 62
     7
370
    25
100
AcDbLine
 10
158.5687395595
 20
51.9318664656
 30
0.0
 11
158.5687395595
 21
48.1675690704
 31
0.0
  0
SPLINE
  5
A0
330
1F
100
AcDbEntity
  8
0
  6
Continuous
 62
     7
370
    25
100
AcDbSpline
210
0.0
220
0.0
230
1.0
 70
     8
 71
     3
 72
    12
 73
     8
 74
     0
 42
0.00000001
 43
0.00000001
 40
0.0
 40
0.0
 40
0.0
 40
0.0
 40
0.2499999999999999
 40
0.2499999999999999
 40
0.4999999999999998
 40
0.4999999999999998
 40
1.0
 40
1.0
 40
1.0
 40
1.0
 10
158.568739559503
 20
51.93186646556455
 30
0.0
 10
158.8021905343544
 20
52.63774231311902
 30
0.0
 10
159.0190374034952
 20
53.35044400767875
 30
0.0
 10
159.408021054699
 20
54.79422744202946
 30
0.0
 10
159.5783848548673
 20
55.51923501746137
 30
0.0
 10
159.9990366882061
 20
57.70483798400718
 30
0.0
 10
160.1564527997745
 20
59.17672355470974
 30
0.0
 10
160.1564527997745
 20
60.66756907039262
 30
0.0
  0
LINE
  5
A1
330
1F
100
AcDbEntity
  8
0
  6
Continuous
 62
     7
370
    25
100
AcDbLine
 10
158.5687395595
 20
51.9318664656
 30
0.0
 11
136.24416604
 21
51.9318664656
 31
0.0
  0
SPLINE
  5
A2
330
1F
100
AcDbEntity
  8
0
  6
Continuous
 62
     7
370
    25
100
AcDbSpline
210
0.0
220
0.0
230
1.0
 70
     8
 71
     3
 72
    12
 73
     8
 74
     0
 42
0.00000001
 43
0.00000001
 40
0.0
 40
0.0
 40
0.0
 40
0.0
 40
0.2500000000000001
 40
0.2500000000000001
 40
0.5000000000000001
 40
0.5000000000000001
 40
1.0
 40
1.0
 40
1.0
 40
1.0
 10
134.6564527997745
 20
60.66756907039262
 30
0.0
 10
134.6564527997745
 20
61.41291528266693
 30
0.0
 10
134.6958458851441
 20
62.16474213253596
 30
0.0
 10
134.8464772879094
 20
63.64544259371123
 30
0.0
 10
134.9573577170812
 20
64.37841419831327
 30
0.0
 10
135.3785451230456
 20
66.55895831926925
 30
0.0
 10
135.7762328685253
 20
67.98840191827847
 30
0.0
 10
136.2441660400459
 20
69.4032716752207
 30
0.0
  0
SPLINE
  5
A3
330
1F
100
AcDbEntity
  8
0
  6
Continuous
 62
     7
370
    25
100
AcDbSpline
210
0.0
220
0.0
230
1.0
 70
     8
 71
     3
 72
    12
 73
     8
 74
     0
 42
0.00000001
 43
0.00000001
 40
0.0
 40
0.0
 40
0.0
 40
0.0
 40
0.2500000000000001
 40
0.2500000000000001
 40
0.5
 40
0.5
 40
1.0
 40
1.0
 40
1.0
 40
1.0
 10
160.1564527997745
 20
60.66756907039262
 30
0.0
 10
160.1564527997745
 20
61.41239641884137
 30
0.0
 10
160.1171032742237
 20
62.16422089642315
 30
0.0
 10
159.96644376485
 20
63.64538369774944
 30
0.0
 10
159.8555355821452
 20
64.37850260819802
 30
0.0
 10
159.4342865571504
 20
66.55929154216564
 30
0.0
 10
159.036594068538
 20
67.98863976671203
 30
0.0
 10
158.568739559503
 20
69.40327167522068
 30
0.0
  0
LINE
  5
A4
330
1F
100
AcDbEntity
  8
0
  6
Continuous
 62
     7
370
    25
100
AcDbLine
 10
158.5687395595
 20
48.1675690704
 30
0.0
 11
136.24416604
 21
48.1675690704
 31
0.0
  0
LINE
  5
A5
330
1F
100
AcDbEntity
  8
0
  6
Continuous
 62
     7
370
    25
100
AcDbLine
 10
134.6564527998
 20
60.6675690704
 30
0.0
 11
134.6564527998
 21
73.1675690704
 31
0.0
  0
SPLINE
  5
A6
330
1F
100
AcDbEntity
  8
0
  6
Continuous
 62
     7
370
    25
100
AcDbSpline
210
0.0
220
0.0
230
1.0
 70
    24
 71
     3
 72
    12
 73
     8
 74
     0
 42
0.00000001
 43
0.00000001
 40
0.0
 40
0.0
 40
0.0
 40
0.0
 40
0.2500000000000001
 40
0.2500000000000001
 40
0.5000000000000001
 40
0.5000000000000001
 40
1.0
 40
1.0
 40
1.0
 40
1.0
 10
134.6564527997745
 20
73.16756907039262
 30
0.0
 10
134.6564527997745
 20
73.16756907039262
 30
0.0
 10
134.6958458851441
 20
73.16756907039262
 30
0.0
 10
134.8464772879094
 20
73.16756907039262
 30
0.0
 10
134.9573577170812
 20
73.16756907039262
 30
0.0
 10
135.3785451230456
 20
73.16756907039262
 30
0.0
 10
135.7762328685253
 20
73.16756907039262
 30
0.0
 10
136.2441660400459
 20
73.16756907039262
 30
0.0
  0
SPLINE
  5
A7
330
1F
100
AcDbEntity
  8
0
  6
Continuous
 62
     7
370
    25
100
AcDbSpline
210
0.0
220
0.0
230
1.0
 70
    24
 71
     3
 72
    12
 73
     8
 74
     0
 42
0.00000001
 43
0.00000001
 40
0.0
 40
0.0
 40
0.0
 40
0.0
 40
0.2500000000000001
 40
0.2500000000000001
 40
0.5000000000000001
 40
0.5000000000000001
 40
1.0
 40
1.0
 40
1.0
 40
1.0
 10
160.1564527997745
 20
73.16756907039262
 30
0.0
 10
160.1564527997745
 20
73.16756907039262
 30
0.0
 10
160.1171032742237
 20
73.16756907039262
 30
0.0
 10
159.96644376485
 20
73.16756907039262
 30
0.0
 10
159.8555355821453
 20
73.16756907039262
 30
0.0
 10
159.4342865571504
 20
73.16756907039262
 30
0.0
 10
159.036594068538
 20
73.16756907039262
 30
0.0
 10
158.568739559503
 20
73.16756907039262
 30
0.0
  0
LINE
  5
A8
330
1F
100
AcDbEntity
  8
0
  6
Continuous
 62
     7
370
    25
100
AcDbLine
 10
160.1564527998
 20
73.1675690704
 30
0.0
 11
160.1564527998
 21
60.6675690704
 31
0.0
  0
LINE
  5
A9
330
1F
100
AcDbEntity
  8
0
  6
Continuous
 62
     7
370
    25
100
AcDbLine
 10
172.4600615268
 20
50.3608068431
 30
0.0
 11
172.4600615268
 21
70.9743312977
 31
0.0
  0
LINE
  5
AA
330
1F
100
AcDbEntity
  8
0
  6
Continuous
 62
     7
370
    25
100
AcDbLine
 10
175.1564527998
 20
69.4175690704
 30
0.0
 11
175.1564527998
 21
51.9175690704
 31
0.0
  0
LINE
  5
AB
330
1F
100
AcDbEntity
  8
0
  6
Continuous
 62
     7
370
    25
100
AcDbLine
 10
147.6564527998
 20
78.8675690704
 30
0.0
 11
139.4064527998
 21
78.8675690704
 31
0.0
  0
LINE
  5
AC
330
1F
100
AcDbEntity
  8
0
  6
Continuous
 62
     7
370
    25
100
AcDbLine
 10
155.9064527998
 20
78.8675690704
 30
0.0
 11
147.6564527998
 21
78.8675690704
 31
0.0
  0
LINE
  5
AD
330
1F
100
AcDbEntity
  8
0
  6
Continuous
 62
     7
370
    25
100
AcDbLine
 10
147.6564527998
 20
79.3675690704
 30
0.0
 11
155.4064527998
 21
79.3675690704
 31
0.0
  0
LINE
  5
AE
330
1F
100
AcDbEntity
  8
0
  6
Continuous
 62
     7
370
    25
100
AcDbLine
 10
139.9064527998
 20
79.3675690704
 30
0.0
 11
147.6564527998
 21
79.3675690704
 31
0.0
  0
ARC
  5
AF
330
1F
100
AcDbEntity
  8
0
  6
Continuous
 62
     7
370
    25
100
AcDbCircle
 10
146.5895011306
 20
95.5686451211
 30
0.0
 40
2.367678303604182
100
AcDbArc
 50
93.3632881502
 51
99.4868245016
  0
ARC
  5
B0
330
1F
100
AcDbEntity
  8
0
  6
Continuous
 62
     7
370
    25
100
AcDbCircle
 10
148.7234081555
 20
95.5686863719
 30
0.0
 40
2.367636907572213
100
AcDbArc
 50
80.5187694297
 51
86.6367422681
  0
SPLINE
  5
B1
330
1F
100
AcDbEntity
  8
0
  6
Continuous
 62
     7
370
    25
100
AcDbSpline
210
0.0
220
0.0
230
1.0
 70
     8
 71
     3
 72
    15
 73
    11
 74
     0
 42
0.00000001
 43
0.00000001
 40
0.0
 40
0.0
 40
0.0
 40
0.0
 40
0.1233867499278388
 40
0.2487396502211602
 40
0.3739317114754985
 40
0.4999973617625659
 40
0.6259591330513601
 40
0.7512551380600303
 40
0.8765613478174267
 40
1.0
 40
1.0
 40
1.0
 40
1.0
 10
147.5935699349684
 20
97.96746196769709
 30
0.0
 10
147.5964481361602
 20
97.96746262676923
 30
0.0
 10
147.6022504022719
 20
97.96746395541574
 30
0.0
 10
147.6177798069926
 20
97.96746790504288
 30
0.0
 10
147.6361343888661
 20
97.96746968739227
 30
0.0
 10
147.656447205349
 20
97.96747124097023
 30
0.0
 10
147.6767656230641
 20
97.96746968683529
 30
0.0
 10
147.6951184922282
 20
97.96746790995472
 30
0.0
 10
147.7106565966237
 20
97.96746394243658
 30
0.0
 10
147.716457158655
 20
97.96746262264061
 30
0.0
 10
147.7193356645805
 20
97.96746196769709
 30
0.0
  0
ARC
  5
B2
330
1F
100
AcDbEntity
  8
0
  6
Continuous
 62
     7
370
    25
100
AcDbCircle
 10
147.5944643626
 20
95.4231125549
 30
0.0
 40
2.544349570050566
100
AcDbArc
 50
90.0201414662
 51
95.4127462174
  0
SPLINE
  5
B3
330
1F
100
AcDbEntity
  8
0
  6
Continuous
 62
     7
370
    25
100
AcDbSpline
210
0.0
220
0.0
230
1.0
 70
     8
 71
     3
 72
    15
 73
    11
 74
     0
 42
0.00000001
 43
0.00000001
 40
0.0
 40
0.0
 40
0.0
 40
0.0
 40
0.1261585224210644
 40
0.2513121451548802
 40
0.3762846848783791
 40
0.4993062783340883
 40
0.6261594278645745
 40
0.7521171342021309
 40
0.8758196922692798
 40
1.0
 40
1.0
 40
1.0
 40
1.0
 10
147.4173392740967
 20
97.95421883628637
 30
0.0
 10
147.412108177608
 20
97.95416791053589
 30
0.0
 10
147.4016876522654
 20
97.95406646467752
 30
0.0
 10
147.386901101751
 20
97.9540622830403
 30
0.0
 10
147.3737107491255
 20
97.95416162186089
 30
0.0
 10
147.3628401742842
 20
97.95438216406399
 30
0.0
 10
147.3548325869556
 20
97.95470603146545
 30
0.0
 10
147.3506659599229
 20
97.95512590131291
 30
0.0
 10
147.3500449084113
 20
97.95560461837866
 30
0.0
 10
147.3529840207661
 20
97.95594590762423
 30
0.0
 10
147.3544564092488
 20
97.95611688113384
 30
0.0
  0
ARC
  5
B4
330
1F
100
AcDbEntity
  8
0
  6
Continuous
 62
     7
370
    25
100
AcDbCircle
 10
147.6564527998
 20
77.3675690704
 30
0.0
 40
20.58803836847347
100
AcDbArc
 50
89.3345405821
 51
90.66545941
  0
SPLINE
  5
B5
330
1F
100
AcDbEntity
  8
0
  6
Continuous
 62
     7
370
    25
100
AcDbSpline
210
0.0
220
0.0
230
1.0
 70
     8
 71
     3
 72
    15
 73
    11
 74
     0
 42
0.00000001
 43
0.00000001
 40
0.0
 40
0.0
 40
0.0
 40
0.0
 40
0.1241186784437694
 40
0.2478474916628981
 40
0.373657414947894
 40
0.5005082335853294
 40
0.6234527658309922
 40
0.7484986612277523
 40
0.8736976492452768
 40
1.0
 40
1.0
 40
1.0
 40
1.0
 10
147.958449193026
 20
97.95611688110054
 30
0.0
 10
147.9599202656349
 20
97.95594600082205
 30
0.0
 10
147.9628577901132
 20
97.95560477701167
 30
0.0
 10
147.9622410556131
 20
97.95512624072417
 30
0.0
 10
147.9580790940185
 20
97.95470645085227
 30
0.0
 10
147.9500803462201
 20
97.95438266300586
 30
0.0
 10
147.9392142546833
 20
97.95416196480018
 30
0.0
 10
147.9260265368587
 20
97.95406237289001
 30
0.0
 10
147.9112320902835
 20
97.95406628728861
 30
0.0
 10
147.9008034993761
 20
97.95416783809402
 30
0.0
 10
147.8955663282617
 20
97.95421883625374
 30
0.0
  0
ARC
  5
B6
330
1F
100
AcDbEntity
  8
0
  6
Continuous
 62
     7
370
    25
100
AcDbCircle
 10
147.7184412368
 20
95.4231125026
 30
0.0
 40
2.5443496222976
100
AcDbArc
 50
84.5872538302
 51
89.9798585321
  0
SPLINE
  5
B7
330
1F
100
AcDbEntity
  8
0
  6
Continuous
 62
     7
370
    25
100
AcDbSpline
210
0.0
220
0.0
230
1.0
 70
     8
 71
     3
 72
    13
 73
     9
 74
     0
 42
0.00000001
 43
0.00000001
 40
0.0
 40
0.0
 40
0.0
 40
0.0
 40
0.1374692963454099
 40
0.2749820892813126
 40
0.4163021045260215
 40
0.5576318202769774
 40
0.777008491451321
 40
1.0
 40
1.0
 40
1.0
 40
1.0
 10
128.1322520324184
 20
89.14394167241888
 30
0.0
 10
128.6175799237821
 20
89.05770126298997
 30
0.0
 10
129.588389268862
 20
88.88519315684786
 30
0.0
 10
131.0090816366718
 20
88.48621108352486
 30
0.0
 10
132.4011779616879
 20
87.98590167205259
 30
0.0
 10
134.0055371459296
 20
87.25708120044986
 30
0.0
 10
135.7964050215619
 20
86.2408622502482
 30
0.0
 10
137.0330683847769
 20
85.25327896394467
 30
0.0
 10
137.6564527997745
 20
84.75545227358874
 30
0.0
  0
ELLIPSE
  5
B8
330
1F
100
AcDbEntity
  8
0
  6
Continuous
 62
     7
370
    25
100
AcDbEllipse
 10
250.1703482722
 20
82.4893917887
 30
0.0
 11
171.000000000001
 21
0.0
 31
0.0
210
0.0
220
0.0
230
1.0
 40
0.0555555556
 41
2.292395939553286
 42
2.365524293035123
  0
LINE
  5
B9
330
1F
100
AcDbEntity
  8
0
  6
Continuous
 62
     7
370
    25
100
AcDbLine
 10
137.2100694449
 20
89.621516861
 30
0.0
 11
137.6564527998
 21
89.5840548952
 31
0.0
  0
LINE
  5
BA
330
1F
100
AcDbEntity
  8
0
  6
Continuous
 62
     7
370
    25
100
AcDbLine
 10
137.6564527998
 20
84.7554522736
 30
0.0
 11
137.6564527998
 21
89.5840548952
 31
0.0
  0
SPLINE
  5
BB
330
1F
100
AcDbEntity
  8
0
  6
Continuous
 62
     7
370
    25
100
AcDbSpline
210
0.0
220
0.0
230
1.0
 70
     8
 71
     3
 72
    11
 73
     7
 74
     0
 42
0.00000001
 43
0.00000001
 40
0.0
 40
0.0
 40
0.0
 40
0.0
 40
0.2795638428677817
 40
0.5590315779132448
 40
0.7794196683689383
 40
0.9999999999999999
 40
0.9999999999999999
 40
0.9999999999999999
 40
0.9999999999999999
 10
125.2201248456969
 20
89.36756907039262
 30
0.0
 10
125.0965514999208
 20
89.4060879223407
 30
0.0
 10
124.8494472901324
 20
89.48311238431353
 30
0.0
 10
124.5956913822091
 20
90.01591028210322
 30
0.0
 10
124.4790729412286
 20
90.64364684896961
 30
0.0
 10
124.5055923272638
 20
91.04462966513825
 30
0.0
 10
124.5188578008744
 20
91.24520847790285
 30
0.0
  0
SPLINE
  5
BC
330
1F
100
AcDbEntity
  8
0
  6
Continuous
 62
     7
370
    25
100
AcDbSpline
210
0.0
220
0.0
230
1.0
 70
     8
 71
     3
 72
     9
 73
     5
 74
     0
 42
0.00000001
 43
0.00000001
 40
0.0
 40
0.0
 40
0.0
 40
0.0
 40
0.4986740982738612
 40
1.0
 40
1.0
 40
1.0
 40
1.0
 10
125.8104183419433
 20
91.2750095033333
 30
0.0
 10
125.6039447008735
 20
91.27647458258994
 30
0.0
 10
125.1898994521139
 20
91.27941253196754
 30
0.0
 10
124.742933350169
 20
91.25662925303585
 30
0.0
 10
124.5188576660705
 20
91.24520740518113
 30
0.0
  0
SPLINE
  5
BD
330
1F
100
AcDbEntity
  8
0
  6
Continuous
 62
     7
370
    25
100
AcDbSpline
210
0.0
220
0.0
230
1.0
 70
     8
 71
     3
 72
    13
 73
     9
 74
     0
 42
0.00000001
 43
0.00000001
 40
0.0
 40
0.0
 40
0.0
 40
0.0
 40
0.3327087167328941
 40
0.5628656559531299
 40
0.69871241253847
 40
0.8016200683166478
 40
0.9052998751809794
 40
1.0
 40
1.0
 40
1.0
 40
1.0
 10
127.8012190822139
 20
89.19211610924349
 30
0.0
 10
127.4388282518868
 20
89.27790168416163
 30
0.0
 10
126.8257473731334
 20
89.42303089619965
 30
0.0
 10
126.176202048471
 20
89.87339759262693
 30
0.0
 10
125.8335050328729
 20
90.2731387412328
 30
0.0
 10
125.6845814217292
 20
90.62903098764436
 30
0.0
 10
125.6724087023025
 20
90.97646483467858
 30
0.0
 10
125.7658252961227
 20
91.17854370585766
 30
0.0
 10
125.8104193385738
 20
91.27500958404183
 30
0.0
  0
SPLINE
  5
BE
330
1F
100
AcDbEntity
  8
0
  6
Continuous
 62
     7
370
    25
100
AcDbSpline
210
0.0
220
0.0
230
1.0
 70
     8
 71
     3
 72
     9
 73
     5
 74
     0
 42
0.00000001
 43
0.00000001
 40
0.0
 40
0.0
 40
0.0
 40
0.0
 40
0.5551829690770672
 40
1.0
 40
1.0
 40
1.0
 40
1.0
 10
125.2201248456969
 20
89.36756907039262
 30
0.0
 10
125.7501477194181
 20
89.35457004990155
 30
0.0
 10
126.7048291546256
 20
89.33115611032652
 30
0.0
 10
127.463672595783
 20
89.23492247097481
 30
0.0
 10
127.8012190822139
 20
89.19211610924349
 30
0.0
  0
LINE
  5
BF
330
1F
100
AcDbEntity
  8
0
  6
Continuous
 62
     7
370
    25
100
AcDbLine
 10
137.2100694449
 20
94.8675690704
 30
0.0
 11
137.2100694449
 21
89.621516861
 31
0.0
  0
LINE
  5
C0
330
1F
100
AcDbEntity
  8
0
  6
Continuous
 62
     7
370
    25
100
AcDbLine
 10
137.6564527998
 20
94.8675690704
 30
0.0
 11
137.2100694449
 21
94.8675690704
 31
0.0
  0
LINE
  5
C1
330
1F
100
AcDbEntity
  8
0
  6
Continuous
 62
     7
370
    25
100
AcDbLine
 10
137.6564527998
 20
89.5840548952
 30
0.0
 11
137.6564527998
 21
94.8675690704
 31
0.0
  0
ARC
  5
C2
330
1F
100
AcDbEntity
  8
0
  6
Continuous
 62
     7
370
    25
100
AcDbCircle
 10
144.0328818584
 20
95.2414152242
 30
0.0
 40
6.833046917558509
100
AcDbArc
 50
170.513808076
 51
183.1363032674
  0
ARC
  5
C3
330
1F
100
AcDbEntity
  8
0
  6
Continuous
 62
     7
370
    25
100
AcDbCircle
 10
137.2888849334
 20
95.5773191219
 30
0.0
 40
0.7902621394873256
100
AcDbArc
 50
62.2819181136
 51
89.6817467964
  0
LINE
  5
C4
330
1F
100
AcDbEntity
  8
0
  6
Continuous
 62
     7
370
    25
100
AcDbLine
 10
137.6564527998
 20
94.8675690704
 30
0.0
 11
137.6564527998
 21
96.2768962176
 31
0.0
  0
LINE
  5
C5
330
1F
100
AcDbEntity
  8
0
  6
Continuous
 62
     7
370
    25
100
AcDbLine
 10
125.8102452682
 20
91.2751099897
 30
0.0
 11
127.8761990031
 21
94.8676800763
 31
0.0
  0
LINE
  5
C6
330
1F
100
AcDbEntity
  8
0
  6
Continuous
 62
     7
370
    25
100
AcDbLine
 10
127.8763914333
 20
94.8675690704
 30
0.0
 11
137.2100694449
 21
94.8675690704
 31
0.0
  0
ARC
  5
C7
330
1F
100
AcDbEntity
  8
0
  6
Continuous
 62
     7
370
    25
100
AcDbCircle
 10
125.2201248457
 20
70.2945618231
 30
0.0
 40
19.0730072472477
100
AcDbArc
 50
81.2175477188
 51
82.2224666688
  0
LINE
  5
C8
330
1F
100
AcDbEntity
  8
0
  6
Continuous
 62
     7
370
    25
100
AcDbLine
 10
137.2932744743
 20
96.3675690704
 30
0.0
 11
125.8775451908
 21
96.3675690704
 31
0.0
  0
SPLINE
  5
C9
330
1F
100
AcDbEntity
  8
0
  6
Continuous
 62
     7
370
    25
100
AcDbSpline
210
0.0
220
0.0
230
1.0
 70
     8
 71
     3
 72
    15
 73
    11
 74
     0
 42
0.00000001
 43
0.00000001
 40
0.0
 40
0.0
 40
0.0
 40
0.0
 40
0.2070474010410781
 40
0.417596863024684
 40
0.5931232720441638
 40
0.6923428991082528
 40
0.773099683107911
 40
0.8543284120985949
 40
0.9261475166372038
 40
1.0
 40
1.0
 40
1.0
 40
1.0
 10
125.874978904089
 20
96.3675543442866
 30
0.0
 10
126.1060681410538
 20
96.36370410544528
 30
0.0
 10
126.5721553266454
 20
96.3559385036848
 30
0.0
 10
127.1967531259525
 20
96.26928854094734
 30
0.0
 10
127.6584323163832
 20
96.09933803140471
 30
0.0
 10
127.920336015367
 20
95.86997317405618
 30
0.0
 10
128.0408026714981
 20
95.63217970877686
 30
0.0
 10
128.0595967096939
 20
95.3702667315036
 30
0.0
 10
127.9985583176938
 20
95.10472432948823
 30
0.0
 10
127.917363224079
 20
94.94742670647449
 30
0.0
 10
127.8761989902932
 20
94.86768006367348
 30
0.0
  0
SPLINE
  5
CA
330
1F
100
AcDbEntity
  8
0
  6
Continuous
 62
     7
370
    25
100
AcDbSpline
210
0.0
220
0.0
230
1.0
 70
     8
 71
     3
 72
    11
 73
     7
 74
     0
 42
0.00000001
 43
0.00000001
 40
0.0
 40
0.0
 40
0.0
 40
0.0
 40
0.2491150002829079
 40
0.4989585322854286
 40
0.7493328274976518
 40
1.0
 40
1.0
 40
1.0
 40
1.0
 10
124.5188578008744
 20
91.24520847790284
 30
0.0
 10
124.093146519561
 20
91.21895536993402
 30
0.0
 10
123.2404789730051
 20
91.16637237731943
 30
0.0
 10
121.8769132117533
 20
91.08205134709293
 30
0.0
 10
120.4762405945411
 20
90.9953180782812
 30
0.0
 10
119.5254203590539
 20
90.9363405128536
 30
0.0
 10
119.0497323464933
 20
90.90683449285443
 30
0.0
  0
SPLINE
  5
CB
330
1F
100
AcDbEntity
  8
0
  6
Continuous
 62
     7
370
    25
100
AcDbSpline
210
0.0
220
0.0
230
1.0
 70
     8
 71
     3
 72
     9
 73
     5
 74
     0
 42
0.00000001
 43
0.00000001
 40
0.0
 40
0.0
 40
0.0
 40
0.0
 40
0.5599987526606142
 40
1.0
 40
1.0
 40
1.0
 40
1.0
 10
121.6136337141507
 20
95.88065754454642
 30
0.0
 10
121.1338674562635
 20
94.95281624469712
 30
0.0
 10
120.2771400874832
 20
93.29595309019714
 30
0.0
 10
119.4247743390106
 20
91.63684439028667
 30
0.0
 10
119.0497323464933
 20
90.90683449285443
 30
0.0
  0
SPLINE
  5
CC
330
1F
100
AcDbEntity
  8
0
  6
Continuous
 62
     7
370
    25
100
AcDbSpline
210
0.0
220
0.0
230
1.0
 70
     8
 71
     3
 72
     9
 73
     5
 74
     0
 42
0.00000001
 43
0.00000001
 40
0.0
 40
0.0
 40
0.0
 40
0.0
 40
0.5600000882143319
 40
1.0
 40
1.0
 40
1.0
 40
1.0
 10
122.1181208517028
 20
96.85448059623855
 30
0.0
 10
122.0239084361711
 20
96.67272172540677
 30
0.0
 10
121.8556720063661
 20
96.34815236433512
 30
0.0
 10
121.6875898486976
 20
96.02350316403832
 30
0.0
 10
121.6136337141507
 20
95.88065754454642
 30
0.0
  0
SPLINE
  5
CD
330
1F
100
AcDbEntity
  8
0
  6
Continuous
 62
     7
370
    25
100
AcDbSpline
210
0.0
220
0.0
230
1.0
 70
     8
 71
     3
 72
    10
 73
     6
 74
     0
 42
0.00000001
 43
0.00000001
 40
0.0
 40
0.0
 40
0.0
 40
0.0
 40
0.428349366631063
 40
0.7616603141144169
 40
1.0
 40
1.0
 40
1.0
 40
1.0
 10
122.118120851703
 20
96.85448059623876
 30
0.0
 10
122.5650480529861
 20
96.7526843334156
 30
0.0
 10
123.3597421485856
 20
96.57167747416106
 30
0.0
 10
124.3962969495912
 20
96.39801509120798
 30
0.0
 10
124.9821622825916
 20
96.37652781331218
 30
0.0
 10
125.2264285376916
 20
96.36756907039252
 30
0.0
  0
LINE
  5
CE
330
1F
100
AcDbEntity
  8
0
  6
Continuous
 62
     7
370
    25
100
AcDbLine
 10
125.2243283776
 20
96.3675690704
 30
0.0
 11
125.8749818437
 21
96.3675690704
 31
0.0
  0
LINE
  5
CF
330
1F
100
AcDbEntity
  8
0
  6
Continuous
 62
     7
370
    25
100
AcDbLine
 10
137.6564527998
 20
96.3675690704
 30
0.0
 11
137.2932744743
 21
96.3675690704
 31
0.0
  0
LINE
  5
D0
330
1F
100
AcDbEntity
  8
0
  6
Continuous
 62
     7
370
    25
100
AcDbLine
 10
137.6564527998
 20
96.2768962176
 30
0.0
 11
137.6564527998
 21
96.3675690704
 31
0.0
  0
SPLINE
  5
D1
330
1F
100
AcDbEntity
  8
0
  6
Continuous
 62
     7
370
    25
100
AcDbSpline
210
0.0
220
0.0
230
1.0
 70
    24
 71
     3
 72
    11
 73
     7
 74
     0
 42
0.00000001
 43
0.00000001
 40
0.0
 40
0.0
 40
0.0
 40
0.0
 40
0.2799857774483057
 40
0.5599458358671288
 40
0.779998565900937
 40
0.9999999999999999
 40
0.9999999999999999
 40
0.9999999999999999
 40
0.9999999999999999
 10
119.0889843136755
 20
89.36756907039262
 30
0.0
 10
119.6863083007595
 20
89.36756907039262
 30
0.0
 10
120.880901405736
 20
89.36756907039262
 30
0.0
 10
122.5082631612186
 20
89.36756907039262
 30
0.0
 10
123.9639927307167
 20
89.36756907039262
 30
0.0
 10
124.8014466806245
 20
89.36756907039262
 30
0.0
 10
125.2201248456969
 20
89.36756907039262
 30
0.0
  0
SPLINE
  5
D2
330
1F
100
AcDbEntity
  8
0
  6
Continuous
 62
     7
370
    25
100
AcDbSpline
210
0.0
220
0.0
230
1.0
 70
     8
 71
     3
 72
    11
 73
     7
 74
     0
 42
0.00000001
 43
0.00000001
 40
0.0
 40
0.0
 40
0.0
 40
0.0
 40
0.2500000000000001
 40
0.4999999999999997
 40
0.75
 40
1.0
 40
1.0
 40
1.0
 40
1.0
 10
119.0889843136755
 20
89.36756907039262
 30
0.0
 10
119.0837532799154
 20
89.39089060270092
 30
0.0
 10
119.0732912123951
 20
89.43753366731752
 30
0.0
 10
119.0601767245278
 20
89.79551473568422
 30
0.0
 10
119.0511523810339
 20
90.30570767372618
 30
0.0
 10
119.0502056913402
 20
90.70645888647836
 30
0.0
 10
119.0497323464933
 20
90.90683449285443
 30
0.0
  0
SPLINE
  5
D3
330
1F
100
AcDbEntity
  8
0
  6
Continuous
 62
     7
370
    25
100
AcDbSpline
210
0.0
220
0.0
230
1.0
 70
     8
 71
     3
 72
    11
 73
     7
 74
     0
 42
0.00000001
 43
0.00000001
 40
0.0
 40
0.0
 40
0.0
 40
0.0
 40
0.2499999999999989
 40
0.4999999999999996
 40
0.749999999999999
 40
1.0
 40
1.0
 40
1.0
 40
1.0
 10
134.6433822659934
 20
96.36756907039259
 30
0.0
 10
134.6450687364973
 20
96.37483138004474
 30
0.0
 10
134.6484416775051
 20
96.38935599934904
 30
0.0
 10
134.6527215744064
 20
96.50132820294152
 30
0.0
 10
134.6557636952202
 20
96.6618397809665
 30
0.0
 10
134.6562320684428
 20
96.79026699114793
 30
0.0
 10
134.6564662550541
 20
96.85448059623866
 30
0.0
  0
SPLINE
  5
D4
330
1F
100
AcDbEntity
  8
0
  6
Continuous
 62
     7
370
    25
100
AcDbSpline
210
0.0
220
0.0
230
1.0
 70
     8
 71
     3
 72
    13
 73
     9
 74
     0
 42
0.00000001
 43
0.00000001
 40
0.0
 40
0.0
 40
0.0
 40
0.0
 40
0.2886949682914851
 40
0.554553683594315
 40
0.6780091910936104
 40
0.7888922083801199
 40
0.8964194071406489
 40
1.0
 40
1.0
 40
1.0
 40
1.0
 10
134.6564662550541
 20
96.85448059623866
 30
0.0
 10
134.9281914456303
 20
96.81585044236068
 30
0.0
 10
135.4501479114847
 20
96.74164584413843
 30
0.0
 10
136.047723319588
 20
96.65858312460982
 30
0.0
 10
136.4115774997675
 20
96.60960219400121
 30
0.0
 10
136.6081249913332
 20
96.58358523422972
 30
0.0
 10
136.7344082804394
 20
96.56822642388548
 30
0.0
 10
136.7491967824105
 20
96.56778544019802
 30
0.0
 10
136.7564527997745
 20
96.56756907039262
 30
0.0
  0
SPLINE
  5
D5
330
1F
100
AcDbEntity
  8
0
  6
Continuous
 62
     7
370
    25
100
AcDbSpline
210
0.0
220
0.0
230
1.0
 70
     8
 71
     3
 72
    11
 73
     7
 74
     0
 42
0.00000001
 43
0.00000001
 40
0.0
 40
0.0
 40
0.0
 40
0.0
 40
0.2500000000000007
 40
0.5000000000000022
 40
0.7500000000000036
 40
1.0
 40
1.0
 40
1.0
 40
1.0
 10
136.7564527997745
 20
96.56756907039262
 30
0.0
 10
136.7817127379786
 20
96.53819140056086
 30
0.0
 10
136.8322326143869
 20
96.4794360608973
 30
0.0
 10
136.9310912235873
 20
96.41684591801831
 30
0.0
 10
137.0404785034107
 20
96.37531311638539
 30
0.0
 10
137.1177947009865
 20
96.37015041905687
 30
0.0
 10
137.1564527997745
 20
96.36756907039262
 30
0.0
  0
LINE
  5
D6
330
1F
100
AcDbEntity
  8
0
  6
Continuous
 62
     7
370
    25
100
AcDbLine
 10
134.6564662551
 20
96.8544805962
 30
0.0
 11
122.1181208517
 21
96.8544805962
 31
0.0
  0
LINE
  5
D7
330
1F
100
AcDbEntity
  8
0
  6
Continuous
 62
     7
370
    25
100
AcDbLine
 10
136.7564527998
 20
96.5675690704
 30
0.0
 11
134.3564527998
 21
99.7675690704
 31
0.0
  0
LINE
  5
D8
330
1F
100
AcDbEntity
  8
0
  6
Continuous
 62
     7
370
    25
100
AcDbLine
 10
132.5329070016
 20
99.6858929342
 30
0.0
 11
134.6564662551
 21
96.8544805962
 31
0.0
  0
ELLIPSE
  5
D9
330
1F
100
AcDbEntity
  8
0
  6
Continuous
 62
     7
370
    25
100
AcDbEllipse
 10
132.5564527998
 20
99.6675690704
 30
0.0
 11
1.56006363488487
 21
0.4198716740993121
 31
0.0
210
0.0
220
0.0
230
0.9999999999999999
 40
0.0147408623
 41
0.9331929812040766
 42
1.581922327328491
  0
SPLINE
  5
DA
330
1F
100
AcDbEntity
  8
0
  6
Continuous
 62
     7
370
    25
100
AcDbSpline
210
0.0
220
0.0
230
1.0
 70
     8
 71
     3
 72
    11
 73
     7
 74
     0
 42
0.00000001
 43
0.00000001
 40
0.0
 40
0.0
 40
0.0
 40
0.0
 40
0.2307374805226512
 40
0.4903955403005855
 40
0.7438105520730652
 40
0.9999999999999999
 40
0.9999999999999999
 40
0.9999999999999999
 40
0.9999999999999999
 10
133.4801408034095
 20
99.93598506554594
 30
0.0
 10
133.571772808169
 20
99.95470091595038
 30
0.0
 10
133.7665219507056
 20
99.99447845686174
 30
0.0
 10
134.0140295179436
 20
99.97715846830316
 30
0.0
 10
134.2238382473377
 20
99.90617357597701
 30
0.0
 10
134.312087796818
 20
99.81393795817328
 30
0.0
 10
134.3564527997744
 20
99.76756907039261
 30
0.0
  0
LINE
  5
DB
330
1F
100
AcDbEntity
  8
0
  6
Continuous
 62
     7
370
    25
100
AcDbLine
 10
119.0497323465
 20
90.9068344929
 30
0.0
 11
97.4221841778
 21
90.9068344929
 31
0.0
  0
LINE
  5
DC
330
1F
100
AcDbEntity
  8
0
  6
Continuous
 62
     7
370
    25
100
AcDbLine
 10
97.4221841778
 20
90.9068344929
 30
0.0
 11
97.6446290889
 21
99.4016629293
 31
0.0
  0
ARC
  5
DD
330
1F
100
AcDbEntity
  8
0
  6
Continuous
 62
     7
370
    25
100
AcDbCircle
 10
98.2561692038
 20
98.8858929342
 30
0.0
 40
0.8000000000000005
100
AcDbArc
 50
90.0
 51
139.8558773282
  0
LINE
  5
DE
330
1F
100
AcDbEntity
  8
0
  6
Continuous
 62
     7
370
    25
100
AcDbLine
 10
98.2561692038
 20
99.6858929342
 30
0.0
 11
132.5329070016
 21
99.6858929342
 31
0.0
  0
SPLINE
  5
DF
330
1F
100
AcDbEntity
  8
0
  6
Continuous
 62
     7
370
    25
100
AcDbSpline
210
0.0
220
0.0
230
1.0
 70
     8
 71
     3
 72
    11
 73
     7
 74
     0
 42
0.00000001
 43
0.00000001
 40
0.0
 40
0.0
 40
0.0
 40
0.0
 40
0.249999999999998
 40
0.4999999999999973
 40
0.7500000000000001
 40
1.0
 40
1.0
 40
1.0
 40
1.0
 10
98.2561692038393
 20
99.68589293420813
 30
0.0
 10
98.25649706509512
 20
99.77579198133515
 30
0.0
 10
98.25715278760674
 20
99.95559007558916
 30
0.0
 10
98.26141175674599
 20
100.1803062848241
 30
0.0
 10
98.26740361240783
 20
100.3370673698536
 30
0.0
 10
98.27212572981884
 20
100.3574018368796
 30
0.0
 10
98.27448678852434
 20
100.3675690703926
 30
0.0
  0
LINE
  5
E0
330
1F
100
AcDbEntity
  8
0
  6
Continuous
 62
     7
370
    25
100
AcDbLine
 10
132.5512245863
 20
100.3675690704
 30
0.0
 11
98.2744867885
 21
100.3675690704
 31
0.0
  0
SPLINE
  5
E1
330
1F
100
AcDbEntity
  8
0
  6
Continuous
 62
     7
370
    25
100
AcDbSpline
210
0.0
220
0.0
230
1.0
 70
     8
 71
     3
 72
    11
 73
     7
 74
     0
 42
0.00000001
 43
0.00000001
 40
0.0
 40
0.0
 40
0.0
 40
0.0
 40
0.2499999999999988
 40
0.5000000000000004
 40
0.7499999999999976
 40
1.0
 40
1.0
 40
1.0
 40
1.0
 10
132.551224586262
 20
100.3675690703926
 30
0.0
 10
132.5488635275565
 20
100.3574018368796
 30
0.0
 10
132.5441414101455
 20
100.3370673698536
 30
0.0
 10
132.5381495544837
 20
100.1803062848241
 30
0.0
 10
132.5338905853444
 20
99.95559007558917
 30
0.0
 10
132.5332348628328
 20
99.77579198133516
 30
0.0
 10
132.532907001577
 20
99.68589293420813
 30
0.0
  0
LINE
  5
E2
330
1F
100
AcDbEntity
  8
0
  6
Continuous
 62
     7
370
    25
100
AcDbLine
 10
133.1564527998
 20
100.3675690704
 30
0.0
 11
132.5512245863
 21
100.3675690704
 31
0.0
  0
SPLINE
  5
E3
330
1F
100
AcDbEntity
  8
0
  6
Continuous
 62
     7
370
    25
100
AcDbSpline
210
0.0
220
0.0
230
1.0
 70
     8
 71
     3
 72
    10
 73
     6
 74
     0
 42
0.00000001
 43
0.00000001
 40
0.0
 40
0.0
 40
0.0
 40
0.0
 40
0.2808335173386708
 40
0.5616510917414125
 40
1.0
 40
1.0
 40
1.0
 40
1.0
 10
133.1564527997745
 20
100.3675690703926
 30
0.0
 10
133.1948032487369
 20
100.3599944621247
 30
0.0
 10
133.2715019695044
 20
100.3448456755998
 30
0.0
 10
133.3966563195464
 20
100.2112147425402
 30
0.0
 10
133.4485253858997
 20
100.0402140281819
 30
0.0
 10
133.4801408034095
 20
99.93598506554592
 30
0.0
  0
LINE
  5
E4
330
1F
100
AcDbEntity
  8
0
  6
Continuous
 62
     7
370
    25
100
AcDbLine
 10
97.4221841778
 20
90.9068344929
 30
0.0
 11
97.3791917503
 21
90.843947408
 31
0.0
  0
ELLIPSE
  5
E5
330
1F
100
AcDbEntity
  8
0
  6
Continuous
 62
     7
370
    25
100
AcDbEllipse
 10
93.1564527998
 20
90.8675690704
 30
0.0
 11
0.5000325503427945
 21
1.499994860148007
 31
0.0
210
0.0
220
0.0
230
1.0
 40
0.0078530307
 41
2.36388800015599
 42
3.144210503885707
  0
SPLINE
  5
E6
330
1F
100
AcDbEntity
  8
0
  6
Continuous
 62
     7
370
    25
100
AcDbSpline
210
0.0
220
0.0
230
1.0
 70
     8
 71
     3
 72
    12
 73
     8
 74
     0
 42
0.00000001
 43
0.00000001
 40
0.0
 40
0.0
 40
0.0
 40
0.0
 40
0.0715202026166142
 40
0.1260836237049476
 40
0.3855387013103047
 40
0.8475626424815554
 40
1.0
 40
1.0
 40
1.0
 40
1.0
 10
93.13102418677387
 20
90.1958770200418
 30
0.0
 10
93.116570051995
 20
90.19276837217699
 30
0.0
 10
93.09108872470894
 20
90.18728810823366
 30
0.0
 10
93.02461699706276
 20
90.14769956281326
 30
0.0
 10
92.91991260992974
 20
90.04126542983097
 30
0.0
 10
92.8330840510834
 20
89.91075841412274
 30
0.0
 10
92.80008748437355
 20
89.8232487001594
 30
0.0
 10
92.7919015995226
 20
89.80153903417684
 30
0.0
  0
ELLIPSE
  5
E7
330
1F
100
AcDbEntity
  8
0
  6
Continuous
 62
     7
370
    25
100
AcDbEllipse
 10
61.2323159592
 20
90.8675690704
 30
0.0
 11
36.17607470647087
 21
0.04043410480177556
 31
0.0
210
0.0
220
0.0
230
1.0
 40
0.0414488012
 41
5.791928562280354
 42
6.243021298617577
  0
ELLIPSE
  5
E8
330
1F
100
AcDbEntity
  8
0
  6
Continuous
 62
     7
370
    25
100
AcDbEllipse
 10
97.4614361449
 20
90.8675690704
 30
0.0
 11
0.03725061189165046
 21
1.499998630535856
 31
0.0
210
0.0
220
0.0
230
1.0
 40
0.0544129722
 41
1.585352277991072
 42
1.587896030767889
  0
LINE
  5
E9
330
1F
100
AcDbEntity
  8
0
  6
Continuous
 62
     7
370
    25
100
AcDbLine
 10
92.6564527998
 20
89.3675690704
 30
0.0
 11
119.0889843137
 21
89.3675690704
 31
0.0
  0
SPLINE
  5
EA
330
1F
100
AcDbEntity
  8
0
  6
Continuous
 62
     7
370
    25
100
AcDbSpline
210
0.0
220
0.0
230
1.0
 70
     8
 71
     3
 72
    11
 73
     7
 74
     0
 42
0.00000001
 43
0.00000001
 40
0.0
 40
0.0
 40
0.0
 40
0.0
 40
0.2561894651307314
 40
0.509604493920692
 40
0.769274206655365
 40
1.0
 40
1.0
 40
1.0
 40
1.0
 10
134.3564527997744
 20
99.76756907039261
 30
0.0
 10
134.2808566674806
 20
99.85557943538103
 30
0.0
 10
134.1304830808059
 20
100.0306470459357
 30
0.0
 10
133.8312702948506
 20
100.2208346156372
 30
0.0
 10
133.5037505599639
 20
100.3448334163629
 30
0.0
 10
133.2675721791501
 20
100.3602947022421
 30
0.0
 10
133.1564527997745
 20
100.3675690703926
 30
0.0
  0
LINE
  5
EB
330
1F
100
AcDbEntity
  8
0
  6
Continuous
 62
     7
370
    25
100
AcDbLine
 10
97.6293838648
 20
99.360379305
 30
0.0
 11
97.6025135059
 21
99.3738144844
 31
0.0
  0
LINE
  5
EC
330
1F
100
AcDbEntity
  8
0
  6
Continuous
 62
     7
370
    25
100
AcDbLine
 10
97.6293838648
 20
99.360379305
 30
0.0
 11
97.4074558586
 21
90.8852906743
 31
0.0
  0
SPLINE
  5
ED
330
1F
100
AcDbEntity
  8
0
  6
Continuous
 62
     7
370
    25
100
AcDbSpline
210
0.0
220
0.0
230
1.0
 70
     8
 71
     3
 72
     9
 73
     5
 74
     0
 42
0.00000001
 43
0.00000001
 40
0.0
 40
0.0
 40
0.0
 40
0.0
 40
0.8673350121727758
 40
1.0
 40
1.0
 40
1.0
 40
1.0
 10
97.38008412345006
 20
90.87957906625519
 30
0.0
 10
97.37984673782019
 20
90.87038064287997
 30
0.0
 10
97.3795730423893
 20
90.8597752559809
 30
0.0
 10
97.37931715588066
 20
90.84916963137951
 30
0.0
 10
97.37928320870013
 20
90.84776263632087
 30
0.0
  0
LINE
  5
EE
330
1F
100
AcDbEntity
  8
0
  6
Continuous
 62
     7
370
    25
100
AcDbLine
 10
97.6025135059
 20
99.3738144844
 30
0.0
 11
97.3800841235
 21
90.8795790663
 31
0.0
  0
ARC
  5
EF
330
1F
100
AcDbEntity
  8
0
  6
Continuous
 62
     7
370
    25
100
AcDbCircle
 10
101.8551910218
 20
90.8725731183
 30
0.0
 40
8.750371682090261
100
AcDbArc
 50
182.878079786
 51
184.4353064954
  0
ELLIPSE
  5
F0
330
1F
100
AcDbEntity
  8
0
  6
Continuous
 62
     7
370
    25
100
AcDbEllipse
 10
61.2054456003
 20
90.8810042498
 30
0.0
 11
36.18915847374971
 21
0.02692057091444156
 31
0.0
210
0.0
220
0.0
230
1.0
 40
0.0276225703
 41
5.791964074121232
 42
6.254836299513502
  0
ARC
  5
F1
330
1F
100
AcDbEntity
  8
0
  6
Continuous
 62
     7
370
    25
100
AcDbCircle
 10
98.2368682861
 20
98.8863783216
 30
0.0
 40
0.8000000000000103
100
AcDbArc
 50
142.4614409777
 51
153.4349488229
  0
LINE
  5
F2
330
1F
100
AcDbEntity
  8
0
  6
Continuous
 62
     7
370
    25
100
AcDbLine
 10
93.1158567091
 20
90.4332095496
 30
0.0
 11
97.5213265333
 21
99.244149198
 31
0.0
  0
SPLINE
  5
F3
330
1F
100
AcDbEntity
  8
0
  6
Continuous
 62
     7
370
    25
100
AcDbSpline
210
0.0
220
0.0
230
1.0
 70
     8
 71
     3
 72
    12
 73
     8
 74
     0
 42
0.00000001
 43
0.00000001
 40
0.0
 40
0.0
 40
0.0
 40
0.0
 40
0.139683458618249
 40
0.3831896274038307
 40
0.55131692930133
 40
0.8194729461607051
 40
0.9999999999999999
 40
0.9999999999999999
 40
0.9999999999999999
 40
0.9999999999999999
 10
92.35389585886925
 20
90.38048917733208
 30
0.0
 10
92.36413723961552
 20
90.39380155099302
 30
0.0
 10
92.39223212580384
 20
90.43032100400099
 30
0.0
 10
92.49938248715863
 20
90.46799306459236
 30
0.0
 10
92.67971957457162
 20
90.49236038535386
 30
0.0
 10
92.88817571914059
 20
90.4912433505899
 30
0.0
 10
93.05053261984453
 20
90.44986006221234
 30
0.0
 10
93.11585670909292
 20
90.43320954959694
 30
0.0
  0
LWPOLYLINE
  5
F4
330
1F
100
AcDbEntity
  8
0
  6
Continuous
 62
     7
370
    25
100
AcDbPolyline
 90
        9
 70
   128
 43
0.0
 10
92.3538958589
 20
90.3804891773
 10
92.3310453691
 20
90.3041586997
 10
92.3339504951
 20
90.2197587004
 10
92.3624520601
 20
90.1319135999
 10
92.4149884146
 20
90.0454365816
 10
92.4886810017
 20
89.9650658693
 10
92.5794920786
 20
89.8952051119
 10
92.6824459508
 20
89.8396820999
 10
92.7919015995
 20
89.8015390342
  0
SPLINE
  5
F5
330
1F
100
AcDbEntity
  8
0
  6
Continuous
 62
     7
370
    25
100
AcDbSpline
210
0.0
220
0.0
230
1.0
 70
    24
 71
     3
 72
    11
 73
     7
 74
     0
 42
0.00000001
 43
0.00000001
 40
0.0
 40
0.0
 40
0.0
 40
0.0
 40
0.2499999999999991
 40
0.4999999999999979
 40
0.7499999999999996
 40
1.0
 40
1.0
 40
1.0
 40
1.0
 10
97.5213265332975
 20
99.24414919800606
 30
0.0
 10
97.44309142496523
 20
99.2832667521722
 30
0.0
 10
97.28662120830069
 20
99.36150186050445
 30
0.0
 10
97.09329505688423
 20
99.45816493621268
 30
0.0
 10
96.95891862460527
 20
99.52535315235217
 30
0.0
 10
96.94153687621807
 20
99.53404402654577
 30
0.0
 10
96.93284600202446
 20
99.53838946364256
 30
0.0
  0
LINE
  5
F6
330
1F
100
AcDbEntity
  8
0
  6
Continuous
 62
     7
370
    25
100
AcDbLine
 10
96.932846002
 20
99.5383894636
 30
0.0
 11
92.3538958589
 21
90.3804891773
 31
0.0
  0
LINE
  5
F7
330
1F
100
AcDbEntity
  8
0
  6
Continuous
 62
     7
370
    25
100
AcDbLine
 10
97.5100616449
 20
99.5122815643
 30
0.0
 11
97.1278490731
 21
99.8346378112
 31
0.0
  0
SPLINE
  5
F8
330
1F
100
AcDbEntity
  8
0
  6
Continuous
 62
     7
370
    25
100
AcDbSpline
210
0.0
220
0.0
230
1.0
 70
     8
 71
     3
 72
    12
 73
     8
 74
     0
 42
0.00000001
 43
0.00000001
 40
0.0
 40
0.0
 40
0.0
 40
0.0
 40
0.2198609600791294
 40
0.4397396970008148
 40
0.6583291451397767
 40
0.87912395168436
 40
1.0
 40
1.0
 40
1.0
 40
1.0
 10
97.64462908893343
 20
99.40166292932311
 30
0.0
 10
97.58471402620455
 20
99.452151145451
 30
0.0
 10
97.46487905631855
 20
99.55313165992794
 30
0.0
 10
97.30814406804402
 20
99.684794652878
 30
0.0
 10
97.19157574425788
 20
99.78235597565107
 30
0.0
 10
97.13531905246363
 20
99.82901536712777
 30
0.0
 10
97.12980118124734
 20
99.8331685141291
 30
0.0
 10
97.12784907307582
 20
99.8346378112332
 30
0.0
  0
SPLINE
  5
F9
330
1F
100
AcDbEntity
  8
0
  6
Continuous
 62
     7
370
    25
100
AcDbSpline
210
0.0
220
0.0
230
1.0
 70
     8
 71
     3
 72
    12
 73
     8
 74
     0
 42
0.00000001
 43
0.00000001
 40
0.0
 40
0.0
 40
0.0
 40
0.0
 40
0.2225634137435274
 40
0.446206317369568
 40
0.6680851268158019
 40
0.8917990985569294
 40
1.0
 40
1.0
 40
1.0
 40
1.0
 10
97.08507157565596
 20
99.7815118757132
 30
0.0
 10
97.09065814175847
 20
99.7760848030995
 30
0.0
 10
97.10185837024802
 20
99.76520433517206
 30
0.0
 10
97.1959091479351
 20
99.68991090415174
 30
0.0
 10
97.33540021133314
 20
99.58043235939843
 30
0.0
 10
97.48062431116946
 20
99.46771771885196
 30
0.0
 10
97.57254747989953
 20
99.39690026140774
 30
0.0
 10
97.60251350590096
 20
99.37381448444371
 30
0.0
  0
LINE
  5
FA
330
1F
100
AcDbEntity
  8
0
  6
Continuous
 62
     7
370
    25
100
AcDbLine
 10
97.4815433133
 20
99.4768642739
 30
0.0
 11
97.0850715757
 21
99.7815118757
 31
0.0
  0
ARC
  5
FB
330
1F
100
AcDbEntity
  8
0
  6
Continuous
 62
     7
370
    25
100
AcDbCircle
 10
98.2744867885
 20
98.8675690704
 30
0.0
 40
1.500000000000002
100
AcDbArc
 50
90.0
 51
139.8558773282
  0
ARC
  5
FC
330
1F
100
AcDbEntity
  8
0
  6
Continuous
 62
     7
370
    25
100
AcDbCircle
 10
98.2744867885
 20
98.8675690704
 30
0.0
 40
1.50000000000002
100
AcDbArc
 50
142.4614409777
 51
153.4349488229
  0
LINE
  5
FD
330
1F
100
AcDbEntity
  8
0
  6
Continuous
 62
     7
370
    25
100
AcDbLine
 10
92.2092392043
 20
90.0911758681
 30
0.0
 11
92.3538958589
 21
90.3804891773
 31
0.0
  0
ARC
  5
FE
330
1F
100
AcDbEntity
  8
0
  6
Continuous
 62
     7
370
    25
100
AcDbCircle
 10
92.6564527998
 20
89.8675690704
 30
0.0
 40
0.5000000000000023
100
AcDbArc
 50
153.4349488229
 51
270.0
  0
SPLINE
  5
FF
330
1F
100
AcDbEntity
  8
0
  6
Continuous
 62
     7
370
    25
100
AcDbSpline
210
0.0
220
0.0
230
1.0
 70
     8
 71
     3
 72
     9
 73
     5
 74
     0
 42
0.00000001
 43
0.00000001
 40
0.0
 40
0.0
 40
0.0
 40
0.0
 40
0.5600029565045499
 40
1.0
 40
1.0
 40
1.0
 40
1.0
 10
97.12784907307582
 20
99.8346378112332
 30
0.0
 10
97.1197013137227
 20
99.82485134907323
 30
0.0
 10
97.10515182026293
 20
99.80737561605025
 30
0.0
 10
97.0912071773224
 20
99.78941464838447
 30
0.0
 10
97.08507157565596
 20
99.7815118757132
 30
0.0
  0
LINE
  5
100
330
1F
100
AcDbEntity
  8
0
  6
Continuous
 62
     7
370
    25
100
AcDbLine
 10
139.2503919447
 20
89.7556446562
 30
0.0
 11
139.2525320599
 21
89.9791831097
 31
0.0
  0
SPLINE
  5
101
330
1F
100
AcDbEntity
  8
0
  6
Continuous
 62
     7
370
    25
100
AcDbSpline
210
0.0
220
0.0
230
1.0
 70
     8
 71
     3
 72
    10
 73
     6
 74
     0
 42
0.00000001
 43
0.00000001
 40
0.0
 40
0.0
 40
0.0
 40
0.0
 40
0.3536466237081646
 40
0.7182931081305524
 40
1.0
 40
1.0
 40
1.0
 40
1.0
 10
139.4016799085636
 20
87.80937600967837
 30
0.0
 10
139.3641728742544
 20
87.36583835955982
 30
0.0
 10
139.2879921830088
 20
86.46496721893926
 30
0.0
 10
139.326428585622
 20
85.086957924128
 30
0.0
 10
139.389410704955
 20
84.16892389282312
 30
0.0
 10
139.4168608548752
 20
83.76880760492969
 30
0.0
  0
LINE
  5
102
330
1F
100
AcDbEntity
  8
0
  6
Continuous
 62
     7
370
    25
100
AcDbLine
 10
139.2503919447
 20
89.7556446562
 30
0.0
 11
139.4016799086
 21
87.8093760097
 31
0.0
  0
LINE
  5
103
330
1F
100
AcDbEntity
  8
0
  6
Continuous
 62
     7
370
    25
100
AcDbLine
 10
139.4764527998
 20
81.6675690704
 30
0.0
 11
139.5378075926
 21
81.6675690704
 31
0.0
  0
LWPOLYLINE
  5
104
330
1F
100
AcDbEntity
  8
0
  6
Continuous
 62
     7
370
    25
100
AcDbPolyline
 90
        3
 70
   128
 43
0.0
 10
139.6738201351
 20
80.3178172109
 10
139.6325213629
 20
80.7276183555
 10
139.5378075926
 20
81.6675690704
  0
SPLINE
  5
105
330
1F
100
AcDbEntity
  8
0
  6
Continuous
 62
     7
370
    25
100
AcDbSpline
210
0.0
220
0.0
230
1.0
 70
     8
 71
     3
 72
    11
 73
     7
 74
     0
 42
0.00000001
 43
0.00000001
 40
0.0
 40
0.0
 40
0.0
 40
0.0
 40
0.2920574028183094
 40
0.5665622171831318
 40
0.8065682389915578
 40
1.0
 40
1.0
 40
1.0
 40
1.0
 10
139.5402471927211
 20
95.86756907039265
 30
0.0
 10
139.5719077290366
 20
95.85073727434394
 30
0.0
 10
139.6333260100972
 20
95.81808526964726
 30
0.0
 10
139.7132383693618
 20
95.56269338260628
 30
0.0
 10
139.7523371830893
 20
95.22697046603163
 30
0.0
 10
139.7369208201597
 20
94.97846877121054
 30
0.0
 10
139.7300409071755
 20
94.86756907038053
 30
0.0
  0
LINE
  5
106
330
1F
100
AcDbEntity
  8
0
  6
Continuous
 62
     7
370
    25
100
AcDbLine
 10
139.7300409072
 20
94.8675690704
 30
0.0
 11
139.2525320599
 21
89.9791831097
 31
0.0
  0
LINE
  5
107
330
1F
100
AcDbEntity
  8
0
  6
Continuous
 62
     7
370
    25
100
AcDbLine
 10
140.097843909
 20
97.8675690704
 30
0.0
 11
155.2150616905
 21
97.8675690704
 31
0.0
  0
LINE
  5
108
330
1F
100
AcDbEntity
  8
0
  6
Continuous
 62
     7
370
    25
100
AcDbLine
 10
155.2039590187
 20
79.8675690704
 30
0.0
 11
140.1754869447
 21
79.8675690704
 31
0.0
  0
SPLINE
  5
109
330
1F
100
AcDbEntity
  8
0
  6
Continuous
 62
     7
370
    25
100
AcDbSpline
210
0.0
220
0.0
230
1.0
 70
     8
 71
     3
 72
    12
 73
     8
 74
     0
 42
0.00000001
 43
0.00000001
 40
0.0
 40
0.0
 40
0.0
 40
0.0
 40
0.2316347876629375
 40
0.46330664808196
 40
0.6939442291381526
 40
0.9227406525226395
 40
1.0
 40
1.0
 40
1.0
 40
1.0
 10
140.1754869446861
 20
79.8675690703926
 30
0.0
 10
140.1184336270373
 20
79.87315853542289
 30
0.0
 10
140.0043178604528
 20
79.88433836006786
 30
0.0
 10
139.8524645299748
 20
79.97166142602352
 30
0.0
 10
139.7382971470909
 20
80.09997159980557
 30
0.0
 10
139.6865428147236
 20
80.2246510265034
 30
0.0
 10
139.6763844637365
 20
80.29903903525668
 30
0.0
 10
139.6738201351291
 20
80.31781721088211
 30
0.0
  0
SPLINE
  5
10A
330
1F
100
AcDbEntity
  8
0
  6
Continuous
 62
     7
370
    25
100
AcDbSpline
210
0.0
220
0.0
230
1.0
 70
     8
 71
     3
 72
     9
 73
     5
 74
     0
 42
0.00000001
 43
0.00000001
 40
0.0
 40
0.0
 40
0.0
 40
0.0
 40
0.4474581094010271
 40
1.0
 40
1.0
 40
1.0
 40
1.0
 10
137.6564527997745
 20
85.3998808895697
 30
0.0
 10
137.9301034014528
 20
85.17194794620279
 30
0.0
 10
138.5416703748274
 20
84.6625529021125
 30
0.0
 10
139.1053849421104
 20
84.0868870842723
 30
0.0
 10
139.4168608548752
 20
83.76880760492969
 30
0.0
  0
SPLINE
  5
10B
330
1F
100
AcDbEntity
  8
0
  6
Continuous
 62
     7
370
    25
100
AcDbSpline
210
0.0
220
0.0
230
1.0
 70
     8
 71
     3
 72
     9
 73
     5
 74
     0
 42
0.00000001
 43
0.00000001
 40
0.0
 40
0.0
 40
0.0
 40
0.0
 40
0.7210175706402088
 40
0.9999999999999999
 40
0.9999999999999999
 40
0.9999999999999999
 40
0.9999999999999999
 10
138.0003812554719
 20
89.5653692066275
 30
0.0
 10
137.9314480364757
 20
89.6286200195368
 30
0.0
 10
137.8358425730262
 20
89.71634439059913
 30
0.0
 10
137.6955828093784
 20
89.76115357694307
 30
0.0
 10
137.6564527997745
 20
89.77365455260696
 30
0.0
  0
ARC
  5
10C
330
1F
100
AcDbEntity
  8
0
  6
Continuous
 62
     7
370
    25
100
AcDbCircle
 10
130.9342264609
 20
82.4893917887
 30
0.0
 40
10.00000000000001
100
AcDbArc
 50
32.1405798582
 51
45.0397956095
  0
LINE
  5
10D
330
1F
100
AcDbEntity
  8
0
  6
Continuous
 62
     7
370
    25
100
AcDbLine
 10
138.0003812555
 20
94.8675690704
 30
0.0
 11
138.0003812555
 21
89.5653692066
 31
0.0
  0
LINE
  5
10E
330
1F
100
AcDbEntity
  8
0
  6
Continuous
 62
     7
370
    25
100
AcDbLine
 10
139.7300409072
 20
94.8675690704
 30
0.0
 11
138.0003812555
 21
94.8675690704
 31
0.0
  0
LINE
  5
10F
330
1F
100
AcDbEntity
  8
0
  6
Continuous
 62
     7
370
    25
100
AcDbLine
 10
137.6564527998
 20
95.8675690704
 30
0.0
 11
139.5402471927
 21
95.8675690704
 31
0.0
  0
ARC
  5
110
330
1F
100
AcDbEntity
  8
0
  6
Continuous
 62
     7
370
    25
100
AcDbCircle
 10
100.0439121254
 20
102.5769142915
 30
0.0
 40
4.021945305515589
100
AcDbArc
 50
230.4243196696
 51
233.1058614851
  0
LINE
  5
111
330
1F
100
AcDbEntity
  8
0
  6
Continuous
 62
     7
370
    25
100
AcDbLine
 10
139.4064527998
 20
73.4175690704
 30
0.0
 11
155.9064527998
 21
73.4175690704
 31
0.0
  0
LINE
  5
112
330
1F
100
AcDbEntity
  8
0
  6
Continuous
 62
     7
370
    25
100
AcDbLine
 10
147.593569935
 20
97.9555114058
 30
0.0
 11
147.593569935
 21
97.9674619677
 31
0.0
  0
LINE
  5
113
330
1F
100
AcDbEntity
  8
0
  6
Continuous
 62
     7
370
    25
100
AcDbLine
 10
147.7193356646
 20
97.9555114058
 30
0.0
 11
147.7193356646
 21
97.9674619677
 31
0.0
  0
LINE
  5
114
330
1F
100
AcDbEntity
  8
0
  6
Continuous
 62
     7
370
    25
100
AcDbLine
 10
139.2525320599
 20
89.9791831097
 30
0.0
 11
156.6425010449
 21
89.9791831098
 31
0.0
  0
LINE
  5
115
330
1F
100
AcDbEntity
  8
0
  6
Continuous
 62
     7
370
    25
100
AcDbLine
 10
156.6452603583
 20
89.7556446562
 30
0.0
 11
139.2503919447
 21
89.7556446562
 31
0.0
  0
LINE
  5
116
330
1F
100
AcDbEntity
  8
0
  6
Continuous
 62
     7
370
    25
100
AcDbLine
 10
139.6738201351
 20
80.3178172109
 30
0.0
 11
155.7014776138
 21
80.3178172109
 31
0.0
  0
LINE
  5
117
330
1F
100
AcDbEntity
  8
0
  6
Continuous
 62
     7
370
    25
100
AcDbLine
 10
155.7112006289
 20
97.4295864377
 30
0.0
 11
139.6017049707
 21
97.4295864377
 31
0.0
  0
LINE
  5
118
330
1F
100
AcDbEntity
  8
0
  6
Continuous
 62
     7
370
    25
100
AcDbLine
 10
137.6564527998
 20
94.8675690704
 30
0.0
 11
138.0003812555
 21
94.8675690704
 31
0.0
  0
ARC
  5
119
330
1F
100
AcDbEntity
  8
0
  6
Continuous
 62
     7
370
    25
100
AcDbCircle
 10
136.8945075366
 20
94.9222336535
 30
0.0
 40
1.107223960533115
100
AcDbArc
 50
357.1701084939
 51
46.5155082001
  0
LINE
  5
11A
330
1F
100
AcDbEntity
  8
0
  6
Continuous
 62
     7
370
    25
100
AcDbLine
 10
97.4074558586
 20
90.8852906743
 30
0.0
 11
97.629383295
 21
99.3603575459
 31
0.0
  0
LINE
  5
11B
330
1F
100
AcDbEntity
  8
0
  6
Continuous
 62
     7
370
    18
100
AcDbLine
 10
160.6564527998
 20
50.8989440704
 30
0.0
 11
174.120928681
 21
51.3197089417
 31
0.0
  0
LINE
  5
11C
330
1F
100
AcDbEntity
  8
0
  6
Continuous
 62
     7
370
    18
100
AcDbLine
 10
174.120928681
 20
70.0154291991
 30
0.0
 11
160.6564527998
 21
70.4361940704
 31
0.0
  0
LINE
  5
11D
330
1F
100
AcDbEntity
  8
0
  6
Continuous
 62
     7
370
    18
100
AcDbLine
 10
129.1564527998
 20
69.9830690704
 30
0.0
 11
119.6564527998
 21
69.9830690704
 31
0.0
  0
LINE
  5
11E
330
1F
100
AcDbEntity
  8
0
  6
Continuous
 62
     7
370
    18
100
AcDbLine
 10
119.6564527998
 20
51.3520690704
 30
0.0
 11
129.1564527998
 21
51.3520690704
 31
0.0
  0
LINE
  5
11F
330
1F
100
AcDbEntity
  8
0
  6
Continuous
 62
     7
370
    18
100
AcDbLine
 10
129.1564527998
 20
67.5266993665
 30
0.0
 11
129.1564527998
 21
66.8302560327
 31
0.0
  0
LINE
  5
120
330
1F
100
AcDbEntity
  8
0
  6
Continuous
 62
     7
370
    25
100
AcDbLine
 10
129.1564527998
 20
70.1450690704
 30
0.0
 11
129.1564527998
 21
70.0931503337
 31
0.0
  0
SPLINE
  5
121
330
1F
100
AcDbEntity
  8
0
  6
Continuous
 62
     7
370
     0
100
AcDbSpline
210
0.0
220
0.0
230
1.0
 70
     8
 71
     3
 72
    29
 73
    25
 74
     0
 42
0.00000001
 43
0.00000001
 40
0.0
 40
0.0
 40
0.0
 40
0.0
 40
0.0456555699421963
 40
0.09131113963601
 40
0.136966709329824
 40
0.1826222790236379
 40
0.2282778487174512
 40
0.2739334184112653
 40
0.3195889881050792
 40
0.3652445577988928
 40
0.4109001274927068
 40
0.4565556971865203
 40
0.5022112668803342
 40
0.547866836574148
 40
0.5935224062679617
 40
0.6391779759617754
 40
0.6848335456555894
 40
0.730489115349403
 40
0.7761446850432168
 40
0.8218002547370306
 40
0.8674558244308443
 40
0.9131113941246581
 40
0.9587669638184718
 40
1.0
 40
1.0
 40
1.0
 40
1.0
 10
129.1563510894775
 20
66.83025603268648
 30
0.0
 10
129.1564527997745
 20
66.06629301089448
 30
0.0
 10
129.1564527997745
 20
65.24318043985473
 30
0.0
 10
129.1564527997745
 20
64.36993651314289
 30
0.0
 10
129.1564527997745
 20
63.4561286739581
 30
0.0
 10
129.1564527997745
 20
62.51176879221304
 30
0.0
 10
129.1564527997745
 20
61.5472034723921
 30
0.0
 10
129.1564527997745
 20
60.57300069398752
 30
0.0
 10
129.1564527997745
 20
59.59983402650455
 30
0.0
 10
129.1564527997745
 20
58.63836568760033
 30
0.0
 10
129.1564527997745
 20
57.69912972559611
 30
0.0
 10
129.1564527997745
 20
56.79241660623933
 30
0.0
 10
129.1564527997745
 20
55.9281604682076
 30
0.0
 10
129.1564527997745
 20
55.11583028260643
 30
0.0
 10
129.1564527997745
 20
54.36432610894027
 30
0.0
 10
129.1564527997745
 20
53.68188158419817
 30
0.0
 10
129.1564527997745
 20
53.07597371340391
 30
0.0
 10
129.1564527997745
 20
52.55324094998427
 30
0.0
 10
129.1564527997745
 20
52.11941046348416
 30
0.0
 10
129.1564527997745
 20
51.77923539149852
 30
0.0
 10
129.1564527997745
 20
51.53644276330225
 30
0.0
 10
129.1564527997745
 20
51.39369266573748
 30
0.0
 10
129.1564527997745
 20
51.35206907039261
 30
0.0
 10
129.1564527997745
 20
51.36014897615956
 30
0.0
 10
129.1564527997745
 20
51.35206907039261
 30
0.0
  0
SPLINE
  5
122
330
1F
100
AcDbEntity
  8
0
  6
Continuous
 62
     7
370
     0
100
AcDbSpline
210
0.0
220
0.0
230
1.0
 70
     8
 71
     3
 72
    15
 73
    11
 74
     0
 42
0.00000001
 43
0.00000001
 40
0.0
 40
0.0
 40
0.0
 40
0.0
 40
0.0136659999084501
 40
0.1545708570643884
 40
0.2954757142203269
 40
0.4363805713762649
 40
0.5772854285322035
 40
0.7181902856881415
 40
0.8590951428440802
 40
1.0
 40
1.0
 40
1.0
 40
1.0
 10
129.1563510894775
 20
69.98306907039262
 30
0.0
 10
129.1564527997745
 20
69.98258904203969
 30
0.0
 10
129.1564527997745
 20
69.92167530092904
 30
0.0
 10
129.1564527997745
 20
69.75937163541039
 30
0.0
 10
129.1564527997745
 20
69.49745627840743
 30
0.0
 10
129.1564527997745
 20
69.13879882938073
 30
0.0
 10
129.1564527997745
 20
68.6873288143958
 30
0.0
 10
129.1564527997745
 20
68.14799263341293
 30
0.0
 10
129.1564527997745
 20
67.52669936649444
 30
0.0
 10
129.1564528621227
 20
67.7394794565222
 30
0.0
 10
129.1564527997745
 20
67.52669936649446
 30
0.0
  0
SPLINE
  5
123
330
1F
100
AcDbEntity
  8
0
  6
Continuous
 62
     7
370
     0
100
AcDbSpline
210
0.0
220
0.0
230
1.0
 70
     8
 71
     3
 72
    36
 73
    32
 74
     0
 42
0.00000001
 43
0.00000001
 40
0.0
 40
0.0
 40
0.0
 40
0.0
 40
0.03448275879568
 40
0.06896551741012
 40
0.1034482760245599
 40
0.1379310346389999
 40
0.1724137932534401
 40
0.20689655186788
 40
0.2413793104823199
 40
0.2758620690967601
 40
0.3103448277111999
 40
0.3448275863256399
 40
0.3793103449400802
 40
0.4137931035545199
 40
0.4482758621689601
 40
0.4827586207834
 40
0.51724137939784
 40
0.55172413801228
 40
0.58620689662672
 40
0.62068965524116
 40
0.6551724138556
 40
0.6896551724700399
 40
0.7241379310844801
 40
0.75862068969892
 40
0.7931034483133601
 40
0.8275862069278
 40
0.8620689655422401
 40
0.89655172415668
 40
0.93103448277112
 40
0.9655172413855599
 40
1.0
 40
1.0
 40
1.0
 40
1.0
 10
129.1563510894775
 20
70.09315033374541
 30
0.0
 10
129.1564527997745
 20
69.93796295634725
 30
0.0
 10
129.1564527997745
 20
69.68120720357992
 30
0.0
 10
129.1564527997745
 20
69.32569614520034
 30
0.0
 10
129.1564527997745
 20
68.87532483475961
 30
0.0
 10
129.1564527997745
 20
68.33502763458114
 30
0.0
 10
129.1564527997745
 20
67.71072415385458
 30
0.0
 10
129.1564527997745
 20
67.00925439215865
 30
0.0
 10
129.1564527997745
 20
66.23830379899448
 30
0.0
 10
129.1564527997745
 20
65.40631907039257
 30
0.0
 10
129.1564527997745
 20
64.52241560514346
 30
0.0
 10
129.1564527997745
 20
63.59627763458111
 30
0.0
 10
129.1564527997745
 20
62.63805212011788
 30
0.0
 10
129.1564527997745
 20
61.65823758101174
 30
0.0
 10
129.1564527997745
 20
60.66756907039255
 30
0.0
 10
129.1564527997745
 20
59.67690055977337
 30
0.0
 10
129.1564527997745
 20
58.69708602066724
 30
0.0
 10
129.1564527997745
 20
57.73886050620398
 30
0.0
 10
129.1564527997745
 20
56.81272253564165
 30
0.0
 10
129.1564527997745
 20
55.92881907039255
 30
0.0
 10
129.1564527997745
 20
55.09683434179064
 30
0.0
 10
129.1564527997745
 20
54.32588374862648
 30
0.0
 10
129.1564527997745
 20
53.62441398693056
 30
0.0
 10
129.1564527997745
 20
53.000110506204
 30
0.0
 10
129.1564527997745
 20
52.45981330602556
 30
0.0
 10
129.1564527997745
 20
52.00944199558484
 30
0.0
 10
129.1564527997745
 20
51.65393093720527
 30
0.0
 10
129.1564527997745
 20
51.39717518443796
 30
0.0
 10
129.1564527997745
 20
51.2419878070398
 30
0.0
 10
129.1564527997745
 20
51.19006907039262
 30
0.0
 10
129.1564527997745
 20
51.2000791146089
 30
0.0
 10
129.1564527997745
 20
51.19006907039262
 30
0.0
  0
LINE
  5
124
330
1F
100
AcDbEntity
  8
0
  6
CENTERX2
 62
     7
370
    18
100
AcDbLine
 10
147.6564527998
 20
45.3867972074
 30
0.0
 11
147.6564527998
 21
100.7812204038
 31
0.0
  0
LINE
  5
125
330
1F
100
AcDbEntity
  8
0
  6
CENTERX2
 62
     7
370
    18
100
AcDbLine
 10
177.4437543397
 20
60.6675690704
 30
0.0
 11
117.3379497889
 21
60.6675690704
 31
0.0
  0
ARC
  5
126
330
1F
100
AcDbEntity
  8
0
  6
Continuous
 62
     7
370
    25
100
AcDbCircle
 10
230.4970844818
 20
73.4175690704
 30
0.0
 40
0.25
100
AcDbArc
 50
180.0
 51
270.0
  0
ARC
  5
127
330
1F
100
AcDbEntity
  8
0
  6
Continuous
 62
     7
370
    25
100
AcDbCircle
 10
213.4970844818
 20
73.4175690704
 30
0.0
 40
0.25
100
AcDbArc
 50
270.0
 51
0.0
  0
LINE
  5
128
330
1F
100
AcDbEntity
  8
0
  6
Continuous
 62
     7
370
    25
100
AcDbLine
 10
230.2470844818
 20
78.8675690704
 30
0.0
 11
229.7470844818
 21
79.3675690704
 31
0.0
  0
LINE
  5
129
330
1F
100
AcDbEntity
  8
0
  6
Continuous
 62
     7
370
    25
100
AcDbLine
 10
214.2470844818
 20
79.3675690704
 30
0.0
 11
213.7470844818
 21
78.8675690704
 31
0.0
  0
LINE
  5
12A
330
1F
100
AcDbEntity
  8
0
  6
Continuous
 62
     7
370
    25
100
AcDbLine
 10
230.2470844818
 20
73.4175690704
 30
0.0
 11
230.2470844818
 21
78.8675690704
 31
0.0
  0
LINE
  5
12B
330
1F
100
AcDbEntity
  8
0
  6
Continuous
 62
     7
370
    25
100
AcDbLine
 10
213.7470844818
 20
78.8675690704
 30
0.0
 11
213.7470844818
 21
73.4175690704
 31
0.0
  0
LINE
  5
12C
330
1F
100
AcDbEntity
  8
0
  6
Continuous
 62
     7
370
    25
100
AcDbLine
 10
216.9970844818
 20
81.6675690704
 30
0.0
 11
216.9970844818
 21
79.3675690704
 31
0.0
  0
LINE
  5
12D
330
1F
100
AcDbEntity
  8
0
  6
Continuous
 62
     7
370
    25
100
AcDbLine
 10
226.9970844818
 20
79.3675690704
 30
0.0
 11
226.9970844818
 21
79.8675690704
 31
0.0
  0
SPLINE
  5
12E
330
1F
100
AcDbEntity
  8
0
  6
Continuous
 62
     7
370
    25
100
AcDbSpline
210
0.0
220
0.0
230
1.0
 70
     8
 71
     3
 72
     9
 73
     5
 74
     0
 42
0.00000001
 43
0.00000001
 40
0.0
 40
0.0
 40
0.0
 40
0.0
 40
0.4993165458323629
 40
1.0
 40
1.0
 40
1.0
 40
1.0
 10
223.0063772767191
 20
100.3551364991443
 30
0.0
 10
222.9832466590719
 20
100.358487534792
 30
0.0
 10
222.9369221023547
 20
100.3651987797439
 30
0.0
 10
222.8903627092265
 20
100.3608716104382
 30
0.0
 10
222.867051191451
 20
100.3587050683635
 30
0.0
  0
SPLINE
  5
12F
330
1F
100
AcDbEntity
  8
0
  6
Continuous
 62
     7
370
    25
100
AcDbSpline
210
0.0
220
0.0
230
1.0
 70
     8
 71
     3
 72
     9
 73
     5
 74
     0
 42
0.00000001
 43
0.00000001
 40
0.0
 40
0.0
 40
0.0
 40
0.0
 40
0.5006834545219033
 40
1.0
 40
1.0
 40
1.0
 40
1.0
 10
221.1271177195709
 20
100.3587050682911
 30
0.0
 10
221.1038062049199
 20
100.3608716089564
 30
0.0
 10
221.0572468180649
 20
100.3651987754439
 30
0.0
 10
221.0109222678083
 20
100.3584875290893
 30
0.0
 10
220.9877916534034
 20
100.3551364927436
 30
0.0
  0
LINE
  5
130
330
1F
100
AcDbEntity
  8
0
  6
Continuous
 62
     7
370
    25
100
AcDbLine
 10
219.5212299635
 20
99.6996194599
 30
0.0
 11
219.3904526089
 21
96.8463579698
 31
0.0
  0
LINE
  5
131
330
1F
100
AcDbEntity
  8
0
  6
Continuous
 62
     7
370
    25
100
AcDbLine
 10
224.6037163548
 20
96.8463579698
 30
0.0
 11
224.4729390001
 21
99.6996194599
 31
0.0
  0
LINE
  5
132
330
1F
100
AcDbEntity
  8
0
  6
Continuous
 62
     7
370
    25
100
AcDbLine
 10
220.0441105016
 20
100.3447203509
 30
0.0
 11
219.9956795586
 21
100.3235158368
 31
0.0
  0
SPLINE
  5
133
330
1F
100
AcDbEntity
  8
0
  6
Continuous
 62
     7
370
    25
100
AcDbSpline
210
0.0
220
0.0
230
1.0
 70
     8
 71
     3
 72
     9
 73
     5
 74
     0
 42
0.00000001
 43
0.00000001
 40
0.0
 40
0.0
 40
0.0
 40
0.0
 40
0.0503631419175414
 40
1.0
 40
1.0
 40
1.0
 40
1.0
 10
219.5775922875886
 20
99.93812762833342
 30
0.0
 10
219.5756962069945
 20
99.93495757096942
 30
0.0
 10
219.5380480277522
 20
99.87201357575177
 30
0.0
 10
219.5315075847369
 20
99.79686597705786
 30
0.0
 10
219.5252965389814
 20
99.72550304754174
 30
0.0
  0
SPLINE
  5
134
330
1F
100
AcDbEntity
  8
0
  6
Continuous
 62
     7
370
    25
100
AcDbSpline
210
0.0
220
0.0
230
1.0
 70
     8
 71
     3
 72
    11
 73
     7
 74
     0
 42
0.00000001
 43
0.00000001
 40
0.0
 40
0.0
 40
0.0
 40
0.0
 40
0.2436788845968631
 40
0.491588446668192
 40
0.7437897073051962
 40
0.9999999999999999
 40
0.9999999999999999
 40
0.9999999999999999
 40
0.9999999999999999
 10
224.4688724246582
 20
99.72550304754174
 30
0.0
 10
224.4575684678297
 20
99.79462239943857
 30
0.0
 10
224.4347642983683
 20
99.93406113205545
 30
0.0
 10
224.3215994994638
 20
100.1187150245954
 30
0.0
 10
224.1593159066535
 20
100.2693435304046
 30
0.0
 10
224.020176666735
 20
100.3194630065674
 30
0.0
 10
223.9500584620026
 20
100.3447203508847
 30
0.0
  0
SPLINE
  5
135
330
1F
100
AcDbEntity
  8
0
  6
Continuous
 62
     7
370
    25
100
AcDbSpline
210
0.0
220
0.0
230
1.0
 70
     8
 71
     3
 72
    10
 73
     6
 74
     0
 42
0.00000001
 43
0.00000001
 40
0.0
 40
0.0
 40
0.0
 40
0.0
 40
0.2663464296502981
 40
0.5214744039517447
 40
1.0
 40
1.0
 40
1.0
 40
1.0
 10
224.9518516787347
 20
96.3908148484589
 30
0.0
 10
224.9066702148182
 20
96.40980091419843
 30
0.0
 10
224.8182103207003
 20
96.44697335659949
 30
0.0
 10
224.6716259813008
 20
96.5765404747154
 30
0.0
 10
224.6176018645237
 20
96.70701986615828
 30
0.0
 10
224.5823646303216
 20
96.79212505897081
 30
0.0
  0
SPLINE
  5
136
330
1F
100
AcDbEntity
  8
0
  6
Continuous
 62
     7
370
    25
100
AcDbSpline
210
0.0
220
0.0
230
1.0
 70
     8
 71
     3
 72
    10
 73
     6
 74
     0
 42
0.00000001
 43
0.00000001
 40
0.0
 40
0.0
 40
0.0
 40
0.0
 40
0.4785255960482541
 40
0.7336535703497082
 40
1.0
 40
1.0
 40
1.0
 40
1.0
 10
219.411804333318
 20
96.79212505897078
 30
0.0
 10
219.3765670991158
 20
96.70701986615826
 30
0.0
 10
219.3225429823387
 20
96.5765404747154
 30
0.0
 10
219.1759586429392
 20
96.44697335659946
 30
0.0
 10
219.0874987488214
 20
96.40980091419843
 30
0.0
 10
219.0423172849048
 20
96.3908148484589
 30
0.0
  0
ARC
  5
137
330
1F
100
AcDbEntity
  8
0
  6
Continuous
 62
     7
370
    25
100
AcDbCircle
 10
218.2703460576
 20
94.8675690704
 30
0.0
 40
1.5
100
AcDbArc
 50
90.0
 51
180.0
  0
LINE
  5
138
330
1F
100
AcDbEntity
  8
0
  6
Continuous
 62
     7
370
    25
100
AcDbLine
 10
216.7703460576
 20
94.8675690704
 30
0.0
 11
216.7703460576
 21
89.6146144382
 31
0.0
  0
ARC
  5
139
330
1F
100
AcDbEntity
  8
0
  6
Continuous
 62
     7
370
    25
100
AcDbCircle
 10
225.723822906
 20
94.8675690704
 30
0.0
 40
1.5
100
AcDbArc
 50
0.0
 51
90.0
  0
LINE
  5
13A
330
1F
100
AcDbEntity
  8
0
  6
Continuous
 62
     7
370
    25
100
AcDbLine
 10
227.223822906
 20
89.6146144382
 30
0.0
 11
227.223822906
 21
94.8675690704
 31
0.0
  0
LINE
  5
13B
330
1F
100
AcDbEntity
  8
0
  6
Continuous
 62
     7
370
    25
100
AcDbLine
 10
213.0082769232
 20
89.7556446561
 30
0.0
 11
213.8170844818
 21
81.6675690704
 31
0.0
  0
LINE
  5
13C
330
1F
100
AcDbEntity
  8
0
  6
Continuous
 62
     7
370
    25
100
AcDbLine
 10
230.0421092959
 20
80.3178172109
 30
0.0
 11
230.9858920404
 21
89.7556446561
 31
0.0
  0
ARC
  5
13D
330
1F
100
AcDbEntity
  8
0
  6
Continuous
 62
     7
370
    25
100
AcDbCircle
 10
229.9908548502
 20
89.8551483752
 30
0.0
 40
0.9999999999999971
100
AcDbArc
 50
354.2894068625
 51
7.1250163489
  0
ARC
  5
13E
330
1F
100
AcDbEntity
  8
0
  6
Continuous
 62
     7
370
    25
100
AcDbCircle
 10
214.0033141135
 20
89.8551483752
 30
0.0
 40
1.000000000000003
100
AcDbArc
 50
172.8749836511
 51
185.7105931375
  0
LINE
  5
13F
330
1F
100
AcDbEntity
  8
0
  6
Continuous
 62
     7
370
    25
100
AcDbLine
 10
230.9831327269
 20
89.9791831097
 30
0.0
 11
230.0518323109
 21
97.4295864377
 31
0.0
  0
LINE
  5
140
330
1F
100
AcDbEntity
  8
0
  6
Continuous
 62
     7
370
    25
100
AcDbLine
 10
213.9423366527
 20
97.4295864377
 30
0.0
 11
213.0110362367
 21
89.9791831097
 31
0.0
  0
ARC
  5
141
330
1F
100
AcDbEntity
  8
0
  6
Continuous
 62
     7
370
    25
100
AcDbCircle
 10
214.4384755911
 20
97.3675690704
 30
0.0
 40
0.5
100
AcDbArc
 50
90.0
 51
172.8749836511
  0
ARC
  5
142
330
1F
100
AcDbEntity
  8
0
  6
Continuous
 62
     7
370
    25
100
AcDbCircle
 10
229.5556933726
 20
97.3675690704
 30
0.0
 40
0.5000000000000017
100
AcDbArc
 50
7.1250163489
 51
90.0
  0
ARC
  5
143
330
1F
100
AcDbEntity
  8
0
  6
Continuous
 62
     7
370
    25
100
AcDbCircle
 10
229.5445907008
 20
80.3675690704
 30
0.0
 40
0.5000000000000254
100
AcDbArc
 50
270.0
 51
354.2894068625
  0
ARC
  5
144
330
1F
100
AcDbEntity
  8
0
  6
Continuous
 62
     7
370
    25
100
AcDbCircle
 10
221.1970844818
 20
81.1675690704
 30
0.0
 40
0.2000000000000028
100
AcDbArc
 50
90.0
 51
180.0
  0
ARC
  5
145
330
1F
100
AcDbEntity
  8
0
  6
Continuous
 62
     7
370
    25
100
AcDbCircle
 10
222.7970844818
 20
81.1675690704
 30
0.0
 40
0.2000000000000171
100
AcDbArc
 50
0.0
 51
90.0
  0
LINE
  5
146
330
1F
100
AcDbEntity
  8
0
  6
Continuous
 62
     7
370
    25
100
AcDbLine
 10
222.9970844818
 20
79.3675690704
 30
0.0
 11
222.9970844818
 21
79.8387779168
 31
0.0
  0
LINE
  5
147
330
1F
100
AcDbEntity
  8
0
  6
Continuous
 62
     7
370
    25
100
AcDbLine
 10
220.9970844818
 20
81.1675690704
 30
0.0
 11
220.9970844818
 21
79.3675690704
 31
0.0
  0
CIRCLE
  5
148
330
1F
100
AcDbEntity
  8
0
  6
Continuous
 62
     7
370
    25
100
AcDbCircle
 10
221.9970844818
 20
60.6675690704
 30
0.0
 40
9.477500000000003
  0
CIRCLE
  5
149
330
1F
100
AcDbEntity
  8
0
  6
Continuous
 62
     7
370
    25
100
AcDbCircle
 10
221.9970844818
 20
60.6675690704
 30
0.0
 40
10.4775
  0
CIRCLE
  5
14A
330
1F
100
AcDbEntity
  8
0
  6
Continuous
 62
     7
370
    25
100
AcDbCircle
 10
221.9970844818
 20
60.6675690704
 30
0.0
 40
7.749999999999983
  0
CIRCLE
  5
14B
330
1F
100
AcDbEntity
  8
0
  6
Continuous
 62
     7
370
    25
100
AcDbCircle
 10
221.9970844818
 20
60.6675690704
 30
0.0
 40
6.50000000000001
  0
CIRCLE
  5
14C
330
1F
100
AcDbEntity
  8
0
  6
Continuous
 62
     7
370
    25
100
AcDbCircle
 10
221.9970844818
 20
60.6675690704
 30
0.0
 40
5.000000000000009
  0
CIRCLE
  5
14D
330
1F
100
AcDbEntity
  8
0
  6
Continuous
 62
     7
370
    25
100
AcDbCircle
 10
221.9970844818
 20
60.6675690704
 30
0.0
 40
11.75000000000001
  0
CIRCLE
  5
14E
330
1F
100
AcDbEntity
  8
0
  6
Continuous
 62
     7
370
    25
100
AcDbCircle
 10
221.9970844818
 20
60.6675690704
 30
0.0
 40
12.00000000000001
  0
ARC
  5
14F
330
1F
100
AcDbEntity
  8
0
  6
Continuous
 62
     7
370
    25
100
AcDbCircle
 10
221.9970844818
 20
60.6675690704
 30
0.0
 40
15.25
100
AcDbArc
 50
124.9480137199
 51
145.0519862801
  0
SPLINE
  5
150
330
1F
100
AcDbEntity
  8
0
  6
Continuous
 62
     7
370
    25
100
AcDbSpline
210
0.0
220
0.0
230
1.0
 70
    24
 71
     3
 72
    10
 73
     6
 74
     0
 42
0.00000001
 43
0.00000001
 40
0.0
 40
0.0
 40
0.0
 40
0.0
 40
0.5
 40
0.5
 40
1.0
 40
1.0
 40
1.0
 40
1.0
 10
213.2613818769917
 20
73.16756907039262
 30
0.0
 10
214.6734388079035
 20
73.16756907039262
 30
0.0
 10
216.1202217317813
 20
73.16756907039262
 30
0.0
 10
219.0335513782565
 20
73.16756907039262
 30
0.0
 10
220.5055098341125
 20
73.16756907039262
 30
0.0
 10
221.9970844818198
 20
73.16756907039262
 30
0.0
  0
ARC
  5
151
330
1F
100
AcDbEntity
  8
0
  6
Continuous
 62
     7
370
    25
100
AcDbCircle
 10
221.9970844818
 20
60.6675690704
 30
0.0
 40
12.50000000000003
100
AcDbArc
 50
90.0
 51
180.0
  0
SPLINE
  5
152
330
1F
100
AcDbEntity
  8
0
  6
Continuous
 62
     7
370
    25
100
AcDbSpline
210
0.0
220
0.0
230
1.0
 70
    24
 71
     3
 72
    12
 73
     8
 74
     0
 42
0.00000001
 43
0.00000001
 40
0.0
 40
0.0
 40
0.0
 40
0.0
 40
0.25
 40
0.25
 40
0.5
 40
0.5
 40
1.0
 40
1.0
 40
1.0
 40
1.0
 10
209.4970844818198
 20
60.66756907039262
 30
0.0
 10
209.4970844818198
 20
61.41291528266693
 30
0.0
 10
209.4970844818197
 20
62.16474213253596
 30
0.0
 10
209.4970844818198
 20
63.64544259371123
 30
0.0
 10
209.4970844818198
 20
64.37841419831327
 30
0.0
 10
209.4970844818197
 20
66.55895831926925
 30
0.0
 10
209.4970844818198
 20
67.98840191827847
 30
0.0
 10
209.4970844818198
 20
69.4032716752207
 30
0.0
  0
ARC
  5
153
330
1F
100
AcDbEntity
  8
0
  6
Continuous
 62
     7
370
    25
100
AcDbCircle
 10
221.9970844818
 20
60.6675690704
 30
0.0
 40
15.25000000000001
100
AcDbArc
 50
214.9480137199
 51
235.0519862801
  0
SPLINE
  5
154
330
1F
100
AcDbEntity
  8
0
  6
Continuous
 62
     7
370
    25
100
AcDbSpline
210
0.0
220
0.0
230
1.0
 70
    24
 71
     3
 72
    10
 73
     6
 74
     0
 42
0.00000001
 43
0.00000001
 40
0.0
 40
0.0
 40
0.0
 40
0.0
 40
0.4999999999999999
 40
0.4999999999999999
 40
1.0
 40
1.0
 40
1.0
 40
1.0
 10
209.4970844818197
 20
51.93186646556455
 30
0.0
 10
209.4970844818197
 20
53.34392339647633
 30
0.0
 10
209.4970844818197
 20
54.79070632035418
 30
0.0
 10
209.4970844818198
 20
57.70403596682937
 30
0.0
 10
209.4970844818198
 20
59.17599442268535
 30
0.0
 10
209.4970844818198
 20
60.66756907039262
 30
0.0
  0
ARC
  5
155
330
1F
100
AcDbEntity
  8
0
  6
Continuous
 62
     7
370
    25
100
AcDbCircle
 10
221.9970844818
 20
60.6675690704
 30
0.0
 40
12.50000000000003
100
AcDbArc
 50
180.0
 51
270.0
  0
SPLINE
  5
156
330
1F
100
AcDbEntity
  8
0
  6
Continuous
 62
     7
370
    25
100
AcDbSpline
210
0.0
220
0.0
230
1.0
 70
    24
 71
     3
 72
    10
 73
     6
 74
     0
 42
0.00000001
 43
0.00000001
 40
0.0
 40
0.0
 40
0.0
 40
0.0
 40
0.5
 40
0.5
 40
1.0
 40
1.0
 40
1.0
 40
1.0
 10
213.2613818769917
 20
48.16756907039262
 30
0.0
 10
214.6734388079031
 20
48.16756907039261
 30
0.0
 10
216.1202217317806
 20
48.16756907039261
 30
0.0
 10
219.0335513782558
 20
48.16756907039261
 30
0.0
 10
220.505509834112
 20
48.16756907039261
 30
0.0
 10
221.9970844818198
 20
48.16756907039261
 30
0.0
  0
ARC
  5
157
330
1F
100
AcDbEntity
  8
0
  6
Continuous
 62
     7
370
    25
100
AcDbCircle
 10
221.9970844818
 20
60.6675690704
 30
0.0
 40
12.5
100
AcDbArc
 50
0.0
 51
90.0
  0
ARC
  5
158
330
1F
100
AcDbEntity
  8
0
  6
Continuous
 62
     7
370
    25
100
AcDbCircle
 10
221.9970844818
 20
60.6675690704
 30
0.0
 40
12.50000000000001
100
AcDbArc
 50
270.0
 51
0.0
  0
ARC
  5
159
330
1F
100
AcDbEntity
  8
0
  6
Continuous
 62
     7
370
    25
100
AcDbCircle
 10
221.9970844818
 20
60.6675690704
 30
0.0
 40
15.25
100
AcDbArc
 50
34.9480137199
 51
55.0519862801
  0
SPLINE
  5
15A
330
1F
100
AcDbEntity
  8
0
  6
Continuous
 62
     7
370
    25
100
AcDbSpline
210
0.0
220
0.0
230
1.0
 70
    24
 71
     3
 72
    12
 73
     8
 74
     0
 42
0.00000001
 43
0.00000001
 40
0.0
 40
0.0
 40
0.0
 40
0.0
 40
0.2500000000000001
 40
0.2500000000000001
 40
0.5000000000000001
 40
0.5000000000000001
 40
1.0
 40
1.0
 40
1.0
 40
1.0
 10
234.4970844818198
 20
60.66756907039262
 30
0.0
 10
234.4970844818198
 20
61.41291528266693
 30
0.0
 10
234.4970844818198
 20
62.16474213253596
 30
0.0
 10
234.4970844818198
 20
63.64544259371123
 30
0.0
 10
234.4970844818198
 20
64.37841419831327
 30
0.0
 10
234.4970844818198
 20
66.55895831926925
 30
0.0
 10
234.4970844818198
 20
67.98840191827847
 30
0.0
 10
234.4970844818198
 20
69.4032716752207
 30
0.0
  0
SPLINE
  5
15B
330
1F
100
AcDbEntity
  8
0
  6
Continuous
 62
     7
370
    25
100
AcDbSpline
210
0.0
220
0.0
230
1.0
 70
    24
 71
     3
 72
    12
 73
     8
 74
     0
 42
0.00000001
 43
0.00000001
 40
0.0
 40
0.0
 40
0.0
 40
0.0
 40
0.2500000000000001
 40
0.2500000000000001
 40
0.5000000000000001
 40
0.5000000000000001
 40
1.0
 40
1.0
 40
1.0
 40
1.0
 10
221.9970844818198
 20
73.16756907039262
 30
0.0
 10
222.7424306940941
 20
73.16756907039262
 30
0.0
 10
223.4942575439631
 20
73.16756907039262
 30
0.0
 10
224.9749580051384
 20
73.16756907039262
 30
0.0
 10
225.7079296097404
 20
73.16756907039262
 30
0.0
 10
227.8884737306964
 20
73.16756907039262
 30
0.0
 10
229.3179173297056
 20
73.16756907039262
 30
0.0
 10
230.7327870866478
 20
73.16756907039262
 30
0.0
  0
SPLINE
  5
15C
330
1F
100
AcDbEntity
  8
0
  6
Continuous
 62
     7
370
    25
100
AcDbSpline
210
0.0
220
0.0
230
1.0
 70
    24
 71
     3
 72
    10
 73
     6
 74
     0
 42
0.00000001
 43
0.00000001
 40
0.0
 40
0.0
 40
0.0
 40
0.0
 40
0.5
 40
0.5
 40
1.0
 40
1.0
 40
1.0
 40
1.0
 10
234.4970844818198
 20
51.93186646556455
 30
0.0
 10
234.4970844818198
 20
53.34392339647633
 30
0.0
 10
234.4970844818198
 20
54.79070632035418
 30
0.0
 10
234.4970844818198
 20
57.70403596682937
 30
0.0
 10
234.4970844818198
 20
59.17599442268534
 30
0.0
 10
234.4970844818198
 20
60.66756907039262
 30
0.0
  0
ARC
  5
15D
330
1F
100
AcDbEntity
  8
0
  6
Continuous
 62
     7
370
    25
100
AcDbCircle
 10
221.9970844818
 20
60.6675690704
 30
0.0
 40
15.25000000000001
100
AcDbArc
 50
304.9480137199
 51
325.0519862801
  0
SPLINE
  5
15E
330
1F
100
AcDbEntity
  8
0
  6
Continuous
 62
     7
370
    25
100
AcDbSpline
210
0.0
220
0.0
230
1.0
 70
    24
 71
     3
 72
    12
 73
     8
 74
     0
 42
0.00000001
 43
0.00000001
 40
0.0
 40
0.0
 40
0.0
 40
0.0
 40
0.2500000000000001
 40
0.2500000000000001
 40
0.5000000000000001
 40
0.5000000000000001
 40
1.0
 40
1.0
 40
1.0
 40
1.0
 10
221.9970844818198
 20
48.16756907039261
 30
0.0
 10
222.7424306940948
 20
48.16756907039261
 30
0.0
 10
223.4942575439638
 20
48.16756907039261
 30
0.0
 10
224.9749580051385
 20
48.16756907039261
 30
0.0
 10
225.7079296097404
 20
48.1675690703926
 30
0.0
 10
227.888473730696
 20
48.1675690703926
 30
0.0
 10
229.3179173297054
 20
48.1675690703926
 30
0.0
 10
230.7327870866478
 20
48.1675690703926
 30
0.0
  0
LINE
  5
15F
330
1F
100
AcDbEntity
  8
0
  6
Continuous
 62
     7
370
    25
100
AcDbLine
 10
214.2470844818
 20
79.3675690704
 30
0.0
 11
229.7470844818
 21
79.3675690704
 31
0.0
  0
LINE
  5
160
330
1F
100
AcDbEntity
  8
0
  6
Continuous
 62
     7
370
    25
100
AcDbLine
 10
230.2470844818
 20
78.8675690704
 30
0.0
 11
213.7470844818
 21
78.8675690704
 31
0.0
  0
ELLIPSE
  5
161
330
1F
100
AcDbEntity
  8
0
  6
Continuous
 62
     7
370
    25
100
AcDbEllipse
 10
221.8225459267
 20
91.0911758681
 30
0.0
 11
0.7234244958980014
 21
-0.7001325129304661
 31
0.0
210
0.0
220
0.0
230
1.0
 40
0.9869902583
 41
4.707649545362609
 42
5.487972049091459
  0
LINE
  5
162
330
1F
100
AcDbEntity
  8
0
  6
Continuous
 62
     7
370
    25
100
AcDbLine
 10
221.8356388875
 20
90.0911758681
 30
0.0
 11
221.8356388875
 21
89.3675690704
 31
0.0
  0
ELLIPSE
  5
163
330
1F
100
AcDbEntity
  8
0
  6
Continuous
 62
     7
370
    25
100
AcDbEllipse
 10
221.8225459267
 20
90.8675690704
 30
0.0
 11
1.074619436156752
 21
-1.056020081253678
 31
0.0
210
0.0
220
0.0
230
0.9999999999999999
 40
0.9913091236
 41
4.713099434383474
 42
5.493421938112319
  0
LWPOLYLINE
  5
164
330
1F
100
AcDbEntity
  8
0
  6
Continuous
 62
     7
370
    25
100
AcDbPolyline
 90
        9
 70
   128
 43
0.0
 10
221.1281011073
 20
90.3804891773
 10
221.0423722252
 20
90.3041586997
 10
220.9613405753
 20
90.2197587004
 10
220.8894460204
 20
90.1319135999
 10
220.8306277863
 20
90.0454365816
 10
220.7881086245
 20
89.9650658693
 10
220.7642182328
 20
89.8952051119
 10
220.7602656067
 20
89.8396820999
 10
220.7764673173
 20
89.8015390342
  0
ELLIPSE
  5
165
330
1F
100
AcDbEntity
  8
0
  6
Continuous
 62
     7
370
    25
100
AcDbEllipse
 10
222.1716230369
 20
91.0911758681
 30
0.0
 11
0.7234244958980298
 21
0.7001325129304519
 31
0.0
210
0.0
220
0.0
230
1.0
 40
0.9869902583
 41
3.936805911678011
 42
4.717128415406846
  0
LWPOLYLINE
  5
166
330
1F
100
AcDbEntity
  8
0
  6
Continuous
 62
     7
370
    25
100
AcDbPolyline
 90
        9
 70
   128
 43
0.0
 10
222.8660678563
 20
90.3804891773
 10
222.9517967384
 20
90.3041586997
 10
223.0328283883
 20
90.2197587004
 10
223.1047229432
 20
90.1319135999
 10
223.1635411774
 20
90.0454365816
 10
223.2060603391
 20
89.9650658693
 10
223.2299507308
 20
89.8952051119
 10
223.2339033569
 20
89.8396820999
 10
223.2177016464
 20
89.8015390342
  0
ELLIPSE
  5
167
330
1F
100
AcDbEntity
  8
0
  6
Continuous
 62
     7
370
    25
100
AcDbEllipse
 10
222.1716230369
 20
90.8675690704
 30
0.0
 11
1.074619436156752
 21
1.056020081253692
 31
0.0
210
0.0
220
0.0
230
1.0
 40
0.9913091236
 41
3.931356022657103
 42
4.711678526385926
  0
LINE
  5
168
330
1F
100
AcDbEntity
  8
0
  6
Continuous
 62
     7
370
    25
100
AcDbLine
 10
222.1585300762
 20
90.0911758681
 30
0.0
 11
222.1585300762
 21
89.3675690704
 31
0.0
  0
LINE
  5
169
330
1F
100
AcDbEntity
  8
0
  6
Continuous
 62
     7
370
    25
100
AcDbLine
 10
221.8356388875
 20
90.0911758681
 30
0.0
 11
222.1585300762
 21
90.0911758681
 31
0.0
  0
LINE
  5
16A
330
1F
100
AcDbEntity
  8
0
  6
Continuous
 62
     7
370
    25
100
AcDbLine
 10
222.1585300762
 20
89.3675690704
 30
0.0
 11
221.8356388875
 21
89.3675690704
 31
0.0
  0
LINE
  5
16B
330
1F
100
AcDbEntity
  8
0
  6
Continuous
 62
     7
370
    25
100
AcDbLine
 10
221.1281011073
 20
90.3804891773
 30
0.0
 11
221.1281011073
 21
99.5383894636
 31
0.0
  0
LINE
  5
16C
330
1F
100
AcDbEntity
  8
0
  6
Continuous
 62
     7
370
    25
100
AcDbLine
 10
221.1281011073
 20
99.5383894636
 30
0.0
 11
222.8660678563
 21
99.5383894636
 31
0.0
  0
LINE
  5
16D
330
1F
100
AcDbEntity
  8
0
  6
Continuous
 62
     7
370
    25
100
AcDbLine
 10
222.8660678563
 20
99.5383894636
 30
0.0
 11
222.8660678563
 21
90.3804891773
 31
0.0
  0
SPLINE
  5
16E
330
1F
100
AcDbEntity
  8
0
  6
Continuous
 62
     7
370
    25
100
AcDbSpline
210
0.0
220
0.0
230
1.0
 70
     8
 71
     3
 72
    12
 73
     8
 74
     0
 42
0.00000001
 43
0.00000001
 40
0.0
 40
0.0
 40
0.0
 40
0.0
 40
0.139683458618249
 40
0.3831896274038307
 40
0.55131692930133
 40
0.8194729461607051
 40
0.9999999999999999
 40
0.9999999999999999
 40
0.9999999999999999
 40
0.9999999999999999
 10
222.8660678563385
 20
90.38048917733208
 30
0.0
 10
222.9157827768169
 20
90.39380155099302
 30
0.0
 10
223.0521642928747
 20
90.43032100400099
 30
0.0
 10
223.2320804020869
 20
90.46799306459236
 30
0.0
 10
223.4104218304718
 20
90.49236038535386
 30
0.0
 10
223.5309420550232
 20
90.4912433505899
 30
0.0
 10
223.5550880683301
 20
90.44986006221234
 30
0.0
 10
223.5648031855898
 20
90.43320954959694
 30
0.0
  0
ARC
  5
16F
330
1F
100
AcDbEntity
  8
0
  6
Continuous
 62
     7
370
    25
100
AcDbCircle
 10
223.0665490049
 20
90.4183565639
 30
0.0
 40
0.4984755156837264
100
AcDbArc
 50
333.4921832491
 51
1.7074848132
  0
SPLINE
  5
170
330
1F
100
AcDbEntity
  8
0
  6
Continuous
 62
     7
370
    25
100
AcDbSpline
210
0.0
220
0.0
230
1.0
 70
     8
 71
     3
 72
    12
 73
     8
 74
     0
 42
0.00000001
 43
0.00000001
 40
0.0
 40
0.0
 40
0.0
 40
0.0
 40
0.0715202026166142
 40
0.1260836237049476
 40
0.3855387013103047
 40
0.8475626424815554
 40
1.0
 40
1.0
 40
1.0
 40
1.0
 10
223.5126215240287
 20
90.1958770200418
 30
0.0
 10
223.5106854783235
 20
90.19276837217699
 30
0.0
 10
223.507272405524
 20
90.18728810823366
 30
0.0
 10
223.4850899550187
 20
90.14769956281326
 30
0.0
 10
223.4220764802523
 20
90.04126542983097
 30
0.0
 10
223.3250301547804
 20
89.91075841412274
 30
0.0
 10
223.2390354615622
 20
89.8232487001594
 30
0.0
 10
223.2177016463606
 20
89.80153903417684
 30
0.0
  0
SPLINE
  5
171
330
1F
100
AcDbEntity
  8
0
  6
Continuous
 62
     7
370
    25
100
AcDbSpline
210
0.0
220
0.0
230
1.0
 70
     8
 71
     3
 72
    11
 73
     7
 74
     0
 42
0.00000001
 43
0.00000001
 40
0.0
 40
0.0
 40
0.0
 40
0.0
 40
0.2499999999999991
 40
0.4999999999999979
 40
0.7499999999999996
 40
1.0
 40
1.0
 40
1.0
 40
1.0
 10
223.5648031855898
 20
99.24414919800606
 30
0.0
 10
223.5498038804232
 20
99.2832667521722
 30
0.0
 10
223.5198052700901
 20
99.36150186050445
 30
0.0
 10
223.3562855672934
 20
99.45816493621268
 30
0.0
 10
223.130705953211
 20
99.52535315235217
 30
0.0
 10
222.954280555296
 20
99.53404402654577
 30
0.0
 10
222.8660678563385
 20
99.53838946364256
 30
0.0
  0
LINE
  5
172
330
1F
100
AcDbEntity
  8
0
  6
Continuous
 62
     7
370
    25
100
AcDbLine
 10
223.5648031856
 20
90.4332095496
 30
0.0
 11
223.5648031856
 21
99.244149198
 31
0.0
  0
SPLINE
  5
173
330
1F
100
AcDbEntity
  8
0
  6
Continuous
 62
     7
370
    25
100
AcDbSpline
210
0.0
220
0.0
230
1.0
 70
     8
 71
     3
 72
    13
 73
     9
 74
     0
 42
0.00000001
 43
0.00000001
 40
0.0
 40
0.0
 40
0.0
 40
0.0
 40
0.1143463544469914
 40
0.2890454840074685
 40
0.5294852105593209
 40
0.7014879056604271
 40
0.9335094878266192
 40
1.0
 40
1.0
 40
1.0
 40
1.0
 10
220.4293657780498
 20
90.43320954959694
 30
0.0
 10
220.4342003695548
 20
90.44459638135493
 30
0.0
 10
220.4464212824849
 20
90.47338009127479
 30
0.0
 10
220.5190693775259
 20
90.49363026872366
 30
0.0
 10
220.6495816439327
 20
90.48577294197804
 30
0.0
 10
220.8364492431023
 20
90.45324552565008
 30
0.0
 10
220.997822647859
 20
90.41612417069821
 30
0.0
 10
221.1043689987109
 20
90.38698060757923
 30
0.0
 10
221.1281011073011
 20
90.38048917733208
 30
0.0
  0
SPLINE
  5
174
330
1F
100
AcDbEntity
  8
0
  6
Continuous
 62
     7
370
    25
100
AcDbSpline
210
0.0
220
0.0
230
1.0
 70
     8
 71
     3
 72
    11
 73
     7
 74
     0
 42
0.00000001
 43
0.00000001
 40
0.0
 40
0.0
 40
0.0
 40
0.0
 40
0.3325271082490199
 40
0.7778992719027311
 40
0.9254453528959206
 40
1.0
 40
1.0
 40
1.0
 40
1.0
 10
220.776467317279
 20
89.80153903417684
 30
0.0
 10
220.7312364941327
 20
89.84947558230502
 30
0.0
 10
220.6254254985171
 20
89.9616162317781
 30
0.0
 10
220.5376655240395
 20
90.09697644979529
 30
0.0
 10
220.4900526321018
 20
90.18197708357376
 30
0.0
 10
220.4836849421735
 20
90.19238372463991
 30
0.0
 10
220.4815474396109
 20
90.1958770200418
 30
0.0
  0
ARC
  5
175
330
1F
100
AcDbEntity
  8
0
  6
Continuous
 62
     7
370
    25
100
AcDbCircle
 10
220.9276199587
 20
90.4183565639
 30
0.0
 40
0.4984755156843869
100
AcDbArc
 50
178.2925151868
 51
206.5078167509
  0
SPLINE
  5
176
330
1F
100
AcDbEntity
  8
0
  6
Continuous
 62
     7
370
    25
100
AcDbSpline
210
0.0
220
0.0
230
1.0
 70
     8
 71
     3
 72
    11
 73
     7
 74
     0
 42
0.00000001
 43
0.00000001
 40
0.0
 40
0.0
 40
0.0
 40
0.0
 40
0.249999999999999
 40
0.4999999999999998
 40
0.7499999999999988
 40
1.0
 40
1.0
 40
1.0
 40
1.0
 10
220.4293657780497
 20
99.24414919800603
 30
0.0
 10
220.4443650832163
 20
99.28326675217217
 30
0.0
 10
220.4743636935495
 20
99.36150186050442
 30
0.0
 10
220.6378833963461
 20
99.45816493621265
 30
0.0
 10
220.8634630104285
 20
99.52535315235217
 30
0.0
 10
221.0398884083435
 20
99.53404402654577
 30
0.0
 10
221.1281011073011
 20
99.53838946364256
 30
0.0
  0
LINE
  5
177
330
1F
100
AcDbEntity
  8
0
  6
Continuous
 62
     7
370
    25
100
AcDbLine
 10
220.429365778
 20
99.244149198
 30
0.0
 11
220.429365778
 21
90.4332095496
 31
0.0
  0
LINE
  5
178
330
1F
100
AcDbEntity
  8
0
  6
Continuous
 62
     7
370
    25
100
AcDbLine
 10
221.1434786904
 20
89.3675690704
 30
0.0
 11
221.8356388875
 21
89.3675690704
 31
0.0
  0
SPLINE
  5
179
330
1F
100
AcDbEntity
  8
0
  6
Continuous
 62
     7
370
    25
100
AcDbSpline
210
0.0
220
0.0
230
1.0
 70
     8
 71
     3
 72
    11
 73
     7
 74
     0
 42
0.00000001
 43
0.00000001
 40
0.0
 40
0.0
 40
0.0
 40
0.0
 40
0.2500000000000002
 40
0.4999999999999996
 40
0.7499999999999999
 40
1.0
 40
1.0
 40
1.0
 40
1.0
 10
219.6445065393227
 20
90.90683449285443
 30
0.0
 10
219.6625828497407
 20
90.70645888647834
 30
0.0
 10
219.6987354705768
 20
90.30570767372618
 30
0.0
 10
220.0433612447773
 20
89.79551473568422
 30
0.0
 10
220.5441833308974
 20
89.43753366731754
 30
0.0
 10
220.9437135705582
 20
89.39089060270094
 30
0.0
 10
221.1434786903886
 20
89.36756907039262
 30
0.0
  0
LINE
  5
17A
330
1F
100
AcDbEntity
  8
0
  6
Continuous
 62
     7
370
    25
100
AcDbLine
 10
220.2108438194
 20
90.9068344929
 30
0.0
 11
219.6445065393
 21
90.9068344929
 31
0.0
  0
SPLINE
  5
17B
330
1F
100
AcDbEntity
  8
0
  6
Continuous
 62
     7
370
    25
100
AcDbSpline
210
0.0
220
0.0
230
1.0
 70
     8
 71
     3
 72
     9
 73
     5
 74
     0
 42
0.00000001
 43
0.00000001
 40
0.0
 40
0.0
 40
0.0
 40
0.0
 40
0.5407747560677784
 40
1.0
 40
1.0
 40
1.0
 40
1.0
 10
220.2108438194031
 20
90.90683449285444
 30
0.0
 10
220.2108143189903
 20
90.89550053905374
 30
0.0
 10
220.2107597668639
 20
90.87454180591482
 30
0.0
 10
220.2113640119988
 20
90.85357561304686
 30
0.0
 10
220.2116414966183
 20
90.84394740801274
 30
0.0
  0
ELLIPSE
  5
17C
330
1F
100
AcDbEntity
  8
0
  6
Continuous
 62
     7
370
    25
100
AcDbEllipse
 10
221.7098159705
 20
90.8675690704
 30
0.0
 11
-0.3999861399326505
 21
1.445826639360064
 31
0.0
210
0.0
220
0.0
230
0.9999999999999999
 40
0.9987379186
 41
1.314426961368765
 42
1.316970714136512
  0
ELLIPSE
  5
17D
330
1F
100
AcDbEntity
  8
0
  6
Continuous
 62
     7
370
    25
100
AcDbEllipse
 10
222.6585088702
 20
90.8675690704
 30
0.0
 11
2.447559743736974
 21
-0.02501587584980314
 31
0.0
210
0.0
220
0.0
230
1.0
 40
0.6127700831
 41
3.171475350442053
 42
3.622568086779204
  0
LINE
  5
17E
330
1F
100
AcDbEntity
  8
0
  6
Continuous
 62
     7
370
    25
100
AcDbLine
 10
223.7833251442
 20
90.9068344929
 30
0.0
 11
223.782527467
 21
90.843947408
 31
0.0
  0
LINE
  5
17F
330
1F
100
AcDbEntity
  8
0
  6
Continuous
 62
     7
370
    25
100
AcDbLine
 10
224.3496624243
 20
90.9068344929
 30
0.0
 11
223.7833251442
 21
90.9068344929
 31
0.0
  0
SPLINE
  5
180
330
1F
100
AcDbEntity
  8
0
  6
Continuous
 62
     7
370
    25
100
AcDbSpline
210
0.0
220
0.0
230
1.0
 70
     8
 71
     3
 72
    11
 73
     7
 74
     0
 42
0.00000001
 43
0.00000001
 40
0.0
 40
0.0
 40
0.0
 40
0.0
 40
0.2500000000000001
 40
0.4999999999999997
 40
0.75
 40
1.0
 40
1.0
 40
1.0
 40
1.0
 10
222.850690273251
 20
89.36756907039262
 30
0.0
 10
223.0504553930814
 20
89.39089060270092
 30
0.0
 10
223.4499856327421
 20
89.43753366731752
 30
0.0
 10
223.9508077188623
 20
89.79551473568422
 30
0.0
 10
224.2954334930628
 20
90.30570767372618
 30
0.0
 10
224.3315861138988
 20
90.70645888647836
 30
0.0
 10
224.3496624243169
 20
90.90683449285443
 30
0.0
  0
LINE
  5
181
330
1F
100
AcDbEntity
  8
0
  6
Continuous
 62
     7
370
    25
100
AcDbLine
 10
222.1585300762
 20
89.3675690704
 30
0.0
 11
222.8506902733
 21
89.3675690704
 31
0.0
  0
ELLIPSE
  5
182
330
1F
100
AcDbEntity
  8
0
  6
Continuous
 62
     7
370
    25
100
AcDbEllipse
 10
221.3356600935
 20
90.8675690704
 30
0.0
 11
2.447559743736946
 21
0.02501587584980314
 31
0.0
210
0.0
220
0.0
230
1.0
 40
0.6127700831
 41
5.802209873990214
 42
6.253302610327353
  0
ELLIPSE
  5
183
330
1F
100
AcDbEntity
  8
0
  6
Continuous
 62
     7
370
    25
100
AcDbEllipse
 10
222.2843529932
 20
90.8675690704
 30
0.0
 11
0.3999861399325653
 21
1.445826639360106
 31
0.0
210
0.0
220
0.0
230
1.0
 40
0.9987379186
 41
4.966214593033936
 42
4.968758345810755
  0
ELLIPSE
  5
184
330
1F
100
AcDbEntity
  8
0
  6
Continuous
 62
     7
370
    25
100
AcDbEllipse
 10
220.38121162
 20
98.8863783216
 30
0.0
 11
0.02159772760037981
 21
0.7999991561933228
 31
0.0
210
0.0
220
0.0
230
1.0
 40
0.0537988877
 41
5.177489007048937
 42
5.369012849440523
  0
ELLIPSE
  5
185
330
1F
100
AcDbEntity
  8
0
  6
Continuous
 62
     7
370
    25
100
AcDbEllipse
 10
222.1594122064
 20
90.8810042498
 30
0.0
 11
1.947791790405574
 21
-0.0177698114313074
 31
0.0
210
0.0
220
0.0
230
1.0
 40
0.513320833
 41
3.160788584408909
 42
3.623660809788565
  0
LINE
  5
186
330
1F
100
AcDbEntity
  8
0
  6
Continuous
 62
     7
370
    25
100
AcDbLine
 10
220.2118041827
 20
90.8795790662
 30
0.0
 11
220.4284852939
 21
99.3738144844
 31
0.0
  0
ELLIPSE
  5
187
330
1F
100
AcDbEntity
  8
0
  6
Continuous
 62
     7
370
    25
100
AcDbEllipse
 10
223.6129573436
 20
98.8863783216
 30
0.0
 11
-0.02159772760037981
 21
0.7999991561933228
 31
0.0
210
0.0
220
0.0
230
1.0
 40
0.0537988877
 41
0.9141724577395826
 42
1.105696300131252
  0
LINE
  5
188
330
1F
100
AcDbEntity
  8
0
  6
Continuous
 62
     7
370
    25
100
AcDbLine
 10
223.5656836697
 20
99.3738144844
 30
0.0
 11
223.7823647809
 21
90.8795790663
 31
0.0
  0
ELLIPSE
  5
189
330
1F
100
AcDbEntity
  8
0
  6
Continuous
 62
     7
370
    25
100
AcDbEllipse
 10
221.8347567572
 20
90.8810042498
 30
0.0
 11
1.947791790405546
 21
0.01776981143127898
 31
0.0
210
0.0
220
0.0
230
0.9999999999999999
 40
0.513320833
 41
5.801117150980883
 42
6.263989376373043
  0
LINE
  5
18A
330
1F
100
AcDbEntity
  8
0
  6
Continuous
 62
     7
370
    25
100
AcDbLine
 10
220.2115838475
 20
90.8477626363
 30
0.0
 11
220.2118041827
 21
90.8795790662
 31
0.0
  0
SPLINE
  5
18B
330
1F
100
AcDbEntity
  8
0
  6
Continuous
 62
     7
370
    25
100
AcDbSpline
210
0.0
220
0.0
230
1.0
 70
     8
 71
     3
 72
     9
 73
     5
 74
     0
 42
0.00000001
 43
0.00000001
 40
0.0
 40
0.0
 40
0.0
 40
0.0
 40
0.8673350121727758
 40
1.0
 40
1.0
 40
1.0
 40
1.0
 10
223.7823647809452
 20
90.87957906625519
 30
0.0
 10
223.7825355131324
 20
90.87038064287997
 30
0.0
 10
223.782732360008
 20
90.8597752559809
 30
0.0
 10
223.7826023622428
 20
90.84916963137951
 30
0.0
 10
223.7825851160908
 20
90.84776263632087
 30
0.0
  0
ELLIPSE
  5
18C
330
1F
100
AcDbEntity
  8
0
  6
Continuous
 62
     7
370
    25
100
AcDbEllipse
 10
221.0975361113
 20
98.8675690704
 30
0.0
 11
0.0209600052571659
 21
1.499999971448744
 31
0.0
210
0.0
220
0.0
230
1.0
 40
0.013963099
 41
5.413231207420207
 42
6.283380418268021
  0
LINE
  5
18D
330
1F
100
AcDbEntity
  8
0
  6
Continuous
 62
     7
370
    25
100
AcDbLine
 10
222.875676934
 20
100.3675690704
 30
0.0
 11
221.1184920297
 21
100.3675690704
 31
0.0
  0
ELLIPSE
  5
18E
330
1F
100
AcDbEntity
  8
0
  6
Continuous
 62
     7
370
    25
100
AcDbEllipse
 10
222.8966328523
 20
98.8675690704
 30
0.0
 11
-0.0209600052571659
 21
1.499999971448744
 31
0.0
210
0.0
220
0.0
230
1.0
 40
0.013963099
 41
6.282990196092133
 42
7.153139406940038
  0
SPLINE
  5
18F
330
1F
100
AcDbEntity
  8
0
  6
Continuous
 62
     7
370
    25
100
AcDbSpline
210
0.0
220
0.0
230
1.0
 70
     8
 71
     3
 72
     9
 73
     5
 74
     0
 42
0.00000001
 43
0.00000001
 40
0.0
 40
0.0
 40
0.0
 40
0.0
 40
0.5600029565045499
 40
1.0
 40
1.0
 40
1.0
 40
1.0
 10
222.8671085684437
 20
99.8346378112332
 30
0.0
 10
222.8671142065099
 20
99.82485134907323
 30
0.0
 10
222.8671242744322
 20
99.80737561605025
 30
0.0
 10
222.8670020978288
 20
99.78941464838447
 30
0.0
 10
222.8669483404844
 20
99.7815118757132
 30
0.0
  0
ELLIPSE
  5
190
330
1F
100
AcDbEntity
  8
0
  6
Continuous
 62
     7
370
    25
100
AcDbEllipse
 10
222.9142220144
 20
98.8675690704
 30
0.0
 11
-0.02155295842283067
 21
1.499999872388898
 31
0.0
210
0.0
220
0.0
230
1.0
 40
0.0287076702
 41
0.9152123852433427
 42
1.106736227634802
  0
ELLIPSE
  5
191
330
1F
100
AcDbEntity
  8
0
  6
Continuous
 62
     7
370
    25
100
AcDbEllipse
 10
221.0799469493
 20
98.8675690704
 30
0.0
 11
0.02155295842283067
 21
1.499999872388898
 31
0.0
210
0.0
220
0.0
230
1.0
 40
0.0287076702
 41
5.176449079544587
 42
5.367972921936406
  0
SPLINE
  5
192
330
1F
100
AcDbEntity
  8
0
  6
Continuous
 62
     7
370
    25
100
AcDbSpline
210
0.0
220
0.0
230
1.0
 70
     8
 71
     3
 72
     9
 73
     5
 74
     0
 42
0.00000001
 43
0.00000001
 40
0.0
 40
0.0
 40
0.0
 40
0.0
 40
0.5599925069633377
 40
1.0
 40
1.0
 40
1.0
 40
1.0
 10
221.1272206231551
 20
99.78151187571319
 30
0.0
 10
221.1271548780037
 20
99.79155947001605
 30
0.0
 10
221.1270374743767
 20
99.80950184277629
 30
0.0
 10
221.1270533915294
 20
99.82695728559757
 30
0.0
 10
221.1270603951958
 20
99.83463781123321
 30
0.0
  0
SPLINE
  5
193
330
1F
100
AcDbEntity
  8
0
  6
Continuous
 62
     7
370
    25
100
AcDbSpline
210
0.0
220
0.0
230
1.0
 70
     8
 71
     3
 72
    12
 73
     8
 74
     0
 42
0.00000001
 43
0.00000001
 40
0.0
 40
0.0
 40
0.0
 40
0.0
 40
0.2225634137434379
 40
0.4462063173695244
 40
0.6680851268156933
 40
0.8917990985568367
 40
1.0
 40
1.0
 40
1.0
 40
1.0
 10
220.4284852939038
 20
99.37381448444373
 30
0.0
 10
220.4408384014705
 20
99.42140042775006
 30
0.0
 10
220.4656045323575
 20
99.51680311844451
 30
0.0
 10
220.5981884603554
 20
99.64102185101747
 30
0.0
 10
220.78454586385
 20
99.73291165212191
 30
0.0
 10
220.9726366752033
 20
99.77536723113204
 30
0.0
 10
221.0892167080916
 20
99.78000123664715
 30
0.0
 10
221.1272206231551
 20
99.78151187571319
 30
0.0
  0
SPLINE
  5
194
330
1F
100
AcDbEntity
  8
0
  6
Continuous
 62
     7
370
    25
100
AcDbSpline
210
0.0
220
0.0
230
1.0
 70
     8
 71
     3
 72
    12
 73
     8
 74
     0
 42
0.00000001
 43
0.00000001
 40
0.0
 40
0.0
 40
0.0
 40
0.0
 40
0.2225634137435274
 40
0.446206317369568
 40
0.6680851268158019
 40
0.8917990985569294
 40
1.0
 40
1.0
 40
1.0
 40
1.0
 10
222.8669483404844
 20
99.7815118757132
 30
0.0
 10
222.945452000527
 20
99.7760848030995
 30
0.0
 10
223.1028400835837
 20
99.76520433517206
 30
0.0
 10
223.3121916212111
 20
99.68991090415174
 30
0.0
 10
223.4709509156812
 20
99.58043235939843
 30
0.0
 10
223.5487997859978
 20
99.46771771885196
 30
0.0
 10
223.5615328268312
 20
99.39690026140774
 30
0.0
 10
223.5656836697358
 20
99.37381448444371
 30
0.0
  0
SPLINE
  5
195
330
1F
100
AcDbEntity
  8
0
  6
Continuous
 62
     7
370
    25
100
AcDbSpline
210
0.0
220
0.0
230
1.0
 70
     8
 71
     3
 72
    12
 73
     8
 74
     0
 42
0.00000001
 43
0.00000001
 40
0.0
 40
0.0
 40
0.0
 40
0.0
 40
0.2198609600791294
 40
0.4397396970008148
 40
0.6583291451397767
 40
0.87912395168436
 40
1.0
 40
1.0
 40
1.0
 40
1.0
 10
223.5666289056078
 20
99.40166292932311
 30
0.0
 10
223.5559569109637
 20
99.452151145451
 30
0.0
 10
223.5346120587921
 20
99.55313165992794
 30
0.0
 10
223.4064936635251
 20
99.684794652878
 30
0.0
 10
223.2235557274601
 20
99.78235597565107
 30
0.0
 10
223.0320065555729
 20
99.82901536712777
 30
0.0
 10
222.9102008838879
 20
99.8331685141291
 30
0.0
 10
222.8671085684437
 20
99.8346378112332
 30
0.0
  0
SPLINE
  5
196
330
1F
100
AcDbEntity
  8
0
  6
Continuous
 62
     7
370
    25
100
AcDbSpline
210
0.0
220
0.0
230
1.0
 70
     8
 71
     3
 72
    12
 73
     8
 74
     0
 42
0.00000001
 43
0.00000001
 40
0.0
 40
0.0
 40
0.0
 40
0.0
 40
0.2198610998683202
 40
0.4397399767664986
 40
0.6583294271823332
 40
0.8791242261983154
 40
1.0
 40
1.0
 40
1.0
 40
1.0
 10
221.1270603951958
 20
99.83463781123321
 30
0.0
 10
221.0483694854767
 20
99.8298140178836
 30
0.0
 10
220.8909813034274
 20
99.82016604115302
 30
0.0
 10
220.6816995549424
 20
99.74299190349126
 30
0.0
 10
220.523050234278
 20
99.6291243942791
 30
0.0
 10
220.4429501715628
 20
99.50764382477547
 30
0.0
 10
220.4315671342611
 20
99.42935858153102
 30
0.0
 10
220.4275400580317
 20
99.40166292932311
 30
0.0
  0
LINE
  5
197
330
1F
100
AcDbEntity
  8
0
  6
Continuous
 62
     7
370
    25
100
AcDbLine
 10
223.0031665915
 20
100.3426346921
 30
0.0
 11
222.875676934
 21
100.3675690704
 31
0.0
  0
ELLIPSE
  5
198
330
1F
100
AcDbEntity
  8
0
  6
Continuous
 62
     7
370
    25
100
AcDbEllipse
 10
223.5961531895
 20
98.8858929342
 30
0.0
 11
-0.02097028290364733
 21
0.7999998117962974
 31
0.0
210
0.0
220
0.0
230
0.9999999999999999
 40
0.0261679535
 41
6.28249937039185
 42
7.15264858123826
  0
ELLIPSE
  5
199
330
1F
100
AcDbEntity
  8
0
  6
Continuous
 62
     7
370
    25
100
AcDbEllipse
 10
220.3980157742
 20
98.8858929342
 30
0.0
 11
0.02097028290361891
 21
0.7999998117962973
 31
0.0
210
0.0
220
0.0
230
1.0
 40
0.0261679535
 41
5.413722033121442
 42
6.283871243967846
  0
SPLINE
  5
19A
330
1F
100
AcDbEntity
  8
0
  6
Continuous
 62
     7
370
    25
100
AcDbSpline
210
0.0
220
0.0
230
1.0
 70
     8
 71
     3
 72
    11
 73
     7
 74
     0
 42
0.00000001
 43
0.00000001
 40
0.0
 40
0.0
 40
0.0
 40
0.0
 40
0.2499999999999963
 40
0.4999999999999995
 40
0.7500000000000014
 40
1.0
 40
1.0
 40
1.0
 40
1.0
 10
220.4189716925063
 20
99.68589293420813
 30
0.0
 10
220.4314922087289
 20
99.77579198133513
 30
0.0
 10
220.456533241174
 20
99.95559007558914
 30
0.0
 10
220.6191767107966
 20
100.1803062848241
 30
0.0
 10
220.8479964468511
 20
100.3370673698536
 30
0.0
 10
221.0283268353973
 20
100.3574018368796
 30
0.0
 10
221.1184920296704
 20
100.3675690703926
 30
0.0
  0
LINE
  5
19B
330
1F
100
AcDbEntity
  8
0
  6
Continuous
 62
     7
370
    25
100
AcDbLine
 10
223.7816706225
 20
90.9067911528
 30
0.0
 11
223.7833251442
 21
90.9068344929
 31
0.0
  0
LINE
  5
19C
330
1F
100
AcDbEntity
  8
0
  6
Continuous
 62
     7
370
    25
100
AcDbLine
 10
220.2124983411
 20
90.9067911528
 30
0.0
 11
220.2108438194
 21
90.9068344929
 31
0.0
  0
SPLINE
  5
19D
330
1F
100
AcDbEntity
  8
0
  6
Continuous
 62
     7
370
    25
100
AcDbSpline
210
0.0
220
0.0
230
1.0
 70
     8
 71
     3
 72
     9
 73
     5
 74
     0
 42
0.00000001
 43
0.00000001
 40
0.0
 40
0.0
 40
0.0
 40
0.0
 40
0.5600012771711205
 40
0.9999999999999999
 40
0.9999999999999999
 40
0.9999999999999999
 40
0.9999999999999999
 10
219.6445065393227
 20
90.90683449285443
 30
0.0
 10
219.6563409516677
 20
91.8358841322826
 30
0.0
 10
219.6774737826584
 20
93.49489756189712
 30
0.0
 10
219.6984345120709
 20
95.15167679706373
 30
0.0
 10
219.7076572062419
 20
95.88065754454644
 30
0.0
  0
SPLINE
  5
19E
330
1F
100
AcDbEntity
  8
0
  6
Continuous
 62
     7
370
    25
100
AcDbSpline
210
0.0
220
0.0
230
1.0
 70
     8
 71
     3
 72
     9
 73
     5
 74
     0
 42
0.00000001
 43
0.00000001
 40
0.0
 40
0.0
 40
0.0
 40
0.0
 40
0.5599999095971039
 40
1.0
 40
1.0
 40
1.0
 40
1.0
 10
219.7076572062419
 20
95.88065754454642
 30
0.0
 10
219.7099546161392
 20
96.06245925929524
 30
0.0
 10
219.7140571344751
 20
96.38710523089836
 30
0.0
 10
219.7181535276681
 20
96.71167143645285
 30
0.0
 10
219.7199559410434
 20
96.85448059623855
 30
0.0
  0
LINE
  5
19F
330
1F
100
AcDbEntity
  8
0
  6
Continuous
 62
     7
370
    25
100
AcDbLine
 10
219.719955941
 20
96.8544805962
 30
0.0
 11
219.3916278117
 21
96.8544805962
 31
0.0
  0
LINE
  5
1A0
330
1F
100
AcDbEntity
  8
0
  6
Continuous
 62
     7
370
    25
100
AcDbLine
 10
219.3916278117
 20
96.8544805962
 30
0.0
 11
219.5214037249
 21
99.6858929342
 31
0.0
  0
LINE
  5
1A1
330
1F
100
AcDbEntity
  8
0
  6
Continuous
 62
     7
370
    25
100
AcDbLine
 10
219.5214037249
 20
99.6858929342
 30
0.0
 11
220.4189716925
 21
99.6858929342
 31
0.0
  0
LINE
  5
1A2
330
1F
100
AcDbEntity
  8
0
  6
Continuous
 62
     7
370
    25
100
AcDbLine
 10
220.427540058
 20
99.4016629293
 30
0.0
 11
220.2108438194
 21
90.9068344929
 31
0.0
  0
LINE
  5
1A3
330
1F
100
AcDbEntity
  8
0
  6
Continuous
 62
     7
370
    25
100
AcDbLine
 10
224.6025411519
 20
96.8544805962
 30
0.0
 11
224.2742130226
 21
96.8544805962
 31
0.0
  0
SPLINE
  5
1A4
330
1F
100
AcDbEntity
  8
0
  6
Continuous
 62
     7
370
    25
100
AcDbSpline
210
0.0
220
0.0
230
1.0
 70
     8
 71
     3
 72
     9
 73
     5
 74
     0
 42
0.00000001
 43
0.00000001
 40
0.0
 40
0.0
 40
0.0
 40
0.0
 40
0.5600000882143319
 40
1.0
 40
1.0
 40
1.0
 40
1.0
 10
224.2742130225961
 20
96.85448059623855
 30
0.0
 10
224.2765071387372
 20
96.67272172540677
 30
0.0
 10
224.2806037740581
 20
96.34815236433512
 30
0.0
 10
224.2847065405174
 20
96.02350316403832
 30
0.0
 10
224.2865117573976
 20
95.88065754454642
 30
0.0
  0
SPLINE
  5
1A5
330
1F
100
AcDbEntity
  8
0
  6
Continuous
 62
     7
370
    25
100
AcDbSpline
210
0.0
220
0.0
230
1.0
 70
     8
 71
     3
 72
     9
 73
     5
 74
     0
 42
0.00000001
 43
0.00000001
 40
0.0
 40
0.0
 40
0.0
 40
0.0
 40
0.5599987526606142
 40
1.0
 40
1.0
 40
1.0
 40
1.0
 10
224.2865117573976
 20
95.88065754454642
 30
0.0
 10
224.29825334392
 20
94.95281624469712
 30
0.0
 10
224.319220509412
 20
93.29595309019714
 30
0.0
 10
224.3403607097841
 20
91.63684439028667
 30
0.0
 10
224.3496624243169
 20
90.90683449285443
 30
0.0
  0
LINE
  5
1A6
330
1F
100
AcDbEntity
  8
0
  6
Continuous
 62
     7
370
    25
100
AcDbLine
 10
223.7833251442
 20
90.9068344929
 30
0.0
 11
223.5666289056
 21
99.4016629293
 31
0.0
  0
LINE
  5
1A7
330
1F
100
AcDbEntity
  8
0
  6
Continuous
 62
     7
370
    25
100
AcDbLine
 10
223.5751972711
 20
99.6858929342
 30
0.0
 11
224.4727652388
 21
99.6858929342
 31
0.0
  0
LINE
  5
1A8
330
1F
100
AcDbEntity
  8
0
  6
Continuous
 62
     7
370
    25
100
AcDbLine
 10
224.4727652388
 20
99.6858929342
 30
0.0
 11
224.6025411519
 21
96.8544805962
 31
0.0
  0
LINE
  5
1A9
330
1F
100
AcDbEntity
  8
0
  6
Continuous
 62
     7
370
    25
100
AcDbLine
 10
221.1184920297
 20
100.3675690704
 30
0.0
 11
220.2209240621
 21
100.3675690704
 31
0.0
  0
SPLINE
  5
1AA
330
1F
100
AcDbEntity
  8
0
  6
Continuous
 62
     7
370
    25
100
AcDbSpline
210
0.0
220
0.0
230
1.0
 70
     8
 71
     3
 72
    11
 73
     7
 74
     0
 42
0.00000001
 43
0.00000001
 40
0.0
 40
0.0
 40
0.0
 40
0.0
 40
0.2499999999999982
 40
0.4999999999999978
 40
0.750000000000001
 40
1.0
 40
1.0
 40
1.0
 40
1.0
 10
219.5214037248872
 20
99.68589293420813
 30
0.0
 10
219.5339242411097
 20
99.77579198133515
 30
0.0
 10
219.5589652735549
 20
99.95559007558916
 30
0.0
 10
219.7216087431775
 20
100.1803062848241
 30
0.0
 10
219.9504284792319
 20
100.3370673698536
 30
0.0
 10
220.1307588677781
 20
100.3574018368796
 30
0.0
 10
220.2209240620512
 20
100.3675690703926
 30
0.0
  0
LINE
  5
1AB
330
1F
100
AcDbEntity
  8
0
  6
Continuous
 62
     7
370
    25
100
AcDbLine
 10
223.7732449016
 20
100.3675690704
 30
0.0
 11
222.875676934
 21
100.3675690704
 31
0.0
  0
SPLINE
  5
1AC
330
1F
100
AcDbEntity
  8
0
  6
Continuous
 62
     7
370
    25
100
AcDbSpline
210
0.0
220
0.0
230
1.0
 70
     8
 71
     3
 72
    11
 73
     7
 74
     0
 42
0.00000001
 43
0.00000001
 40
0.0
 40
0.0
 40
0.0
 40
0.0
 40
0.2499999999999988
 40
0.5000000000000004
 40
0.7499999999999976
 40
1.0
 40
1.0
 40
1.0
 40
1.0
 10
223.7732449015883
 20
100.3675690703926
 30
0.0
 10
223.8634100958614
 20
100.3574018368796
 30
0.0
 10
224.0437404844076
 20
100.3370673698536
 30
0.0
 10
224.2725602204621
 20
100.1803062848241
 30
0.0
 10
224.4352036900847
 20
99.95559007558917
 30
0.0
 10
224.4602447225298
 20
99.77579198133516
 30
0.0
 10
224.4727652387524
 20
99.68589293420813
 30
0.0
  0
LINE
  5
1AD
330
1F
100
AcDbEntity
  8
0
  6
Continuous
 62
     7
370
    25
100
AcDbLine
 10
219.1321360697
 20
96.3675690704
 30
0.0
 11
218.8980409358
 21
96.3675690704
 31
0.0
  0
SPLINE
  5
1AE
330
1F
100
AcDbEntity
  8
0
  6
Continuous
 62
     7
370
    25
100
AcDbSpline
210
0.0
220
0.0
230
1.0
 70
     8
 71
     3
 72
    10
 73
     6
 74
     0
 42
0.00000001
 43
0.00000001
 40
0.0
 40
0.0
 40
0.0
 40
0.0
 40
0.2383396858856107
 40
0.571650633368965
 40
1.0
 40
1.0
 40
1.0
 40
1.0
 10
219.138562039765
 20
96.36756907039252
 30
0.0
 10
219.2131602421919
 20
96.37652781331217
 30
0.0
 10
219.3920818074658
 20
96.3980150912079
 30
0.0
 10
219.6284259197208
 20
96.57167747416099
 30
0.0
 10
219.6870092959063
 20
96.75268433341557
 30
0.0
 10
219.7199559410434
 20
96.85448059623874
 30
0.0
  0
SPLINE
  5
1AF
330
1F
100
AcDbEntity
  8
0
  6
Continuous
 62
     7
370
    25
100
AcDbSpline
210
0.0
220
0.0
230
1.0
 70
     8
 71
     3
 72
    11
 73
     7
 74
     0
 42
0.00000001
 43
0.00000001
 40
0.0
 40
0.0
 40
0.0
 40
0.0
 40
0.2506671725023492
 40
0.5010414677145718
 40
0.7508849997170933
 40
1.0
 40
1.0
 40
1.0
 40
1.0
 10
219.6445065393227
 20
90.90683449285443
 30
0.0
 10
219.6176319726675
 20
90.9363405128536
 30
0.0
 10
219.5639142393613
 20
90.9953180782812
 30
0.0
 10
219.2784487757074
 20
91.08205134709291
 30
0.0
 10
218.8569206290877
 20
91.16637237731943
 30
0.0
 10
218.4405635513907
 20
91.21895536993401
 30
0.0
 10
218.2326889750142
 20
91.24520847790284
 30
0.0
  0
SPLINE
  5
1B0
330
1F
100
AcDbEntity
  8
0
  6
Continuous
 62
     7
370
    25
100
AcDbSpline
210
0.0
220
0.0
230
1.0
 70
     8
 71
     3
 72
     9
 73
     5
 74
     0
 42
0.00000001
 43
0.00000001
 40
0.0
 40
0.0
 40
0.0
 40
0.0
 40
0.501325902198991
 40
1.0
 40
1.0
 40
1.0
 40
1.0
 10
218.2326889216501
 20
91.24520824361561
 30
0.0
 10
218.10764626418
 20
91.25663009072822
 30
0.0
 10
217.8582223726124
 20
91.27941336815817
 30
0.0
 10
217.5564542641912
 20
91.27647541425068
 30
0.0
 10
217.4059703249791
 20
91.2750103327365
 30
0.0
  0
LINE
  5
1B1
330
1F
100
AcDbEntity
  8
0
  6
Continuous
 62
     7
370
    25
100
AcDbLine
 10
217.2912038857
 20
94.8676800763
 30
0.0
 11
217.4059790932
 21
91.2751099897
 31
0.0
  0
SPLINE
  5
1B2
330
1F
100
AcDbEntity
  8
0
  6
Continuous
 62
     7
370
    25
100
AcDbSpline
210
0.0
220
0.0
230
1.0
 70
     8
 71
     3
 72
    14
 73
    10
 74
     0
 42
0.00000001
 43
0.00000001
 40
0.0
 40
0.0
 40
0.0
 40
0.0
 40
0.0829413618596714
 40
0.1664594845668882
 40
0.2437726390188662
 40
0.3161479456895724
 40
0.4353725718192331
 40
0.6486290670514194
 40
1.0
 40
1.0
 40
1.0
 40
1.0
 10
217.2912038904824
 20
94.86768006365331
 30
0.0
 10
217.2930190800648
 20
94.95754397124318
 30
0.0
 10
217.2966620817651
 20
95.13789668553652
 30
0.0
 10
217.3783232142526
 20
95.4257813963224
 30
0.0
 10
217.5116066945375
 20
95.67730742374917
 30
0.0
 10
217.6999331507751
 20
95.91125675365019
 30
0.0
 10
217.9982002304374
 20
96.15206772415816
 30
0.0
 10
218.4562273892227
 20
96.34400932739754
 30
0.0
 10
218.7285629179006
 20
96.35852263102043
 30
0.0
 10
218.8980389015504
 20
96.36755434428765
 30
0.0
  0
LINE
  5
1B3
330
1F
100
AcDbEntity
  8
0
  6
Continuous
 62
     7
370
    25
100
AcDbLine
 10
226.5881898705
 20
91.2751099897
 30
0.0
 11
226.702965078
 21
94.8676800763
 31
0.0
  0
SPLINE
  5
1B4
330
1F
100
AcDbEntity
  8
0
  6
Continuous
 62
     7
370
    25
100
AcDbSpline
210
0.0
220
0.0
230
1.0
 70
     8
 71
     3
 72
     9
 73
     5
 74
     0
 42
0.00000001
 43
0.00000001
 40
0.0
 40
0.0
 40
0.0
 40
0.0
 40
0.4986740982738612
 40
1.0
 40
1.0
 40
1.0
 40
1.0
 10
226.5881988204957
 20
91.2750095033333
 30
0.0
 10
226.4377148842167
 20
91.27647458258994
 30
0.0
 10
226.1359467819633
 20
91.27941253196754
 30
0.0
 10
225.886522890341
 20
91.25662925303585
 30
0.0
 10
225.7614802329614
 20
91.24520740518113
 30
0.0
  0
SPLINE
  5
1B5
330
1F
100
AcDbEntity
  8
0
  6
Continuous
 62
     7
370
    25
100
AcDbSpline
210
0.0
220
0.0
230
1.0
 70
     8
 71
     3
 72
    11
 73
     7
 74
     0
 42
0.00000001
 43
0.00000001
 40
0.0
 40
0.0
 40
0.0
 40
0.0
 40
0.2491150002829079
 40
0.4989585322854286
 40
0.7493328274976518
 40
1.0
 40
1.0
 40
1.0
 40
1.0
 10
225.7614799886253
 20
91.24520847790284
 30
0.0
 10
225.5536054122488
 20
91.21895536993402
 30
0.0
 10
225.1372483345518
 20
91.16637237731943
 30
0.0
 10
224.7157201879322
 20
91.08205134709293
 30
0.0
 10
224.4302547242783
 20
90.9953180782812
 30
0.0
 10
224.3765369909721
 20
90.9363405128536
 30
0.0
 10
224.3496624243169
 20
90.90683449285443
 30
0.0
  0
SPLINE
  5
1B6
330
1F
100
AcDbEntity
  8
0
  6
Continuous
 62
     7
370
    25
100
AcDbSpline
210
0.0
220
0.0
230
1.0
 70
     8
 71
     3
 72
    10
 73
     6
 74
     0
 42
0.00000001
 43
0.00000001
 40
0.0
 40
0.0
 40
0.0
 40
0.0
 40
0.428349366631063
 40
0.7616603141144169
 40
1.0
 40
1.0
 40
1.0
 40
1.0
 10
224.2742130225961
 20
96.85448059623876
 30
0.0
 10
224.3071596677333
 20
96.7526843334156
 30
0.0
 10
224.3657430439187
 20
96.57167747416106
 30
0.0
 10
224.6020871561737
 20
96.39801509120798
 30
0.0
 10
224.7810087214474
 20
96.37652781331218
 30
0.0
 10
224.8556069238743
 20
96.36756907039252
 30
0.0
  0
LINE
  5
1B7
330
1F
100
AcDbEntity
  8
0
  6
Continuous
 62
     7
370
    25
100
AcDbLine
 10
224.8620328943
 20
96.3675690704
 30
0.0
 11
225.096128028
 21
96.3675690704
 31
0.0
  0
SPLINE
  5
1B8
330
1F
100
AcDbEntity
  8
0
  6
Continuous
 62
     7
370
    25
100
AcDbSpline
210
0.0
220
0.0
230
1.0
 70
     8
 71
     3
 72
    15
 73
    11
 74
     0
 42
0.00000001
 43
0.00000001
 40
0.0
 40
0.0
 40
0.0
 40
0.0
 40
0.2091652517822448
 40
0.4176299509274911
 40
0.5931463878153098
 40
0.6923603779431111
 40
0.7731125739307029
 40
0.8543366880968446
 40
0.9261517123972134
 40
1.0
 40
1.0
 40
1.0
 40
1.0
 10
225.0961300623206
 20
96.36755434428662
 30
0.0
 10
225.19382769481
 20
96.36446285378814
 30
0.0
 10
225.3888957432293
 20
96.35829022705319
 30
0.0
 10
225.7381755965818
 20
96.26801676724298
 30
0.0
 10
226.0710657835252
 20
96.09941031513961
 30
0.0
 10
226.3326838695612
 20
95.86996160708664
 30
0.0
 10
226.513277882475
 20
95.6321825638303
 30
0.0
 10
226.6353720457853
 20
95.3702660669918
 30
0.0
 10
226.6994220351038
 20
95.1047244922538
 30
0.0
 10
226.7017731211417
 20
94.94742676123224
 30
0.0
 10
226.7029650731552
 20
94.86768006367348
 30
0.0
  0
SPLINE
  5
1B9
330
1F
100
AcDbEntity
  8
0
  6
Continuous
 62
     7
370
    25
100
AcDbSpline
210
0.0
220
0.0
230
1.0
 70
     8
 71
     3
 72
    11
 73
     7
 74
     0
 42
0.00000001
 43
0.00000001
 40
0.0
 40
0.0
 40
0.0
 40
0.0
 40
0.279563842830426
 40
0.5590315778757569
 40
0.7794196683313495
 40
1.0
 40
1.0
 40
1.0
 40
1.0
 10
218.2326889750142
 20
91.24520847790284
 30
0.0
 10
218.2089397988873
 20
90.987942867722
 30
0.0
 10
218.1614496110681
 20
90.47350008951267
 30
0.0
 10
218.4971366924863
 20
89.83098589027352
 30
0.0
 10
218.9758515817497
 20
89.43931258907959
 30
0.0
 10
219.327737152419
 20
89.39149052600162
 30
0.0
 10
219.5037566404216
 20
89.36756907039262
 30
0.0
  0
SPLINE
  5
1BA
330
1F
100
AcDbEntity
  8
0
  6
Continuous
 62
     7
370
    25
100
AcDbSpline
210
0.0
220
0.0
230
1.0
 70
    24
 71
     3
 72
    11
 73
     7
 74
     0
 42
0.00000001
 43
0.00000001
 40
0.0
 40
0.0
 40
0.0
 40
0.0
 40
0.2799317596299056
 40
0.5599103390525024
 40
0.7799480709991913
 40
1.0
 40
1.0
 40
1.0
 40
1.0
 10
219.5037566404216
 20
89.36756907039262
 30
0.0
 10
219.7713245978612
 20
89.36756907039262
 30
0.0
 10
220.3065052646338
 20
89.36756907039262
 30
0.0
 10
220.7803720582962
 20
89.36756907039262
 30
0.0
 10
221.0656218158449
 20
89.3675690703926
 30
0.0
 10
221.1175258407421
 20
89.36756907039262
 30
0.0
 10
221.1434786903886
 20
89.36756907039262
 30
0.0
  0
SPLINE
  5
1BB
330
1F
100
AcDbEntity
  8
0
  6
Continuous
 62
     7
370
    25
100
AcDbSpline
210
0.0
220
0.0
230
1.0
 70
     8
 71
     3
 72
    11
 73
     7
 74
     0
 42
0.00000001
 43
0.00000001
 40
0.0
 40
0.0
 40
0.0
 40
0.0
 40
0.2795638428677817
 40
0.5590315779132448
 40
0.7794196683689383
 40
0.9999999999999999
 40
0.9999999999999999
 40
0.9999999999999999
 40
0.9999999999999999
 10
224.4904123232179
 20
89.36756907039262
 30
0.0
 10
224.7143927387841
 20
89.4060879223407
 30
0.0
 10
225.1622765704386
 20
89.48311238431353
 30
0.0
 10
225.6222168055441
 20
90.01591028210322
 30
0.0
 10
225.8335912464434
 20
90.64364684896961
 30
0.0
 10
225.7855240595641
 20
91.04462966513825
 30
0.0
 10
225.7614799886253
 20
91.24520847790285
 30
0.0
  0
SPLINE
  5
1BC
330
1F
100
AcDbEntity
  8
0
  6
Continuous
 62
     7
370
    25
100
AcDbSpline
210
0.0
220
0.0
230
1.0
 70
    24
 71
     3
 72
    11
 73
     7
 74
     0
 42
0.00000001
 43
0.00000001
 40
0.0
 40
0.0
 40
0.0
 40
0.0
 40
0.2799857774483057
 40
0.5599458358671288
 40
0.779998565900937
 40
0.9999999999999999
 40
0.9999999999999999
 40
0.9999999999999999
 40
0.9999999999999999
 10
222.8506902732509
 20
89.36756907039262
 30
0.0
 10
222.8884439928588
 20
89.36756907039262
 30
0.0
 10
222.9639479640805
 20
89.36756907039262
 30
0.0
 10
223.3455011143893
 20
89.36756907039262
 30
0.0
 10
223.8489317962024
 20
89.36756907039262
 30
0.0
 10
224.2766020983397
 20
89.36756907039262
 30
0.0
 10
224.4904123232179
 20
89.36756907039262
 30
0.0
  0
SPLINE
  5
1BD
330
1F
100
AcDbEntity
  8
0
  6
Continuous
 62
     7
370
    25
100
AcDbSpline
210
0.0
220
0.0
230
1.0
 70
     8
 71
     3
 72
    11
 73
     7
 74
     0
 42
0.00000001
 43
0.00000001
 40
0.0
 40
0.0
 40
0.0
 40
0.0
 40
0.2499999999999989
 40
0.4999999999999996
 40
0.749999999999999
 40
1.0
 40
1.0
 40
1.0
 40
1.0
 10
225.1021985356243
 20
96.36756907039259
 30
0.0
 10
225.0377948254292
 20
96.37483138004474
 30
0.0
 10
224.9089874050391
 20
96.38935599934904
 30
0.0
 10
224.7455447364287
 20
96.50132820294152
 30
0.0
 10
224.6293708295555
 20
96.6618397809665
 30
0.0
 10
224.6114843778089
 20
96.79026699114793
 30
0.0
 10
224.6025411519357
 20
96.85448059623866
 30
0.0
  0
SPLINE
  5
1BE
330
1F
100
AcDbEntity
  8
0
  6
Continuous
 62
     7
370
    25
100
AcDbSpline
210
0.0
220
0.0
230
1.0
 70
     8
 71
     3
 72
    11
 73
     7
 74
     0
 42
0.00000001
 43
0.00000001
 40
0.0
 40
0.0
 40
0.0
 40
0.0
 40
0.2500000000000009
 40
0.5000000000000002
 40
0.7500000000000007
 40
0.9999999999999999
 40
0.9999999999999999
 40
0.9999999999999999
 40
0.9999999999999999
 10
219.3916278117038
 20
96.85448059623866
 30
0.0
 10
219.3826845858306
 20
96.79026699114793
 30
0.0
 10
219.3647981340841
 20
96.66183978096649
 30
0.0
 10
219.2486242272108
 20
96.50132820294152
 30
0.0
 10
219.0851815586005
 20
96.38935599934904
 30
0.0
 10
218.9563741382103
 20
96.37483138004474
 30
0.0
 10
218.8919704280152
 20
96.36756907039259
 30
0.0
  0
SPLINE
  5
1BF
330
1F
100
AcDbEntity
  8
0
  6
Continuous
 62
     7
370
    25
100
AcDbSpline
210
0.0
220
0.0
230
1.0
 70
     8
 71
     3
 72
     9
 73
     5
 74
     0
 42
0.00000001
 43
0.00000001
 40
0.0
 40
0.0
 40
0.0
 40
0.0
 40
0.5642319118445199
 40
1.0
 40
1.0
 40
1.0
 40
1.0
 10
217.2953694368204
 20
89.19211610924349
 30
0.0
 10
217.7708010480939
 20
89.24569807797081
 30
0.0
 10
218.6134184210092
 20
89.34066252007787
 30
0.0
 10
219.2335312559144
 20
89.35940269861835
 30
0.0
 10
219.5037566404216
 20
89.36756907039262
 30
0.0
  0
SPLINE
  5
1C0
330
1F
100
AcDbEntity
  8
0
  6
Continuous
 62
     7
370
    25
100
AcDbSpline
210
0.0
220
0.0
230
1.0
 70
     8
 71
     3
 72
    13
 73
     9
 74
     0
 42
0.00000001
 43
0.00000001
 40
0.0
 40
0.0
 40
0.0
 40
0.0
 40
0.0926677825201017
 40
0.1856533156297215
 40
0.2733112842947874
 40
0.413548892575832
 40
0.6528449691515644
 40
1.0
 40
1.0
 40
1.0
 40
1.0
 10
217.4059694225782
 20
91.27500958404183
 30
0.0
 10
217.4084040900293
 20
91.18077486692303
 30
0.0
 10
217.413281773216
 20
90.99198230919956
 30
0.0
 10
217.4132072860699
 20
90.67877190497869
 30
0.0
 10
217.4068202290136
 20
90.33703777018562
 30
0.0
 10
217.3889055829168
 20
89.92018361328225
 30
0.0
 10
217.3518438421503
 20
89.43695496761936
 30
0.0
 10
217.3163690565966
 20
89.28315775726611
 30
0.0
 10
217.2953694368204
 20
89.19211610924349
 30
0.0
  0
SPLINE
  5
1C1
330
1F
100
AcDbEntity
  8
0
  6
Continuous
 62
     7
370
    25
100
AcDbSpline
210
0.0
220
0.0
230
1.0
 70
     8
 71
     3
 72
     9
 73
     5
 74
     0
 42
0.00000001
 43
0.00000001
 40
0.0
 40
0.0
 40
0.0
 40
0.0
 40
0.5551829690770672
 40
1.0
 40
1.0
 40
1.0
 40
1.0
 10
224.4904123232179
 20
89.36756907039262
 30
0.0
 10
224.840666781966
 20
89.35457004990155
 30
0.0
 10
225.4715479117138
 20
89.33115611032652
 30
0.0
 10
226.3209645429127
 20
89.23492247097481
 30
0.0
 10
226.6987995268192
 20
89.19211610924349
 30
0.0
  0
SPLINE
  5
1C2
330
1F
100
AcDbEntity
  8
0
  6
Continuous
 62
     7
370
    25
100
AcDbSpline
210
0.0
220
0.0
230
1.0
 70
     8
 71
     3
 72
    13
 73
     9
 74
     0
 42
0.00000001
 43
0.00000001
 40
0.0
 40
0.0
 40
0.0
 40
0.0
 40
0.3327087167328941
 40
0.5628656559531299
 40
0.69871241253847
 40
0.8016200683166478
 40
0.9052998751809794
 40
1.0
 40
1.0
 40
1.0
 40
1.0
 10
226.6987995268192
 20
89.19211610924349
 30
0.0
 10
226.6786667029121
 20
89.27790168416163
 30
0.0
 10
226.6446066540925
 20
89.42303089619965
 30
0.0
 10
226.6085208027223
 20
89.87339759262693
 30
0.0
 10
226.5894820796336
 20
90.2731387412328
 30
0.0
 10
226.5812085456811
 20
90.62903098764436
 30
0.0
 10
226.5805322834907
 20
90.97646483467858
 30
0.0
 10
226.5857220942585
 20
91.17854370585766
 30
0.0
 10
226.5881995410614
 20
91.27500958404183
 30
0.0
  0
SPLINE
  5
1C3
330
1F
100
AcDbEntity
  8
0
  6
Continuous
 62
     7
370
    25
100
AcDbSpline
210
0.0
220
0.0
230
1.0
 70
     8
 71
     3
 72
    13
 73
     9
 74
     0
 42
0.00000001
 43
0.00000001
 40
0.0
 40
0.0
 40
0.0
 40
0.0
 40
0.1400312919410834
 40
0.2800978778503041
 40
0.4240602241121907
 40
0.5680316995452359
 40
0.7822812815056388
 40
0.9999999999999999
 40
0.9999999999999999
 40
0.9999999999999999
 40
0.9999999999999999
 10
219.7228619503149
 20
84.75545226932115
 30
0.0
 10
219.6340163300056
 20
85.07357788946177
 30
0.0
 10
219.4563026964315
 20
85.70990931121777
 30
0.0
 10
219.1020866774332
 20
86.54301740264123
 30
0.0
 10
218.7109107516201
 20
87.28531417734409
 30
0.0
 10
218.2361379883525
 20
88.02377254914026
 30
0.0
 10
217.6957878048314
 20
88.70692717382252
 30
0.0
 10
217.4173271854078
 20
88.9974923301621
 30
0.0
 10
217.2769787173646
 20
89.14394167241888
 30
0.0
  0
ELLIPSE
  5
1C4
330
1F
100
AcDbEntity
  8
0
  6
Continuous
 62
     7
370
    25
100
AcDbEllipse
 10
217.4387635611
 20
70.2945618231
 30
0.0
 11
0.0
 21
19.0730072472477
 31
0.0
210
0.0
220
0.0
230
1.0
 40
0.0555555556
 41
0.1357435643135846
 42
0.1532827087060913
  0
ELLIPSE
  5
1C5
330
1F
100
AcDbEntity
  8
0
  6
Continuous
 62
     7
370
    25
100
AcDbEllipse
 10
226.5554054026
 20
70.2945618231
 30
0.0
 11
0.0
 21
19.0730072472477
 31
0.0
210
0.0
220
0.0
230
1.0
 40
0.0555555556
 41
6.129902598473738
 42
6.147441742866246
  0
SPLINE
  5
1C6
330
1F
100
AcDbEntity
  8
0
  6
Continuous
 62
     7
370
    25
100
AcDbSpline
210
0.0
220
0.0
230
1.0
 70
     8
 71
     3
 72
    13
 73
     9
 74
     0
 42
0.00000001
 43
0.00000001
 40
0.0
 40
0.0
 40
0.0
 40
0.0
 40
0.1374692963454099
 40
0.2749820892813126
 40
0.4163021045260215
 40
0.5576318202769774
 40
0.777008491451321
 40
1.0
 40
1.0
 40
1.0
 40
1.0
 10
226.717190246275
 20
89.14394167241888
 30
0.0
 10
226.6339117666591
 20
89.05770126298997
 30
0.0
 10
226.4673284573257
 20
88.88519315684786
 30
0.0
 10
226.1216282840969
 20
88.48621108352486
 30
0.0
 10
225.7380639694055
 20
87.98590167205259
 30
0.0
 10
225.262806253807
 20
87.25708120044986
 30
0.0
 10
224.7167034858883
 20
86.2408622502482
 30
0.0
 10
224.4205791040954
 20
85.25327896394467
 30
0.0
 10
224.2713070143728
 20
84.75545227358874
 30
0.0
  0
LINE
  5
1C7
330
1F
100
AcDbEntity
  8
0
  6
Continuous
 62
     7
370
    25
100
AcDbLine
 10
219.7228619503
 20
84.7554522693
 30
0.0
 11
224.2713070144
 21
84.7554522736
 31
0.0
  0
LINE
  5
1C8
330
1F
100
AcDbEntity
  8
0
  6
Continuous
 62
     7
370
    25
100
AcDbLine
 10
216.7726555278
 20
94.8675690704
 30
0.0
 11
217.2911931951
 21
94.8675690704
 31
0.0
  0
ARC
  5
1C9
330
1F
100
AcDbEntity
  8
0
  6
Continuous
 62
     7
370
    25
100
AcDbCircle
 10
210.4970844818
 20
82.4893917887
 30
0.0
 40
9.500000000000004
100
AcDbArc
 50
44.4654416734
 51
48.6553876907
  0
LINE
  5
1CA
330
1F
100
AcDbEntity
  8
0
  6
Continuous
 62
     7
370
    25
100
AcDbLine
 10
216.7726555278
 20
89.621516861
 30
0.0
 11
216.7726555278
 21
94.8675690704
 31
0.0
  0
LINE
  5
1CB
330
1F
100
AcDbEntity
  8
0
  6
Continuous
 62
     7
370
    25
100
AcDbLine
 10
227.2215134359
 20
94.8675690704
 30
0.0
 11
227.2215134359
 21
89.621516861
 31
0.0
  0
ARC
  5
1CC
330
1F
100
AcDbEntity
  8
0
  6
Continuous
 62
     7
370
    25
100
AcDbCircle
 10
233.4970844818
 20
82.4893917887
 30
0.0
 40
9.500000000000021
100
AcDbArc
 50
131.3446123093
 51
135.5345583266
  0
LINE
  5
1CD
330
1F
100
AcDbEntity
  8
0
  6
Continuous
 62
     7
370
    25
100
AcDbLine
 10
226.7029757685
 20
94.8675690704
 30
0.0
 11
227.2215134359
 21
94.8675690704
 31
0.0
  0
ARC
  5
1CE
330
1F
100
AcDbEntity
  8
0
  6
Continuous
 62
     7
370
    25
100
AcDbCircle
 10
225.7226672806
 20
94.8687229165
 30
0.0
 40
1.498846599345435
100
AcDbArc
 50
359.9558924033
 51
89.9558243884
  0
LINE
  5
1CF
330
1F
100
AcDbEntity
  8
0
  6
Continuous
 62
     7
370
    25
100
AcDbLine
 10
225.723822906
 20
96.3675690704
 30
0.0
 11
225.0896157236
 21
96.3675690704
 31
0.0
  0
ARC
  5
1D0
330
1F
100
AcDbEntity
  8
0
  6
Continuous
 62
     7
370
    25
100
AcDbCircle
 10
218.271501683
 20
94.8687229165
 30
0.0
 40
1.49884659934548
100
AcDbArc
 50
90.0441756116
 51
180.0441075967
  0
LINE
  5
1D1
330
1F
100
AcDbEntity
  8
0
  6
Continuous
 62
     7
370
    25
100
AcDbLine
 10
218.90455324
 20
96.3675690704
 30
0.0
 11
218.2703460576
 21
96.3675690704
 31
0.0
  0
LINE
  5
1D2
330
1F
100
AcDbEntity
  8
0
  6
Continuous
 62
     7
370
    25
100
AcDbLine
 10
219.4368836811
 20
96.7976340989
 30
0.0
 11
219.3990985971
 21
96.8450964437
 31
0.0
  0
LINE
  5
1D3
330
1F
100
AcDbEntity
  8
0
  6
Continuous
 62
     7
370
    25
100
AcDbLine
 10
224.5950703666
 20
96.8450964437
 30
0.0
 11
224.5572852826
 21
96.7976340989
 31
0.0
  0
ELLIPSE
  5
1D4
330
1F
100
AcDbEntity
  8
0
  6
Continuous
 62
     7
370
    25
100
AcDbEllipse
 10
222.9728332452
 20
99.6675690704
 30
0.0
 11
1.500207016110437
 21
0.02894030982646712
 31
0.0
210
0.0
220
0.0
230
1.0
 40
0.2796306798
 41
6.257897524076023
 42
6.352579583335858
  0
LINE
  5
1D5
330
1F
100
AcDbEntity
  8
0
  6
Continuous
 62
     7
370
    25
100
AcDbLine
 10
216.7804531693
 20
89.6146144382
 30
0.0
 11
216.7726555278
 21
89.621516861
 31
0.0
  0
LINE
  5
1D6
330
1F
100
AcDbEntity
  8
0
  6
Continuous
 62
     7
370
    25
100
AcDbLine
 10
227.2215134359
 20
89.621516861
 30
0.0
 11
227.2137157944
 21
89.6146144382
 31
0.0
  0
SPLINE
  5
1D7
330
1F
100
AcDbEntity
  8
0
  6
Continuous
 62
     7
370
    25
100
AcDbSpline
210
0.0
220
0.0
230
1.0
 70
     8
 71
     3
 72
     9
 73
     5
 74
     0
 42
0.00000001
 43
0.00000001
 40
0.0
 40
0.0
 40
0.0
 40
0.0
 40
0.0576289627817999
 40
1.0
 40
1.0
 40
1.0
 40
1.0
 10
223.7595980323476
 20
84.75545227310863
 30
0.0
 10
223.7547419602519
 20
84.73794900009027
 30
0.0
 10
223.6704775233897
 20
84.43422545252895
 30
0.0
 10
223.6235194002185
 20
84.09164525809182
 30
0.0
 10
223.5792674249798
 20
83.76880760492969
 30
0.0
  0
SPLINE
  5
1D8
330
1F
100
AcDbEntity
  8
0
  6
Continuous
 62
     7
370
    25
100
AcDbSpline
210
0.0
220
0.0
230
1.0
 70
     8
 71
     3
 72
    10
 73
     6
 74
     0
 42
0.00000001
 43
0.00000001
 40
0.0
 40
0.0
 40
0.0
 40
0.0
 40
0.2746918501531821
 40
0.5573359346812419
 40
1.0
 40
1.0
 40
1.0
 40
1.0
 10
223.5792674249798
 20
83.76880760492969
 30
0.0
 10
223.2946466666255
 20
83.8220316480928
 30
0.0
 10
222.717165477072
 20
83.93002055212212
 30
0.0
 10
221.6381475339053
 20
83.97180662536066
 30
0.0
 10
220.8785144894725
 20
83.84574468483014
 30
0.0
 10
220.4149015386598
 20
83.76880760492969
 30
0.0
  0
LINE
  5
1D9
330
1F
100
AcDbEntity
  8
0
  6
Continuous
 62
     7
370
    25
100
AcDbLine
 10
220.4149015387
 20
83.7688076049
 30
0.0
 11
220.1996667529
 21
84.7554522698
 31
0.0
  0
LINE
  5
1DA
330
1F
100
AcDbEntity
  8
0
  6
Continuous
 62
     7
370
    25
100
AcDbLine
 10
213.8170844818
 20
81.6675690704
 30
0.0
 11
222.9970844818
 21
81.6675690704
 31
0.0
  0
LWPOLYLINE
  5
1DB
330
1F
100
AcDbEntity
  8
0
  6
Continuous
 62
     7
370
    25
100
AcDbPolyline
 90
        3
 70
   128
 43
0.0
 10
213.8784392746
 20
81.6675690704
 10
213.9719229508
 20
80.739824881
 10
214.0144518172
 20
80.3178172109
  0
LINE
  5
1DC
330
1F
100
AcDbEntity
  8
0
  6
Continuous
 62
     7
370
    25
100
AcDbLine
 10
222.9970844818
 20
80.3178172109
 30
0.0
 11
222.9970844818
 21
81.6675690704
 31
0.0
  0
LINE
  5
1DD
330
1F
100
AcDbEntity
  8
0
  6
Continuous
 62
     7
370
    25
100
AcDbLine
 10
214.4384755911
 20
97.8675690704
 30
0.0
 11
219.4372591448
 21
97.8675690704
 31
0.0
  0
LINE
  5
1DE
330
1F
100
AcDbEntity
  8
0
  6
Continuous
 62
     7
370
    25
100
AcDbLine
 10
224.5569098189
 20
97.8675690704
 30
0.0
 11
229.5556933721
 21
97.8675690704
 31
0.0
  0
SPLINE
  5
1DF
330
1F
100
AcDbEntity
  8
0
  6
Continuous
 62
     7
370
    25
100
AcDbSpline
210
0.0
220
0.0
230
1.0
 70
     8
 71
     3
 72
    12
 73
     8
 74
     0
 42
0.00000001
 43
0.00000001
 40
0.0
 40
0.0
 40
0.0
 40
0.0
 40
0.2271543139929597
 40
0.4542742953683958
 40
0.6823371405829708
 40
0.9121899191033218
 40
1.0
 40
1.0
 40
1.0
 40
1.0
 10
214.0144518171744
 20
80.31781721088211
 30
0.0
 10
214.0255557623728
 20
80.26269740398776
 30
0.0
 10
214.047761974494
 20
80.15246612113147
 30
0.0
 10
214.1482581860325
 20
80.01261206154305
 30
0.0
 10
214.285720460863
 20
79.91236367245749
 30
0.0
 10
214.4166940442192
 20
79.87143498188276
 30
0.0
 10
214.4945870280339
 20
79.86840628039343
 30
0.0
 10
214.5161186267314
 20
79.8675690703926
 30
0.0
  0
LINE
  5
1E0
330
1F
100
AcDbEntity
  8
0
  6
Continuous
 62
     7
370
    25
100
AcDbLine
 10
229.5445907008
 20
79.8675690704
 30
0.0
 11
222.9970844818
 21
79.8675690704
 31
0.0
  0
SPLINE
  5
1E1
330
1F
100
AcDbEntity
  8
0
  6
Continuous
 62
     7
370
    25
100
AcDbSpline
210
0.0
220
0.0
230
1.0
 70
    24
 71
     3
 72
    12
 73
     8
 74
     0
 42
0.00000001
 43
0.00000001
 40
0.0
 40
0.0
 40
0.0
 40
0.0
 40
0.2316347876629375
 40
0.46330664808196
 40
0.6939442291381526
 40
0.9227406525226395
 40
1.0
 40
1.0
 40
1.0
 40
1.0
 10
222.9970844818198
 20
79.8675690703926
 30
0.0
 10
222.9970844818198
 20
79.87315853542289
 30
0.0
 10
222.9970844818198
 20
79.88433836006786
 30
0.0
 10
222.9970844818198
 20
79.97166142602352
 30
0.0
 10
222.9970844818198
 20
80.09997159980557
 30
0.0
 10
222.9970844818198
 20
80.2246510265034
 30
0.0
 10
222.9970844818198
 20
80.29903903525668
 30
0.0
 10
222.9970844818198
 20
80.31781721088211
 30
0.0
  0
SPLINE
  5
1E2
330
1F
100
AcDbEntity
  8
0
  6
Continuous
 62
     7
370
    25
100
AcDbSpline
210
0.0
220
0.0
230
1.0
 70
     8
 71
     3
 72
    11
 73
     7
 74
     0
 42
0.00000001
 43
0.00000001
 40
0.0
 40
0.0
 40
0.0
 40
0.0
 40
0.2981995125517625
 40
0.5964325929955623
 40
0.8933636912282922
 40
1.0
 40
1.0
 40
1.0
 40
1.0
 10
216.0810046987202
 20
79.8675690703926
 30
0.0
 10
216.1970271903285
 20
79.87876583599824
 30
0.0
 10
216.429085234031
 20
79.90116062761335
 30
0.0
 10
216.7309890841992
 20
80.08050955375747
 30
0.0
 10
216.9309362126191
 20
80.27865624732677
 30
0.0
 10
216.9832590096778
 20
80.42627266917827
 30
0.0
 10
216.9970844818198
 20
80.46527797552146
 30
0.0
  0
LINE
  5
1E3
330
1F
100
AcDbEntity
  8
0
  6
Continuous
 62
     7
370
    25
100
AcDbLine
 10
216.9970844818
 20
79.8675690704
 30
0.0
 11
216.0810046987
 21
79.8675690704
 31
0.0
  0
LINE
  5
1E4
330
1F
100
AcDbEntity
  8
0
  6
Continuous
 62
     7
370
    25
100
AcDbLine
 10
214.5161186267
 20
79.8675690704
 30
0.0
 11
216.0810046987
 21
79.8675690704
 31
0.0
  0
LINE
  5
1E5
330
1F
100
AcDbEntity
  8
0
  6
Continuous
 62
     7
370
    25
100
AcDbLine
 10
221.1970844818
 20
81.3675690704
 30
0.0
 11
222.7970844818
 21
81.3675690704
 31
0.0
  0
LINE
  5
1E6
330
1F
100
AcDbEntity
  8
0
  6
Continuous
 62
     7
370
    25
100
AcDbLine
 10
213.7470844818
 20
73.4175690704
 30
0.0
 11
230.2470844818
 21
73.4175690704
 31
0.0
  0
SPLINE
  5
1E7
330
1F
100
AcDbEntity
  8
0
  6
Continuous
 62
     7
370
    25
100
AcDbSpline
210
0.0
220
0.0
230
1.0
 70
     8
 71
     3
 72
    11
 73
     7
 74
     0
 42
0.00000001
 43
0.00000001
 40
0.0
 40
0.0
 40
0.0
 40
0.0
 40
0.2843931288920266
 40
0.5687862577840547
 40
0.8531793866760868
 40
0.9999999999999999
 40
0.9999999999999999
 40
0.9999999999999999
 40
0.9999999999999999
 10
223.5751972711332
 20
99.68589293420813
 30
0.0
 10
223.5627307475178
 20
99.77595555505656
 30
0.0
 10
223.537797700287
 20
99.95608079675341
 30
0.0
 10
223.3743443415569
 20
100.1783434001671
 30
0.0
 10
223.1850024030506
 20
100.3176475333042
 30
0.0
 10
223.0493528520718
 20
100.3362879586436
 30
0.0
 10
223.0031665914729
 20
100.3426346920916
 30
0.0
  0
LINE
  5
1E8
330
1F
100
AcDbEntity
  8
0
  6
Continuous
 62
     7
370
    25
100
AcDbLine
 10
219.3990985971
 20
96.8450964437
 30
0.0
 11
219.3916278117
 21
96.8544805962
 31
0.0
  0
ELLIPSE
  5
1E9
330
1F
100
AcDbEntity
  8
0
  6
Continuous
 62
     7
370
    25
100
AcDbEllipse
 10
221.0213357185
 20
99.6675690704
 30
0.0
 11
1.500207016110437
 21
-0.02894030982645291
 31
0.0
210
0.0
220
0.0
230
1.0
 40
0.2796306798
 41
3.072239956220764
 42
3.166880436693421
  0
LINE
  5
1EA
330
1F
100
AcDbEntity
  8
0
  6
Continuous
 62
     7
370
    25
100
AcDbLine
 10
216.7726555278
 20
94.8675690704
 30
0.0
 11
216.7703460576
 21
94.8675690704
 31
0.0
  0
LINE
  5
1EB
330
1F
100
AcDbEntity
  8
0
  6
Continuous
 62
     7
370
    25
100
AcDbLine
 10
227.223822906
 20
94.8675690704
 30
0.0
 11
227.2215134359
 21
94.8675690704
 31
0.0
  0
LINE
  5
1EC
330
1F
100
AcDbEntity
  8
0
  6
Continuous
 62
     7
370
    25
100
AcDbLine
 10
216.7703460576
 20
89.7556446561
 30
0.0
 11
213.0082769232
 21
89.7556446561
 31
0.0
  0
LINE
  5
1ED
330
1F
100
AcDbEntity
  8
0
  6
Continuous
 62
     7
370
    25
100
AcDbLine
 10
230.9858920404
 20
89.7556446561
 30
0.0
 11
227.223822906
 21
89.7556446561
 31
0.0
  0
LINE
  5
1EE
330
1F
100
AcDbEntity
  8
0
  6
Continuous
 62
     7
370
    25
100
AcDbLine
 10
222.9970844818
 20
80.3178172109
 30
0.0
 11
230.0421092959
 21
80.3178172109
 31
0.0
  0
LINE
  5
1EF
330
1F
100
AcDbEntity
  8
0
  6
Continuous
 62
     7
370
    25
100
AcDbLine
 10
227.223822906
 20
89.9791831098
 30
0.0
 11
230.9831327269
 21
89.9791831098
 31
0.0
  0
LINE
  5
1F0
330
1F
100
AcDbEntity
  8
0
  6
Continuous
 62
     7
370
    25
100
AcDbLine
 10
213.0110362367
 20
89.9791831098
 30
0.0
 11
216.7703460576
 21
89.9791831098
 31
0.0
  0
LINE
  5
1F1
330
1F
100
AcDbEntity
  8
0
  6
Continuous
 62
     7
370
    25
100
AcDbLine
 10
230.0518323109
 20
97.4295864377
 30
0.0
 11
224.5769844634
 21
97.4295864377
 31
0.0
  0
LINE
  5
1F2
330
1F
100
AcDbEntity
  8
0
  6
Continuous
 62
     7
370
    25
100
AcDbLine
 10
219.4171845003
 20
97.4295864377
 30
0.0
 11
213.9423366527
 21
97.4295864377
 31
0.0
  0
LINE
  5
1F3
330
1F
100
AcDbEntity
  8
0
  6
Continuous
 62
     7
370
    25
100
AcDbLine
 10
222.9970844818
 20
81.1675690704
 30
0.0
 11
220.9970844818
 21
81.1675690704
 31
0.0
  0
INSERT
  5
1FF
330
1F
100
AcDbEntity
  8
0
  6
Continuous
 62
     7
370
    18
100
AcDbBlockReference
  2
SW_CENTERMARKSYMBOL_0
 10
221.9970844818
 20
60.6675690704
 30
0.0
  0
LINE
  5
200
330
1F
100
AcDbEntity
  8
0
  6
Continuous
 62
     7
370
    25
100
AcDbLine
 10
131.9064527998
 20
151.0494717686
 30
0.0
 11
131.6564527998
 21
150.7994717686
 31
0.0
  0
LINE
  5
201
330
1F
100
AcDbEntity
  8
0
  6
Continuous
 62
     7
370
    25
100
AcDbLine
 10
131.6564527998
 20
127.2994717686
 30
0.0
 11
131.9064527998
 21
127.0494717686
 31
0.0
  0
LINE
  5
202
330
1F
100
AcDbEntity
  8
0
  6
Continuous
 62
     7
370
    25
100
AcDbLine
 10
134.6564527998
 20
151.0494717686
 30
0.0
 11
131.9064527998
 21
151.0494717686
 31
0.0
  0
LINE
  5
203
330
1F
100
AcDbEntity
  8
0
  6
Continuous
 62
     7
370
    25
100
AcDbLine
 10
131.9064527998
 20
127.0494717686
 30
0.0
 11
134.6564527998
 21
127.0494717686
 31
0.0
  0
LINE
  5
204
330
1F
100
AcDbEntity
  8
0
  6
Continuous
 62
     7
370
    25
100
AcDbLine
 10
120.6564527998
 20
149.5269717686
 30
0.0
 11
119.6564527998
 21
148.5269717686
 31
0.0
  0
LINE
  5
205
330
1F
100
AcDbEntity
  8
0
  6
Continuous
 62
     7
370
    25
100
AcDbLine
 10
119.6564527998
 20
129.5719717686
 30
0.0
 11
120.6564527998
 21
128.5719717686
 31
0.0
  0
LINE
  5
206
330
1F
100
AcDbEntity
  8
0
  6
Continuous
 62
     7
370
    25
100
AcDbLine
 10
128.1564527998
 20
128.5719717686
 30
0.0
 11
129.1564527998
 21
129.5719717686
 31
0.0
  0
LINE
  5
207
330
1F
100
AcDbEntity
  8
0
  6
Continuous
 62
     7
370
    25
100
AcDbLine
 10
129.1564527998
 20
148.5269717686
 30
0.0
 11
128.1564527998
 21
149.5269717686
 31
0.0
  0
LINE
  5
208
330
1F
100
AcDbEntity
  8
0
  6
Continuous
 62
     7
370
    25
100
AcDbLine
 10
128.1564527998
 20
149.5269717686
 30
0.0
 11
120.6564527998
 21
149.5269717686
 31
0.0
  0
LINE
  5
209
330
1F
100
AcDbEntity
  8
0
  6
Continuous
 62
     7
370
    25
100
AcDbLine
 10
120.6564527998
 20
128.5719717686
 30
0.0
 11
128.1564527998
 21
128.5719717686
 31
0.0
  0
LINE
  5
20A
330
1F
100
AcDbEntity
  8
0
  6
Continuous
 62
     7
370
    25
100
AcDbLine
 10
131.6564527998
 20
148.0494717686
 30
0.0
 11
129.1564527998
 21
148.0494717686
 31
0.0
  0
LINE
  5
20B
330
1F
100
AcDbEntity
  8
0
  6
Continuous
 62
     7
370
    25
100
AcDbLine
 10
129.1564527998
 20
130.0494717686
 30
0.0
 11
131.6564527998
 21
130.0494717686
 31
0.0
  0
LINE
  5
20C
330
1F
100
AcDbEntity
  8
0
  6
Continuous
 62
     7
370
    25
100
AcDbLine
 10
160.1564527998
 20
128.3582217686
 30
0.0
 11
172.4600615268
 21
128.7427095413
 31
0.0
  0
LINE
  5
20D
330
1F
100
AcDbEntity
  8
0
  6
Continuous
 62
     7
370
    25
100
AcDbLine
 10
172.4600615268
 20
149.3562339959
 30
0.0
 11
160.1564527998
 21
149.7407217686
 31
0.0
  0
LINE
  5
20E
330
1F
100
AcDbEntity
  8
0
  6
Continuous
 62
     7
370
    25
100
AcDbLine
 10
172.4600615268
 20
128.7427095413
 30
0.0
 11
175.1564527998
 21
130.2994717686
 31
0.0
  0
LINE
  5
20F
330
1F
100
AcDbEntity
  8
0
  6
Continuous
 62
     7
370
    25
100
AcDbLine
 10
175.1564527998
 20
147.7994717686
 30
0.0
 11
172.4600615268
 21
149.3562339959
 31
0.0
  0
LINE
  5
210
330
1F
100
AcDbEntity
  8
0
  6
Continuous
 62
     7
370
    25
100
AcDbLine
 10
97.1126274077
 20
138.1794426862
 30
0.0
 11
97.130046398
 21
138.1794426862
 31
0.0
  0
LINE
  5
211
330
1F
100
AcDbEntity
  8
0
  6
Continuous
 62
     7
370
    25
100
AcDbLine
 10
125.6908004772
 20
143.644630128
 30
0.0
 11
124.4985604203
 21
142.8506568897
 31
0.0
  0
LINE
  5
212
330
1F
100
AcDbEntity
  8
0
  6
Continuous
 62
     7
370
    25
100
AcDbLine
 10
124.4985603611
 20
135.2482865401
 30
0.0
 11
125.6951796331
 21
134.4513970175
 31
0.0
  0
SPLINE
  5
213
330
1F
100
AcDbEntity
  8
0
  6
Continuous
 62
     7
370
    25
100
AcDbSpline
210
0.0
220
0.0
230
1.0
 70
     8
 71
     3
 72
    11
 73
     7
 74
     0
 42
0.00000001
 43
0.00000001
 40
0.0
 40
0.0
 40
0.0
 40
0.0
 40
0.2485427336868735
 40
0.4982459407376401
 40
0.7488347621401439
 40
1.0
 40
1.0
 40
1.0
 40
1.0
 10
124.4984805783227
 20
142.8508016057468
 30
0.0
 10
124.0772004352666
 20
142.6370363722916
 30
0.0
 10
123.2326731458246
 20
142.2085078119916
 30
0.0
 10
121.8760675785905
 20
141.7698138503782
 30
0.0
 10
120.4779704724641
 20
141.4688849058841
 30
0.0
 10
119.5266145734834
 20
141.4076042217715
 30
0.0
 10
119.050390163843
 20
141.3769286800051
 30
0.0
  0
SPLINE
  5
214
330
1F
100
AcDbEntity
  8
0
  6
Continuous
 62
     7
370
    25
100
AcDbSpline
210
0.0
220
0.0
230
1.0
 70
     8
 71
     3
 72
    10
 73
     6
 74
     0
 42
0.00000001
 43
0.00000001
 40
0.0
 40
0.0
 40
0.0
 40
0.0
 40
0.0711023749285984
 40
0.5366329433438182
 40
0.9999999999999999
 40
0.9999999999999999
 40
0.9999999999999999
 40
0.9999999999999999
 10
121.6589654909794
 20
136.3495658113955
 30
0.0
 10
121.7299398833328
 20
136.3353394577928
 30
0.0
 10
122.2656069002064
 20
136.2279685012741
 30
0.0
 10
123.2308821154903
 20
135.8814788015932
 30
0.0
 10
124.0766043528799
 20
135.4589261632347
 30
0.0
 10
124.4984805783227
 20
135.2481419314379
 30
0.0
  0
LINE
  5
215
330
1F
100
AcDbEntity
  8
0
  6
Continuous
 62
     7
370
    25
100
AcDbLine
 10
119.0497188912
 20
141.4025635475
 30
0.0
 11
97.3953278614
 21
140.8355233624
 31
0.0
  0
LINE
  5
216
330
1F
100
AcDbEntity
  8
0
  6
Continuous
 62
     7
370
    25
100
AcDbLine
 10
97.39533138
 20
137.2634200827
 30
0.0
 11
119.0497188912
 21
136.6963799897
 31
0.0
  0
SPLINE
  5
217
330
1F
100
AcDbEntity
  8
0
  6
Continuous
 62
     7
370
    25
100
AcDbSpline
210
0.0
220
0.0
230
1.0
 70
     8
 71
     3
 72
    12
 73
     8
 74
     0
 42
0.00000001
 43
0.00000001
 40
0.0
 40
0.0
 40
0.0
 40
0.0
 40
0.1115150608921325
 40
0.331217453687036
 40
0.5916327686929416
 40
0.8470074943174006
 40
1.0
 40
1.0
 40
1.0
 40
1.0
 10
92.35695962514218
 20
137.9645769417687
 30
0.0
 10
92.37181376923182
 20
137.9323191647489
 30
0.0
 10
92.41593293791365
 20
137.8365084403445
 30
0.0
 10
92.54713306938457
 20
137.7023108944313
 30
0.0
 10
92.73522632408067
 20
137.5788896900003
 30
0.0
 10
92.93303564442719
 20
137.4999443377635
 30
0.0
 10
93.06690257365233
 20
137.4898318276691
 30
0.0
 10
93.11705507209017
 20
137.4860432321613
 30
0.0
  0
SPLINE
  5
218
330
1F
100
AcDbEntity
  8
0
  6
Continuous
 62
     7
370
    25
100
AcDbSpline
210
0.0
220
0.0
230
1.0
 70
     8
 71
     3
 72
    12
 73
     8
 74
     0
 42
0.00000001
 43
0.00000001
 40
0.0
 40
0.0
 40
0.0
 40
0.0
 40
0.0693246477020334
 40
0.2377839840805168
 40
0.4636706813782254
 40
0.7622846516911428
 40
1.0
 40
1.0
 40
1.0
 40
1.0
 10
93.1169221437466
 20
140.6130219725836
 30
0.0
 10
93.09423813693788
 20
140.6129262068275
 30
0.0
 10
93.01643184880392
 20
140.6125977296729
 30
0.0
 10
92.87056730055626
 20
140.5724528537192
 30
0.0
 10
92.67432637627623
 20
140.4884926344055
 30
0.0
 10
92.48072549007816
 20
140.3481652935618
 30
0.0
 10
92.39290272947159
 20
140.2026039530647
 30
0.0
 10
92.3539773576857
 20
140.1380873145831
 30
0.0
  0
SPLINE
  5
219
330
1F
100
AcDbEntity
  8
0
  6
Continuous
 62
     7
370
    25
100
AcDbSpline
210
0.0
220
0.0
230
1.0
 70
     8
 71
     3
 72
    10
 73
     6
 74
     0
 42
0.00000001
 43
0.00000001
 40
0.0
 40
0.0
 40
0.0
 40
0.0
 40
0.2238703738840361
 40
0.6229774396097713
 40
1.0
 40
1.0
 40
1.0
 40
1.0
 10
92.35183981882159
 20
140.1379017073926
 30
0.0
 10
92.32535236483156
 20
140.0778675903638
 30
0.0
 10
92.25164414707044
 20
139.9108070728557
 30
0.0
 10
92.17416710002216
 20
139.5990385504514
 30
0.0
 10
92.16224448183779
 20
139.3378134010851
 30
0.0
 10
92.15645279977441
 20
139.2109173629254
 30
0.0
  0
SPLINE
  5
21A
330
1F
100
AcDbEntity
  8
0
  6
Continuous
 62
     7
370
    25
100
AcDbSpline
210
0.0
220
0.0
230
1.0
 70
     8
 71
     3
 72
    10
 73
     6
 74
     0
 42
0.00000001
 43
0.00000001
 40
0.0
 40
0.0
 40
0.0
 40
0.0
 40
0.1995653511169991
 40
0.581029349357288
 40
1.0
 40
1.0
 40
1.0
 40
1.0
 10
92.15645279977441
 20
138.8880261742593
 30
0.0
 10
92.15815730905608
 20
138.8210121097675
 30
0.0
 10
92.16311994366845
 20
138.6259023972272
 30
0.0
 10
92.2148214390747
 20
138.2970010518132
 30
0.0
 10
92.30476221489869
 20
138.0764727319658
 30
0.0
 10
92.3518398188216
 20
137.9610418297922
 30
0.0
  0
LINE
  5
21B
330
1F
100
AcDbEntity
  8
0
  6
Continuous
 62
     7
370
    25
100
AcDbLine
 10
92.1564527998
 20
139.2109173629
 30
0.0
 11
92.1564527998
 21
138.8880261743
 31
0.0
  0
ARC
  5
21C
330
1F
100
AcDbEntity
  8
0
  6
Continuous
 62
     7
370
    25
100
AcDbCircle
 10
147.6564527998
 20
139.0494717686
 30
0.0
 40
8.993770368365603
100
AcDbArc
 50
200.7386108881
 51
90.0
  0
ARC
  5
21D
330
1F
100
AcDbEntity
  8
0
  6
Continuous
 62
     7
370
    25
100
AcDbCircle
 10
147.6564527998
 20
139.0494717686
 30
0.0
 40
8.993770368365603
100
AcDbArc
 50
90.0
 51
159.2559341391
  0
LINE
  5
21E
330
1F
100
AcDbEntity
  8
0
  6
Continuous
 62
     7
370
    25
100
AcDbLine
 10
131.6564527998
 20
127.2994717686
 30
0.0
 11
131.6564527998
 21
134.1335770726
 31
0.0
  0
LINE
  5
21F
330
1F
100
AcDbEntity
  8
0
  6
Continuous
 62
     7
370
    25
100
AcDbLine
 10
131.6564527998
 20
143.9653664646
 30
0.0
 11
131.6564527998
 21
150.7994717686
 31
0.0
  0
LINE
  5
220
330
1F
100
AcDbEntity
  8
0
  6
Continuous
 62
     7
370
    25
100
AcDbLine
 10
131.9064527998
 20
151.0494717686
 30
0.0
 11
131.9064527998
 21
143.9792553535
 31
0.0
  0
LINE
  5
221
330
1F
100
AcDbEntity
  8
0
  6
Continuous
 62
     7
370
    25
100
AcDbLine
 10
131.9064527998
 20
134.1196881837
 30
0.0
 11
131.9064527998
 21
127.0494717686
 31
0.0
  0
LINE
  5
222
330
1F
100
AcDbEntity
  8
0
  6
Continuous
 62
     7
370
    25
100
AcDbLine
 10
119.6564527998
 20
129.5719717686
 30
0.0
 11
119.6564527998
 21
136.6613312832
 31
0.0
  0
LINE
  5
223
330
1F
100
AcDbEntity
  8
0
  6
Continuous
 62
     7
370
    25
100
AcDbLine
 10
119.6564527998
 20
141.4463937736
 30
0.0
 11
119.6564527998
 21
148.5269717686
 31
0.0
  0
LINE
  5
224
330
1F
100
AcDbEntity
  8
0
  6
Continuous
 62
     7
370
    25
100
AcDbLine
 10
120.6564527998
 20
149.5269717686
 30
0.0
 11
120.6564527998
 21
141.5552589146
 31
0.0
  0
LINE
  5
225
330
1F
100
AcDbEntity
  8
0
  6
Continuous
 62
     7
370
    25
100
AcDbLine
 10
120.6564527998
 20
136.5467218967
 30
0.0
 11
120.6564527998
 21
128.5719717686
 31
0.0
  0
LINE
  5
226
330
1F
100
AcDbEntity
  8
0
  6
Continuous
 62
     7
370
    25
100
AcDbLine
 10
128.1564527998
 20
128.5719717686
 30
0.0
 11
128.1564527998
 21
134.3280215171
 31
0.0
  0
LINE
  5
227
330
1F
100
AcDbEntity
  8
0
  6
Continuous
 62
     7
370
    25
100
AcDbLine
 10
128.1564527998
 20
143.7709220201
 30
0.0
 11
128.1564527998
 21
149.5269717686
 31
0.0
  0
LINE
  5
228
330
1F
100
AcDbEntity
  8
0
  6
Continuous
 62
     7
370
    25
100
AcDbLine
 10
129.1564527998
 20
148.5269717686
 30
0.0
 11
129.1564527998
 21
143.8264775757
 31
0.0
  0
LINE
  5
229
330
1F
100
AcDbEntity
  8
0
  6
Continuous
 62
     7
370
    25
100
AcDbLine
 10
129.1564527998
 20
134.2724659615
 30
0.0
 11
129.1564527998
 21
129.5719717686
 31
0.0
  0
LINE
  5
22A
330
1F
100
AcDbEntity
  8
0
  6
Continuous
 62
     7
370
    25
100
AcDbLine
 10
160.1564527998
 20
151.5494717686
 30
0.0
 11
160.1564527998
 21
139.0494717686
 31
0.0
  0
SPLINE
  5
22B
330
1F
100
AcDbEntity
  8
0
  6
Continuous
 62
     7
370
    25
100
AcDbSpline
210
0.0
220
0.0
230
1.0
 70
     8
 71
     3
 72
    12
 73
     8
 74
     0
 42
0.00000001
 43
0.00000001
 40
0.0
 40
0.0
 40
0.0
 40
0.0
 40
0.2500000000000001
 40
0.2500000000000001
 40
0.5000000000000001
 40
0.5000000000000001
 40
1.0
 40
1.0
 40
1.0
 40
1.0
 10
158.5687395595029
 20
147.7851743734205
 30
0.0
 10
158.8021905343544
 20
147.079298525866
 30
0.0
 10
159.0190374034952
 20
146.3665968313063
 30
0.0
 10
159.4080210546989
 20
144.9228133969555
 30
0.0
 10
159.5783848548673
 20
144.1978058215236
 30
0.0
 10
159.9990366882061
 20
142.0122028549778
 30
0.0
 10
160.1564527997744
 20
140.5403172842753
 30
0.0
 10
160.1564527997744
 20
139.0494717685924
 30
0.0
  0
LINE
  5
22C
330
1F
100
AcDbEntity
  8
0
  6
Continuous
 62
     7
370
    25
100
AcDbLine
 10
158.5687395595
 20
151.5494717686
 30
0.0
 11
158.5687395595
 21
147.7851743734
 31
0.0
  0
SPLINE
  5
22D
330
1F
100
AcDbEntity
  8
0
  6
Continuous
 62
     7
370
    25
100
AcDbSpline
210
0.0
220
0.0
230
1.0
 70
    24
 71
     3
 72
    12
 73
     8
 74
     0
 42
0.00000001
 43
0.00000001
 40
0.0
 40
0.0
 40
0.0
 40
0.0
 40
0.25
 40
0.25
 40
0.5
 40
0.5
 40
1.0
 40
1.0
 40
1.0
 40
1.0
 10
160.1564527997744
 20
151.5494717685924
 30
0.0
 10
160.1564527997744
 20
151.5494717685924
 30
0.0
 10
160.1171032742236
 20
151.5494717685924
 30
0.0
 10
159.96644376485
 20
151.5494717685924
 30
0.0
 10
159.8555355821452
 20
151.5494717685924
 30
0.0
 10
159.4342865571504
 20
151.5494717685924
 30
0.0
 10
159.036594068538
 20
151.5494717685924
 30
0.0
 10
158.5687395595029
 20
151.5494717685924
 30
0.0
  0
LINE
  5
22E
330
1F
100
AcDbEntity
  8
0
  6
Continuous
 62
     7
370
    25
100
AcDbLine
 10
136.24416604
 20
147.7851743734
 30
0.0
 11
136.24416604
 21
151.5494717686
 31
0.0
  0
SPLINE
  5
22F
330
1F
100
AcDbEntity
  8
0
  6
Continuous
 62
     7
370
    25
100
AcDbSpline
210
0.0
220
0.0
230
1.0
 70
     8
 71
     3
 72
     9
 73
     5
 74
     0
 42
0.00000001
 43
0.00000001
 40
0.0
 40
0.0
 40
0.0
 40
0.0
 40
0.4287809552668792
 40
0.9999999999999999
 40
0.9999999999999999
 40
0.9999999999999999
 40
0.9999999999999999
 10
135.2890976942251
 20
144.1671800698145
 30
0.0
 10
135.3916443093813
 20
144.6930377591607
 30
0.0
 10
135.6308028211965
 20
145.9194394518827
 30
0.0
 10
136.021176920152
 20
147.1068836391154
 30
0.0
 10
136.2441660400459
 20
147.7851743734205
 30
0.0
  0
SPLINE
  5
230
330
1F
100
AcDbEntity
  8
0
  6
Continuous
 62
     7
370
    25
100
AcDbSpline
210
0.0
220
0.0
230
1.0
 70
    24
 71
     3
 72
    12
 73
     8
 74
     0
 42
0.00000001
 43
0.00000001
 40
0.0
 40
0.0
 40
0.0
 40
0.0
 40
0.25
 40
0.25
 40
0.5
 40
0.5
 40
1.0
 40
1.0
 40
1.0
 40
1.0
 10
134.6564527997744
 20
151.5494717685924
 30
0.0
 10
134.6564527997744
 20
151.5494717685924
 30
0.0
 10
134.695845885144
 20
151.5494717685924
 30
0.0
 10
134.8464772879094
 20
151.5494717685924
 30
0.0
 10
134.9573577170812
 20
151.5494717685924
 30
0.0
 10
135.3785451230456
 20
151.5494717685924
 30
0.0
 10
135.7762328685253
 20
151.5494717685924
 30
0.0
 10
136.2441660400459
 20
151.5494717685924
 30
0.0
  0
LINE
  5
231
330
1F
100
AcDbEntity
  8
0
  6
Continuous
 62
     7
370
    25
100
AcDbLine
 10
134.6564527998
 20
144.1320331312
 30
0.0
 11
134.6564527998
 21
151.5494717686
 31
0.0
  0
LINE
  5
232
330
1F
100
AcDbEntity
  8
0
  6
Continuous
 62
     7
370
    25
100
AcDbLine
 10
158.5687395595
 20
147.7851743734
 30
0.0
 11
149.7954725376
 21
147.7851743734
 31
0.0
  0
LINE
  5
233
330
1F
100
AcDbEntity
  8
0
  6
Continuous
 62
     7
370
    25
100
AcDbLine
 10
145.5174330619
 20
147.7851743734
 30
0.0
 11
136.24416604
 21
147.7851743734
 31
0.0
  0
LINE
  5
234
330
1F
100
AcDbEntity
  8
0
  6
Continuous
 62
     7
370
    25
100
AcDbLine
 10
158.5687395595
 20
151.5494717686
 30
0.0
 11
136.24416604
 21
151.5494717686
 31
0.0
  0
SPLINE
  5
235
330
1F
100
AcDbEntity
  8
0
  6
Continuous
 62
     7
370
    25
100
AcDbSpline
210
0.0
220
0.0
230
1.0
 70
     8
 71
     3
 72
    12
 73
     8
 74
     0
 42
0.00000001
 43
0.00000001
 40
0.0
 40
0.0
 40
0.0
 40
0.0
 40
0.2500000000000001
 40
0.2500000000000001
 40
0.5000000000000001
 40
0.5000000000000001
 40
1.0
 40
1.0
 40
1.0
 40
1.0
 10
160.1564527997744
 20
139.0494717685924
 30
0.0
 10
160.1564527997744
 20
138.3046444201436
 30
0.0
 10
160.1171032742236
 20
137.5528199425619
 30
0.0
 10
159.96644376485
 20
136.0716571412355
 30
0.0
 10
159.8555355821452
 20
135.338538230787
 30
0.0
 10
159.4342865571504
 20
133.1577492968193
 30
0.0
 10
159.036594068538
 20
131.728401072273
 30
0.0
 10
158.5687395595029
 20
130.3137691637643
 30
0.0
  0
LINE
  5
236
330
1F
100
AcDbEntity
  8
0
  6
Continuous
 62
     7
370
    25
100
AcDbLine
 10
158.5687395595
 20
130.3137691638
 30
0.0
 11
149.7954725376
 21
130.3137691638
 31
0.0
  0
LINE
  5
237
330
1F
100
AcDbEntity
  8
0
  6
Continuous
 62
     7
370
    25
100
AcDbLine
 10
145.5174330619
 20
130.3137691638
 30
0.0
 11
136.24416604
 21
130.3137691638
 31
0.0
  0
SPLINE
  5
238
330
1F
100
AcDbEntity
  8
0
  6
Continuous
 62
     7
370
    25
100
AcDbSpline
210
0.0
220
0.0
230
1.0
 70
     8
 71
     3
 72
     9
 73
     5
 74
     0
 42
0.00000001
 43
0.00000001
 40
0.0
 40
0.0
 40
0.0
 40
0.0
 40
0.5268904349897643
 40
0.9999999999999999
 40
0.9999999999999999
 40
0.9999999999999999
 40
0.9999999999999999
 10
136.2441660400459
 20
130.3137691637643
 30
0.0
 10
136.0423727491849
 20
130.9424992902701
 30
0.0
 10
135.6593836541847
 20
132.1357836711453
 30
0.0
 10
135.3768888623331
 20
133.3566891670573
 30
0.0
 10
135.2432378742425
 20
133.9343112351469
 30
0.0
  0
SPLINE
  5
239
330
1F
100
AcDbEntity
  8
0
  6
Continuous
 62
     7
370
    25
100
AcDbSpline
210
0.0
220
0.0
230
1.0
 70
    24
 71
     3
 72
    12
 73
     8
 74
     0
 42
0.00000001
 43
0.00000001
 40
0.0
 40
0.0
 40
0.0
 40
0.0
 40
0.2500000000000001
 40
0.2500000000000001
 40
0.5
 40
0.5
 40
1.0
 40
1.0
 40
1.0
 40
1.0
 10
160.1564527997744
 20
126.5494717685924
 30
0.0
 10
160.1564527997744
 20
126.5494717685924
 30
0.0
 10
160.1171032742236
 20
126.5494717685924
 30
0.0
 10
159.96644376485
 20
126.5494717685924
 30
0.0
 10
159.8555355821452
 20
126.5494717685924
 30
0.0
 10
159.4342865571504
 20
126.5494717685924
 30
0.0
 10
159.036594068538
 20
126.5494717685924
 30
0.0
 10
158.5687395595029
 20
126.5494717685924
 30
0.0
  0
LINE
  5
23A
330
1F
100
AcDbEntity
  8
0
  6
Continuous
 62
     7
370
    25
100
AcDbLine
 10
158.5687395595
 20
130.3137691638
 30
0.0
 11
158.5687395595
 21
126.5494717686
 31
0.0
  0
LINE
  5
23B
330
1F
100
AcDbEntity
  8
0
  6
Continuous
 62
     7
370
    25
100
AcDbLine
 10
160.1564527998
 20
139.0494717686
 30
0.0
 11
160.1564527998
 21
126.5494717686
 31
0.0
  0
LINE
  5
23C
330
1F
100
AcDbEntity
  8
0
  6
Continuous
 62
     7
370
    25
100
AcDbLine
 10
136.24416604
 20
126.5494717686
 30
0.0
 11
136.24416604
 21
130.3137691638
 31
0.0
  0
SPLINE
  5
23D
330
1F
100
AcDbEntity
  8
0
  6
Continuous
 62
     7
370
    25
100
AcDbSpline
210
0.0
220
0.0
230
1.0
 70
    24
 71
     3
 72
    12
 73
     8
 74
     0
 42
0.00000001
 43
0.00000001
 40
0.0
 40
0.0
 40
0.0
 40
0.0
 40
0.2500000000000001
 40
0.2500000000000001
 40
0.5000000000000001
 40
0.5000000000000001
 40
1.0
 40
1.0
 40
1.0
 40
1.0
 10
134.6564527997744
 20
126.5494717685924
 30
0.0
 10
134.6564527997744
 20
126.5494717685924
 30
0.0
 10
134.695845885144
 20
126.5494717685924
 30
0.0
 10
134.8464772879094
 20
126.5494717685924
 30
0.0
 10
134.9573577170812
 20
126.5494717685924
 30
0.0
 10
135.3785451230456
 20
126.5494717685924
 30
0.0
 10
135.7762328685253
 20
126.5494717685924
 30
0.0
 10
136.2441660400459
 20
126.5494717685924
 30
0.0
  0
LINE
  5
23E
330
1F
100
AcDbEntity
  8
0
  6
Continuous
 62
     7
370
    25
100
AcDbLine
 10
134.6564527998
 20
126.5494717686
 30
0.0
 11
134.6564527998
 21
133.966910406
 31
0.0
  0
LINE
  5
23F
330
1F
100
AcDbEntity
  8
0
  6
Continuous
 62
     7
370
    25
100
AcDbLine
 10
158.5687395595
 20
126.5494717686
 30
0.0
 11
136.24416604
 21
126.5494717686
 31
0.0
  0
LINE
  5
240
330
1F
100
AcDbEntity
  8
0
  6
Continuous
 62
     7
370
    25
100
AcDbLine
 10
172.4600615268
 20
128.7427095413
 30
0.0
 11
172.4600615268
 21
149.3562339959
 31
0.0
  0
LINE
  5
241
330
1F
100
AcDbEntity
  8
0
  6
Continuous
 62
     7
370
    25
100
AcDbLine
 10
175.1564527998
 20
147.7994717686
 30
0.0
 11
175.1564527998
 21
130.2994717686
 31
0.0
  0
LINE
  5
242
330
1F
100
AcDbEntity
  8
0
  6
Continuous
 62
     7
370
    25
100
AcDbLine
 10
145.4189687782
 20
138.0741992236
 30
0.0
 11
145.3861732512
 21
138.0929432628
 31
0.0
  0
SPLINE
  5
243
330
1F
100
AcDbEntity
  8
0
  6
Continuous
 62
     7
370
    25
100
AcDbSpline
210
0.0
220
0.0
230
1.0
 70
     8
 71
     3
 72
    15
 73
    11
 74
     0
 42
0.00000001
 43
0.00000001
 40
0.0
 40
0.0
 40
0.0
 40
0.0
 40
0.1241930067305288
 40
0.2496556654892296
 40
0.3743703853151211
 40
0.4998404796364202
 40
0.6240146704162363
 40
0.7475381382242062
 40
0.8745858500551816
 40
1.0
 40
1.0
 40
1.0
 40
1.0
 10
146.1992584999049
 20
138.3466388741782
 30
0.0
 10
146.1836981047953
 20
138.3107916714343
 30
0.0
 10
146.1524182372837
 20
138.2387307922224
 30
0.0
 10
146.0749818777954
 20
138.1488552788796
 30
0.0
 10
145.9816278740564
 20
138.0765315010852
 30
0.0
 10
145.8744022680355
 20
138.0276040825806
 30
0.0
 10
145.7600163573145
 20
138.0012760291258
 30
0.0
 10
145.6423455944292
 20
138.0004169351233
 30
0.0
 10
145.525461869204
 20
138.0217996957529
 30
0.0
 10
145.4543130183093
 20
138.0568082222136
 30
0.0
 10
145.4189687782259
 20
138.074199223595
 30
0.0
  0
LINE
  5
244
330
1F
100
AcDbEntity
  8
0
  6
Continuous
 62
     7
370
    25
100
AcDbLine
 10
147.1911125446
 20
141.1202180901
 30
0.0
 11
146.1992584999
 21
138.3466388742
 31
0.0
  0
SPLINE
  5
245
330
1F
100
AcDbEntity
  8
0
  6
Continuous
 62
     7
370
    25
100
AcDbSpline
210
0.0
220
0.0
230
1.0
 70
     8
 71
     3
 72
    15
 73
    11
 74
     0
 42
0.00000001
 43
0.00000001
 40
0.0
 40
0.0
 40
0.0
 40
0.0
 40
0.1233025178081761
 40
0.2485158700387114
 40
0.3756924668130948
 40
0.4999990880429331
 40
0.6243057092728396
 40
0.7514823060473044
 40
0.8766757256079959
 40
1.0
 40
1.0
 40
1.0
 40
1.0
 10
148.1217930581261
 20
141.1202180900915
 30
0.0
 10
148.0976420861637
 20
141.1608632260273
 30
0.0
 10
148.048965871629
 20
141.2427833806151
 30
0.0
 10
147.9336152134239
 20
141.3326023364276
 30
0.0
 10
147.800455591162
 20
141.3901764845887
 30
0.0
 10
147.6564529477932
 20
141.4093351802588
 30
0.0
 10
147.5124494190947
 20
141.3901770773738
 30
0.0
 10
147.3792995461292
 20
141.3326029636353
 30
0.0
 10
147.2639371885948
 20
141.2427974014885
 30
0.0
 10
147.2152654029236
 20
141.1608724699638
 30
0.0
 10
147.1911125446068
 20
141.1202180900916
 30
0.0
  0
LINE
  5
246
330
1F
100
AcDbEntity
  8
0
  6
Continuous
 62
     7
370
    25
100
AcDbLine
 10
149.1134159645
 20
138.3472852197
 30
0.0
 11
148.1217930581
 21
141.1202180901
 31
0.0
  0
SPLINE
  5
247
330
1F
100
AcDbEntity
  8
0
  6
Continuous
 62
     7
370
    25
100
AcDbSpline
210
0.0
220
0.0
230
1.0
 70
     8
 71
     3
 72
    15
 73
    11
 74
     0
 42
0.00000001
 43
0.00000001
 40
0.0
 40
0.0
 40
0.0
 40
0.0
 40
0.1253320172137755
 40
0.2522975129251765
 40
0.3758847553984062
 40
0.5001929511416483
 40
0.6255758307380151
 40
0.7502289462456482
 40
0.8757444935777828
 40
1.0
 40
1.0
 40
1.0
 40
1.0
 10
149.8861177290399
 20
138.0705893691372
 30
0.0
 10
149.8508668124119
 20
138.0539150606544
 30
0.0
 10
149.7799055465575
 20
138.0203491239251
 30
0.0
 10
149.6639186557692
 20
138.000567507671
 30
0.0
 10
149.5473222895288
 20
138.0026402880176
 30
0.0
 10
149.4342016829473
 20
138.0297183143682
 30
0.0
 10
149.3283259686079
 20
138.0789311300753
 30
0.0
 10
149.2362168839887
 20
138.1510168939492
 30
0.0
 10
149.1597852201203
 20
138.2403044154487
 30
0.0
 10
149.128820312621
 20
138.3117450858857
 30
0.0
 10
149.1134159644998
 20
138.3472852197438
 30
0.0
  0
LINE
  5
248
330
1F
100
AcDbEntity
  8
0
  6
Continuous
 62
     7
370
    25
100
AcDbLine
 10
149.9267323515
 20
138.0929432628
 30
0.0
 11
149.886117729
 21
138.0705893691
 31
0.0
  0
LINE
  5
249
330
1F
100
AcDbEntity
  8
0
  6
Continuous
 62
     7
370
    25
100
AcDbLine
 10
149.299749155
 20
136.8975321594
 30
0.0
 11
149.9267323515
 21
138.0929432628
 31
0.0
  0
SPLINE
  5
24A
330
1F
100
AcDbEntity
  8
0
  6
Continuous
 62
     7
370
    25
100
AcDbSpline
210
0.0
220
0.0
230
1.0
 70
     8
 71
     3
 72
    15
 73
    11
 74
     0
 42
0.00000001
 43
0.00000001
 40
0.0
 40
0.0
 40
0.0
 40
0.0
 40
0.1246332186438571
 40
0.2519059530189798
 40
0.3765391000744966
 40
0.4994035903146521
 40
0.6264494152300174
 40
0.7526064410610431
 40
0.8746804377363274
 40
1.0
 40
1.0
 40
1.0
 40
1.0
 10
149.1945206662309
 20
136.8794149926397
 30
0.0
 10
149.198535141899
 20
136.8763097577871
 30
0.0
 10
149.2066491128777
 20
136.8700335245853
 30
0.0
 10
149.2210877047143
 20
136.8644205111054
 30
0.0
 10
149.2362211546473
 20
136.8618841584786
 30
0.0
 10
149.2515836969291
 20
136.8627695620465
 30
0.0
 10
149.2665142757658
 20
136.8669006325621
 30
0.0
 10
149.2800161757951
 20
136.874391332508
 30
0.0
 10
149.2917018306815
 20
136.8845299144223
 30
0.0
 10
149.2970433550223
 20
136.8931603367651
 30
0.0
 10
149.299749155024
 20
136.8975321593574
 30
0.0
  0
SPLINE
  5
24B
330
1F
100
AcDbEntity
  8
0
  6
Continuous
 62
     7
370
    25
100
AcDbSpline
210
0.0
220
0.0
230
1.0
 70
     8
 71
     3
 72
    11
 73
     7
 74
     0
 42
0.00000001
 43
0.00000001
 40
0.0
 40
0.0
 40
0.0
 40
0.0
 40
0.2506252605986011
 40
0.4999999999996215
 40
0.7493747394010042
 40
1.0
 40
1.0
 40
1.0
 40
1.0
 10
146.118384936502
 20
136.8794149926397
 30
0.0
 10
146.3481126306753
 20
137.0422692846007
 30
0.0
 10
146.8064217684383
 20
137.3671652898395
 30
0.0
 10
147.6564528013744
 20
137.5008972367766
 30
0.0
 10
148.5064838343046
 20
137.3671652898343
 30
0.0
 10
148.9647929720609
 20
137.042269284599
 30
0.0
 10
149.1945206662309
 20
136.8794149926397
 30
0.0
  0
SPLINE
  5
24C
330
1F
100
AcDbEntity
  8
0
  6
Continuous
 62
     7
370
    25
100
AcDbSpline
210
0.0
220
0.0
230
1.0
 70
     8
 71
     3
 72
    15
 73
    11
 74
     0
 42
0.00000001
 43
0.00000001
 40
0.0
 40
0.0
 40
0.0
 40
0.0
 40
0.125319195797913
 40
0.2473928354984057
 40
0.3734492416489697
 40
0.5005950046079961
 40
0.6235484391777629
 40
0.7480947836179478
 40
0.875367145815393
 40
1.0
 40
1.0
 40
1.0
 40
1.0
 10
146.0131564477088
 20
136.8975321593574
 30
0.0
 10
146.0158622440412
 20
136.8931603310734
 30
0.0
 10
146.0212037611384
 20
136.8845298974946
 30
0.0
 10
146.0328863337275
 20
136.8743941199949
 30
0.0
 10
146.0463873137147
 20
136.8669020041212
 30
0.0
 10
146.0613213425648
 20
136.8627695588291
 30
0.0
 10
146.0766883537539
 20
136.8618816170556
 30
0.0
 10
146.0918210901921
 20
136.8644225593131
 30
0.0
 10
146.1062565199738
 20
136.8700333375803
 30
0.0
 10
146.114370470803
 20
136.876309695889
 30
0.0
 10
146.118384936502
 20
136.8794149926397
 30
0.0
  0
LINE
  5
24D
330
1F
100
AcDbEntity
  8
0
  6
Continuous
 62
     7
370
    25
100
AcDbLine
 10
145.3861732512
 20
138.0929432628
 30
0.0
 11
146.0131564477
 21
136.8975321594
 31
0.0
  0
SPLINE
  5
24E
330
1F
100
AcDbEntity
  8
0
  6
Continuous
 62
     7
370
    25
100
AcDbSpline
210
0.0
220
0.0
230
1.0
 70
     8
 71
     3
 72
    15
 73
    11
 74
     0
 42
0.00000001
 43
0.00000001
 40
0.0
 40
0.0
 40
0.0
 40
0.0
 40
0.1233867499278388
 40
0.2487396502211602
 40
0.3739317114754985
 40
0.4999973617625659
 40
0.6259591330513601
 40
0.7512551380600303
 40
0.8765613478174267
 40
1.0
 40
1.0
 40
1.0
 40
1.0
 10
147.5935699349683
 20
139.0708812267352
 30
0.0
 10
147.5964481361602
 20
139.0768960228181
 30
0.0
 10
147.6022504022718
 20
139.0890214599068
 30
0.0
 10
147.6177798069926
 20
139.1024127202569
 30
0.0
 10
147.636134388866
 20
139.1112904318368
 30
0.0
 10
147.656447205349
 20
139.1140470951333
 30
0.0
 10
147.6767656230641
 20
139.1112924139327
 30
0.0
 10
147.6951184922282
 20
139.1024167156432
 30
0.0
 10
147.7106565966237
 20
139.0890263483895
 30
0.0
 10
147.7164571586549
 20
139.0768992508435
 30
0.0
 10
147.7193356645805
 20
139.0708812267352
 30
0.0
  0
LINE
  5
24F
330
1F
100
AcDbEntity
  8
0
  6
Continuous
 62
     7
370
    25
100
AcDbLine
 10
147.3544564092
 20
138.4326271975
 30
0.0
 11
147.593569935
 21
139.0708812267
 31
0.0
  0
SPLINE
  5
250
330
1F
100
AcDbEntity
  8
0
  6
Continuous
 62
     7
370
    25
100
AcDbSpline
210
0.0
220
0.0
230
1.0
 70
     8
 71
     3
 72
    15
 73
    11
 74
     0
 42
0.00000001
 43
0.00000001
 40
0.0
 40
0.0
 40
0.0
 40
0.0
 40
0.1261585224210644
 40
0.2513121451548802
 40
0.3762846848783791
 40
0.4993062783340883
 40
0.6261594278645745
 40
0.7521171342021309
 40
0.8758196922692798
 40
1.0
 40
1.0
 40
1.0
 40
1.0
 10
147.4173392740966
 20
138.3475628441126
 30
0.0
 10
147.412108177608
 20
138.347885150705
 30
0.0
 10
147.4016876522653
 20
138.3485271965975
 30
0.0
 10
147.3869011017509
 20
138.3539754369726
 30
0.0
 10
147.3737107491254
 20
138.3621980395583
 30
0.0
 10
147.3628401742842
 20
138.3734546458709
 30
0.0
 10
147.3548325869556
 20
138.386975391212
 30
0.0
 10
147.3506659599229
 20
138.4021122787888
 30
0.0
 10
147.3500449084113
 20
138.4178014103599
 30
0.0
 10
147.3529840207661
 20
138.4276789227185
 30
0.0
 10
147.3544564092488
 20
138.4326271974626
 30
0.0
  0
LINE
  5
251
330
1F
100
AcDbEntity
  8
0
  6
Continuous
 62
     7
370
    25
100
AcDbLine
 10
147.8955663283
 20
138.3475628441
 30
0.0
 11
147.4173392741
 21
138.3475628441
 31
0.0
  0
SPLINE
  5
252
330
1F
100
AcDbEntity
  8
0
  6
Continuous
 62
     7
370
    25
100
AcDbSpline
210
0.0
220
0.0
230
1.0
 70
     8
 71
     3
 72
    15
 73
    11
 74
     0
 42
0.00000001
 43
0.00000001
 40
0.0
 40
0.0
 40
0.0
 40
0.0
 40
0.1241186784437694
 40
0.2478474916628981
 40
0.373657414947894
 40
0.5005082335853294
 40
0.6234527658309922
 40
0.7484986612277523
 40
0.8736976492452768
 40
1.0
 40
1.0
 40
1.0
 40
1.0
 10
147.958449193026
 20
138.4326271976857
 30
0.0
 10
147.9599202656348
 20
138.4276813520275
 30
0.0
 10
147.9628577901132
 20
138.4178051959494
 30
0.0
 10
147.9622410556131
 20
138.4021238003237
 30
0.0
 10
147.9580790940185
 20
138.3869912682434
 30
0.0
 10
147.9500803462201
 20
138.373476360629
 30
0.0
 10
147.9392142546833
 20
138.362216299433
 30
0.0
 10
147.9260265368586
 20
138.3539865869995
 30
0.0
 10
147.9112320902834
 20
138.3485270166145
 30
0.0
 10
147.9008034993761
 20
138.3478851735575
 30
0.0
 10
147.8955663282617
 20
138.3475628441126
 30
0.0
  0
LINE
  5
253
330
1F
100
AcDbEntity
  8
0
  6
Continuous
 62
     7
370
    25
100
AcDbLine
 10
147.7193356646
 20
139.0708812267
 30
0.0
 11
147.958449193
 21
138.4326271977
 31
0.0
  0
CIRCLE
  5
254
330
1F
100
AcDbEntity
  8
0
  6
Continuous
 62
     7
370
    25
100
AcDbCircle
 10
147.6564527998
 20
139.0494717686
 30
0.0
 40
4.5
  0
LINE
  5
255
330
1F
100
AcDbEntity
  8
0
  6
Continuous
 62
     7
370
    25
100
AcDbLine
 10
134.3564527998
 20
138.037055534
 30
0.0
 11
134.3564527998
 21
140.0618880032
 31
0.0
  0
SPLINE
  5
256
330
1F
100
AcDbEntity
  8
0
  6
Continuous
 62
     7
370
    25
100
AcDbSpline
210
0.0
220
0.0
230
1.0
 70
     8
 71
     3
 72
    11
 73
     7
 74
     0
 42
0.00000001
 43
0.00000001
 40
0.0
 40
0.0
 40
0.0
 40
0.0
 40
0.2561894651307314
 40
0.509604493920692
 40
0.769274206655365
 40
1.0
 40
1.0
 40
1.0
 40
1.0
 10
134.3564527997744
 20
138.0370555339589
 30
0.0
 10
134.2808566674805
 20
137.9775434933105
 30
0.0
 10
134.1304830808059
 20
137.8591639052142
 30
0.0
 10
133.8312702948506
 20
137.6885263630788
 30
0.0
 10
133.5037505599639
 20
137.5369024521781
 30
0.0
 10
133.26757217915
 20
137.4574664165069
 30
0.0
 10
133.1564527997744
 20
137.4200926189839
 30
0.0
  0
LINE
  5
257
330
1F
100
AcDbEntity
  8
0
  6
Continuous
 62
     7
370
    25
100
AcDbLine
 10
133.1564527998
 20
140.6788509182
 30
0.0
 11
133.1564527998
 21
137.420092619
 31
0.0
  0
SPLINE
  5
258
330
1F
100
AcDbEntity
  8
0
  6
Continuous
 62
     7
370
    25
100
AcDbSpline
210
0.0
220
0.0
230
1.0
 70
     8
 71
     3
 72
    11
 73
     7
 74
     0
 42
0.00000001
 43
0.00000001
 40
0.0
 40
0.0
 40
0.0
 40
0.0
 40
0.2307374805224083
 40
0.4903955403005851
 40
0.7438105520730633
 40
1.0
 40
1.0
 40
1.0
 40
1.0
 10
133.1564527997744
 20
140.6788509182008
 30
0.0
 10
133.2675780335308
 20
140.6414757272878
 30
0.0
 10
133.5037569106063
 20
140.5620407481933
 30
0.0
 10
133.8312745515574
 20
140.4104140684296
 30
0.0
 10
134.1304831482199
 20
140.2397797634812
 30
0.0
 10
134.2808566900333
 20
140.1214000878699
 30
0.0
 10
134.3564527997744
 20
140.0618880032258
 30
0.0
  0
LINE
  5
259
330
1F
100
AcDbEntity
  8
0
  6
Continuous
 62
     7
370
    25
100
AcDbLine
 10
132.5512245863
 20
137.2733113488
 30
0.0
 11
98.2744867885
 21
138.1708793164
 31
0.0
  0
LINE
  5
25A
330
1F
100
AcDbEntity
  8
0
  6
Continuous
 62
     7
370
    25
100
AcDbLine
 10
98.2744867885
 20
138.1708793164
 30
0.0
 11
98.2744867885
 21
139.9280642207
 31
0.0
  0
LINE
  5
25B
330
1F
100
AcDbEntity
  8
0
  6
Continuous
 62
     7
370
    25
100
AcDbLine
 10
98.2744867885
 20
139.9280642207
 30
0.0
 11
132.5512245863
 21
140.8256321884
 31
0.0
  0
ELLIPSE
  5
25C
330
1F
100
AcDbEntity
  8
0
  6
Continuous
 62
     7
370
    25
100
AcDbEllipse
 10
132.5564527998
 20
140.025220532
 30
0.0
 11
0.9988086229566591
 21
0.06103964413861718
 31
0.0
210
0.0
220
0.0
230
1.0
 40
0.7994627403
 41
0.8784769082856001
 42
1.527206254409845
  0
ELLIPSE
  5
25D
330
1F
100
AcDbEntity
  8
0
  6
Continuous
 62
     7
370
    25
100
AcDbEllipse
 10
132.5564527998
 20
138.0737230052
 30
0.0
 11
0.9988086229566305
 21
-0.06103964413861718
 31
0.0
210
0.0
220
0.0
230
0.9999999999999999
 40
0.7994627403
 41
4.755979052769753
 42
5.404708398893976
  0
SPLINE
  5
25E
330
1F
100
AcDbEntity
  8
0
  6
Continuous
 62
     7
370
    25
100
AcDbSpline
210
0.0
220
0.0
230
1.0
 70
    24
 71
     3
 72
    11
 73
     7
 74
     0
 42
0.00000001
 43
0.00000001
 40
0.0
 40
0.0
 40
0.0
 40
0.0
 40
0.2499999999999963
 40
0.4999999999999995
 40
0.7500000000000014
 40
1.0
 40
1.0
 40
1.0
 40
1.0
 10
98.25616920383928
 20
140.6275845579058
 30
0.0
 10
98.25649706509509
 20
140.6150640416832
 30
0.0
 10
98.25715278760673
 20
140.5900230092381
 30
0.0
 10
98.26141175674596
 20
140.4273795396155
 30
0.0
 10
98.2674036124078
 20
140.1985598035611
 30
0.0
 10
98.27212572981881
 20
140.0182294150148
 30
0.0
 10
98.27448678852431
 20
139.9280642207417
 30
0.0
  0
LINE
  5
25F
330
1F
100
AcDbEntity
  8
0
  6
Continuous
 62
     7
370
    25
100
AcDbLine
 10
132.5329070016
 20
141.5251525255
 30
0.0
 11
98.2561692038
 21
140.6275845579
 31
0.0
  0
SPLINE
  5
260
330
1F
100
AcDbEntity
  8
0
  6
Continuous
 62
     7
370
    25
100
AcDbSpline
210
0.0
220
0.0
230
1.0
 70
    24
 71
     3
 72
    11
 73
     7
 74
     0
 42
0.00000001
 43
0.00000001
 40
0.0
 40
0.0
 40
0.0
 40
0.0
 40
0.2499999999999982
 40
0.4999999999999978
 40
0.750000000000001
 40
1.0
 40
1.0
 40
1.0
 40
1.0
 10
132.5329070015769
 20
141.525152525525
 30
0.0
 10
132.5332348628328
 20
141.5126320093024
 30
0.0
 10
132.5338905853444
 20
141.4875909768573
 30
0.0
 10
132.5381495544837
 20
141.3249475072347
 30
0.0
 10
132.5441414101454
 20
141.0961277711802
 30
0.0
 10
132.5488635275564
 20
140.915797382634
 30
0.0
 10
132.551224586262
 20
140.8256321883609
 30
0.0
  0
LINE
  5
261
330
1F
100
AcDbEntity
  8
0
  6
Continuous
 62
     7
370
    25
100
AcDbLine
 10
98.2561692038
 20
137.4713589793
 30
0.0
 11
132.5329070016
 21
136.5737910117
 31
0.0
  0
SPLINE
  5
262
330
1F
100
AcDbEntity
  8
0
  6
Continuous
 62
     7
370
    25
100
AcDbSpline
210
0.0
220
0.0
230
1.0
 70
    24
 71
     3
 72
    11
 73
     7
 74
     0
 42
0.00000001
 43
0.00000001
 40
0.0
 40
0.0
 40
0.0
 40
0.0
 40
0.249999999999998
 40
0.4999999999999973
 40
0.7500000000000001
 40
1.0
 40
1.0
 40
1.0
 40
1.0
 10
98.25616920383928
 20
137.4713589792789
 30
0.0
 10
98.25649706509509
 20
137.4838794955015
 30
0.0
 10
98.25715278760671
 20
137.5089205279466
 30
0.0
 10
98.26141175674596
 20
137.6715639975692
 30
0.0
 10
98.2674036124078
 20
137.9003837336237
 30
0.0
 10
98.27212572981881
 20
138.0807141221699
 30
0.0
 10
98.27448678852431
 20
138.170879316443
 30
0.0
  0
SPLINE
  5
263
330
1F
100
AcDbEntity
  8
0
  6
Continuous
 62
     7
370
    25
100
AcDbSpline
210
0.0
220
0.0
230
1.0
 70
    24
 71
     3
 72
    11
 73
     7
 74
     0
 42
0.00000001
 43
0.00000001
 40
0.0
 40
0.0
 40
0.0
 40
0.0
 40
0.2499999999999988
 40
0.5000000000000004
 40
0.7499999999999976
 40
1.0
 40
1.0
 40
1.0
 40
1.0
 10
132.551224586262
 20
137.2733113488239
 30
0.0
 10
132.5488635275564
 20
137.1831461545507
 30
0.0
 10
132.5441414101454
 20
137.0028157660045
 30
0.0
 10
132.5381495544837
 20
136.77399602995
 30
0.0
 10
132.5338905853444
 20
136.6113525603275
 30
0.0
 10
132.5332348628328
 20
136.5863115278823
 30
0.0
 10
132.5329070015769
 20
136.5737910116598
 30
0.0
  0
ELLIPSE
  5
264
330
1F
100
AcDbEntity
  8
0
  6
Continuous
 62
     7
370
    25
100
AcDbEllipse
 10
98.2744867885
 20
139.9490201391
 30
0.0
 11
1.49999997144873
 21
0.02095282558966005
 31
0.0
210
0.0
220
0.0
230
1.0
 40
0.0139678873
 41
3.842044658398443
 42
4.712193869245415
  0
ELLIPSE
  5
265
330
1F
100
AcDbEntity
  8
0
  6
Continuous
 62
     7
370
    25
100
AcDbEllipse
 10
98.2744867885
 20
138.1499233981
 30
0.0
 11
1.49999997144873
 21
-0.02095282558968847
 31
0.0
210
0.0
220
0.0
230
0.9999999999999998
 40
0.0139678873
 41
1.570991437934172
 42
2.4411406487815
  0
SPLINE
  5
266
330
1F
100
AcDbEntity
  8
0
  6
Continuous
 62
     7
370
    25
100
AcDbSpline
210
0.0
220
0.0
230
1.0
 70
     8
 71
     3
 72
     9
 73
     5
 74
     0
 42
0.00000001
 43
0.00000001
 40
0.0
 40
0.0
 40
0.0
 40
0.0
 40
0.5600029565045499
 40
1.0
 40
1.0
 40
1.0
 40
1.0
 10
97.1278490730758
 20
138.1794476819684
 30
0.0
 10
97.11970131372267
 20
138.1794420439022
 30
0.0
 10
97.1051518202629
 20
138.17943197598
 30
0.0
 10
97.09120717732237
 20
138.1795541525834
 30
0.0
 10
97.08507157565593
 20
138.1796079099277
 30
0.0
  0
ELLIPSE
  5
267
330
1F
100
AcDbEntity
  8
0
  6
Continuous
 62
     7
370
    25
100
AcDbEllipse
 10
98.2744867885
 20
138.1323342361
 30
0.0
 11
1.499999872704137
 21
-0.0430792567095466
 31
0.0
210
0.0
220
0.0
230
1.0
 40
0.0143449667
 41
2.486833182541648
 42
2.678357024933858
  0
LINE
  5
268
330
1F
100
AcDbEntity
  8
0
  6
Continuous
 62
     7
370
    25
100
AcDbLine
 10
96.932846002
 20
139.9184551431
 30
0.0
 11
96.932846002
 21
138.1804883941
 31
0.0
  0
ELLIPSE
  5
269
330
1F
100
AcDbEntity
  8
0
  6
Continuous
 62
     7
370
    25
100
AcDbEllipse
 10
98.2744867885
 20
139.9666093011
 30
0.0
 11
1.499999872704137
 21
0.04307925670957501
 31
0.0
210
0.0
220
0.0
230
1.0
 40
0.0143449667
 41
3.604828282243081
 42
3.79635212463562
  0
SPLINE
  5
26A
330
1F
100
AcDbEntity
  8
0
  6
Continuous
 62
     7
370
    25
100
AcDbSpline
210
0.0
220
0.0
230
1.0
 70
     8
 71
     3
 72
     9
 73
     5
 74
     0
 42
0.00000001
 43
0.00000001
 40
0.0
 40
0.0
 40
0.0
 40
0.0
 40
0.5599925069633377
 40
1.0
 40
1.0
 40
1.0
 40
1.0
 10
97.08507157565593
 20
139.9193356272571
 30
0.0
 10
97.09289438551286
 20
139.9194013724084
 30
0.0
 10
97.10686387574647
 20
139.9195187760354
 30
0.0
 10
97.12143685361694
 20
139.9195028588827
 30
0.0
 10
97.12784907307582
 20
139.9194958552163
 30
0.0
  0
ELLIPSE
  5
26B
330
1F
100
AcDbEntity
  8
0
  6
Continuous
 62
     7
370
    25
100
AcDbEllipse
 10
98.2561692038
 20
137.450403061
 30
0.0
 11
0.7999998117959565
 21
-0.02096310677475799
 31
0.0
210
0.0
220
0.0
230
1.0
 40
0.026176936
 41
1.571482264229187
 42
2.441631475076263
  0
SPLINE
  5
26C
330
1F
100
AcDbEntity
  8
0
  6
Continuous
 62
     7
370
    25
100
AcDbSpline
210
0.0
220
0.0
230
1.0
 70
     8
 71
     3
 72
    12
 73
     8
 74
     0
 42
0.00000001
 43
0.00000001
 40
0.0
 40
0.0
 40
0.0
 40
0.0
 40
0.2198609600791294
 40
0.4397396970008148
 40
0.6583291451397767
 40
0.87912395168436
 40
1.0
 40
1.0
 40
1.0
 40
1.0
 10
97.6446290889334
 20
137.4799273448043
 30
0.0
 10
97.58471402620452
 20
137.4905993394484
 30
0.0
 10
97.46487905631852
 20
137.51194419162
 30
0.0
 10
97.30814406804399
 20
137.640062586887
 30
0.0
 10
97.19157574425785
 20
137.8230005229521
 30
0.0
 10
97.1353190524636
 20
138.0145496948392
 30
0.0
 10
97.12980118124732
 20
138.1363553665242
 30
0.0
 10
97.1278490730758
 20
138.1794476819684
 30
0.0
  0
ELLIPSE
  5
26D
330
1F
100
AcDbEntity
  8
0
  6
Continuous
 62
     7
370
    25
100
AcDbEllipse
 10
98.2561692038
 20
140.6485404762
 30
0.0
 11
0.7999998117959564
 21
0.02096310677478641
 31
0.0
210
0.0
220
0.0
230
1.0
 40
0.026176936
 41
3.841553832102874
 42
4.711703042950399
  0
SPLINE
  5
26E
330
1F
100
AcDbEntity
  8
0
  6
Continuous
 62
     7
370
    25
100
AcDbSpline
210
0.0
220
0.0
230
1.0
 70
     8
 71
     3
 72
    12
 73
     8
 74
     0
 42
0.00000001
 43
0.00000001
 40
0.0
 40
0.0
 40
0.0
 40
0.0
 40
0.2198610998683202
 40
0.4397399767664986
 40
0.6583294271823332
 40
0.8791242261983154
 40
1.0
 40
1.0
 40
1.0
 40
1.0
 10
97.12784907307582
 20
139.9194958552163
 30
0.0
 10
97.13395202297114
 20
139.9981867649355
 30
0.0
 10
97.14615841622026
 20
140.1555749469848
 30
0.0
 10
97.23868235731864
 20
140.3648566954697
 30
0.0
 10
97.37446630474035
 20
140.5235060161341
 30
0.0
 10
97.51889416810374
 20
140.6036060788494
 30
0.0
 10
97.61177117975251
 20
140.6149891161511
 30
0.0
 10
97.64462908893343
 20
140.6190161923804
 30
0.0
  0
ELLIPSE
  5
26F
330
1F
100
AcDbEntity
  8
0
  6
Continuous
 62
     7
370
    25
100
AcDbEllipse
 10
132.5564527998
 20
140.025220532
 30
0.0
 11
1.557390436637263
 21
0.09517594847733335
 31
0.0
210
0.0
220
0.0
230
0.9999999999999999
 40
0.9613560848
 41
0.8784769082855974
 42
1.527206254409825
  0
SPLINE
  5
270
330
1F
100
AcDbEntity
  8
0
  6
Continuous
 62
     7
370
    25
100
AcDbSpline
210
0.0
220
0.0
230
1.0
 70
    24
 71
     3
 72
    10
 73
     6
 74
     0
 42
0.00000001
 43
0.00000001
 40
0.0
 40
0.0
 40
0.0
 40
0.0
 40
0.2808335173386709
 40
0.5616510917414143
 40
0.9999999999999999
 40
0.9999999999999999
 40
0.9999999999999999
 40
0.9999999999999999
 10
133.4801408034095
 20
141.238474836425
 30
0.0
 10
133.4619326837646
 20
141.20699483363
 30
0.0
 10
133.425517478151
 20
141.1440366151617
 30
0.0
 10
133.3157343933506
 20
140.9542327318519
 30
0.0
 10
133.2167724406168
 20
140.7831374947035
 30
0.0
 10
133.1564527997744
 20
140.6788509182008
 30
0.0
  0
SPLINE
  5
271
330
1F
100
AcDbEntity
  8
0
  6
Continuous
 62
     7
370
    25
100
AcDbSpline
210
0.0
220
0.0
230
1.0
 70
     8
 71
     3
 72
    11
 73
     7
 74
     0
 42
0.00000001
 43
0.00000001
 40
0.0
 40
0.0
 40
0.0
 40
0.0
 40
0.2561894651307129
 40
0.5096044939206584
 40
0.7692742066444705
 40
1.0
 40
1.0
 40
1.0
 40
1.0
 10
134.3564527997744
 20
140.0618880032258
 30
0.0
 10
134.3120878091576
 20
140.1753955385471
 30
0.0
 10
134.2238382842229
 20
140.4011813649238
 30
0.0
 10
134.0140261972985
 20
140.7263837006834
 30
0.0
 10
133.7665183278069
 20
141.0163400586126
 30
0.0
 10
133.5717684970687
 20
141.167401879791
 30
0.0
 10
133.4801408034095
 20
141.238474836425
 30
0.0
  0
SPLINE
  5
272
330
1F
100
AcDbEntity
  8
0
  6
Continuous
 62
     7
370
    25
100
AcDbSpline
210
0.0
220
0.0
230
1.0
 70
    24
 71
     3
 72
    10
 73
     6
 74
     0
 42
0.00000001
 43
0.00000001
 40
0.0
 40
0.0
 40
0.0
 40
0.0
 40
0.2808335173386708
 40
0.5616510917414125
 40
1.0
 40
1.0
 40
1.0
 40
1.0
 10
133.1564527997744
 20
137.4200926189839
 30
0.0
 10
133.1948032487369
 20
137.3537885599116
 30
0.0
 10
133.2715019695044
 20
137.2211842058524
 30
0.0
 10
133.3966563195464
 20
137.004804954948
 30
0.0
 10
133.4485253858997
 20
136.9151285695976
 30
0.0
 10
133.4801408034095
 20
136.8604687007597
 30
0.0
  0
ELLIPSE
  5
273
330
1F
100
AcDbEntity
  8
0
  6
Continuous
 62
     7
370
    25
100
AcDbEllipse
 10
132.5564527998
 20
138.0737230052
 30
0.0
 11
1.557390436637235
 21
-0.09517594847733335
 31
0.0
210
0.0
220
0.0
230
1.0
 40
0.9613560848
 41
4.755979052769758
 42
5.404708398893988
  0
SPLINE
  5
274
330
1F
100
AcDbEntity
  8
0
  6
Continuous
 62
     7
370
    25
100
AcDbSpline
210
0.0
220
0.0
230
1.0
 70
     8
 71
     3
 72
    11
 73
     7
 74
     0
 42
0.00000001
 43
0.00000001
 40
0.0
 40
0.0
 40
0.0
 40
0.0
 40
0.2307374805226512
 40
0.4903955403005855
 40
0.7438105520730652
 40
0.9999999999999999
 40
0.9999999999999999
 40
0.9999999999999999
 40
0.9999999999999999
 10
133.4801408034095
 20
136.8604687007597
 30
0.0
 10
133.571772808169
 20
136.9315457189498
 30
0.0
 10
133.7665219507056
 20
137.0826085313692
 30
0.0
 10
134.0140295179436
 20
137.3725645605247
 30
0.0
 10
134.2238382473376
 20
137.6977622210733
 30
0.0
 10
134.312087796818
 20
137.9235480149674
 30
0.0
 10
134.3564527997744
 20
138.0370555339589
 30
0.0
  0
LINE
  5
275
330
1F
100
AcDbEntity
  8
0
  6
Continuous
 62
     7
370
    25
100
AcDbLine
 10
134.6564662551
 20
141.6549284387
 30
0.0
 11
132.5329070016
 21
141.5251525255
 31
0.0
  0
SPLINE
  5
276
330
1F
100
AcDbEntity
  8
0
  6
Continuous
 62
     7
370
    25
100
AcDbSpline
210
0.0
220
0.0
230
1.0
 70
     8
 71
     3
 72
    13
 73
     9
 74
     0
 42
0.00000001
 43
0.00000001
 40
0.0
 40
0.0
 40
0.0
 40
0.0
 40
0.1035746466401555
 40
0.2111076158583393
 40
0.3219769626223817
 40
0.4454462032504118
 40
0.7113049728010379
 40
1.0
 40
1.0
 40
1.0
 40
1.0
 10
136.7564527997744
 20
140.2085578882926
 30
0.0
 10
136.749196635014
 20
140.3069006667414
 30
0.0
 10
136.7344069959224
 20
140.5073445993897
 30
0.0
 10
136.6081343863605
 20
140.7902866496197
 30
0.0
 10
136.4115869982297
 20
141.0485448746387
 30
0.0
 10
136.0477353251424
 20
141.3516402243937
 30
0.0
 10
135.4501479384072
 20
141.6171698906772
 30
0.0
 10
134.9281914548474
 20
141.642001406092
 30
0.0
 10
134.656466255054
 20
141.6549284387083
 30
0.0
  0
LINE
  5
277
330
1F
100
AcDbEntity
  8
0
  6
Continuous
 62
     7
370
    25
100
AcDbLine
 10
134.3564527998
 20
140.0618880032
 30
0.0
 11
136.7564527998
 21
140.2085578883
 31
0.0
  0
LINE
  5
278
330
1F
100
AcDbEntity
  8
0
  6
Continuous
 62
     7
370
    25
100
AcDbLine
 10
136.7564527998
 20
137.8903856489
 30
0.0
 11
134.3564527998
 21
138.037055534
 31
0.0
  0
SPLINE
  5
279
330
1F
100
AcDbEntity
  8
0
  6
Continuous
 62
     7
370
    25
100
AcDbSpline
210
0.0
220
0.0
230
1.0
 70
     8
 71
     3
 72
    13
 73
     9
 74
     0
 42
0.00000001
 43
0.00000001
 40
0.0
 40
0.0
 40
0.0
 40
0.0
 40
0.2886949682914851
 40
0.554553683594315
 40
0.6780091910936104
 40
0.7888922083801199
 40
0.8964194071406489
 40
1.0
 40
1.0
 40
1.0
 40
1.0
 10
134.656466255054
 20
136.4440150984765
 30
0.0
 10
134.9281914456302
 20
136.4569421039592
 30
0.0
 10
135.4501479114847
 20
136.4817735672532
 30
0.0
 10
136.047723319588
 20
136.7472981686858
 30
0.0
 10
136.4115774997674
 20
137.05038916529
 30
0.0
 10
136.6081249913331
 20
137.3086409194106
 30
0.0
 10
136.7344082804393
 20
137.5915922855789
 30
0.0
 10
136.7491967824104
 20
137.79203694827
 30
0.0
 10
136.7564527997744
 20
137.8903856488922
 30
0.0
  0
LINE
  5
27A
330
1F
100
AcDbEntity
  8
0
  6
Continuous
 62
     7
370
    25
100
AcDbLine
 10
132.5329070016
 20
136.5737910117
 30
0.0
 11
134.6564662551
 21
136.4440150985
 31
0.0
  0
SPLINE
  5
27B
330
1F
100
AcDbEntity
  8
0
  6
Continuous
 62
     7
370
    25
100
AcDbSpline
210
0.0
220
0.0
230
1.0
 70
     8
 71
     3
 72
    12
 73
     8
 74
     0
 42
0.00000001
 43
0.00000001
 40
0.0
 40
0.0
 40
0.0
 40
0.0
 40
0.2225634137434379
 40
0.4462063173695244
 40
0.6680851268156933
 40
0.8917990985568367
 40
1.0
 40
1.0
 40
1.0
 40
1.0
 10
97.60251350590093
 20
140.6180709565083
 30
0.0
 10
97.54081694026604
 20
140.6057178489416
 30
0.0
 10
97.41712456476165
 20
140.5809517180546
 30
0.0
 10
97.25795822296816
 20
140.4483677900567
 30
0.0
 10
97.1418763349512
 20
140.2620103865622
 30
0.0
 10
97.09016128422334
 20
140.0739195752089
 30
0.0
 10
97.08632286244642
 20
139.9573395423205
 30
0.0
 10
97.08507157565593
 20
139.9193356272571
 30
0.0
  0
SPLINE
  5
27C
330
1F
100
AcDbEntity
  8
0
  6
Continuous
 62
     7
370
    25
100
AcDbSpline
210
0.0
220
0.0
230
1.0
 70
     8
 71
     3
 72
    12
 73
     8
 74
     0
 42
0.00000001
 43
0.00000001
 40
0.0
 40
0.0
 40
0.0
 40
0.0
 40
0.2225634137435274
 40
0.446206317369568
 40
0.6680851268158019
 40
0.8917990985569294
 40
1.0
 40
1.0
 40
1.0
 40
1.0
 10
97.08507157565593
 20
138.1796079099277
 30
0.0
 10
97.09065814175844
 20
138.1011042498851
 30
0.0
 10
97.101858370248
 20
137.9437161668285
 30
0.0
 10
97.19590914793507
 20
137.7343646292011
 30
0.0
 10
97.33540021133311
 20
137.575605334731
 30
0.0
 10
97.48062431116944
 20
137.4977564644144
 30
0.0
 10
97.5725474798995
 20
137.485023423581
 30
0.0
 10
97.60251350590093
 20
137.4808725806764
 30
0.0
  0
SPLINE
  5
27D
330
1F
100
AcDbEntity
  8
0
  6
Continuous
 62
     7
370
    25
100
AcDbSpline
210
0.0
220
0.0
230
1.0
 70
     8
 71
     3
 72
    11
 73
     7
 74
     0
 42
0.00000001
 43
0.00000001
 40
0.0
 40
0.0
 40
0.0
 40
0.0
 40
0.249999999999999
 40
0.4999999999999998
 40
0.7499999999999988
 40
1.0
 40
1.0
 40
1.0
 40
1.0
 10
97.5213265332975
 20
140.6171904723624
 30
0.0
 10
97.44309142496523
 20
140.6021911671958
 30
0.0
 10
97.2866212083007
 20
140.5721925568627
 30
0.0
 10
97.09329505688422
 20
140.408672854066
 30
0.0
 10
96.9589186246052
 20
140.1830932399837
 30
0.0
 10
96.94153687621804
 20
140.0066678420686
 30
0.0
 10
96.93284600202443
 20
139.9184551431111
 30
0.0
  0
ELLIPSE
  5
27E
330
1F
100
AcDbEntity
  8
0
  6
Continuous
 62
     7
370
    25
100
AcDbEllipse
 10
98.2368682861
 20
140.6653446304
 30
0.0
 11
0.7999991634988675
 21
0.04310148564323413
 31
0.0
210
0.0
220
0.0
230
1.0
 40
0.0268411366
 41
3.603794146005467
 42
3.795317988397907
  0
ELLIPSE
  5
27F
330
1F
100
AcDbEntity
  8
0
  6
Continuous
 62
     7
370
    25
100
AcDbEllipse
 10
98.2368682861
 20
137.4335989068
 30
0.0
 11
0.7999991634988675
 21
-0.04310148564323413
 31
0.0
210
0.0
220
0.0
230
1.0
 40
0.0268411366
 41
2.487867318783687
 42
2.679391161175142
  0
SPLINE
  5
280
330
1F
100
AcDbEntity
  8
0
  6
Continuous
 62
     7
370
    25
100
AcDbSpline
210
0.0
220
0.0
230
1.0
 70
     8
 71
     3
 72
    11
 73
     7
 74
     0
 42
0.00000001
 43
0.00000001
 40
0.0
 40
0.0
 40
0.0
 40
0.0
 40
0.2499999999999991
 40
0.4999999999999979
 40
0.7499999999999996
 40
1.0
 40
1.0
 40
1.0
 40
1.0
 10
97.52132653329747
 20
137.4817530648224
 30
0.0
 10
97.4430914249652
 20
137.4967523699889
 30
0.0
 10
97.28662120830066
 20
137.5267509803221
 30
0.0
 10
97.0932950568842
 20
137.6902706831188
 30
0.0
 10
96.95891862460525
 20
137.9158502972011
 30
0.0
 10
96.94153687621804
 20
138.0922756951161
 30
0.0
 10
96.93284600202443
 20
138.1804883940737
 30
0.0
  0
LINE
  5
281
330
1F
100
AcDbEntity
  8
0
  6
Continuous
 62
     7
370
    25
100
AcDbLine
 10
136.7564527998
 20
140.2085578883
 30
0.0
 11
136.7564527998
 21
137.8903856489
 31
0.0
  0
LINE
  5
282
330
1F
100
AcDbEntity
  8
0
  6
Continuous
 62
     7
370
    25
100
AcDbLine
 10
97.4221841778
 20
140.835712431
 30
0.0
 11
119.0497323465
 21
141.4020497111
 31
0.0
  0
SPLINE
  5
283
330
1F
100
AcDbEntity
  8
0
  6
Continuous
 62
     7
370
    25
100
AcDbSpline
210
0.0
220
0.0
230
1.0
 70
     8
 71
     3
 72
     9
 73
     5
 74
     0
 42
0.00000001
 43
0.00000001
 40
0.0
 40
0.0
 40
0.0
 40
0.0
 40
0.5600012771711205
 40
0.9999999999999999
 40
0.9999999999999999
 40
0.9999999999999999
 40
0.9999999999999999
 10
119.0497323464933
 20
141.4020497110895
 30
0.0
 10
119.5271624830183
 20
141.3902152987444
 30
0.0
 10
120.3797143538582
 20
141.3690824677537
 30
0.0
 10
121.2366035585017
 20
141.3481217383412
 30
0.0
 10
121.6136337141506
 20
141.3388990441702
 30
0.0
  0
SPLINE
  5
284
330
1F
100
AcDbEntity
  8
0
  6
Continuous
 62
     7
370
    25
100
AcDbSpline
210
0.0
220
0.0
230
1.0
 70
     8
 71
     3
 72
     9
 73
     5
 74
     0
 42
0.00000001
 43
0.00000001
 40
0.0
 40
0.0
 40
0.0
 40
0.0
 40
0.5599999095971039
 40
1.0
 40
1.0
 40
1.0
 40
1.0
 10
121.6136337141506
 20
141.3388990441702
 30
0.0
 10
121.7077632048131
 20
141.336601634273
 30
0.0
 10
121.8758516081313
 20
141.332499115937
 30
0.0
 10
122.0440941278271
 20
141.328402722744
 30
0.0
 10
122.1181208517028
 20
141.3266003093688
 30
0.0
  0
LINE
  5
285
330
1F
100
AcDbEntity
  8
0
  6
Continuous
 62
     7
370
    25
100
AcDbLine
 10
122.1181208517
 20
141.3266003094
 30
0.0
 11
134.6564662551
 21
141.6549284387
 31
0.0
  0
LINE
  5
286
330
1F
100
AcDbEntity
  8
0
  6
Continuous
 62
     7
370
    25
100
AcDbLine
 10
97.6446290889
 20
140.6190161924
 30
0.0
 11
97.4221841778
 21
140.835712431
 31
0.0
  0
LINE
  5
287
330
1F
100
AcDbEntity
  8
0
  6
Continuous
 62
     7
370
    25
100
AcDbLine
 10
134.6564662551
 20
136.4440150985
 30
0.0
 11
122.1181208517
 21
136.7723432278
 31
0.0
  0
SPLINE
  5
288
330
1F
100
AcDbEntity
  8
0
  6
Continuous
 62
     7
370
    25
100
AcDbSpline
210
0.0
220
0.0
230
1.0
 70
     8
 71
     3
 72
     9
 73
     5
 74
     0
 42
0.00000001
 43
0.00000001
 40
0.0
 40
0.0
 40
0.0
 40
0.0
 40
0.5600000882143319
 40
1.0
 40
1.0
 40
1.0
 40
1.0
 10
122.1181208517028
 20
136.772343227816
 30
0.0
 10
122.0239084361711
 20
136.7700491116749
 30
0.0
 10
121.8556720063661
 20
136.765952476354
 30
0.0
 10
121.6875898486975
 20
136.7618497098947
 30
0.0
 10
121.6136337141507
 20
136.7600444930146
 30
0.0
  0
SPLINE
  5
289
330
1F
100
AcDbEntity
  8
0
  6
Continuous
 62
     7
370
    25
100
AcDbSpline
210
0.0
220
0.0
230
1.0
 70
     8
 71
     3
 72
     9
 73
     5
 74
     0
 42
0.00000001
 43
0.00000001
 40
0.0
 40
0.0
 40
0.0
 40
0.0
 40
0.5599987526606142
 40
1.0
 40
1.0
 40
1.0
 40
1.0
 10
121.6136337141507
 20
136.7600444930146
 30
0.0
 10
121.1338674562635
 20
136.7483029064922
 30
0.0
 10
120.2771400874832
 20
136.7273357410001
 30
0.0
 10
119.4247743390106
 20
136.706195540628
 30
0.0
 10
119.0497323464933
 20
136.6968938260952
 30
0.0
  0
LINE
  5
28A
330
1F
100
AcDbEntity
  8
0
  6
Continuous
 62
     7
370
    25
100
AcDbLine
 10
119.0497323465
 20
136.6968938261
 30
0.0
 11
97.4221841778
 21
137.2632311062
 31
0.0
  0
LINE
  5
28B
330
1F
100
AcDbEntity
  8
0
  6
Continuous
 62
     7
370
    25
100
AcDbLine
 10
97.4221841778
 20
137.2632311062
 30
0.0
 11
97.6446290889
 21
137.4799273448
 31
0.0
  0
LINE
  5
28C
330
1F
100
AcDbEntity
  8
0
  6
Continuous
 62
     7
370
    25
100
AcDbLine
 10
92.3538958589
 20
139.9184551431
 30
0.0
 11
96.932846002
 21
139.9184551431
 31
0.0
  0
SPLINE
  5
28D
330
1F
100
AcDbEntity
  8
0
  6
Continuous
 62
     7
370
    25
100
AcDbSpline
210
0.0
220
0.0
230
1.0
 70
     8
 71
     3
 72
    13
 73
     9
 74
     0
 42
0.00000001
 43
0.00000001
 40
0.0
 40
0.0
 40
0.0
 40
0.0
 40
0.1143463544469914
 40
0.2890454840074685
 40
0.5294852105593209
 40
0.7014879056604271
 40
0.9335094878266192
 40
1.0
 40
1.0
 40
1.0
 40
1.0
 10
93.11585670909291
 20
140.6171904723624
 30
0.0
 10
93.07465550838396
 20
140.6123558808573
 30
0.0
 10
92.9705068360611
 20
140.6001349679272
 30
0.0
 10
92.78314734168124
 20
140.5274868728862
 30
0.0
 10
92.60111961167247
 20
140.3969746064794
 30
0.0
 10
92.44883603045811
 20
140.2101070073098
 30
0.0
 10
92.37633275357813
 20
140.0487336025532
 30
0.0
 10
92.35798306425941
 20
139.9421872517012
 30
0.0
 10
92.35389585886922
 20
139.9184551431111
 30
0.0
  0
LINE
  5
28E
330
1F
100
AcDbEntity
  8
0
  6
Continuous
 62
     7
370
    25
100
AcDbLine
 10
97.5213265333
 20
140.6171904724
 30
0.0
 11
93.1158567091
 21
140.6171904724
 31
0.0
  0
LINE
  5
28F
330
1F
100
AcDbEntity
  8
0
  6
Continuous
 62
     7
370
    25
100
AcDbLine
 10
93.1158567091
 20
137.4817530648
 30
0.0
 11
97.5213265333
 21
137.4817530648
 31
0.0
  0
SPLINE
  5
290
330
1F
100
AcDbEntity
  8
0
  6
Continuous
 62
     7
370
    25
100
AcDbSpline
210
0.0
220
0.0
230
1.0
 70
     8
 71
     3
 72
    12
 73
     8
 74
     0
 42
0.00000001
 43
0.00000001
 40
0.0
 40
0.0
 40
0.0
 40
0.0
 40
0.139683458618249
 40
0.3831896274038307
 40
0.55131692930133
 40
0.8194729461607051
 40
0.9999999999999999
 40
0.9999999999999999
 40
0.9999999999999999
 40
0.9999999999999999
 10
92.35389585886922
 20
138.1804883940737
 30
0.0
 10
92.36413723961549
 20
138.1307734735952
 30
0.0
 10
92.39223212580382
 20
137.9943919575374
 30
0.0
 10
92.4993824871586
 20
137.8144758483253
 30
0.0
 10
92.67971957457159
 20
137.6361344199404
 30
0.0
 10
92.88817571914058
 20
137.5156141953889
 30
0.0
 10
93.0505326198445
 20
137.491468182082
 30
0.0
 10
93.1158567090929
 20
137.4817530648224
 30
0.0
  0
LINE
  5
291
330
1F
100
AcDbEntity
  8
0
  6
Continuous
 62
     7
370
    25
100
AcDbLine
 10
96.932846002
 20
138.1804883941
 30
0.0
 11
92.3538958589
 21
138.1804883941
 31
0.0
  0
ELLIPSE
  5
292
330
1F
100
AcDbEntity
  8
0
  6
Continuous
 62
     7
370
    25
100
AcDbEllipse
 10
92.7092392043
 20
139.2240103237
 30
0.0
 11
0.008721666502694349
 21
1.000418978703721
 31
0.0
210
0.0
220
0.0
230
0.9999999999999999
 40
0.499714557
 41
0.8079180407726356
 42
1.588240544501543
  0
ELLIPSE
  5
293
330
1F
100
AcDbEntity
  8
0
  6
Continuous
 62
     7
370
    25
100
AcDbEllipse
 10
92.7092392043
 20
138.8749332135
 30
0.0
 11
-0.008721666502680138
 21
1.000418978703721
 31
0.0
210
0.0
220
0.0
230
1.0
 40
0.499714557
 41
1.553352109088314
 42
2.333674612817175
  0
LINE
  5
294
330
1F
100
AcDbEntity
  8
0
  6
Continuous
 62
     7
370
    25
100
AcDbLine
 10
92.2092392043
 20
139.2109173629
 30
0.0
 11
92.2092392043
 21
138.8880261743
 31
0.0
  0
LINE
  5
295
330
1F
100
AcDbEntity
  8
0
  6
Continuous
 62
     7
370
    25
100
AcDbLine
 10
97.423312035
 20
140.7926413007
 30
0.0
 11
97.4221841778
 21
140.835712431
 31
0.0
  0
LINE
  5
296
330
1F
100
AcDbEntity
  8
0
  6
Continuous
 62
     7
370
    25
100
AcDbLine
 10
97.423312035
 20
137.3063022365
 30
0.0
 11
97.4221841778
 21
137.2632311062
 31
0.0
  0
ELLIPSE
  5
297
330
1F
100
AcDbEntity
  8
0
  6
Continuous
 62
     7
370
    25
100
AcDbEllipse
 10
61.2054456003
 20
138.887144044
 30
0.0
 11
36.18915845259203
 21
1.947628334984216
 31
0.0
210
0.0
220
0.0
230
1.0
 40
0.0007414247
 41
0.0282885576639685
 42
0.4911607830434358
  0
LINE
  5
298
330
1F
100
AcDbEntity
  8
0
  6
Continuous
 62
     7
370
    25
100
AcDbLine
 10
97.3800841234
 20
140.8347520677
 30
0.0
 11
97.6025135059
 21
140.6180709565
 31
0.0
  0
LINE
  5
299
330
1F
100
AcDbEntity
  8
0
  6
Continuous
 62
     7
370
    25
100
AcDbLine
 10
97.6025135059
 20
137.4808725807
 30
0.0
 11
97.3800841235
 21
137.2641914695
 31
0.0
  0
ELLIPSE
  5
29A
330
1F
100
AcDbEntity
  8
0
  6
Continuous
 62
     7
370
    25
100
AcDbEllipse
 10
61.2054456003
 20
139.2117994932
 30
0.0
 11
36.18915845257634
 21
-1.947628334983363
 31
0.0
210
0.0
220
0.0
230
1.0
 40
0.0007414247
 41
5.792024524150261
 42
6.254896749546813
  0
LINE
  5
29B
330
1F
100
AcDbEntity
  8
0
  6
Continuous
 62
     7
370
    25
100
AcDbLine
 10
125.2243283777
 20
141.9144201808
 30
0.0
 11
125.8749818438
 21
142.1485153146
 31
0.0
  0
SPLINE
  5
29C
330
1F
100
AcDbEntity
  8
0
  6
Continuous
 62
     7
370
    25
100
AcDbSpline
210
0.0
220
0.0
230
1.0
 70
     8
 71
     3
 72
    10
 73
     6
 74
     0
 42
0.00000001
 43
0.00000001
 40
0.0
 40
0.0
 40
0.0
 40
0.0
 40
0.2383396858856107
 40
0.571650633368965
 40
1.0
 40
1.0
 40
1.0
 40
1.0
 10
125.2264285376915
 20
141.9079942106471
 30
0.0
 10
124.9821622825915
 20
141.8333960082202
 30
0.0
 10
124.3962969495911
 20
141.6544744429464
 30
0.0
 10
123.3597421485855
 20
141.4181303306914
 30
0.0
 10
122.565048052986
 20
141.3595469545059
 30
0.0
 10
122.118120851703
 20
141.3266003093688
 30
0.0
  0
SPLINE
  5
29D
330
1F
100
AcDbEntity
  8
0
  6
Continuous
 62
     7
370
    25
100
AcDbSpline
210
0.0
220
0.0
230
1.0
 70
     8
 71
     3
 72
    11
 73
     7
 74
     0
 42
0.00000001
 43
0.00000001
 40
0.0
 40
0.0
 40
0.0
 40
0.0
 40
0.2506671725023492
 40
0.5010414677145718
 40
0.7508849997170933
 40
1.0
 40
1.0
 40
1.0
 40
1.0
 10
119.0497323464933
 20
141.4020497110895
 30
0.0
 10
119.5254203590539
 20
141.4289242777446
 30
0.0
 10
120.476240594541
 20
141.4826420110508
 30
0.0
 10
121.8769132117533
 20
141.7681074747047
 30
0.0
 10
123.2404789730051
 20
142.1896356213244
 30
0.0
 10
124.0931465195609
 20
142.6059926990214
 30
0.0
 10
124.5188578008744
 20
142.8138672753979
 30
0.0
  0
SPLINE
  5
29E
330
1F
100
AcDbEntity
  8
0
  6
Continuous
 62
     7
370
    25
100
AcDbSpline
210
0.0
220
0.0
230
1.0
 70
     8
 71
     3
 72
     9
 73
     5
 74
     0
 42
0.00000001
 43
0.00000001
 40
0.0
 40
0.0
 40
0.0
 40
0.0
 40
0.501325902198991
 40
1.0
 40
1.0
 40
1.0
 40
1.0
 10
124.5188577714326
 20
142.8138673287621
 30
0.0
 10
124.7429334722666
 20
142.9389099862321
 30
0.0
 10
125.1898996071724
 20
143.1883338777997
 30
0.0
 10
125.6039448868679
 20
143.490101986221
 30
0.0
 10
125.8104185431689
 20
143.640585925433
 30
0.0
  0
LINE
  5
29F
330
1F
100
AcDbEntity
  8
0
  6
Continuous
 62
     7
370
    25
100
AcDbLine
 10
127.8761990032
 20
143.7553523648
 30
0.0
 11
125.8102452683
 21
143.6405771573
 31
0.0
  0
SPLINE
  5
2A0
330
1F
100
AcDbEntity
  8
0
  6
Continuous
 62
     7
370
    25
100
AcDbSpline
210
0.0
220
0.0
230
1.0
 70
     8
 71
     3
 72
    14
 73
    10
 74
     0
 42
0.00000001
 43
0.00000001
 40
0.0
 40
0.0
 40
0.0
 40
0.0
 40
0.0829413618596714
 40
0.1664594845668882
 40
0.2437726390188662
 40
0.3161479456895724
 40
0.4353725718192331
 40
0.6486290670514194
 40
1.0
 40
1.0
 40
1.0
 40
1.0
 10
127.8761989903281
 20
143.7553523599297
 30
0.0
 10
127.9219982916031
 20
143.7535371703473
 30
0.0
 10
128.0139153751041
 20
143.749894168647
 30
0.0
 10
128.0644604076404
 20
143.6682330361595
 30
0.0
 10
128.0235555112002
 20
143.5349495558747
 30
0.0
 10
127.8879544650957
 20
143.346623099637
 30
0.0
 10
127.5710461943509
 20
143.0483560199747
 30
0.0
 10
126.8940575841177
 20
142.5903288611894
 30
0.0
 10
126.2658907679043
 20
142.3179933325115
 30
0.0
 10
125.8749789041795
 20
142.1485173488618
 30
0.0
  0
LINE
  5
2A1
330
1F
100
AcDbEntity
  8
0
  6
Continuous
 62
     7
370
    25
100
AcDbLine
 10
125.8102452682
 20
134.4583663799
 30
0.0
 11
127.8761990031
 21
134.3435911724
 31
0.0
  0
SPLINE
  5
2A2
330
1F
100
AcDbEntity
  8
0
  6
Continuous
 62
     7
370
    25
100
AcDbSpline
210
0.0
220
0.0
230
1.0
 70
     8
 71
     3
 72
     9
 73
     5
 74
     0
 42
0.00000001
 43
0.00000001
 40
0.0
 40
0.0
 40
0.0
 40
0.0
 40
0.4986740982738612
 40
1.0
 40
1.0
 40
1.0
 40
1.0
 10
125.8104183419433
 20
134.4583574299165
 30
0.0
 10
125.6039447008735
 20
134.6088413661955
 30
0.0
 10
125.1898994521139
 20
134.9106094684489
 30
0.0
 10
124.742933350169
 20
135.1600333600711
 30
0.0
 10
124.5188576660705
 20
135.2850760174507
 30
0.0
  0
SPLINE
  5
2A3
330
1F
100
AcDbEntity
  8
0
  6
Continuous
 62
     7
370
    25
100
AcDbSpline
210
0.0
220
0.0
230
1.0
 70
     8
 71
     3
 72
    11
 73
     7
 74
     0
 42
0.00000001
 43
0.00000001
 40
0.0
 40
0.0
 40
0.0
 40
0.0
 40
0.2491150002829079
 40
0.4989585322854286
 40
0.7493328274976518
 40
1.0
 40
1.0
 40
1.0
 40
1.0
 10
124.5188578008744
 20
135.2850762617869
 30
0.0
 10
124.093146519561
 20
135.4929508381634
 30
0.0
 10
123.2404789730051
 20
135.9093079158604
 30
0.0
 10
121.8769132117533
 20
136.33083606248
 30
0.0
 10
120.476240594541
 20
136.6163015261339
 30
0.0
 10
119.5254203590539
 20
136.6700192594401
 30
0.0
 10
119.0497323464933
 20
136.6968938260952
 30
0.0
  0
SPLINE
  5
2A4
330
1F
100
AcDbEntity
  8
0
  6
Continuous
 62
     7
370
    25
100
AcDbSpline
210
0.0
220
0.0
230
1.0
 70
     8
 71
     3
 72
    10
 73
     6
 74
     0
 42
0.00000001
 43
0.00000001
 40
0.0
 40
0.0
 40
0.0
 40
0.0
 40
0.428349366631063
 40
0.7616603141144169
 40
1.0
 40
1.0
 40
1.0
 40
1.0
 10
122.118120851703
 20
136.772343227816
 30
0.0
 10
122.565048052986
 20
136.7393965826789
 30
0.0
 10
123.3597421485856
 20
136.6808132064934
 30
0.0
 10
124.3962969495911
 20
136.4444690942385
 30
0.0
 10
124.9821622825916
 20
136.2655475289647
 30
0.0
 10
125.2264285376916
 20
136.1909493265378
 30
0.0
  0
LINE
  5
2A5
330
1F
100
AcDbEntity
  8
0
  6
Continuous
 62
     7
370
    25
100
AcDbLine
 10
125.2243283776
 20
136.1845233561
 30
0.0
 11
125.8749818437
 21
135.9504282224
 31
0.0
  0
SPLINE
  5
2A6
330
1F
100
AcDbEntity
  8
0
  6
Continuous
 62
     7
370
    25
100
AcDbSpline
210
0.0
220
0.0
230
1.0
 70
     8
 71
     3
 72
    15
 73
    11
 74
     0
 42
0.00000001
 43
0.00000001
 40
0.0
 40
0.0
 40
0.0
 40
0.0
 40
0.2091652517822448
 40
0.4176299509274911
 40
0.5931463878153098
 40
0.6923603779431111
 40
0.7731125739307029
 40
0.8543366880968446
 40
0.9261517123972134
 40
1.0
 40
1.0
 40
1.0
 40
1.0
 10
125.8749789040889
 20
135.9504261880916
 30
0.0
 10
126.1085631161843
 20
135.8527285556021
 30
0.0
 10
126.5749492018444
 20
135.6576605071828
 30
0.0
 10
127.1985993490236
 20
135.3083806538303
 30
0.0
 10
127.6584489783242
 20
134.9754904668869
 30
0.0
 10
127.920333349094
 20
134.7138723808509
 30
0.0
 10
128.0408033296093
 20
134.5332783679371
 30
0.0
 10
128.0595965565189
 20
134.4111842046268
 30
0.0
 10
127.9985583552125
 20
134.3471342153084
 30
0.0
 10
127.9173632367011
 20
134.3447831292704
 30
0.0
 10
127.8761989902932
 20
134.343591177257
 30
0.0
  0
SPLINE
  5
2A7
330
1F
100
AcDbEntity
  8
0
  6
Continuous
 62
     7
370
    25
100
AcDbSpline
210
0.0
220
0.0
230
1.0
 70
    24
 71
     3
 72
    11
 73
     7
 74
     0
 42
0.00000001
 43
0.00000001
 40
0.0
 40
0.0
 40
0.0
 40
0.0
 40
0.2499999999999989
 40
0.4999999999999996
 40
0.749999999999999
 40
1.0
 40
1.0
 40
1.0
 40
1.0
 10
134.6433822659933
 20
135.9443577147878
 30
0.0
 10
134.6450687364973
 20
136.0087614249829
 30
0.0
 10
134.6484416775051
 20
136.1375688453731
 30
0.0
 10
134.6527215744064
 20
136.3010115139834
 30
0.0
 10
134.6557636952202
 20
136.4171854208567
 30
0.0
 10
134.6562320684428
 20
136.4350718726032
 30
0.0
 10
134.656466255054
 20
136.4440150984765
 30
0.0
  0
LINE
  5
2A8
330
1F
100
AcDbEntity
  8
0
  6
Continuous
 62
     7
370
    25
100
AcDbLine
 10
125.2264285377
 20
136.1909493265
 30
0.0
 11
134.643382266
 21
135.9443577148
 31
0.0
  0
LINE
  5
2A9
330
1F
100
AcDbEntity
  8
0
  6
Continuous
 62
     7
370
    25
100
AcDbLine
 10
134.643382266
 20
142.1545858224
 30
0.0
 11
125.2264285377
 21
141.9079942106
 31
0.0
  0
SPLINE
  5
2AA
330
1F
100
AcDbEntity
  8
0
  6
Continuous
 62
     7
370
    25
100
AcDbSpline
210
0.0
220
0.0
230
1.0
 70
    24
 71
     3
 72
    11
 73
     7
 74
     0
 42
0.00000001
 43
0.00000001
 40
0.0
 40
0.0
 40
0.0
 40
0.0
 40
0.2500000000000009
 40
0.5000000000000002
 40
0.7500000000000007
 40
0.9999999999999999
 40
0.9999999999999999
 40
0.9999999999999999
 40
0.9999999999999999
 10
134.656466255054
 20
141.6549284387083
 30
0.0
 10
134.6562320684427
 20
141.6638716645816
 30
0.0
 10
134.6557636952202
 20
141.6817581163281
 30
0.0
 10
134.6527215744064
 20
141.7979320232014
 30
0.0
 10
134.6484416775051
 20
141.9613746918117
 30
0.0
 10
134.6450687364972
 20
142.0901821122018
 30
0.0
 10
134.6433822659933
 20
142.1545858223969
 30
0.0
  0
ELLIPSE
  5
2AB
330
1F
100
AcDbEntity
  8
0
  6
Continuous
 62
     7
370
    25
100
AcDbEllipse
 10
134.6564527998
 20
137.9453868558
 30
0.0
 11
2.497021557391548
 21
-0.1525991103465856
 31
2.131628207280301E-14
210
-8.504919643681511E-15
220
5.197564944335965E-16
230
0.9999999999999998
 40
0.7994627403
 41
4.75597905276978
 42
6.332003616895593
  0
SPLINE
  5
2AC
330
1F
100
AcDbEntity
  8
0
  6
Continuous
 62
     7
370
    25
100
AcDbSpline
210
0.0
220
0.0
230
1.0
 70
    24
 71
     3
 72
    11
 73
     7
 74
     0
 42
0.00000001
 43
0.00000001
 40
0.0
 40
0.0
 40
0.0
 40
0.0
 40
0.2500000000000007
 40
0.5000000000000022
 40
0.7500000000000036
 40
1.0
 40
1.0
 40
1.0
 40
1.0
 10
136.7564527997744
 20
137.8903856488922
 30
0.0
 10
136.7817127379786
 20
137.8903856488922
 30
0.0
 10
136.8322326143869
 20
137.8903856488922
 30
0.0
 10
136.9310912235873
 20
137.8903856488922
 30
0.0
 10
137.0404785034107
 20
137.8903856488922
 30
0.0
 10
137.1177947009865
 20
137.8903856488922
 30
0.0
 10
137.1564527997744
 20
137.8903856488922
 30
0.0
  0
ELLIPSE
  5
2AD
330
1F
100
AcDbEntity
  8
0
  6
Continuous
 62
     7
370
    25
100
AcDbEllipse
 10
134.6564527998
 20
140.1535566814
 30
0.0
 11
2.497021557391548
 21
0.152599110346614
 31
2.131628207280301E-14
210
-8.504919643681506E-15
220
-5.197564944335963E-16
230
1.0
 40
0.7994627403
 41
6.234366997463598
 42
7.810391561589394
  0
SPLINE
  5
2AE
330
1F
100
AcDbEntity
  8
0
  6
Continuous
 62
     7
370
    25
100
AcDbSpline
210
0.0
220
0.0
230
1.0
 70
    24
 71
     3
 72
    11
 73
     7
 74
     0
 42
0.00000001
 43
0.00000001
 40
0.0
 40
0.0
 40
0.0
 40
0.0
 40
0.2500000000000002
 40
0.500000000000003
 40
0.7499999999999994
 40
1.0
 40
1.0
 40
1.0
 40
1.0
 10
137.1564527997744
 20
140.2085578882926
 30
0.0
 10
137.1177947009865
 20
140.2085578882926
 30
0.0
 10
137.0404785034107
 20
140.2085578882926
 30
0.0
 10
136.9310912235873
 20
140.2085578882926
 30
0.0
 10
136.8322326143869
 20
140.2085578882926
 30
0.0
 10
136.7817127379786
 20
140.2085578882926
 30
0.0
 10
136.7564527997744
 20
140.2085578882926
 30
0.0
  0
LINE
  5
2AF
330
1F
100
AcDbEntity
  8
0
  6
Continuous
 62
     7
370
    25
100
AcDbLine
 10
137.2932744743
 20
135.3227333444
 30
0.0
 11
125.8775451908
 21
135.9569405268
 31
0.0
  0
LINE
  5
2B0
330
1F
100
AcDbEntity
  8
0
  6
Continuous
 62
     7
370
    25
100
AcDbLine
 10
137.2100694449
 20
133.8250428146
 30
0.0
 11
137.2932744743
 21
135.3227333444
 31
0.0
  0
LINE
  5
2B1
330
1F
100
AcDbEntity
  8
0
  6
Continuous
 62
     7
370
    25
100
AcDbLine
 10
127.8763914333
 20
134.3435804819
 30
0.0
 11
137.2100694449
 21
133.8250428146
 31
0.0
  0
LINE
  5
2B2
330
1F
100
AcDbEntity
  8
0
  6
Continuous
 62
     7
370
    25
100
AcDbLine
 10
137.1564527998
 20
137.8903856489
 30
0.0
 11
137.1564527998
 21
140.2085578883
 31
0.0
  0
LINE
  5
2B3
330
1F
100
AcDbEntity
  8
0
  6
Continuous
 62
     7
370
    25
100
AcDbLine
 10
137.2100694449
 20
144.2739007226
 30
0.0
 11
127.8763914333
 21
143.7553630553
 31
0.0
  0
LINE
  5
2B4
330
1F
100
AcDbEntity
  8
0
  6
Continuous
 62
     7
370
    25
100
AcDbLine
 10
137.2932744743
 20
142.7762101928
 30
0.0
 11
137.2100694449
 21
144.2739007226
 31
0.0
  0
LINE
  5
2B5
330
1F
100
AcDbEntity
  8
0
  6
Continuous
 62
     7
370
    25
100
AcDbLine
 10
125.8775451908
 20
142.1420030104
 30
0.0
 11
137.2932744743
 21
142.7762101928
 31
0.0
  0
LINE
  5
2B6
330
1F
100
AcDbEntity
  8
0
  6
Continuous
 62
     7
370
    25
100
AcDbLine
 10
137.6564527998
 20
135.6859116699
 30
0.0
 11
137.2932744743
 21
135.3227333444
 31
0.0
  0
LINE
  5
2B7
330
1F
100
AcDbEntity
  8
0
  6
Continuous
 62
     7
370
    25
100
AcDbLine
 10
137.2932744743
 20
142.7762101928
 30
0.0
 11
137.6564527998
 21
142.4130318673
 31
0.0
  0
LINE
  5
2B8
330
1F
100
AcDbEntity
  8
0
  6
Continuous
 62
     7
370
    25
100
AcDbLine
 10
137.6564527998
 20
135.6859116699
 30
0.0
 11
137.6564527998
 21
142.4130318673
 31
0.0
  0
LINE
  5
2B9
330
1F
100
AcDbEntity
  8
0
  6
Continuous
 62
     7
370
    25
100
AcDbLine
 10
137.6564527998
 20
143.1393885183
 30
0.0
 11
137.2932744743
 21
142.7762101928
 31
0.0
  0
ARC
  5
2BA
330
1F
100
AcDbEntity
  8
0
  6
Continuous
 62
     7
370
    25
100
AcDbCircle
 10
137.2932744743
 20
142.7762101928
 30
0.0
 40
1.500000000000007
100
AcDbArc
 50
75.9883675978
 51
93.1798301199
  0
LINE
  5
2BB
330
1F
100
AcDbEntity
  8
0
  6
Continuous
 62
     7
370
    25
100
AcDbLine
 10
137.6564527998
 20
143.1393885183
 30
0.0
 11
137.6564527998
 21
144.2315800784
 31
0.0
  0
LINE
  5
2BC
330
1F
100
AcDbEntity
  8
0
  6
Continuous
 62
     7
370
    25
100
AcDbLine
 10
137.6564527998
 20
142.4130318673
 30
0.0
 11
137.6564527998
 21
143.1393885183
 31
0.0
  0
ARC
  5
2BD
330
1F
100
AcDbEntity
  8
0
  6
Continuous
 62
     7
370
    25
100
AcDbCircle
 10
137.2932744743
 20
135.3227333444
 30
0.0
 40
1.500000000000007
100
AcDbArc
 50
266.8201698801
 51
284.0116324022
  0
LINE
  5
2BE
330
1F
100
AcDbEntity
  8
0
  6
Continuous
 62
     7
370
    25
100
AcDbLine
 10
137.2932744743
 20
135.3227333444
 30
0.0
 11
137.6564527998
 21
134.9595550189
 31
0.0
  0
LINE
  5
2BF
330
1F
100
AcDbEntity
  8
0
  6
Continuous
 62
     7
370
    25
100
AcDbLine
 10
137.6564527998
 20
133.8673634588
 30
0.0
 11
137.6564527998
 21
134.9595550189
 31
0.0
  0
LINE
  5
2C0
330
1F
100
AcDbEntity
  8
0
  6
Continuous
 62
     7
370
    25
100
AcDbLine
 10
137.6564527998
 20
134.9595550189
 30
0.0
 11
137.6564527998
 21
135.6859116699
 31
0.0
  0
SPLINE
  5
2C1
330
1F
100
AcDbEntity
  8
0
  6
Continuous
 62
     7
370
    25
100
AcDbSpline
210
0.0
220
0.0
230
1.0
 70
    24
 71
     3
 72
     9
 73
     5
 74
     0
 42
0.00000001
 43
0.00000001
 40
0.0
 40
0.0
 40
0.0
 40
0.0
 40
0.5389665913333133
 40
0.9999999999999999
 40
0.9999999999999999
 40
0.9999999999999999
 40
0.9999999999999999
 10
125.8104193385737
 20
143.640586827834
 30
0.0
 10
125.7644933967962
 20
143.6380353866241
 30
0.0
 10
125.6792822862822
 20
143.63330143604
 30
0.0
 10
125.6918634784453
 20
143.6340003911602
 30
0.0
 10
125.6976638283533
 20
143.6343226328217
 30
0.0
  0
SPLINE
  5
2C2
330
1F
100
AcDbEntity
  8
0
  6
Continuous
 62
     7
370
    25
100
AcDbSpline
210
0.0
220
0.0
230
1.0
 70
    24
 71
     3
 72
     9
 73
     5
 74
     0
 42
0.00000001
 43
0.00000001
 40
0.0
 40
0.0
 40
0.0
 40
0.0
 40
0.449000901028251
 40
1.0
 40
1.0
 40
1.0
 40
1.0
 10
125.7037618995187
 20
134.4642821226316
 30
0.0
 10
125.695376346927
 20
134.4647479866645
 30
0.0
 10
125.6767003207263
 20
134.4657855436757
 30
0.0
 10
125.7629150825118
 20
134.4609958346875
 30
0.0
 10
125.8104193385737
 20
134.4583567093508
 30
0.0
  0
SPLINE
  5
2C3
330
1F
100
AcDbEntity
  8
0
  6
Continuous
 62
     7
370
    25
100
AcDbSpline
210
0.0
220
0.0
230
1.0
 70
     8
 71
     3
 72
     9
 73
     5
 74
     0
 42
0.00000001
 43
0.00000001
 40
0.0
 40
0.0
 40
0.0
 40
0.0
 40
0.5407747560677784
 40
1.0
 40
1.0
 40
1.0
 40
1.0
 10
97.42218417775234
 20
140.835712431009
 30
0.0
 10
97.4144281357049
 20
140.8357419314219
 30
0.0
 10
97.40008567248813
 20
140.8357964835483
 30
0.0
 10
97.38576716868019
 20
140.8351922384134
 30
0.0
 10
97.37919175027622
 20
140.8349147537939
 30
0.0
  0
LINE
  5
2C4
330
1F
100
AcDbEntity
  8
0
  6
Continuous
 62
     7
370
    25
100
AcDbLine
 10
97.4221841778
 20
137.2632311062
 30
0.0
 11
97.3791917503
 21
137.2640287834
 31
0.0
  0
CIRCLE
  5
2C5
330
1F
100
AcDbEntity
  8
0
  6
Continuous
 62
     7
370
    25
100
AcDbCircle
 10
147.6564527998
 20
139.0494717686
 30
0.0
 40
7.558608890731364
  0
CIRCLE
  5
2C6
330
1F
100
AcDbEntity
  8
0
  6
Continuous
 62
     7
370
    25
100
AcDbCircle
 10
147.6564527998
 20
139.0494717686
 30
0.0
 40
5.500000000000028
  0
CIRCLE
  5
2C7
330
1F
100
AcDbEntity
  8
0
  6
Continuous
 62
     7
370
    25
100
AcDbCircle
 10
147.6564527998
 20
139.0494717686
 30
0.0
 40
8.0547478290882
  0
SPLINE
  5
2C8
330
1F
100
AcDbEntity
  8
0
  6
Continuous
 62
     7
370
    25
100
AcDbSpline
210
0.0
220
0.0
230
1.0
 70
     8
 71
     3
 72
    11
 73
     7
 74
     0
 42
0.00000001
 43
0.00000001
 40
0.0
 40
0.0
 40
0.0
 40
0.0
 40
0.2920574028183094
 40
0.5665622171831318
 40
0.8065682389915578
 40
1.0
 40
1.0
 40
1.0
 40
1.0
 10
139.540247192721
 20
137.5697060628014
 30
0.0
 10
139.5719077290366
 20
137.4021055273778
 30
0.0
 10
139.6333260100972
 20
137.0769772134422
 30
0.0
 10
139.7132383693617
 20
136.676373547576
 30
0.0
 10
139.7523371830893
 20
136.4185333515708
 30
0.0
 10
139.7369208201596
 20
136.3678879232892
 30
0.0
 10
139.7300409071755
 20
136.3452862148827
 30
0.0
  0
ARC
  5
2C9
330
1F
100
AcDbEntity
  8
0
  6
Continuous
 62
     7
370
    25
100
AcDbCircle
 10
147.6564527998
 20
139.0494717686
 30
0.0
 40
8.249999999999968
100
AcDbArc
 50
169.6671934996
 51
190.3328065004
  0
SPLINE
  5
2CA
330
1F
100
AcDbEntity
  8
0
  6
Continuous
 62
     7
370
    25
100
AcDbSpline
210
0.0
220
0.0
230
1.0
 70
     8
 71
     3
 72
    12
 73
     8
 74
     0
 42
0.00000001
 43
0.00000001
 40
0.0
 40
0.0
 40
0.0
 40
0.0
 40
0.1882084234719069
 40
0.3759134198095928
 40
0.5768476463044282
 40
0.8018243756979397
 40
1.0
 40
1.0
 40
1.0
 40
1.0
 10
139.7300409071789
 20
141.7536573222986
 30
0.0
 10
139.7369124985483
 20
141.732054127786
 30
0.0
 10
139.7506373008903
 20
141.6889055238168
 30
0.0
 10
139.7248126009322
 20
141.4953656660342
 30
0.0
 10
139.6737328062906
 20
141.2205366079952
 30
0.0
 10
139.6064928046224
 20
140.8847964706258
 30
0.0
 10
139.5613765575021
 20
140.642644770613
 30
0.0
 10
139.540247192721
 20
140.5292374743833
 30
0.0
  0
ARC
  5
2CB
330
1F
100
AcDbEntity
  8
0
  6
Continuous
 62
     7
370
    25
100
AcDbCircle
 10
147.6564527998
 20
139.0494717686
 30
0.0
 40
8.986048245081989
100
AcDbArc
 50
200.7364869057
 51
159.2635130943
  0
LINE
  5
2CC
330
1F
100
AcDbEntity
  8
0
  6
Continuous
 62
     7
370
    25
100
AcDbLine
 10
139.7300409072
 20
136.3452862149
 30
0.0
 11
138.0003812555
 21
134.6156265632
 31
0.0
  0
LINE
  5
2CD
330
1F
100
AcDbEntity
  8
0
  6
Continuous
 62
     7
370
    25
100
AcDbLine
 10
138.0003812555
 20
143.483316974
 30
0.0
 11
139.7300409072
 21
141.7536573223
 31
0.0
  0
ARC
  5
2CE
330
1F
100
AcDbEntity
  8
0
  6
Continuous
 62
     7
370
    25
100
AcDbCircle
 10
137.2932744743
 20
142.7762101928
 30
0.0
 40
1.000000000000006
100
AcDbArc
 50
45.0
 51
68.7044833353
  0
ARC
  5
2CF
330
1F
100
AcDbEntity
  8
0
  6
Continuous
 62
     7
370
    25
100
AcDbCircle
 10
137.2932744743
 20
135.3227333444
 30
0.0
 40
1.000000000000006
100
AcDbArc
 50
291.2955166647
 51
315.0
  0
LINE
  5
2D0
330
1F
100
AcDbEntity
  8
0
  6
Continuous
 62
     7
370
    25
100
AcDbLine
 10
124.5057814966
 20
135.261375066
 30
0.0
 11
124.5188578009
 21
135.2850762618
 31
0.0
  0
ARC
  5
2D1
330
1F
100
AcDbEntity
  8
0
  6
Continuous
 62
     7
370
    25
100
AcDbCircle
 10
92.5923306616
 20
138.0684769496
 30
0.0
 40
0.263434467851203
100
AcDbArc
 50
154.8368907458
 51
203.8328861643
  0
ARC
  5
2D2
330
1F
100
AcDbEntity
  8
0
  6
Continuous
 62
     7
370
    25
100
AcDbCircle
 10
92.5920742069
 20
140.030414662
 30
0.0
 40
0.2631802791686804
100
AcDbArc
 50
155.8684497842
 51
205.1766169394
  0
LINE
  5
2D3
330
1F
100
AcDbEntity
  8
0
  6
Continuous
 62
     7
370
    25
100
AcDbLine
 10
92.2092392043
 20
139.2109173629
 30
0.0
 11
92.1564528885
 21
139.2109173629
 31
0.0
  0
LINE
  5
2D4
330
1F
100
AcDbEntity
  8
0
  6
Continuous
 62
     7
370
    25
100
AcDbLine
 10
92.2092392043
 20
138.8880261743
 30
0.0
 11
92.1564528671
 21
138.8880261743
 31
0.0
  0
LINE
  5
2D5
330
1F
100
AcDbEntity
  8
0
  6
Continuous
 62
     7
370
    25
100
AcDbLine
 10
138.0003812555
 20
134.6156265632
 30
0.0
 11
137.6564527998
 21
134.9595550189
 31
0.0
  0
LINE
  5
2D6
330
1F
100
AcDbEntity
  8
0
  6
Continuous
 62
     7
370
    25
100
AcDbLine
 10
137.6564527998
 20
135.6859116699
 30
0.0
 11
139.5402471927
 21
137.5697060628
 31
0.0
  0
LINE
  5
2D7
330
1F
100
AcDbEntity
  8
0
  6
Continuous
 62
     7
370
    25
100
AcDbLine
 10
139.5402471927
 20
140.5292374744
 30
0.0
 11
137.6564527998
 21
142.4130318673
 31
0.0
  0
LINE
  5
2D8
330
1F
100
AcDbEntity
  8
0
  6
Continuous
 62
     7
370
    25
100
AcDbLine
 10
138.0003812555
 20
143.483316974
 30
0.0
 11
137.6564527998
 21
143.1393885183
 31
0.0
  0
INSERT
  5
2E4
330
1F
100
AcDbEntity
  8
0
  6
Continuous
 62
     7
370
    18
100
AcDbBlockReference
  2
SW_CENTERMARKSYMBOL_1
 10
147.6564527998
 20
139.0494717686
 30
0.0
  0
LINE
  5
2E5
330
1F
100
AcDbEntity
  8
0
  6
Continuous
 62
     7
370
    18
100
AcDbLine
 10
160.6564527998
 20
129.2808467686
 30
0.0
 11
174.120928681
 21
129.7016116399
 31
0.0
  0
LINE
  5
2E6
330
1F
100
AcDbEntity
  8
0
  6
Continuous
 62
     7
370
    18
100
AcDbLine
 10
174.120928681
 20
148.3973318973
 30
0.0
 11
160.6564527998
 21
148.8180967686
 31
0.0
  0
LINE
  5
2E7
330
1F
100
AcDbEntity
  8
0
  6
Continuous
 62
     7
370
    18
100
AcDbLine
 10
129.1564527998
 20
148.3649717686
 30
0.0
 11
119.6564527998
 21
148.3649717686
 31
0.0
  0
LINE
  5
2E8
330
1F
100
AcDbEntity
  8
0
  6
Continuous
 62
     7
370
    18
100
AcDbLine
 10
119.6564527998
 20
129.7339717686
 30
0.0
 11
129.1564527998
 21
129.7339717686
 31
0.0
  0
LINE
  5
2E9
330
1F
100
AcDbEntity
  8
0
  6
Continuous
 62
     7
370
    25
100
AcDbLine
 10
129.1564527998
 20
148.5269717686
 30
0.0
 11
129.1564527998
 21
148.4750530319
 31
0.0
  0
SPLINE
  5
2EA
330
1F
100
AcDbEntity
  8
0
  6
Continuous
 62
     7
370
     0
100
AcDbSpline
210
0.0
220
0.0
230
1.0
 70
     8
 71
     3
 72
    16
 73
    12
 74
     0
 42
0.00000001
 43
0.00000001
 40
0.0
 40
0.0
 40
0.0
 40
0.0
 40
0.1116636082237765
 40
0.2233272158606532
 40
0.3349908234975307
 40
0.4466544311344077
 40
0.5583180387712846
 40
0.6699816464081635
 40
0.7816452540450389
 40
0.8933088616819168
 40
1.0
 40
1.0
 40
1.0
 40
1.0
 10
129.1563510894775
 20
148.4750530319452
 30
0.0
 10
129.1564527997744
 20
148.319865654547
 30
0.0
 10
129.1564527997744
 20
148.0631099017797
 30
0.0
 10
129.1564527997744
 20
147.7075988434001
 30
0.0
 10
129.1564527997744
 20
147.2572275329593
 30
0.0
 10
129.1564527997744
 20
146.7169303327809
 30
0.0
 10
129.1564527997744
 20
146.0926268520543
 30
0.0
 10
129.1564527997744
 20
145.3911570903584
 30
0.0
 10
129.1564527997744
 20
144.6202064971942
 30
0.0
 10
129.1564527997744
 20
143.8264775756783
 30
0.0
 10
129.1564527989924
 20
144.0948493760482
 30
0.0
 10
129.1564527997744
 20
143.8264775756784
 30
0.0
  0
SPLINE
  5
2EB
330
1F
100
AcDbEntity
  8
0
  6
Continuous
 62
     7
370
     0
100
AcDbSpline
210
0.0
220
0.0
230
1.0
 70
     8
 71
     3
 72
    17
 73
    13
 74
     0
 42
0.00000001
 43
0.00000001
 40
0.0
 40
0.0
 40
0.0
 40
0.0
 40
0.0959743021150927
 40
0.1964216018800816
 40
0.2968689016450727
 40
0.3973162014100612
 40
0.4977635011750512
 40
0.5982108009400414
 40
0.6986581007050309
 40
0.7991054004700208
 40
0.8995527002350104
 40
1.0
 40
1.0
 40
1.0
 40
1.0
 10
129.1563510894775
 20
134.2724659615062
 30
0.0
 10
129.1564527997744
 20
133.4787370399904
 30
0.0
 10
129.1564527997744
 20
132.7077864468262
 30
0.0
 10
129.1564527997744
 20
132.0063166851303
 30
0.0
 10
129.1564527997744
 20
131.3820132044038
 30
0.0
 10
129.1564527997744
 20
130.8417160042253
 30
0.0
 10
129.1564527997744
 20
130.3913446937846
 30
0.0
 10
129.1564527997744
 20
130.035833635405
 30
0.0
 10
129.1564527997744
 20
129.7790778826377
 30
0.0
 10
129.1564527997744
 20
129.6238905052396
 30
0.0
 10
129.1564527997744
 20
129.5719717685924
 30
0.0
 10
129.1564528000146
 20
129.5819817940473
 30
0.0
 10
129.1564527997744
 20
129.5719717685924
 30
0.0
  0
ENDSEC
  0
SECTION
  2
OBJECTS
  0
DICTIONARY
  5
C
330
0
100
AcDbDictionary
281
     1
  3
ACAD_GROUP
350
D
  3
ACAD_LAYOUT
350
1A
  3
ACAD_MLINESTYLE
350
17
  3
ACAD_PLOTSETTINGS
350
19
  3
ACAD_PLOTSTYLENAME
350
E
  3
ACAD_SCALELIST
350
47
  3
DWGPROPS
350
2EC
  0
DICTIONARY
  5
D
102
{ACAD_REACTORS
330
C
102
}
330
C
100
AcDbDictionary
281
     1
  0
DICTIONARY
  5
1A
102
{ACAD_REACTORS
330
C
102
}
330
C
100
AcDbDictionary
281
     1
  3
Layout1
350
1E
  3
Layout2
350
26
  3
Model
350
22
  0
DICTIONARY
  5
17
102
{ACAD_REACTORS
330
C
102
}
330
C
100
AcDbDictionary
281
     1
  3
Standard
350
18
  0
DICTIONARY
  5
19
102
{ACAD_REACTORS
330
C
102
}
330
C
100
AcDbDictionary
281
     1
  0
ACDBDICTIONARYWDFLT
  5
E
102
{ACAD_REACTORS
330
C
102
}
330
C
100
AcDbDictionary
281
     1
  3
Normal
350
F
100
AcDbDictionaryWithDefault
340
F
  0
DICTIONARY
  5
47
102
{ACAD_REACTORS
330
C
102
}
330
C
100
AcDbDictionary
281
     1
  3
A0
350
48
  3
A1
350
49
  3
A2
350
4A
  3
A3
350
4B
  3
A4
350
4C
  3
A5
350
4D
  3
A6
350
4E
  3
A7
350
4F
  3
A8
350
50
  3
A9
350
51
  3
B0
350
52
  3
B1
350
53
  3
B2
350
54
  3
B3
350
55
  3
B4
350
56
  3
B5
350
57
  3
B6
350
58
  0
XRECORD
  5
2EC
102
{ACAD_REACTORS
330
C
102
}
330
C
100
AcDbXrecord
280
     1
  1
DWGPROPS COOKIE
  2

  3

  4

  6

  7

  8
user28
  9

300
=
301
=
302
=
303
=
304
=
305
=
306
=
307
=
308
=
309
=
 40
0.0
 41
2460297.259376585
 42
2460297.259377512
  1

 90
        0
  0
LAYOUT
  5
1E
102
{ACAD_REACTORS
330
1A
102
}
330
1A
100
AcDbPlotSettings
  1

  2
none_device
  4

  6

 40
0.0
 41
0.0
 42
0.0
 43
0.0
 44
0.0
 45
0.0
 46
0.0
 47
0.0
 48
0.0
 49
0.0
140
0.0
141
0.0
142
1.0
143
1.0
 70
   688
 72
     1
 73
     0
 74
     5
  7

 75
    16
147
1.0
148
0.0
149
0.0
100
AcDbLayout
  1
Layout1
 70
     1
 71
     1
 10
0.0
 20
0.0
 11
420.0
 21
297.0
 12
0.0
 22
0.0
 32
0.0
 14
1.0000000000E+20
 24
1.0000000000E+20
 34
1.0000000000E+20
 15
-1.0000000000E+20
 25
-1.0000000000E+20
 35
-1.0000000000E+20
146
0.0
 13
0.0
 23
0.0
 33
0.0
 16
1.0
 26
0.0
 36
0.0
 17
0.0
 27
1.0
 37
0.0
 76
     0
330
1B
  0
LAYOUT
  5
26
102
{ACAD_REACTORS
330
1A
102
}
330
1A
100
AcDbPlotSettings
  1

  2
none_device
  4

  6

 40
0.0
 41
0.0
 42
0.0
 43
0.0
 44
0.0
 45
0.0
 46
0.0
 47
0.0
 48
0.0
 49
0.0
140
0.0
141
0.0
142
1.0
143
1.0
 70
   688
 72
     1
 73
     0
 74
     5
  7

 75
    16
147
1.0
148
0.0
149
0.0
100
AcDbLayout
  1
Layout2
 70
     1
 71
     2
 10
0.0
 20
0.0
 11
0.0
 21
0.0
 12
0.0
 22
0.0
 32
0.0
 14
0.0
 24
0.0
 34
0.0
 15
0.0
 25
0.0
 35
0.0
146
0.0
 13
0.0
 23
0.0
 33
0.0
 16
1.0
 26
0.0
 36
0.0
 17
0.0
 27
1.0
 37
0.0
 76
     0
330
23
  0
LAYOUT
  5
22
102
{ACAD_REACTORS
330
1A
102
}
330
1A
100
AcDbPlotSettings
  1

  2
none_device
  4
Letter_(8.50_x_11.00_Inches)
  6

 40
6.35
 41
6.35
 42
6.35000508
 43
6.35000508
 44
215.9
 45
279.4
 46
0.0
 47
0.0
 48
0.0
 49
0.0
140
0.0
141
0.0
142
1.0
143
1.0
 70
  1712
 72
     1
 73
     0
 74
     0
  7

 75
     0
147
1.0
148
0.0
149
0.0
100
AcDbLayout
  1
Model
 70
     1
 71
     0
 10
0.0
 20
0.0
 11
431.8
 21
279.4
 12
0.0
 22
0.0
 32
0.0
 14
0.0
 24
0.0
 34
0.0
 15
431.8
 25
279.4
 35
0.0
146
0.0
 13
0.0
 23
0.0
 33
0.0
 16
1.0
 26
0.0
 36
0.0
 17
0.0
 27
1.0
 37
0.0
 76
     0
330
1F
331
29
  0
MLINESTYLE
  5
18
102
{ACAD_REACTORS
330
17
102
}
330
17
100
AcDbMlineStyle
  2
Standard
 70
     0
  3

 62
   256
 51
90.0
 52
90.0
 71
     2
 49
0.5
 62
   256
  6
BYLAYER
 49
-0.5
 62
   256
  6
BYLAYER
  0
ACDBPLACEHOLDER
  5
F
102
{ACAD_REACTORS
330
E
102
}
330
E
  0
SCALE
  5
48
102
{ACAD_REACTORS
330
47
102
}
330
47
100
AcDbScale
 70
     0
300
1:1
140
1.0
141
1.0
290
     1
  0
SCALE
  5
49
102
{ACAD_REACTORS
330
47
102
}
330
47
100
AcDbScale
 70
     0
300
1:2
140
1.0
141
2.0
290
     0
  0
SCALE
  5
4A
102
{ACAD_REACTORS
330
47
102
}
330
47
100
AcDbScale
 70
     0
300
1:4
140
1.0
141
4.0
290
     0
  0
SCALE
  5
4B
102
{ACAD_REACTORS
330
47
102
}
330
47
100
AcDbScale
 70
     0
300
1:5
140
1.0
141
5.0
290
     0
  0
SCALE
  5
4C
102
{ACAD_REACTORS
330
47
102
}
330
47
100
AcDbScale
 70
     0
300
1:8
140
1.0
141
8.0
290
     0
  0
SCALE
  5
4D
102
{ACAD_REACTORS
330
47
102
}
330
47
100
AcDbScale
 70
     0
300
1:10
140
1.0
141
10.0
290
     0
  0
SCALE
  5
4E
102
{ACAD_REACTORS
330
47
102
}
330
47
100
AcDbScale
 70
     0
300
1:16
140
1.0
141
16.0
290
     0
  0
SCALE
  5
4F
102
{ACAD_REACTORS
330
47
102
}
330
47
100
AcDbScale
 70
     0
300
1:20
140
1.0
141
20.0
290
     0
  0
SCALE
  5
50
102
{ACAD_REACTORS
330
47
102
}
330
47
100
AcDbScale
 70
     0
300
1:30
140
1.0
141
30.0
290
     0
  0
SCALE
  5
51
102
{ACAD_REACTORS
330
47
102
}
330
47
100
AcDbScale
 70
     0
300
1:40
140
1.0
141
40.0
290
     0
  0
SCALE
  5
52
102
{ACAD_REACTORS
330
47
102
}
330
47
100
AcDbScale
 70
     0
300
1:50
140
1.0
141
50.0
290
     0
  0
SCALE
  5
53
102
{ACAD_REACTORS
330
47
102
}
330
47
100
AcDbScale
 70
     0
300
1:100
140
1.0
141
100.0
290
     0
  0
SCALE
  5
54
102
{ACAD_REACTORS
330
47
102
}
330
47
100
AcDbScale
 70
     0
300
2:1
140
2.0
141
1.0
290
     0
  0
SCALE
  5
55
102
{ACAD_REACTORS
330
47
102
}
330
47
100
AcDbScale
 70
     0
300
4:1
140
4.0
141
1.0
290
     0
  0
SCALE
  5
56
102
{ACAD_REACTORS
330
47
102
}
330
47
100
AcDbScale
 70
     0
300
8:1
140
8.0
141
1.0
290
     0
  0
SCALE
  5
57
102
{ACAD_REACTORS
330
47
102
}
330
47
100
AcDbScale
 70
     0
300
10:1
140
10.0
141
1.0
290
     0
  0
SCALE
  5
58
102
{ACAD_REACTORS
330
47
102
}
330
47
100
AcDbScale
 70
     0
300
100:1
140
100.0
141
1.0
290
     0
  0
ENDSEC
  0
EOF
