  0
SECTION
  2
HEADER
  9
$ACADVER
  1
AC1015
  9
$ACADMAINTVER
 70
     6
  9
$DWGCODEPAGE
  3
DOS932
  9
$INSBASE
 10
0.0
 20
0.0
 30
0.0
  9
$EXTMIN
 10
0.0
 20
0.0
 30
0.0
  9
$EXTMAX
 10
431.8
 20
279.4
 30
0.0
  9
$LIMMIN
 10
0.0
 20
0.0
  9
$LIMMAX
 10
431.8
 20
279.4
  9
$ORTHOMODE
 70
     0
  9
$REGENMODE
 70
     1
  9
$FILLMODE
 70
     1
  9
$QTEXTMODE
 70
     0
  9
$MIRRTEXT
 70
     1
  9
$LTSCALE
 40
1.0
  9
$ATTMODE
 70
     1
  9
$TEXTSIZE
 40
3.5
  9
$TRACEWID
 40
1.0
  9
$TEXTSTYLE
  7
Standard
  9
$CLAYER
  8
0
  9
$CELTYPE
  6
ByLayer
  9
$CECOLOR
 62
   256
  9
$CELTSCALE
 40
1.0
  9
$DISPSILH
 70
     0
  9
$DIMSCALE
 40
1.0
  9
$DIMASZ
 40
3.556
  9
$DIMEXO
 40
1.0
  9
$DIMDLI
 40
3.75
  9
$DIMRND
 40
0.0
  9
$DIMDLE
 40
0.0
  9
$DIMEXE
 40
1.0
  9
$DIMTP
 40
0.0
  9
$DIMTM
 40
0.0
  9
$DIMTXT
 40
3.5
  9
$DIMCEN
 40
2.5
  9
$DIMTSZ
 40
0.0
  9
$DIMTOL
 70
     0
  9
$DIMLIM
 70
     0
  9
$DIMTIH
 70
     1
  9
$DIMTOH
 70
     1
  9
$DIMSE1
 70
     0
  9
$DIMSE2
 70
     0
  9
$DIMTAD
 70
     1
  9
$DIMZIN
 70
     0
  9
$DIMBLK
  1

  9
$DIMASO
 70
     1
  9
$DIMSHO
 70
     1
  9
$DIMPOST
  1

  9
$DIMAPOST
  1

  9
$DIMALT
 70
     0
  9
$DIMALTD
 70
     3
  9
$DIMALTF
 40
0.0393700787
  9
$DIMLFAC
 40
1.0
  9
$DIMTOFL
 70
     1
  9
$DIMTVP
 40
0.0
  9
$DIMTIX
 70
     0
  9
$DIMSOXD
 70
     0
  9
$DIMSAH
 70
     0
  9
$DIMBLK1
  1

  9
$DIMBLK2
  1

  9
$DIMSTYLE
  2
ISO-25
  9
$DIMCLRD
 70
     0
  9
$DIMCLRE
 70
     0
  9
$DIMCLRT
 70
     0
  9
$DIMTFAC
 40
1.0
  9
$DIMGAP
 40
1.524
  9
$DIMJUST
 70
     0
  9
$DIMSD1
 70
     0
  9
$DIMSD2
 70
     0
  9
$DIMTOLJ
 70
     0
  9
$DIMTZIN
 70
     0
  9
$DIMALTZ
 70
     0
  9
$DIMALTTZ
 70
     0
  9
$DIMUPT
 70
     0
  9
$DIMDEC
 70
     3
  9
$DIMTDEC
 70
     3
  9
$DIMALTU
 70
     2
  9
$DIMALTTD
 70
     3
  9
$DIMTXSTY
  7
Standard
  9
$DIMAUNIT
 70
     0
  9
$DIMADEC
 70
     2
  9
$DIMALTRND
 40
0.0
  9
$DIMAZIN
 70
     0
  9
$DIMDSEP
 70
    44
  9
$DIMATFIT
 70
     3
  9
$DIMFRAC
 70
     0
  9
$DIMLDRBLK
  1

  9
$DIMLUNIT
 70
     2
  9
$DIMLWD
 70
    -2
  9
$DIMLWE
 70
    -2
  9
$DIMTMOVE
 70
     0
  9
$LUNITS
 70
     2
  9
$LUPREC
 70
     3
  9
$SKETCHINC
 40
1.0
  9
$FILLETRAD
 40
0.0
  9
$AUNITS
 70
     0
  9
$AUPREC
 70
     2
  9
$MENU
  1
.
  9
$ELEVATION
 40
0.0
  9
$PELEVATION
 40
0.0
  9
$THICKNESS
 40
0.0
  9
$LIMCHECK
 70
     0
  9
$CHAMFERA
 40
0.0
  9
$CHAMFERB
 40
0.0
  9
$CHAMFERC
 40
0.0
  9
$CHAMFERD
 40
0.0
  9
$SKPOLY
 70
     0
  9
$TDCREATE
 40
2460389.73441632
  9
$TDUCREATE
 40
2460389.35941632
  9
$TDUPDATE
 40
2460389.734416968
  9
$TDUUPDATE
 40
2460389.359416968
  9
$TDINDWG
 40
0.0000000116
  9
$TDUSRTIMER
 40
0.0000000116
  9
$USRTIMER
 70
     1
  9
$ANGBASE
 50
0.0
  9
$ANGDIR
 70
     0
  9
$PDMODE
 70
     0
  9
$PDSIZE
 40
-1.0
  9
$PLINEWID
 40
0.0
  9
$SPLFRAME
 70
     0
  9
$SPLINETYPE
 70
     6
  9
$SPLINESEGS
 70
     8
  9
$HANDSEED
  5
306
  9
$SURFTAB1
 70
     6
  9
$SURFTAB2
 70
     6
  9
$SURFTYPE
 70
     6
  9
$SURFU
 70
     6
  9
$SURFV
 70
     6
  9
$UCSBASE
  2

  9
$UCSNAME
  2

  9
$UCSORG
 10
0.0
 20
0.0
 30
0.0
  9
$UCSXDIR
 10
1.0
 20
0.0
 30
0.0
  9
$UCSYDIR
 10
0.0
 20
1.0
 30
0.0
  9
$UCSORTHOREF
  2

  9
$UCSORTHOVIEW
 70
     0
  9
$UCSORGTOP
 10
0.0
 20
0.0
 30
0.0
  9
$UCSORGBOTTOM
 10
0.0
 20
0.0
 30
0.0
  9
$UCSORGLEFT
 10
0.0
 20
0.0
 30
0.0
  9
$UCSORGRIGHT
 10
0.0
 20
0.0
 30
0.0
  9
$UCSORGFRONT
 10
0.0
 20
0.0
 30
0.0
  9
$UCSORGBACK
 10
0.0
 20
0.0
 30
0.0
  9
$PUCSBASE
  2

  9
$PUCSNAME
  2

  9
$PUCSORG
 10
0.0
 20
0.0
 30
0.0
  9
$PUCSXDIR
 10
1.0
 20
0.0
 30
0.0
  9
$PUCSYDIR
 10
0.0
 20
1.0
 30
0.0
  9
$PUCSORTHOREF
  2

  9
$PUCSORTHOVIEW
 70
     0
  9
$PUCSORGTOP
 10
0.0
 20
0.0
 30
0.0
  9
$PUCSORGBOTTOM
 10
0.0
 20
0.0
 30
0.0
  9
$PUCSORGLEFT
 10
0.0
 20
0.0
 30
0.0
  9
$PUCSORGRIGHT
 10
0.0
 20
0.0
 30
0.0
  9
$PUCSORGFRONT
 10
0.0
 20
0.0
 30
0.0
  9
$PUCSORGBACK
 10
0.0
 20
0.0
 30
0.0
  9
$USERI1
 70
     0
  9
$USERI2
 70
     0
  9
$USERI3
 70
     0
  9
$USERI4
 70
     0
  9
$USERI5
 70
     0
  9
$USERR1
 40
0.0
  9
$USERR2
 40
0.0
  9
$USERR3
 40
0.0
  9
$USERR4
 40
0.0
  9
$USERR5
 40
0.0
  9
$WORLDVIEW
 70
     1
  9
$SHADEDGE
 70
     3
  9
$SHADEDIF
 70
    70
  9
$TILEMODE
 70
     1
  9
$MAXACTVP
 70
    64
  9
$PINSBASE
 10
0.0
 20
0.0
 30
0.0
  9
$PLIMCHECK
 70
     0
  9
$PEXTMIN
 10
1.0000000000E+20
 20
1.0000000000E+20
 30
1.0000000000E+20
  9
$PEXTMAX
 10
-1.0000000000E+20
 20
-1.0000000000E+20
 30
-1.0000000000E+20
  9
$PLIMMIN
 10
0.0
 20
0.0
  9
$PLIMMAX
 10
420.0
 20
297.0
  9
$UNITMODE
 70
     0
  9
$VISRETAIN
 70
     1
  9
$PLINEGEN
 70
     0
  9
$PSLTSCALE
 70
     1
  9
$TREEDEPTH
 70
  3020
  9
$CMLSTYLE
  2
Standard
  9
$CMLJUST
 70
     0
  9
$CMLSCALE
 40
20.0
  9
$PROXYGRAPHICS
 70
     1
  9
$MEASUREMENT
 70
     1
  9
$CELWEIGHT
370
    -1
  9
$ENDCAPS
280
     0
  9
$JOINSTYLE
280
     0
  9
$LWDISPLAY
290
     1
  9
$INSUNITS
 70
     4
  9
$HYPERLINKBASE
  1

  9
$STYLESHEET
  1

  9
$XEDIT
290
     1
  9
$CEPSNTYPE
380
     0
  9
$PSTYLEMODE
290
     1
  9
$FINGERPRINTGUID
  2
{0899d88b-faea-4b53-b0bf-c203490372ea}
  9
$VERSIONGUID
  2
{FAEB1C32-E019-11D5-929B-00C0DF256EC4}
  9
$EXTNAMES
290
     1
  9
$PSVPSCALE
 40
0.0
  9
$OLESTARTUP
290
     0
  0
ENDSEC
  0
SECTION
  2
CLASSES
  0
CLASS
  1
ACDBDICTIONARYWDFLT
  2
AcDbDictionaryWithDefault
  3
ObjectDBX Classes
 90
        0
280
     0
281
     0
  0
CLASS
  1
VISUALSTYLE
  2
AcDbVisualStyle
  3
ObjectDBX Classes
 90
     4095
280
     0
281
     0
  0
CLASS
  1
MATERIAL
  2
AcDbMaterial
  3
ObjectDBX Classes
 90
     1153
280
     0
281
     0
  0
CLASS
  1
SCALE
  2
AcDbScale
  3
ObjectDBX Classes
 90
     1153
280
     0
281
     0
  0
CLASS
  1
TABLESTYLE
  2
AcDbTableStyle
  3
ObjectDBX Classes
 90
     4095
280
     0
281
     0
  0
CLASS
  1
MLEADERSTYLE
  2
AcDbMLeaderStyle
  3
ACDB_MLEADERSTYLE_CLASS
 90
     4095
280
     0
281
     0
  0
CLASS
  1
SUN
  2
AcDbSun
  3
SCENEOE
 90
     1153
280
     0
281
     0
  0
CLASS
  1
ACDBPLACEHOLDER
  2
AcDbPlaceHolder
  3
ObjectDBX Classes
 90
        0
280
     0
281
     0
  0
CLASS
  1
LAYOUT
  2
AcDbLayout
  3
ObjectDBX Classes
 90
        0
280
     0
281
     0
  0
ENDSEC
  0
SECTION
  2
TABLES
  0
TABLE
  2
VPORT
  5
8
330
0
100
AcDbSymbolTable
 70
     1
  0
VPORT
  5
29
330
8
100
AcDbSymbolTableRecord
100
AcDbViewportTableRecord
  2
*Active
 70
     0
 10
0.0
 20
0.0
 11
1.0
 21
1.0
 12
215.9
 22
139.7
 13
0.0
 23
0.0
 14
10.0
 24
10.0
 15
10.0
 25
10.0
 16
0.0
 26
0.0
 36
1.0
 17
0.0
 27
0.0
 37
0.0
 40
279.4
 41
1.5454545455
 42
50.0
 43
0.0
 44
0.0
 50
0.0
 51
0.0
 71
     0
 72
  2000
 73
     1
 74
     3
 75
     0
 76
     0
 77
     0
 78
     0
281
     0
 65
     1
110
0.0
120
0.0
130
0.0
111
1.0
121
0.0
131
0.0
112
0.0
122
1.0
132
0.0
 79
     0
146
0.0
  0
ENDTAB
  0
TABLE
  2
LTYPE
  5
5
330
0
100
AcDbSymbolTable
 70
     6
  0
LTYPE
  5
14
330
5
100
AcDbSymbolTableRecord
100
AcDbLinetypeTableRecord
  2
ByBlock
 70
     0
  3

 72
    65
 73
     0
 40
0.0
  0
LTYPE
  5
15
330
5
100
AcDbSymbolTableRecord
100
AcDbLinetypeTableRecord
  2
ByLayer
 70
     0
  3

 72
    65
 73
     0
 40
0.0
  0
LTYPE
  5
16
330
5
100
AcDbSymbolTableRecord
100
AcDbLinetypeTableRecord
  2
Continuous
 70
     0
  3
Solid line
 72
    65
 73
     0
 40
0.0
  0
LTYPE
  5
5E
330
5
100
AcDbSymbolTableRecord
100
AcDbLinetypeTableRecord
  2
HIDDEN
 70
     0
  3
Hidden __ __ __ __ __ __ __ __ __ __ __ __ __ __
 72
    65
 73
     2
 40
1.905
 49
1.27
 74
     0
 49
-0.635
 74
     0
  0
LTYPE
  5
5F
330
5
100
AcDbSymbolTableRecord
100
AcDbLinetypeTableRecord
  2
PHANTOM
 70
     0
  3
Phantom ______  __  __  ______  __  __  ______
 72
    65
 73
     6
 40
12.7
 49
6.35
 74
     0
 49
-1.27
 74
     0
 49
1.27
 74
     0
 49
-1.27
 74
     0
 49
1.27
 74
     0
 49
-1.27
 74
     0
  0
LTYPE
  5
60
330
5
100
AcDbSymbolTableRecord
100
AcDbLinetypeTableRecord
  2
CENTER
 70
     0
  3
Center ____ _ ____ _ ____ _ ____ _ ____ _ ____
 72
    65
 73
     4
 40
10.16
 49
6.35
 74
     0
 49
-1.27
 74
     0
 49
1.27
 74
     0
 49
-1.27
 74
     0
  0
LTYPE
  5
61
330
5
100
AcDbSymbolTableRecord
100
AcDbLinetypeTableRecord
  2
CENTERX2
 70
     0
  3
Center (2x) ________  __  ________  __  _____
 72
    65
 73
     4
 40
20.32
 49
12.7
 74
     0
 49
-2.54
 74
     0
 49
2.54
 74
     0
 49
-2.54
 74
     0
  0
LTYPE
  5
62
330
5
100
AcDbSymbolTableRecord
100
AcDbLinetypeTableRecord
  2
DOT2
 70
     0
  3
Dot (.5x) ........................................
 72
    65
 73
     2
 40
0.635
 49
0.0
 74
     0
 49
-0.635
 74
     0
  0
ENDTAB
  0
TABLE
  2
LAYER
  5
2
330
0
100
AcDbSymbolTable
 70
     1
  0
LAYER
  5
10
330
2
100
AcDbSymbolTableRecord
100
AcDbLayerTableRecord
  2
0
 70
     0
 62
     7
  6
Continuous
370
    -3
390
F
  0
ENDTAB
  0
TABLE
  2
STYLE
  5
3
330
0
100
AcDbSymbolTable
 70
     2
  0
STYLE
  5
11
330
3
100
AcDbSymbolTableRecord
100
AcDbTextStyleTableRecord
  2
Standard
 70
     0
 40
0.0
 41
1.0
 50
0.0
 71
     0
 42
3.5
  3
txt
  4
bigfont
  0
STYLE
  5
2F7
330
3
100
AcDbSymbolTableRecord
100
AcDbTextStyleTableRecord
  2
SLDTEXTSTYLE0
 70
     0
 40
0.0
 41
0.75
 50
0.0
 71
     0
 42
3.5
  3
TXT
  4
bigfont
  0
ENDTAB
  0
TABLE
  2
VIEW
  5
6
330
0
100
AcDbSymbolTable
 70
     0
  0
ENDTAB
  0
TABLE
  2
UCS
  5
7
330
0
100
AcDbSymbolTable
 70
     0
  0
ENDTAB
  0
TABLE
  2
APPID
  5
9
330
0
100
AcDbSymbolTable
 70
     1
  0
APPID
  5
12
330
9
100
AcDbSymbolTableRecord
100
AcDbRegAppTableRecord
  2
ACAD
 70
     0
  0
ENDTAB
  0
TABLE
  2
DIMSTYLE
  5
A
330
0
100
AcDbSymbolTable
 70
     1
100
AcDbDimStyleTable
  0
DIMSTYLE
105
27
330
A
100
AcDbSymbolTableRecord
100
AcDbDimStyleTableRecord
  2
ISO-25
 70
     0
 41
2.5
 42
0.625
 43
3.75
 44
1.25
 73
     0
 74
     0
 77
     1
 78
     8
140
2.5
141
2.5
143
0.0393700787
147
0.625
171
     3
172
     1
178
     0
271
     2
272
     2
274
     3
278
    44
283
     0
284
     8
340
11
  0
ENDTAB
  0
TABLE
  2
BLOCK_RECORD
  5
1
330
0
100
AcDbSymbolTable
 70
     3
  0
BLOCK_RECORD
  5
1F
330
1
100
AcDbSymbolTableRecord
100
AcDbBlockTableRecord
  2
*Model_Space
340
22
  0
BLOCK_RECORD
  5
1B
330
1
100
AcDbSymbolTableRecord
100
AcDbBlockTableRecord
  2
*Paper_Space
340
1E
  0
BLOCK_RECORD
  5
23
330
1
100
AcDbSymbolTableRecord
100
AcDbBlockTableRecord
  2
*Paper_Space0
340
26
  0
BLOCK_RECORD
  5
1FD
330
1
100
AcDbSymbolTableRecord
100
AcDbBlockTableRecord
  2
SW_CENTERMARKSYMBOL_0
340
0
102
{BLKREFS
331
208
102
}
  0
BLOCK_RECORD
  5
2F9
330
1
100
AcDbSymbolTableRecord
100
AcDbBlockTableRecord
  2
SW_CENTERMARKSYMBOL_1
340
0
102
{BLKREFS
331
304
102
}
  0
ENDTAB
  0
ENDSEC
  0
SECTION
  2
BLOCKS
  0
BLOCK
  5
20
330
1F
100
AcDbEntity
  8
0
100
AcDbBlockBegin
  2
*Model_Space
 70
     0
 10
0.0
 20
0.0
 30
0.0
  3
*Model_Space
  1

  0
ENDBLK
  5
21
330
1F
100
AcDbEntity
  8
0
100
AcDbBlockEnd
  0
BLOCK
  5
1C
330
1B
100
AcDbEntity
 67
     1
  8
0
100
AcDbBlockBegin
  2
*Paper_Space
 70
     0
 10
0.0
 20
0.0
 30
0.0
  3
*Paper_Space
  1

  0
ENDBLK
  5
1D
330
1B
100
AcDbEntity
 67
     1
  8
0
100
AcDbBlockEnd
  0
BLOCK
  5
24
330
23
100
AcDbEntity
  8
0
100
AcDbBlockBegin
  2
*Paper_Space0
 70
     0
 10
0.0
 20
0.0
 30
0.0
  3
*Paper_Space0
  1

  0
ENDBLK
  5
25
330
23
100
AcDbEntity
  8
0
100
AcDbBlockEnd
  0
BLOCK
  5
1FE
330
1FD
100
AcDbEntity
  8
0
100
AcDbBlockBegin
  2
SW_CENTERMARKSYMBOL_0
 70
     0
 10
0.0
 20
0.0
 30
0.0
  3
SW_CENTERMARKSYMBOL_0
  1

  0
LINE
  5
200
330
1FD
100
AcDbEntity
  8
0
  6
Continuous
 62
     0
370
    18
100
AcDbLine
 10
0.0
 20
0.0
 30
0.0
 11
0.0
 21
2.5
 31
0.0
  0
LINE
  5
201
330
1FD
100
AcDbEntity
  8
0
  6
Continuous
 62
     0
370
    18
100
AcDbLine
 10
0.0
 20
0.0
 30
0.0
 11
-2.5
 21
0.0
 31
0.0
  0
LINE
  5
202
330
1FD
100
AcDbEntity
  8
0
  6
Continuous
 62
     0
370
    18
100
AcDbLine
 10
0.0
 20
0.0
 30
0.0
 11
0.0
 21
-2.5
 31
0.0
  0
LINE
  5
203
330
1FD
100
AcDbEntity
  8
0
  6
Continuous
 62
     0
370
    18
100
AcDbLine
 10
0.0
 20
0.0
 30
0.0
 11
2.5
 21
0.0
 31
0.0
  0
LINE
  5
204
330
1FD
100
AcDbEntity
  8
0
  6
Continuous
 62
     0
370
    18
100
AcDbLine
 10
0.0
 20
5.0
 30
0.0
 11
0.0
 21
12.75
 31
0.0
  0
LINE
  5
205
330
1FD
100
AcDbEntity
  8
0
  6
Continuous
 62
     0
370
    18
100
AcDbLine
 10
-5.0
 20
0.0
 30
0.0
 11
-12.75
 21
0.0
 31
0.0
  0
LINE
  5
206
330
1FD
100
AcDbEntity
  8
0
  6
Continuous
 62
     0
370
    18
100
AcDbLine
 10
0.0
 20
-5.0
 30
0.0
 11
0.0
 21
-12.75
 31
0.0
  0
LINE
  5
207
330
1FD
100
AcDbEntity
  8
0
  6
Continuous
 62
     0
370
    18
100
AcDbLine
 10
5.0
 20
0.0
 30
0.0
 11
12.75
 21
0.0
 31
0.0
  0
ENDBLK
  5
1FF
330
1FD
100
AcDbEntity
  8
0
100
AcDbBlockEnd
  0
BLOCK
  5
2FA
330
2F9
100
AcDbEntity
  8
0
100
AcDbBlockBegin
  2
SW_CENTERMARKSYMBOL_1
 70
     0
 10
0.0
 20
0.0
 30
0.0
  3
SW_CENTERMARKSYMBOL_1
  1

  0
LINE
  5
2FC
330
2F9
100
AcDbEntity
  8
0
  6
Continuous
 62
     0
370
    18
100
AcDbLine
 10
0.0
 20
0.0
 30
0.0
 11
0.0
 21
2.5
 31
0.0
  0
LINE
  5
2FD
330
2F9
100
AcDbEntity
  8
0
  6
Continuous
 62
     0
370
    18
100
AcDbLine
 10
0.0
 20
0.0
 30
0.0
 11
-2.5
 21
0.0
 31
0.0
  0
LINE
  5
2FE
330
2F9
100
AcDbEntity
  8
0
  6
Continuous
 62
     0
370
    18
100
AcDbLine
 10
0.0
 20
0.0
 30
0.0
 11
0.0
 21
-2.5
 31
0.0
  0
LINE
  5
2FF
330
2F9
100
AcDbEntity
  8
0
  6
Continuous
 62
     0
370
    18
100
AcDbLine
 10
0.0
 20
0.0
 30
0.0
 11
2.5
 21
0.0
 31
0.0
  0
LINE
  5
300
330
2F9
100
AcDbEntity
  8
0
  6
Continuous
 62
     0
370
    18
100
AcDbLine
 10
0.0
 20
5.0
 30
0.0
 11
0.0
 21
10.5000000325
 31
0.0
  0
LINE
  5
301
330
2F9
100
AcDbEntity
  8
0
  6
Continuous
 62
     0
370
    18
100
AcDbLine
 10
-5.0
 20
0.0
 30
0.0
 11
-38.3107347677
 21
0.0
 31
0.0
  0
LINE
  5
302
330
2F9
100
AcDbEntity
  8
0
  6
Continuous
 62
     0
370
    18
100
AcDbLine
 10
0.0
 20
-5.0
 30
0.0
 11
0.0
 21
-10.5000000325
 31
0.0
  0
LINE
  5
303
330
2F9
100
AcDbEntity
  8
0
  6
Continuous
 62
     0
370
    18
100
AcDbLine
 10
5.0
 20
0.0
 30
0.0
 11
38.3961207258
 21
0.0
 31
0.0
  0
ENDBLK
  5
2FB
330
2F9
100
AcDbEntity
  8
0
100
AcDbBlockEnd
  0
ENDSEC
  0
SECTION
  2
ENTITIES
  0
LINE
  5
63
330
1F
100
AcDbEntity
  8
0
  6
Continuous
 62
     7
370
    25
100
AcDbLine
 10
41.7053475473
 20
49.9617591292
 30
0.0
 11
38.7053475473
 21
49.9617591292
 31
0.0
  0
LINE
  5
64
330
1F
100
AcDbEntity
  8
0
  6
Continuous
 62
     7
370
    25
100
AcDbLine
 10
38.7053475473
 20
32.9617591292
 30
0.0
 11
41.7053475473
 21
32.9617591292
 31
0.0
  0
LINE
  5
65
330
1F
100
AcDbEntity
  8
0
  6
Continuous
 62
     7
370
    25
100
AcDbLine
 10
38.7053475473
 20
49.7927591292
 30
0.0
 11
33.390026299
 21
49.7927591292
 31
0.0
  0
LINE
  5
66
330
1F
100
AcDbEntity
  8
0
  6
Continuous
 62
     7
370
    25
100
AcDbLine
 10
33.390026299
 20
33.1307591292
 30
0.0
 11
38.7053475473
 21
33.1307591292
 31
0.0
  0
LINE
  5
67
330
1F
100
AcDbEntity
  8
0
  6
Continuous
 62
     7
370
    25
100
AcDbLine
 10
64.7053475473
 20
32.9617591292
 30
0.0
 11
67.7053475473
 21
32.9617591292
 31
0.0
  0
LINE
  5
68
330
1F
100
AcDbEntity
  8
0
  6
Continuous
 62
     7
370
    25
100
AcDbLine
 10
67.7053475473
 20
49.9617591292
 30
0.0
 11
64.7053475473
 21
49.9617591292
 31
0.0
  0
LINE
  5
69
330
1F
100
AcDbEntity
  8
0
  6
Continuous
 62
     7
370
    25
100
AcDbLine
 10
67.7053475473
 20
33.1307591292
 30
0.0
 11
73.0206687956
 21
33.1307591292
 31
0.0
  0
LINE
  5
6A
330
1F
100
AcDbEntity
  8
0
  6
Continuous
 62
     7
370
    25
100
AcDbLine
 10
73.0206687956
 20
49.7927591292
 30
0.0
 11
67.7053475473
 21
49.7927591292
 31
0.0
  0
LINE
  5
6B
330
1F
100
AcDbEntity
  8
0
  6
Continuous
 62
     7
370
    25
100
AcDbLine
 10
74.1028285364
 20
53.5861147822
 30
0.0
 11
73.0206687956
 21
51.7117591292
 31
0.0
  0
LINE
  5
6C
330
1F
100
AcDbEntity
  8
0
  6
Continuous
 62
     7
370
    25
100
AcDbLine
 10
73.0206687956
 20
31.2117591292
 30
0.0
 11
74.1028285364
 21
29.3374034762
 31
0.0
  0
LINE
  5
6D
330
1F
100
AcDbEntity
  8
0
  6
Continuous
 62
     7
370
    25
100
AcDbLine
 10
86.9385090547
 20
29.3374034762
 30
0.0
 11
88.0206687956
 21
31.2117591292
 31
0.0
  0
LINE
  5
6E
330
1F
100
AcDbEntity
  8
0
  6
Continuous
 62
     7
370
    25
100
AcDbLine
 10
88.0206687956
 20
51.7117591292
 30
0.0
 11
86.9385090547
 21
53.5861147822
 31
0.0
  0
LINE
  5
6F
330
1F
100
AcDbEntity
  8
0
  6
Continuous
 62
     7
370
    25
100
AcDbLine
 10
19.4721860398
 20
53.5861147822
 30
0.0
 11
18.390026299
 21
51.7117591292
 31
0.0
  0
LINE
  5
70
330
1F
100
AcDbEntity
  8
0
  6
Continuous
 62
     7
370
    25
100
AcDbLine
 10
18.390026299
 20
31.2117591292
 30
0.0
 11
19.4721860398
 21
29.3374034762
 31
0.0
  0
LINE
  5
71
330
1F
100
AcDbEntity
  8
0
  6
Continuous
 62
     7
370
    25
100
AcDbLine
 10
32.3078665582
 20
29.3374034762
 30
0.0
 11
33.390026299
 21
31.2117591292
 31
0.0
  0
LINE
  5
72
330
1F
100
AcDbEntity
  8
0
  6
Continuous
 62
     7
370
    25
100
AcDbLine
 10
33.390026299
 20
51.7117591292
 30
0.0
 11
32.3078665582
 21
53.5861147822
 31
0.0
  0
ARC
  5
73
330
1F
100
AcDbEntity
  8
0
  6
Continuous
 62
     7
370
    25
100
AcDbCircle
 10
53.2053475473
 20
50.4617591292
 30
0.0
 40
20.49999999999999
100
AcDbArc
 50
96.3582831464
 51
102.6803834918
  0
ARC
  5
74
330
1F
100
AcDbEntity
  8
0
  6
Continuous
 62
     7
370
    25
100
AcDbCircle
 10
53.2053475473
 20
50.4617591292
 30
0.0
 40
20.5
100
AcDbArc
 50
77.3196165082
 51
83.6417168446
  0
ARC
  5
75
330
1F
100
AcDbEntity
  8
0
  6
Continuous
 62
     7
370
    25
100
AcDbCircle
 10
53.2053475473
 20
50.4617591292
 30
0.0
 40
20.6
100
AcDbArc
 50
90.5117995959
 51
93.3558231766
  0
ARC
  5
76
330
1F
100
AcDbEntity
  8
0
  6
Continuous
 62
     7
370
    25
100
AcDbCircle
 10
53.2053475473
 20
50.4617591292
 30
0.0
 40
20.6
100
AcDbArc
 50
86.6441768145
 51
89.4762684381
  0
LINE
  5
77
330
1F
100
AcDbEntity
  8
0
  6
Continuous
 62
     7
370
    25
100
AcDbLine
 10
45.2090148314
 20
58.9104171514
 30
0.0
 11
45.6721777991
 21
52.4261356042
 31
0.0
  0
LINE
  5
78
330
1F
100
AcDbEntity
  8
0
  6
Continuous
 62
     7
370
    25
100
AcDbLine
 10
45.2053474477
 20
58.961760524
 30
0.0
 11
45.2090148314
 21
58.9104171514
 31
0.0
  0
LINE
  5
79
330
1F
100
AcDbEntity
  8
0
  6
Continuous
 62
     7
370
    25
100
AcDbLine
 10
60.7385172955
 20
52.4261356042
 30
0.0
 11
61.2053476469
 21
58.961760524
 31
0.0
  0
ARC
  5
7A
330
1F
100
AcDbEntity
  8
0
  6
Continuous
 62
     7
370
    25
100
AcDbCircle
 10
60.2397879456
 20
52.4617591292
 30
0.0
 40
0.5000000000000034
100
AcDbArc
 50
270.0
 51
355.91438322
  0
ARC
  5
7B
330
1F
100
AcDbEntity
  8
0
  6
Continuous
 62
     7
370
    25
100
AcDbCircle
 10
46.170907149
 20
52.4617591292
 30
0.0
 40
0.5
100
AcDbArc
 50
184.08561678
 51
270.0
  0
LINE
  5
7C
330
1F
100
AcDbEntity
  8
0
  6
Continuous
 62
     7
370
    25
100
AcDbLine
 10
59.1304606706
 20
68.4617591292
 30
0.0
 11
58.7895293311
 21
70.0657149746
 31
0.0
  0
LINE
  5
7D
330
1F
100
AcDbEntity
  8
0
  6
Continuous
 62
     7
370
    25
100
AcDbLine
 10
47.6211657635
 20
70.0657149746
 30
0.0
 11
47.2802344239
 21
68.4617591292
 31
0.0
  0
ARC
  5
7E
330
1F
100
AcDbEntity
  8
0
  6
Continuous
 62
     7
370
    25
100
AcDbCircle
 10
48.1102395639
 20
69.9617591292
 30
0.0
 40
0.5000000000000121
100
AcDbArc
 50
90.0
 51
168.0
  0
ARC
  5
7F
330
1F
100
AcDbEntity
  8
0
  6
Continuous
 62
     7
370
    25
100
AcDbCircle
 10
58.3004555307
 20
69.9617591292
 30
0.0
 40
0.5
100
AcDbArc
 50
12.0
 51
90.0
  0
LINE
  5
80
330
1F
100
AcDbEntity
  8
0
  6
Continuous
 62
     7
370
    25
100
AcDbLine
 10
44.6790350473
 20
30.4617591292
 30
0.0
 11
45.0046715527
 21
20.0413909552
 31
0.0
  0
LINE
  5
81
330
1F
100
AcDbEntity
  8
0
  6
Continuous
 62
     7
370
    25
100
AcDbLine
 10
61.4060235418
 20
20.0413909552
 30
0.0
 11
61.7316600473
 21
30.4617591292
 31
0.0
  0
LINE
  5
82
330
1F
100
AcDbEntity
  8
0
  6
Continuous
 62
     7
370
    25
100
AcDbLine
 10
45.0046715527
 20
20.0413909552
 30
0.0
 11
46.2053475473
 21
17.9617591292
 31
0.0
  0
LINE
  5
83
330
1F
100
AcDbEntity
  8
0
  6
Continuous
 62
     7
370
    25
100
AcDbLine
 10
60.2053475473
 20
17.9617591292
 30
0.0
 11
61.4060235418
 21
20.0413909552
 31
0.0
  0
SPLINE
  5
84
330
1F
100
AcDbEntity
  8
0
  6
Continuous
 62
     7
370
    25
100
AcDbSpline
210
0.0
220
0.0
230
1.0
 70
     8
 71
     3
 72
    11
 73
     7
 74
     0
 42
0.00000001
 43
0.00000001
 40
0.0
 40
0.0
 40
0.0
 40
0.0
 40
0.179543459993259
 40
0.5689951264068328
 40
0.8979038765812577
 40
1.0
 40
1.0
 40
1.0
 40
1.0
 10
59.37680100159498
 20
50.25188151025739
 30
0.0
 10
59.34233927272948
 20
50.28437042562508
 30
0.0
 10
59.23312585012555
 20
50.3873317616
 30
0.0
 10
59.13513938005846
 20
50.60801927090672
 30
0.0
 10
59.08198211787971
 20
50.82016396761767
 30
0.0
 10
59.09072890933938
 20
50.93320308699677
 30
0.0
 10
59.09280084298816
 20
50.95997971201974
 30
0.0
  0
SPLINE
  5
85
330
1F
100
AcDbEntity
  8
0
  6
Continuous
 62
     7
370
    25
100
AcDbSpline
210
0.0
220
0.0
230
1.0
 70
     8
 71
     3
 72
    11
 73
     7
 74
     0
 42
0.00000001
 43
0.00000001
 40
0.0
 40
0.0
 40
0.0
 40
0.0
 40
0.1763909494295457
 40
0.5329509010572546
 40
0.9017432445613937
 40
1.0
 40
1.0
 40
1.0
 40
1.0
 10
47.31151600455584
 20
50.96122200478822
 30
0.0
 10
47.31344335432528
 20
50.9149231626598
 30
0.0
 10
47.31926668482833
 20
50.77503497843014
 30
0.0
 10
47.24561800727404
 20
50.54748325876966
 30
0.0
 10
47.14447131160931
 20
50.35051901943036
 30
0.0
 10
47.05117518278878
 20
50.27115946316772
 30
0.0
 10
47.03154774975522
 20
50.25446397541479
 30
0.0
  0
LINE
  5
86
330
1F
100
AcDbEntity
  8
0
  6
Continuous
 62
     7
370
    25
100
AcDbLine
 10
59.1053475473
 20
50.9572283091
 30
0.0
 11
59.1053475473
 21
51.9617591292
 31
0.0
  0
LINE
  5
87
330
1F
100
AcDbEntity
  8
0
  6
Continuous
 62
     7
370
    25
100
AcDbLine
 10
47.3053475473
 20
51.9617591292
 30
0.0
 11
47.3053475473
 21
50.9617591292
 31
0.0
  0
LINE
  5
88
330
1F
100
AcDbEntity
  8
0
  6
Continuous
 62
     7
370
    25
100
AcDbLine
 10
47.0351806399
 20
50.2564968585
 30
0.0
 11
46.4908163675
 21
51.1993634362
 31
0.0
  0
LINE
  5
89
330
1F
100
AcDbEntity
  8
0
  6
Continuous
 62
     7
370
    25
100
AcDbLine
 10
63.9908163675
 20
31.7241548222
 30
0.0
 11
64.7053475473
 21
32.9617591292
 31
0.0
  0
LINE
  5
8A
330
1F
100
AcDbEntity
  8
0
  6
Continuous
 62
     7
370
    25
100
AcDbLine
 10
42.4198787271
 20
51.1993634362
 30
0.0
 11
41.7053475473
 21
49.9617591292
 31
0.0
  0
LINE
  5
8B
330
1F
100
AcDbEntity
  8
0
  6
Continuous
 62
     7
370
    25
100
AcDbLine
 10
59.9198787271
 20
51.1993634362
 30
0.0
 11
59.3755144546
 21
50.2564968585
 31
0.0
  0
LINE
  5
8C
330
1F
100
AcDbEntity
  8
0
  6
Continuous
 62
     7
370
    25
100
AcDbLine
 10
64.7053475473
 20
49.9617591292
 30
0.0
 11
63.9908163675
 21
51.1993634362
 31
0.0
  0
LINE
  5
8D
330
1F
100
AcDbEntity
  8
0
  6
Continuous
 62
     7
370
    25
100
AcDbLine
 10
41.7053475473
 20
32.9617591292
 30
0.0
 11
42.4198787271
 21
31.7241548222
 31
0.0
  0
LINE
  5
8E
330
1F
100
AcDbEntity
  8
0
  6
Continuous
 62
     7
370
    25
100
AcDbLine
 10
62.9429518543
 20
31.7241548222
 30
0.0
 11
63.9933767488
 21
31.7241548222
 31
0.0
  0
LINE
  5
8F
330
1F
100
AcDbEntity
  8
0
  6
Continuous
 62
     7
370
    25
100
AcDbLine
 10
62.9429518543
 20
30.4617591292
 30
0.0
 11
62.9429518543
 21
31.7241548222
 31
0.0
  0
LINE
  5
90
330
1F
100
AcDbEntity
  8
0
  6
Continuous
 62
     7
370
    25
100
AcDbLine
 10
46.4933844229
 20
51.1993634362
 30
0.0
 11
42.4173183458
 21
51.1993634362
 31
0.0
  0
LINE
  5
91
330
1F
100
AcDbEntity
  8
0
  6
Continuous
 62
     7
370
    25
100
AcDbLine
 10
63.9933767488
 20
51.1993634362
 30
0.0
 11
59.9173106716
 21
51.1993634362
 31
0.0
  0
LINE
  5
92
330
1F
100
AcDbEntity
  8
0
  6
Continuous
 62
     7
370
    25
100
AcDbLine
 10
42.4173183458
 20
31.7241548222
 30
0.0
 11
43.4677432403
 21
31.7241548222
 31
0.0
  0
LINE
  5
93
330
1F
100
AcDbEntity
  8
0
  6
Continuous
 62
     7
370
    25
100
AcDbLine
 10
43.4677432403
 20
31.7241548222
 30
0.0
 11
43.4677432403
 21
30.4617591292
 31
0.0
  0
LINE
  5
94
330
1F
100
AcDbEntity
  8
0
  6
Continuous
 62
     7
370
    25
100
AcDbLine
 10
41.7053475473
 20
35.8013326555
 30
0.0
 11
41.7053475473
 21
49.9617591292
 31
0.0
  0
LINE
  5
95
330
1F
100
AcDbEntity
  8
0
  6
Continuous
 62
     7
370
    25
100
AcDbLine
 10
41.7053475473
 20
32.9617591292
 30
0.0
 11
41.7053475473
 21
35.8013326555
 31
0.0
  0
LINE
  5
96
330
1F
100
AcDbEntity
  8
0
  6
Continuous
 62
     7
370
    25
100
AcDbLine
 10
38.7053475473
 20
35.8013326555
 30
0.0
 11
38.7053475473
 21
49.9617591292
 31
0.0
  0
LINE
  5
97
330
1F
100
AcDbEntity
  8
0
  6
Continuous
 62
     7
370
    25
100
AcDbLine
 10
38.7053475473
 20
32.9617591292
 30
0.0
 11
38.7053475473
 21
35.8013326555
 31
0.0
  0
LINE
  5
98
330
1F
100
AcDbEntity
  8
0
  6
Continuous
 62
     7
370
    25
100
AcDbLine
 10
64.7053475473
 20
49.9617591292
 30
0.0
 11
64.7053475473
 21
32.9617591292
 31
0.0
  0
LINE
  5
99
330
1F
100
AcDbEntity
  8
0
  6
Continuous
 62
     7
370
    25
100
AcDbLine
 10
67.7053475473
 20
49.9617591292
 30
0.0
 11
67.7053475473
 21
32.9617591292
 31
0.0
  0
SPLINE
  5
9A
330
1F
100
AcDbEntity
  8
0
  6
Continuous
 62
     7
370
    25
100
AcDbSpline
210
0.0
220
0.0
230
1.0
 70
     8
 71
     3
 72
    14
 73
    10
 74
     0
 42
0.00000001
 43
0.00000001
 40
0.0
 40
0.0
 40
0.0
 40
0.0
 40
0.1323181917627721
 40
0.2645989717332716
 40
0.3998389716033047
 40
0.53505456700054
 40
0.6502551587200327
 40
0.7654737204835297
 40
0.9999999999999999
 40
0.9999999999999999
 40
0.9999999999999999
 40
0.9999999999999999
 10
74.10282853636116
 20
47.52393695570316
 30
0.0
 10
73.96006700549282
 20
47.78584847106107
 30
0.0
 10
73.67458430830969
 20
48.30959744862461
 30
0.0
 10
73.36737841315365
 20
49.11613070985523
 30
0.0
 10
73.18281577280905
 20
49.93784289387078
 30
0.0
 10
73.14577735987943
 20
50.72987429537411
 30
0.0
 10
73.24216511778904
 20
51.47882551265844
 30
0.0
 10
73.49496279027665
 20
52.42529820010248
 30
0.0
 10
73.85883138024573
 20
53.12016330092319
 30
0.0
 10
74.10282853636116
 20
53.58611478219426
 30
0.0
  0
SPLINE
  5
9B
330
1F
100
AcDbEntity
  8
0
  6
Continuous
 62
     7
370
    25
100
AcDbSpline
210
0.0
220
0.0
230
1.0
 70
     8
 71
     3
 72
    14
 73
    10
 74
     0
 42
0.00000001
 43
0.00000001
 40
0.0
 40
0.0
 40
0.0
 40
0.0
 40
0.1208249287427932
 40
0.2461094493521965
 40
0.3713620614128115
 40
0.4997100906933619
 40
0.6280580493172243
 40
0.8130582632044381
 40
1.0
 40
1.0
 40
1.0
 40
1.0
 10
74.10282853636116
 20
35.39958130272097
 30
0.0
 10
73.97178696688978
 20
35.87770477691809
 30
0.0
 10
73.70486714462774
 20
36.85159904014176
 30
0.0
 10
73.4086352133356
 20
38.34738168214317
 30
0.0
 10
73.21039158649613
 20
39.89028243561237
 30
0.0
 10
73.14283353017497
 20
41.45780557283695
 30
0.0
 10
73.22162976772218
 20
43.26971369233468
 30
0.0
 10
73.51279168142422
 20
45.30714179605386
 30
0.0
 10
73.90546633576987
 20
46.78243823861831
 30
0.0
 10
74.10282853636116
 20
47.52393695570316
 30
0.0
  0
SPLINE
  5
9C
330
1F
100
AcDbEntity
  8
0
  6
Continuous
 62
     7
370
    25
100
AcDbSpline
210
0.0
220
0.0
230
1.0
 70
     8
 71
     3
 72
    14
 73
    10
 74
     0
 42
0.00000001
 43
0.00000001
 40
0.0
 40
0.0
 40
0.0
 40
0.0
 40
0.1323181917627722
 40
0.2645989717332718
 40
0.3998389716033049
 40
0.5350545670005401
 40
0.6502551587200328
 40
0.7654737204835298
 40
1.0
 40
1.0
 40
1.0
 40
1.0
 10
74.10282853636116
 20
29.33740347622995
 30
0.0
 10
73.96006700549282
 20
29.59931499158786
 30
0.0
 10
73.67458430830968
 20
30.1230639691514
 30
0.0
 10
73.36737841315366
 20
30.929597230382
 30
0.0
 10
73.18281577280905
 20
31.75130941439754
 30
0.0
 10
73.14577735987943
 20
32.54334081590087
 30
0.0
 10
73.24216511778904
 20
33.29229203318518
 30
0.0
 10
73.49496279027665
 20
34.23876472062921
 30
0.0
 10
73.85883138024573
 20
34.93362982144991
 30
0.0
 10
74.10282853636116
 20
35.39958130272097
 30
0.0
  0
LINE
  5
9D
330
1F
100
AcDbEntity
  8
0
  6
Continuous
 62
     7
370
    25
100
AcDbLine
 10
73.0206687956
 20
41.4617591292
 30
0.0
 11
73.0206687956
 21
51.7117591292
 31
0.0
  0
LINE
  5
9E
330
1F
100
AcDbEntity
  8
0
  6
Continuous
 62
     7
370
    25
100
AcDbLine
 10
73.0206687956
 20
31.2117591292
 30
0.0
 11
73.0206687956
 21
41.4617591292
 31
0.0
  0
LINE
  5
9F
330
1F
100
AcDbEntity
  8
0
  6
Continuous
 62
     7
370
    25
100
AcDbLine
 10
86.9385090547
 20
47.5239369557
 30
0.0
 11
74.1028285364
 21
47.5239369557
 31
0.0
  0
SPLINE
  5
A0
330
1F
100
AcDbEntity
  8
0
  6
Continuous
 62
     7
370
    25
100
AcDbSpline
210
0.0
220
0.0
230
1.0
 70
     8
 71
     3
 72
    14
 73
    10
 74
     0
 42
0.00000001
 43
0.00000001
 40
0.0
 40
0.0
 40
0.0
 40
0.0
 40
0.1208249287427932
 40
0.2461094493521966
 40
0.3713620614128115
 40
0.499710090693362
 40
0.6280580493172244
 40
0.8130582632044381
 40
1.0
 40
1.0
 40
1.0
 40
1.0
 10
86.93850905474848
 20
35.39958130272097
 30
0.0
 10
87.06955062421987
 20
35.8777047769181
 30
0.0
 10
87.33647044648193
 20
36.85159904014176
 30
0.0
 10
87.63270237777404
 20
38.34738168214317
 30
0.0
 10
87.83094600461352
 20
39.89028243561237
 30
0.0
 10
87.89850406093468
 20
41.45780557283695
 30
0.0
 10
87.81970782338746
 20
43.26971369233468
 30
0.0
 10
87.52854590968542
 20
45.30714179605386
 30
0.0
 10
87.13587125533978
 20
46.78243823861831
 30
0.0
 10
86.93850905474851
 20
47.52393695570316
 30
0.0
  0
LINE
  5
A1
330
1F
100
AcDbEntity
  8
0
  6
Continuous
 62
     7
370
    25
100
AcDbLine
 10
86.9385090547
 20
35.3995813027
 30
0.0
 11
74.1028285364
 21
35.3995813027
 31
0.0
  0
LINE
  5
A2
330
1F
100
AcDbEntity
  8
0
  6
Continuous
 62
     7
370
    25
100
AcDbLine
 10
86.9385090547
 20
53.5861147822
 30
0.0
 11
74.1028285364
 21
53.5861147822
 31
0.0
  0
SPLINE
  5
A3
330
1F
100
AcDbEntity
  8
0
  6
Continuous
 62
     7
370
    25
100
AcDbSpline
210
0.0
220
0.0
230
1.0
 70
     8
 71
     3
 72
    14
 73
    10
 74
     0
 42
0.00000001
 43
0.00000001
 40
0.0
 40
0.0
 40
0.0
 40
0.0
 40
0.1323181917627721
 40
0.2645989717332716
 40
0.3998389716033047
 40
0.53505456700054
 40
0.6502551587200327
 40
0.7654737204835297
 40
0.9999999999999999
 40
0.9999999999999999
 40
0.9999999999999999
 40
0.9999999999999999
 10
86.9385090547485
 20
47.52393695570316
 30
0.0
 10
87.08127058561685
 20
47.78584847106107
 30
0.0
 10
87.36675328279999
 20
48.30959744862461
 30
0.0
 10
87.67395917795598
 20
49.11613070985523
 30
0.0
 10
87.85852181830062
 20
49.93784289387078
 30
0.0
 10
87.8955602312302
 20
50.72987429537411
 30
0.0
 10
87.79917247332064
 20
51.47882551265844
 30
0.0
 10
87.54637480083301
 20
52.42529820010248
 30
0.0
 10
87.18250621086393
 20
53.12016330092319
 30
0.0
 10
86.93850905474851
 20
53.58611478219426
 30
0.0
  0
SPLINE
  5
A4
330
1F
100
AcDbEntity
  8
0
  6
Continuous
 62
     7
370
    25
100
AcDbSpline
210
0.0
220
0.0
230
1.0
 70
     8
 71
     3
 72
    14
 73
    10
 74
     0
 42
0.00000001
 43
0.00000001
 40
0.0
 40
0.0
 40
0.0
 40
0.0
 40
0.1323181917627722
 40
0.2645989717332717
 40
0.3998389716033048
 40
0.5350545670005401
 40
0.6502551587200327
 40
0.7654737204835298
 40
1.0
 40
1.0
 40
1.0
 40
1.0
 10
86.9385090547485
 20
29.33740347622995
 30
0.0
 10
87.08127058561685
 20
29.59931499158786
 30
0.0
 10
87.36675328279998
 20
30.1230639691514
 30
0.0
 10
87.67395917795601
 20
30.92959723038199
 30
0.0
 10
87.85852181830062
 20
31.75130941439754
 30
0.0
 10
87.8955602312302
 20
32.54334081590086
 30
0.0
 10
87.79917247332064
 20
33.29229203318518
 30
0.0
 10
87.54637480083301
 20
34.23876472062921
 30
0.0
 10
87.18250621086392
 20
34.93362982144991
 30
0.0
 10
86.9385090547485
 20
35.39958130272097
 30
0.0
  0
LINE
  5
A5
330
1F
100
AcDbEntity
  8
0
  6
Continuous
 62
     7
370
    25
100
AcDbLine
 10
88.0206687956
 20
41.4617591292
 30
0.0
 11
88.0206687956
 21
51.7117591292
 31
0.0
  0
LINE
  5
A6
330
1F
100
AcDbEntity
  8
0
  6
Continuous
 62
     7
370
    25
100
AcDbLine
 10
88.0206687956
 20
31.2117591292
 30
0.0
 11
88.0206687956
 21
41.4617591292
 31
0.0
  0
LINE
  5
A7
330
1F
100
AcDbEntity
  8
0
  6
Continuous
 62
     7
370
    25
100
AcDbLine
 10
86.9385090547
 20
29.3374034762
 30
0.0
 11
74.1028285364
 21
29.3374034762
 31
0.0
  0
SPLINE
  5
A8
330
1F
100
AcDbEntity
  8
0
  6
Continuous
 62
     7
370
    25
100
AcDbSpline
210
0.0
220
0.0
230
1.0
 70
     8
 71
     3
 72
    14
 73
    10
 74
     0
 42
0.00000001
 43
0.00000001
 40
0.0
 40
0.0
 40
0.0
 40
0.0
 40
0.1851527717470164
 40
0.3719409992820294
 40
0.4970731810911708
 40
0.62220480411718
 40
0.7506723895444801
 40
0.8791751389606528
 40
1.0
 40
1.0
 40
1.0
 40
1.0
 10
32.30786655821201
 20
47.52393695570331
 30
0.0
 10
32.50346930506577
 20
46.78958506871871
 30
0.0
 10
32.89640255926788
 20
45.31439475915698
 30
0.0
 10
33.18682457157738
 20
43.29012642343459
 30
0.0
 10
33.26676498015221
 20
41.49746188428088
 30
0.0
 10
33.2048183202909
 20
39.94303506314223
 30
0.0
 10
33.00938837593819
 20
38.38635602908903
 30
0.0
 10
32.7092896557536
 20
36.86433960953772
 30
0.0
 10
32.43889875092593
 20
35.87770648762834
 30
0.0
 10
32.30786655821201
 20
35.39958130272112
 30
0.0
  0
LINE
  5
A9
330
1F
100
AcDbEntity
  8
0
  6
Continuous
 62
     7
370
    25
100
AcDbLine
 10
19.4721860398
 20
35.3995813027
 30
0.0
 11
32.3078665582
 21
35.3995813027
 31
0.0
  0
SPLINE
  5
AA
330
1F
100
AcDbEntity
  8
0
  6
Continuous
 62
     7
370
    25
100
AcDbSpline
210
0.0
220
0.0
230
1.0
 70
     8
 71
     3
 72
    14
 73
    10
 74
     0
 42
0.00000001
 43
0.00000001
 40
0.0
 40
0.0
 40
0.0
 40
0.0
 40
0.1851527717470164
 40
0.3719409992820294
 40
0.4970731810911708
 40
0.62220480411718
 40
0.7506723895444801
 40
0.8791751389606527
 40
1.0
 40
1.0
 40
1.0
 40
1.0
 10
19.47218603982469
 20
47.52393695570331
 30
0.0
 10
19.27658329297094
 20
46.78958506871871
 30
0.0
 10
18.88365003876884
 20
45.31439475915698
 30
0.0
 10
18.59322802645933
 20
43.29012642343459
 30
0.0
 10
18.5132876178845
 20
41.49746188428088
 30
0.0
 10
18.5752342777458
 20
39.94303506314223
 30
0.0
 10
18.77066422209853
 20
38.38635602908903
 30
0.0
 10
19.0707629422831
 20
36.86433960953772
 30
0.0
 10
19.34115384711077
 20
35.87770648762834
 30
0.0
 10
19.47218603982468
 20
35.39958130272112
 30
0.0
  0
LINE
  5
AB
330
1F
100
AcDbEntity
  8
0
  6
Continuous
 62
     7
370
    25
100
AcDbLine
 10
19.4721860398
 20
47.5239369557
 30
0.0
 11
32.3078665582
 21
47.5239369557
 31
0.0
  0
SPLINE
  5
AC
330
1F
100
AcDbEntity
  8
0
  6
Continuous
 62
     7
370
    25
100
AcDbSpline
210
0.0
220
0.0
230
1.0
 70
     8
 71
     3
 72
    14
 73
    10
 74
     0
 42
0.00000001
 43
0.00000001
 40
0.0
 40
0.0
 40
0.0
 40
0.0
 40
0.1323181917627738
 40
0.264598971733275
 40
0.3998389716033099
 40
0.5350545670005468
 40
0.6502551587200379
 40
0.7654737204835332
 40
1.0
 40
1.0
 40
1.0
 40
1.0
 10
19.47218603982469
 20
53.58611478219426
 30
0.0
 10
19.32942450895634
 20
53.32420326683634
 30
0.0
 10
19.04394181177321
 20
52.80045428927281
 30
0.0
 10
18.7367359166172
 20
51.99392102804221
 30
0.0
 10
18.55217327627257
 20
51.17220884402666
 30
0.0
 10
18.51513486334299
 20
50.38017744252334
 30
0.0
 10
18.61152262125258
 20
49.63122622523904
 30
0.0
 10
18.86432029374021
 20
48.68475353779503
 30
0.0
 10
19.22818888370927
 20
47.98988843697435
 30
0.0
 10
19.47218603982469
 20
47.52393695570331
 30
0.0
  0
SPLINE
  5
AD
330
1F
100
AcDbEntity
  8
0
  6
Continuous
 62
     7
370
    25
100
AcDbSpline
210
0.0
220
0.0
230
1.0
 70
     8
 71
     3
 72
    14
 73
    10
 74
     0
 42
0.00000001
 43
0.00000001
 40
0.0
 40
0.0
 40
0.0
 40
0.0
 40
0.1323181917627721
 40
0.2645989717332716
 40
0.3998389716033047
 40
0.53505456700054
 40
0.6502551587200327
 40
0.7654737204835297
 40
1.0
 40
1.0
 40
1.0
 40
1.0
 10
19.47218603982469
 20
35.39958130272112
 30
0.0
 10
19.32942450895633
 20
35.1376697873632
 30
0.0
 10
19.04394181177319
 20
34.61392080979965
 30
0.0
 10
18.73673591661718
 20
33.80738754856904
 30
0.0
 10
18.55217327627257
 20
32.98567536455347
 30
0.0
 10
18.51513486334295
 20
32.19364396305014
 30
0.0
 10
18.61152262125255
 20
31.44469274576578
 30
0.0
 10
18.86432029374017
 20
30.49822005832174
 30
0.0
 10
19.22818888370926
 20
29.80335495750103
 30
0.0
 10
19.47218603982469
 20
29.33740347622995
 30
0.0
  0
LINE
  5
AE
330
1F
100
AcDbEntity
  8
0
  6
Continuous
 62
     7
370
    25
100
AcDbLine
 10
18.390026299
 20
51.7117591292
 30
0.0
 11
18.390026299
 21
31.2117591292
 31
0.0
  0
SPLINE
  5
AF
330
1F
100
AcDbEntity
  8
0
  6
Continuous
 62
     7
370
    25
100
AcDbSpline
210
0.0
220
0.0
230
1.0
 70
     8
 71
     3
 72
    14
 73
    10
 74
     0
 42
0.00000001
 43
0.00000001
 40
0.0
 40
0.0
 40
0.0
 40
0.0
 40
0.1323181917627721
 40
0.2645989717332716
 40
0.3998389716033047
 40
0.53505456700054
 40
0.6502551587200327
 40
0.7654737204835297
 40
1.0
 40
1.0
 40
1.0
 40
1.0
 10
32.30786655821201
 20
35.39958130272112
 30
0.0
 10
32.45062808908036
 20
35.13766978736321
 30
0.0
 10
32.7361107862635
 20
34.61392080979966
 30
0.0
 10
33.04331668141952
 20
33.80738754856903
 30
0.0
 10
33.22787932176413
 20
32.98567536455347
 30
0.0
 10
33.26491773469375
 20
32.19364396305014
 30
0.0
 10
33.16852997678414
 20
31.44469274576578
 30
0.0
 10
32.91573230429653
 20
30.49822005832174
 30
0.0
 10
32.55186371432745
 20
29.80335495750103
 30
0.0
 10
32.30786655821201
 20
29.33740347622995
 30
0.0
  0
LINE
  5
B0
330
1F
100
AcDbEntity
  8
0
  6
Continuous
 62
     7
370
    25
100
AcDbLine
 10
19.4721860398
 20
29.3374034762
 30
0.0
 11
32.3078665582
 21
29.3374034762
 31
0.0
  0
SPLINE
  5
B1
330
1F
100
AcDbEntity
  8
0
  6
Continuous
 62
     7
370
    25
100
AcDbSpline
210
0.0
220
0.0
230
1.0
 70
     8
 71
     3
 72
    14
 73
    10
 74
     0
 42
0.00000001
 43
0.00000001
 40
0.0
 40
0.0
 40
0.0
 40
0.0
 40
0.1323181917627738
 40
0.264598971733275
 40
0.3998389716033098
 40
0.5350545670005468
 40
0.6502551587200379
 40
0.7654737204835332
 40
1.0
 40
1.0
 40
1.0
 40
1.0
 10
32.30786655821201
 20
53.58611478219426
 30
0.0
 10
32.45062808908035
 20
53.32420326683634
 30
0.0
 10
32.7361107862635
 20
52.80045428927281
 30
0.0
 10
33.0433166814195
 20
51.99392102804221
 30
0.0
 10
33.22787932176411
 20
51.17220884402666
 30
0.0
 10
33.26491773469373
 20
50.38017744252334
 30
0.0
 10
33.16852997678411
 20
49.63122622523904
 30
0.0
 10
32.91573230429652
 20
48.68475353779503
 30
0.0
 10
32.55186371432744
 20
47.98988843697435
 30
0.0
 10
32.30786655821201
 20
47.52393695570331
 30
0.0
  0
LINE
  5
B2
330
1F
100
AcDbEntity
  8
0
  6
Continuous
 62
     7
370
    25
100
AcDbLine
 10
33.390026299
 20
51.7117591292
 30
0.0
 11
33.390026299
 21
31.2117591292
 31
0.0
  0
LINE
  5
B3
330
1F
100
AcDbEntity
  8
0
  6
Continuous
 62
     7
370
    25
100
AcDbLine
 10
19.4721860398
 20
53.5861147822
 30
0.0
 11
32.3078665582
 21
53.5861147822
 31
0.0
  0
ARC
  5
B4
330
1F
100
AcDbEntity
  8
0
  6
Continuous
 62
     7
370
    25
100
AcDbCircle
 10
51.0311728
 20
66.4055841653
 30
0.0
 40
4.408657033485513
100
AcDbArc
 50
83.0838156236
 51
91.2490959636
  0
SPLINE
  5
B5
330
1F
100
AcDbEntity
  8
0
  6
Continuous
 62
     7
370
    25
100
AcDbSpline
210
0.0
220
0.0
230
1.0
 70
     8
 71
     3
 72
    15
 73
    11
 74
     0
 42
0.00000001
 43
0.00000001
 40
0.0
 40
0.0
 40
0.0
 40
0.0
 40
0.1246337044934918
 40
0.2519069547896618
 40
0.3765407248366567
 40
0.4994048858686675
 40
0.6264509366402855
 40
0.7526069675388761
 40
0.8746808545492513
 40
1.0
 40
1.0
 40
1.0
 40
1.0
 10
51.66727968401418
 20
70.78847063986011
 30
0.0
 10
51.66326540051809
 20
70.7878342755622
 30
0.0
 10
51.65515181731622
 20
70.78654806977167
 30
0.0
 10
51.64071373240473
 20
70.78483834387409
 30
0.0
 10
51.62558052397316
 20
70.78339478540184
 30
0.0
 10
51.6102178977076
 20
70.78228994439795
 30
0.0
 10
51.59528701536318
 20
70.78155659655154
 30
0.0
 10
51.58178467564799
 20
70.7812852102229
 30
0.0
 10
51.57009864967154
 20
70.7814314929042
 30
0.0
 10
51.56475703681824
 20
70.78191572717016
 30
0.0
 10
51.56205119522099
 20
70.78216102035324
 30
0.0
  0
SPLINE
  5
B6
330
1F
100
AcDbEntity
  8
0
  6
Continuous
 62
     7
370
    25
100
AcDbSpline
210
0.0
220
0.0
230
1.0
 70
     8
 71
     3
 72
    11
 73
     7
 74
     0
 42
0.00000001
 43
0.00000001
 40
0.0
 40
0.0
 40
0.0
 40
0.0
 40
0.2506254296333131
 40
0.5000000000003831
 40
0.7493745703670927
 40
0.9999999999999999
 40
0.9999999999999999
 40
0.9999999999999999
 40
0.9999999999999999
 10
54.74341541374309
 20
70.78847063961916
 30
0.0
 10
54.51369591413758
 20
70.819828694407
 30
0.0
 10
54.05540343371814
 20
70.88238829746429
 30
0.0
 10
53.20534754888668
 20
70.90843235737293
 30
0.0
 10
52.35529166404928
 20
70.88238829759766
 30
0.0
 10
51.89699918362307
 20
70.81982869461201
 30
0.0
 10
51.66727968401419
 20
70.78847063986011
 30
0.0
  0
SPLINE
  5
B7
330
1F
100
AcDbEntity
  8
0
  6
Continuous
 62
     7
370
    25
100
AcDbSpline
210
0.0
220
0.0
230
1.0
 70
     8
 71
     3
 72
    15
 73
    11
 74
     0
 42
0.00000001
 43
0.00000001
 40
0.0
 40
0.0
 40
0.0
 40
0.0
 40
0.1253187789994372
 40
0.24739230904866
 40
0.3734477209264261
 40
0.5005937091734357
 40
0.6235467583552716
 40
0.7480937818221125
 40
0.8753666599534706
 40
1.0
 40
1.0
 40
1.0
 40
1.0
 10
54.84864390253623
 20
70.78216102009576
 30
0.0
 10
54.84593806460865
 20
70.78191572601355
 30
0.0
 10
54.84059645899968
 20
70.78143148997265
 30
0.0
 10
54.82891351540601
 20
70.78128525974624
 30
0.0
 10
54.81541209577242
 20
70.78155642557275
 30
0.0
 10
54.80047776547937
 20
70.78228990250962
 30
0.0
 10
54.78511067027407
 20
70.78339481508765
 30
0.0
 10
54.76997817550747
 20
70.78483880807558
 30
0.0
 10
54.75554325030999
 20
70.78654805175167
 30
0.0
 10
54.7474296872659
 20
70.78783426943647
 30
0.0
 10
54.74341541374308
 20
70.78847063961916
 30
0.0
  0
ARC
  5
B8
330
1F
100
AcDbEntity
  8
0
  6
Continuous
 62
     7
370
    25
100
AcDbCircle
 10
55.3795222971
 20
66.4055841651
 30
0.0
 40
4.408657033331536
100
AcDbArc
 50
88.7509040274
 51
96.9161843676
  0
LINE
  5
B9
330
1F
100
AcDbEntity
  8
0
  6
Continuous
 62
     7
370
    25
100
AcDbLine
 10
51.5620511952
 20
70.7821610204
 30
0.0
 11
51.5620511952
 21
70.8830405047
 31
0.0
  0
SPLINE
  5
BA
330
1F
100
AcDbEntity
  8
0
  6
Continuous
 62
     7
370
    25
100
AcDbSpline
210
0.0
220
0.0
230
1.0
 70
     8
 71
     3
 72
    15
 73
    11
 74
     0
 42
0.00000001
 43
0.00000001
 40
0.0
 40
0.0
 40
0.0
 40
0.0
 40
0.1253191957979133
 40
0.2473928354984057
 40
0.3734492416489694
 40
0.5005950046079951
 40
0.623548439177759
 40
0.7480947836179459
 40
0.875367145815387
 40
1.0
 40
1.0
 40
1.0
 40
1.0
 10
51.56205119522099
 20
70.88304050471575
 30
0.0
 10
51.56475699155342
 20
70.88279642558207
 30
0.0
 10
51.5700985086506
 20
70.88231458855316
 30
0.0
 10
51.58178108123968
 20
70.88216907199964
 30
0.0
 10
51.59528206122695
 20
70.88243886635519
 30
0.0
 10
51.61021609007701
 20
70.8831686769209
 30
0.0
 10
51.62558310126605
 20
70.88426809371312
 30
0.0
 10
51.64071583770427
 20
70.88570494899152
 30
0.0
 10
51.65515126748596
 20
70.88740578457448
 30
0.0
 10
51.66326521831519
 20
70.8886857084918
 30
0.0
 10
51.66727968401418
 20
70.88931896481435
 30
0.0
  0
LINE
  5
BB
330
1F
100
AcDbEntity
  8
0
  6
Continuous
 62
     7
370
    25
100
AcDbLine
 10
51.667279684
 20
70.7884706399
 30
0.0
 11
51.667279684
 21
70.8893189648
 31
0.0
  0
ARC
  5
BC
330
1F
100
AcDbEntity
  8
0
  6
Continuous
 62
     7
370
    25
100
AcDbCircle
 10
52.2364319443
 20
55.4718435416
 30
0.0
 40
15.49681493865516
100
AcDbArc
 50
94.6954834628
 51
94.8171561263
  0
SPLINE
  5
BD
330
1F
100
AcDbEntity
  8
0
  6
Continuous
 62
     7
370
    25
100
AcDbSpline
210
0.0
220
0.0
230
1.0
 70
     8
 71
     3
 72
    15
 73
    11
 74
     0
 42
0.00000001
 43
0.00000001
 40
0.0
 40
0.0
 40
0.0
 40
0.0
 40
0.1241930067305289
 40
0.24965566548923
 40
0.3743703853151211
 40
0.4998404796364203
 40
0.6240146704162364
 40
0.7475381382242062
 40
0.8745858500551824
 40
1.0
 40
1.0
 40
1.0
 40
1.0
 10
51.74815324741715
 20
70.99813200016857
 30
0.0
 10
51.73259285230744
 20
70.99573631982089
 30
0.0
 10
51.70131298479593
 20
70.99092046756606
 30
0.0
 10
51.62387662530755
 20
70.98131616784312
 30
0.0
 10
51.53052262156864
 20
70.97061312153687
 30
0.0
 10
51.42329701554767
 20
70.95919086399671
 30
0.0
 10
51.30891110482673
 20
70.94759476093063
 30
0.0
 10
51.1912403419414
 20
70.93631015370522
 30
0.0
 10
51.0743566167162
 20
70.92559992745181
 30
0.0
 10
51.00320776582147
 20
70.9196195659966
 30
0.0
 10
50.96786352573805
 20
70.91664873332115
 30
0.0
  0
ARC
  5
BE
330
1F
100
AcDbEntity
  8
0
  6
Continuous
 62
     7
370
    25
100
AcDbCircle
 10
52.1383958781
 20
68.66283518
 30
0.0
 40
2.367678303584854
100
AcDbArc
 50
93.3632881502
 51
99.4868245016
  0
ARC
  5
BF
330
1F
100
AcDbEntity
  8
0
  6
Continuous
 62
     7
370
    25
100
AcDbCircle
 10
54.272302903
 20
68.6628764306
 30
0.0
 40
2.367636907761745
100
AcDbArc
 50
80.5187694299
 51
86.6367422678
  0
SPLINE
  5
C0
330
1F
100
AcDbEntity
  8
0
  6
Continuous
 62
     7
370
    25
100
AcDbSpline
210
0.0
220
0.0
230
1.0
 70
     8
 71
     3
 72
    15
 73
    11
 74
     0
 42
0.00000001
 43
0.00000001
 40
0.0
 40
0.0
 40
0.0
 40
0.0
 40
0.1253320172137759
 40
0.2522975129251759
 40
0.3758847553984062
 40
0.5001929511416487
 40
0.6255758307380153
 40
0.7502289462456482
 40
0.8757444935777827
 40
1.0
 40
1.0
 40
1.0
 40
1.0
 10
55.43501247655212
 20
70.9173300953631
 30
0.0
 10
55.39976155992413
 20
70.92030968750291
 30
0.0
 10
55.32880029406973
 20
70.92630770543252
 30
0.0
 10
55.21281340328135
 20
70.93696807775646
 30
0.0
 10
55.09621703704098
 20
70.94817719896754
 30
0.0
 10
54.9830964304595
 20
70.95966762619608
 30
0.0
 10
54.87722071612005
 20
70.97096538690845
 30
0.0
 10
54.7851116315009
 20
70.98154040050541
 30
0.0
 10
54.7086799676325
 20
70.99103146253397
 30
0.0
 10
54.6777150601332
 20
70.99579884409157
 30
0.0
 10
54.66231071201196
 20
70.9981705096663
 30
0.0
  0
ARC
  5
C1
330
1F
100
AcDbEntity
  8
0
  6
Continuous
 62
     7
370
    25
100
AcDbCircle
 10
54.135097827
 20
55.1916667202
 30
0.0
 40
15.77929867536744
100
AcDbArc
 50
85.1265666159
 51
85.2745602135
  0
ARC
  5
C2
330
1F
100
AcDbEntity
  8
0
  6
Continuous
 62
     7
370
    25
100
AcDbCircle
 10
55.3795199737
 20
66.4846631582
 30
0.0
 40
4.430299389726745
100
AcDbArc
 50
88.7569768639
 51
96.8822041625
  0
SPLINE
  5
C3
330
1F
100
AcDbEntity
  8
0
  6
Continuous
 62
     7
370
    25
100
AcDbSpline
210
0.0
220
0.0
230
1.0
 70
     8
 71
     3
 72
    15
 73
    11
 74
     0
 42
0.00000001
 43
0.00000001
 40
0.0
 40
0.0
 40
0.0
 40
0.0
 40
0.124633218643854
 40
0.2519059530189772
 40
0.3765391000744918
 40
0.4994035903146518
 40
0.6264494152300148
 40
0.7526064410610419
 40
0.874680437736327
 40
1.0
 40
1.0
 40
1.0
 40
1.0
 10
54.74341541374308
 20
70.8893189645746
 30
0.0
 10
54.74742988941122
 20
70.8886857141075
 30
0.0
 10
54.75554386038991
 20
70.88740580202507
 30
0.0
 10
54.76998245222644
 20
70.8857044863208
 30
0.0
 10
54.78511590215953
 20
70.88426806353408
 30
0.0
 10
54.8004784444413
 20
70.88316871798963
 30
0.0
 10
54.81540902327799
 20
70.88243903597218
 30
0.0
 10
54.82891092330728
 20
70.88216902221322
 30
0.0
 10
54.8405965781937
 20
70.88231459096002
 30
0.0
 10
54.84593810253448
 20
70.88279642622128
 30
0.0
 10
54.84864390253623
 20
70.88304050445954
 30
0.0
  0
SPLINE
  5
C4
330
1F
100
AcDbEntity
  8
0
  6
Continuous
 62
     7
370
    25
100
AcDbSpline
210
0.0
220
0.0
230
1.0
 70
     8
 71
     3
 72
    11
 73
     7
 74
     0
 42
0.00000001
 43
0.00000001
 40
0.0
 40
0.0
 40
0.0
 40
0.0
 40
0.2506252605986011
 40
0.4999999999996214
 40
0.7493747394010042
 40
1.0
 40
1.0
 40
1.0
 40
1.0
 10
51.66727968401419
 20
70.88931896481435
 30
0.0
 10
51.8970073781875
 20
70.92052338768298
 30
0.0
 10
52.35531651595049
 20
70.98277653565793
 30
0.0
 10
53.20534754888661
 20
71.00869112145614
 30
0.0
 10
54.05537858181684
 20
70.98277653552523
 30
0.0
 10
54.51368771957311
 20
70.92052338747898
 30
0.0
 10
54.74341541374308
 20
70.8893189645746
 30
0.0
  0
ARC
  5
C5
330
1F
100
AcDbEntity
  8
0
  6
Continuous
 62
     7
370
    25
100
AcDbCircle
 10
51.0311751234
 20
66.4846631584
 30
0.0
 40
4.430299389878324
100
AcDbArc
 50
83.1177958287
 51
91.2430231272
  0
SPLINE
  5
C6
330
1F
100
AcDbEntity
  8
0
  6
Continuous
 62
     7
370
    25
100
AcDbSpline
210
0.0
220
0.0
230
1.0
 70
     8
 71
     3
 72
    15
 73
    11
 74
     0
 42
0.00000001
 43
0.00000001
 40
0.0
 40
0.0
 40
0.0
 40
0.0
 40
0.1233867499278388
 40
0.2487396502211602
 40
0.3739317114754985
 40
0.4999973617625658
 40
0.62595913305136
 40
0.7512551380600302
 40
0.8765613478174265
 40
1.0
 40
1.0
 40
1.0
 40
1.0
 10
53.14246468248053
 20
71.06165202651657
 30
0.0
 10
53.14534288367241
 20
71.06165268558871
 30
0.0
 10
53.15114514978404
 20
71.06165401423523
 30
0.0
 10
53.16667455450479
 20
71.06165796386236
 30
0.0
 10
53.18502913637823
 20
71.06165974621173
 30
0.0
 10
53.20534195286114
 20
71.0616612997897
 30
0.0
 10
53.22566037057625
 20
71.06165974565477
 30
0.0
 10
53.24401323974036
 20
71.0616579687742
 30
0.0
 10
53.25955134413586
 20
71.06165400125606
 30
0.0
 10
53.26535190616715
 20
71.06165268146009
 30
0.0
 10
53.2682304120927
 20
71.06165202651657
 30
0.0
  0
ARC
  5
C7
330
1F
100
AcDbEntity
  8
0
  6
Continuous
 62
     7
370
    25
100
AcDbCircle
 10
53.1433591101
 20
68.5173026137
 30
0.0
 40
2.544349570044114
100
AcDbArc
 50
90.0201414662
 51
95.4127462175
  0
SPLINE
  5
C8
330
1F
100
AcDbEntity
  8
0
  6
Continuous
 62
     7
370
    25
100
AcDbSpline
210
0.0
220
0.0
230
1.0
 70
     8
 71
     3
 72
    15
 73
    11
 74
     0
 42
0.00000001
 43
0.00000001
 40
0.0
 40
0.0
 40
0.0
 40
0.0
 40
0.126158522421064
 40
0.2513121451548799
 40
0.3762846848783791
 40
0.4993062783340876
 40
0.6261594278645742
 40
0.7521171342021308
 40
0.8758196922692789
 40
1.0
 40
1.0
 40
1.0
 40
1.0
 10
52.96623402160885
 20
71.04840889510585
 30
0.0
 10
52.96100292512018
 20
71.04835796935537
 30
0.0
 10
52.95058239977752
 20
71.048256523497
 30
0.0
 10
52.93579584926312
 20
71.04825234185977
 30
0.0
 10
52.92260549663762
 20
71.04835168068038
 30
0.0
 10
52.91173492179635
 20
71.04857222288345
 30
0.0
 10
52.90372733446781
 20
71.04889609028491
 30
0.0
 10
52.89956070743511
 20
71.04931596013242
 30
0.0
 10
52.8989396559235
 20
71.04979467719814
 30
0.0
 10
52.90187876827826
 20
71.05013596644369
 30
0.0
 10
52.903351156761
 20
71.05030693995332
 30
0.0
  0
ARC
  5
C9
330
1F
100
AcDbEntity
  8
0
  6
Continuous
 62
     7
370
    25
100
AcDbCircle
 10
53.2053475473
 20
50.4617591292
 30
0.0
 40
20.58803836847347
100
AcDbArc
 50
89.3345405821
 51
90.66545941
  0
SPLINE
  5
CA
330
1F
100
AcDbEntity
  8
0
  6
Continuous
 62
     7
370
    25
100
AcDbSpline
210
0.0
220
0.0
230
1.0
 70
     8
 71
     3
 72
    15
 73
    11
 74
     0
 42
0.00000001
 43
0.00000001
 40
0.0
 40
0.0
 40
0.0
 40
0.0
 40
0.1241186784437702
 40
0.2478474916628989
 40
0.3736574149478946
 40
0.5005082335853298
 40
0.6234527658309923
 40
0.7484986612277523
 40
0.8736976492452767
 40
1.0
 40
1.0
 40
1.0
 40
1.0
 10
53.50734394053819
 20
71.05030693992
 30
0.0
 10
53.50881501314702
 20
71.05013605964152
 30
0.0
 10
53.51175253762539
 20
71.04979483583114
 30
0.0
 10
53.51113580312531
 20
71.04931629954366
 30
0.0
 10
53.50697384153069
 20
71.04889650967175
 30
0.0
 10
53.49897509373231
 20
71.04857272182535
 30
0.0
 10
53.48810900219548
 20
71.04835202361966
 30
0.0
 10
53.47492128437086
 20
71.04825243170949
 30
0.0
 10
53.46012683779564
 20
71.04825634610809
 30
0.0
 10
53.44969824688832
 20
71.0483578969135
 30
0.0
 10
53.44446107577391
 20
71.04840889507322
 30
0.0
  0
ARC
  5
CB
330
1F
100
AcDbEntity
  8
0
  6
Continuous
 62
     7
370
    25
100
AcDbCircle
 10
53.2673359843
 20
68.5173025614
 30
0.0
 40
2.544349622301607
100
AcDbArc
 50
84.5872538302
 51
89.9798585321
  0
LINE
  5
CC
330
1F
100
AcDbEntity
  8
0
  6
Continuous
 62
     7
370
    25
100
AcDbLine
 10
54.7434154137
 20
70.7884706396
 30
0.0
 11
54.7434154137
 21
70.8893189646
 31
0.0
  0
LINE
  5
CD
330
1F
100
AcDbEntity
  8
0
  6
Continuous
 62
     7
370
    25
100
AcDbLine
 10
54.8486439025
 20
70.7821610201
 30
0.0
 11
54.8486439025
 21
70.8830405045
 31
0.0
  0
LINE
  5
CE
330
1F
100
AcDbEntity
  8
0
  6
Continuous
 62
     7
370
    25
100
AcDbLine
 10
50.9350679987
 20
70.8131935747
 30
0.0
 11
50.9350679987
 21
70.9139199928
 31
0.0
  0
LINE
  5
CF
330
1F
100
AcDbEntity
  8
0
  6
Continuous
 62
     7
370
    25
100
AcDbLine
 10
55.475627099
 20
70.8131935743
 30
0.0
 11
55.475627099
 21
70.9139199924
 31
0.0
  0
LINE
  5
D0
330
1F
100
AcDbEntity
  8
0
  6
Continuous
 62
     7
370
    25
100
AcDbLine
 10
58.2977984799
 20
68.4617591292
 30
0.0
 11
48.1128966147
 21
68.4617591292
 31
0.0
  0
SPLINE
  5
D1
330
1F
100
AcDbEntity
  8
0
  6
Continuous
 62
     7
370
    25
100
AcDbSpline
210
0.0
220
0.0
230
1.0
 70
     8
 71
     3
 72
    11
 73
     7
 74
     0
 42
0.00000001
 43
0.00000001
 40
0.0
 40
0.0
 40
0.0
 40
0.0
 40
0.2460416072901214
 40
0.4920717926348665
 40
0.7460790582811387
 40
1.0
 40
1.0
 40
1.0
 40
1.0
 10
60.16837475662398
 20
60.694935104929
 30
0.0
 10
59.9187856379319
 20
61.30537767429657
 30
0.0
 10
59.41961898717859
 20
62.52623447456586
 30
0.0
 10
58.86643717340156
 20
64.4482360752987
 30
0.0
 10
58.45310787987217
 20
66.42753881313085
 30
0.0
 10
58.34956241391216
 20
67.78376252195193
 30
0.0
 10
58.29779847986394
 20
68.46175912921208
 30
0.0
  0
SPLINE
  5
D2
330
1F
100
AcDbEntity
  8
0
  6
Continuous
 62
     7
370
    25
100
AcDbSpline
210
0.0
220
0.0
230
1.0
 70
     8
 71
     3
 72
    13
 73
     9
 74
     0
 42
0.00000001
 43
0.00000001
 40
0.0
 40
0.0
 40
0.0
 40
0.0
 40
0.0164940201989931
 40
0.1958803672654719
 40
0.3763143282056556
 40
0.5827472646165619
 40
0.8280062032403761
 40
1.0
 40
1.0
 40
1.0
 40
1.0
 10
61.20534749118109
 20
58.96175896414037
 30
0.0
 10
61.20524287323445
 20
58.96189623944191
 30
0.0
 10
61.20400044709672
 20
58.9635264991456
 30
0.0
 10
61.15481740458666
 20
59.02905826034947
 30
0.0
 10
60.98174457171387
 20
59.26760488288713
 30
0.0
 10
60.71631735862248
 20
59.66244801017682
 30
0.0
 10
60.41980963109662
 20
60.15559351983909
 30
0.0
 10
60.24176549605022
 20
60.5375079468385
 30
0.0
 10
60.16837475662398
 20
60.694935104929
 30
0.0
  0
LWPOLYLINE
  5
D3
330
1F
100
AcDbEntity
  8
0
  6
Continuous
 62
     7
370
    25
100
AcDbPolyline
 90
       28
 70
   128
 43
0.0
 10
61.2053474912
 20
58.9617589641
 10
61.1511263599
 20
58.9617589653
 10
60.9894725423
 20
58.9617589686
 10
60.7225717151
 20
58.9617589741
 10
60.3540325707
 20
58.9617589817
 10
59.8888380255
 20
58.9617589913
 10
59.3332778468
 20
58.9617590028
 10
58.6948636106
 20
58.9617590159
 10
57.98222714
 20
58.9617590306
 10
57.2050037964
 20
58.9617590467
 10
56.3737022025
 20
58.9617590638
 10
55.4995621582
 20
58.9617590818
 10
54.5944026701
 20
58.9617591005
 10
53.6704621504
 20
58.9617591196
 10
52.7402329442
 20
58.9617591388
 10
51.8162924245
 20
58.9617591578
 10
50.9111329364
 20
58.9617591765
 10
50.0369928921
 20
58.9617591946
 10
49.2056912982
 20
58.9617592117
 10
48.4284679546
 20
58.9617592278
 10
47.715831484
 20
58.9617592425
 10
47.0774172478
 20
58.9617592556
 10
46.5218570691
 20
58.9617592671
 10
46.0566625239
 20
58.9617592767
 10
45.6881233795
 20
58.9617592843
 10
45.4212225523
 20
58.9617592898
 10
45.2595687346
 20
58.9617592932
 10
45.2053476034
 20
58.9617589641
  0
SPLINE
  5
D4
330
1F
100
AcDbEntity
  8
0
  6
Continuous
 62
     7
370
    25
100
AcDbSpline
210
0.0
220
0.0
230
1.0
 70
     8
 71
     3
 72
    12
 73
     8
 74
     0
 42
0.00000001
 43
0.00000001
 40
0.0
 40
0.0
 40
0.0
 40
0.0
 40
0.0816308004991865
 40
0.3246136178761982
 40
0.594633131551972
 40
0.8003997370011066
 40
1.0
 40
1.0
 40
1.0
 40
1.0
 10
46.24232033794922
 20
60.69493510492902
 30
0.0
 10
46.20837392306259
 20
60.61967575071035
 30
0.0
 10
46.07338236983892
 20
60.3203988711189
 30
0.0
 10
45.79342564588539
 20
59.81607375128173
 30
0.0
 10
45.4746973035999
 20
59.33101407778598
 30
0.0
 10
45.24840952312938
 20
59.0188428842748
 30
0.0
 10
45.21955526866521
 20
58.98059298813866
 30
0.0
 10
45.20534760339219
 20
58.96175896414038
 30
0.0
  0
SPLINE
  5
D5
330
1F
100
AcDbEntity
  8
0
  6
Continuous
 62
     7
370
    25
100
AcDbSpline
210
0.0
220
0.0
230
1.0
 70
     8
 71
     3
 72
    11
 73
     7
 74
     0
 42
0.00000001
 43
0.00000001
 40
0.0
 40
0.0
 40
0.0
 40
0.0
 40
0.245690202179478
 40
0.4914572396993194
 40
0.745721602011922
 40
1.0
 40
1.0
 40
1.0
 40
1.0
 10
48.11289661470928
 20
68.4617591292121
 30
0.0
 10
48.06347954485206
 20
67.80571955777037
 30
0.0
 10
47.96462995080796
 20
66.49343524991362
 30
0.0
 10
47.56543929388185
 20
64.53413146695814
 30
0.0
 10
47.01468710060265
 20
62.58820192388917
 30
0.0
 10
46.49978066260425
 20
61.32603565642543
 30
0.0
 10
46.24232033794922
 20
60.69493510492902
 30
0.0
  0
LINE
  5
D6
330
1F
100
AcDbEntity
  8
0
  6
Continuous
 62
     7
370
    25
100
AcDbLine
 10
60.2397879456
 20
51.9617591292
 30
0.0
 11
46.170907149
 21
51.9617591292
 31
0.0
  0
LINE
  5
D7
330
1F
100
AcDbEntity
  8
0
  6
Continuous
 62
     7
370
    25
100
AcDbLine
 10
53.2053475473
 20
70.4617591292
 30
0.0
 11
58.3004555307
 21
70.4617591292
 31
0.0
  0
LINE
  5
D8
330
1F
100
AcDbEntity
  8
0
  6
Continuous
 62
     7
370
    25
100
AcDbLine
 10
48.1102395639
 20
70.4617591292
 30
0.0
 11
53.2053475473
 21
70.4617591292
 31
0.0
  0
LINE
  5
D9
330
1F
100
AcDbEntity
  8
0
  6
Continuous
 62
     7
370
    25
100
AcDbLine
 10
58.4149657779
 20
68.4617591292
 30
0.0
 11
58.2977984799
 21
68.4617591292
 31
0.0
  0
ARC
  5
DA
330
1F
100
AcDbEntity
  8
0
  6
Continuous
 62
     7
370
    25
100
AcDbCircle
 10
60.4795905012
 20
69.8714841917
 30
0.0
 40
2.500000000000005
100
AcDbArc
 50
214.3252481179
 51
328.221357821
  0
ARC
  5
DB
330
1F
100
AcDbEntity
  8
0
  6
Continuous
 62
     7
370
    25
100
AcDbCircle
 10
67.7053475473
 20
65.3950531231
 30
0.0
 40
6.000000000000001
100
AcDbArc
 50
115.1026742168
 51
148.221357821
  0
LINE
  5
DC
330
1F
100
AcDbEntity
  8
0
  6
Continuous
 62
     7
370
    25
100
AcDbLine
 10
65.1598974151
 20
70.8283471171
 30
0.0
 11
70.2507976795
 21
70.8283471171
 31
0.0
  0
ARC
  5
DD
330
1F
100
AcDbEntity
  8
0
  6
Continuous
 62
     7
370
    25
100
AcDbCircle
 10
67.7053475473
 20
65.3950531231
 30
0.0
 40
6.0
100
AcDbArc
 50
308.4313932617
 51
64.8973257832
  0
LINE
  5
DE
330
1F
100
AcDbEntity
  8
0
  6
Continuous
 62
     7
370
    25
100
AcDbLine
 10
60.1683747566
 20
60.6949351049
 30
0.0
 11
71.4348100575
 21
60.6949351049
 31
0.0
  0
LINE
  5
DF
330
1F
100
AcDbEntity
  8
0
  6
Continuous
 62
     7
370
    25
100
AcDbLine
 10
34.9758850371
 20
60.6949351049
 30
0.0
 11
46.2423203379
 21
60.6949351049
 31
0.0
  0
ARC
  5
E0
330
1F
100
AcDbEntity
  8
0
  6
Continuous
 62
     7
370
    25
100
AcDbCircle
 10
38.7053475473
 20
65.3950531231
 30
0.0
 40
5.999999999999997
100
AcDbArc
 50
115.1026742168
 51
231.5686067383
  0
LINE
  5
E1
330
1F
100
AcDbEntity
  8
0
  6
Continuous
 62
     7
370
    25
100
AcDbLine
 10
36.1598974151
 20
70.8283471171
 30
0.0
 11
41.2507976795
 21
70.8283471171
 31
0.0
  0
ARC
  5
E2
330
1F
100
AcDbEntity
  8
0
  6
Continuous
 62
     7
370
    25
100
AcDbCircle
 10
38.7053475473
 20
65.3950531231
 30
0.0
 40
6.000000000000005
100
AcDbArc
 50
31.778642179
 51
64.8973257832
  0
ARC
  5
E3
330
1F
100
AcDbEntity
  8
0
  6
Continuous
 62
     7
370
    25
100
AcDbCircle
 10
45.9311045933
 20
69.8714841917
 30
0.0
 40
2.500000000000008
100
AcDbArc
 50
211.778642179
 51
325.6747518821
  0
LINE
  5
E4
330
1F
100
AcDbEntity
  8
0
  6
Continuous
 62
     7
370
    25
100
AcDbLine
 10
48.1128966147
 20
68.4617591292
 30
0.0
 11
47.9957293167
 21
68.4617591292
 31
0.0
  0
SPLINE
  5
E5
330
1F
100
AcDbEntity
  8
0
  6
Continuous
 62
     7
370
    25
100
AcDbSpline
210
0.0
220
0.0
230
1.0
 70
     8
 71
     3
 72
    17
 73
    13
 74
     0
 42
0.00000001
 43
0.00000001
 40
0.0
 40
0.0
 40
0.0
 40
0.0
 40
0.0051037386011219
 40
0.0335545146957463
 40
0.0512404508406915
 40
0.0783256082042153
 40
0.1200097101225738
 40
0.184942210837869
 40
0.2894088209386605
 40
0.6174789247950596
 40
0.8356014748448788
 40
1.0
 40
1.0
 40
1.0
 40
1.0
 10
38.70534754728661
 20
71.9617591292121
 30
0.0
 10
38.7008337303637
 20
71.9617526369856
 30
0.0
 10
38.67115765403791
 20
71.96170995386117
 30
0.0
 10
38.62583873698218
 20
71.96091307392891
 30
0.0
 10
38.56109045961582
 20
71.95849071725092
 30
0.0
 10
38.48465460691424
 20
71.95410749210302
 30
0.0
 10
38.3665063979639
 20
71.94374205612708
 30
0.0
 10
38.18017048693585
 20
71.9185553679848
 30
0.0
 10
37.74247270676631
 20
71.82660192974926
 30
0.0
 10
37.17442531682258
 20
71.59390134936913
 30
0.0
 10
36.57900564505337
 20
71.20096276088312
 30
0.0
 10
36.28587712918056
 20
70.94035162788383
 30
0.0
 10
36.15989741508355
 20
70.82834711707056
 30
0.0
  0
SPLINE
  5
E6
330
1F
100
AcDbEntity
  8
0
  6
Continuous
 62
     7
370
    25
100
AcDbSpline
210
0.0
220
0.0
230
1.0
 70
     8
 71
     3
 72
    17
 73
    13
 74
     0
 42
0.00000001
 43
0.00000001
 40
0.0
 40
0.0
 40
0.0
 40
0.0
 40
0.1643985251551219
 40
0.3825210752049406
 40
0.7105911790613395
 40
0.8150577891621317
 40
0.8799902898774276
 40
0.9216743917957885
 40
0.9487595491592796
 40
0.9664454853042046
 40
0.9948962613988783
 40
1.0
 40
1.0
 40
1.0
 40
1.0
 10
41.25079767948968
 20
70.82834711707056
 30
0.0
 10
41.12481796539267
 20
70.94035162788381
 30
0.0
 10
40.83168944951986
 20
71.20096276088312
 30
0.0
 10
40.23626977775065
 20
71.59390134936912
 30
0.0
 10
39.66822238780694
 20
71.82660192974927
 30
0.0
 10
39.23052460763736
 20
71.9185553679848
 30
0.0
 10
39.04418869660934
 20
71.94374205612708
 30
0.0
 10
38.92604048765901
 20
71.95410749210302
 30
0.0
 10
38.84960463495749
 20
71.95849071725092
 30
0.0
 10
38.78485635759112
 20
71.96091307392888
 30
0.0
 10
38.73953744053539
 20
71.96170995386117
 30
0.0
 10
38.70986136420953
 20
71.9617526369856
 30
0.0
 10
38.70534754728661
 20
71.9617591292121
 30
0.0
  0
ARC
  5
E7
330
1F
100
AcDbEntity
  8
0
  6
Continuous
 62
     7
370
    25
100
AcDbCircle
 10
67.9880723015
 20
72.0553399205
 30
0.0
 40
2.573992516660278
100
AcDbArc
 50
331.5306505147
 51
344.0457565706
  0
SPLINE
  5
E8
330
1F
100
AcDbEntity
  8
0
  6
Continuous
 62
     7
370
    25
100
AcDbSpline
210
0.0
220
0.0
230
1.0
 70
     8
 71
     3
 72
    17
 73
    13
 74
     0
 42
0.00000001
 43
0.00000001
 40
0.0
 40
0.0
 40
0.0
 40
0.0
 40
0.1643985251551227
 40
0.3825210752049391
 40
0.7105911790613395
 40
0.8150577891621213
 40
0.8799902898774139
 40
0.9216743917957922
 40
0.9487595491592885
 40
0.9664454853042478
 40
0.9948962613988783
 40
1.0
 40
1.0
 40
1.0
 40
1.0
 10
70.2507976794897
 20
70.8283471170705
 30
0.0
 10
70.12481796539268
 20
70.94035162788376
 30
0.0
 10
69.83168944951987
 20
71.20096276088306
 30
0.0
 10
69.23626977775066
 20
71.59390134936906
 30
0.0
 10
68.66822238780695
 20
71.82660192974923
 30
0.0
 10
68.2305246076374
 20
71.91855536798472
 30
0.0
 10
68.04418869660935
 20
71.94374205612705
 30
0.0
 10
67.92604048765902
 20
71.95410749210296
 30
0.0
 10
67.84960463495747
 20
71.95849071725088
 30
0.0
 10
67.78485635759105
 20
71.96091307392886
 30
0.0
 10
67.73953744053566
 20
71.96170995386113
 30
0.0
 10
67.70986136420957
 20
71.96175263698557
 30
0.0
 10
67.70534754728662
 20
71.96175912921206
 30
0.0
  0
SPLINE
  5
E9
330
1F
100
AcDbEntity
  8
0
  6
Continuous
 62
     7
370
    25
100
AcDbSpline
210
0.0
220
0.0
230
1.0
 70
     8
 71
     3
 72
    11
 73
     7
 74
     0
 42
0.00000001
 43
0.00000001
 40
0.0
 40
0.0
 40
0.0
 40
0.0
 40
0.0055682347466183
 40
0.1918263368321046
 40
0.6296575784328777
 40
1.0
 40
1.0
 40
1.0
 40
1.0
 10
67.70534754728662
 20
71.96175912921207
 30
0.0
 10
67.71054147062192
 20
71.96175511013848
 30
0.0
 10
67.88947273565178
 20
71.96161665258444
 30
0.0
 10
68.47631043519421
 20
71.93537787653129
 30
0.0
 10
69.40643618075218
 20
71.7813049131098
 30
0.0
 10
70.13092455757175
 20
71.48404555935089
 30
0.0
 10
70.46291852383995
 20
71.34782762263539
 30
0.0
  0
SPLINE
  5
EA
330
1F
100
AcDbEntity
  8
0
  6
Continuous
 62
     7
370
    25
100
AcDbSpline
210
0.0
220
0.0
230
1.0
 70
     8
 71
     3
 72
    11
 73
     7
 74
     0
 42
0.00000001
 43
0.00000001
 40
0.0
 40
0.0
 40
0.0
 40
0.0
 40
0.0055682347466179
 40
0.1918263368321036
 40
0.6296575784328761
 40
1.0
 40
1.0
 40
1.0
 40
1.0
 10
38.70534754728661
 20
71.9617591292121
 30
0.0
 10
38.71054147062191
 20
71.96175511013851
 30
0.0
 10
38.88947273565178
 20
71.96161665258458
 30
0.0
 10
39.4763104351942
 20
71.93537787653123
 30
0.0
 10
40.40643618075217
 20
71.78130491310985
 30
0.0
 10
41.13092455757175
 20
71.48404555935095
 30
0.0
 10
41.46291852383993
 20
71.34782762263544
 30
0.0
  0
ARC
  5
EB
330
1F
100
AcDbEntity
  8
0
  6
Continuous
 62
     7
370
    25
100
AcDbCircle
 10
38.9880723015
 20
72.0553399205
 30
0.0
 40
2.573992516658529
100
AcDbArc
 50
331.5306505147
 51
344.0457565706
  0
ARC
  5
EC
330
1F
100
AcDbEntity
  8
0
  6
Continuous
 62
     7
370
    25
100
AcDbCircle
 10
38.4226227931
 20
72.0553399205
 30
0.0
 40
2.573992516659073
100
AcDbArc
 50
195.9542434294
 51
208.4693494853
  0
SPLINE
  5
ED
330
1F
100
AcDbEntity
  8
0
  6
Continuous
 62
     7
370
    25
100
AcDbSpline
210
0.0
220
0.0
230
1.0
 70
     8
 71
     3
 72
    11
 73
     7
 74
     0
 42
0.00000001
 43
0.00000001
 40
0.0
 40
0.0
 40
0.0
 40
0.0
 40
0.3703424215671235
 40
0.8081736631678963
 40
0.9944317652533821
 40
0.9999999999999999
 40
0.9999999999999999
 40
0.9999999999999999
 40
0.9999999999999999
 10
35.9477765707333
 20
71.34782762263545
 30
0.0
 10
36.27977053700148
 20
71.48404555935095
 30
0.0
 10
37.00425891382105
 20
71.78130491310984
 30
0.0
 10
37.93438465937912
 20
71.93537787653126
 30
0.0
 10
38.52122235892136
 20
71.96161665258455
 30
0.0
 10
38.70015362395132
 20
71.96175511013853
 30
0.0
 10
38.70534754728661
 20
71.9617591292121
 30
0.0
  0
ARC
  5
EE
330
1F
100
AcDbEntity
  8
0
  6
Continuous
 62
     7
370
    25
100
AcDbCircle
 10
67.4226227931
 20
72.0553399205
 30
0.0
 40
2.573992516659037
100
AcDbArc
 50
195.9542434294
 51
208.4693494853
  0
SPLINE
  5
EF
330
1F
100
AcDbEntity
  8
0
  6
Continuous
 62
     7
370
    25
100
AcDbSpline
210
0.0
220
0.0
230
1.0
 70
     8
 71
     3
 72
    11
 73
     7
 74
     0
 42
0.00000001
 43
0.00000001
 40
0.0
 40
0.0
 40
0.0
 40
0.0
 40
0.3703424215671228
 40
0.808173663167896
 40
0.9944317652533816
 40
1.0
 40
1.0
 40
1.0
 40
1.0
 10
64.9477765707333
 20
71.34782762263539
 30
0.0
 10
65.27977053700148
 20
71.4840455593509
 30
0.0
 10
66.00425891382108
 20
71.7813049131098
 30
0.0
 10
66.93438465937903
 20
71.93537787653119
 30
0.0
 10
67.52122235892146
 20
71.96161665258454
 30
0.0
 10
67.70015362395134
 20
71.96175511013847
 30
0.0
 10
67.70534754728662
 20
71.96175912921206
 30
0.0
  0
SPLINE
  5
F0
330
1F
100
AcDbEntity
  8
0
  6
Continuous
 62
     7
370
    25
100
AcDbSpline
210
0.0
220
0.0
230
1.0
 70
     8
 71
     3
 72
    17
 73
    13
 74
     0
 42
0.00000001
 43
0.00000001
 40
0.0
 40
0.0
 40
0.0
 40
0.0
 40
0.0051037386011221
 40
0.0335545146957983
 40
0.0512404508407057
 40
0.0783256082042157
 40
0.1200097101225869
 40
0.1849422108378776
 40
0.2894088209386601
 40
0.6174789247950605
 40
0.835601474844878
 40
1.0
 40
1.0
 40
1.0
 40
1.0
 10
67.70534754728662
 20
71.96175912921206
 30
0.0
 10
67.7008337303637
 20
71.96175263698555
 30
0.0
 10
67.67115765403784
 20
71.96170995386113
 30
0.0
 10
67.62583873698215
 20
71.96091307392884
 30
0.0
 10
67.56109045961577
 20
71.95849071725088
 30
0.0
 10
67.48465460691423
 20
71.95410749210296
 30
0.0
 10
67.36650639796387
 20
71.94374205612705
 30
0.0
 10
67.18017048693584
 20
71.91855536798472
 30
0.0
 10
66.7424727067663
 20
71.82660192974924
 30
0.0
 10
66.17442531682258
 20
71.59390134936905
 30
0.0
 10
65.57900564505337
 20
71.20096276088307
 30
0.0
 10
65.28587712918056
 20
70.94035162788377
 30
0.0
 10
65.15989741508355
 20
70.82834711707052
 30
0.0
  0
ARC
  5
F1
330
1F
100
AcDbEntity
  8
0
  6
Continuous
 62
     7
370
    25
100
AcDbCircle
 10
63.142404583
 20
69.6859816946
 30
0.0
 40
1.252349853183336
100
AcDbArc
 50
219.7659527059
 51
244.5790017319
  0
ARC
  5
F2
330
1F
100
AcDbEntity
  8
0
  6
Continuous
 62
     7
370
    25
100
AcDbCircle
 10
67.7053475473
 20
65.4617591292
 30
0.0
 40
6.499999999999995
100
AcDbArc
 50
115.1026742168
 51
148.221357821
  0
ARC
  5
F3
330
1F
100
AcDbEntity
  8
0
  6
Continuous
 62
     7
370
    25
100
AcDbCircle
 10
67.7053475473
 20
65.4617591292
 30
0.0
 40
6.500000000000004
100
AcDbArc
 50
308.4313932617
 51
64.8973257832
  0
ARC
  5
F4
330
1F
100
AcDbEntity
  8
0
  6
Continuous
 62
     7
370
    25
100
AcDbCircle
 10
72.5353908348
 20
61.4363877246
 30
0.0
 40
1.327038068257868
100
AcDbArc
 50
213.9678392762
 51
233.4763769747
  0
ARC
  5
F5
330
1F
100
AcDbEntity
  8
0
  6
Continuous
 62
     7
370
    25
100
AcDbCircle
 10
38.7053475473
 20
65.4617591292
 30
0.0
 40
6.499999999999999
100
AcDbArc
 50
31.778642179
 51
64.8973257832
  0
ARC
  5
F6
330
1F
100
AcDbEntity
  8
0
  6
Continuous
 62
     7
370
    25
100
AcDbCircle
 10
43.2682905116
 20
69.6859816946
 30
0.0
 40
1.25234985318348
100
AcDbArc
 50
295.4209982681
 51
320.2340472941
  0
ARC
  5
F7
330
1F
100
AcDbEntity
  8
0
  6
Continuous
 62
     7
370
    25
100
AcDbCircle
 10
33.8753042598
 20
61.4363877246
 30
0.0
 40
1.327038068258185
100
AcDbArc
 50
306.5236230253
 51
326.0321607238
  0
ARC
  5
F8
330
1F
100
AcDbEntity
  8
0
  6
Continuous
 62
     7
370
    25
100
AcDbCircle
 10
38.7053475473
 20
65.4617591292
 30
0.0
 40
6.500000000000004
100
AcDbArc
 50
115.1026742168
 51
231.5686067383
  0
ARC
  5
F9
330
1F
100
AcDbEntity
  8
0
  6
Continuous
 62
     7
370
    25
100
AcDbCircle
 10
60.4795905012
 20
69.9381901978
 30
0.0
 40
2.000000000000004
100
AcDbArc
 50
227.5796275115
 51
328.221357821
  0
SPLINE
  5
FA
330
1F
100
AcDbEntity
  8
0
  6
Continuous
 62
     7
370
    25
100
AcDbSpline
210
0.0
220
0.0
230
1.0
 70
    24
 71
     3
 72
    12
 73
     8
 74
     0
 42
0.00000001
 43
0.00000001
 40
0.0
 40
0.0
 40
0.0
 40
0.0
 40
0.2571943124574416
 40
0.524550343975796
 40
0.7385170215182983
 40
0.8882338470637771
 40
1.0
 40
1.0
 40
1.0
 40
1.0
 10
58.41496577789309
 20
68.46175912921208
 30
0.0
 10
58.49966405541422
 20
68.46175912921208
 30
0.0
 10
58.67240703010663
 20
68.46175912921208
 30
0.0
 10
58.89163205887147
 20
68.46175912921208
 30
0.0
 10
59.04101183425084
 20
68.46175912921207
 30
0.0
 10
59.1184083508449
 20
68.46175912921207
 30
0.0
 10
59.12685171000873
 20
68.46175912921207
 30
0.0
 10
59.13046067062665
 20
68.46175912921208
 30
0.0
  0
ARC
  5
FB
330
1F
100
AcDbEntity
  8
0
  6
Continuous
 62
     7
370
    25
100
AcDbCircle
 10
45.9311045933
 20
69.9381901978
 30
0.0
 40
1.999999999999991
100
AcDbArc
 50
211.778642179
 51
312.4203724885
  0
SPLINE
  5
FC
330
1F
100
AcDbEntity
  8
0
  6
Continuous
 62
     7
370
    25
100
AcDbSpline
210
0.0
220
0.0
230
1.0
 70
    24
 71
     3
 72
    12
 73
     8
 74
     0
 42
0.00000001
 43
0.00000001
 40
0.0
 40
0.0
 40
0.0
 40
0.0
 40
0.144300502635625
 40
0.2873275205918761
 40
0.5201185386439748
 40
0.7602843466484799
 40
1.0
 40
1.0
 40
1.0
 40
1.0
 10
47.28023442394657
 20
68.4617591292121
 30
0.0
 10
47.28621868397106
 20
68.46175912921211
 30
0.0
 10
47.29813439156744
 20
68.4617591292121
 30
0.0
 10
47.39151961376381
 20
68.4617591292121
 30
0.0
 10
47.54427755716549
 20
68.4617591292121
 30
0.0
 10
47.75874347235375
 20
68.4617591292121
 30
0.0
 10
47.9167834519085
 20
68.4617591292121
 30
0.0
 10
47.99572931668013
 20
68.4617591292121
 30
0.0
  0
SPLINE
  5
FD
330
1F
100
AcDbEntity
  8
0
  6
Continuous
 62
     7
370
    25
100
AcDbSpline
210
0.0
220
0.0
230
1.0
 70
     8
 71
     3
 72
    16
 73
    12
 74
     0
 42
0.00000001
 43
0.00000001
 40
0.0
 40
0.0
 40
0.0
 40
0.0
 40
0.0093770372722067
 40
0.1449784074793551
 40
0.278252279246638
 40
0.4010913490990482
 40
0.5131542856948397
 40
0.6266888454485822
 40
0.7537408321063422
 40
0.8891748694388528
 40
1.0
 40
1.0
 40
1.0
 40
1.0
 10
42.22787997121161
 20
59.99899743549006
 30
0.0
 10
42.23970770823929
 20
60.00651226398
 30
0.0
 10
42.42257639357977
 20
60.12269905468222
 30
0.0
 10
42.82769462969744
 20
60.29313383368974
 30
0.0
 10
43.44550121399721
 20
60.34408501058138
 30
0.0
 10
44.01265973899686
 20
60.21808955075538
 30
0.0
 10
44.48680803141489
 20
59.96323904355847
 30
0.0
 10
44.85803930719111
 20
59.61638290404149
 30
0.0
 10
45.09294498462076
 20
59.25288808455379
 30
0.0
 10
45.1916238586638
 20
59.00421819900819
 30
0.0
 10
45.2010882847722
 20
58.97493666550702
 30
0.0
 10
45.20534760339219
 20
58.96175896414038
 30
0.0
  0
SPLINE
  5
FE
330
1F
100
AcDbEntity
  8
0
  6
Continuous
 62
     7
370
    25
100
AcDbSpline
210
0.0
220
0.0
230
1.0
 70
     8
 71
     3
 72
    15
 73
    11
 74
     0
 42
0.00000001
 43
0.00000001
 40
0.0
 40
0.0
 40
0.0
 40
0.0
 40
0.1525119975281642
 40
0.3103908680493851
 40
0.5397217434700959
 40
0.7785238912153802
 40
0.9076867233570571
 40
0.9610458274988164
 40
0.9967059666277489
 40
1.0
 40
1.0
 40
1.0
 40
1.0
 10
34.97588503710152
 20
60.69493510492904
 30
0.0
 10
35.14446388071339
 20
60.52749918743912
 30
0.0
 10
35.48755383069446
 20
60.18673530909083
 30
0.0
 10
36.13638534640394
 20
59.70790112507188
 30
0.0
 10
36.92181413830911
 20
59.28870205507362
 30
0.0
 10
37.69487549566252
 20
59.05579876885527
 30
0.0
 10
38.24437725991103
 20
58.98035248242427
 30
0.0
 10
38.5294601230346
 20
58.96406764983706
 30
0.0
 10
38.65012512303921
 20
58.96181072441522
 30
0.0
 10
38.70104193229995
 20
58.96176315201776
 30
0.0
 10
38.70534754728659
 20
58.96175912921212
 30
0.0
  0
SPLINE
  5
FF
330
1F
100
AcDbEntity
  8
0
  6
Continuous
 62
     7
370
    25
100
AcDbSpline
210
0.0
220
0.0
230
1.0
 70
     8
 71
     3
 72
    12
 73
     8
 74
     0
 42
0.00000001
 43
0.00000001
 40
0.0
 40
0.0
 40
0.0
 40
0.0
 40
0.0039142694629097
 40
0.2613995162853427
 40
0.5232483696209405
 40
0.758964717915055
 40
1.0
 40
1.0
 40
1.0
 40
1.0
 10
38.70534754728659
 20
58.96175912921212
 30
0.0
 10
38.71004767808326
 20
58.96176253546695
 30
0.0
 10
39.02392793808248
 20
58.96199000916871
 30
0.0
 10
39.65304708662399
 20
59.00775386432628
 30
0.0
 10
40.55246966711429
 20
59.20903416015125
 30
0.0
 10
41.42033037259363
 20
59.5258358860101
 30
0.0
 10
41.95670207437271
 20
59.84010818079587
 30
0.0
 10
42.22787997121161
 20
59.99899743549006
 30
0.0
  0
SPLINE
  5
100
330
1F
100
AcDbEntity
  8
0
  6
Continuous
 62
     7
370
    25
100
AcDbSpline
210
0.0
220
0.0
230
1.0
 70
     8
 71
     3
 72
    15
 73
    11
 74
     0
 42
0.00000001
 43
0.00000001
 40
0.0
 40
0.0
 40
0.0
 40
0.0
 40
0.0032941481656678
 40
0.0389555300109776
 40
0.0923164936584506
 40
0.2214838269818524
 40
0.4557558860746467
 40
0.6896123828215199
 40
0.8449486292273379
 40
1.0
 40
1.0
 40
1.0
 40
1.0
 10
67.7053475472866
 20
58.96175912921208
 30
0.0
 10
67.7096531613508
 20
58.9617631532663
 30
0.0
 10
67.7605699597031
 20
58.96181074042921
 30
0.0
 10
67.88123585096483
 20
58.96406645946686
 30
0.0
 10
68.16630999860473
 20
58.9803630891227
 30
0.0
 10
68.71000467014612
 20
59.05484536491839
 30
0.0
 10
69.48228671031814
 20
59.28730500652537
 30
0.0
 10
70.2659862329299
 20
59.70182757217451
 30
0.0
 10
70.91966389402121
 20
60.18476608703002
 30
0.0
 10
71.26319976942324
 20
60.52498284996387
 30
0.0
 10
71.43481005747168
 20
60.69493510492898
 30
0.0
  0
SPLINE
  5
101
330
1F
100
AcDbEntity
  8
0
  6
Continuous
 62
     7
370
    25
100
AcDbSpline
210
0.0
220
0.0
230
1.0
 70
     8
 71
     3
 72
    14
 73
    10
 74
     0
 42
0.00000001
 43
0.00000001
 40
0.0
 40
0.0
 40
0.0
 40
0.0
 40
0.1525945052627503
 40
0.3054077645105588
 40
0.5406281452054326
 40
0.7761410232968945
 40
0.9796791864300268
 40
0.9965136875876045
 40
1.0
 40
1.0
 40
1.0
 40
1.0
 10
71.7455985999871
 20
60.36996460948207
 30
0.0
 10
71.5576140785878
 20
60.2304074732297
 30
0.0
 10
71.18137554795203
 20
59.9510931366424
 30
0.0
 10
70.47249026894369
 20
59.56018918480235
 30
0.0
 10
69.62627507881123
 20
59.22443982677887
 30
0.0
 10
68.69066165227252
 20
59.01455055993205
 30
0.0
 10
68.05205985453068
 20
58.96424491147371
 30
0.0
 10
67.73867677993749
 20
58.9617830647506
 30
0.0
 10
67.71022827575304
 20
58.9617626343292
 30
0.0
 10
67.7053475472866
 20
58.96175912921208
 30
0.0
  0
SPLINE
  5
102
330
1F
100
AcDbEntity
  8
0
  6
Continuous
 62
     7
370
    25
100
AcDbSpline
210
0.0
220
0.0
230
1.0
 70
     8
 71
     3
 72
    14
 73
    10
 74
     0
 42
0.00000001
 43
0.00000001
 40
0.0
 40
0.0
 40
0.0
 40
0.0
 40
0.0034863124123955
 40
0.0203208135699722
 40
0.2238589767031065
 40
0.4593718547945684
 40
0.694592235489442
 40
0.8474054947372491
 40
1.0
 40
1.0
 40
1.0
 40
1.0
 10
38.70534754728659
 20
58.96175912921213
 30
0.0
 10
38.70046681882015
 20
58.96176263432924
 30
0.0
 10
38.67201831463571
 20
58.96178306475065
 30
0.0
 10
38.3586352400425
 20
58.96424491147374
 30
0.0
 10
37.72003344230068
 20
59.01455055993209
 30
0.0
 10
36.78442001576195
 20
59.22443982677893
 30
0.0
 10
35.93820482562951
 20
59.56018918480241
 30
0.0
 10
35.22931954662116
 20
59.95109313664245
 30
0.0
 10
34.8530810159854
 20
60.23040747322975
 30
0.0
 10
34.6650964945861
 20
60.36996460948212
 30
0.0
  0
SPLINE
  5
103
330
1F
100
AcDbEntity
  8
0
  6
Continuous
 62
     7
370
    25
100
AcDbSpline
210
0.0
220
0.0
230
1.0
 70
     8
 71
     3
 72
    16
 73
    12
 74
     0
 42
0.00000001
 43
0.00000001
 40
0.0
 40
0.0
 40
0.0
 40
0.0
 40
0.0400879241033624
 40
0.1620524644868242
 40
0.273689418946181
 40
0.3878458116547636
 40
0.5157289207825614
 40
0.651286669717973
 40
0.784517668940776
 40
0.9073172229945055
 40
1.0
 40
1.0
 40
1.0
 40
1.0
 10
61.20534749118109
 20
58.96175896414037
 30
0.0
 10
61.20597050584802
 20
58.96356023162613
 30
0.0
 10
61.20848899650187
 20
58.97084172204493
 30
0.0
 10
61.24401425542478
 20
59.07593377872798
 30
0.0
 10
61.36631602867335
 20
59.33680178251467
 30
0.0
 10
61.61391051836522
 20
59.68777378086779
 30
0.0
 10
62.03919536500696
 20
60.05038518068764
 30
0.0
 10
62.61473521608384
 20
60.29337237380138
 30
0.0
 10
63.23151114095405
 20
60.3429000116756
 30
0.0
 10
63.77418257510858
 20
60.22840989001257
 30
0.0
 10
64.05991607231469
 20
60.0679948099765
 30
0.0
 10
64.18281512336159
 20
59.99899743549008
 30
0.0
  0
SPLINE
  5
104
330
1F
100
AcDbEntity
  8
0
  6
Continuous
 62
     7
370
    25
100
AcDbSpline
210
0.0
220
0.0
230
1.0
 70
     8
 71
     3
 72
    12
 73
     8
 74
     0
 42
0.00000001
 43
0.00000001
 40
0.0
 40
0.0
 40
0.0
 40
0.0
 40
0.2353653050919988
 40
0.4767533333124099
 40
0.7341407436541078
 40
0.9960857492732753
 40
1.0
 40
1.0
 40
1.0
 40
1.0
 10
64.18281512336159
 20
59.99899743549008
 30
0.0
 10
64.4475136410567
 20
59.84359072728626
 30
0.0
 10
64.98368400220943
 20
59.52880063481143
 30
0.0
 10
65.84625650709752
 20
59.21245232140236
 30
0.0
 10
66.75223946234483
 20
59.00853620981119
 30
0.0
 10
67.38141060802732
 20
58.96199387804704
 30
0.0
 10
67.70064741785704
 20
58.96176253527595
 30
0.0
 10
67.7053475472866
 20
58.96175912921208
 30
0.0
  0
SPLINE
  5
105
330
1F
100
AcDbEntity
  8
0
  6
Continuous
 62
     7
370
    25
100
AcDbSpline
210
0.0
220
0.0
230
1.0
 70
     8
 71
     3
 72
    22
 73
    18
 74
     0
 42
0.00000001
 43
0.00000001
 40
0.0
 40
0.0
 40
0.0
 40
0.0
 40
0.2500000000000008
 40
0.2500000000000008
 40
0.3750000000000012
 40
0.3750000000000012
 40
0.4375000000000006
 40
0.4375000000000006
 40
0.5
 40
0.5
 40
0.5624999999999994
 40
0.5624999999999994
 40
0.6249999999999988
 40
0.6249999999999988
 40
0.7499999999999992
 40
0.7499999999999992
 40
1.0
 40
1.0
 40
1.0
 40
1.0
 10
52.53601590478322
 20
30.4617591292121
 30
0.0
 10
52.60555305402058
 20
30.28707760562857
 30
0.0
 10
52.68297816219393
 20
30.11431440628564
 30
0.0
 10
52.83239891730685
 20
29.87679734601074
 30
0.0
 10
52.88782186529301
 20
29.80050795244499
 30
0.0
 10
52.99144044180407
 20
29.703631918892
 30
0.0
 10
53.02926057977848
 20
29.67474296827914
 30
0.0
 10
53.11397060767789
 20
29.63210001035715
 30
0.0
 10
53.16087528645907
 20
29.61929503726909
 30
0.0
 10
53.25520091055665
 20
29.62025047410824
 30
0.0
 10
53.30213696209083
 20
29.63408532203649
 30
0.0
 10
53.38598607483473
 20
29.67786695001658
 30
0.0
 10
53.42335653382135
 20
29.70700234812207
 30
0.0
 10
53.52612822980034
 20
29.80456250563485
 30
0.0
 10
53.58071055162439
 20
29.88021911550295
 30
0.0
 10
53.72974515000111
 20
30.11839999326827
 30
0.0
 10
53.80606076696354
 20
30.28938550192525
 30
0.0
 10
53.87467918979002
 20
30.46175912921208
 30
0.0
  0
LINE
  5
106
330
1F
100
AcDbEntity
  8
0
  6
Continuous
 62
     7
370
    25
100
AcDbLine
 10
52.5360159048
 20
30.4617591292
 30
0.0
 11
48.5865453938
 21
30.4617591292
 31
0.0
  0
LINE
  5
107
330
1F
100
AcDbEntity
  8
0
  6
Continuous
 62
     7
370
    25
100
AcDbLine
 10
48.5865453938
 20
33.4953625894
 30
0.0
 11
48.5865453938
 21
30.4617591292
 31
0.0
  0
SPLINE
  5
108
330
1F
100
AcDbEntity
  8
0
  6
Continuous
 62
     7
370
    25
100
AcDbSpline
210
0.0
220
0.0
230
1.0
 70
     8
 71
     3
 72
     8
 73
     4
 74
     0
 42
0.00000001
 43
0.00000001
 40
0.0
 40
0.0
 40
0.0
 40
0.0
 40
1.0
 40
1.0
 40
1.0
 40
1.0
 10
48.58654539376956
 20
33.49536258935711
 30
0.0
 10
48.79173121631285
 20
33.55192355648133
 30
0.0
 10
48.99795441702017
 20
33.60586362789516
 30
0.0
 10
49.2053475472866
 20
33.65684791763812
 30
0.0
  0
LINE
  5
109
330
1F
100
AcDbEntity
  8
0
  6
Continuous
 62
     7
370
    25
100
AcDbLine
 10
49.2053475473
 20
33.6568479176
 30
0.0
 11
49.2053475473
 21
37.4617591292
 31
0.0
  0
LINE
  5
10A
330
1F
100
AcDbEntity
  8
0
  6
Continuous
 62
     7
370
    25
100
AcDbLine
 10
49.2053475473
 20
37.4617591292
 30
0.0
 11
46.6891114703
 21
37.4617591292
 31
0.0
  0
SPLINE
  5
10B
330
1F
100
AcDbEntity
  8
0
  6
Continuous
 62
     7
370
    25
100
AcDbSpline
210
0.0
220
0.0
230
1.0
 70
     8
 71
     3
 72
     8
 73
     4
 74
     0
 42
0.00000001
 43
0.00000001
 40
0.0
 40
0.0
 40
0.0
 40
0.0
 40
1.0
 40
1.0
 40
1.0
 40
1.0
 10
46.52762614202641
 20
36.84295697569506
 30
0.0
 10
46.58418951149464
 20
37.04815151320483
 30
0.0
 10
46.63812943431589
 20
37.25437516672199
 30
0.0
 10
46.68911147030742
 20
37.4617591292121
 30
0.0
  0
LINE
  5
10C
330
1F
100
AcDbEntity
  8
0
  6
Continuous
 62
     7
370
    25
100
AcDbLine
 10
42.3830689525
 20
36.8429569757
 30
0.0
 11
46.527626142
 21
36.8429569757
 31
0.0
  0
SPLINE
  5
10D
330
1F
100
AcDbEntity
  8
0
  6
Continuous
 62
     7
370
    25
100
AcDbSpline
210
0.0
220
0.0
230
1.0
 70
     8
 71
     3
 72
    10
 73
     6
 74
     0
 42
0.00000001
 43
0.00000001
 40
0.0
 40
0.0
 40
0.0
 40
0.0
 40
0.5
 40
0.5
 40
1.0
 40
1.0
 40
1.0
 40
1.0
 10
42.38306895254678
 20
36.8429569756951
 30
0.0
 10
42.17426361332289
 20
37.60043863590064
 30
0.0
 10
42.00371676916374
 20
38.36290618434411
 30
0.0
 10
41.76893444178192
 20
39.90137031868348
 30
0.0
 10
41.70534754728659
 20
40.67749299712604
 30
0.0
 10
41.70534754728659
 20
41.4617591292121
 30
0.0
  0
SPLINE
  5
10E
330
1F
100
AcDbEntity
  8
0
  6
Continuous
 62
     7
370
    25
100
AcDbSpline
210
0.0
220
0.0
230
1.0
 70
     8
 71
     3
 72
    12
 73
     8
 74
     0
 42
0.00000001
 43
0.00000001
 40
0.0
 40
0.0
 40
0.0
 40
0.0
 40
0.25
 40
0.25
 40
0.5
 40
0.5
 40
1.0
 40
1.0
 40
1.0
 40
1.0
 10
41.70534754728659
 20
41.4617591292121
 30
0.0
 10
41.70534754728659
 20
41.85343105558703
 30
0.0
 10
41.72125335295477
 20
42.24833394710863
 30
0.0
 10
41.78309822384719
 20
43.02926997735592
 30
0.0
 10
41.82891156471339
 20
43.4166781092872
 30
0.0
 10
42.00574473861575
 20
44.57080773594718
 30
0.0
 10
42.17602300211939
 20
45.32946214488371
 30
0.0
 10
42.38306895254678
 20
46.08056128272911
 30
0.0
  0
LINE
  5
10F
330
1F
100
AcDbEntity
  8
0
  6
Continuous
 62
     7
370
    25
100
AcDbLine
 10
46.527626142
 20
46.0805612827
 30
0.0
 11
42.3830689525
 21
46.0805612827
 31
0.0
  0
SPLINE
  5
110
330
1F
100
AcDbEntity
  8
0
  6
Continuous
 62
     7
370
    25
100
AcDbSpline
210
0.0
220
0.0
230
1.0
 70
     8
 71
     3
 72
     8
 73
     4
 74
     0
 42
0.00000001
 43
0.00000001
 40
0.0
 40
0.0
 40
0.0
 40
0.0
 40
1.0
 40
1.0
 40
1.0
 40
1.0
 10
46.68911147030742
 20
45.4617591292121
 30
0.0
 10
46.6382127533849
 20
45.6688041676411
 30
0.0
 10
46.58427861713414
 20
45.87504349731773
 30
0.0
 10
46.5276261420264
 20
46.08056128272911
 30
0.0
  0
SPLINE
  5
111
330
1F
100
AcDbEntity
  8
0
  6
Continuous
 62
     7
370
    25
100
AcDbSpline
210
0.0
220
0.0
230
1.0
 70
     8
 71
     3
 72
     8
 73
     4
 74
     0
 42
0.00000001
 43
0.00000001
 40
0.0
 40
0.0
 40
0.0
 40
0.0
 40
1.0
 40
1.0
 40
1.0
 40
1.0
 10
59.72158362426578
 20
45.46175912921218
 30
0.0
 10
59.77247985752086
 20
45.66879406461593
 30
0.0
 10
59.82641381248451
 20
45.87503382968092
 30
0.0
 10
59.88306895254678
 20
46.08056128272912
 30
0.0
  0
LINE
  5
112
330
1F
100
AcDbEntity
  8
0
  6
Continuous
 62
     7
370
    25
100
AcDbLine
 10
64.027626142
 20
46.0805612827
 30
0.0
 11
59.8830689525
 21
46.0805612827
 31
0.0
  0
SPLINE
  5
113
330
1F
100
AcDbEntity
  8
0
  6
Continuous
 62
     7
370
    25
100
AcDbSpline
210
0.0
220
0.0
230
1.0
 70
     8
 71
     3
 72
    12
 73
     8
 74
     0
 42
0.00000001
 43
0.00000001
 40
0.0
 40
0.0
 40
0.0
 40
0.0
 40
0.25
 40
0.25
 40
0.5
 40
0.5
 40
1.0
 40
1.0
 40
1.0
 40
1.0
 10
64.70534754728659
 20
41.4617591292121
 30
0.0
 10
64.70534754728659
 20
41.85343105558703
 30
0.0
 10
64.68944174161841
 20
42.24833394710863
 30
0.0
 10
64.62759687072598
 20
43.02926997735593
 30
0.0
 10
64.5817835298598
 20
43.4166781092872
 30
0.0
 10
64.40495035595742
 20
44.57080773594718
 30
0.0
 10
64.23467209245379
 20
45.32946214488371
 30
0.0
 10
64.02762614202639
 20
46.08056128272911
 30
0.0
  0
SPLINE
  5
114
330
1F
100
AcDbEntity
  8
0
  6
Continuous
 62
     7
370
    25
100
AcDbSpline
210
0.0
220
0.0
230
1.0
 70
     8
 71
     3
 72
    10
 73
     6
 74
     0
 42
0.00000001
 43
0.00000001
 40
0.0
 40
0.0
 40
0.0
 40
0.0
 40
0.5
 40
0.5
 40
1.0
 40
1.0
 40
1.0
 40
1.0
 10
64.02762614202639
 20
36.8429569756951
 30
0.0
 10
64.23643148125029
 20
37.60043863590064
 30
0.0
 10
64.40697832540944
 20
38.36290618434411
 30
0.0
 10
64.64176065279128
 20
39.90137031868348
 30
0.0
 10
64.70534754728659
 20
40.67749299712604
 30
0.0
 10
64.70534754728659
 20
41.4617591292121
 30
0.0
  0
LINE
  5
115
330
1F
100
AcDbEntity
  8
0
  6
Continuous
 62
     7
370
    25
100
AcDbLine
 10
59.8830689525
 20
36.8429569757
 30
0.0
 11
64.027626142
 21
36.8429569757
 31
0.0
  0
SPLINE
  5
116
330
1F
100
AcDbEntity
  8
0
  6
Continuous
 62
     7
370
    25
100
AcDbSpline
210
0.0
220
0.0
230
1.0
 70
     8
 71
     3
 72
     8
 73
     4
 74
     0
 42
0.00000001
 43
0.00000001
 40
0.0
 40
0.0
 40
0.0
 40
0.0
 40
1.0
 40
1.0
 40
1.0
 40
1.0
 10
59.88306895254677
 20
36.84295697569507
 30
0.0
 10
59.82650710910983
 20
37.04814597723188
 30
0.0
 10
59.77256709185345
 20
37.25436934329658
 30
0.0
 10
59.72158362426578
 20
37.46175912921204
 30
0.0
  0
SPLINE
  5
117
330
1F
100
AcDbEntity
  8
0
  6
Continuous
 62
     7
370
    25
100
AcDbSpline
210
0.0
220
0.0
230
1.0
 70
     8
 71
     3
 72
     8
 73
     4
 74
     0
 42
0.00000001
 43
0.00000001
 40
0.0
 40
0.0
 40
0.0
 40
0.0
 40
1.0
 40
1.0
 40
1.0
 40
1.0
 10
57.20534754728659
 20
33.65684791763812
 30
0.0
 10
57.41237661062198
 20
33.60595312793729
 30
0.0
 10
57.61861662789133
 20
33.55201927857586
 30
0.0
 10
57.8241497008036
 20
33.4953625893571
 30
0.0
  0
LINE
  5
118
330
1F
100
AcDbEntity
  8
0
  6
Continuous
 62
     7
370
    25
100
AcDbLine
 10
57.8241497008
 20
30.4617591292
 30
0.0
 11
57.8241497008
 21
33.4953625894
 31
0.0
  0
LINE
  5
119
330
1F
100
AcDbEntity
  8
0
  6
Continuous
 62
     7
370
    25
100
AcDbLine
 10
57.8241497008
 20
30.4617591292
 30
0.0
 11
53.8746791898
 21
30.4617591292
 31
0.0
  0
LINE
  5
11A
330
1F
100
AcDbEntity
  8
0
  6
Continuous
 62
     7
370
    25
100
AcDbLine
 10
52.3035886333
 20
40.0393861116
 30
0.0
 11
52.261938314
 21
40.0155811818
 31
0.0
  0
ELLIPSE
  5
11B
330
1F
100
AcDbEntity
  8
0
  6
Continuous
 62
     7
370
    25
100
AcDbEllipse
 10
51.9130951345
 20
40.570263653
 30
0.0
 11
0.678412947925267
 21
6.110667527536863E-13
 31
0.0
210
0.0
220
0.0
230
1.0
 40
0.9533039403
 41
3.470145824140282
 42
5.252469180536294
  0
LINE
  5
11C
330
1F
100
AcDbEntity
  8
0
  6
Continuous
 62
     7
370
    25
100
AcDbLine
 10
51.2709703675
 20
40.361579538
 30
0.0
 11
50.0113161625
 21
43.8840239347
 31
0.0
  0
ELLIPSE
  5
11D
330
1F
100
AcDbEntity
  8
0
  6
Continuous
 62
     7
370
    25
100
AcDbEllipse
 10
49.4203336046
 20
43.6216846986
 30
0.0
 11
0.6519124952381503
 21
6.110667527536862E-13
 31
0.0
210
0.0
220
0.0
230
1.0
 40
0.9533023292
 41
0.4357905044354864
 42
2.705800116361515
  0
LINE
  5
11E
330
1F
100
AcDbEntity
  8
0
  6
Continuous
 62
     7
370
    25
100
AcDbLine
 10
48.8293516061
 20
43.8840250799
 30
0.0
 11
47.5699868045
 21
40.3624016782
 31
0.0
  0
ELLIPSE
  5
11F
330
1F
100
AcDbEntity
  8
0
  6
Continuous
 62
     7
370
    25
100
AcDbEllipse
 10
46.9278656204
 20
40.5710845119
 30
0.0
 11
-0.6784085062757796
 21
3.268496584496460E-13
 31
0.0
210
0.0
220
0.0
230
1.0
 40
0.9533122623
 41
1.047193771187954
 42
2.813042320199924
  0
LINE
  5
120
330
1F
100
AcDbEntity
  8
0
  6
Continuous
 62
     7
370
    25
100
AcDbLine
 10
46.5886591465
 20
40.0109966666
 30
0.0
 11
46.5370785759
 21
40.0393861116
 31
0.0
  0
LINE
  5
121
330
1F
100
AcDbEntity
  8
0
  6
Continuous
 62
     7
370
    25
100
AcDbLine
 10
46.5370785759
 20
40.0393861116
 30
0.0
 11
47.3333472355
 21
38.5212140102
 31
0.0
  0
ELLIPSE
  5
122
330
1F
100
AcDbEntity
  8
0
  6
Continuous
 62
     7
370
    25
100
AcDbEllipse
 10
47.4091961089
 20
38.5573675251
 30
0.0
 11
0.08480161849064416
 21
-2.131628207280301E-14
 31
0.0
210
0.0
220
0.0
230
1.0
 40
0.9533039403
 41
3.605240262590874
 42
5.462183310215275
  0
ELLIPSE
  5
123
330
1F
100
AcDbEntity
  8
0
  6
Continuous
 62
     7
370
    25
100
AcDbEllipse
 10
49.4203336046
 20
36.4985189046
 30
0.0
 11
2.866293551216202
 21
-1.485034317738609E-12
 31
0.0
210
0.0
220
0.0
230
1.0
 40
0.9533046568
 41
0.8210016221243791
 42
2.320591031466438
  0
ELLIPSE
  5
124
330
1F
100
AcDbEntity
  8
0
  6
Continuous
 62
     7
370
    25
100
AcDbEllipse
 10
51.4314711004
 20
38.5573675251
 30
0.0
 11
0.08480161849060863
 21
0.0
 31
0.0
210
0.0
220
0.0
230
1.0
 40
0.9533039403
 41
3.962594650556448
 42
5.819537698177215
  0
LINE
  5
125
330
1F
100
AcDbEntity
  8
0
  6
Continuous
 62
     7
370
    25
100
AcDbLine
 10
51.5073199738
 20
38.5212140102
 30
0.0
 11
52.3035886333
 21
40.0393861116
 31
0.0
  0
ARC
  5
126
330
1F
100
AcDbEntity
  8
0
  6
Continuous
 62
     7
370
    25
100
AcDbCircle
 10
58.0982234994
 20
40.8848401359
 30
0.0
 40
0.8889999999999868
100
AcDbArc
 50
45.0
 51
159.0751675724
  0
LINE
  5
127
330
1F
100
AcDbEntity
  8
0
  6
Continuous
 62
     7
370
    25
100
AcDbLine
 10
58.7268414278
 20
41.5134580644
 30
0.0
 11
59.1934518135
 21
41.98006845
 31
0.0
  0
ARC
  5
128
330
1F
100
AcDbEntity
  8
0
  6
Continuous
 62
     7
370
    25
100
AcDbCircle
 10
58.0982234994
 20
40.8848401359
 30
0.0
 40
1.548886735692379
100
AcDbArc
 50
45.0
 51
315.0
  0
LINE
  5
129
330
1F
100
AcDbEntity
  8
0
  6
Continuous
 62
     7
370
    25
100
AcDbLine
 10
59.1934518135
 20
39.7896118218
 30
0.0
 11
58.7268414278
 21
40.2562222074
 31
0.0
  0
ARC
  5
12A
330
1F
100
AcDbEntity
  8
0
  6
Continuous
 62
     7
370
    25
100
AcDbCircle
 10
58.0982234994
 20
40.8848401359
 30
0.0
 40
0.8890000000000032
100
AcDbArc
 50
200.9248324276
 51
315.0
  0
LINE
  5
12B
330
1F
100
AcDbEntity
  8
0
  6
Continuous
 62
     7
370
    25
100
AcDbLine
 10
57.2678532506
 20
40.5673401359
 30
0.0
 11
59.1934518135
 21
40.5673401359
 31
0.0
  0
LINE
  5
12C
330
1F
100
AcDbEntity
  8
0
  6
Continuous
 62
     7
370
    25
100
AcDbLine
 10
59.1934518135
 20
40.5673401359
 30
0.0
 11
59.1934518135
 21
41.2023401359
 31
0.0
  0
LINE
  5
12D
330
1F
100
AcDbEntity
  8
0
  6
Continuous
 62
     7
370
    25
100
AcDbLine
 10
59.1934518135
 20
41.2023401359
 30
0.0
 11
57.2678532506
 21
41.2023401359
 31
0.0
  0
ARC
  5
12E
330
1F
100
AcDbEntity
  8
0
  6
Continuous
 62
     7
370
    25
100
AcDbCircle
 10
54.756078903
 20
40.8848401359
 30
0.0
 40
0.8890000000000019
100
AcDbArc
 50
45.0
 51
315.0
  0
LINE
  5
12F
330
1F
100
AcDbEntity
  8
0
  6
Continuous
 62
     7
370
    25
100
AcDbLine
 10
55.3846968315
 20
41.5134580644
 30
0.0
 11
55.8513072171
 21
41.98006845
 31
0.0
  0
ARC
  5
130
330
1F
100
AcDbEntity
  8
0
  6
Continuous
 62
     7
370
    25
100
AcDbCircle
 10
54.756078903
 20
40.8848401359
 30
0.0
 40
1.548886735692404
100
AcDbArc
 50
45.0
 51
315.0
  0
LINE
  5
131
330
1F
100
AcDbEntity
  8
0
  6
Continuous
 62
     7
370
    25
100
AcDbLine
 10
55.8513072171
 20
39.7896118218
 30
0.0
 11
55.3846968315
 21
40.2562222074
 31
0.0
  0
LINE
  5
132
330
1F
100
AcDbEntity
  8
0
  6
Continuous
 62
     7
370
    25
100
AcDbLine
 10
59.7215836243
 20
45.4617591292
 30
0.0
 11
46.6891114703
 21
45.4617591292
 31
0.0
  0
LINE
  5
133
330
1F
100
AcDbEntity
  8
0
  6
Continuous
 62
     7
370
    25
100
AcDbLine
 10
59.7215836243
 20
37.4617591292
 30
0.0
 11
57.2053475473
 21
37.4617591292
 31
0.0
  0
LINE
  5
134
330
1F
100
AcDbEntity
  8
0
  6
Continuous
 62
     7
370
    25
100
AcDbLine
 10
57.2053475473
 20
33.6568479176
 30
0.0
 11
57.2053475473
 21
37.4617591292
 31
0.0
  0
LINE
  5
135
330
1F
100
AcDbEntity
  8
0
  6
Continuous
 62
     7
370
    25
100
AcDbLine
 10
47.2053475473
 20
48.8229750614
 30
0.0
 11
47.2053475473
 21
45.4617591292
 31
0.0
  0
SPLINE
  5
136
330
1F
100
AcDbEntity
  8
0
  6
Continuous
 62
     7
370
    25
100
AcDbSpline
210
0.0
220
0.0
230
1.0
 70
     8
 71
     3
 72
    10
 73
     6
 74
     0
 42
0.00000001
 43
0.00000001
 40
0.0
 40
0.0
 40
0.0
 40
0.0
 40
0.5
 40
0.5
 40
1.0
 40
1.0
 40
1.0
 40
1.0
 10
46.5276261420264
 20
46.51357398462133
 30
0.0
 10
46.50395074760202
 20
46.4706304537201
 30
0.0
 10
46.49085963771738
 20
46.40718800909598
 30
0.0
 10
46.49077331642909
 20
46.25470917197701
 30
0.0
 10
46.50394225037293
 20
46.16647916986974
 30
0.0
 10
46.5276261420264
 20
46.08056128272911
 30
0.0
  0
SPLINE
  5
137
330
1F
100
AcDbEntity
  8
0
  6
Continuous
 62
     7
370
    25
100
AcDbSpline
210
0.0
220
0.0
230
1.0
 70
     8
 71
     3
 72
    12
 73
     8
 74
     0
 42
0.00000001
 43
0.00000001
 40
0.0
 40
0.0
 40
0.0
 40
0.0
 40
0.2500000000000001
 40
0.2500000000000001
 40
0.5000000000000002
 40
0.5000000000000002
 40
1.0
 40
1.0
 40
1.0
 40
1.0
 10
47.2053475472866
 20
48.82297506137984
 30
0.0
 10
47.2053475472866
 20
48.62723279850032
 30
0.0
 10
47.18950461119764
 20
48.43056618930976
 30
0.0
 10
47.12800175095997
 20
48.04129796198148
 30
0.0
 10
47.08239810991628
 20
47.84789392902856
 30
0.0
 10
46.90594709242706
 20
47.2709648777718
 30
0.0
 10
46.7355497251752
 20
46.89071544456879
 30
0.0
 10
46.5276261420264
 20
46.51357398462133
 30
0.0
  0
SPLINE
  5
138
330
1F
100
AcDbEntity
  8
0
  6
Continuous
 62
     7
370
    25
100
AcDbSpline
210
0.0
220
0.0
230
1.0
 70
     8
 71
     3
 72
    10
 73
     6
 74
     0
 42
0.00000001
 43
0.00000001
 40
0.0
 40
0.0
 40
0.0
 40
0.0
 40
0.5
 40
0.5
 40
1.0
 40
1.0
 40
1.0
 40
1.0
 10
46.52762614202634
 20
36.84295697569509
 30
0.0
 10
46.50395074760196
 20
36.75706991389264
 30
0.0
 10
46.49085963771738
 20
36.66966270491251
 30
0.0
 10
46.49077331642909
 20
36.51702626231877
 30
0.0
 10
46.50394225037293
 20
36.45290321737319
 30
0.0
 10
46.5276261420264
 20
36.40994427380289
 30
0.0
  0
LINE
  5
139
330
1F
100
AcDbEntity
  8
0
  6
Continuous
 62
     7
370
    25
100
AcDbLine
 10
46.527626142
 20
36.4099442738
 30
0.0
 11
42.3830689525
 21
36.4099442738
 31
0.0
  0
SPLINE
  5
13A
330
1F
100
AcDbEntity
  8
0
  6
Continuous
 62
     7
370
    25
100
AcDbSpline
210
0.0
220
0.0
230
1.0
 70
     8
 71
     3
 72
    10
 73
     6
 74
     0
 42
0.00000001
 43
0.00000001
 40
0.0
 40
0.0
 40
0.0
 40
0.0
 40
0.5
 40
0.5
 40
1.0
 40
1.0
 40
1.0
 40
1.0
 10
42.38306895254678
 20
36.40994427380288
 30
0.0
 10
42.40674119245834
 20
36.4528820829021
 30
0.0
 10
42.41983518239361
 20
36.5163226727943
 30
0.0
 10
42.41992204985505
 20
36.66881181830315
 30
0.0
 10
42.40675226009569
 20
36.75704120750647
 30
0.0
 10
42.38306895254678
 20
36.8429569756951
 30
0.0
  0
LINE
  5
13B
330
1F
100
AcDbEntity
  8
0
  6
Continuous
 62
     7
370
    25
100
AcDbLine
 10
41.7053475473
 20
48.8229750614
 30
0.0
 11
41.7053475473
 21
41.4617591292
 31
0.0
  0
SPLINE
  5
13C
330
1F
100
AcDbEntity
  8
0
  6
Continuous
 62
     7
370
    25
100
AcDbSpline
210
0.0
220
0.0
230
1.0
 70
     8
 71
     3
 72
    12
 73
     8
 74
     0
 42
0.00000001
 43
0.00000001
 40
0.0
 40
0.0
 40
0.0
 40
0.0
 40
0.2499999999999998
 40
0.2499999999999998
 40
0.4999999999999996
 40
0.4999999999999996
 40
1.0
 40
1.0
 40
1.0
 40
1.0
 10
41.70534754728659
 20
48.82297506137984
 30
0.0
 10
41.70534754728659
 20
48.62797158137404
 30
0.0
 10
41.72109387730855
 20
48.43143692234963
 30
0.0
 10
41.78253890189399
 20
48.04201723474409
 30
0.0
 10
41.8281276611477
 20
47.84853254168382
 30
0.0
 10
42.0045786634043
 20
47.27134894292822
 30
0.0
 10
42.1750363653678
 20
46.89091316114526
 30
0.0
 10
42.38306895254664
 20
46.51357398462132
 30
0.0
  0
SPLINE
  5
13D
330
1F
100
AcDbEntity
  8
0
  6
Continuous
 62
     7
370
    25
100
AcDbSpline
210
0.0
220
0.0
230
1.0
 70
     8
 71
     3
 72
    10
 73
     6
 74
     0
 42
0.00000001
 43
0.00000001
 40
0.0
 40
0.0
 40
0.0
 40
0.0
 40
0.5
 40
0.5
 40
1.0
 40
1.0
 40
1.0
 40
1.0
 10
42.38306895254678
 20
46.08056128272911
 30
0.0
 10
42.40674285310273
 20
46.16644292523557
 30
0.0
 10
42.41983541028188
 20
46.253852131201
 30
0.0
 10
42.41992182426415
 20
46.40649461627594
 30
0.0
 10
42.40675143266554
 20
46.4706176013583
 30
0.0
 10
42.38306895254678
 20
46.51357398462133
 30
0.0
  0
SPLINE
  5
13E
330
1F
100
AcDbEntity
  8
0
  6
Continuous
 62
     7
370
    25
100
AcDbSpline
210
0.0
220
0.0
230
1.0
 70
     8
 71
     3
 72
    10
 73
     6
 74
     0
 42
0.00000001
 43
0.00000001
 40
0.0
 40
0.0
 40
0.0
 40
0.0
 40
0.5
 40
0.5
 40
1.0
 40
1.0
 40
1.0
 40
1.0
 10
48.15353269187737
 20
33.49536258935711
 30
0.0
 10
48.1964762227786
 20
33.47168719493271
 30
0.0
 10
48.25991866740272
 20
33.45859608504807
 30
0.0
 10
48.41239750452168
 20
33.45850976375979
 30
0.0
 10
48.50062750662895
 20
33.47167869770363
 30
0.0
 10
48.58654539376958
 20
33.4953625893571
 30
0.0
  0
LINE
  5
13F
330
1F
100
AcDbEntity
  8
0
  6
Continuous
 62
     7
370
    25
100
AcDbLine
 10
48.1535326919
 20
30.4617591292
 30
0.0
 11
48.5865453938
 21
30.4617591292
 31
0.0
  0
LINE
  5
140
330
1F
100
AcDbEntity
  8
0
  6
Continuous
 62
     7
370
    25
100
AcDbLine
 10
48.1535326919
 20
30.4617591292
 30
0.0
 11
48.1535326919
 21
33.4953625894
 31
0.0
  0
SPLINE
  5
141
330
1F
100
AcDbEntity
  8
0
  6
Continuous
 62
     7
370
    25
100
AcDbSpline
210
0.0
220
0.0
230
1.0
 70
     8
 71
     3
 72
    10
 73
     6
 74
     0
 42
0.00000001
 43
0.00000001
 40
0.0
 40
0.0
 40
0.0
 40
0.0
 40
0.5
 40
0.5
 40
1.0
 40
1.0
 40
1.0
 40
1.0
 10
42.38306895254632
 20
36.40994427380291
 30
0.0
 10
42.17425902788005
 20
36.03119512641162
 30
0.0
 10
42.00372488813281
 20
35.64998985000031
 30
0.0
 10
41.76893908311389
 20
34.88075922881254
 30
0.0
 10
41.70534754728659
 20
34.49269152401421
 30
0.0
 10
41.70534754728659
 20
34.10054319704437
 30
0.0
  0
LINE
  5
142
330
1F
100
AcDbEntity
  8
0
  6
Continuous
 62
     7
370
    25
100
AcDbLine
 10
41.7053475473
 20
41.4617591292
 30
0.0
 11
41.7053475473
 21
34.100543197
 31
0.0
  0
ELLIPSE
  5
143
330
1F
100
AcDbEntity
  8
0
  6
Continuous
 62
     7
370
    25
100
AcDbEllipse
 10
49.1515865408
 20
40.9681689898
 30
0.0
 11
0.08480161849065837
 21
-1.421085471520200E-14
 31
0.0
210
0.0
220
0.0
230
1.0
 40
0.9533039403
 41
2.798568711308441
 42
4.712388980384862
  0
ELLIPSE
  5
144
330
1F
100
AcDbEntity
  8
0
  6
Continuous
 62
     7
370
    25
100
AcDbEllipse
 10
49.455260722
 20
41.7787516068
 30
0.0
 11
0.08480161849065837
 21
7.105427357601002E-15
 31
0.0
210
0.0
220
0.0
230
1.0
 40
0.9533039403
 41
0.343023940420522
 42
2.798568713169097
  0
LINE
  5
145
330
1F
100
AcDbEntity
  8
0
  6
Continuous
 62
     7
370
    25
100
AcDbLine
 10
49.8387961379
 20
40.9953590015
 30
0.0
 11
49.5351219603
 21
41.8059416187
 31
0.0
  0
ELLIPSE
  5
146
330
1F
100
AcDbEntity
  8
0
  6
Continuous
 62
     7
370
    25
100
AcDbEllipse
 10
49.7589348996
 20
40.9681689898
 30
0.0
 11
-0.08480161849066548
 21
-4.263256414560601E-14
 31
0.0
210
0.0
220
0.0
230
1.0
 40
0.9533039403
 41
1.570796326794417
 42
3.484616592149282
  0
LINE
  5
147
330
1F
100
AcDbEntity
  8
0
  6
Continuous
 62
     7
370
    25
100
AcDbLine
 10
49.1515865408
 20
40.8873272727
 30
0.0
 11
49.7589348996
 21
40.8873272727
 31
0.0
  0
LINE
  5
148
330
1F
100
AcDbEntity
  8
0
  6
Continuous
 62
     7
370
    25
100
AcDbLine
 10
49.3753994836
 20
41.8059416187
 30
0.0
 11
49.0717253025
 21
40.9953590018
 31
0.0
  0
SPLINE
  5
149
330
1F
100
AcDbEntity
  8
0
  6
Continuous
 62
     7
370
    25
100
AcDbSpline
210
0.0
220
0.0
230
1.0
 70
     8
 71
     3
 72
     8
 73
     4
 74
     0
 42
0.00000001
 43
0.00000001
 40
0.0
 40
0.0
 40
0.0
 40
0.0
 40
1.0
 40
1.0
 40
1.0
 40
1.0
 10
45.91597136266996
 20
34.17238294458337
 30
0.0
 10
46.22498850531172
 20
34.27338805241349
 30
0.0
 10
46.54030626162971
 20
34.37004484147943
 30
0.0
 10
46.86278558847273
 20
34.4617591292121
 30
0.0
  0
SPLINE
  5
14A
330
1F
100
AcDbEntity
  8
0
  6
Continuous
 62
     7
370
    25
100
AcDbSpline
210
0.0
220
0.0
230
1.0
 70
     8
 71
     3
 72
    12
 73
     8
 74
     0
 42
0.00000001
 43
0.00000001
 40
0.0
 40
0.0
 40
0.0
 40
0.0
 40
0.2500000000000002
 40
0.2500000000000002
 40
0.5000000000000004
 40
0.5000000000000004
 40
1.0
 40
1.0
 40
1.0
 40
1.0
 10
45.91597136266473
 20
34.17238294457724
 30
0.0
 10
46.10599753796794
 20
34.16867445872082
 30
0.0
 10
46.29621260065376
 20
34.15009195588313
 30
0.0
 10
46.67314935978616
 20
34.08522491891698
 30
0.0
 10
46.86047215104566
 20
34.03895936566672
 30
0.0
 10
47.41938210735975
 20
33.86323483535976
 30
0.0
 10
47.78791776547008
 20
33.69693142658301
 30
0.0
 10
48.15353269187737
 20
33.49536258935711
 30
0.0
  0
SPLINE
  5
14B
330
1F
100
AcDbEntity
  8
0
  6
Continuous
 62
     7
370
    25
100
AcDbSpline
210
0.0
220
0.0
230
1.0
 70
     8
 71
     3
 72
     8
 73
     4
 74
     0
 42
0.00000001
 43
0.00000001
 40
0.0
 40
0.0
 40
0.0
 40
0.0
 40
1.0
 40
1.0
 40
1.0
 40
1.0
 10
59.54790950610045
 20
34.4617591292121
 30
0.0
 10
59.87038883294974
 20
34.37004484147765
 30
0.0
 10
60.1857065892737
 20
34.27338805240974
 30
0.0
 10
60.49472373192121
 20
34.17238294457749
 30
0.0
  0
SPLINE
  5
14C
330
1F
100
AcDbEntity
  8
0
  6
Continuous
 62
     7
370
    25
100
AcDbSpline
210
0.0
220
0.0
230
1.0
 70
     8
 71
     3
 72
    10
 73
     6
 74
     0
 42
0.00000001
 43
0.00000001
 40
0.0
 40
0.0
 40
0.0
 40
0.0
 40
0.5
 40
0.5
 40
1.0
 40
1.0
 40
1.0
 40
1.0
 10
58.2571624026961
 20
33.49536258935725
 30
0.0
 10
58.62368034953663
 20
33.69742927490818
 30
0.0
 10
58.99276057500246
 20
33.86382204717882
 30
0.0
 10
59.73801292322986
 20
34.09786902104887
 30
0.0
 10
60.11422569517762
 20
34.16495727500771
 30
0.0
 10
60.49472373192121
 20
34.17238294457749
 30
0.0
  0
SPLINE
  5
14D
330
1F
100
AcDbEntity
  8
0
  6
Continuous
 62
     7
370
    25
100
AcDbSpline
210
0.0
220
0.0
230
1.0
 70
     8
 71
     3
 72
    10
 73
     6
 74
     0
 42
0.00000001
 43
0.00000001
 40
0.0
 40
0.0
 40
0.0
 40
0.0
 40
0.5
 40
0.5
 40
1.0
 40
1.0
 40
1.0
 40
1.0
 10
57.82414970080359
 20
33.49536258935709
 30
0.0
 10
57.91003676260614
 20
33.47168719493267
 30
0.0
 10
57.99744397158636
 20
33.45859608504804
 30
0.0
 10
58.15008041418022
 20
33.45850976375982
 30
0.0
 10
58.21420345912597
 20
33.47167869770376
 30
0.0
 10
58.2571624026962
 20
33.49536258935731
 30
0.0
  0
SPLINE
  5
14E
330
1F
100
AcDbEntity
  8
0
  6
Continuous
 62
     7
370
    25
100
AcDbSpline
210
0.0
220
0.0
230
1.0
 70
     8
 71
     3
 72
    10
 73
     6
 74
     0
 42
0.00000001
 43
0.00000001
 40
0.0
 40
0.0
 40
0.0
 40
0.0
 40
0.5
 40
0.5
 40
1.0
 40
1.0
 40
1.0
 40
1.0
 10
64.02762614202639
 20
46.08056128272911
 30
0.0
 10
64.00395224147044
 20
46.16644292523557
 30
0.0
 10
63.9908596842913
 20
46.253852131201
 30
0.0
 10
63.99077327030903
 20
46.40649461627594
 30
0.0
 10
64.00394366190764
 20
46.4706176013583
 30
0.0
 10
64.02762614202639
 20
46.51357398462133
 30
0.0
  0
SPLINE
  5
14F
330
1F
100
AcDbEntity
  8
0
  6
Continuous
 62
     7
370
    25
100
AcDbSpline
210
0.0
220
0.0
230
1.0
 70
     8
 71
     3
 72
    12
 73
     8
 74
     0
 42
0.00000001
 43
0.00000001
 40
0.0
 40
0.0
 40
0.0
 40
0.0
 40
0.2500000000000001
 40
0.2500000000000001
 40
0.5000000000000002
 40
0.5000000000000002
 40
1.0
 40
1.0
 40
1.0
 40
1.0
 10
64.70534754728659
 20
48.82297506137984
 30
0.0
 10
64.70534754728659
 20
48.62797158137404
 30
0.0
 10
64.68960121726462
 20
48.43143692234963
 30
0.0
 10
64.6281561926792
 20
48.04201723474409
 30
0.0
 10
64.58256743342547
 20
47.84853254168382
 30
0.0
 10
64.40611643116888
 20
47.27134894292822
 30
0.0
 10
64.2356587292054
 20
46.89091316114526
 30
0.0
 10
64.02762614202655
 20
46.51357398462132
 30
0.0
  0
LINE
  5
150
330
1F
100
AcDbEntity
  8
0
  6
Continuous
 62
     7
370
    25
100
AcDbLine
 10
64.7053475473
 20
48.8229750614
 30
0.0
 11
64.7053475473
 21
41.4617591292
 31
0.0
  0
LINE
  5
151
330
1F
100
AcDbEntity
  8
0
  6
Continuous
 62
     7
370
    25
100
AcDbLine
 10
59.2053475473
 20
48.8229750614
 30
0.0
 11
59.2053475473
 21
45.4617591292
 31
0.0
  0
SPLINE
  5
152
330
1F
100
AcDbEntity
  8
0
  6
Continuous
 62
     7
370
    25
100
AcDbSpline
210
0.0
220
0.0
230
1.0
 70
     8
 71
     3
 72
    10
 73
     6
 74
     0
 42
0.00000001
 43
0.00000001
 40
0.0
 40
0.0
 40
0.0
 40
0.0
 40
0.5
 40
0.5
 40
1.0
 40
1.0
 40
1.0
 40
1.0
 10
59.88306895254679
 20
46.51357398462131
 30
0.0
 10
59.67464819972937
 20
46.89161723402347
 30
0.0
 10
59.50418436445194
 20
47.27238673881932
 30
0.0
 10
59.26920192951355
 20
48.04153526437686
 30
0.0
 10
59.20534754728659
 20
48.4299619925521
 30
0.0
 10
59.20534754728659
 20
48.82297506137984
 30
0.0
  0
SPLINE
  5
153
330
1F
100
AcDbEntity
  8
0
  6
Continuous
 62
     7
370
    25
100
AcDbSpline
210
0.0
220
0.0
230
1.0
 70
     8
 71
     3
 72
    10
 73
     6
 74
     0
 42
0.00000001
 43
0.00000001
 40
0.0
 40
0.0
 40
0.0
 40
0.0
 40
0.5
 40
0.5
 40
1.0
 40
1.0
 40
1.0
 40
1.0
 10
59.8830689525468
 20
46.08056128272911
 30
0.0
 10
59.90674434697119
 20
46.16644834453156
 30
0.0
 10
59.91983545685581
 20
46.25385555351167
 30
0.0
 10
59.91992177814409
 20
46.40649199610541
 30
0.0
 10
59.90675284420026
 20
46.47061504105098
 30
0.0
 10
59.8830689525468
 20
46.5135739846213
 30
0.0
  0
LINE
  5
154
330
1F
100
AcDbEntity
  8
0
  6
Continuous
 62
     7
370
    25
100
AcDbLine
 10
42.3830689525
 20
46.5135739846
 30
0.0
 11
46.527626142
 21
46.5135739846
 31
0.0
  0
SPLINE
  5
155
330
1F
100
AcDbEntity
  8
0
  6
Continuous
 62
     7
370
    25
100
AcDbSpline
210
0.0
220
0.0
230
1.0
 70
     8
 71
     3
 72
    10
 73
     6
 74
     0
 42
0.00000001
 43
0.00000001
 40
0.0
 40
0.0
 40
0.0
 40
0.0
 40
0.5
 40
0.5
 40
1.0
 40
1.0
 40
1.0
 40
1.0
 10
64.02762614202686
 20
36.40994427380291
 30
0.0
 10
64.23643606669312
 20
36.03119512641162
 30
0.0
 10
64.40697020644039
 20
35.64998985000031
 30
0.0
 10
64.64175601145931
 20
34.88075922881254
 30
0.0
 10
64.70534754728659
 20
34.49269152401421
 30
0.0
 10
64.70534754728659
 20
34.10054319704438
 30
0.0
  0
SPLINE
  5
156
330
1F
100
AcDbEntity
  8
0
  6
Continuous
 62
     7
370
    25
100
AcDbSpline
210
0.0
220
0.0
230
1.0
 70
     8
 71
     3
 72
    10
 73
     6
 74
     0
 42
0.00000001
 43
0.00000001
 40
0.0
 40
0.0
 40
0.0
 40
0.0
 40
0.5
 40
0.5
 40
1.0
 40
1.0
 40
1.0
 40
1.0
 10
64.02762614202639
 20
36.40994427380289
 30
0.0
 10
64.00395390211484
 20
36.45288208290211
 30
0.0
 10
63.99085991217958
 20
36.5163226727943
 30
0.0
 10
63.99077304471813
 20
36.66881181830315
 30
0.0
 10
64.0039428344775
 20
36.75704120750647
 30
0.0
 10
64.02762614202639
 20
36.8429569756951
 30
0.0
  0
LINE
  5
157
330
1F
100
AcDbEntity
  8
0
  6
Continuous
 62
     7
370
    25
100
AcDbLine
 10
64.7053475473
 20
41.4617591292
 30
0.0
 11
64.7053475473
 21
34.100543197
 31
0.0
  0
LINE
  5
158
330
1F
100
AcDbEntity
  8
0
  6
Continuous
 62
     7
370
    25
100
AcDbLine
 10
59.8830689525
 20
46.5135739846
 30
0.0
 11
64.027626142
 21
46.5135739846
 31
0.0
  0
LINE
  5
159
330
1F
100
AcDbEntity
  8
0
  6
Continuous
 62
     7
370
    25
100
AcDbLine
 10
58.2571624027
 20
33.4953625894
 30
0.0
 11
58.2571624027
 21
30.4617591292
 31
0.0
  0
LINE
  5
15A
330
1F
100
AcDbEntity
  8
0
  6
Continuous
 62
     7
370
    25
100
AcDbLine
 10
57.8241497008
 20
30.4617591292
 30
0.0
 11
58.2571624027
 21
30.4617591292
 31
0.0
  0
SPLINE
  5
15B
330
1F
100
AcDbEntity
  8
0
  6
Continuous
 62
     7
370
    25
100
AcDbSpline
210
0.0
220
0.0
230
1.0
 70
     8
 71
     3
 72
     8
 73
     4
 74
     0
 42
0.00000001
 43
0.00000001
 40
0.0
 40
0.0
 40
0.0
 40
0.0
 40
1.0
 40
1.0
 40
1.0
 40
1.0
 10
59.32673103878275
 20
35.05163759588687
 30
0.0
 10
59.28561576314149
 20
35.18766799037641
 30
0.0
 10
59.24512678027364
 20
35.32437205501385
 30
0.0
 10
59.20534754728659
 20
35.4617591292121
 30
0.0
  0
LINE
  5
15C
330
1F
100
AcDbEntity
  8
0
  6
Continuous
 62
     7
370
    25
100
AcDbLine
 10
59.2053475473
 20
37.4617591292
 30
0.0
 11
59.2053475473
 21
35.4617591292
 31
0.0
  0
SPLINE
  5
15D
330
1F
100
AcDbEntity
  8
0
  6
Continuous
 62
     7
370
    25
100
AcDbSpline
210
0.0
220
0.0
230
1.0
 70
     8
 71
     3
 72
    10
 73
     6
 74
     0
 42
0.00000001
 43
0.00000001
 40
0.0
 40
0.0
 40
0.0
 40
0.0
 40
0.5
 40
0.5
 40
1.0
 40
1.0
 40
1.0
 40
1.0
 10
59.88306895254351
 20
36.40994427380289
 30
0.0
 10
59.90674434696786
 20
36.45288780470403
 30
0.0
 10
59.91983545685577
 20
36.51633024932783
 30
0.0
 10
59.91992177814414
 20
36.66880908644691
 30
0.0
 10
59.90675284420028
 20
36.75703908855434
 30
0.0
 10
59.88306895254679
 20
36.84295697569508
 30
0.0
  0
SPLINE
  5
15E
330
1F
100
AcDbEntity
  8
0
  6
Continuous
 62
     7
370
    25
100
AcDbSpline
210
0.0
220
0.0
230
1.0
 70
     8
 71
     3
 72
     8
 73
     4
 74
     0
 42
0.00000001
 43
0.00000001
 40
0.0
 40
0.0
 40
0.0
 40
0.0
 40
1.0
 40
1.0
 40
1.0
 40
1.0
 10
59.32673103878275
 20
35.05163759588687
 30
0.0
 10
59.44236364881181
 20
35.51018852794461
 30
0.0
 10
59.63625305363223
 20
35.96225812370287
 30
0.0
 10
59.88306895254664
 20
36.40994427380262
 30
0.0
  0
LINE
  5
15F
330
1F
100
AcDbEntity
  8
0
  6
Continuous
 62
     7
370
    25
100
AcDbLine
 10
47.2053475473
 20
37.4617591292
 30
0.0
 11
47.2053475473
 21
35.4617591292
 31
0.0
  0
SPLINE
  5
160
330
1F
100
AcDbEntity
  8
0
  6
Continuous
 62
     7
370
    25
100
AcDbSpline
210
0.0
220
0.0
230
1.0
 70
     8
 71
     3
 72
     8
 73
     4
 74
     0
 42
0.00000001
 43
0.00000001
 40
0.0
 40
0.0
 40
0.0
 40
0.0
 40
1.0
 40
1.0
 40
1.0
 40
1.0
 10
47.20534754728659
 20
35.4617591292121
 30
0.0
 10
47.16556888909641
 20
35.324374040212
 30
0.0
 10
47.12507992626818
 20
35.18766995840023
 30
0.0
 10
47.08396405579042
 20
35.05163759588686
 30
0.0
  0
SPLINE
  5
161
330
1F
100
AcDbEntity
  8
0
  6
Continuous
 62
     7
370
    25
100
AcDbSpline
210
0.0
220
0.0
230
1.0
 70
     8
 71
     3
 72
     8
 73
     4
 74
     0
 42
0.00000001
 43
0.00000001
 40
0.0
 40
0.0
 40
0.0
 40
0.0
 40
1.0
 40
1.0
 40
1.0
 40
1.0
 10
46.5276261420264
 20
36.40994427380289
 30
0.0
 10
46.77479992291033
 20
35.96160898075156
 30
0.0
 10
46.96852159121432
 20
35.50943449000795
 30
0.0
 10
47.08396405579042
 20
35.05163759588686
 30
0.0
  0
LINE
  5
162
330
1F
100
AcDbEntity
  8
0
  6
Continuous
 62
     7
370
    25
100
AcDbLine
 10
64.027626142
 20
36.4099442738
 30
0.0
 11
59.8830689525
 21
36.4099442738
 31
0.0
  0
LINE
  5
163
330
1F
100
AcDbEntity
  8
0
  6
Continuous
 62
     7
370
    25
100
AcDbLine
 10
45.0046715527
 20
20.0413909552
 30
0.0
 11
61.4060235418
 21
20.0413909552
 31
0.0
  0
SPLINE
  5
164
330
1F
100
AcDbEntity
  8
0
  6
Continuous
 62
     7
370
    25
100
AcDbSpline
210
0.0
220
0.0
230
1.0
 70
     8
 71
     3
 72
    22
 73
    18
 74
     0
 42
0.00000001
 43
0.00000001
 40
0.0
 40
0.0
 40
0.0
 40
0.0
 40
0.249999999999998
 40
0.249999999999998
 40
0.3749999999999984
 40
0.3749999999999984
 40
0.4374999999999986
 40
0.4374999999999986
 40
0.4999999999999988
 40
0.4999999999999988
 40
0.5624999999999989
 40
0.5624999999999989
 40
0.6249999999999991
 40
0.6249999999999991
 40
0.7499999999999996
 40
0.7499999999999996
 40
1.0
 40
1.0
 40
1.0
 40
1.0
 10
46.17879743637056
 20
30.46175912921209
 30
0.0
 10
46.14406326099311
 20
30.2872504315765
 30
0.0
 10
46.10547080947433
 20
30.11491197467661
 30
0.0
 10
46.03074186442864
 20
29.87717654136951
 30
0.0
 10
46.00279894313498
 20
29.80039397198747
 30
0.0
 10
45.95132036646853
 20
29.70403957547789
 30
0.0
 10
45.93246464036154
 20
29.6752659750158
 30
0.0
 10
45.89098804675674
 20
29.63305240998683
 30
0.0
 10
45.8676094351316
 20
29.61967931202437
 30
0.0
 10
45.82020442472935
 20
29.61983970662092
 30
0.0
 10
45.79678562936621
 20
29.63334439874034
 30
0.0
 10
45.75495661989794
 20
29.6763358414778
 30
0.0
 10
45.73603940472726
 20
29.70552047764857
 30
0.0
 10
45.68475743354773
 20
29.80215312811525
 30
0.0
 10
45.65694109127429
 20
29.87881437361138
 30
0.0
 10
45.58226141505553
 20
30.11702481364524
 30
0.0
 10
45.54412433692404
 20
30.28763041750084
 30
0.0
 10
45.50946579386705
 20
30.46175912921197
 30
0.0
  0
SPLINE
  5
165
330
1F
100
AcDbEntity
  8
0
  6
Continuous
 62
     7
370
    25
100
AcDbSpline
210
0.0
220
0.0
230
1.0
 70
     8
 71
     3
 72
    22
 73
    18
 74
     0
 42
0.00000001
 43
0.00000001
 40
0.0
 40
0.0
 40
0.0
 40
0.0
 40
0.2500000000000014
 40
0.2500000000000014
 40
0.3750000000000015
 40
0.3750000000000015
 40
0.4375000000000009
 40
0.4375000000000009
 40
0.5000000000000003
 40
0.5000000000000003
 40
0.5624999999999998
 40
0.5624999999999998
 40
0.6249999999999992
 40
0.6249999999999992
 40
0.7499999999999989
 40
0.7499999999999989
 40
1.0
 40
1.0
 40
1.0
 40
1.0
 10
60.90122930070601
 20
30.4617591292121
 30
0.0
 10
60.86649512532855
 20
30.28725043157646
 30
0.0
 10
60.82790267380975
 20
30.11491197467652
 30
0.0
 10
60.75317372876404
 20
29.87717654136941
 30
0.0
 10
60.72523080747037
 20
29.80039397198735
 30
0.0
 10
60.67375223080389
 20
29.70403957547778
 30
0.0
 10
60.65489650469691
 20
29.67526597501564
 30
0.0
 10
60.61341991109204
 20
29.63305240998668
 30
0.0
 10
60.5900412994669
 20
29.61967931202431
 30
0.0
 10
60.5426362890646
 20
29.61983970662101
 30
0.0
 10
60.51921749370149
 20
29.63334439874044
 30
0.0
 10
60.47738848423326
 20
29.67633584147795
 30
0.0
 10
60.45847126906258
 20
29.70552047764876
 30
0.0
 10
60.4071892978831
 20
29.80215312811544
 30
0.0
 10
60.37937295560965
 20
29.87881437361167
 30
0.0
 10
60.30469327939095
 20
30.11702481364539
 30
0.0
 10
60.26655620125949
 20
30.28763041750091
 30
0.0
 10
60.23189765820251
 20
30.46175912921198
 30
0.0
  0
SPLINE
  5
166
330
1F
100
AcDbEntity
  8
0
  6
Continuous
 62
     7
370
    25
100
AcDbSpline
210
0.0
220
0.0
230
1.0
 70
     8
 71
     3
 72
    12
 73
     8
 74
     0
 42
0.00000001
 43
0.00000001
 40
0.0
 40
0.0
 40
0.0
 40
0.0
 40
0.2499999999999999
 40
0.2499999999999999
 40
0.4999999999999998
 40
0.4999999999999998
 40
1.0
 40
1.0
 40
1.0
 40
1.0
 10
59.20534754728659
 20
48.82297506137984
 30
0.0
 10
59.20534754728659
 20
49.01871732425935
 30
0.0
 10
59.22119048337554
 20
49.21538393344991
 30
0.0
 10
59.28269334361321
 20
49.60465216077819
 30
0.0
 10
59.3282969846569
 20
49.79805619373111
 30
0.0
 10
59.50474800214613
 20
50.37498524498788
 30
0.0
 10
59.67514536939798
 20
50.75523467819087
 30
0.0
 10
59.88306895254678
 20
51.13237613813834
 30
0.0
  0
LINE
  5
167
330
1F
100
AcDbEntity
  8
0
  6
Continuous
 62
     7
370
    25
100
AcDbLine
 10
64.027626142
 20
51.1323761381
 30
0.0
 11
59.8830689525
 21
51.1323761381
 31
0.0
  0
SPLINE
  5
168
330
1F
100
AcDbEntity
  8
0
  6
Continuous
 62
     7
370
    25
100
AcDbSpline
210
0.0
220
0.0
230
1.0
 70
     8
 71
     3
 72
    10
 73
     6
 74
     0
 42
0.00000001
 43
0.00000001
 40
0.0
 40
0.0
 40
0.0
 40
0.0
 40
0.5
 40
0.5
 40
1.0
 40
1.0
 40
1.0
 40
1.0
 10
64.02762614202686
 20
51.13237613813837
 30
0.0
 10
64.23643606669313
 20
50.75362699074708
 30
0.0
 10
64.40697020644038
 20
50.37242171433577
 30
0.0
 10
64.64175601145931
 20
49.60319109314799
 30
0.0
 10
64.70534754728659
 20
49.21512338834967
 30
0.0
 10
64.70534754728659
 20
48.82297506137984
 30
0.0
  0
ELLIPSE
  5
169
330
1F
100
AcDbEntity
  8
0
  6
Continuous
 62
     7
370
    25
100
AcDbEllipse
 10
53.2053475473
 20
31.646804553
 30
0.0
 11
8.5
 21
0.0
 31
0.0
210
0.0
220
0.0
230
1.0
 40
0.5773502692
 41
2.374833212873084
 42
2.530692279913058
  0
LINE
  5
16A
330
1F
100
AcDbEntity
  8
0
  6
Continuous
 62
     7
370
    25
100
AcDbLine
 10
45.9159713627
 20
34.1723829446
 30
0.0
 11
43.5347305384
 21
31.7911421203
 31
0.0
  0
LINE
  5
16B
330
1F
100
AcDbEntity
  8
0
  6
Continuous
 62
     7
370
    25
100
AcDbLine
 10
42.3830689525
 20
31.7911421203
 30
0.0
 11
43.5347305384
 21
31.7911421203
 31
0.0
  0
SPLINE
  5
16C
330
1F
100
AcDbEntity
  8
0
  6
Continuous
 62
     7
370
    25
100
AcDbSpline
210
0.0
220
0.0
230
1.0
 70
     8
 71
     3
 72
    12
 73
     8
 74
     0
 42
0.00000001
 43
0.00000001
 40
0.0
 40
0.0
 40
0.0
 40
0.0
 40
0.2499999999999999
 40
0.2499999999999999
 40
0.5
 40
0.5
 40
1.0
 40
1.0
 40
1.0
 40
1.0
 10
41.70534754728659
 20
34.10054319704437
 30
0.0
 10
41.70534754728659
 20
33.90553971703858
 30
0.0
 10
41.72109387730855
 20
33.70900505801416
 30
0.0
 10
41.78253890189399
 20
33.31958537040862
 30
0.0
 10
41.8281276611477
 20
33.12610067734835
 30
0.0
 10
42.0045786634043
 20
32.54891707859275
 30
0.0
 10
42.1750363653678
 20
32.16848129680979
 30
0.0
 10
42.38306895254664
 20
31.79114212028586
 30
0.0
  0
SPLINE
  5
16D
330
1F
100
AcDbEntity
  8
0
  6
Continuous
 62
     7
370
    25
100
AcDbSpline
210
0.0
220
0.0
230
1.0
 70
     8
 71
     3
 72
    10
 73
     6
 74
     0
 42
0.00000001
 43
0.00000001
 40
0.0
 40
0.0
 40
0.0
 40
0.0
 40
0.5
 40
0.5
 40
1.0
 40
1.0
 40
1.0
 40
1.0
 10
46.52762614202639
 20
51.13237613813836
 30
0.0
 10
46.73604689484382
 20
50.7543328887362
 30
0.0
 10
46.90651073012125
 20
50.37356338394035
 30
0.0
 10
47.14149316505963
 20
49.60441485838281
 30
0.0
 10
47.2053475472866
 20
49.21598813020757
 30
0.0
 10
47.2053475472866
 20
48.82297506137984
 30
0.0
  0
SPLINE
  5
16E
330
1F
100
AcDbEntity
  8
0
  6
Continuous
 62
     7
370
    25
100
AcDbSpline
210
0.0
220
0.0
230
1.0
 70
     8
 71
     3
 72
    10
 73
     6
 74
     0
 42
0.00000001
 43
0.00000001
 40
0.0
 40
0.0
 40
0.0
 40
0.0
 40
0.5
 40
0.5
 40
1.0
 40
1.0
 40
1.0
 40
1.0
 10
42.38306895254632
 20
51.13237613813837
 30
0.0
 10
42.17425902788005
 20
50.75362699074708
 30
0.0
 10
42.00372488813281
 20
50.37242171433577
 30
0.0
 10
41.76893908311389
 20
49.60319109314799
 30
0.0
 10
41.70534754728659
 20
49.21512338834967
 30
0.0
 10
41.70534754728659
 20
48.82297506137984
 30
0.0
  0
LINE
  5
16F
330
1F
100
AcDbEntity
  8
0
  6
Continuous
 62
     7
370
    25
100
AcDbLine
 10
46.527626142
 20
51.1323761381
 30
0.0
 11
42.3830689525
 21
51.1323761381
 31
0.0
  0
SPLINE
  5
170
330
1F
100
AcDbEntity
  8
0
  6
Continuous
 62
     7
370
    25
100
AcDbSpline
210
0.0
220
0.0
230
1.0
 70
     8
 71
     3
 72
    12
 73
     8
 74
     0
 42
0.00000001
 43
0.00000001
 40
0.0
 40
0.0
 40
0.0
 40
0.0
 40
0.2499999999999999
 40
0.2499999999999999
 40
0.5
 40
0.5
 40
1.0
 40
1.0
 40
1.0
 40
1.0
 10
64.70534754728659
 20
34.10054319704438
 30
0.0
 10
64.70534754728659
 20
33.90553971703858
 30
0.0
 10
64.68960121726464
 20
33.70900505801417
 30
0.0
 10
64.6281561926792
 20
33.31958537040862
 30
0.0
 10
64.58256743342548
 20
33.12610067734836
 30
0.0
 10
64.40611643116888
 20
32.54891707859276
 30
0.0
 10
64.2356587292054
 20
32.16848129680979
 30
0.0
 10
64.02762614202655
 20
31.79114212028586
 30
0.0
  0
LINE
  5
171
330
1F
100
AcDbEntity
  8
0
  6
Continuous
 62
     7
370
    25
100
AcDbLine
 10
62.8759645562
 20
31.7911421203
 30
0.0
 11
64.027626142
 21
31.7911421203
 31
0.0
  0
LINE
  5
172
330
1F
100
AcDbEntity
  8
0
  6
Continuous
 62
     7
370
    25
100
AcDbLine
 10
62.8759645562
 20
31.7911421203
 30
0.0
 11
60.4947237319
 21
34.1723829446
 31
0.0
  0
ELLIPSE
  5
173
330
1F
100
AcDbEntity
  8
0
  6
Continuous
 62
     7
370
    25
100
AcDbEllipse
 10
53.2053475473
 20
31.646804553
 30
0.0
 11
8.5
 21
0.0
 31
0.0
210
0.0
220
0.0
230
1.0
 40
0.5773502692
 41
0.6109003736767346
 42
0.7667594407167099
  0
LINE
  5
174
330
1F
100
AcDbEntity
  8
0
  6
Continuous
 62
     7
370
    25
100
AcDbLine
 10
45.5094657939
 20
30.4617591292
 30
0.0
 11
43.5347305384
 21
30.4617591292
 31
0.0
  0
LINE
  5
175
330
1F
100
AcDbEntity
  8
0
  6
Continuous
 62
     7
370
    25
100
AcDbLine
 10
43.5347305384
 20
31.7911421203
 30
0.0
 11
43.5347305384
 21
30.4617591292
 31
0.0
  0
LINE
  5
176
330
1F
100
AcDbEntity
  8
0
  6
Continuous
 62
     7
370
    25
100
AcDbLine
 10
48.1535326919
 20
30.4617591292
 30
0.0
 11
46.1787974364
 21
30.4617591292
 31
0.0
  0
LINE
  5
177
330
1F
100
AcDbEntity
  8
0
  6
Continuous
 62
     7
370
    25
100
AcDbLine
 10
62.8759645562
 20
30.4617591292
 30
0.0
 11
62.8759645562
 21
31.7911421203
 31
0.0
  0
LINE
  5
178
330
1F
100
AcDbEntity
  8
0
  6
Continuous
 62
     7
370
    25
100
AcDbLine
 10
62.8759645562
 20
30.4617591292
 30
0.0
 11
60.9012293007
 21
30.4617591292
 31
0.0
  0
LINE
  5
179
330
1F
100
AcDbEntity
  8
0
  6
Continuous
 62
     7
370
    25
100
AcDbLine
 10
60.2318976582
 20
30.4617591292
 30
0.0
 11
58.2571624027
 21
30.4617591292
 31
0.0
  0
LINE
  5
17A
330
1F
100
AcDbEntity
  8
0
  6
Continuous
 62
     7
370
    25
100
AcDbLine
 10
60.2053475473
 20
17.9617591292
 30
0.0
 11
46.2053475473
 21
17.9617591292
 31
0.0
  0
LINE
  5
17B
330
1F
100
AcDbEntity
  8
0
  6
Continuous
 62
     7
370
    25
100
AcDbLine
 10
59.2053475473
 20
35.4617591292
 30
0.0
 11
57.2053475473
 21
37.4617591292
 31
0.0
  0
LINE
  5
17C
330
1F
100
AcDbEntity
  8
0
  6
Continuous
 62
     7
370
    25
100
AcDbLine
 10
57.2053475473
 20
34.4617591292
 30
0.0
 11
60.1679686199
 21
34.4617591292
 31
0.0
  0
LINE
  5
17D
330
1F
100
AcDbEntity
  8
0
  6
Continuous
 62
     7
370
    25
100
AcDbLine
 10
49.2053475473
 20
37.4617591292
 30
0.0
 11
47.2053475473
 21
35.4617591292
 31
0.0
  0
LINE
  5
17E
330
1F
100
AcDbEntity
  8
0
  6
Continuous
 62
     7
370
    25
100
AcDbLine
 10
46.2427264746
 20
34.4617591292
 30
0.0
 11
49.2053475473
 21
34.4617591292
 31
0.0
  0
LINE
  5
17F
330
1F
100
AcDbEntity
  8
0
  6
Continuous
 62
     7
370
    25
100
AcDbLine
 10
47.2053475473
 20
49.3962136074
 30
0.0
 11
47.2053475473
 21
48.8229750614
 31
0.0
  0
SPLINE
  5
180
330
1F
100
AcDbEntity
  8
0
  6
Continuous
 62
     7
370
    25
100
AcDbSpline
210
0.0
220
0.0
230
1.0
 70
     8
 71
     3
 72
    32
 73
    28
 74
     0
 42
0.00000001
 43
0.00000001
 40
0.0
 40
0.0
 40
0.0
 40
0.0
 40
0.0625000000000001
 40
0.0625000000000001
 40
0.1250000000000001
 40
0.1250000000000001
 40
0.1875000000000002
 40
0.1875000000000002
 40
0.2500000000000003
 40
0.2500000000000003
 40
0.3750000000000003
 40
0.3750000000000003
 40
0.4375000000000003
 40
0.4375000000000003
 40
0.5000000000000002
 40
0.5000000000000002
 40
0.5625000000000002
 40
0.5625000000000002
 40
0.6250000000000001
 40
0.6250000000000001
 40
0.7500000000000001
 40
0.7500000000000001
 40
0.8750000000000002
 40
0.8750000000000002
 40
0.9375000000000001
 40
0.9375000000000001
 40
1.0
 40
1.0
 40
1.0
 40
1.0
 10
59.20534754727812
 20
49.39621360743275
 30
0.0
 10
59.04849121136123
 20
49.30125662953706
 30
0.0
 10
58.87549277720559
 20
49.19850345491188
 30
0.0
 10
58.49878819057979
 20
48.98179225326361
 30
0.0
 10
58.29593541012309
 20
48.8683735427736
 30
0.0
 10
57.86995414732051
 20
48.64028340607543
 30
0.0
 10
57.64577618703248
 20
48.52497652362357
 30
0.0
 10
57.17442509345609
 20
48.2966534212488
 30
0.0
 10
56.925739578091
 20
48.18300340511504
 30
0.0
 10
56.15516709339936
 20
47.85993937388101
 30
0.0
 10
55.60952968331718
 20
47.66704084971751
 30
0.0
 10
54.72674993482085
 20
47.4554469244438
 30
0.0
 10
54.428110834948
 20
47.39980453832606
 30
0.0
 10
53.82160923423223
 20
47.32413646896222
 30
0.0
 10
53.51146199556631
 20
47.3041632231859
 30
0.0
 10
52.89137650688254
 20
47.30449698943915
 30
0.0
 10
52.5848054694145
 20
47.32449595476193
 30
0.0
 10
51.97815072210631
 20
47.40053474095841
 30
0.0
 10
51.67577765748101
 20
47.45718784108995
 30
0.0
 10
50.79914135472804
 20
47.6679663911358
 30
0.0
 10
50.25108722275114
 20
47.86151222170755
 30
0.0
 10
49.22058995550785
 20
48.29413151498334
 30
0.0
 10
48.75302992022839
 20
48.52660815967377
 30
0.0
 10
48.11481631660046
 20
48.86834616059281
 30
0.0
 10
47.91160657841063
 20
48.98196367602121
 30
0.0
 10
47.53526965201619
 20
49.19846606837744
 30
0.0
 10
47.36229104352469
 20
49.30120386482184
 30
0.0
 10
47.2053475472866
 20
49.39621360743791
 30
0.0
  0
LINE
  5
181
330
1F
100
AcDbEntity
  8
0
  6
Continuous
 62
     7
370
    25
100
AcDbLine
 10
59.2053475473
 20
49.3962136074
 30
0.0
 11
59.2053475473
 21
48.8229750614
 31
0.0
  0
SPLINE
  5
182
330
1F
100
AcDbEntity
  8
0
  6
Continuous
 62
     7
370
    25
100
AcDbSpline
210
0.0
220
0.0
230
1.0
 70
     8
 71
     3
 72
    11
 73
     7
 74
     0
 42
0.00000001
 43
0.00000001
 40
0.0
 40
0.0
 40
0.0
 40
0.0
 40
0.0860363962994498
 40
0.3126240132839471
 40
0.544481681962628
 40
1.0
 40
1.0
 40
1.0
 40
1.0
 10
59.37869473475362
 20
50.25466072291322
 30
0.0
 10
59.37988355177372
 20
50.25867434845158
 30
0.0
 10
59.38420326719499
 20
50.27325835914458
 30
0.0
 10
59.35302375887525
 20
50.16670213504231
 30
0.0
 10
59.2705961499674
 20
49.88615420318335
 30
0.0
 10
59.23135339369237
 20
49.59148705939149
 30
0.0
 10
59.20534754728659
 20
49.39621360743078
 30
0.0
  0
SPLINE
  5
183
330
1F
100
AcDbEntity
  8
0
  6
Continuous
 62
     7
370
    25
100
AcDbSpline
210
0.0
220
0.0
230
1.0
 70
     8
 71
     3
 72
    11
 73
     7
 74
     0
 42
0.00000001
 43
0.00000001
 40
0.0
 40
0.0
 40
0.0
 40
0.0
 40
0.3176324526272621
 40
0.6359520303879934
 40
0.8656787339439769
 40
1.0
 40
1.0
 40
1.0
 40
1.0
 10
47.20534754728659
 20
49.39621360743782
 30
0.0
 10
47.19170880331581
 20
49.52747819350549
 30
0.0
 10
47.16440181107235
 20
49.79029132653805
 30
0.0
 10
47.07639698194529
 20
50.10193646022972
 30
0.0
 10
47.03183626743336
 20
50.25568412705833
 30
0.0
 10
47.03218517154073
 20
50.25417010452473
 30
0.0
 10
47.03231390523888
 20
50.25361148192406
 30
0.0
  0
SPLINE
  5
184
330
1F
100
AcDbEntity
  8
0
  6
Continuous
 62
     7
370
    25
100
AcDbSpline
210
0.0
220
0.0
230
1.0
 70
     8
 71
     3
 72
    10
 73
     6
 74
     0
 42
0.00000001
 43
0.00000001
 40
0.0
 40
0.0
 40
0.0
 40
0.0
 40
0.1601790552921523
 40
0.7197651707804853
 40
1.0
 40
1.0
 40
1.0
 40
1.0
 10
46.49339670890949
 20
51.19465441688808
 30
0.0
 10
46.49263391881625
 20
51.19604664491446
 30
0.0
 10
46.48920631874251
 20
51.20230262664278
 30
0.0
 10
46.50371378354079
 20
51.17579536191487
 30
0.0
 10
46.52164333665863
 20
51.14323950676972
 30
0.0
 10
46.52762614202639
 20
51.13237613813836
 30
0.0
  0
SPLINE
  5
185
330
1F
100
AcDbEntity
  8
0
  6
Continuous
 62
     7
370
    25
100
AcDbSpline
210
0.0
220
0.0
230
1.0
 70
     8
 71
     3
 72
    10
 73
     6
 74
     0
 42
0.00000001
 43
0.00000001
 40
0.0
 40
0.0
 40
0.0
 40
0.0
 40
0.1593935212994637
 40
0.7189934545690476
 40
1.0
 40
1.0
 40
1.0
 40
1.0
 10
63.99338915244896
 20
31.72885004081941
 30
0.0
 10
63.9926276254515
 20
31.72746012199279
 30
0.0
 10
63.98919252393556
 20
31.72119046604587
 30
0.0
 10
64.00368714640207
 20
31.74767440786965
 30
0.0
 10
64.0216285168948
 20
31.78025181191652
 30
0.0
 10
64.02762614202639
 20
31.79114212028587
 30
0.0
  0
LINE
  5
186
330
1F
100
AcDbEntity
  8
0
  6
Continuous
 62
     7
370
    25
100
AcDbLine
 10
64.7053475473
 20
34.100543197
 30
0.0
 11
64.7053475473
 21
32.9617591292
 31
0.0
  0
SPLINE
  5
187
330
1F
100
AcDbEntity
  8
0
  6
Continuous
 62
     7
370
    25
100
AcDbSpline
210
0.0
220
0.0
230
1.0
 70
     8
 71
     3
 72
     9
 73
     5
 74
     0
 42
0.00000001
 43
0.00000001
 40
0.0
 40
0.0
 40
0.0
 40
0.0
 40
0.5789479223839391
 40
1.0
 40
1.0
 40
1.0
 40
1.0
 10
42.38306895254678
 20
51.13237613813834
 30
0.0
 10
42.39540984286104
 20
51.1548175053307
 30
0.0
 10
42.41672590573496
 20
51.19357982975526
 30
0.0
 10
42.41713407964949
 20
51.19434573261461
 30
0.0
 10
42.41730594212424
 20
51.1946682176048
 30
0.0
  0
LINE
  5
188
330
1F
100
AcDbEntity
  8
0
  6
Continuous
 62
     7
370
    25
100
AcDbLine
 10
41.7053475473
 20
49.9617591292
 30
0.0
 11
41.7053475473
 21
48.8229750614
 31
0.0
  0
SPLINE
  5
189
330
1F
100
AcDbEntity
  8
0
  6
Continuous
 62
     7
370
    25
100
AcDbSpline
210
0.0
220
0.0
230
1.0
 70
     8
 71
     3
 72
     9
 73
     5
 74
     0
 42
0.00000001
 43
0.00000001
 40
0.0
 40
0.0
 40
0.0
 40
0.0
 40
0.5797912171256431
 40
1.0
 40
1.0
 40
1.0
 40
1.0
 10
59.88306895254678
 20
51.13237613813834
 30
0.0
 10
59.89542755589326
 20
51.15484978637947
 30
0.0
 10
59.91674316568766
 20
51.19361140880029
 30
0.0
 10
59.91713410819043
 20
51.1943458135585
 30
0.0
 10
59.9172983856637
 20
51.19465441688808
 30
0.0
  0
SPLINE
  5
18A
330
1F
100
AcDbEntity
  8
0
  6
Continuous
 62
     7
370
    25
100
AcDbSpline
210
0.0
220
0.0
230
1.0
 70
     8
 71
     3
 72
     9
 73
     5
 74
     0
 42
0.00000001
 43
0.00000001
 40
0.0
 40
0.0
 40
0.0
 40
0.0
 40
0.5789479223839434
 40
1.0
 40
1.0
 40
1.0
 40
1.0
 10
64.02762614202639
 20
51.13237613813834
 30
0.0
 10
64.01528525171214
 20
51.1548175053307
 30
0.0
 10
63.99396918883822
 20
51.19357982975527
 30
0.0
 10
63.99356101492369
 20
51.19434573261462
 30
0.0
 10
63.99338915244896
 20
51.19466821760481
 30
0.0
  0
LINE
  5
18B
330
1F
100
AcDbEntity
  8
0
  6
Continuous
 62
     7
370
    25
100
AcDbLine
 10
64.7053475473
 20
49.9617591292
 30
0.0
 11
64.7053475473
 21
48.8229750614
 31
0.0
  0
SPLINE
  5
18C
330
1F
100
AcDbEntity
  8
0
  6
Continuous
 62
     7
370
    25
100
AcDbSpline
210
0.0
220
0.0
230
1.0
 70
     8
 71
     3
 72
    10
 73
     6
 74
     0
 42
0.00000001
 43
0.00000001
 40
0.0
 40
0.0
 40
0.0
 40
0.0
 40
0.1593935212994365
 40
0.7189934545690234
 40
1.0
 40
1.0
 40
1.0
 40
1.0
 10
42.41730594212423
 20
31.72885004081941
 30
0.0
 10
42.41806746912168
 20
31.72746012199279
 30
0.0
 10
42.42150257063761
 20
31.72119046604586
 30
0.0
 10
42.40700794817111
 20
31.74767440786965
 30
0.0
 10
42.3890665776784
 20
31.78025181191651
 30
0.0
 10
42.38306895254679
 20
31.79114212028587
 30
0.0
  0
LINE
  5
18D
330
1F
100
AcDbEntity
  8
0
  6
Continuous
 62
     7
370
    25
100
AcDbLine
 10
41.7053475473
 20
34.100543197
 30
0.0
 11
41.7053475473
 21
32.9617591292
 31
0.0
  0
LINE
  5
18E
330
1F
100
AcDbEntity
  8
0
  6
Continuous
 62
     7
370
    25
100
AcDbLine
 10
62.9429518543
 20
31.7241548222
 30
0.0
 11
62.8759645562
 21
31.7911421203
 31
0.0
  0
LINE
  5
18F
330
1F
100
AcDbEntity
  8
0
  6
Continuous
 62
     7
370
    25
100
AcDbLine
 10
62.8759645562
 20
30.4617591292
 30
0.0
 11
62.9429518543
 21
30.4617591292
 31
0.0
  0
LINE
  5
190
330
1F
100
AcDbEntity
  8
0
  6
Continuous
 62
     7
370
    25
100
AcDbLine
 10
43.5347305384
 20
31.7911421203
 30
0.0
 11
43.4677432403
 21
31.7241548222
 31
0.0
  0
LINE
  5
191
330
1F
100
AcDbEntity
  8
0
  6
Continuous
 62
     7
370
    25
100
AcDbLine
 10
43.4677432403
 20
30.4617591292
 30
0.0
 11
43.5347305384
 21
30.4617591292
 31
0.0
  0
LINE
  5
192
330
1F
100
AcDbEntity
  8
0
  6
Continuous
 62
     7
370
    25
100
AcDbLine
 10
53.1424646825
 20
71.0497014646
 30
0.0
 11
53.1424646825
 21
71.0616520265
 31
0.0
  0
LINE
  5
193
330
1F
100
AcDbEntity
  8
0
  6
Continuous
 62
     7
370
    25
100
AcDbLine
 10
53.2682304121
 20
71.0497014646
 30
0.0
 11
53.2682304121
 21
71.0616520265
 31
0.0
  0
LINE
  5
194
330
1F
100
AcDbEntity
  8
0
  6
Continuous
 62
     7
370
    25
100
AcDbLine
 10
45.6721777991
 20
52.4261356042
 30
0.0
 11
60.7385172955
 21
52.4261356042
 31
0.0
  0
LINE
  5
195
330
1F
100
AcDbEntity
  8
0
  6
Continuous
 62
     7
370
    25
100
AcDbLine
 10
53.2053475473
 20
70.0657149746
 30
0.0
 11
47.6211657635
 21
70.0657149746
 31
0.0
  0
LINE
  5
196
330
1F
100
AcDbEntity
  8
0
  6
Continuous
 62
     7
370
    25
100
AcDbLine
 10
58.7895293311
 20
70.0657149746
 30
0.0
 11
53.2053475473
 21
70.0657149746
 31
0.0
  0
SPLINE
  5
197
330
1F
100
AcDbEntity
  8
0
  6
Continuous
 62
     7
370
    25
100
AcDbSpline
210
0.0
220
0.0
230
1.0
 70
     8
 71
     3
 72
    30
 73
    26
 74
     0
 42
0.00000001
 43
0.00000001
 40
0.0
 40
0.0
 40
0.0
 40
0.0
 40
0.0110312722262701
 40
0.0532776265579245
 40
0.0955511195044514
 40
0.1522053755008138
 40
0.2089593022719402
 40
0.2161888027503044
 40
0.2769248556239772
 40
0.3376601347393833
 40
0.3847636041156985
 40
0.431772317345874
 40
0.4687710621021385
 40
0.5057310672301832
 40
0.5426489938041207
 40
0.5796159976696663
 40
0.6291510721534892
 40
0.6787778982842458
 40
0.7318134972012218
 40
0.7848404127214947
 40
0.829479308730727
 40
0.8740834046502354
 40
0.916563737727116
 40
0.9590090623501895
 40
1.0
 40
1.0
 40
1.0
 40
1.0
 10
47.30534754728659
 20
50.96175912921211
 30
0.0
 10
47.30617159463283
 20
50.96106129731439
 30
0.0
 10
47.31015148796504
 20
50.95769098548781
 30
0.0
 10
47.38093319689425
 20
50.89734134188247
 30
0.0
 10
47.60222192699351
 20
50.71181124622454
 30
0.0
 10
47.99278494239002
 20
50.39126530128291
 30
0.0
 10
48.39602702847623
 20
50.07758839774257
 30
0.0
 10
48.86284126756512
 20
49.73119910985265
 30
0.0
 10
49.39846910164317
 20
49.35077416284923
 30
0.0
 10
50.21421947964566
 20
48.85275061258855
 30
0.0
 10
51.05577928541013
 20
48.44063273951474
 30
0.0
 10
51.83918620403685
 20
48.1636336232997
 30
0.0
 10
52.6121710811415
 20
48.01221647083771
 30
0.0
 10
53.34276138541733
 20
47.97406700030246
 30
0.0
 10
54.06748384787294
 20
48.05339889674084
 30
0.0
 10
54.84085343759082
 20
48.24590208000049
 30
0.0
 10
55.63124840629121
 20
48.5630616728779
 30
0.0
 10
56.42805236316809
 20
48.98833971167353
 30
0.0
 10
57.15542181328893
 20
49.45080240475104
 30
0.0
 10
57.76961925438665
 20
49.89120867765349
 30
0.0
 10
58.26310407916041
 20
50.26969036265567
 30
0.0
 10
58.63807852323914
 20
50.57138184547482
 30
0.0
 10
58.90860214888749
 20
50.79525453698574
 30
0.0
 10
59.07977722198803
 20
50.9400427659347
 30
0.0
 10
59.09518891972709
 20
50.95305850033795
 30
0.0
 10
59.10276044706892
 20
50.95945292816652
 30
0.0
  0
LINE
  5
198
330
1F
100
AcDbEntity
  8
0
  6
Continuous
 62
     7
370
    18
100
AcDbLine
 10
45.3553475473
 20
29.9617591292
 30
0.0
 11
45.7031661836
 21
18.8315627656
 31
0.0
  0
LINE
  5
199
330
1F
100
AcDbEntity
  8
0
  6
Continuous
 62
     7
370
    18
100
AcDbLine
 10
60.7075289109
 20
18.8315627656
 30
0.0
 11
61.0553475473
 21
29.9617591292
 31
0.0
  0
LINE
  5
19A
330
1F
100
AcDbEntity
  8
0
  6
Continuous
 62
     7
370
    25
100
AcDbLine
 10
60.7797545456
 20
29.9617591292
 30
0.0
 11
60.3533724134
 21
29.9617591292
 31
0.0
  0
LINE
  5
19B
330
1F
100
AcDbEntity
  8
0
  6
Continuous
 62
     7
370
    25
100
AcDbLine
 10
46.0573226812
 20
29.9617591292
 30
0.0
 11
45.630940549
 21
29.9617591292
 31
0.0
  0
LINE
  5
19C
330
1F
100
AcDbEntity
  8
0
  6
Continuous
 62
     7
370
    25
100
AcDbLine
 10
53.6317296795
 20
29.9617591292
 30
0.0
 11
52.7789654151
 21
29.9617591292
 31
0.0
  0
LINE
  5
19D
330
1F
100
AcDbEntity
  8
0
  6
Continuous
 62
     7
370
    18
100
AcDbLine
 10
67.7053475473
 20
33.9867591292
 30
0.0
 11
73.0206687956
 21
33.9867591292
 31
0.0
  0
LINE
  5
19E
330
1F
100
AcDbEntity
  8
0
  6
Continuous
 62
     7
370
    18
100
AcDbLine
 10
73.0206687956
 20
48.9367591292
 30
0.0
 11
67.7053475473
 21
48.9367591292
 31
0.0
  0
LINE
  5
19F
330
1F
100
AcDbEntity
  8
0
  6
Continuous
 62
     7
370
    25
100
AcDbLine
 10
67.7053475473
 20
33.1307591292
 30
0.0
 11
67.7053475473
 21
33.1763972189
 31
0.0
  0
LWPOLYLINE
  5
1A0
330
1F
100
AcDbEntity
  8
0
  6
Continuous
 62
     7
370
     0
100
AcDbPolyline
 90
       31
 70
   128
 43
0.0
 10
67.7053332329
 20
33.1763972189
 10
67.7053475473
 20
33.3128114675
 10
67.7053475473
 20
33.538507292
 10
67.7053475473
 20
33.8510119216
 10
67.7053475473
 20
34.2469014903
 10
67.7053475473
 20
34.7218385491
 10
67.7053475473
 20
35.2706195882
 10
67.7053475473
 20
35.8872320476
 10
67.7053475473
 20
36.5649201924
 10
67.7053475473
 20
37.2962591292
 10
67.7053475473
 20
38.0732361557
 10
67.7053475473
 20
38.8873385491
 10
67.7053475473
 20
39.729646833
 10
67.7053475473
 20
40.5909325017
 10
67.7053475473
 20
41.4617591292
 10
67.7053475473
 20
42.3325857567
 10
67.7053475473
 20
43.1938714254
 10
67.7053475473
 20
44.0361797093
 10
67.7053475473
 20
44.8502821027
 10
67.7053475473
 20
45.6272591292
 10
67.7053475473
 20
46.3585980661
 10
67.7053475473
 20
47.0362862108
 10
67.7053475473
 20
47.6528986703
 10
67.7053475473
 20
48.2016797093
 10
67.7053475473
 20
48.6766167681
 10
67.7053475473
 20
49.0725063368
 10
67.7053475473
 20
49.3850109665
 10
67.7053475473
 20
49.6107067909
 10
67.7053475473
 20
49.7471210395
 10
67.7053475473
 20
49.7927591292
 10
67.7053475473
 20
49.7927591292
  0
LINE
  5
1A1
330
1F
100
AcDbEntity
  8
0
  6
Continuous
 62
     7
370
    18
100
AcDbLine
 10
38.7053475473
 20
48.9367591292
 30
0.0
 11
33.390026299
 21
48.9367591292
 31
0.0
  0
LINE
  5
1A2
330
1F
100
AcDbEntity
  8
0
  6
Continuous
 62
     7
370
    18
100
AcDbLine
 10
33.390026299
 20
33.9867591292
 30
0.0
 11
38.7053475473
 21
33.9867591292
 31
0.0
  0
LINE
  5
1A3
330
1F
100
AcDbEntity
  8
0
  6
Continuous
 62
     7
370
    25
100
AcDbLine
 10
38.7053475473
 20
49.7927591292
 30
0.0
 11
38.7053475473
 21
49.7471210395
 31
0.0
  0
LWPOLYLINE
  5
1A4
330
1F
100
AcDbEntity
  8
0
  6
Continuous
 62
     7
370
     0
100
AcDbPolyline
 90
       31
 70
   128
 43
0.0
 10
38.7053191662
 20
49.7471210395
 10
38.7053475473
 20
49.6107067909
 10
38.7053475473
 20
49.3850109665
 10
38.7053475473
 20
49.0725063368
 10
38.7053475473
 20
48.6766167681
 10
38.7053475473
 20
48.2016797093
 10
38.7053475473
 20
47.6528986703
 10
38.7053475473
 20
47.0362862108
 10
38.7053475473
 20
46.3585980661
 10
38.7053475473
 20
45.6272591292
 10
38.7053475473
 20
44.8502821027
 10
38.7053475473
 20
44.0361797093
 10
38.7053475473
 20
43.1938714254
 10
38.7053475473
 20
42.3325857567
 10
38.7053475473
 20
41.4617591292
 10
38.7053475473
 20
40.5909325017
 10
38.7053475473
 20
39.729646833
 10
38.7053475473
 20
38.8873385491
 10
38.7053475473
 20
38.0732361557
 10
38.7053475473
 20
37.2962591292
 10
38.7053475473
 20
36.5649201924
 10
38.7053475473
 20
35.8872320476
 10
38.7053475473
 20
35.2706195882
 10
38.7053475473
 20
34.7218385491
 10
38.7053475473
 20
34.2469014903
 10
38.7053475473
 20
33.8510119216
 10
38.7053475473
 20
33.538507292
 10
38.7053475473
 20
33.3128114675
 10
38.7053475473
 20
33.1763972189
 10
38.7053475473
 20
33.1307591292
 10
38.7053475473
 20
33.1307591292
  0
LINE
  5
1A5
330
1F
100
AcDbEntity
  8
0
  6
CENTERX2
 62
     7
370
    18
100
AcDbLine
 10
14.8221520837
 20
41.4617591292
 30
0.0
 11
90.8324359418
 21
41.4617591292
 31
0.0
  0
LINE
  5
1A6
330
1F
100
AcDbEntity
  8
0
  6
CENTERX2
 62
     7
370
    18
100
AcDbLine
 10
53.2053475473
 20
14.6795353972
 30
0.0
 11
53.2053475473
 21
75.3556620194
 31
0.0
  0
ARC
  5
1A7
330
1F
100
AcDbEntity
  8
0
  6
Continuous
 62
     7
370
    25
100
AcDbCircle
 10
123.4895031868
 20
50.4617591292
 30
0.0
 40
20.50000000000001
100
AcDbArc
 50
99.3449833975
 51
102.6803834918
  0
ARC
  5
1A8
330
1F
100
AcDbEntity
  8
0
  6
Continuous
 62
     7
370
    25
100
AcDbCircle
 10
123.4895031868
 20
50.4617591292
 30
0.0
 40
20.5
100
AcDbArc
 50
77.3196165082
 51
80.6550166025
  0
LINE
  5
1A9
330
1F
100
AcDbEntity
  8
0
  6
Continuous
 62
     7
370
    25
100
AcDbLine
 10
123.4883123595
 20
58.9617591292
 30
0.0
 11
123.4906940141
 21
58.9617591292
 31
0.0
  0
LINE
  5
1AA
330
1F
100
AcDbEntity
  8
0
  6
Continuous
 62
     7
370
    25
100
AcDbLine
 10
125.8458678312
 20
71.9617591292
 30
0.0
 11
121.1331385423
 21
71.9617591292
 31
0.0
  0
ARC
  5
1AB
330
1F
100
AcDbEntity
  8
0
  6
Continuous
 62
     7
370
    25
100
AcDbCircle
 10
97.5737081403
 20
67.85131974
 30
0.0
 40
20.0
100
AcDbArc
 50
333.6100518522
 51
1.749051671
  0
ARC
  5
1AC
330
1F
100
AcDbEntity
  8
0
  6
Continuous
 62
     7
370
    25
100
AcDbCircle
 10
149.4052982333
 20
67.85131974
 30
0.0
 40
19.99999999999999
100
AcDbArc
 50
178.250948329
 51
206.3899481478
  0
LINE
  5
1AD
330
1F
100
AcDbEntity
  8
0
  6
Continuous
 62
     7
370
    25
100
AcDbLine
 10
115.4895031986
 20
58.9617589641
 30
0.0
 11
115.9563334386
 21
52.4261356042
 31
0.0
  0
LINE
  5
1AE
330
1F
100
AcDbEntity
  8
0
  6
Continuous
 62
     7
370
    25
100
AcDbLine
 10
131.022672935
 20
52.4261356042
 30
0.0
 11
131.489503175
 21
58.9617589641
 31
0.0
  0
ARC
  5
1AF
330
1F
100
AcDbEntity
  8
0
  6
Continuous
 62
     7
370
    25
100
AcDbCircle
 10
130.5239435851
 20
52.4617591292
 30
0.0
 40
0.5000000000000105
100
AcDbArc
 50
270.0
 51
355.91438322
  0
ARC
  5
1B0
330
1F
100
AcDbEntity
  8
0
  6
Continuous
 62
     7
370
    25
100
AcDbCircle
 10
116.4550627885
 20
52.4617591292
 30
0.0
 40
0.5
100
AcDbArc
 50
184.08561678
 51
270.0
  0
LINE
  5
1B1
330
1F
100
AcDbEntity
  8
0
  6
Continuous
 62
     7
370
    25
100
AcDbLine
 10
129.4146163101
 20
68.4617591292
 30
0.0
 11
129.0736849706
 21
70.0657149746
 31
0.0
  0
LINE
  5
1B2
330
1F
100
AcDbEntity
  8
0
  6
Continuous
 62
     7
370
    25
100
AcDbLine
 10
117.905321403
 20
70.0657149746
 30
0.0
 11
117.5643900634
 21
68.4617591292
 31
0.0
  0
ARC
  5
1B3
330
1F
100
AcDbEntity
  8
0
  6
Continuous
 62
     7
370
    25
100
AcDbCircle
 10
118.3943952034
 20
69.9617591292
 30
0.0
 40
0.5
100
AcDbArc
 50
90.0
 51
168.0
  0
ARC
  5
1B4
330
1F
100
AcDbEntity
  8
0
  6
Continuous
 62
     7
370
    25
100
AcDbCircle
 10
128.5846111702
 20
69.9617591292
 30
0.0
 40
0.5000000000000261
100
AcDbArc
 50
12.0
 51
90.0
  0
LINE
  5
1B5
330
1F
100
AcDbEntity
  8
0
  6
Continuous
 62
     7
370
    25
100
AcDbLine
 10
114.9895031868
 20
29.6197591292
 30
0.0
 11
115.2888271922
 21
20.0413909552
 31
0.0
  0
LINE
  5
1B6
330
1F
100
AcDbEntity
  8
0
  6
Continuous
 62
     7
370
    25
100
AcDbLine
 10
131.6901791813
 20
20.0413909552
 30
0.0
 11
131.9895031868
 21
29.6197591292
 31
0.0
  0
LINE
  5
1B7
330
1F
100
AcDbEntity
  8
0
  6
Continuous
 62
     7
370
    25
100
AcDbLine
 10
115.2888271922
 20
20.0413909552
 30
0.0
 11
116.4895031868
 21
17.9617591292
 31
0.0
  0
LINE
  5
1B8
330
1F
100
AcDbEntity
  8
0
  6
Continuous
 62
     7
370
    25
100
AcDbLine
 10
130.4895031868
 20
17.9617591292
 30
0.0
 11
131.6901791813
 21
20.0413909552
 31
0.0
  0
LINE
  5
1B9
330
1F
100
AcDbEntity
  8
0
  6
Continuous
 62
     7
370
    25
100
AcDbLine
 10
129.3895031868
 20
50.179748194
 30
0.0
 11
129.3895031868
 21
51.9617591292
 31
0.0
  0
LINE
  5
1BA
330
1F
100
AcDbEntity
  8
0
  6
Continuous
 62
     7
370
    25
100
AcDbLine
 10
117.5895031868
 20
51.9617591292
 30
0.0
 11
117.5895031868
 21
50.179748194
 31
0.0
  0
CIRCLE
  5
1BB
330
1F
100
AcDbEntity
  8
0
  6
Continuous
 62
     7
370
    25
100
AcDbCircle
 10
123.4895031868
 20
41.4617591292
 30
0.0
 40
2.899999999999997
  0
CIRCLE
  5
1BC
330
1F
100
AcDbEntity
  8
0
  6
Continuous
 62
     7
370
    25
100
AcDbCircle
 10
123.4895031868
 20
41.4617591292
 30
0.0
 40
5.050000000000015
  0
CIRCLE
  5
1BD
330
1F
100
AcDbEntity
  8
0
  6
Continuous
 62
     7
370
    25
100
AcDbCircle
 10
123.4895031868
 20
41.4617591292
 30
0.0
 40
10.25000000000001
  0
CIRCLE
  5
1BE
330
1F
100
AcDbEntity
  8
0
  6
Continuous
 62
     7
370
    25
100
AcDbCircle
 10
123.4895031868
 20
41.4617591292
 30
0.0
 40
5.174999999999983
  0
SPLINE
  5
1BF
330
1F
100
AcDbEntity
  8
0
  6
Continuous
 62
     7
370
    25
100
AcDbSpline
210
0.0
220
0.0
230
1.0
 70
    24
 71
     3
 72
    14
 73
    10
 74
     0
 42
0.00000001
 43
0.00000001
 40
0.0
 40
0.0
 40
0.0
 40
0.0
 40
0.1323181917627738
 40
0.264598971733275
 40
0.3998389716033099
 40
0.5350545670005468
 40
0.6502551587200379
 40
0.7654737204835332
 40
1.0
 40
1.0
 40
1.0
 40
1.0
 10
123.4895031867825
 20
53.58611478219426
 30
0.0
 10
123.9431472384697
 20
53.32420326683634
 30
0.0
 10
124.850307078022
 20
52.80045428927281
 30
0.0
 10
126.2472636644677
 20
51.99392102804221
 30
0.0
 10
127.670510916381
 20
51.17220884402666
 30
0.0
 10
129.0423495449747
 20
50.38017744252334
 30
0.0
 10
130.3395711057017
 20
49.63122622523904
 30
0.0
 10
131.978909888331
 20
48.68475353779503
 30
0.0
 10
133.1824515473589
 20
47.98988843697435
 30
0.0
 10
133.9895031867824
 20
47.52393695570331
 30
0.0
  0
SPLINE
  5
1C0
330
1F
100
AcDbEntity
  8
0
  6
Continuous
 62
     7
370
    25
100
AcDbSpline
210
0.0
220
0.0
230
1.0
 70
    24
 71
     3
 72
    14
 73
    10
 74
     0
 42
0.00000001
 43
0.00000001
 40
0.0
 40
0.0
 40
0.0
 40
0.0
 40
0.1851527717470164
 40
0.3719409992820294
 40
0.4970731810911708
 40
0.62220480411718
 40
0.7506723895444801
 40
0.8791751389606527
 40
1.0
 40
1.0
 40
1.0
 40
1.0
 10
133.9895031867824
 20
47.52393695570331
 30
0.0
 10
133.9895031867824
 20
46.78958506871871
 30
0.0
 10
133.9895031867824
 20
45.31439475915698
 30
0.0
 10
133.9895031867824
 20
43.29012642343459
 30
0.0
 10
133.9895031867825
 20
41.49746188428088
 30
0.0
 10
133.9895031867825
 20
39.94303506314223
 30
0.0
 10
133.9895031867825
 20
38.38635602908903
 30
0.0
 10
133.9895031867825
 20
36.86433960953772
 30
0.0
 10
133.9895031867825
 20
35.87770648762834
 30
0.0
 10
133.9895031867825
 20
35.39958130272112
 30
0.0
  0
SPLINE
  5
1C1
330
1F
100
AcDbEntity
  8
0
  6
Continuous
 62
     7
370
    25
100
AcDbSpline
210
0.0
220
0.0
230
1.0
 70
    24
 71
     3
 72
    14
 73
    10
 74
     0
 42
0.00000001
 43
0.00000001
 40
0.0
 40
0.0
 40
0.0
 40
0.0
 40
0.1323181917627721
 40
0.2645989717332716
 40
0.3998389716033047
 40
0.53505456700054
 40
0.6502551587200327
 40
0.7654737204835297
 40
1.0
 40
1.0
 40
1.0
 40
1.0
 10
133.9895031867825
 20
35.39958130272112
 30
0.0
 10
133.5358591350953
 20
35.1376697873632
 30
0.0
 10
132.628699295543
 20
34.61392080979965
 30
0.0
 10
131.2317427090973
 20
33.80738754856904
 30
0.0
 10
129.808495457184
 20
32.98567536455347
 30
0.0
 10
128.4366568285903
 20
32.19364396305014
 30
0.0
 10
127.1394352678632
 20
31.44469274576578
 30
0.0
 10
125.5000964852339
 20
30.49822005832174
 30
0.0
 10
124.296554826206
 20
29.80335495750103
 30
0.0
 10
123.4895031867825
 20
29.33740347622995
 30
0.0
  0
SPLINE
  5
1C2
330
1F
100
AcDbEntity
  8
0
  6
Continuous
 62
     7
370
    25
100
AcDbSpline
210
0.0
220
0.0
230
1.0
 70
    24
 71
     3
 72
    14
 73
    10
 74
     0
 42
0.00000001
 43
0.00000001
 40
0.0
 40
0.0
 40
0.0
 40
0.0
 40
0.1323181917627722
 40
0.2645989717332718
 40
0.399838971603305
 40
0.5350545670005402
 40
0.6502551587200328
 40
0.7654737204835299
 40
1.0
 40
1.0
 40
1.0
 40
1.0
 10
123.4895031867825
 20
29.33740347622995
 30
0.0
 10
123.0358591350953
 20
29.59931499158786
 30
0.0
 10
122.128699295543
 20
30.1230639691514
 30
0.0
 10
120.7317427090973
 20
30.929597230382
 30
0.0
 10
119.308495457184
 20
31.75130941439754
 30
0.0
 10
117.9366568285902
 20
32.54334081590087
 30
0.0
 10
116.6394352678632
 20
33.29229203318519
 30
0.0
 10
115.0000964852339
 20
34.23876472062921
 30
0.0
 10
113.7965548262059
 20
34.93362982144991
 30
0.0
 10
112.9895031867825
 20
35.39958130272097
 30
0.0
  0
SPLINE
  5
1C3
330
1F
100
AcDbEntity
  8
0
  6
Continuous
 62
     7
370
    25
100
AcDbSpline
210
0.0
220
0.0
230
1.0
 70
    24
 71
     3
 72
    14
 73
    10
 74
     0
 42
0.00000001
 43
0.00000001
 40
0.0
 40
0.0
 40
0.0
 40
0.0
 40
0.1208249287427931
 40
0.2461094493521964
 40
0.3713620614128114
 40
0.4997100906933618
 40
0.6280580493172243
 40
0.8130582632044381
 40
1.0
 40
1.0
 40
1.0
 40
1.0
 10
112.9895031867825
 20
35.39958130272097
 30
0.0
 10
112.9895031867825
 20
35.8777047769181
 30
0.0
 10
112.9895031867825
 20
36.85159904014176
 30
0.0
 10
112.9895031867825
 20
38.34738168214317
 30
0.0
 10
112.9895031867825
 20
39.89028243561238
 30
0.0
 10
112.9895031867824
 20
41.45780557283695
 30
0.0
 10
112.9895031867824
 20
43.26971369233468
 30
0.0
 10
112.9895031867824
 20
45.30714179605386
 30
0.0
 10
112.9895031867824
 20
46.78243823861831
 30
0.0
 10
112.9895031867824
 20
47.52393695570316
 30
0.0
  0
SPLINE
  5
1C4
330
1F
100
AcDbEntity
  8
0
  6
Continuous
 62
     7
370
    25
100
AcDbSpline
210
0.0
220
0.0
230
1.0
 70
    24
 71
     3
 72
    14
 73
    10
 74
     0
 42
0.00000001
 43
0.00000001
 40
0.0
 40
0.0
 40
0.0
 40
0.0
 40
0.1323181917627721
 40
0.2645989717332717
 40
0.3998389716033048
 40
0.53505456700054
 40
0.6502551587200327
 40
0.7654737204835297
 40
0.9999999999999999
 40
0.9999999999999999
 40
0.9999999999999999
 40
0.9999999999999999
 10
112.9895031867824
 20
47.52393695570316
 30
0.0
 10
113.4431472384697
 20
47.78584847106107
 30
0.0
 10
114.350307078022
 20
48.30959744862461
 30
0.0
 10
115.7472636644676
 20
49.11613070985523
 30
0.0
 10
117.170510916381
 20
49.93784289387078
 30
0.0
 10
118.5423495449747
 20
50.72987429537411
 30
0.0
 10
119.8395711057017
 20
51.47882551265845
 30
0.0
 10
121.478909888331
 20
52.42529820010248
 30
0.0
 10
122.682451547359
 20
53.12016330092319
 30
0.0
 10
123.4895031867825
 20
53.58611478219426
 30
0.0
  0
CIRCLE
  5
1C5
330
1F
100
AcDbEntity
  8
0
  6
Continuous
 62
     7
370
    25
100
AcDbCircle
 10
123.4895031868
 20
41.4617591292
 30
0.0
 40
5.074999999999989
  0
SPLINE
  5
1C6
330
1F
100
AcDbEntity
  8
0
  6
Continuous
 62
     7
370
    25
100
AcDbSpline
210
0.0
220
0.0
230
1.0
 70
     8
 71
     3
 72
    11
 73
     7
 74
     0
 42
0.00000001
 43
0.00000001
 40
0.0
 40
0.0
 40
0.0
 40
0.0
 40
0.0055682347466184
 40
0.191826336832104
 40
0.6296575784328784
 40
1.0
 40
1.0
 40
1.0
 40
1.0
 10
121.1331385423475
 20
71.96175912921213
 30
0.0
 10
121.1317543242716
 20
71.96175511013854
 30
0.0
 10
121.0840678500203
 20
71.96161665258457
 30
0.0
 10
120.9300976671819
 20
71.9353778765313
 30
0.0
 10
120.6845225924173
 20
71.78130491310986
 30
0.0
 10
120.6523508066071
 20
71.48404555935096
 30
0.0
 10
120.6376082115361
 20
71.34782762263546
 30
0.0
  0
SPLINE
  5
1C7
330
1F
100
AcDbEntity
  8
0
  6
Continuous
 62
     7
370
    25
100
AcDbSpline
210
0.0
220
0.0
230
1.0
 70
     8
 71
     3
 72
    11
 73
     7
 74
     0
 42
0.00000001
 43
0.00000001
 40
0.0
 40
0.0
 40
0.0
 40
0.0
 40
0.3703424215671235
 40
0.8081736631678963
 40
0.9944317652533821
 40
0.9999999999999999
 40
0.9999999999999999
 40
0.9999999999999999
 40
0.9999999999999999
 10
126.3413981620289
 20
71.34782762263545
 30
0.0
 10
126.3266555669579
 20
71.48404555935095
 30
0.0
 10
126.2944837811476
 20
71.78130491310984
 30
0.0
 10
126.0489087063835
 20
71.93537787653126
 30
0.0
 10
125.8949385235444
 20
71.96161665258455
 30
0.0
 10
125.8472520492934
 20
71.96175511013853
 30
0.0
 10
125.8458678312175
 20
71.9617591292121
 30
0.0
  0
LINE
  5
1C8
330
1F
100
AcDbEntity
  8
0
  6
Continuous
 62
     7
370
    25
100
AcDbLine
 10
124.9772850065
 20
60.3699646095
 30
0.0
 11
126.341398162
 21
71.3478276226
 31
0.0
  0
SPLINE
  5
1C9
330
1F
100
AcDbEntity
  8
0
  6
Continuous
 62
     7
370
    25
100
AcDbSpline
210
0.0
220
0.0
230
1.0
 70
     8
 71
     3
 72
    14
 73
    10
 74
     0
 42
0.00000001
 43
0.00000001
 40
0.0
 40
0.0
 40
0.0
 40
0.0
 40
0.0034863238848208
 40
0.0203208804397725
 40
0.2238597133569325
 40
0.4563556157495303
 40
0.6945924899112476
 40
0.8457249965626086
 40
1.0
 40
1.0
 40
1.0
 40
1.0
 10
123.490694014114
 20
58.96175912921213
 30
0.0
 10
123.4929466555148
 20
58.96176263556105
 30
0.0
 10
123.5060767197577
 20
58.96178307316224
 30
0.0
 10
123.6507129030141
 20
58.96424361591546
 30
0.0
 10
123.9427321621999
 20
59.01428688072322
 30
0.0
 10
124.3541165757383
 20
59.22288951791305
 30
0.0
 10
124.6760738055227
 20
59.55726583304182
 30
0.0
 10
124.892501769234
 20
59.94946742361308
 30
0.0
 10
124.9488307281209
 20
60.22884067527428
 30
0.0
 10
124.9772850065483
 20
60.36996460948212
 30
0.0
  0
SPLINE
  5
1CA
330
1F
100
AcDbEntity
  8
0
  6
Continuous
 62
     7
370
    25
100
AcDbSpline
210
0.0
220
0.0
230
1.0
 70
     8
 71
     3
 72
    14
 73
    10
 74
     0
 42
0.00000001
 43
0.00000001
 40
0.0
 40
0.0
 40
0.0
 40
0.0
 40
0.1509076573000543
 40
0.3054080403738428
 40
0.5376023347316407
 40
0.776141640482817
 40
0.9796792424551188
 40
0.9965136971994736
 40
1.0
 40
1.0
 40
1.0
 40
1.0
 10
122.0017213670166
 20
60.36996460948213
 30
0.0
 10
122.029370504786
 20
60.23180522751851
 30
0.0
 10
122.0853270356557
 20
59.95219724168332
 30
0.0
 10
122.298801132863
 20
59.56342813166779
 30
0.0
 10
122.6212451997804
 20
59.22544573212839
 30
0.0
 10
123.0323930190185
 20
59.01494805882508
 30
0.0
 10
123.3282931636121
 20
58.96424374117998
 30
0.0
 10
123.4729296557998
 20
58.96178307234896
 30
0.0
 10
123.4860597183419
 20
58.96176263544194
 30
0.0
 10
123.4883123594509
 20
58.96175912921212
 30
0.0
  0
LINE
  5
1CB
330
1F
100
AcDbEntity
  8
0
  6
Continuous
 62
     7
370
    25
100
AcDbLine
 10
120.6376082115
 20
71.3478276226
 30
0.0
 11
122.001721367
 21
60.3699646095
 31
0.0
  0
LINE
  5
1CC
330
1F
100
AcDbEntity
  8
0
  6
Continuous
 62
     7
370
    25
100
AcDbLine
 10
121.5061910362
 20
60.6949351049
 30
0.0
 11
120.1420778807
 21
70.8283471171
 31
0.0
  0
ARC
  5
1CD
330
1F
100
AcDbEntity
  8
0
  6
Continuous
 62
     7
370
    25
100
AcDbCircle
 10
120.6250448651
 20
70.8637293161
 30
0.0
 40
0.4842613014163456
100
AcDbArc
 50
88.5133904064
 51
184.1900080067
  0
ARC
  5
1CE
330
1F
100
AcDbEntity
  8
0
  6
Continuous
 62
     7
370
    25
100
AcDbCircle
 10
121.9339049238
 20
60.8068441518
 30
0.0
 40
0.4421117555840781
100
AcDbArc
 50
194.6624451414
 51
278.823554246
  0
LINE
  5
1CF
330
1F
100
AcDbEntity
  8
0
  6
Continuous
 62
     7
370
    25
100
AcDbLine
 10
126.8369284928
 20
70.8283471171
 30
0.0
 11
125.4728153374
 21
60.6949351049
 31
0.0
  0
ARC
  5
1D0
330
1F
100
AcDbEntity
  8
0
  6
Continuous
 62
     7
370
    25
100
AcDbCircle
 10
125.0451014497
 20
60.8068441518
 30
0.0
 40
0.4421117555840585
100
AcDbArc
 50
261.176445754
 51
345.3375548586
  0
ARC
  5
1D1
330
1F
100
AcDbEntity
  8
0
  6
Continuous
 62
     7
370
    25
100
AcDbCircle
 10
126.3539615084
 20
70.8637293161
 30
0.0
 40
0.4842613014163588
100
AcDbArc
 50
355.8099919933
 51
91.4866095936
  0
SPLINE
  5
1D2
330
1F
100
AcDbEntity
  8
0
  6
Continuous
 62
     7
370
    25
100
AcDbSpline
210
0.0
220
0.0
230
1.0
 70
     8
 71
     3
 72
    15
 73
    11
 74
     0
 42
0.00000001
 43
0.00000001
 40
0.0
 40
0.0
 40
0.0
 40
0.0
 40
0.0032941481656695
 40
0.0389555300109693
 40
0.092316493658448
 40
0.2214838269818533
 40
0.455755886074648
 40
0.6896123828215215
 40
0.844948629227338
 40
1.0
 40
1.0
 40
1.0
 40
1.0
 10
123.4883123594509
 20
58.96175912921212
 30
0.0
 10
123.4854419481971
 20
58.96176315326635
 30
0.0
 10
123.451497393758
 20
58.96181074042924
 30
0.0
 10
123.371060239499
 20
58.9640664594669
 30
0.0
 10
123.1813217260612
 20
58.98036308912276
 30
0.0
 10
122.8226667524765
 20
59.05484536491844
 30
0.0
 10
122.3318339343257
 20
59.28730500652544
 30
0.0
 10
121.9017951373805
 20
59.70182757217457
 30
0.0
 10
121.6166091707743
 20
60.1847660870301
 30
0.0
 10
121.5429745536292
 20
60.52498284996395
 30
0.0
 10
121.5061910362052
 20
60.69493510492906
 30
0.0
  0
SPLINE
  5
1D3
330
1F
100
AcDbEntity
  8
0
  6
Continuous
 62
     7
370
    25
100
AcDbSpline
210
0.0
220
0.0
230
1.0
 70
     8
 71
     3
 72
    15
 73
    11
 74
     0
 42
0.00000001
 43
0.00000001
 40
0.0
 40
0.0
 40
0.0
 40
0.0
 40
0.1525119975281642
 40
0.3103908680493851
 40
0.5397217434700959
 40
0.7785238912153802
 40
0.9076867233570571
 40
0.9610458274988164
 40
0.9967059666277489
 40
1.0
 40
1.0
 40
1.0
 40
1.0
 10
125.4728153373597
 20
60.69493510492904
 30
0.0
 10
125.4368471824918
 20
60.52749918743912
 30
0.0
 10
125.3636451590935
 20
60.18673530909083
 30
0.0
 10
125.0813371356222
 20
59.70790112507188
 30
0.0
 10
124.6505073159393
 20
59.28870205507362
 30
0.0
 10
124.1602877542229
 20
59.05579876885527
 30
0.0
 10
123.797681455599
 20
58.98035248242427
 30
0.0
 10
123.6079464922883
 20
58.96406764983706
 30
0.0
 10
123.5275089749862
 20
58.96181072441522
 30
0.0
 10
123.4935644249919
 20
58.96176315201776
 30
0.0
 10
123.490694014114
 20
58.96175912921212
 30
0.0
  0
SPLINE
  5
1D4
330
1F
100
AcDbEntity
  8
0
  6
Continuous
 62
     7
370
    25
100
AcDbSpline
210
0.0
220
0.0
230
1.0
 70
     8
 71
     3
 72
    17
 73
    13
 74
     0
 42
0.00000001
 43
0.00000001
 40
0.0
 40
0.0
 40
0.0
 40
0.0
 40
0.1643985251551214
 40
0.3825210752049382
 40
0.7105911790613386
 40
0.8150577891621212
 40
0.8799902898774312
 40
0.9216743917957982
 40
0.948759549159293
 40
0.9664454853042715
 40
0.9948962613988915
 40
1.0
 40
1.0
 40
1.0
 40
1.0
 10
120.1420778807246
 20
70.82834711707059
 30
0.0
 10
120.1388625603485
 20
70.94035162788386
 30
0.0
 10
120.1313811805354
 20
71.20096276088314
 30
0.0
 10
120.3147383955529
 20
71.59390134936913
 30
0.0
 10
120.5907365304274
 20
71.8266019297493
 30
0.0
 10
120.8326015344797
 20
71.91855536798481
 30
0.0
 10
120.9382232026638
 20
71.9437420561271
 30
0.0
 10
121.0059202654943
 20
71.95410749210305
 30
0.0
 10
121.0499071148175
 20
71.95849071725095
 30
0.0
 10
121.0872377391288
 20
71.96091307392892
 30
0.0
 10
121.11339899763
 20
71.9617099538612
 30
0.0
 10
121.1305324888466
 20
71.96175263698562
 30
0.0
 10
121.1331385423475
 20
71.96175912921213
 30
0.0
  0
SPLINE
  5
1D5
330
1F
100
AcDbEntity
  8
0
  6
Continuous
 62
     7
370
    25
100
AcDbSpline
210
0.0
220
0.0
230
1.0
 70
     8
 71
     3
 72
    17
 73
    13
 74
     0
 42
0.00000001
 43
0.00000001
 40
0.0
 40
0.0
 40
0.0
 40
0.0
 40
0.0051037386011219
 40
0.0335545146957463
 40
0.0512404508406915
 40
0.0783256082042153
 40
0.1200097101225738
 40
0.184942210837869
 40
0.2894088209386605
 40
0.6174789247950596
 40
0.8356014748448788
 40
1.0
 40
1.0
 40
1.0
 40
1.0
 10
125.8458678312175
 20
71.9617591292121
 30
0.0
 10
125.8484738847185
 20
71.9617526369856
 30
0.0
 10
125.8656073759355
 20
71.96170995386117
 30
0.0
 10
125.8917686344362
 20
71.96091307392891
 30
0.0
 10
125.9290992587476
 20
71.95849071725092
 30
0.0
 10
125.9730861080708
 20
71.95410749210302
 30
0.0
 10
126.0407831709013
 20
71.94374205612708
 30
0.0
 10
126.1464048390853
 20
71.9185553679848
 30
0.0
 10
126.3882698431376
 20
71.82660192974926
 30
0.0
 10
126.6642679780121
 20
71.59390134936913
 30
0.0
 10
126.8476251930297
 20
71.20096276088312
 30
0.0
 10
126.8401438132165
 20
70.94035162788383
 30
0.0
 10
126.8369284928404
 20
70.82834711707056
 30
0.0
  0
LWPOLYLINE
  5
1D6
330
1F
100
AcDbEntity
  8
0
  6
Continuous
 62
     7
370
    25
100
AcDbPolyline
 90
       15
 70
   128
 43
0.0
 10
123.4883123596
 20
58.9617589641
 10
122.5596647165
 20
58.9617589653
 10
121.6435891633
 20
58.9617589686
 10
120.7524717051
 20
58.9617589741
 10
119.8983608955
 20
58.9617589817
 10
119.0928049315
 20
58.9617589913
 10
118.3466955134
 20
58.9617590028
 10
117.6701205811
 20
58.9617590159
 10
117.0722279179
 20
58.9617590306
 10
116.5611014657
 20
58.9617590467
 10
116.1436520245
 20
58.9617590638
 10
115.8255238131
 20
58.9617590818
 10
115.6110181556
 20
58.9617591005
 10
115.5030353238
 20
58.9617591196
 10
115.4895031868
 20
58.9617591292
  0
LINE
  5
1D7
330
1F
100
AcDbEntity
  8
0
  6
Continuous
 62
     7
370
    25
100
AcDbLine
 10
120.4606570329
 20
68.4617591292
 30
0.0
 11
117.5643900634
 21
68.4617591292
 31
0.0
  0
LINE
  5
1D8
330
1F
100
AcDbEntity
  8
0
  6
Continuous
 62
     7
370
    25
100
AcDbLine
 10
129.4146163101
 20
68.4617591292
 30
0.0
 11
126.5183493406
 21
68.4617591292
 31
0.0
  0
LWPOLYLINE
  5
1D9
330
1F
100
AcDbEntity
  8
0
  6
Continuous
 62
     7
370
    25
100
AcDbPolyline
 90
       15
 70
   128
 43
0.0
 10
131.4895031868
 20
58.9617591292
 10
131.4759710498
 20
58.9617591388
 10
131.3679882179
 20
58.9617591578
 10
131.1534825604
 20
58.9617591765
 10
130.8353543491
 20
58.9617591946
 10
130.4179049079
 20
58.9617592117
 10
129.9067784557
 20
58.9617592278
 10
129.3088857924
 20
58.9617592425
 10
128.6323108601
 20
58.9617592556
 10
127.8862014421
 20
58.9617592671
 10
127.0806454781
 20
58.9617592767
 10
126.2265346685
 20
58.9617592843
 10
125.3354172103
 20
58.9617592898
 10
124.419341657
 20
58.9617592932
 10
123.490694014
 20
58.9617589641
  0
LINE
  5
1DA
330
1F
100
AcDbEntity
  8
0
  6
Continuous
 62
     7
370
    25
100
AcDbLine
 10
130.5238440566
 20
51.9617591292
 30
0.0
 11
126.3196447515
 21
51.9617591292
 31
0.0
  0
LINE
  5
1DB
330
1F
100
AcDbEntity
  8
0
  6
Continuous
 62
     7
370
    25
100
AcDbLine
 10
120.6626635685
 20
51.9617591292
 30
0.0
 11
116.4550627885
 21
51.9617591292
 31
0.0
  0
LINE
  5
1DC
330
1F
100
AcDbEntity
  8
0
  6
Continuous
 62
     7
370
    25
100
AcDbLine
 10
120.1914262637
 20
70.4617591292
 30
0.0
 11
118.3943952034
 21
70.4617591292
 31
0.0
  0
LINE
  5
1DD
330
1F
100
AcDbEntity
  8
0
  6
Continuous
 62
     7
370
    25
100
AcDbLine
 10
126.7875801099
 20
70.4617591292
 30
0.0
 11
128.5846111702
 21
70.4617591292
 31
0.0
  0
SPLINE
  5
1DE
330
1F
100
AcDbEntity
  8
0
  6
Continuous
 62
     7
370
    25
100
AcDbSpline
210
0.0
220
0.0
230
1.0
 70
     8
 71
     3
 72
    22
 73
    18
 74
     0
 42
0.00000001
 43
0.00000001
 40
0.0
 40
0.0
 40
0.0
 40
0.0
 40
0.2500000000000013
 40
0.2500000000000013
 40
0.3750000000000018
 40
0.3750000000000018
 40
0.4375000000000018
 40
0.4375000000000018
 40
0.5000000000000019
 40
0.5000000000000019
 40
0.562500000000002
 40
0.562500000000002
 40
0.6250000000000021
 40
0.6250000000000021
 40
0.7500000000000014
 40
0.7500000000000014
 40
1.0
 40
1.0
 40
1.0
 40
1.0
 10
119.8191613927471
 20
30.46175912921209
 30
0.0
 10
119.7590000362344
 20
30.28725043157651
 30
0.0
 10
119.6921559494152
 20
30.11491197467663
 30
0.0
 10
119.5627216198001
 20
29.87717654136956
 30
0.0
 10
119.5143230604076
 20
29.80039397198752
 30
0.0
 10
119.42515955012
 20
29.70403957547795
 30
0.0
 10
119.3925004744891
 20
29.67526597501584
 30
0.0
 10
119.3206609070406
 20
29.63305240998687
 30
0.0
 10
119.2801679638955
 20
29.61967931202436
 30
0.0
 10
119.1980600773454
 20
29.61983970662091
 30
0.0
 10
119.1574975339244
 20
29.63334439874035
 30
0.0
 10
119.0850475642951
 20
29.67633584147781
 30
0.0
 10
119.0522819864818
 20
29.70552047764856
 30
0.0
 10
118.9634590068865
 20
29.80215312811525
 30
0.0
 10
118.9152796887882
 20
29.87881437361141
 30
0.0
 10
118.7859306952845
 20
30.11702481364526
 30
0.0
 10
118.7198753383086
 20
30.28763041750084
 30
0.0
 10
118.6598449808176
 20
30.46175912921197
 30
0.0
  0
LINE
  5
1DF
330
1F
100
AcDbEntity
  8
0
  6
Continuous
 62
     7
370
    25
100
AcDbLine
 10
118.6598449808
 20
30.4617591292
 30
0.0
 11
115.2395031868
 21
30.4617591292
 31
0.0
  0
LINE
  5
1E0
330
1F
100
AcDbEntity
  8
0
  6
Continuous
 62
     7
370
    25
100
AcDbLine
 10
115.2395031868
 20
33.4953625894
 30
0.0
 11
115.2395031868
 21
30.4617591292
 31
0.0
  0
LINE
  5
1E1
330
1F
100
AcDbEntity
  8
0
  6
Continuous
 62
     7
370
    25
100
AcDbLine
 10
115.2395031868
 20
33.4953625894
 30
0.0
 11
115.9678712289
 21
33.6800197119
 31
0.0
  0
LINE
  5
1E2
330
1F
100
AcDbEntity
  8
0
  6
Continuous
 62
     7
370
    25
100
AcDbLine
 10
121.54206207
 20
30.4617591292
 30
0.0
 11
119.8191613927
 21
30.4617591292
 31
0.0
  0
SPLINE
  5
1E3
330
1F
100
AcDbEntity
  8
0
  6
Continuous
 62
     7
370
    25
100
AcDbSpline
210
0.0
220
0.0
230
1.0
 70
     8
 71
     3
 72
    22
 73
    18
 74
     0
 42
0.00000001
 43
0.00000001
 40
0.0
 40
0.0
 40
0.0
 40
0.0
 40
0.249999999999998
 40
0.249999999999998
 40
0.3749999999999984
 40
0.3749999999999984
 40
0.4374999999999986
 40
0.4374999999999986
 40
0.4999999999999988
 40
0.4999999999999988
 40
0.5624999999999989
 40
0.5624999999999989
 40
0.6249999999999991
 40
0.6249999999999991
 40
0.7499999999999996
 40
0.7499999999999996
 40
1.0
 40
1.0
 40
1.0
 40
1.0
 10
128.3191613927472
 20
30.46175912921209
 30
0.0
 10
128.2590000362344
 20
30.2872504315765
 30
0.0
 10
128.1921559494152
 20
30.11491197467661
 30
0.0
 10
128.0627216198001
 20
29.87717654136951
 30
0.0
 10
128.0143230604075
 20
29.80039397198747
 30
0.0
 10
127.9251595501199
 20
29.70403957547789
 30
0.0
 10
127.8925004744891
 20
29.6752659750158
 30
0.0
 10
127.8206609070406
 20
29.63305240998683
 30
0.0
 10
127.7801679638955
 20
29.61967931202437
 30
0.0
 10
127.6980600773455
 20
29.61983970662092
 30
0.0
 10
127.6574975339244
 20
29.63334439874034
 30
0.0
 10
127.5850475642951
 20
29.6763358414778
 30
0.0
 10
127.5522819864818
 20
29.70552047764857
 30
0.0
 10
127.4634590068866
 20
29.80215312811525
 30
0.0
 10
127.4152796887882
 20
29.87881437361138
 30
0.0
 10
127.2859306952845
 20
30.11702481364524
 30
0.0
 10
127.2198753383086
 20
30.28763041750084
 30
0.0
 10
127.1598449808175
 20
30.46175912921197
 30
0.0
  0
LINE
  5
1E4
330
1F
100
AcDbEntity
  8
0
  6
Continuous
 62
     7
370
    25
100
AcDbLine
 10
131.0129963325
 20
33.6810942691
 30
0.0
 11
131.7395031868
 21
33.4953625894
 31
0.0
  0
LINE
  5
1E5
330
1F
100
AcDbEntity
  8
0
  6
Continuous
 62
     7
370
    25
100
AcDbLine
 10
131.7395031868
 20
30.4617591292
 30
0.0
 11
131.7395031868
 21
33.4953625894
 31
0.0
  0
LINE
  5
1E6
330
1F
100
AcDbEntity
  8
0
  6
Continuous
 62
     7
370
    25
100
AcDbLine
 10
131.7395031868
 20
30.4617591292
 30
0.0
 11
128.3191613927
 21
30.4617591292
 31
0.0
  0
LINE
  5
1E7
330
1F
100
AcDbEntity
  8
0
  6
Continuous
 62
     7
370
    25
100
AcDbLine
 10
127.1598449808
 20
30.4617591292
 30
0.0
 11
125.4369443035
 21
30.4617591292
 31
0.0
  0
LINE
  5
1E8
330
1F
100
AcDbEntity
  8
0
  6
Continuous
 62
     7
370
    25
100
AcDbLine
 10
115.2888271922
 20
20.0413909552
 30
0.0
 11
131.6901791813
 21
20.0413909552
 31
0.0
  0
SPLINE
  5
1E9
330
1F
100
AcDbEntity
  8
0
  6
Continuous
 62
     7
370
    25
100
AcDbSpline
210
0.0
220
0.0
230
1.0
 70
    24
 71
     3
 72
    13
 73
     9
 74
     0
 42
0.00000001
 43
0.00000001
 40
0.0
 40
0.0
 40
0.0
 40
0.0
 40
0.0601215387281388
 40
0.1403159645215831
 40
0.2722358529257536
 40
0.6331226170318632
 40
0.9919500612792158
 40
1.0
 40
1.0
 40
1.0
 40
1.0
 10
131.9895031867825
 20
29.62324952264524
 30
0.0
 10
131.9895031867825
 20
29.6234326618264
 30
0.0
 10
131.9895031867825
 20
29.62386008519895
 30
0.0
 10
131.9895031867825
 20
29.66759636520474
 30
0.0
 10
131.9895031867825
 20
29.80482211140128
 30
0.0
 10
131.9895031867825
 20
30.08302511755938
 30
0.0
 10
131.9895031867825
 20
30.33116482660368
 30
0.0
 10
131.9895031867825
 20
30.45895518276044
 30
0.0
 10
131.9895031867825
 20
30.4617591292121
 30
0.0
  0
SPLINE
  5
1EA
330
1F
100
AcDbEntity
  8
0
  6
Continuous
 62
     7
370
    25
100
AcDbSpline
210
0.0
220
0.0
230
1.0
 70
    24
 71
     3
 72
    13
 73
     9
 74
     0
 42
0.00000001
 43
0.00000001
 40
0.0
 40
0.0
 40
0.0
 40
0.0
 40
0.0080499387207838
 40
0.3668773829681176
 40
0.7277641470742082
 40
0.8596840354783717
 40
0.9398784612718118
 40
1.0
 40
1.0
 40
1.0
 40
1.0
 10
114.9895031867824
 20
30.4617591292121
 30
0.0
 10
114.9895031867825
 20
30.45895518276044
 30
0.0
 10
114.9895031867825
 20
30.33116482660371
 30
0.0
 10
114.9895031867824
 20
30.08302511755938
 30
0.0
 10
114.9895031867824
 20
29.80482211140127
 30
0.0
 10
114.9895031867824
 20
29.66759636520474
 30
0.0
 10
114.9895031867824
 20
29.62386008519894
 30
0.0
 10
114.9895031867824
 20
29.62343266182639
 30
0.0
 10
114.9895031867824
 20
29.62324952264523
 30
0.0
  0
LINE
  5
1EB
330
1F
100
AcDbEntity
  8
0
  6
Continuous
 62
     7
370
    25
100
AcDbLine
 10
123.4895031868
 20
17.9617591292
 30
0.0
 11
116.4895031868
 21
17.9617591292
 31
0.0
  0
LINE
  5
1EC
330
1F
100
AcDbEntity
  8
0
  6
Continuous
 62
     7
370
    25
100
AcDbLine
 10
130.4895031868
 20
17.9617591292
 30
0.0
 11
123.4895031868
 21
17.9617591292
 31
0.0
  0
LINE
  5
1ED
330
1F
100
AcDbEntity
  8
0
  6
Continuous
 62
     7
370
    25
100
AcDbLine
 10
114.9895031868
 20
33.6568479176
 30
0.0
 11
115.5292569454
 21
33.9332537865
 31
0.0
  0
SPLINE
  5
1EE
330
1F
100
AcDbEntity
  8
0
  6
Continuous
 62
     7
370
    25
100
AcDbSpline
210
0.0
220
0.0
230
1.0
 70
     8
 71
     3
 72
    10
 73
     6
 74
     0
 42
0.00000001
 43
0.00000001
 40
0.0
 40
0.0
 40
0.0
 40
0.0
 40
0.5
 40
0.5
 40
1.0
 40
1.0
 40
1.0
 40
1.0
 10
114.9895031867824
 20
33.49536258935704
 30
0.0
 10
114.9895031867824
 20
33.47168719493263
 30
0.0
 10
115.0122956361123
 20
33.45859608504804
 30
0.0
 10
115.1002383402056
 20
33.45850976375982
 30
0.0
 10
115.1650961138797
 20
33.47167869770376
 30
0.0
 10
115.2395031867831
 20
33.49536258935731
 30
0.0
  0
SPLINE
  5
1EF
330
1F
100
AcDbEntity
  8
0
  6
Continuous
 62
     7
370
    25
100
AcDbSpline
210
0.0
220
0.0
230
1.0
 70
    24
 71
     3
 72
     8
 73
     4
 74
     0
 42
0.00000001
 43
0.00000001
 40
0.0
 40
0.0
 40
0.0
 40
0.0
 40
1.0
 40
1.0
 40
1.0
 40
1.0
 10
114.9895031867824
 20
33.49536258935711
 30
0.0
 10
114.9895031867824
 20
33.55192355648133
 30
0.0
 10
114.9895031867824
 20
33.60586362789516
 30
0.0
 10
114.9895031867824
 20
33.65684791763812
 30
0.0
  0
SPLINE
  5
1F0
330
1F
100
AcDbEntity
  8
0
  6
Continuous
 62
     7
370
    25
100
AcDbSpline
210
0.0
220
0.0
230
1.0
 70
     8
 71
     3
 72
     9
 73
     5
 74
     0
 42
0.00000001
 43
0.00000001
 40
0.0
 40
0.0
 40
0.0
 40
0.0
 40
0.4332640737111301
 40
0.9999999999999999
 40
0.9999999999999999
 40
0.9999999999999999
 40
0.9999999999999999
 10
131.4516981694215
 20
33.93437889279686
 30
0.0
 10
131.5296316039814
 20
33.89480765251488
 30
0.0
 10
131.7095067408519
 20
33.80347480799112
 30
0.0
 10
131.8882199759494
 20
33.7098873131921
 30
0.0
 10
131.9895031867825
 20
33.65684791763812
 30
0.0
  0
SPLINE
  5
1F1
330
1F
100
AcDbEntity
  8
0
  6
Continuous
 62
     7
370
    25
100
AcDbSpline
210
0.0
220
0.0
230
1.0
 70
     8
 71
     3
 72
    10
 73
     6
 74
     0
 42
0.00000001
 43
0.00000001
 40
0.0
 40
0.0
 40
0.0
 40
0.0
 40
0.5
 40
0.5
 40
1.0
 40
1.0
 40
1.0
 40
1.0
 10
131.7395031867825
 20
33.49536258935711
 30
0.0
 10
131.8138835641598
 20
33.47168719493271
 30
0.0
 10
131.8781842029456
 20
33.45859608504807
 30
0.0
 10
131.9663998877285
 20
33.45850976375979
 30
0.0
 10
131.9895031867825
 20
33.47167869770363
 30
0.0
 10
131.9895031867825
 20
33.4953625893571
 30
0.0
  0
SPLINE
  5
1F2
330
1F
100
AcDbEntity
  8
0
  6
Continuous
 62
     7
370
    25
100
AcDbSpline
210
0.0
220
0.0
230
1.0
 70
    24
 71
     3
 72
     8
 73
     4
 74
     0
 42
0.00000001
 43
0.00000001
 40
0.0
 40
0.0
 40
0.0
 40
0.0
 40
1.0
 40
1.0
 40
1.0
 40
1.0
 10
131.9895031867825
 20
33.49536258935711
 30
0.0
 10
131.9895031867825
 20
33.55192355648133
 30
0.0
 10
131.9895031867825
 20
33.60586362789516
 30
0.0
 10
131.9895031867825
 20
33.65684791763812
 30
0.0
  0
LINE
  5
1F3
330
1F
100
AcDbEntity
  8
0
  6
Continuous
 62
     7
370
    25
100
AcDbLine
 10
114.9895031868
 20
30.4617591292
 30
0.0
 11
115.2395031868
 21
30.4617591292
 31
0.0
  0
LINE
  5
1F4
330
1F
100
AcDbEntity
  8
0
  6
Continuous
 62
     7
370
    25
100
AcDbLine
 10
114.9895031868
 20
30.4617591292
 30
0.0
 11
114.9895031868
 21
33.4953625894
 31
0.0
  0
LINE
  5
1F5
330
1F
100
AcDbEntity
  8
0
  6
Continuous
 62
     7
370
    25
100
AcDbLine
 10
131.7395031868
 20
30.4617591292
 30
0.0
 11
131.9895031868
 21
30.4617591292
 31
0.0
  0
LINE
  5
1F6
330
1F
100
AcDbEntity
  8
0
  6
Continuous
 62
     7
370
    25
100
AcDbLine
 10
131.9895031868
 20
33.4953625894
 30
0.0
 11
131.9895031868
 21
30.4617591292
 31
0.0
  0
LINE
  5
1F7
330
1F
100
AcDbEntity
  8
0
  6
Continuous
 62
     7
370
    25
100
AcDbLine
 10
114.9895031868
 20
33.6568479176
 30
0.0
 11
114.9895031868
 21
34.2448807643
 31
0.0
  0
LINE
  5
1F8
330
1F
100
AcDbEntity
  8
0
  6
Continuous
 62
     7
370
    25
100
AcDbLine
 10
131.9895031868
 20
33.6568479176
 30
0.0
 11
131.9895031868
 21
34.2448807643
 31
0.0
  0
LINE
  5
1F9
330
1F
100
AcDbEntity
  8
0
  6
Continuous
 62
     7
370
    25
100
AcDbLine
 10
115.9563334386
 20
52.4261356042
 30
0.0
 11
121.4662897578
 21
52.4261356042
 31
0.0
  0
LINE
  5
1FA
330
1F
100
AcDbEntity
  8
0
  6
Continuous
 62
     7
370
    25
100
AcDbLine
 10
125.5034797708
 20
52.4261356042
 30
0.0
 11
131.022672935
 21
52.4261356042
 31
0.0
  0
LINE
  5
1FB
330
1F
100
AcDbEntity
  8
0
  6
Continuous
 62
     7
370
    25
100
AcDbLine
 10
129.0736849706
 20
70.0657149746
 30
0.0
 11
126.7342664737
 21
70.0657149746
 31
0.0
  0
LINE
  5
1FC
330
1F
100
AcDbEntity
  8
0
  6
Continuous
 62
     7
370
    25
100
AcDbLine
 10
120.2447398999
 20
70.0657149746
 30
0.0
 11
117.905321403
 21
70.0657149746
 31
0.0
  0
INSERT
  5
208
330
1F
100
AcDbEntity
  8
0
  6
Continuous
 62
     7
370
    18
100
AcDbBlockReference
  2
SW_CENTERMARKSYMBOL_0
 10
123.4895031868
 20
41.4617591292
 30
0.0
  0
LINE
  5
209
330
1F
100
AcDbEntity
  8
0
  6
Continuous
 62
     7
370
    18
100
AcDbLine
 10
115.6395031868
 20
29.9617591292
 30
0.0
 11
115.9873218231
 21
18.8315627656
 31
0.0
  0
LINE
  5
20A
330
1F
100
AcDbEntity
  8
0
  6
Continuous
 62
     7
370
    18
100
AcDbLine
 10
130.9916845504
 20
18.8315627656
 30
0.0
 11
131.3395031868
 21
29.9617591292
 31
0.0
  0
LINE
  5
20B
330
1F
100
AcDbEntity
  8
0
  6
Continuous
 62
     7
370
    25
100
AcDbLine
 10
119.608760945
 20
29.9617591292
 30
0.0
 11
118.8702454286
 21
29.9617591292
 31
0.0
  0
LINE
  5
20C
330
1F
100
AcDbEntity
  8
0
  6
Continuous
 62
     7
370
    25
100
AcDbLine
 10
128.108760945
 20
29.9617591292
 30
0.0
 11
127.3702454286
 21
29.9617591292
 31
0.0
  0
LINE
  5
20D
330
1F
100
AcDbEntity
  8
0
  6
CENTERX2
 62
     7
370
    18
100
AcDbLine
 10
118.9421944486
 20
50.4617591292
 30
0.0
 11
130.5841206632
 21
50.4617591292
 31
0.0
  0
LINE
  5
20E
330
1F
100
AcDbEntity
  8
0
  6
CENTERX2
 62
     7
370
    18
100
AcDbLine
 10
123.4895031868
 20
37.867326421
 30
0.0
 11
123.4895031868
 21
14.3075974317
 31
0.0
  0
LINE
  5
20F
330
1F
100
AcDbEntity
  8
0
  6
CENTERX2
 62
     7
370
    18
100
AcDbLine
 10
123.4895031868
 20
22.0413909552
 30
0.0
 11
123.4895031868
 21
15.9617591292
 31
0.0
  0
LINE
  5
210
330
1F
100
AcDbEntity
  8
0
  6
CENTERX2
 62
     7
370
    18
100
AcDbLine
 10
123.4895031868
 20
74.0690426663
 30
0.0
 11
123.4895031868
 21
50.4261356042
 31
0.0
  0
LINE
  5
211
330
1F
100
AcDbEntity
  8
0
  6
Continuous
 62
     7
370
    25
100
AcDbLine
 10
41.7053475473
 20
107.8752989791
 30
0.0
 11
38.7053475473
 21
107.8752989791
 31
0.0
  0
LINE
  5
212
330
1F
100
AcDbEntity
  8
0
  6
Continuous
 62
     7
370
    25
100
AcDbLine
 10
38.7053475473
 20
90.8752989791
 30
0.0
 11
41.7053475473
 21
90.8752989791
 31
0.0
  0
LINE
  5
213
330
1F
100
AcDbEntity
  8
0
  6
Continuous
 62
     7
370
    25
100
AcDbLine
 10
38.7053475473
 20
107.7062989791
 30
0.0
 11
33.390026299
 21
107.7062989791
 31
0.0
  0
LINE
  5
214
330
1F
100
AcDbEntity
  8
0
  6
Continuous
 62
     7
370
    25
100
AcDbLine
 10
33.390026299
 20
91.0442989791
 30
0.0
 11
38.7053475473
 21
91.0442989791
 31
0.0
  0
LINE
  5
215
330
1F
100
AcDbEntity
  8
0
  6
Continuous
 62
     7
370
    25
100
AcDbLine
 10
64.7053475473
 20
90.8752989791
 30
0.0
 11
67.7053475473
 21
90.8752989791
 31
0.0
  0
LINE
  5
216
330
1F
100
AcDbEntity
  8
0
  6
Continuous
 62
     7
370
    25
100
AcDbLine
 10
67.7053475473
 20
107.8752989791
 30
0.0
 11
64.7053475473
 21
107.8752989791
 31
0.0
  0
LINE
  5
217
330
1F
100
AcDbEntity
  8
0
  6
Continuous
 62
     7
370
    25
100
AcDbLine
 10
67.7053475473
 20
91.0442989791
 30
0.0
 11
73.0206687956
 21
91.0442989791
 31
0.0
  0
LINE
  5
218
330
1F
100
AcDbEntity
  8
0
  6
Continuous
 62
     7
370
    25
100
AcDbLine
 10
73.0206687956
 20
107.7062989791
 30
0.0
 11
67.7053475473
 21
107.7062989791
 31
0.0
  0
LINE
  5
219
330
1F
100
AcDbEntity
  8
0
  6
Continuous
 62
     7
370
    25
100
AcDbLine
 10
87.8763312283
 20
88.8752989791
 30
0.0
 11
88.0206687956
 21
89.1252989791
 31
0.0
  0
LINE
  5
21A
330
1F
100
AcDbEntity
  8
0
  6
Continuous
 62
     7
370
    25
100
AcDbLine
 10
88.0206687956
 20
109.6252989791
 30
0.0
 11
87.8763312283
 21
109.8752989791
 31
0.0
  0
LINE
  5
21B
330
1F
100
AcDbEntity
  8
0
  6
Continuous
 62
     7
370
    25
100
AcDbLine
 10
73.1650063629
 20
109.8752989791
 30
0.0
 11
73.0206687956
 21
109.6252989791
 31
0.0
  0
LINE
  5
21C
330
1F
100
AcDbEntity
  8
0
  6
Continuous
 62
     7
370
    25
100
AcDbLine
 10
73.0206687956
 20
89.1252989791
 30
0.0
 11
73.1650063629
 21
88.8752989791
 31
0.0
  0
LINE
  5
21D
330
1F
100
AcDbEntity
  8
0
  6
Continuous
 62
     7
370
    25
100
AcDbLine
 10
18.5343638663
 20
109.8752989791
 30
0.0
 11
18.390026299
 21
109.6252989791
 31
0.0
  0
LINE
  5
21E
330
1F
100
AcDbEntity
  8
0
  6
Continuous
 62
     7
370
    25
100
AcDbLine
 10
18.390026299
 20
89.1252989791
 30
0.0
 11
18.5343638663
 21
88.8752989791
 31
0.0
  0
LINE
  5
21F
330
1F
100
AcDbEntity
  8
0
  6
Continuous
 62
     7
370
    25
100
AcDbLine
 10
33.2456887317
 20
88.8752989791
 30
0.0
 11
33.390026299
 21
89.1252989791
 31
0.0
  0
LINE
  5
220
330
1F
100
AcDbEntity
  8
0
  6
Continuous
 62
     7
370
    25
100
AcDbLine
 10
33.390026299
 20
109.6252989791
 30
0.0
 11
33.2456887317
 21
109.8752989791
 31
0.0
  0
LINE
  5
221
330
1F
100
AcDbEntity
  8
0
  6
Continuous
 62
     7
370
    25
100
AcDbLine
 10
36.3177174924
 20
102.7247156257
 30
0.0
 11
36.1290846535
 21
102.7222101245
 31
0.0
  0
LINE
  5
222
330
1F
100
AcDbEntity
  8
0
  6
Continuous
 62
     7
370
    25
100
AcDbLine
 10
32.2053475473
 20
101.4957889937
 30
0.0
 11
32.2053475473
 21
97.2548089646
 31
0.0
  0
LINE
  5
223
330
1F
100
AcDbEntity
  8
0
  6
Continuous
 62
     7
370
    25
100
AcDbLine
 10
41.2814583558
 20
102.7221060112
 30
0.0
 11
41.0928058893
 21
102.726213592
 31
0.0
  0
LINE
  5
224
330
1F
100
AcDbEntity
  8
0
  6
Continuous
 62
     7
370
    25
100
AcDbLine
 10
41.0949773789
 20
102.7316636236
 30
0.0
 11
36.3157177157
 21
102.7316636236
 31
0.0
  0
LINE
  5
225
330
1F
100
AcDbEntity
  8
0
  6
Continuous
 62
     7
370
    25
100
AcDbLine
 10
36.1292367387
 20
96.0284919471
 30
0.0
 11
36.3178892052
 21
96.0243843663
 31
0.0
  0
LINE
  5
226
330
1F
100
AcDbEntity
  8
0
  6
Continuous
 62
     7
370
    25
100
AcDbLine
 10
41.0929776022
 20
96.0258823326
 30
0.0
 11
41.2814061746
 21
96.0283851207
 31
0.0
  0
LINE
  5
227
330
1F
100
AcDbEntity
  8
0
  6
Continuous
 62
     7
370
    25
100
AcDbLine
 10
36.3157177157
 20
96.0189343347
 30
0.0
 11
41.0949773789
 21
96.0189343347
 31
0.0
  0
LINE
  5
228
330
1F
100
AcDbEntity
  8
0
  6
Continuous
 62
     7
370
    25
100
AcDbLine
 10
74.2053475473
 20
97.2548089646
 30
0.0
 11
74.2053475473
 21
101.4957889937
 31
0.0
  0
LINE
  5
229
330
1F
100
AcDbEntity
  8
0
  6
Continuous
 62
     7
370
    25
100
AcDbLine
 10
65.3177174924
 20
102.7247156257
 30
0.0
 11
65.1290846535
 21
102.7222101245
 31
0.0
  0
LINE
  5
22A
330
1F
100
AcDbEntity
  8
0
  6
Continuous
 62
     7
370
    25
100
AcDbLine
 10
70.2816296903
 20
102.7221022807
 30
0.0
 11
70.0928058893
 21
102.726213592
 31
0.0
  0
LINE
  5
22B
330
1F
100
AcDbEntity
  8
0
  6
Continuous
 62
     7
370
    25
100
AcDbLine
 10
70.0949773789
 20
102.7316636236
 30
0.0
 11
65.3157177157
 21
102.7316636236
 31
0.0
  0
LINE
  5
22C
330
1F
100
AcDbEntity
  8
0
  6
Continuous
 62
     7
370
    25
100
AcDbLine
 10
65.1292367387
 20
96.0284919471
 30
0.0
 11
65.3178892052
 21
96.0243843663
 31
0.0
  0
LINE
  5
22D
330
1F
100
AcDbEntity
  8
0
  6
Continuous
 62
     7
370
    25
100
AcDbLine
 10
70.0929776022
 20
96.0258823326
 30
0.0
 11
70.2816104411
 21
96.0283878338
 31
0.0
  0
LINE
  5
22E
330
1F
100
AcDbEntity
  8
0
  6
Continuous
 62
     7
370
    25
100
AcDbLine
 10
65.3157177157
 20
96.0189343347
 30
0.0
 11
70.0949773789
 21
96.0189343347
 31
0.0
  0
SPLINE
  5
22F
330
1F
100
AcDbEntity
  8
0
  6
Continuous
 62
     7
370
    25
100
AcDbSpline
210
0.0
220
0.0
230
1.0
 70
     8
 71
     3
 72
    19
 73
    15
 74
     0
 42
0.00000001
 43
0.00000001
 40
0.0
 40
0.0
 40
0.0
 40
0.0
 40
0.0554236869096325
 40
0.1613568651104186
 40
0.2677645025200421
 40
0.374921408755311
 40
0.4832496576825261
 40
0.5936154772696501
 40
0.7081364364847543
 40
0.8126785156277407
 40
0.8743228637877033
 40
0.9304050611095342
 40
0.9837104972614399
 40
0.9999999999999999
 40
0.9999999999999999
 40
0.9999999999999999
 40
0.9999999999999999
 10
36.12842687947418
 20
102.72620257695
 30
0.0
 10
36.00978567733175
 20
102.7183339491165
 30
0.0
 10
35.66438150958216
 20
102.6954257452289
 30
0.0
 10
35.12417242917031
 20
102.6487893935335
 30
0.0
 10
34.5318629671235
 20
102.5831775361096
 30
0.0
 10
33.99817477908181
 20
102.5069771369432
 30
0.0
 10
33.52759671874317
 20
102.4202746721827
 30
0.0
 10
33.12179896709573
 20
102.3214642038699
 30
0.0
 10
32.79393599815189
 20
102.2099205790448
 30
0.0
 10
32.56175035323005
 20
102.0918492475959
 30
0.0
 10
32.38507882541432
 20
101.9490016437941
 30
0.0
 10
32.2669506548396
 20
101.7829481920778
 30
0.0
 10
32.19838661594722
 20
101.6101579650852
 30
0.0
 10
32.21211685434227
 20
101.5121224239956
 30
0.0
 10
32.21533057590742
 20
101.4891760684055
 30
0.0
  0
SPLINE
  5
230
330
1F
100
AcDbEntity
  8
0
  6
Continuous
 62
     7
370
    25
100
AcDbSpline
210
0.0
220
0.0
230
1.0
 70
     8
 71
     3
 72
    13
 73
     9
 74
     0
 42
0.00000001
 43
0.00000001
 40
0.0
 40
0.0
 40
0.0
 40
0.0
 40
0.1137185486103011
 40
0.3373628863334674
 40
0.5567863180235824
 40
0.7734161482796685
 40
0.9764268423824946
 40
1.0
 40
1.0
 40
1.0
 40
1.0
 10
43.91205098728215
 20
102.4097493511011
 30
0.0
 10
43.83651859061344
 20
102.4254591287603
 30
0.0
 10
43.61244056936502
 20
102.4720645066828
 30
0.0
 10
43.18664711969339
 20
102.5415212445952
 30
0.0
 10
42.61724503470501
 20
102.6143813890439
 30
0.0
 10
42.00590126744768
 20
102.6745957249147
 30
0.0
 10
41.5488442564035
 20
102.7091967566601
 30
0.0
 10
41.3073885947173
 20
102.7246000598621
 30
0.0
 10
41.2822682150991
 20
102.72620257695
 30
0.0
  0
SPLINE
  5
231
330
1F
100
AcDbEntity
  8
0
  6
Continuous
 62
     7
370
    25
100
AcDbSpline
210
0.0
220
0.0
230
1.0
 70
     8
 71
     3
 72
    19
 73
    15
 74
     0
 42
0.00000001
 43
0.00000001
 40
0.0
 40
0.0
 40
0.0
 40
0.0
 40
0.0437842383812058
 40
0.0973187447573167
 40
0.1534684208906586
 40
0.2215370063692823
 40
0.3162113739137664
 40
0.4291219609511059
 40
0.5359003254302379
 40
0.6483180539653272
 40
0.7576842614471407
 40
0.8654766208109338
 40
0.9723634896215435
 40
1.0
 40
1.0
 40
1.0
 40
1.0
 10
32.21407231216701
 20
97.2452823999085
 30
0.0
 10
32.21754349140213
 20
97.18227331544719
 30
0.0
 10
32.225258843284
 20
97.04222371689775
 30
0.0
 10
32.33062820086685
 20
96.86816982278064
 30
0.0
 10
32.46455060640195
 20
96.73085362807373
 30
0.0
 10
32.63975166895302
 20
96.61579112049326
 30
0.0
 10
32.87852935447518
 20
96.5085694286534
 30
0.0
 10
33.20556930715902
 20
96.40642132550533
 30
0.0
 10
33.62410638659865
 20
96.31055561013476
 30
0.0
 10
34.11186983185193
 20
96.22555646646177
 30
0.0
 10
34.67192856176825
 20
96.15025072474836
 30
0.0
 10
35.28453414104043
 20
96.0865827554628
 30
0.0
 10
35.78133929791625
 20
96.04686579862182
 30
0.0
 10
36.06927359825556
 20
96.02822495918379
 30
0.0
 10
36.12842687947412
 20
96.02439538133866
 30
0.0
  0
SPLINE
  5
232
330
1F
100
AcDbEntity
  8
0
  6
Continuous
 62
     7
370
    25
100
AcDbSpline
210
0.0
220
0.0
230
1.0
 70
     8
 71
     3
 72
    13
 73
     9
 74
     0
 42
0.00000001
 43
0.00000001
 40
0.0
 40
0.0
 40
0.0
 40
0.0
 40
0.1121080081054907
 40
0.3263838577027469
 40
0.5416194174852387
 40
0.7583705573429963
 40
0.9688981252321798
 40
1.0
 40
1.0
 40
1.0
 40
1.0
 10
65.12842687947412
 20
102.72620257695
 30
0.0
 10
65.00978515023718
 20
102.7183340206129
 30
0.0
 10
64.66437944793942
 20
102.6954260248751
 30
0.0
 10
64.1241900622728
 20
102.6487870017366
 30
0.0
 10
63.53179770890154
 20
102.5831863878936
 30
0.0
 10
63.00546020953997
 20
102.5079499354952
 30
0.0
 10
62.67643883162798
 20
102.4478927045862
 30
0.0
 10
62.51891955384747
 20
102.4140991625364
 30
0.0
 10
62.49864410729107
 20
102.4097493511011
 30
0.0
  0
SPLINE
  5
233
330
1F
100
AcDbEntity
  8
0
  6
Continuous
 62
     7
370
    25
100
AcDbSpline
210
0.0
220
0.0
230
1.0
 70
     8
 71
     3
 72
    13
 73
     9
 74
     0
 42
0.00000001
 43
0.00000001
 40
0.0
 40
0.0
 40
0.0
 40
0.0
 40
0.112108008105491
 40
0.3263838577027477
 40
0.5416194174852295
 40
0.7583705573429881
 40
0.9688981252321687
 40
1.0
 40
1.0
 40
1.0
 40
1.0
 10
41.28226821509912
 20
96.02439538133866
 30
0.0
 10
41.40090994433606
 20
96.03226393767576
 30
0.0
 10
41.74631564663381
 20
96.05517193341355
 30
0.0
 10
42.28650503230042
 20
96.10181095655211
 30
0.0
 10
42.87889738567169
 20
96.16741157039502
 30
0.0
 10
43.40523488503324
 20
96.24264802279342
 30
0.0
 10
43.73425626294526
 20
96.30270525370247
 30
0.0
 10
43.89177554072575
 20
96.33649879575222
 30
0.0
 10
43.91205098728216
 20
96.3408486071876
 30
0.0
  0
SPLINE
  5
234
330
1F
100
AcDbEntity
  8
0
  6
Continuous
 62
     7
370
    25
100
AcDbSpline
210
0.0
220
0.0
230
1.0
 70
     8
 71
     3
 72
    19
 73
    15
 74
     0
 42
0.00000001
 43
0.00000001
 40
0.0
 40
0.0
 40
0.0
 40
0.0
 40
0.0437842383811875
 40
0.097318744757294
 40
0.1534684208906296
 40
0.2215370063692412
 40
0.3162113739137032
 40
0.4291219609510507
 40
0.5359003254301857
 40
0.6483180539652743
 40
0.7576842614470946
 40
0.865476620810884
 40
0.9723634896214961
 40
1.0
 40
1.0
 40
1.0
 40
1.0
 10
74.19662278240621
 20
101.5053155583802
 30
0.0
 10
74.19315160317109
 20
101.5683246428415
 30
0.0
 10
74.18543625128923
 20
101.7083742413909
 30
0.0
 10
74.08006689370642
 20
101.882428135508
 30
0.0
 10
73.94614448817133
 20
102.0197443302149
 30
0.0
 10
73.77094342562029
 20
102.1348068377954
 30
0.0
 10
73.5321657400982
 20
102.2420285296352
 30
0.0
 10
73.20512578741437
 20
102.3441766327833
 30
0.0
 10
72.78658870797477
 20
102.4400423481539
 30
0.0
 10
72.29882526272152
 20
102.5250414918269
 30
0.0
 10
71.73876653280524
 20
102.6003472335403
 30
0.0
 10
71.12616095353307
 20
102.6640152028259
 30
0.0
 10
70.6293557966572
 20
102.7037321596668
 30
0.0
 10
70.34142149631775
 20
102.7223729991049
 30
0.0
 10
70.2822682150991
 20
102.72620257695
 30
0.0
  0
SPLINE
  5
235
330
1F
100
AcDbEntity
  8
0
  6
Continuous
 62
     7
370
    25
100
AcDbSpline
210
0.0
220
0.0
230
1.0
 70
     8
 71
     3
 72
    13
 73
     9
 74
     0
 42
0.00000001
 43
0.00000001
 40
0.0
 40
0.0
 40
0.0
 40
0.0
 40
0.1137185486103011
 40
0.3373628863334686
 40
0.556786318023584
 40
0.7734161482796642
 40
0.9764268423824862
 40
1.0
 40
1.0
 40
1.0
 40
1.0
 10
62.49864410729106
 20
96.3408486071876
 30
0.0
 10
62.57417650395977
 20
96.32513882952836
 30
0.0
 10
62.79825452520819
 20
96.27853345160588
 30
0.0
 10
63.22404797487984
 20
96.20907671369348
 30
0.0
 10
63.79345005986821
 20
96.13621656924475
 30
0.0
 10
64.40479382712554
 20
96.07600223337394
 30
0.0
 10
64.86185083816972
 20
96.04140120162856
 30
0.0
 10
65.10330649985592
 20
96.02599789842651
 30
0.0
 10
65.12842687947412
 20
96.02439538133866
 30
0.0
  0
SPLINE
  5
236
330
1F
100
AcDbEntity
  8
0
  6
Continuous
 62
     7
370
    25
100
AcDbSpline
210
0.0
220
0.0
230
1.0
 70
     8
 71
     3
 72
    19
 73
    15
 74
     0
 42
0.00000001
 43
0.00000001
 40
0.0
 40
0.0
 40
0.0
 40
0.0
 40
0.0554236869096327
 40
0.1613568651104195
 40
0.2677645025200427
 40
0.3749214087553123
 40
0.4832496576825276
 40
0.5936154772696552
 40
0.7081364364847558
 40
0.8126785156277416
 40
0.8743228637877006
 40
0.9304050611095342
 40
0.983710497261443
 40
1.0
 40
1.0
 40
1.0
 40
1.0
 10
70.28226821509905
 20
96.02439538133866
 30
0.0
 10
70.4009094172415
 20
96.03226400917214
 30
0.0
 10
70.74631358499106
 20
96.05517221305978
 30
0.0
 10
71.28652266540291
 20
96.10180856475517
 30
0.0
 10
71.87883212744975
 20
96.16742042217905
 30
0.0
 10
72.41252031549143
 20
96.24362082134546
 30
0.0
 10
72.88309837583007
 20
96.33032328610602
 30
0.0
 10
73.2888961274775
 20
96.42913375441876
 30
0.0
 10
73.61675909642135
 20
96.54067737924385
 30
0.0
 10
73.84894474134317
 20
96.65874871069283
 30
0.0
 10
74.0256162691589
 20
96.80159631449462
 30
0.0
 10
74.14374443973362
 20
96.96764976621091
 30
0.0
 10
74.212308478626
 20
97.14043999320356
 30
0.0
 10
74.19857824023096
 20
97.23847553429307
 30
0.0
 10
74.19536451866581
 20
97.2614218898832
 30
0.0
  0
SPLINE
  5
237
330
1F
100
AcDbEntity
  8
0
  6
Continuous
 62
     7
370
    25
100
AcDbSpline
210
0.0
220
0.0
230
1.0
 70
     8
 71
     3
 72
     9
 73
     5
 74
     0
 42
0.00000001
 43
0.00000001
 40
0.0
 40
0.0
 40
0.0
 40
0.0
 40
0.1945667203355395
 40
1.0
 40
1.0
 40
1.0
 40
1.0
 10
43.95359101203381
 20
102.4013830047053
 30
0.0
 10
43.95039342154517
 20
102.4019176626523
 30
0.0
 10
43.93395900520138
 20
102.4046656040584
 30
0.0
 10
43.92182451196589
 20
102.4074814084971
 30
0.0
 10
43.91205098728215
 20
102.4097493511011
 30
0.0
  0
LINE
  5
238
330
1F
100
AcDbEntity
  8
0
  6
Continuous
 62
     7
370
    25
100
AcDbLine
 10
62.4986441073
 20
102.4097493511
 30
0.0
 11
62.4461990488
 21
102.3995531753
 31
0.0
  0
LINE
  5
239
330
1F
100
AcDbEntity
  8
0
  6
Continuous
 62
     7
370
    25
100
AcDbLine
 10
43.9120509873
 20
96.3408486072
 30
0.0
 11
43.9644960458
 21
96.351044783
 31
0.0
  0
SPLINE
  5
23A
330
1F
100
AcDbEntity
  8
0
  6
Continuous
 62
     7
370
    25
100
AcDbSpline
210
0.0
220
0.0
230
1.0
 70
     8
 71
     3
 72
     9
 73
     5
 74
     0
 42
0.00000001
 43
0.00000001
 40
0.0
 40
0.0
 40
0.0
 40
0.0
 40
0.1945667203363381
 40
1.0
 40
1.0
 40
1.0
 40
1.0
 10
62.45710408253935
 20
96.34921495358341
 30
0.0
 10
62.46030167302801
 20
96.34868029563637
 30
0.0
 10
62.47673608937181
 20
96.34593235423033
 30
0.0
 10
62.48887058260733
 20
96.34311654979159
 30
0.0
 10
62.49864410729106
 20
96.3408486071876
 30
0.0
  0
LINE
  5
23B
330
1F
100
AcDbEntity
  8
0
  6
Continuous
 62
     7
370
    25
100
AcDbLine
 10
41.7053475473
 20
90.8752989791
 30
0.0
 11
41.7053475473
 21
96.0345670298
 31
0.0
  0
LINE
  5
23C
330
1F
100
AcDbEntity
  8
0
  6
Continuous
 62
     7
370
    25
100
AcDbLine
 10
41.7053475473
 20
102.7125068294
 30
0.0
 11
41.7053475473
 21
107.8752989791
 31
0.0
  0
LINE
  5
23D
330
1F
100
AcDbEntity
  8
0
  6
Continuous
 62
     7
370
    25
100
AcDbLine
 10
38.7053475473
 20
90.8752989791
 30
0.0
 11
38.7053475473
 21
96.0189343347
 31
0.0
  0
LINE
  5
23E
330
1F
100
AcDbEntity
  8
0
  6
Continuous
 62
     7
370
    25
100
AcDbLine
 10
38.7053475473
 20
102.7316636236
 30
0.0
 11
38.7053475473
 21
107.8752989791
 31
0.0
  0
LINE
  5
23F
330
1F
100
AcDbEntity
  8
0
  6
Continuous
 62
     7
370
    25
100
AcDbLine
 10
67.7053475473
 20
96.0189343347
 30
0.0
 11
67.7053475473
 21
90.8752989791
 31
0.0
  0
LINE
  5
240
330
1F
100
AcDbEntity
  8
0
  6
Continuous
 62
     7
370
    25
100
AcDbLine
 10
67.7053475473
 20
107.8752989791
 30
0.0
 11
67.7053475473
 21
102.7316636236
 31
0.0
  0
LINE
  5
241
330
1F
100
AcDbEntity
  8
0
  6
Continuous
 62
     7
370
    25
100
AcDbLine
 10
64.7053475473
 20
96.0542442405
 30
0.0
 11
64.7053475473
 21
90.8752989791
 31
0.0
  0
LINE
  5
242
330
1F
100
AcDbEntity
  8
0
  6
Continuous
 62
     7
370
    25
100
AcDbLine
 10
64.7053475473
 20
107.8752989791
 30
0.0
 11
64.7053475473
 21
102.7066675933
 31
0.0
  0
SPLINE
  5
243
330
1F
100
AcDbEntity
  8
0
  6
Continuous
 62
     7
370
    25
100
AcDbSpline
210
0.0
220
0.0
230
1.0
 70
     8
 71
     3
 72
    14
 73
    10
 74
     0
 42
0.00000001
 43
0.00000001
 40
0.0
 40
0.0
 40
0.0
 40
0.0
 40
0.1323181917627738
 40
0.264598971733275
 40
0.3998389716033099
 40
0.5350545670005469
 40
0.650255158720038
 40
0.7654737204835333
 40
1.0
 40
1.0
 40
1.0
 40
1.0
 10
86.9385090547485
 20
99.37529897914439
 30
0.0
 10
87.08127058561683
 20
99.82894303083167
 30
0.0
 10
87.36675328279998
 20
100.736102870384
 30
0.0
 10
87.67395917795598
 20
102.1330594568296
 30
0.0
 10
87.85852181830059
 20
103.5563067087429
 30
0.0
 10
87.89556023123019
 20
104.9281453373367
 30
0.0
 10
87.7991724733206
 20
106.2253668980637
 30
0.0
 10
87.54637480083296
 20
107.864705680693
 30
0.0
 10
87.1825062108639
 20
109.0682473397209
 30
0.0
 10
86.9385090547485
 20
109.8752989791443
 30
0.0
  0
SPLINE
  5
244
330
1F
100
AcDbEntity
  8
0
  6
Continuous
 62
     7
370
    25
100
AcDbSpline
210
0.0
220
0.0
230
1.0
 70
    24
 71
     3
 72
    11
 73
     7
 74
     0
 42
0.00000001
 43
0.00000001
 40
0.0
 40
0.0
 40
0.0
 40
0.0
 40
0.3703677039361398
 40
0.7440068685119129
 40
0.99431324215073
 40
0.9999999999999999
 40
0.9999999999999999
 40
0.9999999999999999
 40
0.9999999999999999
 10
86.9385090547485
 20
109.8752989791443
 30
0.0
 10
87.13549964307313
 20
109.8752989791443
 30
0.0
 10
87.53122083903084
 20
109.8752989791444
 30
0.0
 10
87.80291467123273
 20
109.8752989791443
 30
0.0
 10
87.89611607715136
 20
109.8752989791445
 30
0.0
 10
87.87481287780864
 20
109.8752989791444
 30
0.0
 10
87.8743396380175
 20
109.8752989791444
 30
0.0
  0
SPLINE
  5
245
330
1F
100
AcDbEntity
  8
0
  6
Continuous
 62
     7
370
    25
100
AcDbSpline
210
0.0
220
0.0
230
1.0
 70
    24
 71
     3
 72
    10
 73
     6
 74
     0
 42
0.00000001
 43
0.00000001
 40
0.0
 40
0.0
 40
0.0
 40
0.0
 40
0.2561243387363378
 40
0.6261206679663307
 40
0.9999999999999999
 40
0.9999999999999999
 40
0.9999999999999999
 40
0.9999999999999999
 10
87.87555615084976
 20
88.87529897914438
 30
0.0
 10
87.86195841460653
 20
88.87529897914438
 30
0.0
 10
87.8287174358638
 20
88.87529897914438
 30
0.0
 10
87.52588288874985
 20
88.87529897914436
 30
0.0
 10
87.13498049797833
 20
88.87529897914436
 30
0.0
 10
86.9385090547485
 20
88.87529897914436
 30
0.0
  0
SPLINE
  5
246
330
1F
100
AcDbEntity
  8
0
  6
Continuous
 62
     7
370
    25
100
AcDbSpline
210
0.0
220
0.0
230
1.0
 70
     8
 71
     3
 72
    14
 73
    10
 74
     0
 42
0.00000001
 43
0.00000001
 40
0.0
 40
0.0
 40
0.0
 40
0.0
 40
0.1323181917627721
 40
0.2645989717332716
 40
0.3998389716033047
 40
0.53505456700054
 40
0.6502551587200327
 40
0.7654737204835297
 40
0.9999999999999999
 40
0.9999999999999999
 40
0.9999999999999999
 40
0.9999999999999999
 10
86.9385090547485
 20
88.87529897914436
 30
0.0
 10
87.08127058561685
 20
89.32894303083164
 30
0.0
 10
87.36675328279999
 20
90.23610287038393
 30
0.0
 10
87.67395917795598
 20
91.63305945682957
 30
0.0
 10
87.85852181830062
 20
93.0563067087429
 30
0.0
 10
87.8955602312302
 20
94.42814533733664
 30
0.0
 10
87.79917247332064
 20
95.72536689806365
 30
0.0
 10
87.54637480083301
 20
97.36470568069298
 30
0.0
 10
87.18250621086393
 20
98.56824733972091
 30
0.0
 10
86.93850905474851
 20
99.37529897914439
 30
0.0
  0
LINE
  5
247
330
1F
100
AcDbEntity
  8
0
  6
Continuous
 62
     7
370
    25
100
AcDbLine
 10
88.0206687956
 20
89.1252989791
 30
0.0
 11
88.0206687956
 21
109.6252989791
 31
0.0
  0
SPLINE
  5
248
330
1F
100
AcDbEntity
  8
0
  6
Continuous
 62
     7
370
    25
100
AcDbSpline
210
0.0
220
0.0
230
1.0
 70
     8
 71
     3
 72
    13
 73
     9
 74
     0
 42
0.00000001
 43
0.00000001
 40
0.0
 40
0.0
 40
0.0
 40
0.0
 40
0.1836553993766936
 40
0.3672588718221036
 40
0.5549696911504478
 40
0.7426466374856793
 40
0.9025430991801283
 40
1.0
 40
1.0
 40
1.0
 40
1.0
 10
74.10282853636116
 20
88.87529897914436
 30
0.0
 10
73.96004616812066
 20
89.32894581521525
 30
0.0
 10
73.67452180208477
 20
90.23611122274752
 30
0.0
 10
73.36763068526479
 20
91.6330257470927
 30
0.0
 10
73.18184615300498
 20
93.0564362737127
 30
0.0
 10
73.14916761119235
 20
94.42769231667101
 30
0.0
 10
73.2214343234699
 20
95.56688449860484
 30
0.0
 10
73.33244064991676
 20
96.21871439794903
 30
0.0
 10
73.37447753041917
 20
96.46555524444577
 30
0.0
  0
SPLINE
  5
249
330
1F
100
AcDbEntity
  8
0
  6
Continuous
 62
     7
370
    25
100
AcDbSpline
210
0.0
220
0.0
230
1.0
 70
    24
 71
     3
 72
    10
 73
     6
 74
     0
 42
0.00000001
 43
0.00000001
 40
0.0
 40
0.0
 40
0.0
 40
0.0
 40
0.2561243387363377
 40
0.6261206679663306
 40
1.0
 40
1.0
 40
1.0
 40
1.0
 10
73.16578144025989
 20
88.87529897914438
 30
0.0
 10
73.1793791765031
 20
88.87529897914438
 30
0.0
 10
73.21262015524584
 20
88.87529897914438
 30
0.0
 10
73.5154547023598
 20
88.87529897914436
 30
0.0
 10
73.90635709313133
 20
88.87529897914436
 30
0.0
 10
74.10282853636116
 20
88.87529897914436
 30
0.0
  0
SPLINE
  5
24A
330
1F
100
AcDbEntity
  8
0
  6
Continuous
 62
     7
370
    25
100
AcDbSpline
210
0.0
220
0.0
230
1.0
 70
    24
 71
     3
 72
    11
 73
     7
 74
     0
 42
0.00000001
 43
0.00000001
 40
0.0
 40
0.0
 40
0.0
 40
0.0
 40
0.37036770393614
 40
0.7440068685119131
 40
0.9943132421507301
 40
1.0
 40
1.0
 40
1.0
 40
1.0
 10
74.10282853636116
 20
109.8752989791443
 30
0.0
 10
73.90583794803653
 20
109.8752989791443
 30
0.0
 10
73.51011675207884
 20
109.8752989791444
 30
0.0
 10
73.23842291987684
 20
109.8752989791444
 30
0.0
 10
73.14522151395842
 20
109.8752989791444
 30
0.0
 10
73.16652471330102
 20
109.8752989791444
 30
0.0
 10
73.16699795309215
 20
109.8752989791444
 30
0.0
  0
SPLINE
  5
24B
330
1F
100
AcDbEntity
  8
0
  6
Continuous
 62
     7
370
    25
100
AcDbSpline
210
0.0
220
0.0
230
1.0
 70
     8
 71
     3
 72
    12
 73
     8
 74
     0
 42
0.00000001
 43
0.00000001
 40
0.0
 40
0.0
 40
0.0
 40
0.0
 40
0.1666983847791755
 40
0.3544402885621842
 40
0.5143920925150319
 40
0.6743688472160717
 40
1.0
 40
1.0
 40
1.0
 40
1.0
 10
73.369432255089
 20
102.2861542671823
 30
0.0
 10
73.3069425471129
 20
102.7094447810233
 30
0.0
 10
73.17407461227025
 20
103.6094607714011
 30
0.0
 10
73.1474888848986
 20
104.9283438843833
 30
0.0
 10
73.24174915170939
 20
106.225318643533
 30
0.0
 10
73.49519854756755
 20
107.8647330299361
 30
0.0
 10
73.85892601316243
 20
109.0682583177001
 30
0.0
 10
74.10282853636116
 20
109.8752989791443
 30
0.0
  0
LINE
  5
24C
330
1F
100
AcDbEntity
  8
0
  6
Continuous
 62
     7
370
    25
100
AcDbLine
 10
73.0206687956
 20
89.1252989791
 30
0.0
 11
73.0206687956
 21
96.3560211085
 31
0.0
  0
LINE
  5
24D
330
1F
100
AcDbEntity
  8
0
  6
Continuous
 62
     7
370
    25
100
AcDbLine
 10
73.0206687956
 20
102.3963815651
 30
0.0
 11
73.0206687956
 21
109.6252989791
 31
0.0
  0
LINE
  5
24E
330
1F
100
AcDbEntity
  8
0
  6
Continuous
 62
     7
370
    25
100
AcDbLine
 10
86.9385090547
 20
109.8752989791
 30
0.0
 11
74.1028285364
 21
109.8752989791
 31
0.0
  0
LINE
  5
24F
330
1F
100
AcDbEntity
  8
0
  6
Continuous
 62
     7
370
    25
100
AcDbLine
 10
86.9385090547
 20
99.3752989791
 30
0.0
 11
74.2053475473
 21
99.3752989791
 31
0.0
  0
LINE
  5
250
330
1F
100
AcDbEntity
  8
0
  6
Continuous
 62
     7
370
    25
100
AcDbLine
 10
86.9385090547
 20
88.8752989791
 30
0.0
 11
74.1028285364
 21
88.8752989791
 31
0.0
  0
SPLINE
  5
251
330
1F
100
AcDbEntity
  8
0
  6
Continuous
 62
     7
370
    25
100
AcDbSpline
210
0.0
220
0.0
230
1.0
 70
     8
 71
     3
 72
    14
 73
    10
 74
     0
 42
0.00000001
 43
0.00000001
 40
0.0
 40
0.0
 40
0.0
 40
0.0
 40
0.1323181917627738
 40
0.264598971733275
 40
0.3998389716033099
 40
0.5350545670005468
 40
0.6502551587200379
 40
0.7654737204835332
 40
1.0
 40
1.0
 40
1.0
 40
1.0
 10
19.47218603982469
 20
99.37529897914439
 30
0.0
 10
19.32942450895634
 20
98.92165492745713
 30
0.0
 10
19.04394181177321
 20
98.01449508790482
 30
0.0
 10
18.7367359166172
 20
96.61753850145917
 30
0.0
 10
18.55217327627257
 20
95.19429124954584
 30
0.0
 10
18.51513486334299
 20
93.82245262095209
 30
0.0
 10
18.61152262125258
 20
92.52523106022508
 30
0.0
 10
18.86432029374021
 20
90.8858922775958
 30
0.0
 10
19.22818888370927
 20
89.68235061856791
 30
0.0
 10
19.47218603982469
 20
88.87529897914445
 30
0.0
  0
SPLINE
  5
252
330
1F
100
AcDbEntity
  8
0
  6
Continuous
 62
     7
370
    25
100
AcDbSpline
210
0.0
220
0.0
230
1.0
 70
    24
 71
     3
 72
    11
 73
     7
 74
     0
 42
0.00000001
 43
0.00000001
 40
0.0
 40
0.0
 40
0.0
 40
0.0
 40
0.3703677039361442
 40
0.7440068685119218
 40
0.9943132421507418
 40
1.0
 40
1.0
 40
1.0
 40
1.0
 10
19.47218603982469
 20
88.87529897914445
 30
0.0
 10
19.27519545150006
 20
88.87529897914443
 30
0.0
 10
18.87947425554235
 20
88.87529897914442
 30
0.0
 10
18.60778042334044
 20
88.8752989791444
 30
0.0
 10
18.51457901742184
 20
88.87529897914438
 30
0.0
 10
18.53588221676454
 20
88.87529897914438
 30
0.0
 10
18.53635545655566
 20
88.87529897914438
 30
0.0
  0
SPLINE
  5
253
330
1F
100
AcDbEntity
  8
0
  6
Continuous
 62
     7
370
    25
100
AcDbSpline
210
0.0
220
0.0
230
1.0
 70
    24
 71
     3
 72
    10
 73
     6
 74
     0
 42
0.00000001
 43
0.00000001
 40
0.0
 40
0.0
 40
0.0
 40
0.0
 40
0.2561243387363465
 40
0.6261206679663353
 40
1.0
 40
1.0
 40
1.0
 40
1.0
 10
18.53513894372342
 20
109.8752989791444
 30
0.0
 10
18.54873667996663
 20
109.8752989791444
 30
0.0
 10
18.58197765870937
 20
109.8752989791444
 30
0.0
 10
18.88481220582332
 20
109.8752989791444
 30
0.0
 10
19.27571459659486
 20
109.8752989791444
 30
0.0
 10
19.47218603982469
 20
109.8752989791444
 30
0.0
  0
SPLINE
  5
254
330
1F
100
AcDbEntity
  8
0
  6
Continuous
 62
     7
370
    25
100
AcDbSpline
210
0.0
220
0.0
230
1.0
 70
     8
 71
     3
 72
    14
 73
    10
 74
     0
 42
0.00000001
 43
0.00000001
 40
0.0
 40
0.0
 40
0.0
 40
0.0
 40
0.1323181917627721
 40
0.2645989717332717
 40
0.3998389716033048
 40
0.53505456700054
 40
0.6502551587200327
 40
0.7654737204835297
 40
0.9999999999999999
 40
0.9999999999999999
 40
0.9999999999999999
 40
0.9999999999999999
 10
19.47218603982469
 20
109.8752989791444
 30
0.0
 10
19.32942450895634
 20
109.4216549274571
 30
0.0
 10
19.0439418117732
 20
108.5144950879048
 30
0.0
 10
18.73673591661718
 20
107.1175385014592
 30
0.0
 10
18.55217327627257
 20
105.6942912495459
 30
0.0
 10
18.51513486334295
 20
104.3224526209521
 30
0.0
 10
18.61152262125255
 20
103.0252310602251
 30
0.0
 10
18.86432029374017
 20
101.3858922775958
 30
0.0
 10
19.22818888370925
 20
100.1823506185679
 30
0.0
 10
19.47218603982468
 20
99.37529897914439
 30
0.0
  0
LINE
  5
255
330
1F
100
AcDbEntity
  8
0
  6
Continuous
 62
     7
370
    25
100
AcDbLine
 10
18.390026299
 20
109.6252989791
 30
0.0
 11
18.390026299
 21
89.1252989791
 31
0.0
  0
SPLINE
  5
256
330
1F
100
AcDbEntity
  8
0
  6
Continuous
 62
     7
370
    25
100
AcDbSpline
210
0.0
220
0.0
230
1.0
 70
     8
 71
     3
 72
    13
 73
     9
 74
     0
 42
0.00000001
 43
0.00000001
 40
0.0
 40
0.0
 40
0.0
 40
0.0
 40
0.1836553993766879
 40
0.3672588718220923
 40
0.5549696911504305
 40
0.7426466374856562
 40
0.9025430991801002
 40
1.0
 40
1.0
 40
1.0
 40
1.0
 10
32.30786655821201
 20
109.8752989791444
 30
0.0
 10
32.45064892645252
 20
109.4216521430735
 30
0.0
 10
32.73617329248841
 20
108.5144867355413
 30
0.0
 10
33.04306440930841
 20
107.1175722111961
 30
0.0
 10
33.2288489415682
 20
105.6941616845761
 30
0.0
 10
33.26152748338084
 20
104.3229056416178
 30
0.0
 10
33.18926077110327
 20
103.1837134596839
 30
0.0
 10
33.07825444465639
 20
102.5318835603396
 30
0.0
 10
33.03621756415397
 20
102.2850427138428
 30
0.0
  0
SPLINE
  5
257
330
1F
100
AcDbEntity
  8
0
  6
Continuous
 62
     7
370
    25
100
AcDbSpline
210
0.0
220
0.0
230
1.0
 70
    24
 71
     3
 72
    10
 73
     6
 74
     0
 42
0.00000001
 43
0.00000001
 40
0.0
 40
0.0
 40
0.0
 40
0.0
 40
0.2561243387363464
 40
0.6261206679663351
 40
1.0
 40
1.0
 40
1.0
 40
1.0
 10
33.24491365431329
 20
109.8752989791444
 30
0.0
 10
33.23131591807007
 20
109.8752989791444
 30
0.0
 10
33.19807493932733
 20
109.8752989791444
 30
0.0
 10
32.89524039221338
 20
109.8752989791444
 30
0.0
 10
32.50433800144185
 20
109.8752989791444
 30
0.0
 10
32.30786655821201
 20
109.8752989791444
 30
0.0
  0
SPLINE
  5
258
330
1F
100
AcDbEntity
  8
0
  6
Continuous
 62
     7
370
    25
100
AcDbSpline
210
0.0
220
0.0
230
1.0
 70
    24
 71
     3
 72
    11
 73
     7
 74
     0
 42
0.00000001
 43
0.00000001
 40
0.0
 40
0.0
 40
0.0
 40
0.0
 40
0.3703677039361443
 40
0.7440068685119217
 40
0.9943132421507417
 40
0.9999999999999999
 40
0.9999999999999999
 40
0.9999999999999999
 40
0.9999999999999999
 10
32.30786655821201
 20
88.87529897914445
 30
0.0
 10
32.50485714653664
 20
88.87529897914443
 30
0.0
 10
32.90057834249434
 20
88.87529897914442
 30
0.0
 10
33.1722721746963
 20
88.8752989791444
 30
0.0
 10
33.26547358061481
 20
88.87529897914438
 30
0.0
 10
33.24417038127217
 20
88.87529897914438
 30
0.0
 10
33.24369714148104
 20
88.87529897914438
 30
0.0
  0
SPLINE
  5
259
330
1F
100
AcDbEntity
  8
0
  6
Continuous
 62
     7
370
    25
100
AcDbSpline
210
0.0
220
0.0
230
1.0
 70
     8
 71
     3
 72
    12
 73
     8
 74
     0
 42
0.00000001
 43
0.00000001
 40
0.0
 40
0.0
 40
0.0
 40
0.0
 40
0.1666983847791533
 40
0.3544402885621671
 40
0.5143920925150189
 40
0.6743688472160629
 40
1.0
 40
1.0
 40
1.0
 40
1.0
 10
33.04126283948421
 20
96.46444369110624
 30
0.0
 10
33.1037525474603
 20
96.04115317726537
 30
0.0
 10
33.23662048230294
 20
95.1411371868876
 30
0.0
 10
33.26320620967456
 20
93.82225407390544
 30
0.0
 10
33.16894594286379
 20
92.52527931475582
 30
0.0
 10
32.91549654700562
 20
90.8858649283527
 30
0.0
 10
32.55176908141074
 20
89.68233964058867
 30
0.0
 10
32.30786655821201
 20
88.87529897914445
 30
0.0
  0
LINE
  5
25A
330
1F
100
AcDbEntity
  8
0
  6
Continuous
 62
     7
370
    25
100
AcDbLine
 10
33.390026299
 20
109.6252989791
 30
0.0
 11
33.390026299
 21
102.3945768498
 31
0.0
  0
LINE
  5
25B
330
1F
100
AcDbEntity
  8
0
  6
Continuous
 62
     7
370
    25
100
AcDbLine
 10
33.390026299
 20
96.3542163932
 30
0.0
 11
33.390026299
 21
89.1252989791
 31
0.0
  0
LINE
  5
25C
330
1F
100
AcDbEntity
  8
0
  6
Continuous
 62
     7
370
    25
100
AcDbLine
 10
19.4721860398
 20
99.3752989791
 30
0.0
 11
32.2053475473
 21
99.3752989791
 31
0.0
  0
LINE
  5
25D
330
1F
100
AcDbEntity
  8
0
  6
Continuous
 62
     7
370
    25
100
AcDbLine
 10
19.4721860398
 20
109.8752989791
 30
0.0
 11
32.3078665582
 21
109.8752989791
 31
0.0
  0
LINE
  5
25E
330
1F
100
AcDbEntity
  8
0
  6
Continuous
 62
     7
370
    25
100
AcDbLine
 10
19.4721860398
 20
88.8752989791
 30
0.0
 11
32.3078665582
 21
88.8752989791
 31
0.0
  0
LINE
  5
25F
330
1F
100
AcDbEntity
  8
0
  6
Continuous
 62
     7
370
    25
100
AcDbLine
 10
50.9678635257
 20
98.4000264341
 30
0.0
 11
50.9350679987
 21
98.4187704734
 31
0.0
  0
SPLINE
  5
260
330
1F
100
AcDbEntity
  8
0
  6
Continuous
 62
     7
370
    25
100
AcDbSpline
210
0.0
220
0.0
230
1.0
 70
     8
 71
     3
 72
    15
 73
    11
 74
     0
 42
0.00000001
 43
0.00000001
 40
0.0
 40
0.0
 40
0.0
 40
0.0
 40
0.1241930067305289
 40
0.24965566548923
 40
0.3743703853151211
 40
0.4998404796364203
 40
0.6240146704162364
 40
0.7475381382242062
 40
0.8745858500551824
 40
1.0
 40
1.0
 40
1.0
 40
1.0
 10
51.74815324741715
 20
98.67246608473012
 30
0.0
 10
51.73259285230744
 20
98.6366188819862
 30
0.0
 10
51.70131298479593
 20
98.56455800277439
 30
0.0
 10
51.62387662530755
 20
98.47468248943149
 30
0.0
 10
51.53052262156864
 20
98.40235871163718
 30
0.0
 10
51.42329701554767
 20
98.35343129313259
 30
0.0
 10
51.30891110482673
 20
98.32710323967783
 30
0.0
 10
51.1912403419414
 20
98.32624414567523
 30
0.0
 10
51.0743566167162
 20
98.34762690630482
 30
0.0
 10
51.00320776582147
 20
98.38263543276558
 30
0.0
 10
50.96786352573805
 20
98.400026434147
 30
0.0
  0
LINE
  5
261
330
1F
100
AcDbEntity
  8
0
  6
Continuous
 62
     7
370
    25
100
AcDbLine
 10
52.7400072921
 20
101.4460453006
 30
0.0
 11
51.7481532474
 21
98.6724660847
 31
0.0
  0
SPLINE
  5
262
330
1F
100
AcDbEntity
  8
0
  6
Continuous
 62
     7
370
    25
100
AcDbSpline
210
0.0
220
0.0
230
1.0
 70
     8
 71
     3
 72
    15
 73
    11
 74
     0
 42
0.00000001
 43
0.00000001
 40
0.0
 40
0.0
 40
0.0
 40
0.0
 40
0.1233025178081761
 40
0.2485158700387114
 40
0.3756924668130948
 40
0.4999990880429331
 40
0.6243057092728395
 40
0.7514823060473043
 40
0.8766757256079957
 40
1.0
 40
1.0
 40
1.0
 40
1.0
 10
53.67068780563828
 20
101.4460453006435
 30
0.0
 10
53.64653683367593
 20
101.4866904365792
 30
0.0
 10
53.59786061914118
 20
101.5686105911671
 30
0.0
 10
53.48250996093607
 20
101.6584295469795
 30
0.0
 10
53.34935033867421
 20
101.7160036951407
 30
0.0
 10
53.20534769530542
 20
101.7351623908108
 30
0.0
 10
53.06134416660693
 20
101.7160042879257
 30
0.0
 10
52.92819429364142
 20
101.6584301741872
 30
0.0
 10
52.812831936107
 20
101.5686246120405
 30
0.0
 10
52.76416015043581
 20
101.4866996805157
 30
0.0
 10
52.74000729211899
 20
101.4460453006436
 30
0.0
  0
LINE
  5
263
330
1F
100
AcDbEntity
  8
0
  6
Continuous
 62
     7
370
    25
100
AcDbLine
 10
54.662310712
 20
98.6731124303
 30
0.0
 11
53.6706878056
 21
101.4460453006
 31
0.0
  0
SPLINE
  5
264
330
1F
100
AcDbEntity
  8
0
  6
Continuous
 62
     7
370
    25
100
AcDbSpline
210
0.0
220
0.0
230
1.0
 70
     8
 71
     3
 72
    15
 73
    11
 74
     0
 42
0.00000001
 43
0.00000001
 40
0.0
 40
0.0
 40
0.0
 40
0.0
 40
0.1253320172137759
 40
0.2522975129251759
 40
0.3758847553984062
 40
0.5001929511416487
 40
0.6255758307380153
 40
0.7502289462456482
 40
0.8757444935777827
 40
1.0
 40
1.0
 40
1.0
 40
1.0
 10
55.43501247655212
 20
98.39641657968917
 30
0.0
 10
55.39976155992413
 20
98.3797422712064
 30
0.0
 10
55.32880029406973
 20
98.34617633447711
 30
0.0
 10
55.21281340328135
 20
98.32639471822297
 30
0.0
 10
55.09621703704098
 20
98.32846749856957
 30
0.0
 10
54.9830964304595
 20
98.35554552492015
 30
0.0
 10
54.87722071612005
 20
98.40475834062732
 30
0.0
 10
54.7851116315009
 20
98.4768441045012
 30
0.0
 10
54.7086799676325
 20
98.56613162600063
 30
0.0
 10
54.6777150601332
 20
98.63757229643767
 30
0.0
 10
54.66231071201196
 20
98.67311243029573
 30
0.0
  0
LINE
  5
265
330
1F
100
AcDbEntity
  8
0
  6
Continuous
 62
     7
370
    25
100
AcDbLine
 10
55.475627099
 20
98.4187704734
 30
0.0
 11
55.4350124766
 21
98.3964165797
 31
0.0
  0
LINE
  5
266
330
1F
100
AcDbEntity
  8
0
  6
Continuous
 62
     7
370
    25
100
AcDbLine
 10
54.8486439025
 20
97.2233593699
 30
0.0
 11
55.475627099
 21
98.4187704734
 31
0.0
  0
SPLINE
  5
267
330
1F
100
AcDbEntity
  8
0
  6
Continuous
 62
     7
370
    25
100
AcDbSpline
210
0.0
220
0.0
230
1.0
 70
     8
 71
     3
 72
    15
 73
    11
 74
     0
 42
0.00000001
 43
0.00000001
 40
0.0
 40
0.0
 40
0.0
 40
0.0
 40
0.124633218643854
 40
0.2519059530189772
 40
0.3765391000744918
 40
0.4994035903146518
 40
0.6264494152300148
 40
0.7526064410610419
 40
0.874680437736327
 40
1.0
 40
1.0
 40
1.0
 40
1.0
 10
54.74341541374308
 20
97.20524220319167
 30
0.0
 10
54.74742988941122
 20
97.20213696833903
 30
0.0
 10
54.75554386038991
 20
97.19586073513722
 30
0.0
 10
54.76998245222644
 20
97.19024772165737
 30
0.0
 10
54.78511590215953
 20
97.18771136903055
 30
0.0
 10
54.8004784444413
 20
97.1885967725984
 30
0.0
 10
54.81540902327799
 20
97.19272784311406
 30
0.0
 10
54.82891092330728
 20
97.20021854305995
 30
0.0
 10
54.8405965781937
 20
97.21035712497427
 30
0.0
 10
54.84593810253448
 20
97.21898754731707
 30
0.0
 10
54.84864390253623
 20
97.22335936990933
 30
0.0
  0
SPLINE
  5
268
330
1F
100
AcDbEntity
  8
0
  6
Continuous
 62
     7
370
    25
100
AcDbSpline
210
0.0
220
0.0
230
1.0
 70
     8
 71
     3
 72
    11
 73
     7
 74
     0
 42
0.00000001
 43
0.00000001
 40
0.0
 40
0.0
 40
0.0
 40
0.0
 40
0.2506252605986011
 40
0.4999999999996214
 40
0.7493747394010042
 40
1.0
 40
1.0
 40
1.0
 40
1.0
 10
51.66727968401419
 20
97.20524220319164
 30
0.0
 10
51.8970073781875
 20
97.36809649515261
 30
0.0
 10
52.35531651595049
 20
97.69299250039147
 30
0.0
 10
53.20534754888661
 20
97.82672444732859
 30
0.0
 10
54.05537858181684
 20
97.69299250038631
 30
0.0
 10
54.51368771957311
 20
97.36809649515094
 30
0.0
 10
54.74341541374308
 20
97.20524220319169
 30
0.0
  0
SPLINE
  5
269
330
1F
100
AcDbEntity
  8
0
  6
Continuous
 62
     7
370
    25
100
AcDbSpline
210
0.0
220
0.0
230
1.0
 70
     8
 71
     3
 72
    15
 73
    11
 74
     0
 42
0.00000001
 43
0.00000001
 40
0.0
 40
0.0
 40
0.0
 40
0.0
 40
0.1253191957979133
 40
0.2473928354984057
 40
0.3734492416489694
 40
0.5005950046079951
 40
0.623548439177759
 40
0.7480947836179459
 40
0.875367145815387
 40
1.0
 40
1.0
 40
1.0
 40
1.0
 10
51.56205119522099
 20
97.22335936990933
 30
0.0
 10
51.56475699155342
 20
97.21898754162538
 30
0.0
 10
51.5700985086506
 20
97.21035710804661
 30
0.0
 10
51.58178108123968
 20
97.20022133054682
 30
0.0
 10
51.59528206122695
 20
97.19272921467321
 30
0.0
 10
51.61021609007701
 20
97.18859676938106
 30
0.0
 10
51.62558310126605
 20
97.18770882760751
 30
0.0
 10
51.64071583770427
 20
97.19024976986505
 30
0.0
 10
51.65515126748596
 20
97.19586054813225
 30
0.0
 10
51.66326521831519
 20
97.20213690644098
 30
0.0
 10
51.66727968401418
 20
97.20524220319164
 30
0.0
  0
LINE
  5
26A
330
1F
100
AcDbEntity
  8
0
  6
Continuous
 62
     7
370
    25
100
AcDbLine
 10
50.9350679987
 20
98.4187704734
 30
0.0
 11
51.5620511952
 21
97.2233593699
 31
0.0
  0
SPLINE
  5
26B
330
1F
100
AcDbEntity
  8
0
  6
Continuous
 62
     7
370
    25
100
AcDbSpline
210
0.0
220
0.0
230
1.0
 70
     8
 71
     3
 72
    15
 73
    11
 74
     0
 42
0.00000001
 43
0.00000001
 40
0.0
 40
0.0
 40
0.0
 40
0.0
 40
0.1233867499278388
 40
0.2487396502211602
 40
0.3739317114754985
 40
0.4999973617625658
 40
0.62595913305136
 40
0.7512551380600302
 40
0.8765613478174265
 40
1.0
 40
1.0
 40
1.0
 40
1.0
 10
53.14246468248053
 20
99.39670843728712
 30
0.0
 10
53.14534288367241
 20
99.40272323337008
 30
0.0
 10
53.15114514978404
 20
99.41484867045877
 30
0.0
 10
53.16667455450479
 20
99.42823993080883
 30
0.0
 10
53.18502913637823
 20
99.43711764238878
 30
0.0
 10
53.20534195286114
 20
99.43987430568524
 30
0.0
 10
53.22566037057625
 20
99.43711962448464
 30
0.0
 10
53.24401323974036
 20
99.42824392619518
 30
0.0
 10
53.25955134413586
 20
99.41485355894147
 30
0.0
 10
53.26535190616715
 20
99.40272646139543
 30
0.0
 10
53.2682304120927
 20
99.39670843728712
 30
0.0
  0
LINE
  5
26C
330
1F
100
AcDbEntity
  8
0
  6
Continuous
 62
     7
370
    25
100
AcDbLine
 10
52.9033511568
 20
98.758454408
 30
0.0
 11
53.1424646825
 21
99.3967084373
 31
0.0
  0
SPLINE
  5
26D
330
1F
100
AcDbEntity
  8
0
  6
Continuous
 62
     7
370
    25
100
AcDbSpline
210
0.0
220
0.0
230
1.0
 70
     8
 71
     3
 72
    15
 73
    11
 74
     0
 42
0.00000001
 43
0.00000001
 40
0.0
 40
0.0
 40
0.0
 40
0.0
 40
0.126158522421064
 40
0.2513121451548799
 40
0.3762846848783791
 40
0.4993062783340876
 40
0.6261594278645742
 40
0.7521171342021308
 40
0.8758196922692789
 40
1.0
 40
1.0
 40
1.0
 40
1.0
 10
52.96623402160885
 20
98.67339005466458
 30
0.0
 10
52.96100292512018
 20
98.67371236125693
 30
0.0
 10
52.95058239977752
 20
98.67435440714942
 30
0.0
 10
52.93579584926312
 20
98.6798026475246
 30
0.0
 10
52.92260549663762
 20
98.68802525011024
 30
0.0
 10
52.91173492179635
 20
98.69928185642281
 30
0.0
 10
52.90372733446781
 20
98.71280260176393
 30
0.0
 10
52.89956070743511
 20
98.72793948934071
 30
0.0
 10
52.8989396559235
 20
98.74362862091186
 30
0.0
 10
52.90187876827826
 20
98.75350613327049
 30
0.0
 10
52.903351156761
 20
98.75845440801453
 30
0.0
  0
LINE
  5
26E
330
1F
100
AcDbEntity
  8
0
  6
Continuous
 62
     7
370
    25
100
AcDbLine
 10
53.4444610758
 20
98.6733900547
 30
0.0
 11
52.9662340216
 21
98.6733900547
 31
0.0
  0
SPLINE
  5
26F
330
1F
100
AcDbEntity
  8
0
  6
Continuous
 62
     7
370
    25
100
AcDbSpline
210
0.0
220
0.0
230
1.0
 70
     8
 71
     3
 72
    15
 73
    11
 74
     0
 42
0.00000001
 43
0.00000001
 40
0.0
 40
0.0
 40
0.0
 40
0.0
 40
0.1241186784437702
 40
0.2478474916628989
 40
0.3736574149478946
 40
0.5005082335853298
 40
0.6234527658309923
 40
0.7484986612277523
 40
0.8736976492452767
 40
1.0
 40
1.0
 40
1.0
 40
1.0
 10
53.50734394053819
 20
98.75845440823764
 30
0.0
 10
53.50881501314702
 20
98.7535085625795
 30
0.0
 10
53.51175253762539
 20
98.74363240650136
 30
0.0
 10
53.51113580312531
 20
98.72795101087566
 30
0.0
 10
53.50697384153069
 20
98.71281847879536
 30
0.0
 10
53.49897509373231
 20
98.69930357118095
 30
0.0
 10
53.48810900219548
 20
98.68804350998496
 30
0.0
 10
53.47492128437086
 20
98.67981379755147
 30
0.0
 10
53.46012683779564
 20
98.67435422716643
 30
0.0
 10
53.44969824688832
 20
98.67371238410945
 30
0.0
 10
53.44446107577391
 20
98.67339005466458
 30
0.0
  0
LINE
  5
270
330
1F
100
AcDbEntity
  8
0
  6
Continuous
 62
     7
370
    25
100
AcDbLine
 10
53.2682304121
 20
99.3967084373
 30
0.0
 11
53.5073439405
 21
98.7584544082
 31
0.0
  0
CIRCLE
  5
271
330
1F
100
AcDbEntity
  8
0
  6
Continuous
 62
     7
370
    25
100
AcDbCircle
 10
53.2053475473
 20
99.3752989791
 30
0.0
 40
4.5
  0
LINE
  5
272
330
1F
100
AcDbEntity
  8
0
  6
Continuous
 62
     7
370
    25
100
AcDbLine
 10
36.1286421044
 20
102.7262158906
 30
0.0
 11
36.1598974151
 21
102.7227242852
 31
0.0
  0
SPLINE
  5
273
330
1F
100
AcDbEntity
  8
0
  6
Continuous
 62
     7
370
    25
100
AcDbSpline
210
0.0
220
0.0
230
1.0
 70
     8
 71
     3
 72
    11
 73
     7
 74
     0
 42
0.00000001
 43
0.00000001
 40
0.0
 40
0.0
 40
0.0
 40
0.0
 40
0.0055682347466184
 40
0.191826336832104
 40
0.6296575784328784
 40
1.0
 40
1.0
 40
1.0
 40
1.0
 10
38.70534754728661
 20
101.7316636235793
 30
0.0
 10
38.70015362395132
 20
101.7330478416552
 30
0.0
 10
38.52122235892152
 20
101.7807343159066
 30
0.0
 10
37.93438465937896
 20
101.9347044987449
 30
0.0
 10
37.00425891382109
 20
102.1802795735095
 30
0.0
 10
36.2797705370015
 20
102.2124513593198
 30
0.0
 10
35.9477765707333
 20
102.2271939543908
 30
0.0
  0
SPLINE
  5
274
330
1F
100
AcDbEntity
  8
0
  6
Continuous
 62
     7
370
    25
100
AcDbSpline
210
0.0
220
0.0
230
1.0
 70
     8
 71
     3
 72
    11
 73
     7
 74
     0
 42
0.00000001
 43
0.00000001
 40
0.0
 40
0.0
 40
0.0
 40
0.0
 40
0.3703424215671242
 40
0.8081736631678934
 40
0.9944317652533823
 40
0.9999999999999999
 40
0.9999999999999999
 40
0.9999999999999999
 40
0.9999999999999999
 10
41.46291852383993
 20
102.2271939543908
 30
0.0
 10
41.13092455757174
 20
102.2124513593198
 30
0.0
 10
40.40643618075214
 20
102.1802795735095
 30
0.0
 10
39.47631043519429
 20
101.9347044987448
 30
0.0
 10
38.8894727356517
 20
101.7807343159066
 30
0.0
 10
38.71054147062191
 20
101.7330478416552
 30
0.0
 10
38.70534754728661
 20
101.7316636235793
 30
0.0
  0
ELLIPSE
  5
275
330
1F
100
AcDbEntity
  8
0
  6
Continuous
 62
     7
370
    25
100
AcDbEllipse
 10
38.7053475473
 20
101.4957889937
 30
0.0
 11
6.5
 21
0.0
 31
0.0
210
0.0
220
0.0
230
1.0
 40
0.124260355
 41
0.5546419378370231
 42
1.132672010655788
  0
LINE
  5
276
330
1F
100
AcDbEntity
  8
0
  6
Continuous
 62
     7
370
    25
100
AcDbLine
 10
44.2309264649
 20
101.9211512219
 30
0.0
 11
44.2309264649
 21
96.8294467364
 31
0.0
  0
ELLIPSE
  5
277
330
1F
100
AcDbEntity
  8
0
  6
Continuous
 62
     7
370
    25
100
AcDbEllipse
 10
38.7053475473
 20
97.2548089646
 30
0.0
 11
6.5
 21
-1.421085471520200E-14
 31
0.0
210
0.0
220
0.0
230
1.0
 40
0.124260355
 41
5.150513296523828
 42
5.728543369342661
  0
SPLINE
  5
278
330
1F
100
AcDbEntity
  8
0
  6
Continuous
 62
     7
370
    25
100
AcDbSpline
210
0.0
220
0.0
230
1.0
 70
     8
 71
     3
 72
    11
 73
     7
 74
     0
 42
0.00000001
 43
0.00000001
 40
0.0
 40
0.0
 40
0.0
 40
0.0
 40
0.0055682347466179
 40
0.1918263368321036
 40
0.6296575784328761
 40
1.0
 40
1.0
 40
1.0
 40
1.0
 10
38.70534754728661
 20
97.01893433470931
 30
0.0
 10
38.71054147062191
 20
97.01755011663346
 30
0.0
 10
38.88947273565178
 20
96.96986364238245
 30
0.0
 10
39.4763104351942
 20
96.81589345954333
 30
0.0
 10
40.40643618075217
 20
96.57031838477927
 30
0.0
 10
41.13092455757175
 20
96.53814659896891
 30
0.0
 10
41.46291852383993
 20
96.5234040038979
 30
0.0
  0
SPLINE
  5
279
330
1F
100
AcDbEntity
  8
0
  6
Continuous
 62
     7
370
    25
100
AcDbSpline
210
0.0
220
0.0
230
1.0
 70
     8
 71
     3
 72
    11
 73
     7
 74
     0
 42
0.00000001
 43
0.00000001
 40
0.0
 40
0.0
 40
0.0
 40
0.0
 40
0.3703424215671235
 40
0.8081736631678963
 40
0.9944317652533821
 40
0.9999999999999999
 40
0.9999999999999999
 40
0.9999999999999999
 40
0.9999999999999999
 10
35.9477765707333
 20
96.5234040038979
 30
0.0
 10
36.27977053700148
 20
96.53814659896891
 30
0.0
 10
37.00425891382105
 20
96.57031838477927
 30
0.0
 10
37.93438465937912
 20
96.81589345954333
 30
0.0
 10
38.52122235892136
 20
96.96986364238245
 30
0.0
 10
38.70015362395132
 20
97.01755011663346
 30
0.0
 10
38.70534754728661
 20
97.01893433470931
 30
0.0
  0
LINE
  5
27A
330
1F
100
AcDbEntity
  8
0
  6
Continuous
 62
     7
370
    25
100
AcDbLine
 10
41.2507976795
 20
102.7227242852
 30
0.0
 11
41.2819398309
 21
102.7262226823
 31
0.0
  0
LINE
  5
27B
330
1F
100
AcDbEntity
  8
0
  6
Continuous
 62
     7
370
    25
100
AcDbLine
 10
36.1598974151
 20
96.0278736731
 30
0.0
 11
36.1287552637
 21
96.024375276
 31
0.0
  0
LINE
  5
27C
330
1F
100
AcDbEntity
  8
0
  6
Continuous
 62
     7
370
    25
100
AcDbLine
 10
41.2507976795
 20
96.0278736731
 30
0.0
 11
41.2819211965
 21
96.0243741713
 31
0.0
  0
SPLINE
  5
27D
330
1F
100
AcDbEntity
  8
0
  6
Continuous
 62
     7
370
    25
100
AcDbSpline
210
0.0
220
0.0
230
1.0
 70
     8
 71
     3
 72
    11
 73
     7
 74
     0
 42
0.00000001
 43
0.00000001
 40
0.0
 40
0.0
 40
0.0
 40
0.0
 40
0.0055682347466183
 40
0.1918263368321046
 40
0.6296575784328777
 40
1.0
 40
1.0
 40
1.0
 40
1.0
 10
67.70534754728662
 20
97.01893433470931
 30
0.0
 10
67.71054147062192
 20
97.01755011663346
 30
0.0
 10
67.88947273565178
 20
96.96986364238234
 30
0.0
 10
68.47631043519421
 20
96.81589345954347
 30
0.0
 10
69.40643618075218
 20
96.57031838477923
 30
0.0
 10
70.13092455757175
 20
96.5381465989689
 30
0.0
 10
70.46291852383995
 20
96.5234040038979
 30
0.0
  0
SPLINE
  5
27E
330
1F
100
AcDbEntity
  8
0
  6
Continuous
 62
     7
370
    25
100
AcDbSpline
210
0.0
220
0.0
230
1.0
 70
     8
 71
     3
 72
    11
 73
     7
 74
     0
 42
0.00000001
 43
0.00000001
 40
0.0
 40
0.0
 40
0.0
 40
0.0
 40
0.3703424215671228
 40
0.808173663167896
 40
0.9944317652533816
 40
1.0
 40
1.0
 40
1.0
 40
1.0
 10
64.9477765707333
 20
96.5234040038979
 30
0.0
 10
65.27977053700148
 20
96.5381465989689
 30
0.0
 10
66.00425891382108
 20
96.57031838477923
 30
0.0
 10
66.93438465937903
 20
96.81589345954347
 30
0.0
 10
67.52122235892146
 20
96.96986364238232
 30
0.0
 10
67.70015362395134
 20
97.01755011663346
 30
0.0
 10
67.70534754728662
 20
97.01893433470931
 30
0.0
  0
ELLIPSE
  5
27F
330
1F
100
AcDbEntity
  8
0
  6
Continuous
 62
     7
370
    25
100
AcDbEllipse
 10
67.7053475473
 20
97.2548089646
 30
0.0
 11
6.5
 21
-1.421085471520200E-14
 31
0.0
210
0.0
220
0.0
230
1.0
 40
0.124260355
 41
3.696234591426909
 42
4.274264664245604
  0
LINE
  5
280
330
1F
100
AcDbEntity
  8
0
  6
Continuous
 62
     7
370
    25
100
AcDbLine
 10
62.1797686297
 20
101.9211512219
 30
0.0
 11
62.1797686297
 21
96.8294467364
 31
0.0
  0
ELLIPSE
  5
281
330
1F
100
AcDbEntity
  8
0
  6
Continuous
 62
     7
370
    25
100
AcDbEllipse
 10
67.7053475473
 20
101.4957889937
 30
0.0
 11
6.5
 21
0.0
 31
0.0
210
0.0
220
0.0
230
1.0
 40
0.124260355
 41
2.008920642934003
 42
2.586950715752769
  0
SPLINE
  5
282
330
1F
100
AcDbEntity
  8
0
  6
Continuous
 62
     7
370
    25
100
AcDbSpline
210
0.0
220
0.0
230
1.0
 70
     8
 71
     3
 72
    11
 73
     7
 74
     0
 42
0.00000001
 43
0.00000001
 40
0.0
 40
0.0
 40
0.0
 40
0.0
 40
0.0055682347466183
 40
0.1918263368321041
 40
0.6296575784328773
 40
1.0
 40
1.0
 40
1.0
 40
1.0
 10
67.70534754728662
 20
101.7316636235793
 30
0.0
 10
67.70015362395134
 20
101.7330478416552
 30
0.0
 10
67.52122235892153
 20
101.7807343159066
 30
0.0
 10
66.93438465937894
 20
101.9347044987449
 30
0.0
 10
66.0042589138211
 20
102.1802795735095
 30
0.0
 10
65.27977053700148
 20
102.2124513593198
 30
0.0
 10
64.9477765707333
 20
102.2271939543908
 30
0.0
  0
SPLINE
  5
283
330
1F
100
AcDbEntity
  8
0
  6
Continuous
 62
     7
370
    25
100
AcDbSpline
210
0.0
220
0.0
230
1.0
 70
     8
 71
     3
 72
    11
 73
     7
 74
     0
 42
0.00000001
 43
0.00000001
 40
0.0
 40
0.0
 40
0.0
 40
0.0
 40
0.3703424215671224
 40
0.8081736631678954
 40
0.9944317652533818
 40
1.0
 40
1.0
 40
1.0
 40
1.0
 10
70.46291852383995
 20
102.2271939543908
 30
0.0
 10
70.13092455757175
 20
102.2124513593198
 30
0.0
 10
69.40643618075214
 20
102.1802795735095
 30
0.0
 10
68.47631043519432
 20
101.9347044987449
 30
0.0
 10
67.88947273565168
 20
101.7807343159065
 30
0.0
 10
67.71054147062192
 20
101.7330478416552
 30
0.0
 10
67.70534754728662
 20
101.7316636235793
 30
0.0
  0
LINE
  5
284
330
1F
100
AcDbEntity
  8
0
  6
Continuous
 62
     7
370
    25
100
AcDbLine
 10
65.1286421044
 20
102.7262158906
 30
0.0
 11
65.1598974151
 21
102.7227242852
 31
0.0
  0
LINE
  5
285
330
1F
100
AcDbEntity
  8
0
  6
Continuous
 62
     7
370
    25
100
AcDbLine
 10
65.1598974151
 20
96.0278736731
 30
0.0
 11
65.1287552637
 21
96.024375276
 31
0.0
  0
LINE
  5
286
330
1F
100
AcDbEntity
  8
0
  6
Continuous
 62
     7
370
    25
100
AcDbLine
 10
70.2820529902
 20
96.0243820677
 30
0.0
 11
70.2507976795
 21
96.0278736731
 31
0.0
  0
CIRCLE
  5
287
330
1F
100
AcDbEntity
  8
0
  6
Continuous
 62
     7
370
    25
100
AcDbCircle
 10
53.2053475473
 20
99.3752989791
 30
0.0
 40
5.584181783769395
  0
CIRCLE
  5
288
330
1F
100
AcDbEntity
  8
0
  6
Continuous
 62
     7
370
    25
100
AcDbCircle
 10
53.2053475473
 20
99.3752989791
 30
0.0
 40
5.095107983402499
  0
ARC
  5
289
330
1F
100
AcDbEntity
  8
0
  6
Continuous
 62
     7
370
    25
100
AcDbCircle
 10
53.2053475473
 20
99.3752989791
 30
0.0
 40
5.925113123340041
100
AcDbArc
 50
210.7429878176
 51
329.2570121825
  0
ARC
  5
28A
330
1F
100
AcDbEntity
  8
0
  6
Continuous
 62
     7
370
    25
100
AcDbCircle
 10
53.2053475473
 20
99.3752989791
 30
0.0
 40
5.925113123340047
100
AcDbArc
 50
180.0
 51
210.7429878176
  0
ARC
  5
28B
330
1F
100
AcDbEntity
  8
0
  6
Continuous
 62
     7
370
    25
100
AcDbCircle
 10
53.2053475473
 20
99.3752989791
 30
0.0
 40
5.925113123340048
100
AcDbArc
 50
149.2570121825
 51
180.0
  0
ARC
  5
28C
330
1F
100
AcDbEntity
  8
0
  6
Continuous
 62
     7
370
    25
100
AcDbCircle
 10
53.2053475473
 20
99.3752989791
 30
0.0
 40
5.925113123340048
100
AcDbArc
 50
30.7429878176
 51
149.2570121825
  0
ARC
  5
28D
330
1F
100
AcDbEntity
  8
0
  6
Continuous
 62
     7
370
    25
100
AcDbCircle
 10
53.2053475473
 20
99.3752989791
 30
0.0
 40
5.925113123340042
100
AcDbArc
 50
0.0
 51
30.7429878176
  0
ARC
  5
28E
330
1F
100
AcDbEntity
  8
0
  6
Continuous
 62
     7
370
    25
100
AcDbCircle
 10
53.2053475473
 20
99.3752989791
 30
0.0
 40
5.92511312334004
100
AcDbArc
 50
329.2570121825
 51
0.0
  0
LINE
  5
28F
330
1F
100
AcDbEntity
  8
0
  6
Continuous
 62
     7
370
    25
100
AcDbLine
 10
47.2802344239
 20
99.3752989791
 30
0.0
 11
47.2802344239
 21
96.9006503948
 31
0.0
  0
ELLIPSE
  5
290
330
1F
100
AcDbEntity
  8
0
  6
Continuous
 62
     7
370
    25
100
AcDbEllipse
 10
45.9311045933
 20
96.6522124746
 30
0.0
 11
2.0
 21
0.0
 31
0.0
210
0.0
220
0.0
230
1.0
 40
0.1682692308
 41
0.8304211569479206
 42
2.586950715752774
  0
ELLIPSE
  5
291
330
1F
100
AcDbEntity
  8
0
  6
Continuous
 62
     7
370
    25
100
AcDbEllipse
 10
45.9311045933
 20
102.0983854837
 30
0.0
 11
2.0
 21
0.0
 31
0.0
210
0.0
220
0.0
230
1.0
 40
0.1682692308
 41
3.696234591426855
 42
5.452764150231741
  0
LINE
  5
292
330
1F
100
AcDbEntity
  8
0
  6
Continuous
 62
     7
370
    25
100
AcDbLine
 10
47.2802344239
 20
101.8499475635
 30
0.0
 11
47.2802344239
 21
99.3752989791
 31
0.0
  0
SPLINE
  5
293
330
1F
100
AcDbEntity
  8
0
  6
Continuous
 62
     7
370
    25
100
AcDbSpline
210
0.0
220
0.0
230
1.0
 70
     8
 71
     3
 72
    12
 73
     8
 74
     0
 42
0.00000001
 43
0.00000001
 40
0.0
 40
0.0
 40
0.0
 40
0.0
 40
0.2571943124574413
 40
0.5245503439757948
 40
0.7385170215182973
 40
0.8882338470637767
 40
1.0
 40
1.0
 40
1.0
 40
1.0
 10
47.99572931668013
 20
102.4041451329905
 30
0.0
 10
47.911031039159
 20
102.3955298587476
 30
0.0
 10
47.73828806446659
 20
102.3779589217219
 30
0.0
 10
47.51906303570176
 20
102.2594485159941
 30
0.0
 10
47.36968326032238
 20
102.113460371315
 30
0.0
 10
47.29228674372833
 20
101.9728779083255
 30
0.0
 10
47.2838433845645
 20
101.8867579685567
 30
0.0
 10
47.28023442394657
 20
101.8499475634781
 30
0.0
  0
ELLIPSE
  5
294
330
1F
100
AcDbEntity
  8
0
  6
Continuous
 62
     7
370
    25
100
AcDbEllipse
 10
45.9311045933
 20
102.5939158145
 30
0.0
 11
2.5
 21
0.0
 31
0.0
210
0.0
220
0.0
230
1.0
 40
0.1346153846
 41
3.779873702326535
 42
5.648158522065321
  0
ELLIPSE
  5
295
330
1F
100
AcDbEntity
  8
0
  6
Continuous
 62
     7
370
    25
100
AcDbEllipse
 10
60.4795905012
 20
102.0983854837
 30
0.0
 11
2.000000000000007
 21
0.0
 31
0.0
210
0.0
220
0.0
230
1.0
 40
0.1682692308
 41
3.972013810537718
 42
5.728543369342646
  0
SPLINE
  5
296
330
1F
100
AcDbEntity
  8
0
  6
Continuous
 62
     7
370
    25
100
AcDbSpline
210
0.0
220
0.0
230
1.0
 70
     8
 71
     3
 72
    12
 73
     8
 74
     0
 42
0.00000001
 43
0.00000001
 40
0.0
 40
0.0
 40
0.0
 40
0.0
 40
0.1443005026356244
 40
0.2873275205918753
 40
0.5201185386439743
 40
0.7602843466484757
 40
1.0
 40
1.0
 40
1.0
 40
1.0
 10
59.13046067062665
 20
101.8499475634781
 30
0.0
 10
59.12447641060216
 20
101.8975190139241
 30
0.0
 10
59.11256070300578
 20
101.9922420859713
 30
0.0
 10
59.01917548080942
 20
102.1402990492975
 30
0.0
 10
58.86641753740774
 20
102.2757986458358
 30
0.0
 10
58.65195162221947
 20
102.3816943269405
 30
0.0
 10
58.49391164266472
 20
102.3966662124521
 30
0.0
 10
58.41496577789309
 20
102.4041451329905
 30
0.0
  0
ELLIPSE
  5
297
330
1F
100
AcDbEntity
  8
0
  6
Continuous
 62
     7
370
    25
100
AcDbEllipse
 10
60.4795905012
 20
102.5939158145
 30
0.0
 11
2.500000000000007
 21
0.0
 31
0.0
210
0.0
220
0.0
230
1.0
 40
0.1346153846
 41
3.740681249811783
 42
5.649978357061689
  0
ELLIPSE
  5
298
330
1F
100
AcDbEntity
  8
0
  6
Continuous
 62
     7
370
    25
100
AcDbEllipse
 10
60.4795905012
 20
96.6522124746
 30
0.0
 11
2.000000000000007
 21
0.0
 31
0.0
210
0.0
220
0.0
230
1.0
 40
0.1682692308
 41
0.5546419378370189
 42
2.311171496641871
  0
LINE
  5
299
330
1F
100
AcDbEntity
  8
0
  6
Continuous
 62
     7
370
    25
100
AcDbLine
 10
59.1304606706
 20
99.3752989791
 30
0.0
 11
59.1304606706
 21
96.9006503948
 31
0.0
  0
LINE
  5
29A
330
1F
100
AcDbEntity
  8
0
  6
Continuous
 62
     7
370
    25
100
AcDbLine
 10
59.1304606706
 20
101.8499475635
 30
0.0
 11
59.1304606706
 21
99.3752989791
 31
0.0
  0
SPLINE
  5
29B
330
1F
100
AcDbEntity
  8
0
  6
Continuous
 62
     7
370
    25
100
AcDbSpline
210
0.0
220
0.0
230
1.0
 70
     8
 71
     3
 72
    12
 73
     8
 74
     0
 42
0.00000001
 43
0.00000001
 40
0.0
 40
0.0
 40
0.0
 40
0.0
 40
0.144300502635625
 40
0.2873275205918761
 40
0.5201185386439748
 40
0.7602843466484799
 40
1.0
 40
1.0
 40
1.0
 40
1.0
 10
47.28023442394657
 20
96.90065039481055
 30
0.0
 10
47.28621868397106
 20
96.85307894436457
 30
0.0
 10
47.29813439156744
 20
96.75835587231735
 30
0.0
 10
47.39151961376381
 20
96.6102989089912
 30
0.0
 10
47.54427755716549
 20
96.47479931245286
 30
0.0
 10
47.75874347235375
 20
96.36890363134813
 30
0.0
 10
47.9167834519085
 20
96.35393174583655
 30
0.0
 10
47.99572931668013
 20
96.34645282529819
 30
0.0
  0
ELLIPSE
  5
29C
330
1F
100
AcDbEntity
  8
0
  6
Continuous
 62
     7
370
    25
100
AcDbEllipse
 10
45.9311045933
 20
96.1566821438
 30
0.0
 11
2.5
 21
0.0
 31
0.0
210
0.0
220
0.0
230
1.0
 40
0.1346153846
 41
0.5990885962218981
 42
2.508385703471843
  0
SPLINE
  5
29D
330
1F
100
AcDbEntity
  8
0
  6
Continuous
 62
     7
370
    25
100
AcDbSpline
210
0.0
220
0.0
230
1.0
 70
     8
 71
     3
 72
    12
 73
     8
 74
     0
 42
0.00000001
 43
0.00000001
 40
0.0
 40
0.0
 40
0.0
 40
0.0
 40
0.2571943124574416
 40
0.524550343975796
 40
0.7385170215182983
 40
0.8882338470637771
 40
1.0
 40
1.0
 40
1.0
 40
1.0
 10
58.41496577789309
 20
96.34645282529819
 30
0.0
 10
58.49966405541422
 20
96.35506809954109
 30
0.0
 10
58.67240703010663
 20
96.37263903656677
 30
0.0
 10
58.89163205887147
 20
96.4911494422946
 30
0.0
 10
59.04101183425084
 20
96.63713758697368
 30
0.0
 10
59.1184083508449
 20
96.77772004996316
 30
0.0
 10
59.12685171000873
 20
96.86383998973199
 30
0.0
 10
59.13046067062665
 20
96.90065039481055
 30
0.0
  0
ELLIPSE
  5
29E
330
1F
100
AcDbEntity
  8
0
  6
Continuous
 62
     7
370
    25
100
AcDbEllipse
 10
60.4795905012
 20
96.1566821438
 30
0.0
 11
2.500000000000007
 21
0.0
 31
0.0
210
0.0
220
0.0
230
1.0
 40
0.1346153846
 41
0.6382810487366982
 42
2.50656586847547
  0
ARC
  5
29F
330
1F
100
AcDbEntity
  8
0
  6
Continuous
 62
     7
370
    25
100
AcDbCircle
 10
53.2053475473
 20
99.3752989791
 30
0.0
 40
7.999999999999991
100
AcDbArc
 50
21.1234840263
 51
158.8765159737
  0
LINE
  5
2A0
330
1F
100
AcDbEntity
  8
0
  6
Continuous
 62
     7
370
    25
100
AcDbLine
 10
47.9957293167
 20
102.404145133
 30
0.0
 11
48.1128966147
 21
102.404145133
 31
0.0
  0
ARC
  5
2A1
330
1F
100
AcDbEntity
  8
0
  6
Continuous
 62
     7
370
    25
100
AcDbCircle
 10
53.2053475473
 20
99.3752989791
 30
0.0
 40
7.999999999999981
100
AcDbArc
 50
201.1234840263
 51
338.8765159737
  0
LINE
  5
2A2
330
1F
100
AcDbEntity
  8
0
  6
Continuous
 62
     7
370
    25
100
AcDbLine
 10
58.2977984799
 20
102.404145133
 30
0.0
 11
58.4149657779
 21
102.404145133
 31
0.0
  0
LINE
  5
2A3
330
1F
100
AcDbEntity
  8
0
  6
Continuous
 62
     7
370
    25
100
AcDbLine
 10
48.1128966147
 20
96.3464528253
 30
0.0
 11
47.9957293167
 21
96.3464528253
 31
0.0
  0
LINE
  5
2A4
330
1F
100
AcDbEntity
  8
0
  6
Continuous
 62
     7
370
    25
100
AcDbLine
 10
58.4149657779
 20
96.3464528253
 30
0.0
 11
58.2977984799
 21
96.3464528253
 31
0.0
  0
SPLINE
  5
2A5
330
1F
100
AcDbEntity
  8
0
  6
Continuous
 62
     7
370
    25
100
AcDbSpline
210
0.0
220
0.0
230
1.0
 70
     8
 71
     3
 72
     9
 73
     5
 74
     0
 42
0.00000001
 43
0.00000001
 40
0.0
 40
0.0
 40
0.0
 40
0.0
 40
0.531258708452363
 40
1.0
 40
1.0
 40
1.0
 40
1.0
 10
64.70534754728659
 20
103.6252989791444
 30
0.0
 10
64.7059516627636
 20
103.4591202271261
 30
0.0
 10
64.70708880266808
 20
103.1463182920718
 30
0.0
 10
64.6620863383331
 20
102.8360060265774
 30
0.0
 10
64.64099182507788
 20
102.6905498544665
 30
0.0
  0
LINE
  5
2A6
330
1F
100
AcDbEntity
  8
0
  6
Continuous
 62
     7
370
    25
100
AcDbLine
 10
64.7053475473
 20
103.6252989791
 30
0.0
 11
64.7053475473
 21
102.7164219704
 31
0.0
  0
LINE
  5
2A7
330
1F
100
AcDbEntity
  8
0
  6
Continuous
 62
     7
370
    25
100
AcDbLine
 10
64.7053475473
 20
96.0457945132
 30
0.0
 11
64.7053475473
 21
95.1252989791
 31
0.0
  0
LINE
  5
2A8
330
1F
100
AcDbEntity
  8
0
  6
Continuous
 62
     7
370
    25
100
AcDbLine
 10
64.6205573212
 20
96.0618612077
 30
0.0
 11
64.7053475473
 21
95.1252989791
 31
0.0
  0
SPLINE
  5
2A9
330
1F
100
AcDbEntity
  8
0
  6
Continuous
 62
     7
370
    25
100
AcDbSpline
210
0.0
220
0.0
230
1.0
 70
     8
 71
     3
 72
     9
 73
     5
 74
     0
 42
0.00000001
 43
0.00000001
 40
0.0
 40
0.0
 40
0.0
 40
0.0
 40
0.531102529366502
 40
1.0
 40
1.0
 40
1.0
 40
1.0
 10
41.70534754728659
 20
103.6252989791444
 30
0.0
 10
41.70474470790031
 20
103.4591202959833
 30
0.0
 10
41.70360963632196
 20
103.1462265062299
 30
0.0
 10
41.74862773706234
 20
102.835823118163
 30
0.0
 10
41.76973661063224
 20
102.6902757546223
 30
0.0
  0
LINE
  5
2AA
330
1F
100
AcDbEntity
  8
0
  6
Continuous
 62
     7
370
    25
100
AcDbLine
 10
41.7901316058
 20
96.0617930828
 30
0.0
 11
41.7053475473
 21
95.1252989791
 31
0.0
  0
LINE
  5
2AB
330
1F
100
AcDbEntity
  8
0
  6
Continuous
 62
     7
370
    25
100
AcDbLine
 10
41.7053475473
 20
103.6252989791
 30
0.0
 11
41.7053475473
 21
102.7155022962
 31
0.0
  0
LINE
  5
2AC
330
1F
100
AcDbEntity
  8
0
  6
Continuous
 62
     7
370
    25
100
AcDbLine
 10
41.7053475473
 20
96.0448637864
 30
0.0
 11
41.7053475473
 21
95.1252989791
 31
0.0
  0
SPLINE
  5
2AD
330
1F
100
AcDbEntity
  8
0
  6
Continuous
 62
     7
370
    25
100
AcDbSpline
210
0.0
220
0.0
230
1.0
 70
     8
 71
     3
 72
     9
 73
     5
 74
     0
 42
0.00000001
 43
0.00000001
 40
0.0
 40
0.0
 40
0.0
 40
0.0
 40
0.3996385785631067
 40
0.9999999999999999
 40
0.9999999999999999
 40
0.9999999999999999
 40
0.9999999999999999
 10
59.27465968157439
 20
104.5260873706927
 30
0.0
 10
59.30830531149956
 20
104.9453967834813
 30
0.0
 10
59.39249545662054
 20
105.9946183433622
 30
0.0
 10
59.69903464792757
 20
107.0135635728205
 30
0.0
 10
59.88306895254678
 20
107.6252989791444
 30
0.0
  0
LINE
  5
2AE
330
1F
100
AcDbEntity
  8
0
  6
Continuous
 62
     7
370
    25
100
AcDbLine
 10
64.027626142
 20
107.6252989791
 30
0.0
 11
59.8830689525
 21
107.6252989791
 31
0.0
  0
SPLINE
  5
2AF
330
1F
100
AcDbEntity
  8
0
  6
Continuous
 62
     7
370
    25
100
AcDbSpline
210
0.0
220
0.0
230
1.0
 70
     8
 71
     3
 72
    10
 73
     6
 74
     0
 42
0.00000001
 43
0.00000001
 40
0.0
 40
0.0
 40
0.0
 40
0.0
 40
0.5
 40
0.5
 40
1.0
 40
1.0
 40
1.0
 40
1.0
 10
64.02762614202686
 20
107.6252989791445
 30
0.0
 10
64.23643606669312
 20
106.9692862125393
 30
0.0
 10
64.40697020644038
 20
106.3090193056816
 30
0.0
 10
64.64175601145931
 20
104.9766727870466
 30
0.0
 10
64.70534754728659
 20
104.3045198055593
 30
0.0
 10
64.70534754728659
 20
103.6252989791444
 30
0.0
  0
SPLINE
  5
2B0
330
1F
100
AcDbEntity
  8
0
  6
Continuous
 62
     7
370
    25
100
AcDbSpline
210
0.0
220
0.0
230
1.0
 70
     8
 71
     3
 72
     9
 73
     5
 74
     0
 42
0.00000001
 43
0.00000001
 40
0.0
 40
0.0
 40
0.0
 40
0.0
 40
0.6413470973595595
 40
1.0
 40
1.0
 40
1.0
 40
1.0
 10
46.52762614202639
 20
107.6252989791444
 30
0.0
 10
46.7254132429866
 20
106.975177730936
 30
0.0
 10
47.03380646995294
 20
105.9614969161557
 30
0.0
 10
47.09897409965475
 20
104.9167855796172
 30
0.0
 10
47.12234665920549
 20
104.5420968263463
 30
0.0
  0
SPLINE
  5
2B1
330
1F
100
AcDbEntity
  8
0
  6
Continuous
 62
     7
370
    25
100
AcDbSpline
210
0.0
220
0.0
230
1.0
 70
     8
 71
     3
 72
    10
 73
     6
 74
     0
 42
0.00000001
 43
0.00000001
 40
0.0
 40
0.0
 40
0.0
 40
0.0
 40
0.5
 40
0.5
 40
1.0
 40
1.0
 40
1.0
 40
1.0
 10
42.38306895254632
 20
107.6252989791444
 30
0.0
 10
42.17425902788005
 20
106.9692862125393
 30
0.0
 10
42.00372488813281
 20
106.3090193056816
 30
0.0
 10
41.76893908311389
 20
104.9766727870466
 30
0.0
 10
41.70534754728659
 20
104.3045198055593
 30
0.0
 10
41.70534754728659
 20
103.6252989791444
 30
0.0
  0
LINE
  5
2B2
330
1F
100
AcDbEntity
  8
0
  6
Continuous
 62
     7
370
    25
100
AcDbLine
 10
46.527626142
 20
107.6252989791
 30
0.0
 11
42.3830689525
 21
107.6252989791
 31
0.0
  0
SPLINE
  5
2B3
330
1F
100
AcDbEntity
  8
0
  6
Continuous
 62
     7
370
    25
100
AcDbSpline
210
0.0
220
0.0
230
1.0
 70
     8
 71
     3
 72
     9
 73
     5
 74
     0
 42
0.00000001
 43
0.00000001
 40
0.0
 40
0.0
 40
0.0
 40
0.0
 40
0.39963857856309
 40
1.0
 40
1.0
 40
1.0
 40
1.0
 10
47.13603541299878
 20
94.22451058759604
 30
0.0
 10
47.10238978307361
 20
93.80520117480746
 30
0.0
 10
47.01819963795265
 20
92.75597961492649
 30
0.0
 10
46.71166044664561
 20
91.73703438546828
 30
0.0
 10
46.5276261420264
 20
91.12529897914439
 30
0.0
  0
LINE
  5
2B4
330
1F
100
AcDbEntity
  8
0
  6
Continuous
 62
     7
370
    25
100
AcDbLine
 10
42.3830689525
 20
91.1252989791
 30
0.0
 11
46.527626142
 21
91.1252989791
 31
0.0
  0
SPLINE
  5
2B5
330
1F
100
AcDbEntity
  8
0
  6
Continuous
 62
     7
370
    25
100
AcDbSpline
210
0.0
220
0.0
230
1.0
 70
     8
 71
     3
 72
    12
 73
     8
 74
     0
 42
0.00000001
 43
0.00000001
 40
0.0
 40
0.0
 40
0.0
 40
0.0
 40
0.2499999999999998
 40
0.2499999999999998
 40
0.4999999999999996
 40
0.4999999999999996
 40
1.0
 40
1.0
 40
1.0
 40
1.0
 10
41.70534754728659
 20
95.12529897914439
 30
0.0
 10
41.70534754728659
 20
94.7875430441216
 30
0.0
 10
41.72109387730855
 20
94.44713502924311
 30
0.0
 10
41.78253890189399
 20
93.7726403448427
 30
0.0
 10
41.8281276611477
 20
93.43751502597546
 30
0.0
 10
42.0045786634043
 20
92.43780370763531
 30
0.0
 10
42.1750363653678
 20
91.77886960457003
 30
0.0
 10
42.38306895254664
 20
91.12529897914438
 30
0.0
  0
SPLINE
  5
2B6
330
1F
100
AcDbEntity
  8
0
  6
Continuous
 62
     7
370
    25
100
AcDbSpline
210
0.0
220
0.0
230
1.0
 70
     8
 71
     3
 72
    12
 73
     8
 74
     0
 42
0.00000001
 43
0.00000001
 40
0.0
 40
0.0
 40
0.0
 40
0.0
 40
0.2500000000000001
 40
0.2500000000000001
 40
0.5000000000000002
 40
0.5000000000000002
 40
1.0
 40
1.0
 40
1.0
 40
1.0
 10
64.70534754728659
 20
95.12529897914439
 30
0.0
 10
64.70534754728659
 20
94.7875430441216
 30
0.0
 10
64.68960121726462
 20
94.44713502924311
 30
0.0
 10
64.6281561926792
 20
93.7726403448427
 30
0.0
 10
64.58256743342547
 20
93.43751502597546
 30
0.0
 10
64.40611643116888
 20
92.43780370763531
 30
0.0
 10
64.2356587292054
 20
91.77886960457003
 30
0.0
 10
64.02762614202655
 20
91.12529897914436
 30
0.0
  0
LINE
  5
2B7
330
1F
100
AcDbEntity
  8
0
  6
Continuous
 62
     7
370
    25
100
AcDbLine
 10
59.8830689525
 20
91.1252989791
 30
0.0
 11
64.027626142
 21
91.1252989791
 31
0.0
  0
SPLINE
  5
2B8
330
1F
100
AcDbEntity
  8
0
  6
Continuous
 62
     7
370
    25
100
AcDbSpline
210
0.0
220
0.0
230
1.0
 70
     8
 71
     3
 72
     9
 73
     5
 74
     0
 42
0.00000001
 43
0.00000001
 40
0.0
 40
0.0
 40
0.0
 40
0.0
 40
0.6413470973595806
 40
0.9999999999999999
 40
0.9999999999999999
 40
0.9999999999999999
 40
0.9999999999999999
 10
59.88306895254679
 20
91.12529897914435
 30
0.0
 10
59.68528185158659
 20
91.77542022735278
 30
0.0
 10
59.37688862462025
 20
92.78910104213307
 30
0.0
 10
59.31172099491845
 20
93.8338123786715
 30
0.0
 10
59.2883484353677
 20
94.20850113194236
 30
0.0
  0
LINE
  5
2B9
330
1F
100
AcDbEntity
  8
0
  6
Continuous
 62
     7
370
    25
100
AcDbLine
 10
59.2053475473
 20
94.083796357
 30
0.0
 11
59.2053475473
 21
91.8752989791
 31
0.0
  0
LINE
  5
2BA
330
1F
100
AcDbEntity
  8
0
  6
Continuous
 62
     7
370
    25
100
AcDbLine
 10
59.2053475473
 20
91.8752989791
 30
0.0
 11
55.9892297287
 21
91.8752989791
 31
0.0
  0
LINE
  5
2BB
330
1F
100
AcDbEntity
  8
0
  6
Continuous
 62
     7
370
    25
100
AcDbLine
 10
50.4214653659
 20
91.8752989791
 30
0.0
 11
47.2053475473
 21
91.8752989791
 31
0.0
  0
LINE
  5
2BC
330
1F
100
AcDbEntity
  8
0
  6
Continuous
 62
     7
370
    25
100
AcDbLine
 10
47.2053475473
 20
94.083796357
 30
0.0
 11
47.2053475473
 21
91.8752989791
 31
0.0
  0
LINE
  5
2BD
330
1F
100
AcDbEntity
  8
0
  6
Continuous
 62
     7
370
    25
100
AcDbLine
 10
47.2053475473
 20
106.8752989791
 30
0.0
 11
47.2053475473
 21
104.6668016013
 31
0.0
  0
LINE
  5
2BE
330
1F
100
AcDbEntity
  8
0
  6
Continuous
 62
     7
370
    25
100
AcDbLine
 10
47.2053475473
 20
106.8752989791
 30
0.0
 11
50.4214653659
 21
106.8752989791
 31
0.0
  0
LINE
  5
2BF
330
1F
100
AcDbEntity
  8
0
  6
Continuous
 62
     7
370
    25
100
AcDbLine
 10
55.9892297287
 20
106.8752989791
 30
0.0
 11
59.2053475473
 21
106.8752989791
 31
0.0
  0
LINE
  5
2C0
330
1F
100
AcDbEntity
  8
0
  6
Continuous
 62
     7
370
    25
100
AcDbLine
 10
59.2053475473
 20
106.8752989791
 30
0.0
 11
59.2053475473
 21
104.6668016013
 31
0.0
  0
SPLINE
  5
2C1
330
1F
100
AcDbEntity
  8
0
  6
Continuous
 62
     7
370
    25
100
AcDbSpline
210
0.0
220
0.0
230
1.0
 70
     8
 71
     3
 72
     8
 73
     4
 74
     0
 42
0.00000001
 43
0.00000001
 40
0.0
 40
0.0
 40
0.0
 40
0.0
 40
1.0
 40
1.0
 40
1.0
 40
1.0
 10
46.68911147030742
 20
107.8752989791444
 30
0.0
 10
46.86281454652719
 20
107.5427875570089
 30
0.0
 10
47.03511676558989
 20
107.20946045711
 30
0.0
 10
47.20534754728659
 20
106.8752989791444
 30
0.0
  0
SPLINE
  5
2C2
330
1F
100
AcDbEntity
  8
0
  6
Continuous
 62
     7
370
    25
100
AcDbSpline
210
0.0
220
0.0
230
1.0
 70
     8
 71
     3
 72
    10
 73
     6
 74
     0
 42
0.00000001
 43
0.00000001
 40
0.0
 40
0.0
 40
0.0
 40
0.0
 40
0.5
 40
0.5
 40
1.0
 40
1.0
 40
1.0
 40
1.0
 10
46.52762614203205
 20
107.8752989791444
 30
0.0
 10
46.50395074760774
 20
107.8752989791444
 30
0.0
 10
46.49085963771743
 20
107.8525065298149
 30
0.0
 10
46.49077331642903
 20
107.7645638257219
 30
0.0
 10
46.50394225037287
 20
107.6997060520479
 30
0.0
 10
46.52762614202638
 20
107.6252989791444
 30
0.0
  0
SPLINE
  5
2C3
330
1F
100
AcDbEntity
  8
0
  6
Continuous
 62
     7
370
    25
100
AcDbSpline
210
0.0
220
0.0
230
1.0
 70
    24
 71
     3
 72
     8
 73
     4
 74
     0
 42
0.00000001
 43
0.00000001
 40
0.0
 40
0.0
 40
0.0
 40
0.0
 40
1.0
 40
1.0
 40
1.0
 40
1.0
 10
46.6891114703074
 20
107.8752989791444
 30
0.0
 10
46.63821275338501
 20
107.8752989791444
 30
0.0
 10
46.58427861713438
 20
107.8752989791444
 30
0.0
 10
46.52762614202678
 20
107.8752989791444
 30
0.0
  0
SPLINE
  5
2C4
330
1F
100
AcDbEntity
  8
0
  6
Continuous
 62
     7
370
    25
100
AcDbSpline
210
0.0
220
0.0
230
1.0
 70
     8
 71
     3
 72
     8
 73
     4
 74
     0
 42
0.00000001
 43
0.00000001
 40
0.0
 40
0.0
 40
0.0
 40
0.0
 40
1.0
 40
1.0
 40
1.0
 40
1.0
 10
59.20534754728659
 20
106.8752989791444
 30
0.0
 10
59.37562515463031
 20
107.2095523754297
 30
0.0
 10
59.54789690325599
 20
107.5428188649987
 30
0.0
 10
59.72158362426565
 20
107.8752989791442
 30
0.0
  0
SPLINE
  5
2C5
330
1F
100
AcDbEntity
  8
0
  6
Continuous
 62
     7
370
    25
100
AcDbSpline
210
0.0
220
0.0
230
1.0
 70
    24
 71
     3
 72
     8
 73
     4
 74
     0
 42
0.00000001
 43
0.00000001
 40
0.0
 40
0.0
 40
0.0
 40
0.0
 40
1.0
 40
1.0
 40
1.0
 40
1.0
 10
59.72158362426524
 20
107.8752989791444
 30
0.0
 10
59.77247985752047
 20
107.8752989791444
 30
0.0
 10
59.82641381248431
 20
107.8752989791444
 30
0.0
 10
59.88306895254678
 20
107.8752989791444
 30
0.0
  0
SPLINE
  5
2C6
330
1F
100
AcDbEntity
  8
0
  6
Continuous
 62
     7
370
    25
100
AcDbSpline
210
0.0
220
0.0
230
1.0
 70
     8
 71
     3
 72
    10
 73
     6
 74
     0
 42
0.00000001
 43
0.00000001
 40
0.0
 40
0.0
 40
0.0
 40
0.0
 40
0.5
 40
0.5
 40
1.0
 40
1.0
 40
1.0
 40
1.0
 10
59.88306895254678
 20
107.6252989791444
 30
0.0
 10
59.90674434697117
 20
107.6996793565217
 30
0.0
 10
59.91983545685581
 20
107.7639799953075
 30
0.0
 10
59.91992177814409
 20
107.8521956800904
 30
0.0
 10
59.90675284420026
 20
107.8752989791444
 30
0.0
 10
59.88306895254678
 20
107.8752989791444
 30
0.0
  0
SPLINE
  5
2C7
330
1F
100
AcDbEntity
  8
0
  6
Continuous
 62
     7
370
    25
100
AcDbSpline
210
0.0
220
0.0
230
1.0
 70
    24
 71
     3
 72
    12
 73
     8
 74
     0
 42
0.00000001
 43
0.00000001
 40
0.0
 40
0.0
 40
0.0
 40
0.0
 40
0.25
 40
0.25
 40
0.5
 40
0.5
 40
1.0
 40
1.0
 40
1.0
 40
1.0
 10
41.70534754728659
 20
107.8752989791444
 30
0.0
 10
41.70534754728659
 20
107.8752989791444
 30
0.0
 10
41.72125335295477
 20
107.8752989791444
 30
0.0
 10
41.78309822384719
 20
107.8752989791444
 30
0.0
 10
41.82891156471339
 20
107.8752989791444
 30
0.0
 10
42.00574473861575
 20
107.8752989791444
 30
0.0
 10
42.17602300211939
 20
107.8752989791444
 30
0.0
 10
42.38306895254679
 20
107.8752989791444
 30
0.0
  0
SPLINE
  5
2C8
330
1F
100
AcDbEntity
  8
0
  6
Continuous
 62
     7
370
    25
100
AcDbSpline
210
0.0
220
0.0
230
1.0
 70
     8
 71
     3
 72
    10
 73
     6
 74
     0
 42
0.00000001
 43
0.00000001
 40
0.0
 40
0.0
 40
0.0
 40
0.0
 40
0.5
 40
0.5
 40
1.0
 40
1.0
 40
1.0
 40
1.0
 10
42.38306895254678
 20
107.6252989791444
 30
0.0
 10
42.40674119245835
 20
107.69966944607
 30
0.0
 10
42.41983518239361
 20
107.7639750423578
 30
0.0
 10
42.41992204985505
 20
107.8521978301637
 30
0.0
 10
42.40675226009569
 20
107.8752989791444
 30
0.0
 10
42.38306895254678
 20
107.8752989791444
 30
0.0
  0
LINE
  5
2C9
330
1F
100
AcDbEntity
  8
0
  6
Continuous
 62
     7
370
    25
100
AcDbLine
 10
41.7053475473
 20
107.8752989791
 30
0.0
 11
41.7053475473
 21
103.6252989791
 31
0.0
  0
SPLINE
  5
2CA
330
1F
100
AcDbEntity
  8
0
  6
Continuous
 62
     7
370
    25
100
AcDbSpline
210
0.0
220
0.0
230
1.0
 70
     8
 71
     3
 72
    10
 73
     6
 74
     0
 42
0.00000001
 43
0.00000001
 40
0.0
 40
0.0
 40
0.0
 40
0.0
 40
0.5
 40
0.5
 40
1.0
 40
1.0
 40
1.0
 40
1.0
 10
64.02762614202639
 20
107.6252989791444
 30
0.0
 10
64.00395390211484
 20
107.69966944607
 30
0.0
 10
63.99085991217958
 20
107.7639750423578
 30
0.0
 10
63.99077304471813
 20
107.8521978301637
 30
0.0
 10
64.0039428344775
 20
107.8752989791444
 30
0.0
 10
64.02762614202639
 20
107.8752989791444
 30
0.0
  0
SPLINE
  5
2CB
330
1F
100
AcDbEntity
  8
0
  6
Continuous
 62
     7
370
    25
100
AcDbSpline
210
0.0
220
0.0
230
1.0
 70
    24
 71
     3
 72
    12
 73
     8
 74
     0
 42
0.00000001
 43
0.00000001
 40
0.0
 40
0.0
 40
0.0
 40
0.0
 40
0.25
 40
0.25
 40
0.5
 40
0.5
 40
1.0
 40
1.0
 40
1.0
 40
1.0
 10
64.70534754728659
 20
107.8752989791444
 30
0.0
 10
64.70534754728659
 20
107.8752989791444
 30
0.0
 10
64.68944174161841
 20
107.8752989791444
 30
0.0
 10
64.62759687072598
 20
107.8752989791444
 30
0.0
 10
64.5817835298598
 20
107.8752989791444
 30
0.0
 10
64.40495035595742
 20
107.8752989791444
 30
0.0
 10
64.23467209245379
 20
107.8752989791444
 30
0.0
 10
64.02762614202639
 20
107.8752989791444
 30
0.0
  0
LINE
  5
2CC
330
1F
100
AcDbEntity
  8
0
  6
Continuous
 62
     7
370
    25
100
AcDbLine
 10
64.7053475473
 20
107.8752989791
 30
0.0
 11
64.7053475473
 21
103.6252989791
 31
0.0
  0
SPLINE
  5
2CD
330
1F
100
AcDbEntity
  8
0
  6
Continuous
 62
     7
370
    25
100
AcDbSpline
210
0.0
220
0.0
230
1.0
 70
     8
 71
     3
 72
     8
 73
     4
 74
     0
 42
0.00000001
 43
0.00000001
 40
0.0
 40
0.0
 40
0.0
 40
0.0
 40
1.0
 40
1.0
 40
1.0
 40
1.0
 10
59.72158362426577
 20
90.87529897914439
 30
0.0
 10
59.547880548046
 20
91.20781040127989
 30
0.0
 10
59.37557832898329
 20
91.54113750117875
 30
0.0
 10
59.20534754728659
 20
91.87529897914439
 30
0.0
  0
SPLINE
  5
2CE
330
1F
100
AcDbEntity
  8
0
  6
Continuous
 62
     7
370
    25
100
AcDbSpline
210
0.0
220
0.0
230
1.0
 70
     8
 71
     3
 72
    10
 73
     6
 74
     0
 42
0.00000001
 43
0.00000001
 40
0.0
 40
0.0
 40
0.0
 40
0.0
 40
0.5
 40
0.5
 40
1.0
 40
1.0
 40
1.0
 40
1.0
 10
59.8830689525468
 20
90.87529897914439
 30
0.0
 10
59.90674434697119
 20
90.87529897914439
 30
0.0
 10
59.91983545685581
 20
90.89809142847419
 30
0.0
 10
59.91992177814409
 20
90.98603413256723
 30
0.0
 10
59.90675284420026
 20
91.05089190624108
 30
0.0
 10
59.8830689525468
 20
91.12529897914433
 30
0.0
  0
SPLINE
  5
2CF
330
1F
100
AcDbEntity
  8
0
  6
Continuous
 62
     7
370
    25
100
AcDbSpline
210
0.0
220
0.0
230
1.0
 70
    24
 71
     3
 72
     8
 73
     4
 74
     0
 42
0.00000001
 43
0.00000001
 40
0.0
 40
0.0
 40
0.0
 40
0.0
 40
1.0
 40
1.0
 40
1.0
 40
1.0
 10
59.72158362426578
 20
90.87529897914439
 30
0.0
 10
59.77247985752086
 20
90.87529897914439
 30
0.0
 10
59.82641381248451
 20
90.87529897914439
 30
0.0
 10
59.88306895254678
 20
90.87529897914439
 30
0.0
  0
SPLINE
  5
2D0
330
1F
100
AcDbEntity
  8
0
  6
Continuous
 62
     7
370
    25
100
AcDbSpline
210
0.0
220
0.0
230
1.0
 70
     8
 71
     3
 72
     8
 73
     4
 74
     0
 42
0.00000001
 43
0.00000001
 40
0.0
 40
0.0
 40
0.0
 40
0.0
 40
1.0
 40
1.0
 40
1.0
 40
1.0
 10
47.20534754728659
 20
91.87529897914439
 30
0.0
 10
47.03506993994283
 20
91.54104558285898
 30
0.0
 10
46.86279819131712
 20
91.20777909328997
 30
0.0
 10
46.68911147030742
 20
90.87529897914439
 30
0.0
  0
SPLINE
  5
2D1
330
1F
100
AcDbEntity
  8
0
  6
Continuous
 62
     7
370
    25
100
AcDbSpline
210
0.0
220
0.0
230
1.0
 70
    24
 71
     3
 72
     8
 73
     4
 74
     0
 42
0.00000001
 43
0.00000001
 40
0.0
 40
0.0
 40
0.0
 40
0.0
 40
1.0
 40
1.0
 40
1.0
 40
1.0
 10
46.68911147030742
 20
90.87529897914439
 30
0.0
 10
46.6382127533849
 20
90.87529897914439
 30
0.0
 10
46.58427861713414
 20
90.87529897914439
 30
0.0
 10
46.5276261420264
 20
90.87529897914439
 30
0.0
  0
SPLINE
  5
2D2
330
1F
100
AcDbEntity
  8
0
  6
Continuous
 62
     7
370
    25
100
AcDbSpline
210
0.0
220
0.0
230
1.0
 70
     8
 71
     3
 72
    10
 73
     6
 74
     0
 42
0.00000001
 43
0.00000001
 40
0.0
 40
0.0
 40
0.0
 40
0.0
 40
0.5
 40
0.5
 40
1.0
 40
1.0
 40
1.0
 40
1.0
 10
46.5276261420264
 20
91.12529897914439
 30
0.0
 10
46.50395074760202
 20
91.05091860176707
 30
0.0
 10
46.49085963771738
 20
90.98661796298128
 30
0.0
 10
46.49077331642909
 20
90.89840227819835
 30
0.0
 10
46.50394225037293
 20
90.87529897914439
 30
0.0
 10
46.5276261420264
 20
90.87529897914439
 30
0.0
  0
SPLINE
  5
2D3
330
1F
100
AcDbEntity
  8
0
  6
Continuous
 62
     7
370
    25
100
AcDbSpline
210
0.0
220
0.0
230
1.0
 70
    24
 71
     3
 72
    12
 73
     8
 74
     0
 42
0.00000001
 43
0.00000001
 40
0.0
 40
0.0
 40
0.0
 40
0.0
 40
0.25
 40
0.25
 40
0.5
 40
0.5
 40
1.0
 40
1.0
 40
1.0
 40
1.0
 10
41.70534754728659
 20
90.87529897914439
 30
0.0
 10
41.70534754728659
 20
90.87529897914439
 30
0.0
 10
41.72125335295477
 20
90.87529897914439
 30
0.0
 10
41.78309822384719
 20
90.87529897914439
 30
0.0
 10
41.82891156471339
 20
90.87529897914439
 30
0.0
 10
42.00574473861575
 20
90.87529897914439
 30
0.0
 10
42.17602300211939
 20
90.87529897914439
 30
0.0
 10
42.38306895254678
 20
90.87529897914439
 30
0.0
  0
SPLINE
  5
2D4
330
1F
100
AcDbEntity
  8
0
  6
Continuous
 62
     7
370
    25
100
AcDbSpline
210
0.0
220
0.0
230
1.0
 70
     8
 71
     3
 72
    10
 73
     6
 74
     0
 42
0.00000001
 43
0.00000001
 40
0.0
 40
0.0
 40
0.0
 40
0.0
 40
0.5
 40
0.5
 40
1.0
 40
1.0
 40
1.0
 40
1.0
 10
42.38306895254678
 20
90.87529897914439
 30
0.0
 10
42.40674285310273
 20
90.87529897914439
 30
0.0
 10
42.41983541028188
 20
90.89808955079182
 30
0.0
 10
42.41992182426415
 20
90.98603554809064
 30
0.0
 10
42.40675143266554
 20
91.05089634082341
 30
0.0
 10
42.38306895254678
 20
91.1252989791444
 30
0.0
  0
LINE
  5
2D5
330
1F
100
AcDbEntity
  8
0
  6
Continuous
 62
     7
370
    25
100
AcDbLine
 10
41.7053475473
 20
95.1252989791
 30
0.0
 11
41.7053475473
 21
90.8752989791
 31
0.0
  0
SPLINE
  5
2D6
330
1F
100
AcDbEntity
  8
0
  6
Continuous
 62
     7
370
    25
100
AcDbSpline
210
0.0
220
0.0
230
1.0
 70
    24
 71
     3
 72
    12
 73
     8
 74
     0
 42
0.00000001
 43
0.00000001
 40
0.0
 40
0.0
 40
0.0
 40
0.0
 40
0.25
 40
0.25
 40
0.5
 40
0.5
 40
1.0
 40
1.0
 40
1.0
 40
1.0
 10
64.70534754728659
 20
90.87529897914439
 30
0.0
 10
64.70534754728659
 20
90.87529897914439
 30
0.0
 10
64.68944174161841
 20
90.87529897914439
 30
0.0
 10
64.62759687072598
 20
90.87529897914439
 30
0.0
 10
64.5817835298598
 20
90.87529897914439
 30
0.0
 10
64.40495035595742
 20
90.87529897914439
 30
0.0
 10
64.23467209245379
 20
90.87529897914439
 30
0.0
 10
64.02762614202639
 20
90.87529897914439
 30
0.0
  0
SPLINE
  5
2D7
330
1F
100
AcDbEntity
  8
0
  6
Continuous
 62
     7
370
    25
100
AcDbSpline
210
0.0
220
0.0
230
1.0
 70
     8
 71
     3
 72
    10
 73
     6
 74
     0
 42
0.00000001
 43
0.00000001
 40
0.0
 40
0.0
 40
0.0
 40
0.0
 40
0.5
 40
0.5
 40
1.0
 40
1.0
 40
1.0
 40
1.0
 10
64.02762614202639
 20
90.87529897914439
 30
0.0
 10
64.00395224147044
 20
90.87529897914439
 30
0.0
 10
63.9908596842913
 20
90.89808955079182
 30
0.0
 10
63.99077327030903
 20
90.98603554809064
 30
0.0
 10
64.00394366190764
 20
91.05089634082341
 30
0.0
 10
64.02762614202639
 20
91.12529897914439
 30
0.0
  0
LINE
  5
2D8
330
1F
100
AcDbEntity
  8
0
  6
Continuous
 62
     7
370
    25
100
AcDbLine
 10
64.7053475473
 20
95.1252989791
 30
0.0
 11
64.7053475473
 21
90.8752989791
 31
0.0
  0
LINE
  5
2D9
330
1F
100
AcDbEntity
  8
0
  6
Continuous
 62
     7
370
    25
100
AcDbLine
 10
59.8830689525
 20
107.8752989791
 30
0.0
 11
64.027626142
 21
107.8752989791
 31
0.0
  0
LINE
  5
2DA
330
1F
100
AcDbEntity
  8
0
  6
Continuous
 62
     7
370
    25
100
AcDbLine
 10
42.3830689525
 20
107.8752989791
 30
0.0
 11
46.527626142
 21
107.8752989791
 31
0.0
  0
LINE
  5
2DB
330
1F
100
AcDbEntity
  8
0
  6
Continuous
 62
     7
370
    25
100
AcDbLine
 10
46.527626142
 20
90.8752989791
 30
0.0
 11
42.3830689525
 21
90.8752989791
 31
0.0
  0
LINE
  5
2DC
330
1F
100
AcDbEntity
  8
0
  6
Continuous
 62
     7
370
    25
100
AcDbLine
 10
64.027626142
 20
90.8752989791
 30
0.0
 11
59.8830689525
 21
90.8752989791
 31
0.0
  0
LINE
  5
2DD
330
1F
100
AcDbEntity
  8
0
  6
Continuous
 62
     7
370
    25
100
AcDbLine
 10
59.7215836243
 20
107.8752989791
 30
0.0
 11
46.6891114703
 21
107.8752989791
 31
0.0
  0
LINE
  5
2DE
330
1F
100
AcDbEntity
  8
0
  6
Continuous
 62
     7
370
    25
100
AcDbLine
 10
59.7215836243
 20
90.8752989791
 30
0.0
 11
46.6891114703
 21
90.8752989791
 31
0.0
  0
LWPOLYLINE
  5
2DF
330
1F
100
AcDbEntity
  8
0
  6
Continuous
 62
     7
370
    25
100
AcDbPolyline
 90
        9
 70
   128
 43
0.0
 10
35.9477765707
 20
102.2271939544
 10
35.947083607
 20
102.3319806576
 10
35.9558737701
 20
102.4320979947
 10
35.9737553643
 20
102.5230846696
 10
35.9999315737
 20
102.6008862548
 10
36.0332359689
 20
102.6620358593
 10
36.0721844834
 20
102.7038086153
 10
36.1150415454
 20
102.7243431008
 10
36.1286421044
 20
102.7262158906
  0
SPLINE
  5
2E0
330
1F
100
AcDbEntity
  8
0
  6
Continuous
 62
     7
370
    25
100
AcDbSpline
210
0.0
220
0.0
230
1.0
 70
     8
 71
     3
 72
    17
 73
    13
 74
     0
 42
0.00000001
 43
0.00000001
 40
0.0
 40
0.0
 40
0.0
 40
0.0
 40
0.1035706994008816
 40
0.3375715369680388
 40
0.6895235889938786
 40
0.8015948730303146
 40
0.8712541519505472
 40
0.9159726588628536
 40
0.9450294872707762
 40
0.9640028757174959
 40
0.9945247334257257
 40
1.0
 40
1.0
 40
1.0
 40
1.0
 10
36.31798072920463
 20
102.7186102907147
 30
0.0
 10
36.39223486805786
 20
102.7194414388353
 30
0.0
 10
36.63425393256091
 20
102.7221504284448
 30
0.0
 10
37.17532712836331
 20
102.5465681705469
 30
0.0
 10
37.74238937187092
 20
102.2743886580298
 30
0.0
 10
38.18017738286158
 20
102.0321739014757
 30
0.0
 10
38.36650549088805
 20
101.9265824792683
 30
0.0
 10
38.48465472974637
 20
101.858881424311
 30
0.0
 10
38.56109044332412
 20
101.8148951142591
 30
0.0
 10
38.62583874325282
 20
101.777564402492
 30
0.0
 10
38.67115765377442
 20
101.7514031693174
 30
0.0
 10
38.70083373032892
 20
101.734269677215
 30
0.0
 10
38.70534754728661
 20
101.7316636235793
 30
0.0
  0
ELLIPSE
  5
2E1
330
1F
100
AcDbEntity
  8
0
  6
Continuous
 62
     7
370
    25
100
AcDbEllipse
 10
38.7053475473
 20
97.2548089646
 30
0.0
 11
6.5
 21
-1.421085471520200E-14
 31
0.0
210
0.0
220
0.0
230
1.0
 40
0.124260355
 41
3.141592653589924
 42
4.274264664245604
  0
ELLIPSE
  5
2E2
330
1F
100
AcDbEntity
  8
0
  6
Continuous
 62
     7
370
    25
100
AcDbEllipse
 10
38.7053475473
 20
101.4957889937
 30
0.0
 11
6.5
 21
0.0
 31
0.0
210
0.0
220
0.0
230
1.0
 40
0.124260355
 41
2.008920642934003
 42
3.141592653589792
  0
LWPOLYLINE
  5
2E3
330
1F
100
AcDbEntity
  8
0
  6
Continuous
 62
     7
370
    25
100
AcDbPolyline
 90
        9
 70
   128
 43
0.0
 10
41.2819398309
 20
102.7262226823
 10
41.2956535492
 20
102.7243431008
 10
41.3385106111
 20
102.7038086153
 10
41.3774591257
 20
102.6620358593
 10
41.4107635209
 20
102.6008862548
 10
41.4369397303
 20
102.5230846696
 10
41.4548213245
 20
102.4320979947
 10
41.4636114875
 20
102.3319806576
 10
41.4629185238
 20
102.2271939544
  0
SPLINE
  5
2E4
330
1F
100
AcDbEntity
  8
0
  6
Continuous
 62
     7
370
    25
100
AcDbSpline
210
0.0
220
0.0
230
1.0
 70
     8
 71
     3
 72
    17
 73
    13
 74
     0
 42
0.00000001
 43
0.00000001
 40
0.0
 40
0.0
 40
0.0
 40
0.0
 40
0.0054761583687794
 40
0.0360029873829618
 40
0.0549794661565194
 40
0.0840410272509046
 40
0.1287668177754737
 40
0.1984374425838387
 40
0.3105269804448099
 40
0.662536357333607
 40
0.8965753082343018
 40
1.0
 40
1.0
 40
1.0
 40
1.0
 10
38.70534754728661
 20
101.7316636235793
 30
0.0
 10
38.7098613642444
 20
101.7342696772154
 30
0.0
 10
38.73953744079957
 20
101.7514031693203
 30
0.0
 10
38.78485635130311
 20
101.7775644024249
 30
0.0
 10
38.84960465129414
 20
101.8148951144336
 30
0.0
 10
38.92604036448762
 20
101.858881422996
 30
0.0
 10
39.0441896061906
 20
101.9265824889798
 30
0.0
 10
39.23051769266463
 20
102.0321738276456
 30
0.0
 10
39.66830595287926
 20
102.2743895502412
 30
0.0
 10
40.23536547534184
 20
102.5465585154498
 30
0.0
 10
40.77631781615456
 20
102.7221261847786
 30
0.0
 10
41.01822258026262
 20
102.719428013505
 30
0.0
 10
41.09236071694261
 20
102.7186010872913
 30
0.0
  0
LWPOLYLINE
  5
2E5
330
1F
100
AcDbEntity
  8
0
  6
Continuous
 62
     7
370
    25
100
AcDbPolyline
 90
        9
 70
   128
 43
0.0
 10
36.1287552637
 20
96.024375276
 10
36.1150415454
 20
96.0262548575
 10
36.0721844834
 20
96.046789343
 10
36.0332359689
 20
96.088562099
 10
35.9999315737
 20
96.1497117035
 10
35.9737553643
 20
96.2275132887
 10
35.9558737701
 20
96.3184999636
 10
35.947083607
 20
96.4186173007
 10
35.9477765707
 20
96.5234040039
  0
SPLINE
  5
2E6
330
1F
100
AcDbEntity
  8
0
  6
Continuous
 62
     7
370
    25
100
AcDbSpline
210
0.0
220
0.0
230
1.0
 70
     8
 71
     3
 72
    17
 73
    13
 74
     0
 42
0.00000001
 43
0.00000001
 40
0.0
 40
0.0
 40
0.0
 40
0.0
 40
0.0054761583687938
 40
0.0360029873829222
 40
0.0549794661565029
 40
0.084041027250904
 40
0.1287668177754605
 40
0.198437442583833
 40
0.3105269804448066
 40
0.6625363573336119
 40
0.8965753082343082
 40
0.9999999999999999
 40
0.9999999999999999
 40
0.9999999999999999
 40
0.9999999999999999
 10
38.70534754728661
 20
97.01893433470931
 30
0.0
 10
38.70083373032885
 20
97.01632828107324
 30
0.0
 10
38.6711576537739
 20
96.99919478896801
 30
0.0
 10
38.6258387432701
 20
96.97303355586388
 30
0.0
 10
38.56109044327915
 20
96.93570284385507
 30
0.0
 10
38.48465473008562
 20
96.8917165352927
 30
0.0
 10
38.36650548838265
 20
96.82401546930886
 30
0.0
 10
38.18017740190862
 20
96.71842413064306
 30
0.0
 10
37.74238914169398
 20
96.47620840804748
 30
0.0
 10
37.17532961923138
 20
96.20403944283889
 30
0.0
 10
36.63437727841869
 20
96.02847177351008
 30
0.0
 10
36.39247251431062
 20
96.03116994478363
 30
0.0
 10
36.31833437763062
 20
96.03199687099735
 30
0.0
  0
SPLINE
  5
2E7
330
1F
100
AcDbEntity
  8
0
  6
Continuous
 62
     7
370
    25
100
AcDbSpline
210
0.0
220
0.0
230
1.0
 70
     8
 71
     3
 72
    17
 73
    13
 74
     0
 42
0.00000001
 43
0.00000001
 40
0.0
 40
0.0
 40
0.0
 40
0.0
 40
0.1035706994008727
 40
0.3375715369680343
 40
0.6895235889938762
 40
0.8015948730303238
 40
0.8712541519505419
 40
0.9159726588628424
 40
0.9450294872707614
 40
0.9640028757174238
 40
0.9945247334257116
 40
0.9999999999999999
 40
0.9999999999999999
 40
0.9999999999999999
 40
0.9999999999999999
 10
41.09271436536859
 20
96.03198766757393
 30
0.0
 10
41.01846022651535
 20
96.03115651945332
 30
0.0
 10
40.77644116201232
 20
96.02844752984385
 30
0.0
 10
40.23536796620992
 20
96.2040297877418
 30
0.0
 10
39.66830572270229
 20
96.47620930025884
 30
0.0
 10
39.23051771171166
 20
96.71842405681296
 30
0.0
 10
39.04418960368516
 20
96.8240154790203
 30
0.0
 10
38.9260403648269
 20
96.89171653397761
 30
0.0
 10
38.84960465124915
 20
96.93570284402945
 30
0.0
 10
38.78485635132052
 20
96.97303355579672
 30
0.0
 10
38.73953744079865
 20
96.99919478897083
 30
0.0
 10
38.70986136424428
 20
97.01632828107363
 30
0.0
 10
38.70534754728661
 20
97.01893433470931
 30
0.0
  0
LWPOLYLINE
  5
2E8
330
1F
100
AcDbEntity
  8
0
  6
Continuous
 62
     7
370
    25
100
AcDbPolyline
 90
        9
 70
   128
 43
0.0
 10
41.2819211965
 20
96.0243741713
 10
41.2956535492
 20
96.0262548575
 10
41.3385106111
 20
96.046789343
 10
41.3774591257
 20
96.088562099
 10
41.4107635209
 20
96.1497117035
 10
41.4369397303
 20
96.2275132887
 10
41.4548213245
 20
96.3184999636
 10
41.4636114875
 20
96.4186173007
 10
41.4629185238
 20
96.5234040039
  0
ELLIPSE
  5
2E9
330
1F
100
AcDbEntity
  8
0
  6
Continuous
 62
     7
370
    25
100
AcDbEllipse
 10
67.7053475473
 20
97.2548089646
 30
0.0
 11
6.5
 21
-1.421085471520200E-14
 31
0.0
210
0.0
220
0.0
230
1.0
 40
0.124260355
 41
5.15051329652383
 42
6.283185307179586
  0
ELLIPSE
  5
2EA
330
1F
100
AcDbEntity
  8
0
  6
Continuous
 62
     7
370
    25
100
AcDbEllipse
 10
67.7053475473
 20
101.4957889937
 30
0.0
 11
6.5
 21
0.0
 31
0.0
210
0.0
220
0.0
230
1.0
 40
0.124260355
 41
0.0
 42
1.132672010655786
  0
LWPOLYLINE
  5
2EB
330
1F
100
AcDbEntity
  8
0
  6
Continuous
 62
     7
370
    25
100
AcDbPolyline
 90
        9
 70
   128
 43
0.0
 10
64.9477765707
 20
102.2271939544
 10
64.947083607
 20
102.3319806576
 10
64.9558737701
 20
102.4320979947
 10
64.9737553643
 20
102.5230846696
 10
64.9999315737
 20
102.6008862548
 10
65.0332359689
 20
102.6620358593
 10
65.0721844834
 20
102.7038086153
 10
65.1150415454
 20
102.7243431008
 10
65.1286421044
 20
102.7262158906
  0
SPLINE
  5
2EC
330
1F
100
AcDbEntity
  8
0
  6
Continuous
 62
     7
370
    25
100
AcDbSpline
210
0.0
220
0.0
230
1.0
 70
     8
 71
     3
 72
    17
 73
    13
 74
     0
 42
0.00000001
 43
0.00000001
 40
0.0
 40
0.0
 40
0.0
 40
0.0
 40
0.1035706994008821
 40
0.3375715369680391
 40
0.6895235889938793
 40
0.801594873030316
 40
0.8712541519505383
 40
0.9159726588628415
 40
0.9450294872707634
 40
0.9640028757174791
 40
0.9945247334257254
 40
1.0
 40
1.0
 40
1.0
 40
1.0
 10
65.31798072920462
 20
102.7186102907147
 30
0.0
 10
65.39223486805787
 20
102.7194414388353
 30
0.0
 10
65.63425393256091
 20
102.7221504284448
 30
0.0
 10
66.1753271283633
 20
102.5465681705469
 30
0.0
 10
66.74238937187096
 20
102.2743886580298
 30
0.0
 10
67.18017738286157
 20
102.0321739014757
 30
0.0
 10
67.36650549088804
 20
101.9265824792683
 30
0.0
 10
67.48465472974638
 20
101.8588814243111
 30
0.0
 10
67.56109044332408
 20
101.8148951142591
 30
0.0
 10
67.62583874325279
 20
101.7775644024919
 30
0.0
 10
67.67115765377442
 20
101.7514031693174
 30
0.0
 10
67.70083373032892
 20
101.734269677215
 30
0.0
 10
67.70534754728662
 20
101.7316636235793
 30
0.0
  0
LWPOLYLINE
  5
2ED
330
1F
100
AcDbEntity
  8
0
  6
Continuous
 62
     7
370
    25
100
AcDbPolyline
 90
        9
 70
   128
 43
0.0
 10
70.4629185238
 20
102.2271939544
 10
70.4636114875
 20
102.3319806576
 10
70.4548213245
 20
102.4320979947
 10
70.4369397303
 20
102.5230846696
 10
70.4107635209
 20
102.6008862548
 10
70.3774591257
 20
102.6620358593
 10
70.3385106111
 20
102.7038086153
 10
70.2956535492
 20
102.7243431008
 10
70.2820741865
 20
102.7262146025
  0
SPLINE
  5
2EE
330
1F
100
AcDbEntity
  8
0
  6
Continuous
 62
     7
370
    25
100
AcDbSpline
210
0.0
220
0.0
230
1.0
 70
     8
 71
     3
 72
    17
 73
    13
 74
     0
 42
0.00000001
 43
0.00000001
 40
0.0
 40
0.0
 40
0.0
 40
0.0
 40
0.0054761583687798
 40
0.0360029873829199
 40
0.0549794661565323
 40
0.0840410272509016
 40
0.128766817775464
 40
0.1984374425838419
 40
0.3105269804448062
 40
0.6625363573336129
 40
0.8965753082343044
 40
1.0
 40
1.0
 40
1.0
 40
1.0
 10
67.70534754728662
 20
101.7316636235793
 30
0.0
 10
67.7098613642444
 20
101.7342696772154
 30
0.0
 10
67.73953744079954
 20
101.7514031693203
 30
0.0
 10
67.78485635130313
 20
101.7775644024248
 30
0.0
 10
67.84960465129417
 20
101.8148951144335
 30
0.0
 10
67.9260403644876
 20
101.858881422996
 30
0.0
 10
68.0441896061906
 20
101.9265824889798
 30
0.0
 10
68.23051769266463
 20
102.0321738276456
 30
0.0
 10
68.66830595287925
 20
102.2743895502412
 30
0.0
 10
69.23536547534185
 20
102.5465585154497
 30
0.0
 10
69.77631781615456
 20
102.7221261847786
 30
0.0
 10
70.01822258026262
 20
102.719428013505
 30
0.0
 10
70.09236071694261
 20
102.7186010872913
 30
0.0
  0
LWPOLYLINE
  5
2EF
330
1F
100
AcDbEntity
  8
0
  6
Continuous
 62
     7
370
    25
100
AcDbPolyline
 90
        9
 70
   128
 43
0.0
 10
65.1287552637
 20
96.024375276
 10
65.1150415454
 20
96.0262548575
 10
65.0721844834
 20
96.046789343
 10
65.0332359689
 20
96.088562099
 10
64.9999315737
 20
96.1497117035
 10
64.9737553643
 20
96.2275132887
 10
64.9558737701
 20
96.3184999636
 10
64.947083607
 20
96.4186173007
 10
64.9477765707
 20
96.5234040039
  0
SPLINE
  5
2F0
330
1F
100
AcDbEntity
  8
0
  6
Continuous
 62
     7
370
    25
100
AcDbSpline
210
0.0
220
0.0
230
1.0
 70
     8
 71
     3
 72
    17
 73
    13
 74
     0
 42
0.00000001
 43
0.00000001
 40
0.0
 40
0.0
 40
0.0
 40
0.0
 40
0.005476158368794
 40
0.0360029873829781
 40
0.0549794661565182
 40
0.0840410272509045
 40
0.1287668177754747
 40
0.1984374425838425
 40
0.3105269804448066
 40
0.6625363573336138
 40
0.8965753082343086
 40
1.0
 40
1.0
 40
1.0
 40
1.0
 10
67.70534754728662
 20
97.01893433470931
 30
0.0
 10
67.70083373032885
 20
97.01632828107324
 30
0.0
 10
67.67115765377383
 20
96.999194788968
 30
0.0
 10
67.62583874327007
 20
96.97303355586381
 30
0.0
 10
67.5610904432791
 20
96.93570284385503
 30
0.0
 10
67.48465473008562
 20
96.89171653529267
 30
0.0
 10
67.36650548838263
 20
96.82401546930885
 30
0.0
 10
67.1801774019086
 20
96.71842413064306
 30
0.0
 10
66.74238914169398
 20
96.47620840804747
 30
0.0
 10
66.17532961923138
 20
96.20403944283889
 30
0.0
 10
65.63437727841868
 20
96.02847177351008
 30
0.0
 10
65.39247251431061
 20
96.03116994478363
 30
0.0
 10
65.31833437763062
 20
96.03199687099733
 30
0.0
  0
LWPOLYLINE
  5
2F1
330
1F
100
AcDbEntity
  8
0
  6
Continuous
 62
     7
370
    25
100
AcDbPolyline
 90
        9
 70
   128
 43
0.0
 10
70.4629185238
 20
96.5234040039
 10
70.4636114875
 20
96.4186173007
 10
70.4548213245
 20
96.3184999636
 10
70.4369397303
 20
96.2275132887
 10
70.4107635209
 20
96.1497117035
 10
70.3774591257
 20
96.088562099
 10
70.3385106111
 20
96.046789343
 10
70.2956535492
 20
96.0262548575
 10
70.2820529902
 20
96.0243820677
  0
SPLINE
  5
2F2
330
1F
100
AcDbEntity
  8
0
  6
Continuous
 62
     7
370
    25
100
AcDbSpline
210
0.0
220
0.0
230
1.0
 70
     8
 71
     3
 72
    17
 73
    13
 74
     0
 42
0.00000001
 43
0.00000001
 40
0.0
 40
0.0
 40
0.0
 40
0.0
 40
0.1035706994008717
 40
0.3375715369680314
 40
0.6895235889938757
 40
0.8015948730303124
 40
0.8712541519505272
 40
0.9159726588628463
 40
0.9450294872707709
 40
0.9640028757174701
 40
0.9945247334257116
 40
1.0
 40
1.0
 40
1.0
 40
1.0
 10
70.09271436536858
 20
96.03198766757393
 30
0.0
 10
70.01846022651536
 20
96.03115651945332
 30
0.0
 10
69.77644116201232
 20
96.02844752984385
 30
0.0
 10
69.23536796620994
 20
96.2040297877418
 30
0.0
 10
68.66830572270231
 20
96.47620930025884
 30
0.0
 10
68.23051771171167
 20
96.71842405681296
 30
0.0
 10
68.0441896036852
 20
96.82401547902029
 30
0.0
 10
67.9260403648269
 20
96.89171653397761
 30
0.0
 10
67.84960465124914
 20
96.93570284402952
 30
0.0
 10
67.78485635132044
 20
96.9730335557967
 30
0.0
 10
67.73953744079893
 20
96.99919478897138
 30
0.0
 10
67.70986136424433
 20
97.0163282810737
 30
0.0
 10
67.70534754728662
 20
97.01893433470931
 30
0.0
  0
ARC
  5
2F3
330
1F
100
AcDbEntity
  8
0
  6
Continuous
 62
     7
370
    25
100
AcDbCircle
 10
43.7925935971
 20
101.9834357687
 30
0.0
 40
0.4427358893435512
100
AcDbArc
 50
351.9127428126
 51
74.3423273722
  0
ARC
  5
2F4
330
1F
100
AcDbEntity
  8
0
  6
Continuous
 62
     7
370
    25
100
AcDbCircle
 10
62.6303876862
 20
101.975425807
 30
0.0
 40
0.4538758251565029
100
AcDbArc
 50
106.8913082299
 51
186.8678782997
  0
ARC
  5
2F5
330
1F
100
AcDbEntity
  8
0
  6
Continuous
 62
     7
370
    25
100
AcDbCircle
 10
43.7803074084
 20
96.7751721513
 30
0.0
 40
0.4538758251565598
100
AcDbArc
 50
286.8913082299
 51
6.8678782997
  0
ARC
  5
2F6
330
1F
100
AcDbEntity
  8
0
  6
Continuous
 62
     7
370
    25
100
AcDbCircle
 10
62.6181014975
 20
96.7671621896
 30
0.0
 40
0.4427358893436337
100
AcDbArc
 50
171.9127428126
 51
254.3423273721
  0
MTEXT
  5
2F8
330
1F
100
AcDbEntity
  8
0
  6
Continuous
 62
     7
370
     0
100
AcDbMText
 10
65.1297824878
 20
83.8594821368
 30
0.0
 40
3.5
 41
0.0
 71
     1
 72
     1
  1
エースボール アングル BR-5310
  7
SLDTEXTSTYLE0
 73
     1
 44
1.0
  0
INSERT
  5
304
330
1F
100
AcDbEntity
  8
0
  6
Continuous
 62
     7
370
    18
100
AcDbBlockReference
  2
SW_CENTERMARKSYMBOL_1
 10
53.2053475473
 20
99.3752989791
 30
0.0
  0
ENDSEC
  0
SECTION
  2
OBJECTS
  0
DICTIONARY
  5
C
330
0
100
AcDbDictionary
281
     1
  3
ACAD_GROUP
350
D
  3
ACAD_LAYOUT
350
1A
  3
ACAD_MLINESTYLE
350
17
  3
ACAD_PLOTSETTINGS
350
19
  3
ACAD_PLOTSTYLENAME
350
E
  3
ACAD_SCALELIST
350
47
  3
DWGPROPS
350
305
  0
DICTIONARY
  5
D
102
{ACAD_REACTORS
330
C
102
}
330
C
100
AcDbDictionary
281
     1
  0
DICTIONARY
  5
1A
102
{ACAD_REACTORS
330
C
102
}
330
C
100
AcDbDictionary
281
     1
  3
Layout1
350
1E
  3
Layout2
350
26
  3
Model
350
22
  0
DICTIONARY
  5
17
102
{ACAD_REACTORS
330
C
102
}
330
C
100
AcDbDictionary
281
     1
  3
Standard
350
18
  0
DICTIONARY
  5
19
102
{ACAD_REACTORS
330
C
102
}
330
C
100
AcDbDictionary
281
     1
  0
ACDBDICTIONARYWDFLT
  5
E
102
{ACAD_REACTORS
330
C
102
}
330
C
100
AcDbDictionary
281
     1
  3
Normal
350
F
100
AcDbDictionaryWithDefault
340
F
  0
DICTIONARY
  5
47
102
{ACAD_REACTORS
330
C
102
}
330
C
100
AcDbDictionary
281
     1
  3
A0
350
48
  3
A1
350
49
  3
A2
350
4A
  3
A3
350
4B
  3
A4
350
4C
  3
A5
350
4D
  3
A6
350
4E
  3
A7
350
4F
  3
A8
350
50
  3
A9
350
51
  3
B0
350
52
  3
B1
350
53
  3
B2
350
54
  3
B3
350
55
  3
B4
350
56
  3
B5
350
57
  3
B6
350
58
  0
XRECORD
  5
305
102
{ACAD_REACTORS
330
C
102
}
330
C
100
AcDbXrecord
280
     1
  1
DWGPROPS COOKIE
  2

  3

  4

  6

  7

  8
user52
  9

300
=
301
=
302
=
303
=
304
=
305
=
306
=
307
=
308
=
309
=
 40
0.0
 41
2460389.35941632
 42
2460389.359416968
  1

 90
        0
  0
LAYOUT
  5
1E
102
{ACAD_REACTORS
330
1A
102
}
330
1A
100
AcDbPlotSettings
  1

  2
none_device
  4

  6

 40
0.0
 41
0.0
 42
0.0
 43
0.0
 44
0.0
 45
0.0
 46
0.0
 47
0.0
 48
0.0
 49
0.0
140
0.0
141
0.0
142
1.0
143
1.0
 70
   688
 72
     1
 73
     0
 74
     5
  7

 75
    16
147
1.0
148
0.0
149
0.0
100
AcDbLayout
  1
Layout1
 70
     1
 71
     1
 10
0.0
 20
0.0
 11
420.0
 21
297.0
 12
0.0
 22
0.0
 32
0.0
 14
1.0000000000E+20
 24
1.0000000000E+20
 34
1.0000000000E+20
 15
-1.0000000000E+20
 25
-1.0000000000E+20
 35
-1.0000000000E+20
146
0.0
 13
0.0
 23
0.0
 33
0.0
 16
1.0
 26
0.0
 36
0.0
 17
0.0
 27
1.0
 37
0.0
 76
     0
330
1B
  0
LAYOUT
  5
26
102
{ACAD_REACTORS
330
1A
102
}
330
1A
100
AcDbPlotSettings
  1

  2
none_device
  4

  6

 40
0.0
 41
0.0
 42
0.0
 43
0.0
 44
0.0
 45
0.0
 46
0.0
 47
0.0
 48
0.0
 49
0.0
140
0.0
141
0.0
142
1.0
143
1.0
 70
   688
 72
     1
 73
     0
 74
     5
  7

 75
    16
147
1.0
148
0.0
149
0.0
100
AcDbLayout
  1
Layout2
 70
     1
 71
     2
 10
0.0
 20
0.0
 11
0.0
 21
0.0
 12
0.0
 22
0.0
 32
0.0
 14
0.0
 24
0.0
 34
0.0
 15
0.0
 25
0.0
 35
0.0
146
0.0
 13
0.0
 23
0.0
 33
0.0
 16
1.0
 26
0.0
 36
0.0
 17
0.0
 27
1.0
 37
0.0
 76
     0
330
23
  0
LAYOUT
  5
22
102
{ACAD_REACTORS
330
1A
102
}
330
1A
100
AcDbPlotSettings
  1

  2
none_device
  4
Letter_(8.50_x_11.00_Inches)
  6

 40
6.35
 41
6.35
 42
6.35000508
 43
6.35000508
 44
215.9
 45
279.4
 46
0.0
 47
0.0
 48
0.0
 49
0.0
140
0.0
141
0.0
142
1.0
143
1.0
 70
  1712
 72
     1
 73
     0
 74
     0
  7

 75
     0
147
1.0
148
0.0
149
0.0
100
AcDbLayout
  1
Model
 70
     1
 71
     0
 10
0.0
 20
0.0
 11
431.8
 21
279.4
 12
0.0
 22
0.0
 32
0.0
 14
0.0
 24
0.0
 34
0.0
 15
431.8
 25
279.4
 35
0.0
146
0.0
 13
0.0
 23
0.0
 33
0.0
 16
1.0
 26
0.0
 36
0.0
 17
0.0
 27
1.0
 37
0.0
 76
     0
330
1F
331
29
  0
MLINESTYLE
  5
18
102
{ACAD_REACTORS
330
17
102
}
330
17
100
AcDbMlineStyle
  2
Standard
 70
     0
  3

 62
   256
 51
90.0
 52
90.0
 71
     2
 49
0.5
 62
   256
  6
BYLAYER
 49
-0.5
 62
   256
  6
BYLAYER
  0
ACDBPLACEHOLDER
  5
F
102
{ACAD_REACTORS
330
E
102
}
330
E
  0
SCALE
  5
48
102
{ACAD_REACTORS
330
47
102
}
330
47
100
AcDbScale
 70
     0
300
1:1
140
1.0
141
1.0
290
     1
  0
SCALE
  5
49
102
{ACAD_REACTORS
330
47
102
}
330
47
100
AcDbScale
 70
     0
300
1:2
140
1.0
141
2.0
290
     0
  0
SCALE
  5
4A
102
{ACAD_REACTORS
330
47
102
}
330
47
100
AcDbScale
 70
     0
300
1:4
140
1.0
141
4.0
290
     0
  0
SCALE
  5
4B
102
{ACAD_REACTORS
330
47
102
}
330
47
100
AcDbScale
 70
     0
300
1:5
140
1.0
141
5.0
290
     0
  0
SCALE
  5
4C
102
{ACAD_REACTORS
330
47
102
}
330
47
100
AcDbScale
 70
     0
300
1:8
140
1.0
141
8.0
290
     0
  0
SCALE
  5
4D
102
{ACAD_REACTORS
330
47
102
}
330
47
100
AcDbScale
 70
     0
300
1:10
140
1.0
141
10.0
290
     0
  0
SCALE
  5
4E
102
{ACAD_REACTORS
330
47
102
}
330
47
100
AcDbScale
 70
     0
300
1:16
140
1.0
141
16.0
290
     0
  0
SCALE
  5
4F
102
{ACAD_REACTORS
330
47
102
}
330
47
100
AcDbScale
 70
     0
300
1:20
140
1.0
141
20.0
290
     0
  0
SCALE
  5
50
102
{ACAD_REACTORS
330
47
102
}
330
47
100
AcDbScale
 70
     0
300
1:30
140
1.0
141
30.0
290
     0
  0
SCALE
  5
51
102
{ACAD_REACTORS
330
47
102
}
330
47
100
AcDbScale
 70
     0
300
1:40
140
1.0
141
40.0
290
     0
  0
SCALE
  5
52
102
{ACAD_REACTORS
330
47
102
}
330
47
100
AcDbScale
 70
     0
300
1:50
140
1.0
141
50.0
290
     0
  0
SCALE
  5
53
102
{ACAD_REACTORS
330
47
102
}
330
47
100
AcDbScale
 70
     0
300
1:100
140
1.0
141
100.0
290
     0
  0
SCALE
  5
54
102
{ACAD_REACTORS
330
47
102
}
330
47
100
AcDbScale
 70
     0
300
2:1
140
2.0
141
1.0
290
     0
  0
SCALE
  5
55
102
{ACAD_REACTORS
330
47
102
}
330
47
100
AcDbScale
 70
     0
300
4:1
140
4.0
141
1.0
290
     0
  0
SCALE
  5
56
102
{ACAD_REACTORS
330
47
102
}
330
47
100
AcDbScale
 70
     0
300
8:1
140
8.0
141
1.0
290
     0
  0
SCALE
  5
57
102
{ACAD_REACTORS
330
47
102
}
330
47
100
AcDbScale
 70
     0
300
10:1
140
10.0
141
1.0
290
     0
  0
SCALE
  5
58
102
{ACAD_REACTORS
330
47
102
}
330
47
100
AcDbScale
 70
     0
300
100:1
140
100.0
141
1.0
290
     0
  0
ENDSEC
  0
EOF
